  0
SECTION
  2
HEADER
  9
$ACADVER
  1
AC1015
  9
$ACADMAINTVER
 70
    20
  9
$DWGCODEPAGE
  3
ANSI_932
  9
$INSBASE
 10
0.0
 20
0.0
 30
0.0
  9
$EXTMIN
 10
1588.763073176757
 20
401.7565714667876
 30
-0.0000000000112498
  9
$EXTMAX
 10
1845.773862098841
 20
506.0683309581777
 30
0.0000000000002956
  9
$LIMMIN
 10
0.0
 20
0.0
  9
$LIMMAX
 10
420.0
 20
297.0
  9
$ORTHOMODE
 70
     0
  9
$REGENMODE
 70
     1
  9
$FILLMODE
 70
     1
  9
$QTEXTMODE
 70
     0
  9
$MIRRTEXT
 70
     1
  9
$LTSCALE
 40
1.0
  9
$ATTMODE
 70
     1
  9
$TEXTSIZE
 40
5.0
  9
$TRACEWID
 40
0.05
  9
$TEXTSTYLE
  7
ACAD
  9
$CLAYER
  8
0
  9
$CELTYPE
  6
CONTINUOUS
  9
$CECOLOR
 62
   256
  9
$CELTSCALE
 40
1.0
  9
$DISPSILH
 70
     0
  9
$DIMSCALE
 40
1.0
  9
$DIMASZ
 40
1.0
  9
$DIMEXO
 40
0.0
  9
$DIMDLI
 40
0.38
  9
$DIMRND
 40
0.0
  9
$DIMDLE
 40
0.0
  9
$DIMEXE
 40
0.0
  9
$DIMTP
 40
0.0
  9
$DIMTM
 40
0.0
  9
$DIMTXT
 40
5.0
  9
$DIMCEN
 40
0.09
  9
$DIMTSZ
 40
0.0
  9
$DIMTOL
 70
     0
  9
$DIMLIM
 70
     0
  9
$DIMTIH
 70
     0
  9
$DIMTOH
 70
     1
  9
$DIMSE1
 70
     0
  9
$DIMSE2
 70
     0
  9
$DIMTAD
 70
     1
  9
$DIMZIN
 70
     0
  9
$DIMBLK
  1
Dot
  9
$DIMASO
 70
     1
  9
$DIMSHO
 70
     1
  9
$DIMPOST
  1

  9
$DIMAPOST
  1

  9
$DIMALT
 70
     0
  9
$DIMALTD
 70
     2
  9
$DIMALTF
 40
25.4
  9
$DIMLFAC
 40
1.0
  9
$DIMTOFL
 70
     0
  9
$DIMTVP
 40
0.0
  9
$DIMTIX
 70
     1
  9
$DIMSOXD
 70
     0
  9
$DIMSAH
 70
     0
  9
$DIMBLK1
  1

  9
$DIMBLK2
  1

  9
$DIMSTYLE
  2
AutoCAD
  9
$DIMCLRD
 70
     4
  9
$DIMCLRE
 70
     4
  9
$DIMCLRT
 70
     3
  9
$DIMTFAC
 40
1.0
  9
$DIMGAP
 40
1.0
  9
$DIMJUST
 70
     0
  9
$DIMSD1
 70
     0
  9
$DIMSD2
 70
     0
  9
$DIMTOLJ
 70
     1
  9
$DIMTZIN
 70
     0
  9
$DIMALTZ
 70
     0
  9
$DIMALTTZ
 70
     0
  9
$DIMUPT
 70
     0
  9
$DIMDEC
 70
     0
  9
$DIMTDEC
 70
     0
  9
$DIMALTU
 70
     2
  9
$DIMALTTD
 70
     2
  9
$DIMTXSTY
  7
ACAD
  9
$DIMAUNIT
 70
     0
  9
$DIMADEC
 70
     0
  9
$DIMALTRND
 40
0.0
  9
$DIMAZIN
 70
     0
  9
$DIMDSEP
 70
    46
  9
$DIMATFIT
 70
     0
  9
$DIMFRAC
 70
     0
  9
$DIMLDRBLK
  1
None
  9
$DIMLUNIT
 70
     2
  9
$DIMLWD
 70
    -2
  9
$DIMLWE
 70
    -2
  9
$DIMTMOVE
 70
     0
  9
$LUNITS
 70
     2
  9
$LUPREC
 70
     4
  9
$SKETCHINC
 40
0.1
  9
$FILLETRAD
 40
0.0
  9
$AUNITS
 70
     0
  9
$AUPREC
 70
     0
  9
$MENU
  1
.
  9
$ELEVATION
 40
0.0
  9
$PELEVATION
 40
0.0
  9
$THICKNESS
 40
0.0
  9
$LIMCHECK
 70
     0
  9
$CHAMFERA
 40
0.0
  9
$CHAMFERB
 40
0.0
  9
$CHAMFERC
 40
0.0
  9
$CHAMFERD
 40
0.0
  9
$SKPOLY
 70
     0
  9
$TDCREATE
 40
2454316.693457674
  9
$TDUCREATE
 40
2454316.318457674
  9
$TDUPDATE
 40
2454736.424794560
  9
$TDUUPDATE
 40
2454736.049794560
  9
$TDINDWG
 40
0.2446821991
  9
$TDUSRTIMER
 40
0.2446821991
  9
$USRTIMER
 70
     1
  9
$ANGBASE
 50
0.0
  9
$ANGDIR
 70
     0
  9
$PDMODE
 70
     0
  9
$PDSIZE
 40
0.0
  9
$PLINEWID
 40
0.0
  9
$SPLFRAME
 70
     0
  9
$SPLINETYPE
 70
     6
  9
$SPLINESEGS
 70
     8
  9
$HANDSEED
  5
6EB6
  9
$SURFTAB1
 70
     6
  9
$SURFTAB2
 70
     6
  9
$SURFTYPE
 70
     6
  9
$SURFU
 70
     6
  9
$SURFV
 70
     6
  9
$UCSBASE
  2

  9
$UCSNAME
  2

  9
$UCSORG
 10
0.0
 20
0.0
 30
0.0
  9
$UCSXDIR
 10
1.0
 20
0.0
 30
0.0
  9
$UCSYDIR
 10
0.0
 20
1.0
 30
0.0
  9
$UCSORTHOREF
  2

  9
$UCSORTHOVIEW
 70
     0
  9
$UCSORGTOP
 10
0.0
 20
0.0
 30
0.0
  9
$UCSORGBOTTOM
 10
0.0
 20
0.0
 30
0.0
  9
$UCSORGLEFT
 10
0.0
 20
0.0
 30
0.0
  9
$UCSORGRIGHT
 10
0.0
 20
0.0
 30
0.0
  9
$UCSORGFRONT
 10
0.0
 20
0.0
 30
0.0
  9
$UCSORGBACK
 10
0.0
 20
0.0
 30
0.0
  9
$PUCSBASE
  2

  9
$PUCSNAME
  2

  9
$PUCSORG
 10
0.0
 20
0.0
 30
0.0
  9
$PUCSXDIR
 10
1.0
 20
0.0
 30
0.0
  9
$PUCSYDIR
 10
0.0
 20
1.0
 30
0.0
  9
$PUCSORTHOREF
  2

  9
$PUCSORTHOVIEW
 70
     0
  9
$PUCSORGTOP
 10
0.0
 20
0.0
 30
0.0
  9
$PUCSORGBOTTOM
 10
0.0
 20
0.0
 30
0.0
  9
$PUCSORGLEFT
 10
0.0
 20
0.0
 30
0.0
  9
$PUCSORGRIGHT
 10
0.0
 20
0.0
 30
0.0
  9
$PUCSORGFRONT
 10
0.0
 20
0.0
 30
0.0
  9
$PUCSORGBACK
 10
0.0
 20
0.0
 30
0.0
  9
$USERI1
 70
     0
  9
$USERI2
 70
     0
  9
$USERI3
 70
     0
  9
$USERI4
 70
     0
  9
$USERI5
 70
     0
  9
$USERR1
 40
0.0
  9
$USERR2
 40
0.0
  9
$USERR3
 40
0.0
  9
$USERR4
 40
0.0
  9
$USERR5
 40
0.0
  9
$WORLDVIEW
 70
     1
  9
$SHADEDGE
 70
     3
  9
$SHADEDIF
 70
    70
  9
$TILEMODE
 70
     1
  9
$MAXACTVP
 70
    48
  9
$PINSBASE
 10
0.0
 20
0.0
 30
0.0
  9
$PLIMCHECK
 70
     0
  9
$PEXTMIN
 10
1.000000000000000E+20
 20
1.000000000000000E+20
 30
1.000000000000000E+20
  9
$PEXTMAX
 10
-1.000000000000000E+20
 20
-1.000000000000000E+20
 30
-1.000000000000000E+20
  9
$PLIMMIN
 10
0.0
 20
0.0
  9
$PLIMMAX
 10
12.0
 20
9.0
  9
$UNITMODE
 70
     0
  9
$VISRETAIN
 70
     0
  9
$PLINEGEN
 70
     0
  9
$PSLTSCALE
 70
     1
  9
$TREEDEPTH
 70
  3020
  9
$CMLSTYLE
  2
Standard
  9
$CMLJUST
 70
     0
  9
$CMLSCALE
 40
1.0
  9
$PROXYGRAPHICS
 70
     1
  9
$MEASUREMENT
 70
     0
  9
$CELWEIGHT
370
    -1
  9
$ENDCAPS
280
     0
  9
$JOINSTYLE
280
     0
  9
$LWDISPLAY
290
     0
  9
$INSUNITS
 70
     0
  9
$HYPERLINKBASE
  1

  9
$STYLESHEET
  1

  9
$XEDIT
290
     1
  9
$CEPSNTYPE
380
     0
  9
$PSTYLEMODE
290
     1
  9
$FINGERPRINTGUID
  2
{CC7D6DEE-A9F1-4F3E-AC95-C84B62CCA3FD}
  9
$VERSIONGUID
  2
{F46B481D-45AA-42E3-87AD-257BFBE14481}
  9
$EXTNAMES
290
     1
  9
$PSVPSCALE
 40
0.0
  9
$OLESTARTUP
290
     0
  0
ENDSEC
  0
SECTION
  2
CLASSES
  0
CLASS
  1
ACDBDICTIONARYWDFLT
  2
AcDbDictionaryWithDefault
  3
ObjectDBX Classes
 90
        0
280
     0
281
     0
  0
CLASS
  1
ACDBPLACEHOLDER
  2
AcDbPlaceHolder
  3
ObjectDBX Classes
 90
        0
280
     0
281
     0
  0
CLASS
  1
LAYOUT
  2
AcDbLayout
  3
ObjectDBX Classes
 90
        0
280
     0
281
     0
  0
CLASS
  1
DICTIONARYVAR
  2
AcDbDictionaryVar
  3
ObjectDBX Classes
 90
        0
280
     0
281
     0
  0
CLASS
  1
MATERIAL
  2
AcDbMaterial
  3
ObjectDBX Classes
 90
     1153
280
     0
281
     0
  0
CLASS
  1
VISUALSTYLE
  2
AcDbVisualStyle
  3
ObjectDBX Classes
 90
     4095
280
     0
281
     0
  0
CLASS
  1
TABLESTYLE
  2
AcDbTableStyle
  3
ObjectDBX Classes
 90
     4095
280
     0
281
     0
  0
ENDSEC
  0
SECTION
  2
TABLES
  0
TABLE
  2
VPORT
  5
8
102
{ACAD_XDICTIONARY
360
6E6D
102
}
330
0
100
AcDbSymbolTable
 70
     1
  0
VPORT
  5
6E03
330
8
100
AcDbSymbolTableRecord
100
AcDbViewportTableRecord
  2
*Active
 70
     0
 10
0.0
 20
0.0
 11
1.0
 21
1.0
 12
1717.268467637799
 22
453.9124512124827
 13
0.0
 23
0.0
 14
1.0
 24
1.0
 15
0.0
 25
0.0
 16
0.0
 26
0.0
 36
1.0
 17
0.0
 27
0.0
 37
0.0
 40
164.3448282750947
 41
1.571614583333333
 42
50.0
 43
0.0
 44
0.0
 50
0.0
 51
0.0
 71
     0
 72
   100
 73
     1
 74
     1
 75
     0
 76
     0
 77
     0
 78
     0
281
     0
 65
     1
110
0.0
120
0.0
130
0.0
111
1.0
121
0.0
131
0.0
112
0.0
122
1.0
132
0.0
 79
     0
146
0.0
  0
ENDTAB
  0
TABLE
  2
LTYPE
  5
5
330
0
100
AcDbSymbolTable
 70
    51
  0
LTYPE
  5
13
330
5
100
AcDbSymbolTableRecord
100
AcDbLinetypeTableRecord
  2
ByBlock
 70
     0
  3

 72
    65
 73
     0
 40
0.0
  0
LTYPE
  5
14
330
5
100
AcDbSymbolTableRecord
100
AcDbLinetypeTableRecord
  2
ByLayer
 70
     0
  3

 72
    65
 73
     0
 40
0.0
  0
LTYPE
  5
15
330
5
100
AcDbSymbolTableRecord
100
AcDbLinetypeTableRecord
  2
CONTINUOUS
 70
     0
  3
実線
 72
    65
 73
     0
 40
0.0
  0
LTYPE
  5
22
330
5
100
AcDbSymbolTableRecord
100
AcDbLinetypeTableRecord
  2
DASHED1
 70
     0
  3
--  --  --  --  --  --  --  --  
 72
    65
 73
     2
 40
2.5
 49
1.25
 74
     0
 49
-1.25
 74
     0
  0
LTYPE
  5
23
330
5
100
AcDbSymbolTableRecord
100
AcDbLinetypeTableRecord
  2
DASHED2
 70
     0
  3
----    ----    ----    ----    
 72
    65
 73
     2
 40
5.0
 49
2.5
 74
     0
 49
-2.5
 74
     0
  0
LTYPE
  5
24
330
5
100
AcDbSymbolTableRecord
100
AcDbLinetypeTableRecord
  2
DASHED3
 70
     0
  3
------  ------  ------  ------  
 72
    65
 73
     2
 40
5.0
 49
3.75
 74
     0
 49
-1.25
 74
     0
  0
LTYPE
  5
25
330
5
100
AcDbSymbolTableRecord
100
AcDbLinetypeTableRecord
  2
CENTER1
 70
     0
  3
----- - ----- - ----- - ----- - 
 72
    65
 73
     4
 40
10.0
 49
6.25
 74
     0
 49
-1.25
 74
     0
 49
1.25
 74
     0
 49
-1.25
 74
     0
  0
LTYPE
  5
26
330
5
100
AcDbSymbolTableRecord
100
AcDbLinetypeTableRecord
  2
CENTER2
 70
     0
  3
----------  --  ----------  --  
 72
    65
 73
     4
 40
20.0
 49
12.5
 74
     0
 49
-2.5
 74
     0
 49
2.5
 74
     0
 49
-2.5
 74
     0
  0
LTYPE
  5
27
330
5
100
AcDbSymbolTableRecord
100
AcDbLinetypeTableRecord
  2
PHANTOM1
 70
     0
  3
--- - - --- - - --- - - --- - - 
 72
    65
 73
     6
 40
10.0
 49
3.25
 74
     0
 49
-1.25
 74
     0
 49
1.25
 74
     0
 49
-1.25
 74
     0
 49
1.25
 74
     0
 49
-1.25
 74
     0
  0
LTYPE
  5
28
330
5
100
AcDbSymbolTableRecord
100
AcDbLinetypeTableRecord
  2
PHANTOM2
 70
     0
  3
--------  -  -  --------  -  -  
 72
    65
 73
     6
 40
20.0
 49
10.0
 74
     0
 49
-2.5
 74
     0
 49
1.25
 74
     0
 49
-2.5
 74
     0
 49
1.25
 74
     0
 49
-2.5
 74
     0
  0
LTYPE
  5
29
330
5
100
AcDbSymbolTableRecord
100
AcDbLinetypeTableRecord
  2
DOT
 70
     0
  3
-   -   -   -   -   -   -   -   
 72
    65
 73
     2
 40
2.5
 49
0.625
 74
     0
 49
-1.875
 74
     0
  0
LTYPE
  5
2A
330
5
100
AcDbSymbolTableRecord
100
AcDbLinetypeTableRecord
  2
DUMMY
 70
     0
  3
ダミー
 72
    65
 73
     0
 40
0.0
  0
LTYPE
  5
2B
330
5
100
AcDbSymbolTableRecord
100
AcDbLinetypeTableRecord
  2
RAND1
 70
     0
  3
ランダム線1
 72
    65
 73
     4
 40
10.0
 49
1.0
 74
     0
 49
-2.0
 74
     0
 49
3.0
 74
     0
 49
-4.0
 74
     0
  0
LTYPE
  5
2C
330
5
100
AcDbSymbolTableRecord
100
AcDbLinetypeTableRecord
  2
RAND2
 70
     0
  3
ランダム線2
 72
    65
 73
     4
 40
14.0
 49
2.0
 74
     0
 49
-3.0
 74
     0
 49
4.0
 74
     0
 49
-5.0
 74
     0
  0
LTYPE
  5
2D
330
5
100
AcDbSymbolTableRecord
100
AcDbLinetypeTableRecord
  2
RAND3
 70
     0
  3
ランダム線3
 72
    65
 73
     4
 40
18.0
 49
3.0
 74
     0
 49
-4.0
 74
     0
 49
5.0
 74
     0
 49
-6.0
 74
     0
  0
LTYPE
  5
2E
330
5
100
AcDbSymbolTableRecord
100
AcDbLinetypeTableRecord
  2
RAND4
 70
     0
  3
ランダム線4
 72
    65
 73
     4
 40
22.0
 49
4.0
 74
     0
 49
-5.0
 74
     0
 49
6.0
 74
     0
 49
-7.0
 74
     0
  0
LTYPE
  5
2F
330
5
100
AcDbSymbolTableRecord
100
AcDbLinetypeTableRecord
  2
RAND5
 70
     0
  3
ランダム線5
 72
    65
 73
     4
 40
26.0
 49
5.0
 74
     0
 49
-6.0
 74
     0
 49
7.0
 74
     0
 49
-8.0
 74
     0
  0
LTYPE
  5
30
330
5
100
AcDbSymbolTableRecord
100
AcDbLinetypeTableRecord
  2
LONG1
 70
     0
  3
----------  --  ----------  --  
 72
    65
 73
     4
 40
40.0
 49
32.5
 74
     0
 49
-2.5
 74
     0
 49
2.5
 74
     0
 49
-2.5
 74
     0
  0
LTYPE
  5
31
330
5
100
AcDbSymbolTableRecord
100
AcDbLinetypeTableRecord
  2
LONG2
 70
     0
  3
--------  -  -  --------  -  -  
 72
    65
 73
     6
 40
40.0
 49
30.0
 74
     0
 49
-2.5
 74
     0
 49
1.25
 74
     0
 49
-2.5
 74
     0
 49
1.25
 74
     0
 49
-2.5
 74
     0
  0
LTYPE
  5
32
330
5
100
AcDbSymbolTableRecord
100
AcDbLinetypeTableRecord
  2
LONG3
 70
     0
  3
+++++++++++++++..+++++++++++++++
 72
    65
 73
     2
 40
40.0
 49
37.5
 74
     0
 49
-2.5
 74
     0
  0
LTYPE
  5
33
330
5
100
AcDbSymbolTableRecord
100
AcDbLinetypeTableRecord
  2
LONG4
 70
     0
  3
+++++++++++++++..+++++++++++++++
 72
    65
 73
     2
 40
80.0
 49
75.0
 74
     0
 49
-5.0
 74
     0
  0
LTYPE
  5
34
330
5
100
AcDbSymbolTableRecord
100
AcDbLinetypeTableRecord
  2
LONG5
 70
     0
  3
----------  --  ----------  --  
 72
    65
 73
     4
 40
60.0
 49
37.5
 74
     0
 49
-7.5
 74
     0
 49
7.5
 74
     0
 49
-7.5
 74
     0
  0
LTYPE
  5
35
330
5
100
AcDbSymbolTableRecord
100
AcDbLinetypeTableRecord
  2
DASHED
 70
     0
  3
-------   -------------   ------
 72
    65
 73
     2
 40
7.5
 49
6.0
 74
     0
 49
-1.5
 74
     0
  0
LTYPE
  5
36
330
5
100
AcDbSymbolTableRecord
100
AcDbLinetypeTableRecord
  2
DASHED_SPACED
 70
     0
  3
----        --------        ----
 72
    65
 73
     2
 40
12.0
 49
6.0
 74
     0
 49
-6.0
 74
     0
  0
LTYPE
  5
37
330
5
100
AcDbSymbolTableRecord
100
AcDbLinetypeTableRecord
  2
LONG_DASHED_DOTTED
 70
     0
  3
------------- --- --------------
 72
    65
 73
     4
 40
15.25
 49
12.0
 74
     0
 49
-1.5
 74
     0
 49
0.25
 74
     0
 49
-1.5
 74
     0
  0
LTYPE
  5
38
330
5
100
AcDbSymbolTableRecord
100
AcDbLinetypeTableRecord
  2
LONG_DASHED_DOUBLE-DOTTED
 70
     0
  3
----------- --- --- ------------
 72
    65
 73
     6
 40
17.0
 49
12.0
 74
     0
 49
-1.5
 74
     0
 49
0.25
 74
     0
 49
-1.5
 74
     0
 49
0.25
 74
     0
 49
-1.5
 74
     0
  0
LTYPE
  5
39
330
5
100
AcDbSymbolTableRecord
100
AcDbLinetypeTableRecord
  2
LONG_DASHED_TRIPLICATE-DOTTED
 70
     0
  3
--------- --- --- --- ----------
 72
    65
 73
     8
 40
18.75
 49
12.0
 74
     0
 49
-1.5
 74
     0
 49
0.25
 74
     0
 49
-1.5
 74
     0
 49
0.25
 74
     0
 49
-1.5
 74
     0
 49
0.25
 74
     0
 49
-1.5
 74
     0
  0
LTYPE
  5
3A
330
5
100
AcDbSymbolTableRecord
100
AcDbLinetypeTableRecord
  2
DOTTED
 70
     0
  3
   -       -       -       -    
 72
    65
 73
     2
 40
1.75
 49
0.25
 74
     0
 49
-1.5
 74
     0
  0
LTYPE
  5
3B
330
5
100
AcDbSymbolTableRecord
100
AcDbLinetypeTableRecord
  2
CHAIN
 70
     0
  3
-------------- -- --------------
 72
    65
 73
     4
 40
18.5
 49
12.0
 74
     0
 49
-1.5
 74
     0
 49
3.5
 74
     0
 49
-1.5
 74
     0
  0
LTYPE
  5
3C
330
5
100
AcDbSymbolTableRecord
100
AcDbLinetypeTableRecord
  2
CHAIN_DOUBLE_DASH
 70
     0
  3
------------ -- -- -------------
 72
    65
 73
     6
 40
23.5
 49
12.0
 74
     0
 49
-1.5
 74
     0
 49
3.5
 74
     0
 49
-1.5
 74
     0
 49
3.5
 74
     0
 49
-1.5
 74
     0
  0
LTYPE
  5
3D
330
5
100
AcDbSymbolTableRecord
100
AcDbLinetypeTableRecord
  2
DASHED_DOTTED
 70
     0
  3
-----------     -     ----------
 72
    65
 73
     4
 40
9.25
 49
6.0
 74
     0
 49
-1.5
 74
     0
 49
0.25
 74
     0
 49
-1.5
 74
     0
  0
LTYPE
  5
3E
330
5
100
AcDbSymbolTableRecord
100
AcDbLinetypeTableRecord
  2
DOUBLE-DASHED_DOTTED
 70
     0
  3
------   -----------   -   -----
 72
    65
 73
     6
 40
16.75
 49
6.0
 74
     0
 49
-1.5
 74
     0
 49
6.0
 74
     0
 49
-1.5
 74
     0
 49
0.25
 74
     0
 49
-1.5
 74
     0
  0
LTYPE
  5
3F
330
5
100
AcDbSymbolTableRecord
100
AcDbLinetypeTableRecord
  2
DASHED_DOUBLE-DOTTED
 70
     0
  3
---------    -    -    ---------
 72
    65
 73
     6
 40
11.0
 49
6.0
 74
     0
 49
-1.5
 74
     0
 49
0.25
 74
     0
 49
-1.5
 74
     0
 49
0.25
 74
     0
 49
-1.5
 74
     0
  0
LTYPE
  5
40
330
5
100
AcDbSymbolTableRecord
100
AcDbLinetypeTableRecord
  2
DOUBLE-DASHED_DOUBLE-DOTTED
 70
     0
  3
-----   ---------   -   -   ----
 72
    65
 73
     8
 40
18.5
 49
6.0
 74
     0
 49
-1.5
 74
     0
 49
6.0
 74
     0
 49
-1.5
 74
     0
 49
0.25
 74
     0
 49
-1.5
 74
     0
 49
0.25
 74
     0
 49
-1.5
 74
     0
  0
LTYPE
  5
41
330
5
100
AcDbSymbolTableRecord
100
AcDbLinetypeTableRecord
  2
DASHED_TRIPLICATE-DOTTED
 70
     0
  3
-------    -    -    -    ------
 72
    65
 73
     8
 40
12.75
 49
6.0
 74
     0
 49
-1.5
 74
     0
 49
0.25
 74
     0
 49
-1.5
 74
     0
 49
0.25
 74
     0
 49
-1.5
 74
     0
 49
0.25
 74
     0
 49
-1.5
 74
     0
  0
LTYPE
  5
42
330
5
100
AcDbSymbolTableRecord
100
AcDbLinetypeTableRecord
  2
DOUBLE-DASHED_TRIPLICATE-DOTTED
 70
     0
  3
-----  ---------  -  -  -  -----
 72
    65
 73
    10
 40
20.25
 49
6.0
 74
     0
 49
-1.5
 74
     0
 49
6.0
 74
     0
 49
-1.5
 74
     0
 49
0.25
 74
     0
 49
-1.5
 74
     0
 49
0.25
 74
     0
 49
-1.5
 74
     0
 49
0.25
 74
     0
 49
-1.5
 74
     0
  0
LTYPE
  5
43
330
5
100
AcDbSymbolTableRecord
100
AcDbLinetypeTableRecord
  2
UNDEFINED
 70
     0
  3
--------------------------------
 72
    65
 73
     0
 40
0.0
  0
LTYPE
  5
44
330
5
100
AcDbSymbolTableRecord
100
AcDbLinetypeTableRecord
  2
PLINE2
 70
     0
  3
------     -----------     -----
 72
    65
 73
     2
 40
3.0
 49
2.1
 74
     0
 49
-0.9
 74
     0
  0
LTYPE
  5
45
330
5
100
AcDbSymbolTableRecord
100
AcDbLinetypeTableRecord
  2
PLINE3
 70
     0
  3
------------   ---   -----------
 72
    65
 73
     4
 40
10.0
 49
7.0
 74
     0
 49
-1.0
 74
     0
 49
1.0
 74
     0
 49
-1.0
 74
     0
  0
LTYPE
  5
46
330
5
100
AcDbSymbolTableRecord
100
AcDbLinetypeTableRecord
  2
PLINE4
 70
     0
  3
---------   ---   ---   --------
 72
    65
 73
     6
 40
10.0
 49
5.0
 74
     0
 49
-1.0
 74
     0
 49
1.0
 74
     0
 49
-1.0
 74
     0
 49
1.0
 74
     0
 49
-1.0
 74
     0
  0
LTYPE
  5
47
330
5
100
AcDbSymbolTableRecord
100
AcDbLinetypeTableRecord
  2
PLINE5
 70
     0
  3
------     -----------     -----
 72
    65
 73
     2
 40
5.0
 49
3.5
 74
     0
 49
-1.5
 74
     0
  0
LTYPE
  5
48
330
5
100
AcDbSymbolTableRecord
100
AcDbLinetypeTableRecord
  2
PLINE6
 70
     0
  3
------------   ---   -----------
 72
    65
 73
     4
 40
15.0
 49
10.5
 74
     0
 49
-1.5
 74
     0
 49
1.5
 74
     0
 49
-1.5
 74
     0
  0
LTYPE
  5
49
330
5
100
AcDbSymbolTableRecord
100
AcDbLinetypeTableRecord
  2
PLINE7
 70
     0
  3
---------   ---   ---   --------
 72
    65
 73
     6
 40
15.0
 49
7.5
 74
     0
 49
-1.5
 74
     0
 49
1.5
 74
     0
 49
-1.5
 74
     0
 49
1.5
 74
     0
 49
-1.5
 74
     0
  0
LTYPE
  5
4A
330
5
100
AcDbSymbolTableRecord
100
AcDbLinetypeTableRecord
  2
PLINE8
 70
     0
  3
------     -----------     -----
 72
    65
 73
     2
 40
7.0
 49
4.9
 74
     0
 49
-2.1
 74
     0
  0
LTYPE
  5
4B
330
5
100
AcDbSymbolTableRecord
100
AcDbLinetypeTableRecord
  2
PLINE9
 70
     0
  3
------------   ---   -----------
 72
    65
 73
     4
 40
20.0
 49
14.0
 74
     0
 49
-2.0
 74
     0
 49
2.0
 74
     0
 49
-2.0
 74
     0
  0
LTYPE
  5
4C
330
5
100
AcDbSymbolTableRecord
100
AcDbLinetypeTableRecord
  2
PLINE10
 70
     0
  3
---------   ---   ---   --------
 72
    65
 73
     6
 40
20.0
 49
10.0
 74
     0
 49
-2.0
 74
     0
 49
2.0
 74
     0
 49
-2.0
 74
     0
 49
2.0
 74
     0
 49
-2.0
 74
     0
  0
LTYPE
  5
4D
330
5
100
AcDbSymbolTableRecord
100
AcDbLinetypeTableRecord
  2
PLINE11
 70
     0
  3
------     -----------     -----
 72
    65
 73
     2
 40
9.0
 49
6.299999999999999
 74
     0
 49
-2.7
 74
     0
  0
LTYPE
  5
4E
330
5
100
AcDbSymbolTableRecord
100
AcDbLinetypeTableRecord
  2
PLINE12
 70
     0
  3
------------   ---   -----------
 72
    65
 73
     4
 40
25.0
 49
17.5
 74
     0
 49
-2.5
 74
     0
 49
2.5
 74
     0
 49
-2.5
 74
     0
  0
LTYPE
  5
4F
330
5
100
AcDbSymbolTableRecord
100
AcDbLinetypeTableRecord
  2
PLINE13
 70
     0
  3
---------   ---   ---   --------
 72
    65
 73
     6
 40
25.0
 49
12.5
 74
     0
 49
-2.5
 74
     0
 49
2.5
 74
     0
 49
-2.5
 74
     0
 49
2.5
 74
     0
 49
-2.5
 74
     0
  0
LTYPE
  5
50
330
5
100
AcDbSymbolTableRecord
100
AcDbLinetypeTableRecord
  2
PLINE14
 70
     0
  3
------     -----------     -----
 72
    65
 73
     2
 40
11.0
 49
7.7
 74
     0
 49
-3.299999999999999
 74
     0
  0
LTYPE
  5
51
330
5
100
AcDbSymbolTableRecord
100
AcDbLinetypeTableRecord
  2
PLINE15
 70
     0
  3
------------   ---   -----------
 72
    65
 73
     4
 40
30.0
 49
21.0
 74
     0
 49
-3.0
 74
     0
 49
3.0
 74
     0
 49
-3.0
 74
     0
  0
LTYPE
  5
52
330
5
100
AcDbSymbolTableRecord
100
AcDbLinetypeTableRecord
  2
PLINE16
 70
     0
  3
---------   ---   ---   --------
 72
    65
 73
     6
 40
30.0
 49
15.0
 74
     0
 49
-3.0
 74
     0
 49
3.0
 74
     0
 49
-3.0
 74
     0
 49
3.0
 74
     0
 49
-3.0
 74
     0
  0
ENDTAB
  0
TABLE
  2
LAYER
  5
2
102
{ACAD_XDICTIONARY
360
175
102
}
330
0
100
AcDbSymbolTable
 70
     4
  0
LAYER
  5
10
330
2
100
AcDbSymbolTableRecord
100
AcDbLayerTableRecord
  2
0
 70
     0
 62
     7
  6
CONTINUOUS
370
    -3
390
F
  0
LAYER
  5
128
330
2
100
AcDbSymbolTableRecord
100
AcDbLayerTableRecord
  2
Defpoints
 70
     0
 62
     7
  6
CONTINUOUS
290
     0
370
    -3
390
F
  0
LAYER
  5
604A
330
2
100
AcDbSymbolTableRecord
100
AcDbLayerTableRecord
  2
文字-記号
 70
     0
 62
     7
  6
CONTINUOUS
370
    -3
390
F
  0
LAYER
  5
6AAF
330
2
100
AcDbSymbolTableRecord
100
AcDbLayerTableRecord
  2
製品
 70
     0
 62
     7
  6
CONTINUOUS
370
    -3
390
F
  0
ENDTAB
  0
TABLE
  2
STYLE
  5
3
330
0
100
AcDbSymbolTable
 70
     4
  0
STYLE
  5
11
330
3
100
AcDbSymbolTableRecord
100
AcDbTextStyleTableRecord
  2
STANDARD
 70
     0
 40
0.0
 41
1.0
 50
0.0
 71
     0
 42
0.2
  3
txt
  4
bigfont.shx
  0
STYLE
  5
53
330
3
100
AcDbSymbolTableRecord
100
AcDbTextStyleTableRecord
  2
TATEGAKI
 70
     4
 40
0.0
 41
1.0
 50
0.0
 71
     0
 42
1.0
  3
txt
  4
bigfont.shx
  0
STYLE
  5
123
330
3
100
AcDbSymbolTableRecord
100
AcDbTextStyleTableRecord
  2
ACAD
 70
     0
 40
5.0
 41
0.8
 50
0.0
 71
     0
 42
5.0
  3
romans.shx
  4
extfont.shx
  0
STYLE
  5
3A5F
330
3
100
AcDbSymbolTableRecord
100
AcDbTextStyleTableRecord
  2
VERTXT
 70
     4
 40
0.0
 41
0.8582679999999999
 50
0.0
 71
     0
 42
3.5
  3
txt.shx
  4
BIGFONT
  0
ENDTAB
  0
TABLE
  2
VIEW
  5
6
330
0
100
AcDbSymbolTable
 70
     0
  0
ENDTAB
  0
TABLE
  2
UCS
  5
7
330
0
100
AcDbSymbolTable
 70
     0
  0
ENDTAB
  0
TABLE
  2
APPID
  5
9
330
0
100
AcDbSymbolTable
 70
     2
  0
APPID
  5
12
330
9
100
AcDbSymbolTableRecord
100
AcDbRegAppTableRecord
  2
ACAD
 70
     0
  0
APPID
  5
6E8D
330
9
100
AcDbSymbolTableRecord
100
AcDbRegAppTableRecord
  2
ACAD_EXEMPT_FROM_CAD_STANDARDS
 70
     0
  0
ENDTAB
  0
TABLE
  2
DIMSTYLE
  5
A
330
0
100
AcDbSymbolTable
 70
     4
100
AcDbDimStyleTable
 71
     1
340
126
  0
DIMSTYLE
105
11C
330
A
100
AcDbSymbolTableRecord
100
AcDbDimStyleTableRecord
  2
Standard
 70
     0
340
11
  0
DIMSTYLE
105
126
330
A
100
AcDbSymbolTableRecord
100
AcDbDimStyleTableRecord
  2
AutoCAD
 70
     0
 41
1.0
 42
0.0
 44
0.0
 73
     0
 77
     1
140
5.0
147
1.0
174
     1
176
     4
177
     4
178
     3
271
     0
272
     0
289
     0
340
123
341
15B0
342
11E
  0
DIMSTYLE
105
2CBB
330
A
100
AcDbSymbolTableRecord
100
AcDbDimStyleTableRecord
  2
111
 70
     0
 41
1.0
 42
0.0
 44
0.0
 73
     0
 77
     1
140
5.0
147
1.0
174
     1
176
     4
177
     4
178
     3
271
     0
272
     0
289
     0
340
123
341
15B0
342
2CB5
  0
ENDTAB
  0
TABLE
  2
BLOCK_RECORD
  5
1
330
0
100
AcDbSymbolTable
 70
     5
  0
BLOCK_RECORD
  5
1E
102
{ACAD_XDICTIONARY
360
28B
102
}
330
1
100
AcDbSymbolTableRecord
100
AcDbBlockTableRecord
  2
*Model_Space
340
21
  0
BLOCK_RECORD
  5
1A
102
{ACAD_XDICTIONARY
360
28D
102
}
330
1
100
AcDbSymbolTableRecord
100
AcDbBlockTableRecord
  2
*Paper_Space
340
1D
  0
BLOCK_RECORD
  5
11E
330
1
100
AcDbSymbolTableRecord
100
AcDbBlockTableRecord
  2
_Dot
340
0
  0
BLOCK_RECORD
  5
15B0
330
1
100
AcDbSymbolTableRecord
100
AcDbBlockTableRecord
  2
_None
340
0
  0
BLOCK_RECORD
  5
2CB5
330
1
100
AcDbSymbolTableRecord
100
AcDbBlockTableRecord
  2
_Open30
340
0
  0
BLOCK_RECORD
  5
35E3
330
1
100
AcDbSymbolTableRecord
100
AcDbBlockTableRecord
  2
_DotBlank
340
0
  0
ENDTAB
  0
ENDSEC
  0
SECTION
  2
BLOCKS
  0
BLOCK
  5
1F
330
1E
100
AcDbEntity
  8
0
100
AcDbBlockBegin
  2
*Model_Space
 70
     0
 10
0.0
 20
0.0
 30
0.0
  3
*Model_Space
  1

  0
ENDBLK
  5
20
330
1E
100
AcDbEntity
  8
0
100
AcDbBlockEnd
  0
BLOCK
  5
1B
330
1A
100
AcDbEntity
 67
     1
  8
0
100
AcDbBlockBegin
  2
*Paper_Space
 70
     0
 10
0.0
 20
0.0
 30
0.0
  3
*Paper_Space
  1

  0
ENDBLK
  5
1C
330
1A
100
AcDbEntity
 67
     1
  8
0
100
AcDbBlockEnd
  0
BLOCK
  5
121
330
11E
100
AcDbEntity
  8
0
100
AcDbBlockBegin
  2
_Dot
 70
     0
 10
0.0
 20
0.0
 30
0.0
  3
_Dot
  1

  0
LWPOLYLINE
  5
11F
330
11E
100
AcDbEntity
  8
0
  6
ByBlock
 62
     0
100
AcDbPolyline
 90
        2
 70
     1
 43
0.5
 10
-0.25
 20
0.0
 42
1.0
 10
0.25
 20
0.0
 42
1.0
  0
LINE
  5
120
330
11E
100
AcDbEntity
  8
0
  6
ByBlock
 62
     0
370
    -2
100
AcDbLine
 10
-0.5
 20
0.0
 30
0.0
 11
-1.0
 21
0.0
 31
0.0
  0
ENDBLK
  5
122
330
11E
100
AcDbEntity
  8
0
100
AcDbBlockEnd
  0
BLOCK
  5
15B1
330
15B0
100
AcDbEntity
  8
0
100
AcDbBlockBegin
  2
_None
 70
     0
 10
0.0
 20
0.0
 30
0.0
  3
_None
  1

  0
ENDBLK
  5
15B2
330
15B0
100
AcDbEntity
  8
0
100
AcDbBlockEnd
  0
BLOCK
  5
2CB9
330
2CB5
100
AcDbEntity
  8
0
100
AcDbBlockBegin
  2
_Open30
 70
     0
 10
0.0
 20
0.0
 30
0.0
  3
_Open30
  1

  0
LINE
  5
2CB6
330
2CB5
100
AcDbEntity
  8
0
  6
ByBlock
 62
     0
370
    -2
100
AcDbLine
 10
-1.0
 20
0.26794919
 30
0.0
 11
0.0
 21
0.0
 31
0.0
  0
LINE
  5
2CB7
330
2CB5
100
AcDbEntity
  8
0
  6
ByBlock
 62
     0
370
    -2
100
AcDbLine
 10
0.0
 20
0.0
 30
0.0
 11
-1.0
 21
-0.26794919
 31
0.0
  0
LINE
  5
2CB8
330
2CB5
100
AcDbEntity
  8
0
  6
ByBlock
 62
     0
370
    -2
100
AcDbLine
 10
0.0
 20
0.0
 30
0.0
 11
-1.0
 21
0.0
 31
0.0
  0
ENDBLK
  5
2CBA
330
2CB5
100
AcDbEntity
  8
0
100
AcDbBlockEnd
  0
BLOCK
  5
35E6
330
35E3
100
AcDbEntity
  8
0
100
AcDbBlockBegin
  2
_DotBlank
 70
     0
 10
0.0
 20
0.0
 30
0.0
  3
_DotBlank
  1

  0
CIRCLE
  5
35E4
330
35E3
100
AcDbEntity
  8
0
  6
ByBlock
 62
     0
370
    -2
100
AcDbCircle
 10
0.0
 20
0.0
 30
0.0
 40
0.5
  0
LINE
  5
35E5
330
35E3
100
AcDbEntity
  8
0
  6
ByBlock
 62
     0
370
    -2
100
AcDbLine
 10
-0.5
 20
0.0
 30
0.0
 11
-1.0
 21
0.0
 31
0.0
  0
ENDBLK
  5
35E7
330
35E3
100
AcDbEntity
  8
0
100
AcDbBlockEnd
  0
ENDSEC
  0
SECTION
  2
ENTITIES
  0
LINE
  5
6C36
330
1E
100
AcDbEntity
  8
文字-記号
  6
Continuous
 62
     7
100
AcDbLine
 10
1650.19782501716
 20
431.802358705339
 30
0.0
 11
1660.42263321194
 21
431.802358705339
 31
0.0
  0
TEXT
  5
6C37
330
1E
100
AcDbEntity
  8
文字-記号
 62
     7
100
AcDbText
 10
1650.26453501716
 20
432.802338705339
 30
0.0
 40
3.0
  1
スペーサ
 41
0.8
  7
ACAD
100
AcDbText
  0
LINE
  5
6C38
330
1E
100
AcDbEntity
  8
文字-記号
  6
Continuous
 62
     7
100
AcDbLine
 10
1631.427055017161
 20
476.6423587053391
 30
0.0
 11
1616.90093001716
 21
501.802358705339
 31
0.0
  0
LINE
  5
6C39
330
1E
100
AcDbEntity
  8
製品
  6
Continuous
 62
     7
100
AcDbLine
 10
1591.42706301716
 20
476.802358705339
 30
0.0
 11
1644.52705501716
 21
476.802358705339
 31
0.0
  0
LINE
  5
6C3A
330
1E
100
AcDbEntity
  8
製品
  6
Continuous
 62
     7
100
AcDbLine
 10
1618.32706301716
 20
471.8023587053389
 30
0.0
 11
1591.42706301716
 21
471.8023587053389
 31
0.0
  0
LINE
  5
6C3B
330
1E
100
AcDbEntity
  8
製品
  6
Continuous
 62
     7
100
AcDbLine
 10
1591.42706301716
 20
474.3023587053389
 30
0.0
 11
1624.92705501716
 21
474.3023587053389
 31
0.0
  0
LINE
  5
6C3C
330
1E
100
AcDbEntity
  8
製品
  6
Continuous
 62
     7
100
AcDbLine
 10
1591.42706301716
 20
481.802358705339
 30
0.0
 11
1671.42705501716
 21
481.802358705339
 31
0.0
  0
TEXT
  5
6C3D
330
1E
100
AcDbEntity
  8
文字-記号
 62
     7
100
AcDbText
 10
1595.88620529303
 20
503.0500660074172
 30
0.0
 40
3.0
  1
タッピングビス
 41
0.8
  7
ACAD
100
AcDbText
  0
LINE
  5
6C3E
330
1E
100
AcDbEntity
  8
文字-記号
  6
Continuous
 62
     7
100
AcDbLine
 10
1616.90093001716
 20
501.802358705339
 30
0.0
 11
1594.402039560263
 21
501.802358705339
 31
0.0
  0
LINE
  5
6C3F
330
1E
100
AcDbEntity
  8
製品
  6
Continuous
 62
     7
100
AcDbLine
 10
1603.82706301716
 20
489.4023587053388
 30
0.0
 11
1603.82706301716
 21
489.0823587053387
 31
0.0
  0
LINE
  5
6C40
330
1E
100
AcDbEntity
  8
製品
  6
Continuous
 62
     7
100
AcDbLine
 10
1603.82706301716
 20
482.1223587053391
 30
0.0
 11
1603.82706301716
 21
481.802358705339
 31
0.0
  0
CIRCLE
  5
6C41
330
1E
100
AcDbEntity
  8
文字-記号
  6
Continuous
 62
     7
100
AcDbCircle
 10
1601.42706301716
 20
485.6023587053392
 30
0.0
 40
0.3
  0
LINE
  5
6C42
330
1E
100
AcDbEntity
  8
文字-記号
  6
Continuous
 62
     7
100
AcDbLine
 10
1601.42706301716
 20
485.6023587053392
 30
0.0
 11
1597.847491017161
 21
491.8023587053389
 31
0.0
  0
LINE
  5
6C43
330
1E
100
AcDbEntity
  8
文字-記号
  6
Continuous
 62
     7
100
AcDbLine
 10
1597.847491017161
 20
491.8023587053389
 30
0.0
 11
1588.817491017161
 21
491.8023587053389
 31
0.0
  0
LINE
  5
6C44
330
1E
100
AcDbEntity
  8
製品
  6
Continuous
 62
     7
100
AcDbLine
 10
1601.74706301716
 20
482.1223587053391
 30
0.0
 11
1601.74706301716
 21
489.0823587053387
 31
0.0
  0
LINE
  5
6C45
330
1E
100
AcDbEntity
  8
製品
  6
Continuous
 62
     7
100
AcDbLine
 10
1601.42706301716
 20
481.802358705339
 30
0.0
 11
1601.42706301716
 21
489.4023587053388
 31
0.0
  0
TEXT
  5
6C46
330
1E
100
AcDbEntity
  8
文字-記号
 62
     7
100
AcDbText
 10
1588.835670017161
 20
492.8023587053389
 30
0.0
 40
3.0
  1
野縁受
 41
0.8
  7
ACAD
100
AcDbText
  0
LINE
  5
6C47
330
1E
100
AcDbEntity
  8
製品
  6
Continuous
 62
     7
100
AcDbLine
 10
1601.74706301716
 20
482.1223587053391
 30
0.0
 11
1603.82706301716
 21
482.1223587053391
 31
0.0
  0
LINE
  5
6C48
330
1E
100
AcDbEntity
  8
製品
  6
Continuous
 62
     7
100
AcDbLine
 10
1603.82706301716
 20
489.0823587053387
 30
0.0
 11
1601.74706301716
 21
489.0823587053387
 31
0.0
  0
LINE
  5
6C49
330
1E
100
AcDbEntity
  8
製品
  6
Continuous
 62
     7
100
AcDbLine
 10
1603.82706301716
 20
489.4023587053388
 30
0.0
 11
1601.42706301716
 21
489.4023587053388
 31
0.0
  0
LINE
  5
6C4A
330
1E
100
AcDbEntity
  8
製品
  6
DASHED_DOTTED
 62
     3
100
AcDbLine
 10
1631.427055017161
 20
485.802358705339
 30
0.0
 11
1631.427055017161
 21
405.8023587053389
 31
0.0
  0
LINE
  5
6C4B
330
1E
100
AcDbEntity
  8
製品
  6
Continuous
 62
     7
100
AcDbLine
 10
1624.92705501716
 20
476.6423587053391
 30
0.0
 11
1624.92705501716
 21
405.8023587053389
 31
0.0
  0
LINE
  5
6C4C
330
1E
100
AcDbEntity
  8
製品
  6
Continuous
 62
     7
100
AcDbLine
 10
1637.92705501716
 20
476.6423587053391
 30
0.0
 11
1637.92705501716
 21
405.8023587053389
 31
0.0
  0
LINE
  5
6C4D
330
1E
100
AcDbEntity
  8
製品
  6
Continuous
 62
     7
100
AcDbLine
 10
1622.42706301716
 20
474.3023587053389
 30
0.0
 11
1622.42706301716
 21
405.8023587053389
 31
0.0
  0
LINE
  5
6C4E
330
1E
100
AcDbEntity
  8
製品
  6
Continuous
 62
     7
100
AcDbLine
 10
1640.42705501716
 20
476.802358705339
 30
0.0
 11
1640.42705501716
 21
405.8023587053389
 31
0.0
  0
LINE
  5
6C4F
330
1E
100
AcDbEntity
  8
製品
  6
Continuous
 62
     7
100
AcDbLine
 10
1619.92706301716
 20
474.3023587053389
 30
0.0
 11
1619.92706301716
 21
405.8023587053389
 31
0.0
  0
LINE
  5
6C50
330
1E
100
AcDbEntity
  8
製品
  6
Continuous
 62
     7
100
AcDbLine
 10
1642.92705501716
 20
476.802358705339
 30
0.0
 11
1642.92705501716
 21
405.8023587053389
 31
0.0
  0
LINE
  5
6C51
330
1E
100
AcDbEntity
  8
製品
  6
Continuous
 62
     7
100
AcDbLine
 10
1636.527055017161
 20
405.8023587053389
 30
0.0
 11
1636.527055017161
 21
451.7858987053391
 31
0.0
  0
LINE
  5
6C52
330
1E
100
AcDbEntity
  8
製品
  6
Continuous
 62
     7
100
AcDbLine
 10
1626.32705501716
 20
405.8023587053389
 30
0.0
 11
1626.32705501716
 21
451.7858987053391
 31
0.0
  0
LINE
  5
6C53
330
1E
100
AcDbEntity
  8
文字-記号
  6
Continuous
 62
     7
100
AcDbLine
 10
1637.72705501716
 20
453.2258987053388
 30
0.0
 11
1650.19782501716
 21
431.802358705339
 31
0.0
  0
LINE
  5
6C54
330
1E
100
AcDbEntity
  8
文字-記号
  6
Continuous
 62
     7
100
AcDbLine
 10
1651.42705501716
 20
479.3023587053389
 30
0.0
 11
1644.210185017161
 21
491.8023587053389
 31
0.0
  0
LINE
  5
6C55
330
1E
100
AcDbEntity
  8
文字-記号
  6
Continuous
 62
     7
100
AcDbLine
 10
1647.90201501716
 20
451.802358705339
 30
0.0
 11
1656.93201501716
 21
451.802358705339
 31
0.0
  0
TEXT
  5
6C56
330
1E
100
AcDbEntity
  8
文字-記号
 62
     7
100
AcDbText
 10
1647.92017501716
 20
452.802358705339
 30
0.0
 40
3.0
  1
ランナ
 41
0.8
  7
ACAD
100
AcDbText
  0
LINE
  5
6C57
330
1E
100
AcDbEntity
  8
製品
  6
Continuous
 62
     7
100
AcDbLine
 10
1644.72705501716
 20
476.802358705339
 30
0.0
 11
1671.42705501716
 21
476.802358705339
 31
0.0
  0
LINE
  5
6C58
330
1E
100
AcDbEntity
  8
製品
  6
Continuous
 62
     7
100
AcDbLine
 10
1644.72705501716
 20
474.3023587053389
 30
0.0
 11
1671.42705501716
 21
474.3023587053389
 31
0.0
  0
LINE
  5
6C59
330
1E
100
AcDbEntity
  8
文字-記号
  6
Continuous
 62
     7
100
AcDbLine
 10
1644.210185017161
 20
491.8023587053389
 30
0.0
 11
1638.190185017161
 21
491.8023587053389
 31
0.0
  0
LINE
  5
6C5A
330
1E
100
AcDbEntity
  8
製品
  6
Continuous
 62
     7
100
AcDbLine
 10
1649.92705501716
 20
476.802358705339
 30
0.0
 11
1649.92705501716
 21
477.0023587053388
 31
0.0
  0
LINE
  5
6C5B
330
1E
100
AcDbEntity
  8
製品
  6
Continuous
 62
     7
100
AcDbLine
 10
1647.52705501716
 20
474.1023587053391
 30
0.0
 11
1647.52705501716
 21
474.3023587053389
 31
0.0
  0
LINE
  5
6C5C
330
1E
100
AcDbEntity
  8
製品
  6
Continuous
 62
     7
100
AcDbLine
 10
1644.52705501716
 20
476.802358705339
 30
0.0
 11
1644.52705501716
 21
474.1023587053391
 31
0.0
  0
LINE
  5
6C5D
330
1E
100
AcDbEntity
  8
製品
  6
Continuous
 62
     7
100
AcDbLine
 10
1644.72705501716
 20
476.802358705339
 30
0.0
 11
1644.72705501716
 21
474.3023587053389
 31
0.0
  0
LINE
  5
6C5E
330
1E
100
AcDbEntity
  8
製品
  6
Continuous
 62
     7
100
AcDbLine
 10
1644.52705501716
 20
474.1023587053391
 30
0.0
 11
1647.52705501716
 21
474.1023587053391
 31
0.0
  0
LINE
  5
6C5F
330
1E
100
AcDbEntity
  8
製品
  6
Continuous
 62
     7
100
AcDbLine
 10
1641.527055017161
 20
477.0023587053388
 30
0.0
 11
1641.527055017161
 21
476.802358705339
 31
0.0
  0
LINE
  5
6C60
330
1E
100
AcDbEntity
  8
製品
  6
Continuous
 62
     7
100
AcDbLine
 10
1641.527055017161
 20
477.0023587053388
 30
0.0
 11
1649.92705501716
 21
477.0023587053388
 31
0.0
  0
CIRCLE
  5
6C61
330
1E
100
AcDbEntity
  8
文字-記号
  6
Continuous
 62
     7
100
AcDbCircle
 10
1638.087055017161
 20
468.802358705339
 30
0.0
 40
0.3
  0
LINE
  5
6C62
330
1E
100
AcDbEntity
  8
製品
  6
Continuous
 62
     7
100
AcDbLine
 10
1637.92705501716
 20
468.802358705339
 30
0.0
 11
1638.087055017161
 21
468.802358705339
 31
0.0
  0
LINE
  5
6C63
330
1E
100
AcDbEntity
  8
製品
  6
Continuous
 62
     7
100
AcDbLine
 10
1636.47705501716
 20
452.6265287053388
 30
0.0
 11
1636.12705501716
 21
452.6265287053388
 31
0.0
  0
LINE
  5
6C64
330
1E
100
AcDbEntity
  8
製品
  6
Continuous
 62
     7
100
AcDbLine
 10
1636.47705501716
 20
452.6858987053388
 30
0.0
 11
1636.47705501716
 21
451.7858987053391
 31
0.0
  0
ARC
  5
6C65
330
1E
100
AcDbEntity
  8
製品
  6
Continuous
 62
     7
100
AcDbCircle
 10
1635.027055017161
 20
450.426528705339
 30
0.0
 40
0.2
100
AcDbArc
 50
0.0
 51
90.0
  0
LINE
  5
6C66
330
1E
100
AcDbEntity
  8
製品
  6
Continuous
 62
     7
100
AcDbLine
 10
1635.527055017161
 20
449.8711687053387
 30
0.0
 11
1635.527055017161
 21
452.6865287053388
 31
0.0
  0
LINE
  5
6C67
330
1E
100
AcDbEntity
  8
製品
  6
Continuous
 62
     7
100
AcDbLine
 10
1636.12705501716
 20
449.8711687053387
 30
0.0
 11
1636.12705501716
 21
452.6865287053388
 31
0.0
  0
ARC
  5
6C68
330
1E
100
AcDbEntity
  8
製品
  6
Continuous
 62
     7
100
AcDbCircle
 10
1635.76705501716
 20
452.6865287053388
 30
0.0
 40
0.24
100
AcDbArc
 50
90.0
 51
180.0
  0
LINE
  5
6C69
330
1E
100
AcDbEntity
  8
製品
  6
Continuous
 62
     7
100
AcDbLine
 10
1635.76705501716
 20
452.926528705339
 30
0.0
 11
1635.88705501716
 21
452.926528705339
 31
0.0
  0
ARC
  5
6C6A
330
1E
100
AcDbEntity
  8
製品
  6
Continuous
 62
     7
100
AcDbCircle
 10
1635.88705501716
 20
452.6865287053388
 30
0.0
 40
0.24
100
AcDbArc
 50
0.0
 51
90.0
  0
ARC
  5
6C6B
330
1E
100
AcDbEntity
  8
製品
  6
Continuous
 62
     7
100
AcDbCircle
 10
1637.527055017161
 20
453.1858987053388
 30
0.0
 40
0.2
100
AcDbArc
 50
270.0
 51
0.0
  0
ARC
  5
6C6C
330
1E
100
AcDbEntity
  8
製品
  6
Continuous
 62
     7
100
AcDbCircle
 10
1636.777055017161
 20
452.6858987053388
 30
0.0
 40
0.3
100
AcDbArc
 50
90.0
 51
180.0
  0
LINE
  5
6C6D
330
1E
100
AcDbEntity
  8
製品
  6
Continuous
 62
     7
100
AcDbLine
 10
1636.777055017161
 20
452.985898705339
 30
0.0
 11
1637.527055017161
 21
452.985898705339
 31
0.0
  0
LINE
  5
6C6E
330
1E
100
AcDbEntity
  8
製品
  6
Continuous
 62
     7
100
AcDbLine
 10
1636.527055017161
 20
451.738758705339
 30
0.0
 11
1636.47705501716
 21
451.7858987053391
 31
0.0
  0
CIRCLE
  5
6C6F
330
1E
100
AcDbEntity
  8
文字-記号
  6
Continuous
 62
     7
100
AcDbCircle
 10
1637.72705501716
 20
453.2258987053388
 30
0.0
 40
1.399999999999999
  0
LINE
  5
6C70
330
1E
100
AcDbEntity
  8
製品
  6
Continuous
 62
     7
100
AcDbLine
 10
1637.72705501716
 20
456.5058987053389
 30
0.0
 11
1637.72705501716
 21
453.1858987053388
 31
0.0
  0
LINE
  5
6C71
330
1E
100
AcDbEntity
  8
文字-記号
  6
Continuous
 62
     7
100
AcDbLine
 10
1638.087055017161
 20
468.802358705339
 30
0.0
 11
1647.90201501716
 21
451.802358705339
 31
0.0
  0
LINE
  5
6C72
330
1E
100
AcDbEntity
  8
製品
  6
Continuous
 62
     7
100
AcDbLine
 10
1638.087055017161
 20
468.802358705339
 30
0.0
 11
1638.087055017161
 21
476.802358705339
 31
0.0
  0
LINE
  5
6C73
330
1E
100
AcDbEntity
  8
製品
  6
Continuous
 62
     7
100
AcDbLine
 10
1636.527055017161
 20
456.5058987053389
 30
0.0
 11
1636.527055017161
 21
476.6423587053391
 31
0.0
  0
LINE
  5
6C74
330
1E
100
AcDbEntity
  8
製品
  6
Continuous
 62
     7
100
AcDbLine
 10
1631.82705501716
 20
478.642358705339
 30
0.0
 11
1631.82705501716
 21
476.6423587053391
 31
0.0
  0
LINE
  5
6C75
330
1E
100
AcDbEntity
  8
製品
  6
Continuous
 62
     7
100
AcDbLine
 10
1631.027055017161
 20
476.6423587053391
 30
0.0
 11
1631.027055017161
 21
478.642358705339
 31
0.0
  0
CIRCLE
  5
6C76
330
1E
100
AcDbEntity
  8
文字-記号
  6
Continuous
 62
     7
100
AcDbCircle
 10
1631.427055017161
 20
476.6423587053391
 30
0.0
 40
0.3
  0
ARC
  5
6C77
330
1E
100
AcDbEntity
  8
製品
  6
Continuous
 62
     7
100
AcDbCircle
 10
1631.427055017161
 20
476.6423587053391
 30
0.0
 40
0.8
100
AcDbArc
 50
180.0
 51
0.0
  0
LINE
  5
6C78
330
1E
100
AcDbEntity
  8
製品
  6
Continuous
 62
     7
100
AcDbLine
 10
1624.76705501716
 20
468.802358705339
 30
0.0
 11
1624.92705501716
 21
468.802358705339
 31
0.0
  0
LINE
  5
6C79
330
1E
100
AcDbEntity
  8
製品
  6
Continuous
 62
     7
100
AcDbLine
 10
1630.72705501716
 20
455.3058987053386
 30
0.0
 11
1630.72705501716
 21
454.3058987053386
 31
0.0
  0
ARC
  5
6C7A
330
1E
100
AcDbEntity
  8
製品
  6
Continuous
 62
     7
100
AcDbCircle
 10
1630.92705501716
 20
455.3058987053386
 30
0.0
 40
0.2
100
AcDbArc
 50
90.0
 51
180.0
  0
LINE
  5
6C7B
330
1E
100
AcDbEntity
  8
製品
  6
Continuous
 62
     7
100
AcDbLine
 10
1633.72705501716
 20
452.0265287053389
 30
0.0
 11
1631.427055017161
 21
452.0265287053389
 31
0.0
  0
LINE
  5
6C7C
330
1E
100
AcDbEntity
  8
製品
  6
Continuous
 62
     7
100
AcDbLine
 10
1630.92705501716
 20
455.5058987053389
 30
0.0
 11
1631.92705501716
 21
455.5058987053389
 31
0.0
  0
ARC
  5
6C7D
330
1E
100
AcDbEntity
  8
製品
  6
Continuous
 62
     7
100
AcDbCircle
 10
1630.92705501716
 20
454.3058987053386
 30
0.0
 40
0.2
100
AcDbArc
 50
180.0
 51
270.0
  0
LINE
  5
6C7E
330
1E
100
AcDbEntity
  8
製品
  6
Continuous
 62
     7
100
AcDbLine
 10
1630.92705501716
 20
454.1058987053388
 30
0.0
 11
1631.92705501716
 21
454.1058987053388
 31
0.0
  0
ARC
  5
6C7F
330
1E
100
AcDbEntity
  8
製品
  6
Continuous
 62
     7
100
AcDbCircle
 10
1631.92705501716
 20
454.3058987053386
 30
0.0
 40
0.2
100
AcDbArc
 50
270.0
 51
0.0
  0
LINE
  5
6C80
330
1E
100
AcDbEntity
  8
製品
  6
Continuous
 62
     7
100
AcDbLine
 10
1632.127055017161
 20
454.3058987053386
 30
0.0
 11
1632.127055017161
 21
455.3058987053386
 31
0.0
  0
ARC
  5
6C81
330
1E
100
AcDbEntity
  8
製品
  6
Continuous
 62
     7
100
AcDbCircle
 10
1631.92705501716
 20
455.3058987053386
 30
0.0
 40
0.2
100
AcDbArc
 50
0.0
 51
90.0
  0
ARC
  5
6C82
330
1E
100
AcDbEntity
  8
製品
  6
Continuous
 62
     7
100
AcDbCircle
 10
1634.127055017161
 20
450.8265287053391
 30
0.0
 40
0.2
100
AcDbArc
 50
180.0
 51
270.0
  0
LINE
  5
6C83
330
1E
100
AcDbEntity
  8
製品
  6
Continuous
 62
     7
100
AcDbLine
 10
1633.92705501716
 20
450.8265287053391
 30
0.0
 11
1633.92705501716
 21
451.8265287053391
 31
0.0
  0
ARC
  5
6C84
330
1E
100
AcDbEntity
  8
製品
  6
Continuous
 62
     7
100
AcDbCircle
 10
1633.72705501716
 20
451.8265287053391
 30
0.0
 40
0.2
100
AcDbArc
 50
0.0
 51
90.0
  0
ARC
  5
6C85
330
1E
100
AcDbEntity
  8
製品
  6
Continuous
 62
     7
100
AcDbCircle
 10
1629.127055017161
 20
451.8265287053391
 30
0.0
 40
0.2
100
AcDbArc
 50
90.0
 51
180.0
  0
LINE
  5
6C86
330
1E
100
AcDbEntity
  8
製品
  6
Continuous
 62
     7
100
AcDbLine
 10
1627.82705501716
 20
450.6265287053388
 30
0.0
 11
1628.72705501716
 21
450.6265287053388
 31
0.0
  0
ARC
  5
6C87
330
1E
100
AcDbEntity
  8
製品
  6
Continuous
 62
     7
100
AcDbCircle
 10
1627.82705501716
 20
450.426528705339
 30
0.0
 40
0.2
100
AcDbArc
 50
90.0
 51
180.0
  0
ARC
  5
6C88
330
1E
100
AcDbEntity
  8
製品
  6
Continuous
 62
     7
100
AcDbCircle
 10
1628.72705501716
 20
450.8265287053391
 30
0.0
 40
0.2
100
AcDbArc
 50
270.0
 51
0.0
  0
LINE
  5
6C89
330
1E
100
AcDbEntity
  8
製品
  6
Continuous
 62
     7
100
AcDbLine
 10
1628.92705501716
 20
450.8265287053391
 30
0.0
 11
1628.92705501716
 21
451.8265287053391
 31
0.0
  0
ARC
  5
6C8A
330
1E
100
AcDbEntity
  8
製品
  6
Continuous
 62
     7
100
AcDbCircle
 10
1627.087055017161
 20
452.6865287053388
 30
0.0
 40
0.24
100
AcDbArc
 50
0.0
 51
90.0
  0
LINE
  5
6C8B
330
1E
100
AcDbEntity
  8
製品
  6
Continuous
 62
     7
100
AcDbLine
 10
1627.32705501716
 20
449.8711687053387
 30
0.0
 11
1627.32705501716
 21
452.6865287053388
 31
0.0
  0
LINE
  5
6C8C
330
1E
100
AcDbEntity
  8
製品
  6
Continuous
 62
     7
100
AcDbLine
 10
1626.72705501716
 20
449.8711687053387
 30
0.0
 11
1626.72705501716
 21
452.6865287053388
 31
0.0
  0
ARC
  5
6C8D
330
1E
100
AcDbEntity
  8
製品
  6
Continuous
 62
     7
100
AcDbCircle
 10
1626.96705501716
 20
452.6865287053388
 30
0.0
 40
0.24
100
AcDbArc
 50
90.0
 51
180.0
  0
LINE
  5
6C8E
330
1E
100
AcDbEntity
  8
製品
  6
Continuous
 62
     7
100
AcDbLine
 10
1626.96705501716
 20
452.926528705339
 30
0.0
 11
1627.087055017161
 21
452.926528705339
 31
0.0
  0
LINE
  5
6C8F
330
1E
100
AcDbEntity
  8
製品
  6
Continuous
 62
     7
100
AcDbLine
 10
1631.427055017161
 20
452.6265287053388
 30
0.0
 11
1627.32705501716
 21
452.6265287053388
 31
0.0
  0
LINE
  5
6C90
330
1E
100
AcDbEntity
  8
製品
  6
Continuous
 62
     7
100
AcDbLine
 10
1629.127055017161
 20
452.0265287053389
 30
0.0
 11
1631.427055017161
 21
452.0265287053389
 31
0.0
  0
LINE
  5
6C91
330
1E
100
AcDbEntity
  8
製品
  6
CENTER1
 62
     7
100
AcDbLine
 10
1631.427055017161
 20
457.1058987053389
 30
0.0
 11
1631.427055017161
 21
451.4265287053389
 31
0.0
  0
ARC
  5
6C92
330
1E
100
AcDbEntity
  8
製品
  6
Continuous
 62
     7
100
AcDbCircle
 10
1625.327055017161
 20
453.1858987053388
 30
0.0
 40
0.2
100
AcDbArc
 50
180.0
 51
270.0
  0
LINE
  5
6C93
330
1E
100
AcDbEntity
  8
製品
  6
Continuous
 62
     7
100
AcDbLine
 10
1626.077055017161
 20
452.985898705339
 30
0.0
 11
1625.327055017161
 21
452.985898705339
 31
0.0
  0
ARC
  5
6C94
330
1E
100
AcDbEntity
  8
製品
  6
Continuous
 62
     7
100
AcDbCircle
 10
1626.077055017161
 20
452.6858987053388
 30
0.0
 40
0.3
100
AcDbArc
 50
0.0
 51
90.0
  0
LINE
  5
6C95
330
1E
100
AcDbEntity
  8
製品
  6
Continuous
 62
     7
100
AcDbLine
 10
1626.377055017161
 20
452.6858987053388
 30
0.0
 11
1626.377055017161
 21
451.7858987053391
 31
0.0
  0
LINE
  5
6C96
330
1E
100
AcDbEntity
  8
製品
  6
Continuous
 62
     7
100
AcDbLine
 10
1626.32705501716
 20
451.738758705339
 30
0.0
 11
1626.377055017161
 21
451.7858987053391
 31
0.0
  0
LINE
  5
6C97
330
1E
100
AcDbEntity
  8
製品
  6
Continuous
 62
     7
100
AcDbLine
 10
1625.127055017161
 20
453.1858987053388
 30
0.0
 11
1625.127055017161
 21
456.5058987053389
 31
0.0
  0
LINE
  5
6C98
330
1E
100
AcDbEntity
  8
製品
  6
Continuous
 62
     7
100
AcDbLine
 10
1626.72705501716
 20
452.6265287053388
 30
0.0
 11
1626.377055017161
 21
452.6265287053388
 31
0.0
  0
LINE
  5
6C99
330
1E
100
AcDbEntity
  8
製品
  6
DASHED2
 62
     7
100
AcDbLine
 10
1625.127055017161
 20
453.2258987053388
 30
0.0
 11
1631.427055017161
 21
453.2258987053388
 31
0.0
  0
LINE
  5
6C9A
330
1E
100
AcDbEntity
  8
製品
  6
DASHED2
 62
     7
100
AcDbLine
 10
1625.127055017161
 20
456.385898705339
 30
0.0
 11
1631.427055017161
 21
456.385898705339
 31
0.0
  0
LINE
  5
6C9B
330
1E
100
AcDbEntity
  8
製品
  6
Continuous
 62
     7
100
AcDbLine
 10
1631.427055017161
 20
456.5058987053389
 30
0.0
 11
1625.127055017161
 21
456.5058987053389
 31
0.0
  0
LINE
  5
6C9C
330
1E
100
AcDbEntity
  8
製品
  6
Continuous
 62
     7
100
AcDbLine
 10
1625.143755017161
 20
453.1058987053389
 30
0.0
 11
1631.427055017161
 21
453.1058987053389
 31
0.0
  0
LINE
  5
6C9D
330
1E
100
AcDbEntity
  8
製品
  6
Continuous
 62
     7
100
AcDbLine
 10
1618.32706301716
 20
474.3023587053389
 30
0.0
 11
1618.32706301716
 21
471.8023587053389
 31
0.0
  0
LINE
  5
6C9E
330
1E
100
AcDbEntity
  8
製品
  6
Continuous
 62
     7
100
AcDbLine
 10
1624.76705501716
 20
476.802358705339
 30
0.0
 11
1624.76705501716
 21
468.802358705339
 31
0.0
  0
LINE
  5
6C9F
330
1E
100
AcDbEntity
  8
製品
  6
Continuous
 62
     7
100
AcDbLine
 10
1626.32705501716
 20
456.5058987053389
 30
0.0
 11
1626.32705501716
 21
476.6423587053391
 31
0.0
  0
LINE
  5
6CA0
330
1E
100
AcDbEntity
  8
製品
  6
Continuous
 62
     7
100
AcDbLine
 10
1624.92705501716
 20
476.6423587053391
 30
0.0
 11
1637.92705501716
 21
476.6423587053391
 31
0.0
  0
LINE
  5
6CA1
330
1E
100
AcDbEntity
  8
製品
  6
Continuous
 62
     7
100
AcDbLine
 10
1635.527055017161
 20
452.6265287053388
 30
0.0
 11
1631.427055017161
 21
452.6265287053388
 31
0.0
  0
LINE
  5
6CA2
330
1E
100
AcDbEntity
  8
製品
  6
DASHED2
 62
     7
100
AcDbLine
 10
1637.72705501716
 20
453.2258987053388
 30
0.0
 11
1631.427055017161
 21
453.2258987053388
 31
0.0
  0
LINE
  5
6CA3
330
1E
100
AcDbEntity
  8
製品
  6
DASHED2
 62
     7
100
AcDbLine
 10
1637.72705501716
 20
456.385898705339
 30
0.0
 11
1631.427055017161
 21
456.385898705339
 31
0.0
  0
LINE
  5
6CA4
330
1E
100
AcDbEntity
  8
製品
  6
Continuous
 62
     7
100
AcDbLine
 10
1631.427055017161
 20
456.5058987053389
 30
0.0
 11
1637.72705501716
 21
456.5058987053389
 31
0.0
  0
LINE
  5
6CA5
330
1E
100
AcDbEntity
  8
製品
  6
Continuous
 62
     7
100
AcDbLine
 10
1637.710365017161
 20
453.1058987053389
 30
0.0
 11
1631.427055017161
 21
453.1058987053389
 31
0.0
  0
LINE
  5
6CA6
330
1E
100
AcDbEntity
  8
製品
  6
Continuous
 62
     7
100
AcDbLine
 10
1635.027055017161
 20
450.6265287053388
 30
0.0
 11
1634.127055017161
 21
450.6265287053388
 31
0.0
  0
TEXT
  5
6CA7
330
1E
100
AcDbEntity
  8
文字-記号
 62
     7
100
AcDbText
 10
1638.19015501716
 20
492.8023587053389
 30
0.0
 40
3.0
  1
野縁
 41
0.8
  7
ACAD
100
AcDbText
  0
ARC
  5
6CA8
330
1E
100
AcDbEntity
  8
製品
  6
Continuous
 62
     7
100
AcDbCircle
 10
1635.42705501716
 20
449.426528705339
 30
0.0
 40
0.2
100
AcDbArc
 50
180.0
 51
270.0
  0
LINE
  5
6CA9
330
1E
100
AcDbEntity
  8
製品
  6
Continuous
 62
     7
100
AcDbLine
 10
1635.76705501716
 20
449.6311687053389
 30
0.0
 11
1635.88705501716
 21
449.6311687053389
 31
0.0
  0
LINE
  5
6CAA
330
1E
100
AcDbEntity
  8
製品
  6
Continuous
 62
     7
100
AcDbLine
 10
1635.42705501716
 20
449.2265287053387
 30
0.0
 11
1636.527055017161
 21
449.2265287053387
 31
0.0
  0
ARC
  5
6CAB
330
1E
100
AcDbEntity
  8
製品
  6
Continuous
 62
     7
100
AcDbCircle
 10
1627.42705501716
 20
449.426528705339
 30
0.0
 40
0.2
100
AcDbArc
 50
270.0
 51
0.0
  0
LINE
  5
6CAC
330
1E
100
AcDbEntity
  8
製品
  6
Continuous
 62
     7
100
AcDbLine
 10
1626.96705501716
 20
449.6218887053387
 30
0.0
 11
1627.087055017161
 21
449.6218887053387
 31
0.0
  0
LINE
  5
6CAD
330
1E
100
AcDbEntity
  8
製品
  6
Continuous
 62
     7
100
AcDbLine
 10
1626.32705501716
 20
449.2265287053387
 30
0.0
 11
1627.42705501716
 21
449.2265287053387
 31
0.0
  0
LINE
  5
6CAE
330
1E
100
AcDbEntity
  8
製品
  6
Continuous
 62
     7
100
AcDbLine
 10
1635.227055017161
 20
449.426528705339
 30
0.0
 11
1635.227055017161
 21
450.426528705339
 31
0.0
  0
ARC
  5
6CAF
330
1E
100
AcDbEntity
  8
製品
  6
Continuous
 62
     7
100
AcDbCircle
 10
1635.76705501716
 20
449.8711687053387
 30
0.0
 40
0.24
100
AcDbArc
 50
180.0
 51
270.0
  0
ARC
  5
6CB0
330
1E
100
AcDbEntity
  8
製品
  6
Continuous
 62
     7
100
AcDbCircle
 10
1635.88705501716
 20
449.8711687053387
 30
0.0
 40
0.24
100
AcDbArc
 50
270.0
 51
0.0
  0
LINE
  5
6CB1
330
1E
100
AcDbEntity
  8
製品
  6
CENTER1
 62
     7
100
AcDbLine
 10
1635.82705501716
 20
453.1058987053389
 30
0.0
 11
1635.82705501716
 21
449.6358187053387
 31
0.0
  0
LINE
  5
6CB2
330
1E
100
AcDbEntity
  8
製品
  6
CENTER1
 62
     7
100
AcDbLine
 10
1627.027055017161
 20
453.1058987053389
 30
0.0
 11
1627.027055017161
 21
449.6265287053388
 31
0.0
  0
LINE
  5
6CB3
330
1E
100
AcDbEntity
  8
製品
  6
Continuous
 62
     7
100
AcDbLine
 10
1627.62705501716
 20
449.426528705339
 30
0.0
 11
1627.62705501716
 21
450.426528705339
 31
0.0
  0
ARC
  5
6CB4
330
1E
100
AcDbEntity
  8
製品
  6
Continuous
 62
     7
100
AcDbCircle
 10
1627.087055017161
 20
449.8711687053387
 30
0.0
 40
0.24
100
AcDbArc
 50
270.0
 51
0.0
  0
ARC
  5
6CB5
330
1E
100
AcDbEntity
  8
製品
  6
Continuous
 62
     7
100
AcDbCircle
 10
1626.96705501716
 20
449.8711687053387
 30
0.0
 40
0.24
100
AcDbArc
 50
180.0
 51
270.0
  0
CIRCLE
  5
6CB6
330
1E
100
AcDbEntity
  8
文字-記号
  6
Continuous
 62
     7
100
AcDbCircle
 10
1651.42705501716
 20
479.3023587053389
 30
0.0
 40
0.3
  0
LINE
  5
6CB7
330
1E
100
AcDbEntity
  8
製品
  6
Continuous
 62
     7
100
AcDbLine
 10
1814.07358501716
 20
472.8629887053389
 30
0.0
 11
1813.773585017161
 21
472.9629887053388
 31
0.0
  0
LINE
  5
6CB8
330
1E
100
AcDbEntity
  8
製品
  6
Continuous
 62
     7
100
AcDbLine
 10
1814.07358501716
 20
472.762988705339
 30
0.0
 11
1813.773585017161
 21
472.8629887053389
 31
0.0
  0
LINE
  5
6CB9
330
1E
100
AcDbEntity
  8
製品
  6
Continuous
 62
     7
100
AcDbLine
 10
1813.27358501716
 20
472.762988705339
 30
0.0
 11
1814.07358501716
 21
472.762988705339
 31
0.0
  0
LINE
  5
6CBA
330
1E
100
AcDbEntity
  8
文字-記号
  6
Continuous
 62
     7
100
AcDbLine
 10
1811.773585017161
 20
469.4478087053389
 30
0.0
 11
1821.588535017161
 21
452.4478087053389
 31
0.0
  0
LINE
  5
6CBB
330
1E
100
AcDbEntity
  8
製品
  6
Continuous
 62
     7
100
AcDbLine
 10
1813.27358501716
 20
472.762988705339
 30
0.0
 11
1822.27358501716
 21
472.762988705339
 31
0.0
  0
LINE
  5
6CBC
330
1E
100
AcDbEntity
  8
製品
  6
Continuous
 62
     7
100
AcDbLine
 10
1816.27358501716
 20
472.5629887053387
 30
0.0
 11
1811.773585017161
 21
472.5629887053387
 31
0.0
  0
TEXT
  5
6CBD
330
1E
100
AcDbEntity
  8
文字-記号
 62
     7
100
AcDbText
 10
1769.611469154976
 20
501.4339041644206
 30
0.0
 40
3.0
  1
タッピングビス
 41
0.8
  7
ACAD
100
AcDbText
  0
LINE
  5
6CBE
330
1E
100
AcDbEntity
  8
製品
  6
Continuous
 62
     7
100
AcDbLine
 10
1845.113585017161
 20
477.7629887053389
 30
0.0
 11
1765.113585017161
 21
477.7629887053389
 31
0.0
  0
LINE
  5
6CBF
330
1E
100
AcDbEntity
  8
製品
  6
Continuous
 62
     7
100
AcDbLine
 10
1765.113585017161
 20
485.3629887053389
 30
0.0
 11
1845.113585017161
 21
485.3629887053389
 31
0.0
  0
LINE
  5
6CC0
330
1E
100
AcDbEntity
  8
文字-記号
  6
Continuous
 62
     7
100
AcDbLine
 10
1811.413585017161
 20
449.9623587053388
 30
0.0
 11
1823.884345017161
 21
427.7629887053389
 31
0.0
  0
LINE
  5
6CC1
330
1E
100
AcDbEntity
  8
文字-記号
  6
Continuous
 62
     7
100
AcDbLine
 10
1792.06546501716
 20
500.3629887053389
 30
0.0
 11
1767.45481376978
 21
500.3629887053389
 31
0.0
  0
LINE
  5
6CC2
330
1E
100
AcDbEntity
  8
製品
  6
Continuous
 62
     7
100
AcDbLine
 10
1810.213585017161
 20
401.762988705339
 30
0.0
 11
1810.213585017161
 21
449.3629887053389
 31
0.0
  0
LINE
  5
6CC3
330
1E
100
AcDbEntity
  8
製品
  6
Continuous
 62
     7
100
AcDbLine
 10
1800.01358501716
 20
401.762988705339
 30
0.0
 11
1800.01358501716
 21
449.3629887053389
 31
0.0
  0
LINE
  5
6CC4
330
1E
100
AcDbEntity
  8
製品
  6
Continuous
 62
     7
100
AcDbLine
 10
1798.613585017161
 20
477.6029887053387
 30
0.0
 11
1798.613585017161
 21
401.762988705339
 31
0.0
  0
LINE
  5
6CC5
330
1E
100
AcDbEntity
  8
製品
  6
Continuous
 62
     7
100
AcDbLine
 10
1796.113585017161
 20
472.762988705339
 30
0.0
 11
1796.113585017161
 21
401.762988705339
 31
0.0
  0
LINE
  5
6CC6
330
1E
100
AcDbEntity
  8
製品
  6
Continuous
 62
     7
100
AcDbLine
 10
1811.613585017161
 20
477.6029887053387
 30
0.0
 11
1811.613585017161
 21
401.762988705339
 31
0.0
  0
LINE
  5
6CC7
330
1E
100
AcDbEntity
  8
製品
  6
DASHED_DOTTED
 62
     3
100
AcDbLine
 10
1805.113585017161
 20
489.3629887053389
 30
0.0
 11
1805.113585017161
 21
401.762988705339
 31
0.0
  0
TEXT
  5
6CC8
330
1E
100
AcDbEntity
  8
文字-記号
 62
     7
100
AcDbText
 10
1764.371975017161
 20
491.3629887053389
 30
0.0
 40
3.0
  1
シングル野縁
 41
0.8
  7
ACAD
100
AcDbText
  0
LINE
  5
6CC9
330
1E
100
AcDbEntity
  8
製品
  6
Continuous
 62
     7
100
AcDbLine
 10
1796.113585017161
 20
470.1629887053391
 30
0.0
 11
1765.113585017161
 21
470.1629887053391
 31
0.0
  0
LINE
  5
6CCA
330
1E
100
AcDbEntity
  8
製品
  6
Continuous
 62
     7
100
AcDbLine
 10
1794.113585017161
 20
467.5629887053387
 30
0.0
 11
1765.113585017161
 21
467.5629887053387
 31
0.0
  0
LINE
  5
6CCB
330
1E
100
AcDbEntity
  8
文字-記号
  6
Continuous
 62
     7
100
AcDbLine
 10
1782.395595017161
 20
490.3629887053389
 30
0.0
 11
1764.335595017161
 21
490.3629887053389
 31
0.0
  0
LINE
  5
6CCC
330
1E
100
AcDbEntity
  8
製品
  6
Continuous
 62
     7
100
AcDbLine
 10
1795.25358501716
 20
472.762988705339
 30
0.0
 11
1765.113585017161
 21
472.762988705339
 31
0.0
  0
ARC
  5
6CCD
330
1E
100
AcDbEntity
  8
製品
  6
Continuous
 62
     7
100
AcDbCircle
 10
1812.07358501716
 20
477.4629887053388
 30
0.0
 40
0.2
100
AcDbArc
 50
90.0
 51
180.0
  0
LINE
  5
6CCE
330
1E
100
AcDbEntity
  8
製品
  6
Continuous
 62
     7
100
AcDbLine
 10
1812.07358501716
 20
477.6629887053391
 30
0.0
 11
1812.273585017161
 21
477.6629887053391
 31
0.0
  0
ARC
  5
6CCF
330
1E
100
AcDbEntity
  8
製品
  6
Continuous
 62
     7
100
AcDbCircle
 10
1812.273585017161
 20
477.4629887053388
 30
0.0
 40
0.2
100
AcDbArc
 50
0.0
 51
90.0
  0
LINE
  5
6CD0
330
1E
100
AcDbEntity
  8
製品
  6
Continuous
 62
     7
100
AcDbLine
 10
1812.47358501716
 20
477.4629887053388
 30
0.0
 11
1812.47358501716
 21
477.1629887053391
 31
0.0
  0
LINE
  5
6CD1
330
1E
100
AcDbEntity
  8
製品
  6
Continuous
 62
     7
100
AcDbLine
 10
1812.47358501716
 20
477.1629887053391
 30
0.0
 11
1812.57358501716
 21
477.1629887053391
 31
0.0
  0
LINE
  5
6CD2
330
1E
100
AcDbEntity
  8
製品
  6
Continuous
 62
     7
100
AcDbLine
 10
1812.57358501716
 20
477.1629887053391
 30
0.0
 11
1812.57358501716
 21
477.4629887053388
 31
0.0
  0
ARC
  5
6CD3
330
1E
100
AcDbEntity
  8
製品
  6
Continuous
 62
     7
100
AcDbCircle
 10
1812.273585017161
 20
477.4629887053388
 30
0.0
 40
0.3
100
AcDbArc
 50
0.0
 51
90.0
  0
ARC
  5
6CD4
330
1E
100
AcDbEntity
  8
製品
  6
Continuous
 62
     7
100
AcDbCircle
 10
1812.07358501716
 20
477.4629887053388
 30
0.0
 40
0.3
100
AcDbArc
 50
90.0
 51
180.0
  0
LINE
  5
6CD5
330
1E
100
AcDbEntity
  8
製品
  6
Continuous
 62
     7
100
AcDbLine
 10
1811.773585017161
 20
473.3629887053389
 30
0.0
 11
1811.773585017161
 21
477.4629887053388
 31
0.0
  0
LINE
  5
6CD6
330
1E
100
AcDbEntity
  8
製品
  6
Continuous
 62
     7
100
AcDbLine
 10
1811.873585017161
 20
473.3629887053389
 30
0.0
 11
1811.873585017161
 21
477.4629887053388
 31
0.0
  0
CIRCLE
  5
6CD7
330
1E
100
AcDbEntity
  8
文字-記号
  6
Continuous
 62
     7
100
AcDbCircle
 10
1805.113585017161
 20
477.7629887053389
 30
0.0
 40
0.3
  0
ARC
  5
6CD8
330
1E
100
AcDbEntity
  8
製品
  6
Continuous
 62
     7
100
AcDbCircle
 10
1805.113585017161
 20
477.6029887053387
 30
0.0
 40
0.8
100
AcDbArc
 50
180.0
 51
0.0
  0
LINE
  5
6CD9
330
1E
100
AcDbEntity
  8
製品
  6
Continuous
 62
     7
100
AcDbLine
 10
1804.713585017161
 20
479.6029887053387
 30
0.0
 11
1804.713585017161
 21
477.6029887053387
 31
0.0
  0
LINE
  5
6CDA
330
1E
100
AcDbEntity
  8
製品
  6
Continuous
 62
     7
100
AcDbLine
 10
1805.51358501716
 20
477.6029887053387
 30
0.0
 11
1805.51358501716
 21
479.6029887053387
 31
0.0
  0
CIRCLE
  5
6CDB
330
1E
100
AcDbEntity
  8
文字-記号
  6
Continuous
 62
     7
100
AcDbCircle
 10
1811.773585017161
 20
469.4478087053389
 30
0.0
 40
0.3
  0
LINE
  5
6CDC
330
1E
100
AcDbEntity
  8
文字-記号
  6
Continuous
 62
     7
100
AcDbLine
 10
1811.773585017161
 20
469.4478087053389
 30
0.0
 11
1811.613585017161
 21
469.4478087053389
 31
0.0
  0
LINE
  5
6CDD
330
1E
100
AcDbEntity
  8
製品
  6
Continuous
 62
     7
100
AcDbLine
 10
1812.37358501716
 20
472.762988705339
 30
0.0
 11
1812.97358501716
 21
472.762988705339
 31
0.0
  0
LINE
  5
6CDE
330
1E
100
AcDbEntity
  8
製品
  6
Continuous
 62
     7
100
AcDbLine
 10
1812.37358501716
 20
472.8629887053389
 30
0.0
 11
1812.97358501716
 21
472.8629887053389
 31
0.0
  0
LINE
  5
6CDF
330
1E
100
AcDbEntity
  8
製品
  6
Continuous
 62
     7
100
AcDbLine
 10
1813.773585017161
 20
472.9629887053388
 30
0.0
 11
1813.47358501716
 21
472.8629887053389
 31
0.0
  0
LINE
  5
6CE0
330
1E
100
AcDbEntity
  8
製品
  6
Continuous
 62
     7
100
AcDbLine
 10
1813.47358501716
 20
472.8629887053389
 30
0.0
 11
1813.173585017161
 21
472.9629887053388
 31
0.0
  0
LINE
  5
6CE1
330
1E
100
AcDbEntity
  8
製品
  6
Continuous
 62
     7
100
AcDbLine
 10
1813.173585017161
 20
472.9629887053388
 30
0.0
 11
1812.97358501716
 21
472.8629887053389
 31
0.0
  0
LINE
  5
6CE2
330
1E
100
AcDbEntity
  8
製品
  6
Continuous
 62
     7
100
AcDbLine
 10
1813.773585017161
 20
472.8629887053389
 30
0.0
 11
1813.47358501716
 21
472.762988705339
 31
0.0
  0
LINE
  5
6CE3
330
1E
100
AcDbEntity
  8
製品
  6
Continuous
 62
     7
100
AcDbLine
 10
1813.47358501716
 20
472.762988705339
 30
0.0
 11
1813.173585017161
 21
472.8629887053389
 31
0.0
  0
LINE
  5
6CE4
330
1E
100
AcDbEntity
  8
製品
  6
Continuous
 62
     7
100
AcDbLine
 10
1813.173585017161
 20
472.8629887053389
 30
0.0
 11
1812.97358501716
 21
472.762988705339
 31
0.0
  0
LINE
  5
6CE5
330
1E
100
AcDbEntity
  8
製品
  6
Continuous
 62
     7
100
AcDbLine
 10
1813.27358501716
 20
472.762988705339
 30
0.0
 11
1813.27358501716
 21
472.5629887053387
 31
0.0
  0
LINE
  5
6CE6
330
1E
100
AcDbEntity
  8
製品
  6
Continuous
 62
     7
100
AcDbLine
 10
1811.413585017161
 20
453.242358705339
 30
0.0
 11
1811.413585017161
 21
449.9223587053388
 31
0.0
  0
LINE
  5
6CE7
330
1E
100
AcDbEntity
  8
製品
  6
Continuous
 62
     7
100
AcDbLine
 10
1804.413585017161
 20
452.0423587053387
 30
0.0
 11
1804.413585017161
 21
451.0423587053387
 31
0.0
  0
ARC
  5
6CE8
330
1E
100
AcDbEntity
  8
製品
  6
Continuous
 62
     7
100
AcDbCircle
 10
1804.613585017161
 20
452.0423587053387
 30
0.0
 40
0.2
100
AcDbArc
 50
90.0
 51
180.0
  0
LINE
  5
6CE9
330
1E
100
AcDbEntity
  8
製品
  6
Continuous
 62
     7
100
AcDbLine
 10
1804.613585017161
 20
452.242358705339
 30
0.0
 11
1805.613585017161
 21
452.242358705339
 31
0.0
  0
ARC
  5
6CEA
330
1E
100
AcDbEntity
  8
製品
  6
Continuous
 62
     7
100
AcDbCircle
 10
1804.613585017161
 20
451.0423587053387
 30
0.0
 40
0.2
100
AcDbArc
 50
180.0
 51
270.0
  0
LINE
  5
6CEB
330
1E
100
AcDbEntity
  8
製品
  6
Continuous
 62
     7
100
AcDbLine
 10
1804.613585017161
 20
450.8423587053389
 30
0.0
 11
1805.613585017161
 21
450.8423587053389
 31
0.0
  0
ARC
  5
6CEC
330
1E
100
AcDbEntity
  8
製品
  6
Continuous
 62
     7
100
AcDbCircle
 10
1805.613585017161
 20
451.0423587053387
 30
0.0
 40
0.2
100
AcDbArc
 50
270.0
 51
0.0
  0
LINE
  5
6CED
330
1E
100
AcDbEntity
  8
製品
  6
Continuous
 62
     7
100
AcDbLine
 10
1805.81358501716
 20
451.0423587053387
 30
0.0
 11
1805.81358501716
 21
452.0423587053387
 31
0.0
  0
ARC
  5
6CEE
330
1E
100
AcDbEntity
  8
製品
  6
Continuous
 62
     7
100
AcDbCircle
 10
1805.613585017161
 20
452.0423587053387
 30
0.0
 40
0.2
100
AcDbArc
 50
0.0
 51
90.0
  0
LINE
  5
6CEF
330
1E
100
AcDbEntity
  8
製品
  6
Continuous
 62
     7
100
AcDbLine
 10
1798.83027501716
 20
449.8423587053389
 30
0.0
 11
1805.113585017161
 21
449.8423587053389
 31
0.0
  0
LINE
  5
6CF0
330
1E
100
AcDbEntity
  8
製品
  6
DASHED2
 62
     7
100
AcDbLine
 10
1811.413585017161
 20
449.9623587053388
 30
0.0
 11
1805.113585017161
 21
449.9623587053388
 31
0.0
  0
LINE
  5
6CF1
330
1E
100
AcDbEntity
  8
製品
  6
DASHED2
 62
     7
100
AcDbLine
 10
1811.413585017161
 20
453.1223587053391
 30
0.0
 11
1805.113585017161
 21
453.1223587053391
 31
0.0
  0
LINE
  5
6CF2
330
1E
100
AcDbEntity
  8
製品
  6
Continuous
 62
     7
100
AcDbLine
 10
1805.113585017161
 20
453.242358705339
 30
0.0
 11
1811.413585017161
 21
453.242358705339
 31
0.0
  0
LINE
  5
6CF3
330
1E
100
AcDbEntity
  8
製品
  6
Continuous
 62
     7
100
AcDbLine
 10
1811.39688501716
 20
449.8423587053389
 30
0.0
 11
1805.113585017161
 21
449.8423587053389
 31
0.0
  0
LINE
  5
6CF4
330
1E
100
AcDbEntity
  8
製品
  6
Continuous
 62
     7
100
AcDbLine
 10
1800.01358501716
 20
452.7629887053389
 30
0.0
 11
1800.01358501716
 21
477.6029887053387
 31
0.0
  0
LINE
  5
6CF5
330
1E
100
AcDbEntity
  8
製品
  6
Continuous
 62
     7
100
AcDbLine
 10
1810.213585017161
 20
452.7629887053389
 30
0.0
 11
1810.213585017161
 21
477.6029887053387
 31
0.0
  0
LINE
  5
6CF6
330
1E
100
AcDbEntity
  8
製品
  6
Continuous
 62
     7
100
AcDbLine
 10
1811.773585017161
 20
477.4478087053389
 30
0.0
 11
1811.773585017161
 21
469.4478087053389
 31
0.0
  0
ARC
  5
6CF7
330
1E
100
AcDbEntity
  8
製品
  6
Continuous
 62
     7
100
AcDbCircle
 10
1812.37358501716
 20
473.3629887053389
 30
0.0
 40
0.6
100
AcDbArc
 50
180.0
 51
270.0
  0
ARC
  5
6CF8
330
1E
100
AcDbEntity
  8
製品
  6
Continuous
 62
     7
100
AcDbCircle
 10
1812.37358501716
 20
473.3629887053389
 30
0.0
 40
0.5
100
AcDbArc
 50
180.0
 51
270.0
  0
LINE
  5
6CF9
330
1E
100
AcDbEntity
  8
製品
  6
Continuous
 62
     7
100
AcDbLine
 10
1796.013585017161
 20
473.3629887053389
 30
0.0
 11
1796.013585017161
 21
477.4629887053388
 31
0.0
  0
LINE
  5
6CFA
330
1E
100
AcDbEntity
  8
製品
  6
Continuous
 62
     7
100
AcDbLine
 10
1796.113585017161
 20
473.3629887053389
 30
0.0
 11
1796.113585017161
 21
477.4629887053388
 31
0.0
  0
ARC
  5
6CFB
330
1E
100
AcDbEntity
  8
製品
  6
Continuous
 62
     7
100
AcDbCircle
 10
1795.81358501716
 20
477.4629887053388
 30
0.0
 40
0.2
100
AcDbArc
 50
0.0
 51
90.0
  0
LINE
  5
6CFC
330
1E
100
AcDbEntity
  8
製品
  6
Continuous
 62
     7
100
AcDbLine
 10
1795.81358501716
 20
477.6629887053391
 30
0.0
 11
1795.613585017161
 21
477.6629887053391
 31
0.0
  0
ARC
  5
6CFD
330
1E
100
AcDbEntity
  8
製品
  6
Continuous
 62
     7
100
AcDbCircle
 10
1795.613585017161
 20
477.4629887053388
 30
0.0
 40
0.2
100
AcDbArc
 50
90.0
 51
180.0
  0
LINE
  5
6CFE
330
1E
100
AcDbEntity
  8
製品
  6
Continuous
 62
     7
100
AcDbLine
 10
1795.413585017161
 20
477.4629887053388
 30
0.0
 11
1795.413585017161
 21
477.1629887053391
 31
0.0
  0
LINE
  5
6CFF
330
1E
100
AcDbEntity
  8
製品
  6
Continuous
 62
     7
100
AcDbLine
 10
1795.413585017161
 20
477.1629887053391
 30
0.0
 11
1795.31358501716
 21
477.1629887053391
 31
0.0
  0
LINE
  5
6D00
330
1E
100
AcDbEntity
  8
製品
  6
Continuous
 62
     7
100
AcDbLine
 10
1795.31358501716
 20
477.1629887053391
 30
0.0
 11
1795.31358501716
 21
477.4629887053388
 31
0.0
  0
ARC
  5
6D01
330
1E
100
AcDbEntity
  8
製品
  6
Continuous
 62
     7
100
AcDbCircle
 10
1795.613585017161
 20
477.4629887053388
 30
0.0
 40
0.3
100
AcDbArc
 50
90.0
 51
180.0
  0
ARC
  5
6D02
330
1E
100
AcDbEntity
  8
製品
  6
Continuous
 62
     7
100
AcDbCircle
 10
1795.81358501716
 20
477.4629887053388
 30
0.0
 40
0.3
100
AcDbArc
 50
0.0
 51
90.0
  0
CIRCLE
  5
6D03
330
1E
100
AcDbEntity
  8
文字-記号
  6
Continuous
 62
     7
100
AcDbCircle
 10
1791.113585017161
 20
475.262988705339
 30
0.0
 40
0.3
  0
LINE
  5
6D04
330
1E
100
AcDbEntity
  8
製品
  6
Continuous
 62
     7
100
AcDbLine
 10
1791.213585017161
 20
473.3629887053389
 30
0.0
 11
1791.213585017161
 21
477.4629887053388
 31
0.0
  0
LINE
  5
6D05
330
1E
100
AcDbEntity
  8
製品
  6
Continuous
 62
     7
100
AcDbLine
 10
1791.113585017161
 20
473.3629887053389
 30
0.0
 11
1791.113585017161
 21
477.4629887053388
 31
0.0
  0
ARC
  5
6D06
330
1E
100
AcDbEntity
  8
製品
  6
Continuous
 62
     7
100
AcDbCircle
 10
1791.413585017161
 20
477.4629887053388
 30
0.0
 40
0.2
100
AcDbArc
 50
90.0
 51
180.0
  0
LINE
  5
6D07
330
1E
100
AcDbEntity
  8
製品
  6
Continuous
 62
     7
100
AcDbLine
 10
1791.413585017161
 20
477.6629887053391
 30
0.0
 11
1791.613585017161
 21
477.6629887053391
 31
0.0
  0
ARC
  5
6D08
330
1E
100
AcDbEntity
  8
製品
  6
Continuous
 62
     7
100
AcDbCircle
 10
1791.613585017161
 20
477.4629887053388
 30
0.0
 40
0.2
100
AcDbArc
 50
0.0
 51
90.0
  0
LINE
  5
6D09
330
1E
100
AcDbEntity
  8
製品
  6
Continuous
 62
     7
100
AcDbLine
 10
1791.81358501716
 20
477.4629887053388
 30
0.0
 11
1791.81358501716
 21
477.1629887053391
 31
0.0
  0
LINE
  5
6D0A
330
1E
100
AcDbEntity
  8
製品
  6
Continuous
 62
     7
100
AcDbLine
 10
1791.81358501716
 20
477.1629887053391
 30
0.0
 11
1791.913585017161
 21
477.1629887053391
 31
0.0
  0
LINE
  5
6D0B
330
1E
100
AcDbEntity
  8
製品
  6
Continuous
 62
     7
100
AcDbLine
 10
1791.913585017161
 20
477.1629887053391
 30
0.0
 11
1791.913585017161
 21
477.4629887053388
 31
0.0
  0
ARC
  5
6D0C
330
1E
100
AcDbEntity
  8
製品
  6
Continuous
 62
     7
100
AcDbCircle
 10
1791.613585017161
 20
477.4629887053388
 30
0.0
 40
0.3
100
AcDbArc
 50
0.0
 51
90.0
  0
ARC
  5
6D0D
330
1E
100
AcDbEntity
  8
製品
  6
Continuous
 62
     7
100
AcDbCircle
 10
1791.413585017161
 20
477.4629887053388
 30
0.0
 40
0.3
100
AcDbArc
 50
90.0
 51
180.0
  0
LINE
  5
6D0E
330
1E
100
AcDbEntity
  8
文字-記号
  6
Continuous
 62
     7
100
AcDbLine
 10
1791.113585017161
 20
475.262988705339
 30
0.0
 11
1782.395595017161
 21
490.3629887053389
 31
0.0
  0
LINE
  5
6D0F
330
1E
100
AcDbEntity
  8
製品
  6
Continuous
 62
     7
100
AcDbLine
 10
1798.453585017161
 20
472.762988705339
 30
0.0
 11
1795.45358501716
 21
472.762988705339
 31
0.0
  0
LINE
  5
6D10
330
1E
100
AcDbEntity
  8
製品
  6
Continuous
 62
     7
100
AcDbLine
 10
1798.613585017161
 20
469.7629887053389
 30
0.0
 11
1798.453585017161
 21
469.7629887053389
 31
0.0
  0
LINE
  5
6D11
330
1E
100
AcDbEntity
  8
製品
  6
Continuous
 62
     7
100
AcDbLine
 10
1795.51358501716
 20
472.8629887053389
 30
0.0
 11
1795.31358501716
 21
472.8629887053389
 31
0.0
  0
LINE
  5
6D12
330
1E
100
AcDbEntity
  8
製品
  6
Continuous
 62
     7
100
AcDbLine
 10
1795.51358501716
 20
472.762988705339
 30
0.0
 11
1795.31358501716
 21
472.762988705339
 31
0.0
  0
LINE
  5
6D13
330
1E
100
AcDbEntity
  8
製品
  6
Continuous
 62
     7
100
AcDbLine
 10
1795.31358501716
 20
472.762988705339
 30
0.0
 11
1795.113585017161
 21
472.8629887053389
 31
0.0
  0
LINE
  5
6D14
330
1E
100
AcDbEntity
  8
製品
  6
Continuous
 62
     7
100
AcDbLine
 10
1795.113585017161
 20
472.8629887053389
 30
0.0
 11
1794.81358501716
 21
472.762988705339
 31
0.0
  0
LINE
  5
6D15
330
1E
100
AcDbEntity
  8
製品
  6
Continuous
 62
     7
100
AcDbLine
 10
1795.113585017161
 20
472.9629887053388
 30
0.0
 11
1794.81358501716
 21
472.8629887053389
 31
0.0
  0
LINE
  5
6D16
330
1E
100
AcDbEntity
  8
製品
  6
Continuous
 62
     7
100
AcDbLine
 10
1795.31358501716
 20
472.8629887053389
 30
0.0
 11
1795.113585017161
 21
472.9629887053388
 31
0.0
  0
LINE
  5
6D17
330
1E
100
AcDbEntity
  8
製品
  6
Continuous
 62
     7
100
AcDbLine
 10
1794.113585017161
 20
470.1629887053391
 30
0.0
 11
1794.113585017161
 21
467.5629887053387
 31
0.0
  0
LINE
  5
6D18
330
1E
100
AcDbEntity
  8
製品
  6
Continuous
 62
     7
100
AcDbLine
 10
1794.513585017161
 20
472.8629887053389
 30
0.0
 11
1794.21358501716
 21
472.762988705339
 31
0.0
  0
LINE
  5
6D19
330
1E
100
AcDbEntity
  8
製品
  6
Continuous
 62
     7
100
AcDbLine
 10
1794.21358501716
 20
472.762988705339
 30
0.0
 11
1793.91358501716
 21
472.8629887053389
 31
0.0
  0
LINE
  5
6D1A
330
1E
100
AcDbEntity
  8
製品
  6
Continuous
 62
     7
100
AcDbLine
 10
1793.91358501716
 20
472.8629887053389
 30
0.0
 11
1793.613585017161
 21
472.762988705339
 31
0.0
  0
LINE
  5
6D1B
330
1E
100
AcDbEntity
  8
製品
  6
Continuous
 62
     7
100
AcDbLine
 10
1794.513585017161
 20
472.9629887053388
 30
0.0
 11
1794.21358501716
 21
472.8629887053389
 31
0.0
  0
LINE
  5
6D1C
330
1E
100
AcDbEntity
  8
製品
  6
Continuous
 62
     7
100
AcDbLine
 10
1794.21358501716
 20
472.8629887053389
 30
0.0
 11
1793.91358501716
 21
472.9629887053388
 31
0.0
  0
LINE
  5
6D1D
330
1E
100
AcDbEntity
  8
製品
  6
Continuous
 62
     7
100
AcDbLine
 10
1793.91358501716
 20
472.9629887053388
 30
0.0
 11
1793.613585017161
 21
472.8629887053389
 31
0.0
  0
LINE
  5
6D1E
330
1E
100
AcDbEntity
  8
製品
  6
Continuous
 62
     7
100
AcDbLine
 10
1791.713585017161
 20
472.8629887053389
 30
0.0
 11
1791.913585017161
 21
472.8629887053389
 31
0.0
  0
LINE
  5
6D1F
330
1E
100
AcDbEntity
  8
製品
  6
Continuous
 62
     7
100
AcDbLine
 10
1791.713585017161
 20
472.762988705339
 30
0.0
 11
1791.913585017161
 21
472.762988705339
 31
0.0
  0
LINE
  5
6D20
330
1E
100
AcDbEntity
  8
製品
  6
Continuous
 62
     7
100
AcDbLine
 10
1791.913585017161
 20
472.762988705339
 30
0.0
 11
1792.113585017161
 21
472.8629887053389
 31
0.0
  0
LINE
  5
6D21
330
1E
100
AcDbEntity
  8
製品
  6
Continuous
 62
     7
100
AcDbLine
 10
1792.113585017161
 20
472.8629887053389
 30
0.0
 11
1792.41358501716
 21
472.762988705339
 31
0.0
  0
LINE
  5
6D22
330
1E
100
AcDbEntity
  8
製品
  6
Continuous
 62
     7
100
AcDbLine
 10
1792.41358501716
 20
472.762988705339
 30
0.0
 11
1792.713585017161
 21
472.8629887053389
 31
0.0
  0
LINE
  5
6D23
330
1E
100
AcDbEntity
  8
製品
  6
Continuous
 62
     7
100
AcDbLine
 10
1792.713585017161
 20
472.8629887053389
 30
0.0
 11
1793.01358501716
 21
472.762988705339
 31
0.0
  0
LINE
  5
6D24
330
1E
100
AcDbEntity
  8
製品
  6
Continuous
 62
     7
100
AcDbLine
 10
1793.01358501716
 20
472.762988705339
 30
0.0
 11
1793.31358501716
 21
472.8629887053389
 31
0.0
  0
LINE
  5
6D25
330
1E
100
AcDbEntity
  8
製品
  6
Continuous
 62
     7
100
AcDbLine
 10
1793.31358501716
 20
472.8629887053389
 30
0.0
 11
1793.613585017161
 21
472.762988705339
 31
0.0
  0
LINE
  5
6D26
330
1E
100
AcDbEntity
  8
製品
  6
Continuous
 62
     7
100
AcDbLine
 10
1792.113585017161
 20
472.9629887053388
 30
0.0
 11
1792.41358501716
 21
472.8629887053389
 31
0.0
  0
LINE
  5
6D27
330
1E
100
AcDbEntity
  8
製品
  6
Continuous
 62
     7
100
AcDbLine
 10
1792.41358501716
 20
472.8629887053389
 30
0.0
 11
1792.713585017161
 21
472.9629887053388
 31
0.0
  0
LINE
  5
6D28
330
1E
100
AcDbEntity
  8
製品
  6
Continuous
 62
     7
100
AcDbLine
 10
1792.713585017161
 20
472.9629887053388
 30
0.0
 11
1793.01358501716
 21
472.8629887053389
 31
0.0
  0
LINE
  5
6D29
330
1E
100
AcDbEntity
  8
製品
  6
Continuous
 62
     7
100
AcDbLine
 10
1793.01358501716
 20
472.8629887053389
 30
0.0
 11
1793.31358501716
 21
472.9629887053388
 31
0.0
  0
LINE
  5
6D2A
330
1E
100
AcDbEntity
  8
製品
  6
Continuous
 62
     7
100
AcDbLine
 10
1793.31358501716
 20
472.9629887053388
 30
0.0
 11
1793.613585017161
 21
472.8629887053389
 31
0.0
  0
LINE
  5
6D2B
330
1E
100
AcDbEntity
  8
製品
  6
Continuous
 62
     7
100
AcDbLine
 10
1791.913585017161
 20
472.8629887053389
 30
0.0
 11
1792.113585017161
 21
472.9629887053388
 31
0.0
  0
LINE
  5
6D2C
330
1E
100
AcDbEntity
  8
製品
  6
Continuous
 62
     7
100
AcDbLine
 10
1794.81358501716
 20
472.762988705339
 30
0.0
 11
1794.513585017161
 21
472.8629887053389
 31
0.0
  0
LINE
  5
6D2D
330
1E
100
AcDbEntity
  8
製品
  6
Continuous
 62
     7
100
AcDbLine
 10
1794.81358501716
 20
472.8629887053389
 30
0.0
 11
1794.513585017161
 21
472.9629887053388
 31
0.0
  0
LINE
  5
6D2E
330
1E
100
AcDbEntity
  8
製品
  6
Continuous
 62
     7
100
AcDbLine
 10
1798.81358501716
 20
449.9223587053388
 30
0.0
 11
1798.81358501716
 21
453.242358705339
 31
0.0
  0
LINE
  5
6D2F
330
1E
100
AcDbEntity
  8
製品
  6
Continuous
 62
     7
100
AcDbLine
 10
1798.453585017161
 20
469.7629887053389
 30
0.0
 11
1798.453585017161
 21
477.7629887053389
 31
0.0
  0
ARC
  5
6D30
330
1E
100
AcDbEntity
  8
製品
  6
Continuous
 62
     7
100
AcDbCircle
 10
1791.713585017161
 20
473.3629887053389
 30
0.0
 40
0.5
100
AcDbArc
 50
180.0
 51
270.0
  0
ARC
  5
6D31
330
1E
100
AcDbEntity
  8
製品
  6
Continuous
 62
     7
100
AcDbCircle
 10
1791.713585017161
 20
473.3629887053389
 30
0.0
 40
0.6
100
AcDbArc
 50
180.0
 51
270.0
  0
ARC
  5
6D32
330
1E
100
AcDbEntity
  8
製品
  6
Continuous
 62
     7
100
AcDbCircle
 10
1795.51358501716
 20
473.3629887053389
 30
0.0
 40
0.5
100
AcDbArc
 50
270.0
 51
0.0
  0
ARC
  5
6D33
330
1E
100
AcDbEntity
  8
製品
  6
Continuous
 62
     7
100
AcDbCircle
 10
1795.51358501716
 20
473.3629887053389
 30
0.0
 40
0.6
100
AcDbArc
 50
270.0
 51
0.0
  0
LINE
  5
6D34
330
1E
100
AcDbEntity
  8
文字-記号
  6
Continuous
 62
     7
100
AcDbLine
 10
1805.113585017161
 20
477.7629887053389
 30
0.0
 11
1792.06546501716
 21
500.3629887053389
 31
0.0
  0
LINE
  5
6D35
330
1E
100
AcDbEntity
  8
製品
  6
Continuous
 62
     7
100
AcDbLine
 10
1811.613585017161
 20
477.6029887053387
 30
0.0
 11
1798.613585017161
 21
477.6029887053387
 31
0.0
  0
LINE
  5
6D36
330
1E
100
AcDbEntity
  8
製品
  6
DASHED2
 62
     7
100
AcDbLine
 10
1798.81358501716
 20
449.9623587053388
 30
0.0
 11
1805.113585017161
 21
449.9623587053388
 31
0.0
  0
LINE
  5
6D37
330
1E
100
AcDbEntity
  8
製品
  6
DASHED2
 62
     7
100
AcDbLine
 10
1798.81358501716
 20
453.1223587053391
 30
0.0
 11
1805.113585017161
 21
453.1223587053391
 31
0.0
  0
LINE
  5
6D38
330
1E
100
AcDbEntity
  8
製品
  6
Continuous
 62
     7
100
AcDbLine
 10
1805.113585017161
 20
453.242358705339
 30
0.0
 11
1798.81358501716
 21
453.242358705339
 31
0.0
  0
LINE
  5
6D39
330
1E
100
AcDbEntity
  8
製品
  6
Continuous
 62
     7
100
AcDbLine
 10
1810.163585017161
 20
449.3629887053389
 30
0.0
 11
1809.813585017161
 21
449.3629887053389
 31
0.0
  0
LINE
  5
6D3A
330
1E
100
AcDbEntity
  8
製品
  6
Continuous
 62
     7
100
AcDbLine
 10
1808.713585017161
 20
447.3629887053389
 30
0.0
 11
1807.81358501716
 21
447.3629887053389
 31
0.0
  0
LINE
  5
6D3B
330
1E
100
AcDbEntity
  8
製品
  6
Continuous
 62
     7
100
AcDbLine
 10
1810.163585017161
 20
449.4223587053388
 30
0.0
 11
1810.163585017161
 21
448.5223587053387
 31
0.0
  0
LINE
  5
6D3C
330
1E
100
AcDbEntity
  8
製品
  6
Continuous
 62
     7
100
AcDbLine
 10
1808.91358501716
 20
446.1629887053391
 30
0.0
 11
1808.91358501716
 21
447.162988705339
 31
0.0
  0
ARC
  5
6D3D
330
1E
100
AcDbEntity
  8
製品
  6
Continuous
 62
     7
100
AcDbCircle
 10
1809.113585017161
 20
446.1629887053391
 30
0.0
 40
0.2
100
AcDbArc
 50
180.0
 51
270.0
  0
ARC
  5
6D3E
330
1E
100
AcDbEntity
  8
製品
  6
Continuous
 62
     7
100
AcDbCircle
 10
1808.713585017161
 20
447.162988705339
 30
0.0
 40
0.2
100
AcDbArc
 50
0.0
 51
90.0
  0
LINE
  5
6D3F
330
1E
100
AcDbEntity
  8
製品
  6
Continuous
 62
     7
100
AcDbLine
 10
1809.453585017161
 20
446.367628705339
 30
0.0
 11
1809.57358501716
 21
446.367628705339
 31
0.0
  0
ARC
  5
6D40
330
1E
100
AcDbEntity
  8
製品
  6
Continuous
 62
     7
100
AcDbCircle
 10
1809.453585017161
 20
446.6076287053388
 30
0.0
 40
0.24
100
AcDbArc
 50
180.0
 51
270.0
  0
LINE
  5
6D41
330
1E
100
AcDbEntity
  8
製品
  6
Continuous
 62
     7
100
AcDbLine
 10
1809.213585017161
 20
446.6076287053388
 30
0.0
 11
1809.213585017161
 21
449.4229887053388
 31
0.0
  0
LINE
  5
6D42
330
1E
100
AcDbEntity
  8
製品
  6
Continuous
 62
     7
100
AcDbLine
 10
1809.813585017161
 20
446.6076287053388
 30
0.0
 11
1809.813585017161
 21
449.4229887053388
 31
0.0
  0
ARC
  5
6D43
330
1E
100
AcDbEntity
  8
製品
  6
Continuous
 62
     7
100
AcDbCircle
 10
1809.57358501716
 20
446.6076287053388
 30
0.0
 40
0.24
100
AcDbArc
 50
270.0
 51
0.0
  0
ARC
  5
6D44
330
1E
100
AcDbEntity
  8
製品
  6
Continuous
 62
     7
100
AcDbCircle
 10
1809.453585017161
 20
449.4229887053388
 30
0.0
 40
0.24
100
AcDbArc
 50
90.0
 51
180.0
  0
LINE
  5
6D45
330
1E
100
AcDbEntity
  8
製品
  6
Continuous
 62
     7
100
AcDbLine
 10
1809.453585017161
 20
449.6629887053391
 30
0.0
 11
1809.57358501716
 21
449.6629887053391
 31
0.0
  0
ARC
  5
6D46
330
1E
100
AcDbEntity
  8
製品
  6
Continuous
 62
     7
100
AcDbCircle
 10
1809.57358501716
 20
449.4229887053388
 30
0.0
 40
0.24
100
AcDbArc
 50
0.0
 51
90.0
  0
ARC
  5
6D47
330
1E
100
AcDbEntity
  8
製品
  6
Continuous
 62
     7
100
AcDbCircle
 10
1810.463585017161
 20
449.4223587053388
 30
0.0
 40
0.3
100
AcDbArc
 50
90.0
 51
180.0
  0
ARC
  5
6D48
330
1E
100
AcDbEntity
  8
製品
  6
Continuous
 62
     7
100
AcDbCircle
 10
1807.81358501716
 20
447.5629887053387
 30
0.0
 40
0.2
100
AcDbArc
 50
180.0
 51
270.0
  0
LINE
  5
6D49
330
1E
100
AcDbEntity
  8
製品
  6
Continuous
 62
     7
100
AcDbLine
 10
1807.613585017161
 20
447.5629887053387
 30
0.0
 11
1807.613585017161
 21
448.5629887053387
 31
0.0
  0
ARC
  5
6D4A
330
1E
100
AcDbEntity
  8
製品
  6
Continuous
 62
     7
100
AcDbCircle
 10
1807.413585017161
 20
448.5629887053387
 30
0.0
 40
0.2
100
AcDbArc
 50
0.0
 51
90.0
  0
LINE
  5
6D4B
330
1E
100
AcDbEntity
  8
製品
  6
Continuous
 62
     7
100
AcDbLine
 10
1810.213585017161
 20
448.475218705339
 30
0.0
 11
1810.163585017161
 21
448.5223587053387
 31
0.0
  0
LINE
  5
6D4C
330
1E
100
AcDbEntity
  8
製品
  6
Continuous
 62
     7
100
AcDbLine
 10
1809.113585017161
 20
445.9629887053388
 30
0.0
 11
1810.213585017161
 21
445.9629887053388
 31
0.0
  0
LINE
  5
6D4D
330
1E
100
AcDbEntity
  8
製品
  6
Continuous
 62
     7
100
AcDbLine
 10
1810.463585017161
 20
449.722358705339
 30
0.0
 11
1811.213585017161
 21
449.722358705339
 31
0.0
  0
LINE
  5
6D4E
330
1E
100
AcDbEntity
  8
製品
  6
Continuous
 62
     7
100
AcDbLine
 10
1800.41358501716
 20
449.3629887053389
 30
0.0
 11
1800.063585017161
 21
449.3629887053389
 31
0.0
  0
ARC
  5
6D4F
330
1E
100
AcDbEntity
  8
製品
  6
Continuous
 62
     7
100
AcDbCircle
 10
1802.813585017161
 20
448.5629887053387
 30
0.0
 40
0.2
100
AcDbArc
 50
90.0
 51
180.0
  0
ARC
  5
6D50
330
1E
100
AcDbEntity
  8
製品
  6
Continuous
 62
     7
100
AcDbCircle
 10
1801.113585017161
 20
446.1629887053391
 30
0.0
 40
0.2
100
AcDbArc
 50
270.0
 51
0.0
  0
LINE
  5
6D51
330
1E
100
AcDbEntity
  8
製品
  6
Continuous
 62
     7
100
AcDbLine
 10
1801.313585017161
 20
446.1629887053391
 30
0.0
 11
1801.313585017161
 21
447.162988705339
 31
0.0
  0
LINE
  5
6D52
330
1E
100
AcDbEntity
  8
製品
  6
Continuous
 62
     7
100
AcDbLine
 10
1801.513585017161
 20
447.3629887053389
 30
0.0
 11
1802.413585017161
 21
447.3629887053389
 31
0.0
  0
ARC
  5
6D53
330
1E
100
AcDbEntity
  8
製品
  6
Continuous
 62
     7
100
AcDbCircle
 10
1801.513585017161
 20
447.162988705339
 30
0.0
 40
0.2
100
AcDbArc
 50
90.0
 51
180.0
  0
ARC
  5
6D54
330
1E
100
AcDbEntity
  8
製品
  6
Continuous
 62
     7
100
AcDbCircle
 10
1802.413585017161
 20
447.5629887053387
 30
0.0
 40
0.2
100
AcDbArc
 50
270.0
 51
0.0
  0
LINE
  5
6D55
330
1E
100
AcDbEntity
  8
製品
  6
Continuous
 62
     7
100
AcDbLine
 10
1802.613585017161
 20
447.5629887053387
 30
0.0
 11
1802.613585017161
 21
448.5629887053387
 31
0.0
  0
ARC
  5
6D56
330
1E
100
AcDbEntity
  8
製品
  6
Continuous
 62
     7
100
AcDbCircle
 10
1800.77358501716
 20
449.4229887053388
 30
0.0
 40
0.24
100
AcDbArc
 50
0.0
 51
90.0
  0
LINE
  5
6D57
330
1E
100
AcDbEntity
  8
製品
  6
Continuous
 62
     7
100
AcDbLine
 10
1801.01358501716
 20
446.6076287053388
 30
0.0
 11
1801.01358501716
 21
449.4229887053388
 31
0.0
  0
ARC
  5
6D58
330
1E
100
AcDbEntity
  8
製品
  6
Continuous
 62
     7
100
AcDbCircle
 10
1800.77358501716
 20
446.6076287053388
 30
0.0
 40
0.24
100
AcDbArc
 50
270.0
 51
0.0
  0
LINE
  5
6D59
330
1E
100
AcDbEntity
  8
製品
  6
Continuous
 62
     7
100
AcDbLine
 10
1800.653585017161
 20
446.358338705339
 30
0.0
 11
1800.77358501716
 21
446.358338705339
 31
0.0
  0
ARC
  5
6D5A
330
1E
100
AcDbEntity
  8
製品
  6
Continuous
 62
     7
100
AcDbCircle
 10
1800.653585017161
 20
446.6076287053388
 30
0.0
 40
0.24
100
AcDbArc
 50
180.0
 51
270.0
  0
LINE
  5
6D5B
330
1E
100
AcDbEntity
  8
製品
  6
Continuous
 62
     7
100
AcDbLine
 10
1800.41358501716
 20
446.6076287053388
 30
0.0
 11
1800.41358501716
 21
449.4229887053388
 31
0.0
  0
ARC
  5
6D5C
330
1E
100
AcDbEntity
  8
製品
  6
Continuous
 62
     7
100
AcDbCircle
 10
1800.653585017161
 20
449.4229887053388
 30
0.0
 40
0.24
100
AcDbArc
 50
90.0
 51
180.0
  0
LINE
  5
6D5D
330
1E
100
AcDbEntity
  8
製品
  6
Continuous
 62
     7
100
AcDbLine
 10
1800.653585017161
 20
449.6629887053391
 30
0.0
 11
1800.77358501716
 21
449.6629887053391
 31
0.0
  0
LINE
  5
6D5E
330
1E
100
AcDbEntity
  8
製品
  6
Continuous
 62
     7
100
AcDbLine
 10
1799.76358501716
 20
449.722358705339
 30
0.0
 11
1799.01358501716
 21
449.722358705339
 31
0.0
  0
ARC
  5
6D5F
330
1E
100
AcDbEntity
  8
製品
  6
Continuous
 62
     7
100
AcDbCircle
 10
1799.76358501716
 20
449.4223587053388
 30
0.0
 40
0.3
100
AcDbArc
 50
0.0
 51
90.0
  0
LINE
  5
6D60
330
1E
100
AcDbEntity
  8
製品
  6
Continuous
 62
     7
100
AcDbLine
 10
1800.063585017161
 20
449.4223587053388
 30
0.0
 11
1800.063585017161
 21
448.5223587053387
 31
0.0
  0
LINE
  5
6D61
330
1E
100
AcDbEntity
  8
製品
  6
Continuous
 62
     7
100
AcDbLine
 10
1800.01358501716
 20
448.475218705339
 30
0.0
 11
1800.063585017161
 21
448.5223587053387
 31
0.0
  0
LINE
  5
6D62
330
1E
100
AcDbEntity
  8
製品
  6
Continuous
 62
     7
100
AcDbLine
 10
1800.01358501716
 20
445.9629887053388
 30
0.0
 11
1801.113585017161
 21
445.9629887053388
 31
0.0
  0
LINE
  5
6D63
330
1E
100
AcDbEntity
  8
製品
  6
Continuous
 62
     7
100
AcDbLine
 10
1805.113585017161
 20
449.3629887053389
 30
0.0
 11
1801.01358501716
 21
449.3629887053389
 31
0.0
  0
LINE
  5
6D64
330
1E
100
AcDbEntity
  8
製品
  6
Continuous
 62
     7
100
AcDbLine
 10
1802.813585017161
 20
448.7629887053389
 30
0.0
 11
1805.113585017161
 21
448.7629887053389
 31
0.0
  0
LINE
  5
6D65
330
1E
100
AcDbEntity
  8
製品
  6
Continuous
 62
     7
100
AcDbLine
 10
1809.213585017161
 20
449.3629887053389
 30
0.0
 11
1805.113585017161
 21
449.3629887053389
 31
0.0
  0
LINE
  5
6D66
330
1E
100
AcDbEntity
  8
製品
  6
Continuous
 62
     7
100
AcDbLine
 10
1807.413585017161
 20
448.7629887053389
 30
0.0
 11
1805.113585017161
 21
448.7629887053389
 31
0.0
  0
LINE
  5
6D67
330
1E
100
AcDbEntity
  8
製品
  6
CENTER1
 62
     7
100
AcDbLine
 10
1809.51358501716
 20
449.8423587053389
 30
0.0
 11
1809.51358501716
 21
446.3722687053391
 31
0.0
  0
ARC
  5
6D68
330
1E
100
AcDbEntity
  8
製品
  6
Continuous
 62
     7
100
AcDbCircle
 10
1811.213585017161
 20
449.9223587053388
 30
0.0
 40
0.2
100
AcDbArc
 50
270.0
 51
0.0
  0
LINE
  5
6D69
330
1E
100
AcDbEntity
  8
製品
  6
CENTER1
 62
     7
100
AcDbLine
 10
1800.713585017161
 20
449.8423587053389
 30
0.0
 11
1800.713585017161
 21
446.3629887053389
 31
0.0
  0
LINE
  5
6D6A
330
1E
100
AcDbEntity
  8
製品
  6
CENTER1
 62
     7
100
AcDbLine
 10
1805.113585017161
 20
453.8423587053389
 30
0.0
 11
1805.113585017161
 21
448.1629887053391
 31
0.0
  0
ARC
  5
6D6B
330
1E
100
AcDbEntity
  8
製品
  6
Continuous
 62
     7
100
AcDbCircle
 10
1799.01358501716
 20
449.9223587053388
 30
0.0
 40
0.2
100
AcDbArc
 50
180.0
 51
270.0
  0
CIRCLE
  5
6D6C
330
1E
100
AcDbEntity
  8
文字-記号
  6
Continuous
 62
     7
100
AcDbCircle
 10
1811.413585017161
 20
449.9623587053388
 30
0.0
 40
1.399999999999999
  0
LINE
  5
6D6D
330
1E
100
AcDbEntity
  8
製品
  6
Continuous
 62
     7
100
AcDbLine
 10
1814.11358501716
 20
472.5629887053387
 30
0.0
 11
1814.11358501716
 21
401.762988705339
 31
0.0
  0
TEXT
  5
6D6E
330
1E
100
AcDbEntity
  8
文字-記号
 62
     7
100
AcDbText
 10
1823.95101501716
 20
428.7629787053388
 30
0.0
 40
3.0
  1
スペーサ
 41
0.8
  7
ACAD
100
AcDbText
  0
LINE
  5
6D6F
330
1E
100
AcDbEntity
  8
文字-記号
  6
Continuous
 62
     7
100
AcDbLine
 10
1823.884345017161
 20
427.7629887053389
 30
0.0
 11
1835.107748648259
 21
427.7629887053389
 31
0.0
  0
TEXT
  5
6D70
330
1E
100
AcDbEntity
  8
文字-記号
 62
     7
100
AcDbText
 10
1830.607045017161
 20
460.9629787053391
 30
0.0
 40
3.0
  1
ダブル野縁
 41
0.8
  7
ACAD
100
AcDbText
  0
TEXT
  5
6D71
330
1E
100
AcDbEntity
  8
文字-記号
 62
     7
100
AcDbText
 10
1816.52440501716
 20
498.7629887053389
 30
0.0
 40
3.0
  1
野縁受
 41
0.8
  7
ACAD
100
AcDbText
  0
LINE
  5
6D72
330
1E
100
AcDbEntity
  8
文字-記号
  6
Continuous
 62
     7
100
AcDbLine
 10
1825.554435017161
 20
497.762988705339
 30
0.0
 11
1816.52443501716
 21
497.762988705339
 31
0.0
  0
CIRCLE
  5
6D73
330
1E
100
AcDbEntity
  8
文字-記号
  6
Continuous
 62
     7
100
AcDbCircle
 10
1832.713585017161
 20
485.3629887053389
 30
0.0
 40
0.3
  0
CIRCLE
  5
6D74
330
1E
100
AcDbEntity
  8
文字-記号
  6
Continuous
 62
     7
100
AcDbCircle
 10
1821.773585017161
 20
475.262988705339
 30
0.0
 40
0.3
  0
ARC
  5
6D75
330
1E
100
AcDbEntity
  8
製品
  6
Continuous
 62
     7
100
AcDbCircle
 10
1821.473585017161
 20
477.4629887053388
 30
0.0
 40
0.2
100
AcDbArc
 50
0.0
 51
90.0
  0
LINE
  5
6D76
330
1E
100
AcDbEntity
  8
製品
  6
Continuous
 62
     7
100
AcDbLine
 10
1821.473585017161
 20
477.6629887053391
 30
0.0
 11
1821.273585017161
 21
477.6629887053391
 31
0.0
  0
ARC
  5
6D77
330
1E
100
AcDbEntity
  8
製品
  6
Continuous
 62
     7
100
AcDbCircle
 10
1821.273585017161
 20
477.4629887053388
 30
0.0
 40
0.2
100
AcDbArc
 50
90.0
 51
180.0
  0
LINE
  5
6D78
330
1E
100
AcDbEntity
  8
製品
  6
Continuous
 62
     7
100
AcDbLine
 10
1821.07358501716
 20
477.4629887053388
 30
0.0
 11
1821.07358501716
 21
477.1629887053391
 31
0.0
  0
LINE
  5
6D79
330
1E
100
AcDbEntity
  8
製品
  6
Continuous
 62
     7
100
AcDbLine
 10
1821.07358501716
 20
477.1629887053391
 30
0.0
 11
1820.97358501716
 21
477.1629887053391
 31
0.0
  0
LINE
  5
6D7A
330
1E
100
AcDbEntity
  8
製品
  6
Continuous
 62
     7
100
AcDbLine
 10
1820.97358501716
 20
477.1629887053391
 30
0.0
 11
1820.97358501716
 21
477.4629887053388
 31
0.0
  0
ARC
  5
6D7B
330
1E
100
AcDbEntity
  8
製品
  6
Continuous
 62
     7
100
AcDbCircle
 10
1821.273585017161
 20
477.4629887053388
 30
0.0
 40
0.3
100
AcDbArc
 50
90.0
 51
180.0
  0
ARC
  5
6D7C
330
1E
100
AcDbEntity
  8
製品
  6
Continuous
 62
     7
100
AcDbCircle
 10
1821.473585017161
 20
477.4629887053388
 30
0.0
 40
0.3
100
AcDbArc
 50
0.0
 51
90.0
  0
LINE
  5
6D7D
330
1E
100
AcDbEntity
  8
製品
  6
Continuous
 62
     7
100
AcDbLine
 10
1821.773585017161
 20
473.3629887053389
 30
0.0
 11
1821.773585017161
 21
477.4629887053388
 31
0.0
  0
LINE
  5
6D7E
330
1E
100
AcDbEntity
  8
製品
  6
Continuous
 62
     7
100
AcDbLine
 10
1821.673585017161
 20
473.3629887053389
 30
0.0
 11
1821.673585017161
 21
477.4629887053388
 31
0.0
  0
LINE
  5
6D7F
330
1E
100
AcDbEntity
  8
製品
  6
Continuous
 62
     7
100
AcDbLine
 10
1820.57358501716
 20
472.8629887053389
 30
0.0
 11
1820.373585017161
 21
472.9629887053388
 31
0.0
  0
LINE
  5
6D80
330
1E
100
AcDbEntity
  8
製品
  6
Continuous
 62
     7
100
AcDbLine
 10
1820.373585017161
 20
472.9629887053388
 30
0.0
 11
1820.07358501716
 21
472.8629887053389
 31
0.0
  0
LINE
  5
6D81
330
1E
100
AcDbEntity
  8
製品
  6
Continuous
 62
     7
100
AcDbLine
 10
1820.07358501716
 20
472.8629887053389
 30
0.0
 11
1819.773585017161
 21
472.9629887053388
 31
0.0
  0
LINE
  5
6D82
330
1E
100
AcDbEntity
  8
製品
  6
Continuous
 62
     7
100
AcDbLine
 10
1819.773585017161
 20
472.9629887053388
 30
0.0
 11
1819.473585017161
 21
472.8629887053389
 31
0.0
  0
LINE
  5
6D83
330
1E
100
AcDbEntity
  8
製品
  6
Continuous
 62
     7
100
AcDbLine
 10
1820.57358501716
 20
472.762988705339
 30
0.0
 11
1820.373585017161
 21
472.8629887053389
 31
0.0
  0
LINE
  5
6D84
330
1E
100
AcDbEntity
  8
製品
  6
Continuous
 62
     7
100
AcDbLine
 10
1820.373585017161
 20
472.8629887053389
 30
0.0
 11
1820.07358501716
 21
472.762988705339
 31
0.0
  0
LINE
  5
6D85
330
1E
100
AcDbEntity
  8
製品
  6
Continuous
 62
     7
100
AcDbLine
 10
1820.07358501716
 20
472.762988705339
 30
0.0
 11
1819.773585017161
 21
472.8629887053389
 31
0.0
  0
LINE
  5
6D86
330
1E
100
AcDbEntity
  8
製品
  6
Continuous
 62
     7
100
AcDbLine
 10
1819.773585017161
 20
472.8629887053389
 30
0.0
 11
1819.473585017161
 21
472.762988705339
 31
0.0
  0
LINE
  5
6D87
330
1E
100
AcDbEntity
  8
製品
  6
Continuous
 62
     7
100
AcDbLine
 10
1821.173585017161
 20
472.8629887053389
 30
0.0
 11
1820.57358501716
 21
472.8629887053389
 31
0.0
  0
LINE
  5
6D88
330
1E
100
AcDbEntity
  8
製品
  6
Continuous
 62
     7
100
AcDbLine
 10
1822.27358501716
 20
472.762988705339
 30
0.0
 11
1822.27358501716
 21
472.5629887053387
 31
0.0
  0
LINE
  5
6D89
330
1E
100
AcDbEntity
  8
製品
  6
Continuous
 62
     7
100
AcDbLine
 10
1816.47358501716
 20
472.5629887053387
 30
0.0
 11
1816.47358501716
 21
469.6629887053391
 31
0.0
  0
LINE
  5
6D8A
330
1E
100
AcDbEntity
  8
製品
  6
Continuous
 62
     7
100
AcDbLine
 10
1816.47358501716
 20
469.6629887053391
 30
0.0
 11
1819.07358501716
 21
469.6629887053391
 31
0.0
  0
LINE
  5
6D8B
330
1E
100
AcDbEntity
  8
製品
  6
Continuous
 62
     7
100
AcDbLine
 10
1816.27358501716
 20
469.4629887053388
 30
0.0
 11
1819.273585017161
 21
469.4629887053388
 31
0.0
  0
LINE
  5
6D8C
330
1E
100
AcDbEntity
  8
製品
  6
Continuous
 62
     7
100
AcDbLine
 10
1819.273585017161
 20
469.4629887053388
 30
0.0
 11
1819.273585017161
 21
469.9629887053388
 31
0.0
  0
LINE
  5
6D8D
330
1E
100
AcDbEntity
  8
製品
  6
Continuous
 62
     7
100
AcDbLine
 10
1819.07358501716
 20
469.9629887053388
 30
0.0
 11
1819.07358501716
 21
469.6629887053391
 31
0.0
  0
LINE
  5
6D8E
330
1E
100
AcDbEntity
  8
製品
  6
Continuous
 62
     7
100
AcDbLine
 10
1816.27358501716
 20
472.5629887053387
 30
0.0
 11
1816.27358501716
 21
469.4629887053388
 31
0.0
  0
LINE
  5
6D8F
330
1E
100
AcDbEntity
  8
製品
  6
Continuous
 62
     7
100
AcDbLine
 10
1819.173585017161
 20
472.9629887053388
 30
0.0
 11
1818.873585017161
 21
472.8629887053389
 31
0.0
  0
LINE
  5
6D90
330
1E
100
AcDbEntity
  8
製品
  6
Continuous
 62
     7
100
AcDbLine
 10
1818.873585017161
 20
472.8629887053389
 30
0.0
 11
1818.57358501716
 21
472.9629887053388
 31
0.0
  0
LINE
  5
6D91
330
1E
100
AcDbEntity
  8
製品
  6
Continuous
 62
     7
100
AcDbLine
 10
1818.57358501716
 20
472.9629887053388
 30
0.0
 11
1818.273585017161
 21
472.8629887053389
 31
0.0
  0
LINE
  5
6D92
330
1E
100
AcDbEntity
  8
製品
  6
Continuous
 62
     7
100
AcDbLine
 10
1818.273585017161
 20
472.8629887053389
 30
0.0
 11
1817.973585017161
 21
472.9629887053388
 31
0.0
  0
LINE
  5
6D93
330
1E
100
AcDbEntity
  8
製品
  6
Continuous
 62
     7
100
AcDbLine
 10
1817.973585017161
 20
472.9629887053388
 30
0.0
 11
1817.77358501716
 21
472.8629887053389
 31
0.0
  0
LINE
  5
6D94
330
1E
100
AcDbEntity
  8
製品
  6
Continuous
 62
     7
100
AcDbLine
 10
1817.77358501716
 20
472.8629887053389
 30
0.0
 11
1816.97358501716
 21
472.8629887053389
 31
0.0
  0
LINE
  5
6D95
330
1E
100
AcDbEntity
  8
製品
  6
Continuous
 62
     7
100
AcDbLine
 10
1816.97358501716
 20
472.8629887053389
 30
0.0
 11
1816.77358501716
 21
472.9629887053388
 31
0.0
  0
LINE
  5
6D96
330
1E
100
AcDbEntity
  8
製品
  6
Continuous
 62
     7
100
AcDbLine
 10
1819.173585017161
 20
472.8629887053389
 30
0.0
 11
1818.873585017161
 21
472.762988705339
 31
0.0
  0
LINE
  5
6D97
330
1E
100
AcDbEntity
  8
製品
  6
Continuous
 62
     7
100
AcDbLine
 10
1818.873585017161
 20
472.762988705339
 30
0.0
 11
1818.57358501716
 21
472.8629887053389
 31
0.0
  0
LINE
  5
6D98
330
1E
100
AcDbEntity
  8
製品
  6
Continuous
 62
     7
100
AcDbLine
 10
1818.57358501716
 20
472.8629887053389
 30
0.0
 11
1818.273585017161
 21
472.762988705339
 31
0.0
  0
LINE
  5
6D99
330
1E
100
AcDbEntity
  8
製品
  6
Continuous
 62
     7
100
AcDbLine
 10
1818.273585017161
 20
472.762988705339
 30
0.0
 11
1817.973585017161
 21
472.8629887053389
 31
0.0
  0
LINE
  5
6D9A
330
1E
100
AcDbEntity
  8
製品
  6
Continuous
 62
     7
100
AcDbLine
 10
1817.973585017161
 20
472.8629887053389
 30
0.0
 11
1817.77358501716
 21
472.762988705339
 31
0.0
  0
LINE
  5
6D9B
330
1E
100
AcDbEntity
  8
製品
  6
Continuous
 62
     7
100
AcDbLine
 10
1816.97358501716
 20
472.762988705339
 30
0.0
 11
1816.77358501716
 21
472.8629887053389
 31
0.0
  0
LINE
  5
6D9C
330
1E
100
AcDbEntity
  8
製品
  6
Continuous
 62
     7
100
AcDbLine
 10
1815.773585017161
 20
472.8629887053389
 30
0.0
 11
1816.57358501716
 21
472.8629887053389
 31
0.0
  0
LINE
  5
6D9D
330
1E
100
AcDbEntity
  8
製品
  6
Continuous
 62
     7
100
AcDbLine
 10
1816.57358501716
 20
472.8629887053389
 30
0.0
 11
1816.77358501716
 21
472.9629887053388
 31
0.0
  0
LINE
  5
6D9E
330
1E
100
AcDbEntity
  8
製品
  6
Continuous
 62
     7
100
AcDbLine
 10
1816.57358501716
 20
472.762988705339
 30
0.0
 11
1816.77358501716
 21
472.8629887053389
 31
0.0
  0
LINE
  5
6D9F
330
1E
100
AcDbEntity
  8
製品
  6
Continuous
 62
     7
100
AcDbLine
 10
1815.773585017161
 20
472.8629887053389
 30
0.0
 11
1815.57358501716
 21
472.9629887053388
 31
0.0
  0
LINE
  5
6DA0
330
1E
100
AcDbEntity
  8
製品
  6
Continuous
 62
     7
100
AcDbLine
 10
1815.57358501716
 20
472.9629887053388
 30
0.0
 11
1815.27358501716
 21
472.8629887053389
 31
0.0
  0
LINE
  5
6DA1
330
1E
100
AcDbEntity
  8
製品
  6
Continuous
 62
     7
100
AcDbLine
 10
1815.773585017161
 20
472.762988705339
 30
0.0
 11
1815.57358501716
 21
472.8629887053389
 31
0.0
  0
LINE
  5
6DA2
330
1E
100
AcDbEntity
  8
製品
  6
Continuous
 62
     7
100
AcDbLine
 10
1815.57358501716
 20
472.8629887053389
 30
0.0
 11
1815.27358501716
 21
472.762988705339
 31
0.0
  0
LINE
  5
6DA3
330
1E
100
AcDbEntity
  8
製品
  6
Continuous
 62
     7
100
AcDbLine
 10
1818.673585017161
 20
472.762988705339
 30
0.0
 11
1818.07358501716
 21
472.762988705339
 31
0.0
  0
LINE
  5
6DA4
330
1E
100
AcDbEntity
  8
製品
  6
Continuous
 62
     7
100
AcDbLine
 10
1819.473585017161
 20
472.8629887053389
 30
0.0
 11
1819.173585017161
 21
472.9629887053388
 31
0.0
  0
LINE
  5
6DA5
330
1E
100
AcDbEntity
  8
製品
  6
Continuous
 62
     7
100
AcDbLine
 10
1819.473585017161
 20
472.762988705339
 30
0.0
 11
1819.173585017161
 21
472.8629887053389
 31
0.0
  0
TEXT
  5
6DA6
330
1E
100
AcDbEntity
  8
文字-記号
 62
     7
100
AcDbText
 10
1821.606715017161
 20
453.4478087053389
 30
0.0
 40
3.0
  1
ランナ
 41
0.8
  7
ACAD
100
AcDbText
  0
LINE
  5
6DA7
330
1E
100
AcDbEntity
  8
文字-記号
  6
Continuous
 62
     7
100
AcDbLine
 10
1821.588535017161
 20
452.4478087053389
 30
0.0
 11
1830.61853501716
 21
452.4478087053389
 31
0.0
  0
LINE
  5
6DA8
330
1E
100
AcDbEntity
  8
製品
  6
Continuous
 62
     7
100
AcDbLine
 10
1814.97358501716
 20
472.9629887053388
 30
0.0
 11
1814.673585017161
 21
472.8629887053389
 31
0.0
  0
LINE
  5
6DA9
330
1E
100
AcDbEntity
  8
製品
  6
Continuous
 62
     7
100
AcDbLine
 10
1814.673585017161
 20
472.8629887053389
 30
0.0
 11
1814.37358501716
 21
472.9629887053388
 31
0.0
  0
LINE
  5
6DAA
330
1E
100
AcDbEntity
  8
製品
  6
Continuous
 62
     7
100
AcDbLine
 10
1814.37358501716
 20
472.9629887053388
 30
0.0
 11
1814.07358501716
 21
472.8629887053389
 31
0.0
  0
LINE
  5
6DAB
330
1E
100
AcDbEntity
  8
製品
  6
Continuous
 62
     7
100
AcDbLine
 10
1814.97358501716
 20
472.8629887053389
 30
0.0
 11
1814.673585017161
 21
472.762988705339
 31
0.0
  0
LINE
  5
6DAC
330
1E
100
AcDbEntity
  8
製品
  6
Continuous
 62
     7
100
AcDbLine
 10
1814.673585017161
 20
472.762988705339
 30
0.0
 11
1814.37358501716
 21
472.8629887053389
 31
0.0
  0
LINE
  5
6DAD
330
1E
100
AcDbEntity
  8
製品
  6
Continuous
 62
     7
100
AcDbLine
 10
1814.37358501716
 20
472.8629887053389
 30
0.0
 11
1814.07358501716
 21
472.762988705339
 31
0.0
  0
LINE
  5
6DAE
330
1E
100
AcDbEntity
  8
製品
  6
Continuous
 62
     7
100
AcDbLine
 10
1815.27358501716
 20
472.8629887053389
 30
0.0
 11
1814.97358501716
 21
472.9629887053388
 31
0.0
  0
LINE
  5
6DAF
330
1E
100
AcDbEntity
  8
製品
  6
Continuous
 62
     7
100
AcDbLine
 10
1815.27358501716
 20
472.762988705339
 30
0.0
 11
1814.97358501716
 21
472.8629887053389
 31
0.0
  0
LINE
  5
6DB0
330
1E
100
AcDbEntity
  8
製品
  6
Continuous
 62
     7
100
AcDbLine
 10
1815.27358501716
 20
472.762988705339
 30
0.0
 11
1814.473585017161
 21
472.762988705339
 31
0.0
  0
LINE
  5
6DB1
330
1E
100
AcDbEntity
  8
文字-記号
  6
Continuous
 62
     7
100
AcDbLine
 10
1821.773585017161
 20
475.262988705339
 30
0.0
 11
1830.607035017161
 21
459.9629887053388
 31
0.0
  0
ARC
  5
6DB2
330
1E
100
AcDbEntity
  8
製品
  6
Continuous
 62
     7
100
AcDbCircle
 10
1821.173585017161
 20
473.3629887053389
 30
0.0
 40
0.6
100
AcDbArc
 50
270.0
 51
0.0
  0
ARC
  5
6DB3
330
1E
100
AcDbEntity
  8
製品
  6
Continuous
 62
     7
100
AcDbCircle
 10
1821.173585017161
 20
473.3629887053389
 30
0.0
 40
0.5
100
AcDbArc
 50
270.0
 51
0.0
  0
LINE
  5
6DB4
330
1E
100
AcDbEntity
  8
製品
  6
Continuous
 62
     7
100
AcDbLine
 10
1845.113585017161
 20
469.9629887053388
 30
0.0
 11
1816.47358501716
 21
469.9629887053388
 31
0.0
  0
LINE
  5
6DB5
330
1E
100
AcDbEntity
  8
文字-記号
  6
Continuous
 62
     7
100
AcDbLine
 10
1830.607035017161
 20
459.9629887053388
 30
0.0
 11
1845.657035017161
 21
459.9629887053388
 31
0.0
  0
LINE
  5
6DB6
330
1E
100
AcDbEntity
  8
製品
  6
Continuous
 62
     7
100
AcDbLine
 10
1845.113585017161
 20
472.5629887053387
 30
0.0
 11
1816.47358501716
 21
472.5629887053387
 31
0.0
  0
LINE
  5
6DB7
330
1E
100
AcDbEntity
  8
文字-記号
  6
Continuous
 62
     7
100
AcDbLine
 10
1832.713585017161
 20
485.3629887053389
 30
0.0
 11
1825.554435017161
 21
497.762988705339
 31
0.0
  0
ENDSEC
  0
SECTION
  2
OBJECTS
  0
DICTIONARY
  5
C
330
0
100
AcDbDictionary
281
     1
  3
ACAD_COLOR
350
6E64
  3
ACAD_GROUP
350
D
  3
ACAD_LAYOUT
350
19
  3
ACAD_MATERIAL
350
6E4F
  3
ACAD_MLINESTYLE
350
16
  3
ACAD_PLOTSETTINGS
350
18
  3
ACAD_PLOTSTYLENAME
350
E
  3
ACAD_TABLESTYLE
350
6E65
  3
ACAD_VISUALSTYLE
350
6E53
  3
AcDbVariableDictionary
350
169
  3
DWGPROPS
350
6EA9
  0
DICTIONARY
  5
6E6D
330
8
100
AcDbDictionary
280
     1
281
     1
  0
DICTIONARY
  5
175
330
2
100
AcDbDictionary
280
     1
281
     1
  3
ACAD_LAYERFILTERS
360
185
  3
ACAD_LAYERSTATES
360
176
  0
DICTIONARY
  5
28B
330
1E
100
AcDbDictionary
280
     1
281
     1
  3
ACAD_LAYOUTSELFREF
360
6E48
  0
DICTIONARY
  5
28D
330
1A
100
AcDbDictionary
280
     1
281
     1
  3
ACAD_LAYOUTSELFREF
360
6E47
  0
DICTIONARY
  5
6E64
102
{ACAD_REACTORS
330
C
102
}
330
C
100
AcDbDictionary
281
     1
  0
DICTIONARY
  5
D
102
{ACAD_REACTORS
330
C
102
}
330
C
100
AcDbDictionary
281
     1
  0
DICTIONARY
  5
19
102
{ACAD_REACTORS
330
C
102
}
330
C
100
AcDbDictionary
281
     1
  3
Model
350
21
  3
ﾚｲｱｳﾄ1
350
1D
  0
DICTIONARY
  5
6E4F
102
{ACAD_REACTORS
330
C
102
}
330
C
100
AcDbDictionary
281
     1
  3
ByBlock
350
6E51
  3
ByLayer
350
6E50
  3
Global
350
6E52
  0
DICTIONARY
  5
16
102
{ACAD_REACTORS
330
C
102
}
330
C
100
AcDbDictionary
281
     1
  3
Standard
350
17
  0
DICTIONARY
  5
18
102
{ACAD_REACTORS
330
C
102
}
330
C
100
AcDbDictionary
281
     1
  0
ACDBDICTIONARYWDFLT
  5
E
102
{ACAD_REACTORS
330
C
102
}
330
C
100
AcDbDictionary
281
     1
  3
Normal
350
F
100
AcDbDictionaryWithDefault
340
F
1001
ACAD
1000
TREAT_AS_HARD
1070
     0
1000
TREAT_AS_HARD
1070
     0
1000
TREAT_AS_HARD
1070
     0
1000
TREAT_AS_HARD
1070
     0
1000
TREAT_AS_HARD
1070
     0
1000
TREAT_AS_HARD
1070
     0
1000
TREAT_AS_HARD
1070
     0
1000
TREAT_AS_HARD
1070
     0
1000
TREAT_AS_HARD
1070
     0
1000
TREAT_AS_HARD
1070
     0
1000
TREAT_AS_HARD
1070
     0
1000
TREAT_AS_HARD
1070
     0
1000
TREAT_AS_HARD
1070
     0
1000
TREAT_AS_HARD
1070
     0
1000
TREAT_AS_HARD
1070
     0
1000
TREAT_AS_HARD
1070
     0
1000
TREAT_AS_HARD
1070
     0
1000
TREAT_AS_HARD
1070
     0
1000
TREAT_AS_HARD
1070
     0
1000
TREAT_AS_HARD
1070
     0
1000
TREAT_AS_HARD
1070
     0
1000
TREAT_AS_HARD
1070
     0
1000
TREAT_AS_HARD
1070
     0
1000
TREAT_AS_HARD
1070
     0
1000
TREAT_AS_HARD
1070
     0
1000
TREAT_AS_HARD
1070
     0
1000
TREAT_AS_HARD
1070
     0
1000
TREAT_AS_HARD
1070
     0
1000
TREAT_AS_HARD
1070
     0
1000
TREAT_AS_HARD
1070
     0
  0
DICTIONARY
  5
6E65
102
{ACAD_REACTORS
330
C
102
}
330
C
100
AcDbDictionary
281
     1
  3
Standard
350
6E66
  0
DICTIONARY
  5
6E53
102
{ACAD_REACTORS
330
C
102
}
330
C
100
AcDbDictionary
281
     1
  3
2dWireframe
350
6E59
  3
3D Hidden
350
6E5B
  3
3dWireframe
350
6E5A
  3
Basic
350
6E58
  3
Brighten
350
6E5F
  3
ColorChange
350
6E63
  3
Conceptual
350
6E5C
  3
Dim
350
6E5E
  3
Facepattern
350
6E62
  3
Flat
350
6E54
  3
FlatWithEdges
350
6E55
  3
Gouraud
350
6E56
  3
GouraudWithEdges
350
6E57
  3
Linepattern
350
6E61
  3
Realistic
350
6E5D
  3
Thicken
350
6E60
  0
DICTIONARY
  5
169
102
{ACAD_REACTORS
330
C
102
}
330
C
100
AcDbDictionary
281
     1
  3
CTABLESTYLE
350
6E83
  3
DIMASSOC
350
16A
  3
INDEXCTL
350
6E85
  3
SORTENTS
350
6E84
  0
XRECORD
  5
6EA9
102
{ACAD_REACTORS
330
C
102
}
330
C
100
AcDbXrecord
280
     1
  1
DWGPROPS COOKIE
  2

  3

  4

  6

  7

  8
HON1000AV
  9

300
=
301
=
302
=
303
=
304
=
305
=
306
=
307
=
308
=
309
=
 40
0.2446821990740741
 41
2454316.693457674
 42
2454736.42479456
  1

 90
        0
  0
DICTIONARY
  5
185
102
{ACAD_REACTORS
330
175
102
}
330
175
100
AcDbDictionary
280
     1
281
     1
  0
DICTIONARY
  5
176
102
{ACAD_REACTORS
330
175
102
}
330
175
100
AcDbDictionary
281
     1
  3
ACAD
350
177
  0
XRECORD
  5
6E48
102
{ACAD_REACTORS
330
28B
102
}
330
28B
100
AcDbXrecord
280
     1
340
1E
  0
XRECORD
  5
6E47
102
{ACAD_REACTORS
330
28D
102
}
330
28D
100
AcDbXrecord
280
     1
340
1A
  0
LAYOUT
  5
21
102
{ACAD_XDICTIONARY
360
6EAC
102
}
102
{ACAD_REACTORS
330
19
102
}
330
19
100
AcDbPlotSettings
  1

  2
\\MEISEI-1\EPSON Stylus Photo EX3
  4

  6

 40
0.0
 41
0.0
 42
0.0
 43
0.0
 44
0.0
 45
0.0
 46
0.0
 47
0.0
 48
0.0
 49
0.0
140
0.0
141
0.0
142
1.0
143
1.0
 70
  1712
 72
     0
 73
     0
 74
     0
  7

 75
     0
147
1.0
148
0.0
149
0.0
100
AcDbLayout
  1
Model
 70
     1
 71
     0
 10
0.0
 20
0.0
 11
12.0
 21
9.0
 12
0.0
 22
0.0
 32
0.0
 14
0.0
 24
0.0
 34
0.0
 15
0.0
 25
0.0
 35
0.0
146
0.0
 13
0.0
 23
0.0
 33
0.0
 16
1.0
 26
0.0
 36
0.0
 17
0.0
 27
1.0
 37
0.0
 76
     0
330
1E
331
6E03
  0
LAYOUT
  5
1D
102
{ACAD_XDICTIONARY
360
6EAA
102
}
102
{ACAD_REACTORS
330
19
102
}
330
19
100
AcDbPlotSettings
  1

  2
\\MEISEI-1\EPSON Stylus Photo EX3
  4

  6

 40
0.0
 41
0.0
 42
0.0
 43
0.0
 44
0.0
 45
0.0
 46
0.0
 47
0.0
 48
0.0
 49
0.0
140
0.0
141
0.0
142
1.0
143
1.0
 70
   688
 72
     0
 73
     0
 74
     5
  7

 75
    16
147
1.0
148
0.0
149
0.0
100
AcDbLayout
  1
ﾚｲｱｳﾄ1
 70
     1
 71
     1
 10
0.0
 20
0.0
 11
12.0
 21
9.0
 12
0.0
 22
0.0
 32
0.0
 14
1.000000000000000E+20
 24
1.000000000000000E+20
 34
1.000000000000000E+20
 15
-1.000000000000000E+20
 25
-1.000000000000000E+20
 35
-1.000000000000000E+20
146
0.0
 13
0.0
 23
0.0
 33
0.0
 16
1.0
 26
0.0
 36
0.0
 17
0.0
 27
1.0
 37
0.0
 76
     0
330
1A
  0
MATERIAL
  5
6E51
102
{ACAD_XDICTIONARY
360
6EB0
102
}
102
{ACAD_REACTORS
330
6E4F
102
}
330
6E4F
100
AcDbMaterial
  1
ByBlock
  0
MATERIAL
  5
6E50
102
{ACAD_XDICTIONARY
360
6EAE
102
}
102
{ACAD_REACTORS
330
6E4F
102
}
330
6E4F
100
AcDbMaterial
  1
ByLayer
  0
MATERIAL
  5
6E52
102
{ACAD_XDICTIONARY
360
6EB2
102
}
102
{ACAD_REACTORS
330
6E4F
102
}
330
6E4F
100
AcDbMaterial
  1
Global
  0
MLINESTYLE
  5
17
102
{ACAD_REACTORS
330
16
102
}
330
16
100
AcDbMlineStyle
  2
STANDARD
 70
     0
  3

 62
   256
 51
90.0
 52
90.0
 71
     2
 49
0.5
 62
   256
  6
BYLAYER
 49
-0.5
 62
   256
  6
BYLAYER
  0
ACDBPLACEHOLDER
  5
F
102
{ACAD_REACTORS
330
E
102
}
330
E
  0
TABLESTYLE
  5
6E66
102
{ACAD_XDICTIONARY
360
6EB4
102
}
102
{ACAD_REACTORS
330
6E65
102
}
330
6E65
100
AcDbTableStyle
  3
Standard
 70
     0
 71
     0
 40
0.06
 41
0.06
280
     0
281
     0
  7
STANDARD
140
0.18
170
     2
 62
     0
 63
     7
283
     0
274
    -2
284
     1
 64
     0
275
    -2
285
     1
 65
     0
276
    -2
286
     1
 66
     0
277
    -2
287
     1
 67
     0
278
    -2
288
     1
 68
     0
279
    -2
289
     1
 69
     0
  7
STANDARD
140
0.25
170
     5
 62
     0
 63
     7
283
     0
274
    -2
284
     1
 64
     0
275
    -2
285
     1
 65
     0
276
    -2
286
     1
 66
     0
277
    -2
287
     1
 67
     0
278
    -2
288
     1
 68
     0
279
    -2
289
     1
 69
     0
  7
STANDARD
140
0.18
170
     5
 62
     0
 63
     7
283
     0
274
    -2
284
     1
 64
     0
275
    -2
285
     1
 65
     0
276
    -2
286
     1
 66
     0
277
    -2
287
     1
 67
     0
278
    -2
288
     1
 68
     0
279
    -2
289
     1
 69
     0
  0
VISUALSTYLE
  5
6E59
102
{ACAD_REACTORS
330
6E53
102
}
330
6E53
100
AcDbVisualStyle
  2
2dWireframe
 70
     4
 71
     0
 72
     2
 73
     0
 90
        0
 40
-0.6
 41
-30.0
 62
     5
 63
     7
 74
     1
 91
        4
 64
     7
 65
   257
 75
     1
175
     1
 42
1.0
 92
        0
 66
   257
 43
1.0
 76
     1
 77
     6
 78
     2
 67
     7
 79
     5
170
     0
171
     0
290
     0
174
     0
 93
        1
 44
0.0
173
     0
291
     0
 45
0.0
1001
ACAD
1000
AcDbSavedByObjectVersion
1070
     0
  0
VISUALSTYLE
  5
6E5B
102
{ACAD_REACTORS
330
6E53
102
}
330
6E53
100
AcDbVisualStyle
  2
3D Hidden
 70
     6
 71
     1
 72
     2
 73
     2
 90
        0
 40
-0.6
 41
-30.0
 62
     5
 63
     7
 74
     2
 91
        2
 64
     7
 65
   257
 75
     2
175
     1
 42
40.0
 92
        0
 66
   257
 43
1.0
 76
     1
 77
     6
 78
     2
 67
     7
 79
     3
170
     0
171
     0
290
     0
174
     0
 93
        1
 44
0.0
173
     0
291
     0
 45
0.0
1001
ACAD
1000
AcDbSavedByObjectVersion
1070
     0
  0
VISUALSTYLE
  5
6E5A
102
{ACAD_REACTORS
330
6E53
102
}
330
6E53
100
AcDbVisualStyle
  2
3dWireframe
 70
     5
 71
     0
 72
     2
 73
     0
 90
        0
 40
-0.6
 41
-30.0
 62
     5
 63
     7
 74
     1
 91
        4
 64
     7
 65
   257
 75
     1
175
     1
 42
1.0
 92
        0
 66
   257
 43
1.0
 76
     1
 77
     6
 78
     2
 67
     7
 79
     5
170
     0
171
     0
290
     0
174
     0
 93
        1
 44
0.0
173
     0
291
     0
 45
0.0
1001
ACAD
1000
AcDbSavedByObjectVersion
1070
     0
  0
VISUALSTYLE
  5
6E58
102
{ACAD_REACTORS
330
6E53
102
}
330
6E53
100
AcDbVisualStyle
  2
Basic
 70
     7
 71
     1
 72
     0
 73
     1
 90
        0
 40
-0.6
 41
-30.0
 62
     5
 63
     7
 74
     0
 91
        4
 64
     7
 65
   257
 75
     1
175
     1
 42
1.0
 92
        8
 66
     7
 43
1.0
 76
     1
 77
     6
 78
     2
 67
     7
 79
     5
170
     0
171
     0
290
     0
174
     0
 93
        1
 44
0.0
173
     0
291
     1
 45
0.0
1001
ACAD
1000
AcDbSavedByObjectVersion
1070
     0
  0
VISUALSTYLE
  5
6E5F
102
{ACAD_REACTORS
330
6E53
102
}
330
6E53
100
AcDbVisualStyle
  2
Brighten
 70
    12
 71
     2
 72
     2
 73
     0
 90
        0
 40
-0.6
 41
-30.0
 62
     5
 63
     7
 74
     1
 91
        4
 64
     7
 65
   257
 75
     1
175
     1
 42
1.0
 92
        8
 66
     7
 43
1.0
 76
     1
 77
     6
 78
     2
 67
     7
 79
     5
170
     0
171
     0
290
     0
174
     0
 93
        1
 44
50.0
173
     0
291
     1
 45
0.0
1001
ACAD
1000
AcDbSavedByObjectVersion
1070
     0
  0
VISUALSTYLE
  5
6E63
102
{ACAD_REACTORS
330
6E53
102
}
330
6E53
100
AcDbVisualStyle
  2
ColorChange
 70
    16
 71
     2
 72
     2
 73
     3
 90
        0
 40
-0.6
 41
-30.0
 62
     5
 63
     8
 74
     1
 91
        4
 64
     7
 65
   257
 75
     1
175
     1
 42
1.0
 92
        8
 66
     8
 43
1.0
 76
     1
 77
     6
 78
     2
 67
     7
 79
     5
170
     0
171
     0
290
     0
174
     0
 93
        1
 44
0.0
173
     0
291
     1
 45
0.0
1001
ACAD
1000
AcDbSavedByObjectVersion
1070
     0
  0
VISUALSTYLE
  5
6E5C
102
{ACAD_REACTORS
330
6E53
102
}
330
6E53
100
AcDbVisualStyle
  2
Conceptual
 70
     9
 71
     3
 72
     2
 73
     0
 90
        0
 40
-0.6
 41
-30.0
 62
     5
 63
     7
 74
     2
 91
        2
 64
     7
 65
   257
 75
     1
175
     1
 42
40.0
 92
        8
 66
     7
 43
1.0
 76
     1
 77
     6
 78
     2
 67
     7
 79
     3
170
     0
171
     0
290
     0
174
     0
 93
        1
 44
0.0
173
     0
291
     0
 45
0.0
1001
ACAD
1000
AcDbSavedByObjectVersion
1070
     0
  0
VISUALSTYLE
  5
6E5E
102
{ACAD_REACTORS
330
6E53
102
}
330
6E53
100
AcDbVisualStyle
  2
Dim
 70
    11
 71
     2
 72
     2
 73
     0
 90
        0
 40
-0.6
 41
-30.0
 62
     5
 63
     7
 74
     1
 91
        4
 64
     7
 65
   257
 75
     1
175
     1
 42
1.0
 92
        8
 66
     7
 43
1.0
 76
     1
 77
     6
 78
     2
 67
     7
 79
     5
170
     0
171
     0
290
     0
174
     0
 93
        1
 44
-50.0
173
     0
291
     1
 45
0.0
1001
ACAD
1000
AcDbSavedByObjectVersion
1070
     0
  0
VISUALSTYLE
  5
6E62
102
{ACAD_REACTORS
330
6E53
102
}
330
6E53
100
AcDbVisualStyle
  2
Facepattern
 70
    15
 71
     2
 72
     2
 73
     0
 90
        0
 40
-0.6
 41
-30.0
 62
     5
 63
     7
 74
     1
 91
        4
 64
     7
 65
   257
 75
     1
175
     1
 42
1.0
 92
        8
 66
     7
 43
1.0
 76
     1
 77
     6
 78
     2
 67
     7
 79
     5
170
     0
171
     0
290
     0
174
     0
 93
        1
 44
0.0
173
     0
291
     1
 45
0.0
1001
ACAD
1000
AcDbSavedByObjectVersion
1070
     0
  0
VISUALSTYLE
  5
6E54
102
{ACAD_REACTORS
330
6E53
102
}
330
6E53
100
AcDbVisualStyle
  2
Flat
 70
     0
 71
     2
 72
     1
 73
     1
 90
        2
 40
-0.6
 41
30.0
 62
     5
 63
     7
 74
     0
 91
        4
 64
     7
 65
   257
 75
     1
175
     1
 42
1.0
 92
        8
 66
     7
 43
1.0
 76
     1
 77
     6
 78
     2
 67
     7
 79
     5
170
     0
171
     0
290
     0
174
     0
 93
       13
 44
0.0
173
     0
291
     1
 45
0.0
1001
ACAD
1000
AcDbSavedByObjectVersion
1070
     0
  0
VISUALSTYLE
  5
6E55
102
{ACAD_REACTORS
330
6E53
102
}
330
6E53
100
AcDbVisualStyle
  2
FlatWithEdges
 70
     1
 71
     2
 72
     1
 73
     1
 90
        2
 40
-0.6
 41
30.0
 62
     5
 63
     7
 74
     1
 91
        4
 64
     7
 65
   257
 75
     1
175
     1
 42
1.0
 92
        0
 66
   257
 43
1.0
 76
     1
 77
     6
 78
     2
 67
     7
 79
     5
170
     0
171
     0
290
     0
174
     0
 93
       13
 44
0.0
173
     0
291
     1
 45
0.0
1001
ACAD
1000
AcDbSavedByObjectVersion
1070
     0
  0
VISUALSTYLE
  5
6E56
102
{ACAD_REACTORS
330
6E53
102
}
330
6E53
100
AcDbVisualStyle
  2
Gouraud
 70
     2
 71
     2
 72
     2
 73
     1
 90
        2
 40
-0.6
 41
30.0
 62
     5
 63
     7
 74
     0
 91
        4
 64
     7
 65
   257
 75
     1
175
     1
 42
1.0
 92
        0
 66
     7
 43
1.0
 76
     1
 77
     6
 78
     2
 67
     7
 79
     5
170
     0
171
     0
290
     0
174
     0
 93
       13
 44
0.0
173
     0
291
     1
 45
0.0
1001
ACAD
1000
AcDbSavedByObjectVersion
1070
     0
  0
VISUALSTYLE
  5
6E57
102
{ACAD_REACTORS
330
6E53
102
}
330
6E53
100
AcDbVisualStyle
  2
GouraudWithEdges
 70
     3
 71
     2
 72
     2
 73
     1
 90
        2
 40
-0.6
 41
30.0
 62
     5
 63
     7
 74
     1
 91
        4
 64
     7
 65
   257
 75
     1
175
     1
 42
1.0
 92
        0
 66
   257
 43
1.0
 76
     1
 77
     6
 78
     2
 67
     7
 79
     5
170
     0
171
     0
290
     0
174
     0
 93
       13
 44
0.0
173
     0
291
     1
 45
0.0
1001
ACAD
1000
AcDbSavedByObjectVersion
1070
     0
  0
VISUALSTYLE
  5
6E61
102
{ACAD_REACTORS
330
6E53
102
}
330
6E53
100
AcDbVisualStyle
  2
Linepattern
 70
    14
 71
     2
 72
     2
 73
     0
 90
        0
 40
-0.6
 41
-30.0
 62
     5
 63
     7
 74
     1
 91
        4
 64
     7
 65
   257
 75
     7
175
     7
 42
1.0
 92
        8
 66
     7
 43
1.0
 76
     1
 77
     6
 78
     2
 67
     7
 79
     5
170
     0
171
     0
290
     0
174
     0
 93
        1
 44
0.0
173
     0
291
     1
 45
0.0
1001
ACAD
1000
AcDbSavedByObjectVersion
1070
     0
  0
VISUALSTYLE
  5
6E5D
102
{ACAD_REACTORS
330
6E53
102
}
330
6E53
100
AcDbVisualStyle
  2
Realistic
 70
     8
 71
     2
 72
     2
 73
     0
 90
        0
 40
-0.6
 41
-30.0
 62
     5
 63
     7
 74
     1
 91
        0
 64
     7
 65
   257
 75
     1
175
     1
 42
1.0
 92
        8
 66
     8
 43
1.0
 76
     1
 77
     6
 78
     2
 67
     7
 79
     5
170
     0
171
     0
290
     0
174
     0
 93
       13
 44
0.0
173
     0
291
     0
 45
0.0
1001
ACAD
1000
AcDbSavedByObjectVersion
1070
     0
  0
VISUALSTYLE
  5
6E60
102
{ACAD_REACTORS
330
6E53
102
}
330
6E53
100
AcDbVisualStyle
  2
Thicken
 70
    13
 71
     2
 72
     2
 73
     0
 90
        0
 40
-0.6
 41
-30.0
 62
     5
 63
     7
 74
     1
 91
        4
 64
     7
 65
   257
 75
     1
175
     1
 42
1.0
 92
       12
 66
     7
 43
1.0
 76
     1
 77
     6
 78
     2
 67
     7
 79
     5
170
     0
171
     0
290
     0
174
     0
 93
        1
 44
0.0
173
     0
291
     1
 45
0.0
1001
ACAD
1000
AcDbSavedByObjectVersion
1070
     0
  0
DICTIONARYVAR
  5
6E83
102
{ACAD_REACTORS
330
169
102
}
330
169
100
DictionaryVariables
280
     0
  1
STANDARD
  0
DICTIONARYVAR
  5
16A
102
{ACAD_REACTORS
330
169
102
}
330
169
100
DictionaryVariables
280
     0
  1
1
  0
DICTIONARYVAR
  5
6E85
102
{ACAD_REACTORS
330
169
102
}
330
169
100
DictionaryVariables
280
     0
  1
0
  0
DICTIONARYVAR
  5
6E84
102
{ACAD_REACTORS
330
169
102
}
330
169
100
DictionaryVariables
280
     0
  1
127
  0
XRECORD
  5
177
102
{ACAD_REACTORS
330
176
102
}
330
176
100
AcDbXrecord
280
     1
 91
      476
330
128
 90
        0
 62
     7
370
    -3
331
15
  1
Color_7
330
10
 90
        8
 62
     7
370
    -3
331
15
  1
Color_7
  0
DICTIONARY
  5
6EAC
330
21
100
AcDbDictionary
280
     1
281
     1
  3
ACAD_XREC_ROUNDTRIP
360
6EAD
  0
DICTIONARY
  5
6EAA
330
1D
100
AcDbDictionary
280
     1
281
     1
  3
ACAD_XREC_ROUNDTRIP
360
6EAB
  0
DICTIONARY
  5
6EB0
330
6E51
100
AcDbDictionary
280
     1
281
     1
  3
ACAD_XREC_ROUNDTRIP
360
6EB1
  0
DICTIONARY
  5
6EAE
330
6E50
100
AcDbDictionary
280
     1
281
     1
  3
ACAD_XREC_ROUNDTRIP
360
6EAF
  0
DICTIONARY
  5
6EB2
330
6E52
100
AcDbDictionary
280
     1
281
     1
  3
ACAD_XREC_ROUNDTRIP
360
6EB3
  0
DICTIONARY
  5
6EB4
330
6E66
100
AcDbDictionary
280
     1
281
     1
  3
ACAD_XREC_ROUNDTRIP
360
6EB5
  0
XRECORD
  5
6EAD
102
{ACAD_REACTORS
330
6EAC
102
}
330
6EAC
100
AcDbXrecord
280
     1
102
SHADEPLOT
 70
     0
102
SHADEPLOTRESLEVEL
 70
     2
102
SHADEPLOTCUSTOMDPI
 70
   300
  0
XRECORD
  5
6EAB
102
{ACAD_REACTORS
330
6EAA
102
}
330
6EAA
100
AcDbXrecord
280
     1
102
SHADEPLOT
 70
     0
102
SHADEPLOTRESLEVEL
 70
     2
102
SHADEPLOTCUSTOMDPI
 70
   300
  0
XRECORD
  5
6EB1
102
{ACAD_REACTORS
330
6EB0
102
}
330
6EB0
100
AcDbXrecord
280
     1
102
MATERIAL
148
0.0
149
0.0
149
0.0
 93
        0
 94
       63
282
     0
 72
     1
 77
     1
171
     1
175
     1
179
     1
273
     0
  0
XRECORD
  5
6EAF
102
{ACAD_REACTORS
330
6EAE
102
}
330
6EAE
100
AcDbXrecord
280
     1
102
MATERIAL
148
0.0
149
0.0
149
0.0
 93
        0
 94
       63
282
     0
 72
     1
 77
     1
171
     1
175
     1
179
     1
273
     0
  0
XRECORD
  5
6EB3
102
{ACAD_REACTORS
330
6EB2
102
}
330
6EB2
100
AcDbXrecord
280
     1
102
MATERIAL
148
0.0
149
0.0
149
0.0
 93
        0
 94
       63
282
     0
 72
     1
 77
     1
171
     1
175
     1
179
     1
273
     0
  0
XRECORD
  5
6EB5
102
{ACAD_REACTORS
330
6EB4
102
}
330
6EB4
100
AcDbXrecord
280
     1
102
ACAD_ROUNDTRIP_PRE2007_TABLESTYLE
 90
      512
 91
        0
  1

 92
      512
 93
        0
  2

 94
      512
 95
        0
  3

  0
ENDSEC
  0
EOF
