  0
SECTION
  2
HEADER
  9
$ACADVER
  1
AC1009
  9
$INSBASE
 10
0
 20
0
 30
0
  9
$EXTMIN
 10
0
 20
0
  9
$EXTMAX
 10
841
 20
594
  9
$LIMMIN
 10
0
 20
0
  9
$LIMMAX
 10
841
 20
594
  9
$LTSCALE
 40
1
  0
ENDSEC
  0
SECTION
  2
TABLES
  0
TABLE
  2
LTYPE
 70
     9
  0
LTYPE
  2
CONTINUOUS
 70
    64
  3
実線
 72
    65
 73
     0
 40
0.0
  0
LTYPE
  2
DASHED1
 70
    64
  3
--  --  --  --  --  --  --  --  
 72
    65
 73
     2
 40
2.5
 49
1.25
 49
-1.25
  0
LTYPE
  2
DASHED2
 70
    64
  3
----    ----    ----    ----    
 72
    65
 73
     2
 40
5.0
 49
2.5
 49
-2.5
  0
LTYPE
  2
DASHED3
 70
    64
  3
------  ------  ------  ------  
 72
    65
 73
     2
 40
5.0
 49
3.75
 49
-1.25
  0
LTYPE
  2
CENTER1
 70
    64
  3
----- - ----- - ----- - ----- - 
 72
    65
 73
     4
 40
10.0
 49
6.25
 49
-1.25
 49
1.25
 49
-1.25
  0
LTYPE
  2
CENTER2
 70
    64
  3
----------  --  ----------  --  
 72
    65
 73
     4
 40
20.0
 49
12.5
 49
-2.5
 49
2.5
 49
-2.5
  0
LTYPE
  2
PHANTOM1
 70
    64
  3
--- - - --- - - --- - - --- - - 
 72
    65
 73
     6
 40
10.0
 49
3.25
 49
-1.25
 49
1.25
 49
-1.25
 49
1.25
 49
-1.25
  0
LTYPE
  2
PHANTOM2
 70
    64
  3
--------  -  -  --------  -  -  
 72
    65
 73
     6
 40
20.0
 49
10.0
 49
-2.5
 49
1.25
 49
-2.5
 49
1.25
 49
-2.5
  0
LTYPE
  2
DOT
 70
    64
  3
-   -   -   -   -   -   -   -   
 72
    65
 73
     2
 40
2.5
 49
0.625
 49
-1.875
  0
LTYPE
  2
DUMMY
 70
    64
  3
ダミー
 72
    65
 73
     0
 40
0.0
  0
LTYPE
  2
RAND1
 70
    64
  3
ランダム線1
 72
    65
 73
     4
 40
10.0
 49
1.0
 49
-2.0
 49
3.0
 49
-4.0
  0
LTYPE
  2
RAND2
 70
    64
  3
ランダム線2
 72
    65
 73
     4
 40
14.0
 49
2.0
 49
-3.0
 49
4.0
 49
-5.0
  0
LTYPE
  2
RAND3
 70
    64
  3
ランダム線3
 72
    65
 73
     4
 40
18.0
 49
3.0
 49
-4.0
 49
5.0
 49
-6.0
  0
LTYPE
  2
RAND4
 70
    64
  3
ランダム線4
 72
    65
 73
     4
 40
22.0
 49
4.0
 49
-5.0
 49
6.0
 49
-7.0
  0
LTYPE
  2
RAND5
 70
    64
  3
ランダム線5
 72
    65
 73
     4
 40
26.0
 49
5.0
 49
-6.0
 49
7.0
 49
-8.0
  0
LTYPE
  2
LONG1
 70
    64
  3
----------  --  ----------  --  
 72
    65
 73
     4
 40
40.0
 49
32.5
 49
-2.5
 49
2.5
 49
-2.5
  0
LTYPE
  2
LONG2
 70
    64
  3
--------  -  -  --------  -  -  
 72
    65
 73
     6
 40
40.0
 49
30.0
 49
-2.5
 49
1.25
 49
-2.5
 49
1.25
 49
-2.5
  0
LTYPE
  2
LONG3
 70
    64
  3
+++++++++++++++..+++++++++++++++
 72
    65
 73
     2
 40
40.0
 49
37.5
 49
-2.5
  0
LTYPE
  2
LONG4
 70
    64
  3
+++++++++++++++..+++++++++++++++
 72
    65
 73
     2
 40
80.0
 49
75.0
 49
-5.0
  0
LTYPE
  2
LONG5
 70
    64
  3
----------  --  ----------  --  
 72
    65
 73
     4
 40
60.0
 49
37.5
 49
-7.5
 49
7.5
 49
-7.5
  0
LTYPE
  2
dashed
 70
   64
  3
-------   -------------   ------
 72
   65
 73
    2
 40
7.5
 49
6
 49
-1.5
  0
LTYPE
  2
dashed_spaced
 70
   64
  3
----        --------        ----
 72
   65
 73
    2
 40
12
 49
6
 49
-6
  0
LTYPE
  2
long_dashed_dotted
 70
   64
  3
------------- --- --------------
 72
   65
 73
    4
 40
15.25
 49
12
 49
-1.5
 49
0.25
 49
-1.5
  0
LTYPE
  2
long_dashed_double-dotted
 70
   64
  3
----------- --- --- ------------
 72
   65
 73
    6
 40
17
 49
12
 49
-1.5
 49
0.25
 49
-1.5
 49
0.25
 49
-1.5
  0
LTYPE
  2
long_dashed_triplicate-dotted
 70
   64
  3
--------- --- --- --- ----------
 72
   65
 73
    8
 40
18.75
 49
12
 49
-1.5
 49
0.25
 49
-1.5
 49
0.25
 49
-1.5
 49
0.25
 49
-1.5
  0
LTYPE
  2
dotted
 70
   64
  3
   -       -       -       -    
 72
   65
 73
    2
 40
1.75
 49
0.25
 49
-1.5
  0
LTYPE
  2
chain
 70
   64
  3
-------------- -- --------------
 72
   65
 73
    4
 40
18.5
 49
12
 49
-1.5
 49
3.5
 49
-1.5
  0
LTYPE
  2
chain_double_dash
 70
   64
  3
------------ -- -- -------------
 72
   65
 73
    6
 40
23.5
 49
12
 49
-1.5
 49
3.5
 49
-1.5
 49
3.5
 49
-1.5
  0
LTYPE
  2
dashed_dotted
 70
   64
  3
-----------     -     ----------
 72
   65
 73
    4
 40
9.25
 49
6
 49
-1.5
 49
0.25
 49
-1.5
  0
LTYPE
  2
double-dashed_dotted
 70
   64
  3
------   -----------   -   -----
 72
   65
 73
    6
 40
16.75
 49
6
 49
-1.5
 49
6
 49
-1.5
 49
0.25
 49
-1.5
  0
LTYPE
  2
dashed_double-dotted
 70
   64
  3
---------    -    -    ---------
 72
   65
 73
    6
 40
11
 49
6
 49
-1.5
 49
0.25
 49
-1.5
 49
0.25
 49
-1.5
  0
LTYPE
  2
double-dashed_double-dotted
 70
   64
  3
-----   ---------   -   -   ----
 72
   65
 73
    8
 40
18.5
 49
6
 49
-1.5
 49
6
 49
-1.5
 49
0.25
 49
-1.5
 49
0.25
 49
-1.5
  0
LTYPE
  2
dashed_triplicate-dotted
 70
   64
  3
-------    -    -    -    ------
 72
   65
 73
    8
 40
12.75
 49
6
 49
-1.5
 49
0.25
 49
-1.5
 49
0.25
 49
-1.5
 49
0.25
 49
-1.5
  0
LTYPE
  2
double-dashed_triplicate-dotted
 70
   64
  3
-----  ---------  -  -  -  -----
 72
   65
 73
   10
 40
20.25
 49
6
 49
-1.5
 49
6
 49
-1.5
 49
0.25
 49
-1.5
 49
0.25
 49
-1.5
 49
0.25
 49
-1.5
  0
LTYPE
  2
undefined
 70
   64
  3
--------------------------------
 72
   65
 73
    0
 40
0
  0
LTYPE
  2
PLINE2
 70
   64
  3
------     -----------     -----
 72
   65
 73
    2
 40
3
 49
2.1000000000000001
 49
-0.9
  0
LTYPE
  2
PLINE3
 70
   64
  3
------------   ---   -----------
 72
   65
 73
    4
 40
10
 49
7
 49
-1
 49
1
 49
-1
  0
LTYPE
  2
PLINE4
 70
   64
  3
---------   ---   ---   --------
 72
   65
 73
    6
 40
10
 49
5
 49
-1
 49
1
 49
-1
 49
1
 49
-1
  0
LTYPE
  2
PLINE5
 70
   64
  3
------     -----------     -----
 72
   65
 73
    2
 40
5
 49
3.5
 49
-1.5
  0
LTYPE
  2
PLINE6
 70
   64
  3
------------   ---   -----------
 72
   65
 73
    4
 40
15
 49
10.5
 49
-1.5
 49
1.5
 49
-1.5
  0
LTYPE
  2
PLINE7
 70
   64
  3
---------   ---   ---   --------
 72
   65
 73
    6
 40
15
 49
7.5
 49
-1.5
 49
1.5
 49
-1.5
 49
1.5
 49
-1.5
  0
LTYPE
  2
PLINE8
 70
   64
  3
------     -----------     -----
 72
   65
 73
    2
 40
7
 49
4.9000000000000004
 49
-2.1000000000000001
  0
LTYPE
  2
PLINE9
 70
   64
  3
------------   ---   -----------
 72
   65
 73
    4
 40
20
 49
14
 49
-2
 49
2
 49
-2
  0
LTYPE
  2
PLINE10
 70
   64
  3
---------   ---   ---   --------
 72
   65
 73
    6
 40
20
 49
10
 49
-2
 49
2
 49
-2
 49
2
 49
-2
  0
LTYPE
  2
PLINE11
 70
   64
  3
------     -----------     -----
 72
   65
 73
    2
 40
9
 49
6.2999999999999989
 49
-2.7000000000000002
  0
LTYPE
  2
PLINE12
 70
   64
  3
------------   ---   -----------
 72
   65
 73
    4
 40
25
 49
17.5
 49
-2.5
 49
2.5
 49
-2.5
  0
LTYPE
  2
PLINE13
 70
   64
  3
---------   ---   ---   --------
 72
   65
 73
    6
 40
25
 49
12.5
 49
-2.5
 49
2.5
 49
-2.5
 49
2.5
 49
-2.5
  0
LTYPE
  2
PLINE14
 70
   64
  3
------     -----------     -----
 72
   65
 73
    2
 40
11
 49
7.7000000000000002
 49
-3.2999999999999989
  0
LTYPE
  2
PLINE15
 70
   64
  3
------------   ---   -----------
 72
   65
 73
    4
 40
30
 49
21
 49
-3
 49
3
 49
-3
  0
LTYPE
  2
PLINE16
 70
   64
  3
---------   ---   ---   --------
 72
   65
 73
    6
 40
30
 49
15
 49
-3
 49
3
 49
-3
 49
3
 49
-3
  0
ENDTAB
  0
TABLE
  2
STYLE
  5
3
100
AcDbSymbolTable
 70
     1
  0
STYLE
  5
10
100
AcDbSymbolTableRecord
100
AcDbTextStyleTableRecord
  2
STANDARD
 70
     0
 40
0.0
 41
1.0
 50
0.0
 71
     0
 42
0.2
  3
txt
  4
bigfont.shx
  0
STYLE
  5
26
100
AcDbSymbolTableRecord
100
AcDbTextStyleTableRecord
  2
TATEGAKI
 70
    68
 40
0.0
 41
1.0
 50
0.0
 71
     0
 42
1.0
  3
txt
  4
bigfont.shx
  0
ENDTAB
  0
TABLE
  2
LAYER
 70
    4
  0
LAYER
  2
_0-2_寸法
 70
   64
 62
    7
  6
CONTINUOUS
  0
LAYER
  2
_0-3_躯体と製品
 70
   64
 62
    7
  6
CONTINUOUS
  0
LAYER
  2
_0-4_図面枠
 70
   64
 62
    7
  6
CONTINUOUS
  0
LAYER
  2
ADD_LINE
 70
   64
 62
    7
  6
CONTINUOUS
  0
ENDTAB
  0
ENDSEC
  0
SECTION
  2
BLOCKS
  0
BLOCK
  2
-000-_Dot
 70
   64
 10
0
 20
0
 30
0
  0
CIRCLE
  8
_0-0_0
  6
CONTINUOUS
 62
    7
 10
0
 20
0
 40
0.025
  0
LINE
  8
_0-0_0
  6
CONTINUOUS
 62
    7
 10
0.025
 20
0
 11
-0.025
 21
0
  0
LINE
  8
_0-0_0
  6
CONTINUOUS
 62
    7
 10
-0.05
 20
0
 11
-0.1
 21
0
  0
ENDBLK
  0
BLOCK
  2
-001-_D4
 70
   64
 10
0
 20
0
 30
0
  0
LINE
  8
_0-2_寸法
  6
CONTINUOUS
 62
    4
 10
789.30322751132701
 20
-103.9320660978843
 11
789.30322751132701
 21
-54.048842097884332
  0
LINE
  8
_0-2_寸法
  6
CONTINUOUS
 62
    4
 10
991.74088551132695
 20
-91.92614409788419
 11
991.74088551132695
 21
-54.048842097884332
  0
LINE
  8
_0-2_寸法
  6
CONTINUOUS
 62
    4
 10
789.40322751132703
 20
-54.048842097884332
 11
991.64088551132716
 21
-54.048842097884332
  0
INSERT
  2
-000-_Dot
  8
_0-2_寸法
 10
789.30322751132701
 20
-54.048842097884332
 41
1
 42
1
 50
180
  0
INSERT
  2
-000-_Dot
  8
_0-2_寸法
 10
991.74088551132695
 20
-54.048842097884332
 41
1
 42
1
 50
0
  0
TEXT
  8
_0-2_寸法
 62
    7
 10
885.52205651132681
 20
-53.968842097884327
 40
5
 41
1
 50
0
  1
全長
  0
POINT
  8
_0-1_Defpoints
 62
    7
 10
789.30322751132701
 20
-103.9320660978843
  0
POINT
  8
_0-1_Defpoints
 62
    7
 10
991.74088551132695
 20
-91.92614409788419
  0
POINT
  8
_0-1_Defpoints
 62
    7
 10
991.74088551132695
 20
-54.048842097884332
  0
ENDBLK
  0
BLOCK
  2
-002-_D5
 70
   64
 10
0
 20
0
 30
0
  0
LINE
  8
_0-2_寸法
  6
CONTINUOUS
 62
    4
 10
933.14088551132625
 20
-92.92614409788419
 11
933.14088551132625
 21
-72.075200097884391
  0
LINE
  8
_0-2_寸法
  6
CONTINUOUS
 62
    4
 10
849.14088551132613
 20
-92.92614409788419
 11
849.14088551132613
 21
-72.075200097884391
  0
LINE
  8
_0-2_寸法
  6
CONTINUOUS
 62
    4
 10
933.04088551132622
 20
-72.075200097884391
 11
849.24088551132627
 21
-72.075200097884391
  0
INSERT
  2
-000-_Dot
  8
_0-2_寸法
 10
933.14088551132625
 20
-72.075200097884391
 41
1
 42
1
 50
0
  0
INSERT
  2
-000-_Dot
  8
_0-2_寸法
 10
849.14088551132613
 20
-72.075200097884391
 41
1
 42
1
 50
180
  0
TEXT
  8
_0-2_寸法
 62
    7
 10
876.14088551132625
 20
-71.995200097884407
 40
5
 41
1
 50
0
  1
８４０ピッチ
  0
POINT
  8
_0-1_Defpoints
 62
    7
 10
933.14088551132625
 20
-92.92614409788419
  0
POINT
  8
_0-1_Defpoints
 62
    7
 10
849.14088551132613
 20
-92.92614409788419
  0
POINT
  8
_0-1_Defpoints
 62
    7
 10
849.14088551132613
 20
-72.075200097884391
  0
ENDBLK
  0
BLOCK
  2
-003-_D6
 70
   64
 10
0
 20
0
 30
0
  0
LINE
  8
_0-2_寸法
  6
CONTINUOUS
 62
    4
 10
413.34937951132633
 20
-115.8687940978843
 11
413.34937951132633
 21
-74.177902097884356
  0
LINE
  8
_0-2_寸法
  6
CONTINUOUS
 62
    4
 10
688.34937951132702
 20
-114.05334409788429
 11
688.34937951132702
 21
-74.177902097884356
  0
LINE
  8
_0-2_寸法
  6
CONTINUOUS
 62
    4
 10
413.44937951132641
 20
-74.177902097884356
 11
688.24937951132711
 21
-74.177902097884356
  0
INSERT
  2
-000-_Dot
  8
_0-2_寸法
 10
413.34937951132633
 20
-74.177902097884356
 41
1
 42
1
 50
180
  0
INSERT
  2
-000-_Dot
  8
_0-2_寸法
 10
688.34937951132702
 20
-74.177902097884356
 41
1
 42
1
 50
0
  0
TEXT
  8
_0-2_寸法
 62
    7
 10
549.59937951132667
 20
-74.097902097884358
 40
5
 41
1
 50
0
  1
E
  0
POINT
  8
_0-1_Defpoints
 62
    7
 10
413.34937951132633
 20
-115.8687940978843
  0
POINT
  8
_0-1_Defpoints
 62
    7
 10
688.34937951132702
 20
-114.05334409788429
  0
POINT
  8
_0-1_Defpoints
 62
    7
 10
688.34937951132702
 20
-74.177902097884356
  0
ENDBLK
  0
BLOCK
  2
-004-_D7
 70
   64
 10
0
 20
0
 30
0
  0
LINE
  8
_0-2_寸法
  6
CONTINUOUS
 62
    4
 10
799.30322751132712
 20
-242.95477009788442
 11
799.30322751132712
 21
-278.11357609788462
  0
LINE
  8
_0-2_寸法
  6
CONTINUOUS
 62
    4
 10
980.5032275113266
 20
-249.10347009788421
 11
980.5032275113266
 21
-278.11357609788462
  0
LINE
  8
_0-2_寸法
  6
CONTINUOUS
 62
    4
 10
799.40322751132692
 20
-278.11357609788462
 11
980.40322751132658
 21
-278.11357609788462
  0
INSERT
  2
-000-_Dot
  8
_0-2_寸法
 10
799.30322751132712
 20
-278.11357609788462
 41
1
 42
1
 50
180
  0
INSERT
  2
-000-_Dot
  8
_0-2_寸法
 10
980.5032275113266
 20
-278.11357609788462
 41
1
 42
1
 50
0
  0
TEXT
  8
_0-2_寸法
 62
    7
 10
884.90322751132703
 20
-278.03357609788458
 40
5
 41
1
 50
0
  1
開口
  0
POINT
  8
_0-1_Defpoints
 62
    7
 10
799.30322751132712
 20
-242.95477009788442
  0
POINT
  8
_0-1_Defpoints
 62
    7
 10
980.5032275113266
 20
-249.10347009788421
  0
POINT
  8
_0-1_Defpoints
 62
    7
 10
980.5032275113266
 20
-278.11357609788462
  0
ENDBLK
  0
BLOCK
  2
-005-_D8
 70
   64
 10
0
 20
0
 30
0
  0
LINE
  8
_0-2_寸法
  6
CONTINUOUS
 62
    4
 10
501.01385751132659
 20
-240.34100976785589
 11
501.01385751132659
 21
-273.83077209788439
  0
LINE
  8
_0-2_寸法
  6
CONTINUOUS
 62
    4
 10
601.01385751132659
 20
-240.34100976785589
 11
601.01385751132659
 21
-273.83077209788439
  0
LINE
  8
_0-2_寸法
  6
CONTINUOUS
 62
    4
 10
501.11385751132656
 20
-273.83077209788439
 11
600.91385751132646
 21
-273.83077209788439
  0
INSERT
  2
-000-_Dot
  8
_0-2_寸法
 10
501.01385751132659
 20
-273.83077209788439
 41
1
 42
1
 50
180
  0
INSERT
  2
-000-_Dot
  8
_0-2_寸法
 10
601.01385751132659
 20
-273.83077209788439
 41
1
 42
1
 50
0
  0
TEXT
  8
_0-2_寸法
 62
    7
 10
541.01385751132659
 20
-273.75077209788441
 40
5
 41
1
 50
0
  1
Ａ　開口
  0
POINT
  8
_0-1_Defpoints
 62
    7
 10
501.01385751132659
 20
-240.34100976785589
  0
POINT
  8
_0-1_Defpoints
 62
    7
 10
601.01385751132659
 20
-240.34100976785589
  0
POINT
  8
_0-1_Defpoints
 62
    7
 10
601.01385751132659
 20
-273.83077209788439
  0
ENDBLK
  0
BLOCK
  2
-006-_D9
 70
   64
 10
0
 20
0
 30
0
  0
LINE
  8
_0-2_寸法
  6
CONTINUOUS
 62
    4
 10
484.43717551132676
 20
-205.9320660978843
 11
381.01037551132652
 21
-205.9320660978843
  0
LINE
  8
_0-2_寸法
  6
CONTINUOUS
 62
    4
 10
497.74401151132668
 20
-220.9320660978843
 11
381.01037551132652
 21
-220.9320660978843
  0
LINE
  8
_0-2_寸法
  6
CONTINUOUS
 62
    4
 10
381.01037551132652
 20
-206.0320660978843
 11
381.01037551132652
 21
-220.83206609788431
  0
INSERT
  2
-000-_Dot
  8
_0-2_寸法
 10
381.01037551132652
 20
-205.9320660978843
 41
1
 42
1
 50
90
  0
INSERT
  2
-000-_Dot
  8
_0-2_寸法
 10
381.01037551132652
 20
-220.9320660978843
 41
1
 42
1
 50
270
  0
TEXT
  8
_0-2_寸法
 62
    7
 10
380.93037551132653
 20
-214.68206609788422
 40
5
 41
1
 50
90
  1
J
  0
POINT
  8
_0-1_Defpoints
 62
    7
 10
484.43717551132676
 20
-205.9320660978843
  0
POINT
  8
_0-1_Defpoints
 62
    7
 10
497.74401151132668
 20
-220.9320660978843
  0
POINT
  8
_0-1_Defpoints
 62
    7
 10
381.01037551132652
 20
-220.9320660978843
  0
ENDBLK
  0
BLOCK
  2
-007-_D10
 70
   64
 10
0
 20
0
 30
0
  0
LINE
  8
_0-2_寸法
  6
CONTINUOUS
 62
    4
 10
425.01651351132676
 20
-104.9320660978843
 11
381.01037551132652
 21
-104.9320660978843
  0
LINE
  8
_0-2_寸法
  6
CONTINUOUS
 62
    4
 10
484.43717551132676
 20
-205.9320660978843
 11
381.01037551132652
 21
-205.9320660978843
  0
LINE
  8
_0-2_寸法
  6
CONTINUOUS
 62
    4
 10
381.01037551132652
 20
-105.03206609788431
 11
381.01037551132652
 21
-205.83206609788422
  0
INSERT
  2
-000-_Dot
  8
_0-2_寸法
 10
381.01037551132652
 20
-104.9320660978843
 41
1
 42
1
 50
90
  0
INSERT
  2
-000-_Dot
  8
_0-2_寸法
 10
381.01037551132652
 20
-205.9320660978843
 41
1
 42
1
 50
270
  0
TEXT
  8
_0-2_寸法
 62
    7
 10
380.93037551132653
 20
-157.93206609788419
 40
5
 41
1
 50
90
  1
 I
  0
POINT
  8
_0-1_Defpoints
 62
    7
 10
425.01651351132676
 20
-104.9320660978843
  0
POINT
  8
_0-1_Defpoints
 62
    7
 10
484.43717551132676
 20
-205.9320660978843
  0
POINT
  8
_0-1_Defpoints
 62
    7
 10
381.01037551132652
 20
-205.9320660978843
  0
ENDBLK
  0
BLOCK
  2
-008-_D11
 70
   64
 10
0
 20
0
 30
0
  0
LINE
  8
_0-2_寸法
  6
CONTINUOUS
 62
    4
 10
789.30322751132701
 20
-242.95477009788442
 11
789.30322751132701
 21
-278.11357609788462
  0
LINE
  8
_0-2_寸法
  6
CONTINUOUS
 62
    4
 10
799.30322751132712
 20
-242.95477009788442
 11
799.30322751132712
 21
-278.11357609788462
  0
LINE
  8
_0-2_寸法
  6
CONTINUOUS
 62
    4
 10
789.40322751132703
 20
-278.11357609788462
 11
799.20322751132699
 21
-278.11357609788462
  0
INSERT
  2
-000-_Dot
  8
_0-2_寸法
 10
789.30322751132701
 20
-278.11357609788462
 41
1
 42
1
 50
180
  0
INSERT
  2
-000-_Dot
  8
_0-2_寸法
 10
799.30322751132712
 20
-278.11357609788462
 41
1
 42
1
 50
0
  0
TEXT
  8
_0-2_寸法
 62
    7
 10
790.55322751132712
 20
-278.03357609788458
 40
5
 41
1
 50
0
  1
100
  0
POINT
  8
_0-1_Defpoints
 62
    7
 10
789.30322751132701
 20
-242.95477009788442
  0
POINT
  8
_0-1_Defpoints
 62
    7
 10
799.30322751132712
 20
-242.95477009788442
  0
POINT
  8
_0-1_Defpoints
 62
    7
 10
799.30322751132712
 20
-278.11357609788462
  0
ENDBLK
  0
BLOCK
  2
-009-_D12
 70
   64
 10
0
 20
0
 30
0
  0
LINE
  8
_0-2_寸法
  6
CONTINUOUS
 62
    4
 10
764.80322751132701
 20
-204.90153409788431
 11
764.80322751132701
 21
-190.91300009788441
  0
LINE
  8
_0-2_寸法
  6
CONTINUOUS
 62
    4
 10
764.90322751132692
 20
-190.91300009788441
 11
789.20322751132699
 21
-190.91300009788441
  0
INSERT
  2
-000-_Dot
  8
_0-2_寸法
 10
764.80322751132701
 20
-190.91300009788441
 41
1
 42
1
 50
180
  0
INSERT
  2
-000-_Dot
  8
_0-2_寸法
 10
789.30322751132701
 20
-190.91300009788441
 41
1
 42
1
 50
0
  0
TEXT
  8
_0-2_寸法
 62
    7
 10
764.55322751132701
 20
-190.83300009788439
 40
5
 41
1
 50
0
  1
現場合わせ
  0
POINT
  8
_0-1_Defpoints
 62
    7
 10
764.80322751132701
 20
-204.90153409788431
  0
POINT
  8
_0-1_Defpoints
 62
    7
 10
789.30322751132701
 20
-190.91300009788441
  0
POINT
  8
_0-1_Defpoints
 62
    7
 10
789.30322751132701
 20
-190.91300009788441
  0
ENDBLK
  0
BLOCK
  2
-010-_D13
 70
   64
 10
0
 20
0
 30
0
  0
LINE
  8
_0-2_寸法
  6
CONTINUOUS
 62
    4
 10
849.24088551132627
 20
-92.92614409788419
 11
933.04088551132622
 21
-92.92614409788419
  0
INSERT
  2
-000-_Dot
  8
_0-2_寸法
 10
849.14088551132613
 20
-92.92614409788419
 41
1
 42
1
 50
180
  0
INSERT
  2
-000-_Dot
  8
_0-2_寸法
 10
933.14088551132625
 20
-92.92614409788419
 41
1
 42
1
 50
0
  0
TEXT
  8
_0-2_寸法
 62
    7
 10
887.39088551132625
 20
-92.846144097884206
 40
5
 41
1
 50
0
  1
840
  0
POINT
  8
_0-1_Defpoints
 62
    7
 10
849.14088551132613
 20
-92.92614409788419
  0
POINT
  8
_0-1_Defpoints
 62
    7
 10
933.14088551132625
 20
-92.92614409788419
  0
POINT
  8
_0-1_Defpoints
 62
    7
 10
933.14088551132625
 20
-92.92614409788419
  0
ENDBLK
  0
BLOCK
  2
-011-_D14
 70
   64
 10
0
 20
0
 30
0
  0
LINE
  8
_0-2_寸法
  6
CONTINUOUS
 62
    4
 10
980.5032275113266
 20
-249.10347009788421
 11
980.5032275113266
 21
-278.11357609788462
  0
LINE
  8
_0-2_寸法
  6
CONTINUOUS
 62
    4
 10
990.5032275113266
 20
-249.10347009788421
 11
990.5032275113266
 21
-278.11357609788462
  0
LINE
  8
_0-2_寸法
  6
CONTINUOUS
 62
    4
 10
980.60322751132662
 20
-278.11357609788462
 11
990.40322751132658
 21
-278.11357609788462
  0
INSERT
  2
-000-_Dot
  8
_0-2_寸法
 10
980.5032275113266
 20
-278.11357609788462
 41
1
 42
1
 50
180
  0
INSERT
  2
-000-_Dot
  8
_0-2_寸法
 10
990.5032275113266
 20
-278.11357609788462
 41
1
 42
1
 50
0
  0
TEXT
  8
_0-2_寸法
 62
    7
 10
981.7532275113266
 20
-278.03357609788458
 40
5
 41
1
 50
0
  1
100
  0
POINT
  8
_0-1_Defpoints
 62
    7
 10
980.5032275113266
 20
-249.10347009788421
  0
POINT
  8
_0-1_Defpoints
 62
    7
 10
990.5032275113266
 20
-249.10347009788421
  0
POINT
  8
_0-1_Defpoints
 62
    7
 10
990.5032275113266
 20
-278.11357609788462
  0
ENDBLK
  0
ENDSEC
  0
SECTION
  2
ENTITIES
  0
INSERT
  2
-001-_D4
  8
_0-2_寸法
 10
-6857.3020051132607
 20
2262.2758609788434
 41
10
 42
10
 50
0
  0
INSERT
  2
-002-_D5
  8
_0-2_寸法
 10
-6857.3020051132607
 20
2262.2758609788434
 41
10
 42
10
 50
0
  0
INSERT
  2
-003-_D6
  8
_0-2_寸法
 10
-6857.3020051132607
 20
2262.2758609788434
 41
10
 42
10
 50
0
  0
LINE
  8
_0-4_図面枠
  6
CONTINUOUS
 62
    4
 10
4292.1666699999987
 20
-2373
 11
4292.1666699999987
 21
2967
  0
LINE
  8
_0-4_図面枠
  6
CONTINUOUS
 62
    4
 10
-3451.1666699999978
 20
2967
 11
-3451.1666699999978
 21
-2373
  0
INSERT
  2
-004-_D7
  8
_0-2_寸法
 10
-6857.3020051132607
 20
2262.2758609788434
 41
10
 42
10
 50
0
  0
LINE
  8
_0-3_躯体と製品
  6
CONTINUOUS
 62
    3
 10
2707.7302700000055
 20
1212.4589200000012
 11
3010.1068500000074
 21
1212.4589200000012
  0
LINE
  8
_0-3_躯体と製品
  6
CONTINUOUS
 62
    3
 10
2707.7302700000055
 20
1042.9552000000012
 11
3060.1068500000074
 21
1042.9552000000012
  0
LINE
  8
_0-3_躯体と製品
  6
CONTINUOUS
 62
    3
 10
2707.7302700000055
 20
659.49294000000009
 11
3060.1068500000074
 21
659.49294000000009
  0
LINE
  8
_0-3_躯体と製品
  6
CONTINUOUS
 62
    3
 10
2707.7302700000055
 20
643.14942000000019
 11
3060.1068500000074
 21
643.14942000000019
  0
LINE
  8
_0-3_躯体と製品
  6
PLINE2
 62
    5
 10
2798.2665700000107
 20
-22.74365999999759
 11
2840.5316900000034
 21
-65.008779999999888
  0
LINE
  8
_0-3_躯体と製品
  6
PLINE2
 62
    5
 10
2801.777270000006
 20
-53.887599999999793
 11
2833.1017500000034
 21
-22.563120000000026
  0
ARC
  8
_0-3_躯体と製品
  6
CONTINUOUS
 62
    3
 10
2828.97523
 20
-30.775679999998601
 40
36.131099999999989
 50
203.12831999999824
 51
336.70039199999871
  0
LINE
  8
_0-3_躯体と製品
  6
CONTINUOUS
 62
    4
 10
3060.1068500000074
 20
52.530040000001236
 11
2707.7302700000055
 21
52.530040000001236
  0
LINE
  8
_0-3_躯体と製品
  6
CONTINUOUS
 62
    4
 10
2707.7302700000055
 20
-22.365379999998595
 11
3326.73027
 21
-22.365379999998595
  0
LINE
  8
_0-3_躯体と製品
  6
CONTINUOUS
 62
    3
 10
2707.7302700000055
 20
272.97596000000112
 11
3060.1068500000074
 21
272.97596000000112
  0
LINE
  8
_0-3_躯体と製品
  6
CONTINUOUS
 62
    3
 10
2707.7302700000055
 20
202.95520000000101
 11
3060.1068500000074
 21
202.95520000000101
  0
LINE
  8
_0-4_図面枠
  6
CONTINUOUS
 62
    4
 10
-3451.1666699999978
 20
-2373
 11
4292.1666699999987
 21
-2373
  0
TEXT
  8
_0-4_図面枠
 62
    7
 10
1256.8127700000023
 20
-1736.2656799999991
 40
60
 41
0.7999999999999999
 50
0
  1
０．６
  0
TEXT
  8
_0-4_図面枠
 62
    7
 10
895.99489000000631
 20
-1729.754000000001
 40
60
 41
0.8
 50
0
  1
２７５０
  0
TEXT
  8
_0-4_図面枠
 62
    7
 10
-429.4567699999925
 20
-1734.0792599999988
 40
60
 41
0.8000000000000003
 50
0
  1
ＨＬ
  0
TEXT
  8
_0-4_図面枠
 62
    7
 10
-841.3842699999941
 20
-1736.1890799999992
 40
60
 41
0.8000000000000002
 50
0
  1
ＳＣ１０００
  0
LINE
  8
_0-4_図面枠
  6
CONTINUOUS
 62
    2
 10
470.741950000006
 20
-1153.4129800000007
 11
470.741950000006
 21
-1903.412980000001
  0
LINE
  8
_0-4_図面枠
  6
CONTINUOUS
 62
    2
 10
1195.4371100000062
 20
-1153.4129800000007
 11
1195.4371100000062
 21
-1903.412980000001
  0
LINE
  8
_0-4_図面枠
  6
CONTINUOUS
 62
    2
 10
795.43711000000621
 20
-1153.4129800000007
 11
795.43711000000621
 21
-1903.412980000001
  0
LINE
  8
_0-4_図面枠
  6
CONTINUOUS
 62
    3
 10
1445.4371100000062
 20
-1153.4129800000007
 11
1445.4371100000062
 21
-1903.412980000001
  0
LINE
  8
_0-4_図面枠
  6
CONTINUOUS
 62
    3
 10
-924.96150999999918
 20
-1153.4129800000007
 11
-924.96150999999918
 21
-1903.412980000001
  0
LINE
  8
_0-4_図面枠
  6
CONTINUOUS
 62
    2
 10
-269.82646999999361
 20
-1153.4129800000007
 11
-269.82646999999361
 21
-1903.412980000001
  0
LINE
  8
_0-4_図面枠
  6
CONTINUOUS
 62
    2
 10
70.741950000006
 20
-1153.4129800000007
 11
70.741950000006
 21
-1903.412980000001
  0
LINE
  8
_0-4_図面枠
  6
CONTINUOUS
 62
    2
 10
-924.96150999999918
 20
-2053.412980000001
 11
1445.4371100000062
 21
-2053.412980000001
  0
LINE
  8
_0-4_図面枠
  6
CONTINUOUS
 62
    3
 10
-924.96150999999918
 20
-2203.412980000001
 11
1445.4371100000062
 21
-2203.412980000001
  0
LINE
  8
_0-4_図面枠
  6
CONTINUOUS
 62
    2
 10
-924.96150999999918
 20
-1753.412980000001
 11
1445.4371100000062
 21
-1753.412980000001
  0
LINE
  8
_0-4_図面枠
  6
CONTINUOUS
 62
    2
 10
-924.96150999999918
 20
-1903.412980000001
 11
1445.4371100000062
 21
-1903.412980000001
  0
LINE
  8
_0-4_図面枠
  6
CONTINUOUS
 62
    3
 10
-924.96150999999918
 20
-1903.412980000001
 11
-924.96150999999918
 21
-2203.412980000001
  0
TEXT
  8
_0-4_図面枠
 62
    7
 10
895.99489000000631
 20
-2029.7540000000008
 40
60
 41
0.8
 50
0
  1
４０００
  0
TEXT
  8
_0-4_図面枠
 62
    7
 10
891.50759000000562
 20
-2173.5911399999977
 40
60
 41
0.8
 50
0
  1
５３４０
  0
TEXT
  8
_0-4_図面枠
 62
    7
 10
891.50759000000562
 20
-1873.5909799999999
 40
60
 41
0.8
 50
0
  1
３３００
  0
TEXT
  8
_0-4_図面枠
 62
    7
 10
-235.4925299999968
 20
-2176.5438799999984
 40
60
 41
0.8000000000000002
 50
0
  1
２０００
  0
LINE
  8
_0-4_図面枠
  6
CONTINUOUS
 62
    2
 10
-269.82646999999361
 20
-1903.412980000001
 11
-269.82646999999361
 21
-2203.412980000001
  0
TEXT
  8
_0-4_図面枠
 62
    7
 10
-839.7027499999931
 20
-2185.0010599999987
 40
60
 41
0.7999999999999999
 50
0
  1
ＳＣ２０００
  0
TEXT
  8
_0-4_図面枠
 62
    7
 10
-429.4561499999927
 20
-2184.079279999999
 40
60
 41
0.7999999999999996
 50
0
  1
ＨＬ
  0
TEXT
  8
_0-4_図面枠
 62
    7
 10
-841.3842699999941
 20
-2036.1889400000009
 40
60
 41
0.8000000000000002
 50
0
  1
ＳＣ１５００
  0
TEXT
  8
_0-4_図面枠
 62
    7
 10
-839.7027499999931
 20
-1885.001040000001
 40
60
 41
0.7999999999999999
 50
0
  1
ＳＣ１２００
  0
TEXT
  8
_0-4_図面枠
 62
    7
 10
-429.4567699999925
 20
-1884.0792599999977
 40
60
 41
0.8000000000000003
 50
0
  1
ＨＬ
  0
TEXT
  8
_0-4_図面枠
 62
    7
 10
-429.4561499999927
 20
-2034.079099999999
 40
60
 41
0.7999999999999996
 50
0
  1
ＨＬ
  0
TEXT
  8
_0-4_図面枠
 62
    7
 10
-243.89950999999655
 20
-2015.1206600000005
 40
60
 41
0.8000000000000002
 50
0
  1
１５００
  0
TEXT
  8
_0-4_図面枠
 62
    7
 10
-235.4931499999966
 20
-1876.543999999999
 40
60
 41
0.8
 50
0
  1
１２００
  0
TEXT
  8
_0-4_図面枠
 62
    7
 10
491.50697000000491
 20
-2173.5911399999977
 40
60
 41
0.8
 50
0
  1
　１５０
  0
TEXT
  8
_0-4_図面枠
 62
    7
 10
157.02455000000009
 20
-2174.8698399999994
 40
60
 41
0.8000000000000002
 50
0
  1
１９９０
  0
LINE
  8
_0-4_図面枠
  6
CONTINUOUS
 62
    2
 10
795.43711000000621
 20
-1903.412980000001
 11
795.43711000000621
 21
-2203.412980000001
  0
LINE
  8
_0-4_図面枠
  6
CONTINUOUS
 62
    2
 10
470.741950000006
 20
-1903.412980000001
 11
470.741950000006
 21
-2203.412980000001
  0
LINE
  8
_0-4_図面枠
  6
CONTINUOUS
 62
    2
 10
70.741950000006
 20
-1903.412980000001
 11
70.741950000006
 21
-2203.412980000001
  0
TEXT
  8
_0-4_図面枠
 62
    7
 10
157.02517000000262
 20
-1874.8696599999994
 40
60
 41
0.8000000000000001
 50
0
  1
１２６０
  0
TEXT
  8
_0-4_図面枠
 62
    7
 10
161.28237000000445
 20
-2014.7130999999999
 40
60
 41
0.8000000000000001
 50
0
  1
１５６０
  0
TEXT
  8
_0-4_図面枠
 62
    7
 10
472.85585000000083
 20
-1866.4806800000006
 40
60
 41
0.8000000000000001
 50
0
  1
　１５０
  0
TEXT
  8
_0-4_図面枠
 62
    7
 10
491.50697000000491
 20
-2023.5909799999999
 40
60
 41
0.8
 50
0
  1
　１５０
  0
LINE
  8
_0-4_図面枠
  6
CONTINUOUS
 62
    3
 10
1445.4371100000062
 20
-1903.412980000001
 11
1445.4371100000062
 21
-2203.412980000001
  0
LINE
  8
_0-4_図面枠
  6
CONTINUOUS
 62
    2
 10
1195.4371100000062
 20
-1903.412980000001
 11
1195.4371100000062
 21
-2203.412980000001
  0
TEXT
  8
_0-4_図面枠
 62
    7
 10
1256.8127700000023
 20
-2186.265699999999
 40
60
 41
0.7999999999999999
 50
0
  1
１．０
  0
TEXT
  8
_0-4_図面枠
 62
    7
 10
1256.8127700000023
 20
-2036.2655399999994
 40
60
 41
0.7999999999999999
 50
0
  1
０．８
  0
TEXT
  8
_0-4_図面枠
 62
    7
 10
1256.8127700000023
 20
-1886.2656799999986
 40
60
 41
0.7999999999999999
 50
0
  1
０．８
  0
INSERT
  2
-005-_D8
  8
_0-2_寸法
 10
-6857.3020051132607
 20
2262.2758609788434
 41
10
 42
10
 50
0
  0
LINE
  8
_0-3_躯体と製品
  6
PLINE5
 62
    3
 10
-1348.8082099999929
 20
1156.7715200000002
 11
-587.49654999999166
 21
966.9552000000001
  0
LINE
  8
_0-3_躯体と製品
  6
CONTINUOUS
 62
    3
 10
-143.80820999999196
 20
1212.9552000000012
 11
-1348.8082099999929
 21
1212.9552000000012
  0
LINE
  8
_0-3_躯体と製品
  6
PLINE5
 62
    3
 10
-1348.8082099999929
 20
1111.4245200000003
 11
-592.89906999999857
 21
922.95520000000124
  0
LINE
  8
_0-3_躯体と製品
  6
CONTINUOUS
 62
    3
 10
-143.80820999999196
 20
1252.955200000001
 11
-1348.8082099999929
 21
1252.955200000001
  0
LINE
  8
_0-3_躯体と製品
  6
PLINE5
 62
    3
 10
-143.80820999999196
 20
1218.9552000000001
 11
-1348.8082099999929
 21
1218.9552000000001
  0
LINE
  8
_0-3_躯体と製品
  6
PLINE5
 62
    3
 10
-586.75984999999491
 20
972.95520000000124
 11
-1348.8082099999929
 21
1162.9552000000012
  0
LINE
  8
_0-3_躯体と製品
  6
CONTINUOUS
 62
    2
 10
-842.786689999999
 20
-6.7482999999986077
 11
-1349.3082099999947
 21
146.27538000000027
  0
LINE
  8
_0-3_躯体と製品
  6
CONTINUOUS
 62
    2
 10
-1349.3082099999947
 20
140.00756000000115
 11
-844.52186999999412
 21
-12.491919999999709
  0
LINE
  8
_0-3_躯体と製品
  6
CONTINUOUS
 62
    2
 10
-828.32678999999644
 20
41.115180000001374
 11
-1349.3082099999947
 21
198.5072800000014
  0
LINE
  8
_0-3_躯体と製品
  6
CONTINUOUS
 62
    3
 10
-927.78398999999354
 20
-91.801639999998997
 11
-878.22798999999213
 21
-106.7728599999989
  0
LINE
  8
_0-3_躯体と製品
  6
CONTINUOUS
 62
    3
 10
-898.864209999997
 20
3.9252800000010666
 11
-927.78398999999354
 21
-91.801639999998997
  0
LINE
  8
_0-3_躯体と製品
  6
PLINE3
 62
    2
 10
-1349.3082099999947
 20
14.651000000000977
 11
-387.1628499999988
 21
-276.01981999999884
  0
LINE
  8
_0-3_躯体と製品
  6
CONTINUOUS
 62
    4
 10
-614.81070999999702
 20
-18.166339999999991
 11
-1349.3082099999947
 21
203.73048000000222
  0
LINE
  8
_0-4_図面枠
  6
CONTINUOUS
 62
    3
 10
1445.4371100000062
 20
-1153.4129800000007
 11
-924.96150999999918
 21
-1153.4129800000007
  0
LINE
  8
_0-4_図面枠
  6
CONTINUOUS
 62
    2
 10
-924.96150999999918
 20
-1303.4129800000007
 11
1445.4371100000062
 21
-1303.4129800000007
  0
LINE
  8
_0-4_図面枠
  6
CONTINUOUS
 62
    2
 10
-924.96150999999918
 20
-1293.4129800000007
 11
1445.4371100000062
 21
-1293.4129800000007
  0
LINE
  8
_0-4_図面枠
  6
CONTINUOUS
 62
    2
 10
-924.96150999999918
 20
-1453.4129800000007
 11
1445.4371100000062
 21
-1453.4129800000007
  0
LINE
  8
_0-4_図面枠
  6
CONTINUOUS
 62
    2
 10
-924.96150999999918
 20
-1603.4129800000007
 11
1445.4371100000062
 21
-1603.4129800000007
  0
LINE
  8
_0-3_躯体と製品
  6
CONTINUOUS
 62
    2
 10
-1352.0582100000001
 20
-15.855979999998681
 11
-1352.0582100000001
 21
-160.93356000000063
  0
LINE
  8
_0-3_躯体と製品
  6
CONTINUOUS
 62
    2
 10
-1352.0582100000001
 20
-17.855979999998681
 11
-1352.0582100000001
 21
-160.93356000000063
  0
LINE
  8
_0-3_躯体と製品
  6
CONTINUOUS
 62
    2
 10
-1346.5582099999983
 20
-17.855979999998681
 11
-1346.5582099999983
 21
-160.93356000000063
  0
LINE
  8
_0-3_躯体と製品
  6
CONTINUOUS
 62
    2
 10
-1850.8447899999956
 20
-13.912799999999834
 11
-1823.2553099999996
 21
-105.23629999999889
  0
LINE
  8
_0-3_躯体と製品
  6
CONTINUOUS
 62
    2
 10
-1849.3082099999947
 20
-11.045919999998887
 11
-1820.3884499999958
 21
-106.7728599999989
  0
LINE
  8
_0-3_躯体と製品
  6
PLINE5
 62
    3
 10
-1842.8082099999974
 20
-10.888319999998885
 11
-1814.3884499999922
 21
-104.96022000000062
  0
LINE
  8
_0-3_躯体と製品
  6
CONTINUOUS
 62
    3
 10
-1798.8082099999929
 20
0.8005600000003596
 11
-1770.8324499999926
 21
-91.801639999998997
  0
LINE
  8
_0-3_躯体と製品
  6
CONTINUOUS
 62
    2
 10
-1855.8297499999981
 20
-6.7482999999986077
 11
-2347.8925099999979
 21
-155.40387999999871
  0
LINE
  8
_0-3_躯体と製品
  6
CONTINUOUS
 62
    2
 10
-1897.1716900000001
 20
-25.505819999998721
 11
-2346.1573299999964
 21
-161.1474999999989
  0
LINE
  8
_0-3_躯体と製品
  6
CONTINUOUS
 62
    2
 10
-1870.2896499999997
 20
41.115180000001374
 11
-2362.3524099999941
 21
-107.54042000000004
  0
LINE
  8
_0-4_図面枠
  6
CONTINUOUS
 62
    2
 10
-1832.1560299999919
 20
-59.633720000000039
 11
-1814.8924699999998
 21
-57.475760000000037
  0
LINE
  8
_0-4_図面枠
  6
CONTINUOUS
 62
    2
 10
-1814.8924699999998
 20
-57.475760000000037
 11
-1805.1824099999931
 21
-68.692440000000033
  0
LINE
  8
_0-4_図面枠
  6
CONTINUOUS
 62
    2
 10
-1805.1824099999931
 20
-68.692440000000033
 11
-1801.5132099999992
 21
-87.255419999998821
  0
LINE
  8
_0-4_図面枠
  6
CONTINUOUS
 62
    2
 10
-1801.5132099999992
 20
-87.255419999998821
 11
-1802.9845499999965
 21
-114.74661999999876
  0
LINE
  8
_0-4_図面枠
  6
CONTINUOUS
 62
    2
 10
-1802.9845499999965
 20
-114.74661999999876
 11
-1812.7345299999924
 21
-139.04610000000071
  0
LINE
  8
_0-4_図面枠
  6
CONTINUOUS
 62
    2
 10
-1812.7345299999924
 20
-139.04610000000071
 11
-1824.212509999993
 21
-156.61587999999961
  0
LINE
  8
_0-4_図面枠
  6
CONTINUOUS
 62
    2
 10
-1824.212509999993
 20
-156.61587999999961
 11
-1829.5665099999987
 21
-174.8679999999988
  0
LINE
  8
_0-4_図面枠
  6
CONTINUOUS
 62
    2
 10
-1829.5665099999987
 20
-174.8679999999988
 11
-1822.7439299999915
 21
-191.40517999999861
  0
LINE
  8
_0-4_図面枠
  6
CONTINUOUS
 62
    2
 10
-1822.7439299999915
 20
-191.40517999999861
 11
-1808.4186499999987
 21
-201.62652000000003
  0
LINE
  8
_0-4_図面枠
  6
CONTINUOUS
 62
    2
 10
-1808.4186499999987
 20
-201.62652000000003
 11
-1790.2918899999941
 21
-200.33175999999889
  0
LINE
  8
_0-4_図面枠
  6
CONTINUOUS
 62
    2
 10
-2021.4317299999993
 20
-27.733839999998736
 11
-2312.4636899999996
 21
-531.81597999999872
  0
LINE
  8
_0-4_図面枠
  6
CONTINUOUS
 62
    2
 10
-1928.6745499999915
 20
31.227480000000241
 11
-2366.1178499999969
 21
-726.44653999999969
  0
TEXT
  8
_0-4_図面枠
 62
    7
 10
-2818.0638899999876
 20
-521.81630824385377
 40
59.999999999999893
 41
0.8000000000000014
 50
0.0000100000010064
  1
ケミカルメンド処理
  0
TEXT
  8
_0-4_図面枠
 62
    7
 10
-2469.9349099999927
 20
-903.31282736676485
 40
60.000000000000234
 41
0.7999999999999976
 50
0.0000100000010968
  1
添母屋
  0
LINE
  8
_0-4_図面枠
  6
CONTINUOUS
 62
    2
 10
-1850.8251099999916
 20
-112.56845999999973
 11
-2313.1349699999964
 21
-913.31261999999901
  0
LINE
  8
_0-4_図面枠
  6
CONTINUOUS
 62
    2
 10
-2313.1349699999964
 20
-913.31261999999901
 11
-2482.5430899999947
 21
-913.31261999999901
  0
LINE
  8
_0-3_躯体と製品
  6
CONTINUOUS
 62
    2
 10
-1820.3884499999958
 20
-106.7728599999989
 11
-1868.2519099999936
 21
-121.23273999999969
  0
LINE
  8
_0-3_躯体と製品
  6
CONTINUOUS
 62
    2
 10
-1823.2553099999996
 20
-105.23629999999889
 11
-1866.7153499999995
 21
-118.3658799999987
  0
TEXT
  8
_0-4_図面枠
 62
    7
 10
-2526.117069999993
 20
-716.44668792526988
 40
60.000000000000121
 41
0.799999999999999
 50
0.0000100000010516
  1
水切板
  0
LINE
  8
_0-4_図面枠
  6
CONTINUOUS
 62
    2
 10
-2366.1178499999969
 20
-726.44653999999969
 11
-2546.7178499999955
 21
-726.44653999999969
  0
LINE
  8
_0-4_図面枠
  6
CONTINUOUS
 62
    2
 10
-2312.4636899999996
 20
-531.81597999999872
 11
-2768.542669999998
 21
-531.81597999999872
  0
LINE
  8
_0-4_図面枠
  6
CONTINUOUS
 62
    2
 10
-2279.907049999998
 20
-107.24226000000067
 11
-2429.5185299999966
 21
-366.37693999999988
  0
TEXT
  8
_0-4_図面枠
 62
    7
 10
-2762.3184099999917
 20
-356.37743808456275
 40
60.000000000000007
 41
0.7999999999999998
 50
0.0000100000010064
  1
スレート大波
  0
LINE
  8
_0-4_図面枠
  6
CONTINUOUS
 62
    2
 10
-2429.5185299999966
 20
-366.37693999999988
 11
-2744.5402099999956
 21
-366.37693999999988
  0
LINE
  8
_0-3_躯体と製品
  6
CONTINUOUS
 62
    2
 10
-1868.2519099999936
 20
-121.23273999999969
 11
-1874.0358699999924
 21
-102.08735999999794
  0
LINE
  8
_0-3_躯体と製品
  6
CONTINUOUS
 62
    2
 10
-1871.8341499999997
 20
-101.42219999999975
 11
-1874.0358699999924
 21
-102.08735999999794
  0
LINE
  8
_0-3_躯体と製品
  6
CONTINUOUS
 62
    2
 10
-1866.7153499999995
 20
-118.3658799999987
 11
-1871.8341499999997
 21
-101.42219999999975
  0
LINE
  8
_0-4_図面枠
  6
CONTINUOUS
 62
    2
 10
-1850.8251099999916
 20
-112.56845999999973
 11
-1862.1648699999923
 21
-152.20947999999885
  0
LINE
  8
_0-4_図面枠
  6
CONTINUOUS
 62
    2
 10
-2279.907049999998
 20
-107.24226000000067
 11
-2291.246789999992
 21
-146.88325999999984
  0
TEXT
  8
_0-4_図面枠
 62
    7
 10
-1782.9543899999999
 20
-215.43773999999962
 40
60
 41
0.7999999999999996
 50
0
  1
現場溶接
  0
LINE
  8
_0-3_躯体と製品
  6
CONTINUOUS
 62
    3
 10
-1770.8324499999926
 20
-91.801639999998997
 11
-1820.3884499999958
 21
-106.7728599999989
  0
INSERT
  2
-006-_D9
  8
_0-2_寸法
 10
-6857.3020051132607
 20
2262.2758609788434
 41
10
 42
10
 50
0
  0
INSERT
  2
-007-_D10
  8
_0-2_寸法
 10
-6857.3020051132607
 20
2262.2758609788434
 41
10
 42
10
 50
0
  0
TEXT
  8
_0-4_図面枠
 62
    7
 10
-2838.4301099999911
 20
618.50905364405116
 40
60
 41
0.8000000000000008
 50
0.0000100000010064
  1
六角ボルト
  0
LINE
  8
_0-4_図面枠
  6
CONTINUOUS
 62
    2
 10
-2583.0295499999957
 20
610.01040000000125
 11
-2840.7690099999945
 21
610.01040000000125
  0
LINE
  8
_0-3_躯体と製品
  6
PLINE2
 62
    5
 10
-2243.8042899999937
 20
972.95520000000124
 11
-2493.210769999996
 21
723.54872000000114
  0
LINE
  8
_0-3_躯体と製品
  6
PLINE2
 62
    5
 10
-2173.0936100000008
 20
972.95520000000124
 11
-2463.7063300000009
 21
682.34248000000025
  0
LINE
  8
_0-3_躯体と製品
  6
PLINE2
 62
    5
 10
-2110.8565899999985
 20
964.48153999999909
 11
-2422.1168899999975
 21
653.22124000000008
  0
LINE
  8
_0-3_躯体と製品
  6
PLINE2
 62
    5
 10
-2110.8565899999985
 20
893.77086000000008
 11
-2380.5274499999996
 21
624.10000000000127
  0
LINE
  8
_0-3_躯体と製品
  6
PLINE2
 62
    5
 10
-2110.8565899999985
 20
823.06018000000017
 11
-2338.9380099999971
 21
594.97876000000224
  0
LINE
  8
_0-3_躯体と製品
  6
PLINE2
 62
    5
 10
-2110.8565899999985
 20
752.34950000000026
 11
-2297.3485699999992
 21
565.8575200000023
  0
LINE
  8
_0-3_躯体と製品
  6
CONTINUOUS
 62
    3
 10
-2110.8565899999985
 20
972.95520000000124
 11
-2110.8565899999985
 21
612.28676000000019
  0
LINE
  8
_0-3_躯体と製品
  6
CONTINUOUS
 62
    3
 10
-2503.5049899999967
 20
661.37882000000013
 11
-2723.8082099999974
 21
1042.9552000000012
  0
LINE
  8
_0-3_躯体と製品
  6
CONTINUOUS
 62
    3
 10
-2473.2978699999967
 20
689.05854000000113
 11
-2673.8206699999955
 21
1036.3742200000002
  0
LINE
  8
_0-3_躯体と製品
  6
PLINE5
 62
    3
 10
-2716.3100899999981
 20
1041.9680600000022
 11
-2498.9739299999974
 21
665.53078000000119
  0
LINE
  8
_0-3_躯体と製品
  6
CONTINUOUS
 62
    4
 10
-2724.3833099999938
 20
1042.8043800000003
 11
-2500.731909999995
 21
655.42884000000026
  0
LINE
  8
_0-3_躯体と製品
  6
CONTINUOUS
 62
    3
 10
-2002.0171099999925
 20
728.39768000000026
 11
-1854.8082099999965
 21
851.92060000000129
  0
LINE
  8
_0-3_躯体と製品
  6
CONTINUOUS
 62
    3
 10
-1848.8082099999929
 20
849.1227600000002
 11
-1989.3310299999985
 21
731.2101200000011
  0
LINE
  8
_0-3_躯体と製品
  6
CONTINUOUS
 62
    4
 10
-1863.8082099999929
 20
844.36870000000022
 11
-2017.0171099999925
 21
715.81118000000129
  0
LINE
  8
_0-3_躯体と製品
  6
CONTINUOUS
 62
    3
 10
-1848.8082099999929
 20
1032.1075200000023
 11
-1848.8082099999929
 21
-12.700959999999895
  0
LINE
  8
_0-3_躯体と製品
  6
PLINE5
 62
    3
 10
-1842.8082099999974
 20
984.0740400000002
 11
-1842.8082099999974
 21
-10.888319999998885
  0
LINE
  8
_0-3_躯体と製品
  6
CONTINUOUS
 62
    3
 10
-1798.8082099999929
 20
1044.5739200000003
 11
-1798.8082099999929
 21
0.8005600000003596
  0
LINE
  8
_0-3_躯体と製品
  6
PLINE3
 62
    2
 10
-1348.8082099999929
 20
1420.3691199999998
 11
-1348.8082099999929
 21
-41.619159999999965
  0
LINE
  8
_0-3_躯体と製品
  6
CONTINUOUS
 62
    2
 10
-1868.8082099999938
 20
678.55714000000012
 11
-1828.8082099999929
 21
678.55714000000012
  0
LINE
  8
_0-3_躯体と製品
  6
CONTINUOUS
 62
    3
 10
-1842.8082099999974
 20
492.95520000000124
 11
-1832.193229999998
 21
492.95520000000124
  0
LINE
  8
_0-3_躯体と製品
  6
CONTINUOUS
 62
    2
 10
-1868.8082099999938
 20
474.95520000000215
 11
-1828.8082099999929
 21
474.95520000000215
  0
LINE
  8
_0-3_躯体と製品
  6
CONTINUOUS
 62
    3
 10
-1842.8082099999974
 20
542.95520000000124
 11
-1348.8082099999929
 21
542.95520000000124
  0
LINE
  8
_0-3_躯体と製品
  6
PLINE5
 62
    3
 10
-1842.8082099999974
 20
536.9552000000001
 11
-1348.8082099999929
 21
536.9552000000001
  0
LINE
  8
_0-3_躯体と製品
  6
CONTINUOUS
 62
    2
 10
-1868.8082099999938
 20
177.95520000000101
 11
-1828.8082099999929
 21
177.95520000000101
  0
LINE
  8
_0-3_躯体と製品
  6
CONTINUOUS
 62
    2
 10
-1868.8082099999938
 20
127.95520000000101
 11
-1828.8082099999929
 21
127.95520000000101
  0
LINE
  8
_0-3_躯体と製品
  6
PLINE2
 62
    5
 10
-1860.5208699999957
 20
436.99980000000119
 11
-1964.6330499999976
 21
332.88762000000111
  0
LINE
  8
_0-3_躯体と製品
  6
PLINE2
 62
    5
 10
-1858.8082100000029
 20
368.00177999999914
 11
-1923.0436099999997
 21
303.76637999999912
  0
LINE
  8
_0-3_躯体と製品
  6
CONTINUOUS
 62
    3
 10
-1858.8082099999929
 20
209.95728000000122
 11
-2503.5049899999967
 21
661.37882000000013
  0
LINE
  8
_0-3_躯体と製品
  6
CONTINUOUS
 62
    3
 10
-1858.8082099999929
 20
258.78825999999913
 11
-2473.2978699999967
 21
689.05854000000113
  0
LINE
  8
_0-3_躯体と製品
  6
PLINE5
 62
    3
 10
-2498.9739299999974
 20
665.53078000000119
 11
-1858.8082099999929
 21
217.28192000000013
  0
LINE
  8
_0-3_躯体と製品
  6
CONTINUOUS
 62
    4
 10
-1949.1563099999939
 20
272.48722000000021
 11
-2504.0796299999965
 21
661.04872000000114
  0
LINE
  8
_0-3_躯体と製品
  6
CONTINUOUS
 62
    4
 10
-1848.8082099999929
 20
542.95520000000124
 11
-1848.8082099999929
 21
52.955200000001014
  0
LINE
  8
_0-3_躯体と製品
  6
CONTINUOUS
 62
    3
 10
-1858.8082099999929
 20
435.80058000000008
 11
-1858.8082099999929
 21
258.78825999999913
  0
LINE
  8
_0-3_躯体と製品
  6
PLINE2
 62
    5
 10
-1858.8082100000029
 20
297.29110000000014
 11
-1881.4541899999986
 21
274.64514000000008
  0
LINE
  8
_0-3_躯体と製品
  6
CONTINUOUS
 62
    3
 10
-1858.8082099999929
 20
258.78825999999913
 11
-1848.8082099999929
 21
258.78825999999913
  0
LINE
  8
_0-3_躯体と製品
  6
CONTINUOUS
 62
    4
 10
-1948.8082099999929
 20
202.95520000000101
 11
-1946.8082099999947
 21
202.95520000000101
  0
LINE
  8
_0-3_躯体と製品
  6
CONTINUOUS
 62
    4
 10
-1946.8082099999947
 20
202.95520000000101
 11
-1946.8082099999947
 21
212.95520000000101
  0
LINE
  8
_0-3_躯体と製品
  6
CONTINUOUS
 62
    4
 10
-1948.8082099999929
 20
202.95520000000101
 11
-1948.8082099999929
 21
272.97596000000112
  0
LINE
  8
_0-3_躯体と製品
  6
CONTINUOUS
 62
    3
 10
-1848.8082099999929
 20
102.95520000000101
 11
-1858.8082099999929
 21
102.95520000000101
  0
LINE
  8
_0-3_躯体と製品
  6
CONTINUOUS
 62
    2
 10
-1891.3877299999931
 20
-44.651200000000927
 11
-1897.1716900000001
 21
-25.505819999998721
  0
LINE
  8
_0-3_躯体と製品
  6
CONTINUOUS
 62
    2
 10
-1889.1860099999985
 20
-43.986040000000003
 11
-1891.3877299999931
 21
-44.651200000000927
  0
CIRCLE
  8
_0-3_躯体と製品
  6
CONTINUOUS
 62
    3
 10
-1849.3082099999947
 20
-11.045919999998887
 40
5
  0
LINE
  8
_0-3_躯体と製品
  6
CONTINUOUS
 62
    2
 10
-1889.1860099999985
 20
-43.986040000000003
 11
-1894.3048099999987
 21
-27.042379999999639
  0
LINE
  8
_0-3_躯体と製品
  6
CONTINUOUS
 62
    2
 10
-1894.3048099999987
 20
-27.042379999999639
 11
-1850.8447899999956
 21
-13.912799999999834
  0
LINE
  8
_0-3_躯体と製品
  6
CONTINUOUS
 62
    2
 10
-1897.1716900000001
 20
-25.505819999998721
 11
-1849.3082099999947
 21
-11.045919999998887
  0
LINE
  8
_0-3_躯体と製品
  6
CONTINUOUS
 62
    2
 10
-1870.2896499999997
 20
41.115180000001374
 11
-1854.0945699999938
 21
-12.491919999999709
  0
LINE
  8
_0-3_躯体と製品
  6
CONTINUOUS
 62
    3
 10
-1858.8082099999929
 20
102.95520000000101
 11
-1858.8082099999929
 21
258.78825999999913
  0
LINE
  8
_0-3_躯体と製品
  6
CONTINUOUS
 62
    5
 10
-2039.4881499999929
 20
-63.432379999998602
 11
-2018.7963499999987
 21
-42.660479999999779
  0
LINE
  8
_0-3_躯体と製品
  6
CONTINUOUS
 62
    5
 10
-2049.4119299999929
 20
-45.055499999998801
 11
-2025.3655099999969
 21
-20.91597999999999
  0
LINE
  8
_0-3_躯体と製品
  6
CONTINUOUS
 62
    5
 10
-2036.6716099999985
 20
-3.9267799999986437
 11
-2055.9810899999911
 21
-23.311019999998962
  0
LINE
  8
_0-3_躯体と製品
  6
CONTINUOUS
 62
    2
 10
-2031.0143899999957
 20
-2.217699999999013
 11
-2015.1085099999955
 21
-54.867520000000013
  0
LINE
  8
_0-3_躯体と製品
  6
CONTINUOUS
 62
    4
 10
-2088.8493899999921
 20
-22.218419999999014
 11
-2083.8057299999991
 21
-18.166339999999991
  0
LINE
  8
_0-3_躯体と製品
  6
CONTINUOUS
 62
    2
 10
-2059.7324699999945
 20
-10.893640000000005
 11
-2043.8265899999951
 21
-63.543459999998731
  0
LINE
  8
_0-3_躯体と製品
  6
CONTINUOUS
 62
    4
 10
-2083.8057299999991
 20
-18.166339999999991
 11
-1848.8082099999929
 21
52.828040000002375
  0
LINE
  8
_0-3_躯体と製品
  6
CONTINUOUS
 62
    2
 10
-1978.2942899999989
 20
318.03782000000024
 11
-2001.2373499999967
 21
285.27174000000127
  0
LINE
  8
_0-4_図面枠
  6
CONTINUOUS
 62
    2
 10
-1928.6745499999915
 20
31.227480000000241
 11
-1940.0142899999946
 21
-8.4135399999988749
  0
LINE
  8
_0-4_図面枠
  6
CONTINUOUS
 62
    2
 10
-2021.4317299999993
 20
-27.733839999998736
 11
-2032.771490000001
 21
-67.374859999999671
  0
LINE
  8
_0-4_図面枠
  6
CONTINUOUS
 62
    2
 10
-2271.2788299999966
 20
501.17868000000021
 11
-2324.451069999991
 21
409.08164000000215
  0
TEXT
  8
_0-4_図面枠
 62
    7
 10
-2426.8508899999933
 20
419.08130000000028
 40
60
 41
0.7999999999999982
 50
0
  1
外板
  0
LINE
  8
_0-3_躯体と製品
  6
CONTINUOUS
 62
    2
 10
-2546.2786099999948
 20
694.26490000000013
 11
-2511.6375899999966
 21
714.26490000000126
  0
LINE
  8
_0-3_躯体と製品
  6
CONTINUOUS
 62
    2
 10
-2474.0764099999933
 20
616.35720000000015
 11
-2451.1333499999955
 21
649.12328000000116
  0
LINE
  8
_0-3_躯体と製品
  6
CONTINUOUS
 62
    4
 10
-2500.731909999995
 20
655.42884000000026
 11
-2480.9052299999948
 21
641.54604000000108
  0
LINE
  8
_0-4_図面枠
  6
CONTINUOUS
 62
    2
 10
-2528.438489999995
 20
704.56490000000008
 11
-2538.7912299999971
 21
665.92788000000223
  0
LINE
  8
_0-4_図面枠
  6
CONTINUOUS
 62
    2
 10
-2528.438489999995
 20
704.56490000000008
 11
-2583.0295499999957
 21
610.01040000000125
  0
LINE
  8
_0-4_図面枠
  6
CONTINUOUS
 62
    2
 10
-2324.451069999991
 20
409.08164000000215
 11
-2453.4510699999964
 21
409.08164000000215
  0
LINE
  8
_0-3_躯体と製品
  6
PLINE2
 62
    5
 10
-2110.8565899999985
 20
681.63882000000126
 11
-2255.7591300000022
 21
536.73628000000008
  0
LINE
  8
_0-3_躯体と製品
  6
PLINE2
 62
    5
 10
-2110.0575100000015
 20
611.72722000000022
 11
-2214.1696899999952
 21
507.61504000000127
  0
LINE
  8
_0-3_躯体と製品
  6
PLINE2
 62
    5
 10
-2068.4680699999944
 20
582.60598000000118
 11
-2172.5802499999963
 21
478.4938000000011
  0
LINE
  8
_0-3_躯体と製品
  6
PLINE2
 62
    5
 10
-2026.8786299999965
 20
553.48474000000124
 11
-2130.9908099999984
 21
449.37255999999911
  0
LINE
  8
_0-3_躯体と製品
  6
PLINE2
 62
    5
 10
-1985.2891899999986
 20
524.3635199999992
 11
-2089.4013700000005
 21
420.25132000000008
  0
LINE
  8
_0-3_躯体と製品
  6
PLINE2
 62
    5
 10
-1943.6997499999998
 20
495.24228000000016
 11
-2047.8119299999935
 21
391.13010000000008
  0
LINE
  8
_0-3_躯体と製品
  6
PLINE2
 62
    5
 10
-1902.1103099999937
 20
466.12104000000113
 11
-2006.2224899999947
 21
362.00886000000128
  0
LINE
  8
_0-3_躯体と製品
  6
CONTINUOUS
 62
    3
 10
-1848.8082099999929
 20
663.55714000000012
 11
-1854.8082099999965
 21
663.55714000000012
  0
LINE
  8
_0-3_躯体と製品
  6
CONTINUOUS
 62
    3
 10
-1854.8082099999965
 20
663.55714000000012
 11
-1854.8082099999965
 21
688.95318000000111
  0
LINE
  8
_0-3_躯体と製品
  6
CONTINUOUS
 62
    4
 10
-1898.8082099999929
 20
529.55774000000019
 11
-1848.8082099999929
 21
542.95520000000124
  0
LINE
  8
_0-3_躯体と製品
  6
CONTINUOUS
 62
    4
 10
-2017.0171099999925
 20
715.81118000000129
 11
-2017.0171099999925
 21
700.81118000000015
  0
LINE
  8
_0-3_躯体と製品
  6
CONTINUOUS
 62
    2
 10
-2214.2100899999923
 20
483.22784000000024
 11
-2237.1531299999924
 21
450.46176000000128
  0
LINE
  8
_0-3_躯体と製品
  6
CONTINUOUS
 62
    3
 10
-2110.8565899999985
 20
612.28676000000019
 11
-1858.8082099999929
 21
435.80058000000008
  0
LINE
  8
_0-3_躯体と製品
  6
CONTINUOUS
 62
    3
 10
-1854.8082099999965
 20
688.95318000000111
 11
-2002.0171099999925
 21
728.39768000000026
  0
LINE
  8
_0-3_躯体と製品
  6
CONTINUOUS
 62
    3
 10
-1989.3310299999985
 20
731.2101200000011
 11
-1848.8082099999929
 21
693.55714000000012
  0
LINE
  8
_0-4_図面枠
  6
CONTINUOUS
 62
    2
 10
-2271.2788299999966
 20
501.17868000000021
 11
-2281.6315699999959
 21
462.54165999999918
  0
LINE
  8
_0-4_図面枠
  6
CONTINUOUS
 62
    2
 10
-1833.8516899999968
 20
338.17588000000114
 11
-1744.1186099999904
 21
182.75362000000109
  0
LINE
  8
_0-4_図面枠
  6
CONTINUOUS
 62
    2
 10
-1833.8516899999968
 20
338.17588000000114
 11
-1805.1914300000008
 21
308.53488000000016
  0
LINE
  8
_0-3_躯体と製品
  6
CONTINUOUS
 62
    2
 10
-1423.8082099999929
 20
-7.8559799999986808
 11
-1274.8082099999956
 21
-7.8559799999986808
  0
LINE
  8
_0-3_躯体と製品
  6
CONTINUOUS
 62
    2
 10
-1421.8082099999947
 20
-15.855979999998681
 11
-1354.0582099999974
 21
-15.855979999998681
  0
LINE
  8
_0-3_躯体と製品
  6
CONTINUOUS
 62
    2
 10
-1798.8082099999929
 20
62.710200000001123
 11
-1349.3082099999947
 21
198.5072800000014
  0
TEXT
  8
_0-4_図面枠
 62
    7
 10
-1744.1187899999977
 20
192.75408000000039
 40
59.999999999999986
 41
0.7999999999999973
 50
0.0000100000010064
  1
支柱
  0
ARC
  8
_0-3_躯体と製品
  6
CONTINUOUS
 62
    2
 10
-1421.8082099999947
 20
-13.855980000000955
 40
2
 50
180
 51
270
  0
LINE
  8
_0-3_躯体と製品
  6
CONTINUOUS
 62
    2
 10
-1423.8082099999929
 20
-13.855980000000955
 11
-1423.8082099999929
 21
-7.8559799999986808
  0
LINE
  8
_0-4_図面枠
  6
CONTINUOUS
 62
    2
 10
-1833.3657099999937
 20
-59.843799999998964
 11
-1822.3504699999958
 21
-53.484160000000657
  0
LINE
  8
_0-4_図面枠
  6
CONTINUOUS
 62
    2
 10
-1744.1186099999904
 20
182.75362000000109
 11
-1629.5285899999953
 21
182.75362000000109
  0
LINE
  8
_0-3_躯体と製品
  6
CONTINUOUS
 62
    2
 10
-1274.8082099999956
 20
-13.855980000000955
 11
-1274.8082099999956
 21
-7.8559799999986808
  0
ARC
  8
_0-3_躯体と製品
  6
CONTINUOUS
 62
    2
 10
-1276.8082099999947
 20
-13.855980000000955
 40
2
 50
270
 51
0
  0
ARC
  8
_0-3_躯体と製品
  6
CONTINUOUS
 62
    2
 10
-1354.0582099999974
 20
-17.855979999998681
 40
2
 50
0
 51
90
  0
ARC
  8
_0-3_躯体と製品
  6
CONTINUOUS
 62
    2
 10
-1344.5582100000011
 20
-17.855979999998681
 40
2
 50
90
 51
180
  0
LINE
  8
_0-3_躯体と製品
  6
CONTINUOUS
 62
    2
 10
-1276.8082099999947
 20
-15.855979999998681
 11
-1344.5582100000011
 21
-15.855979999998681
  0
LINE
  8
_0-3_躯体と製品
  6
CONTINUOUS
 62
    3
 10
-1813.7749099999965
 20
492.95520000000124
 11
-1348.8082099999929
 21
492.95520000000124
  0
LINE
  8
_0-3_躯体と製品
  6
CONTINUOUS
 62
    2
 10
-1823.8082099999929
 20
524.95520000000215
 11
-1823.8082099999929
 21
510.95520000000124
  0
LINE
  8
_0-3_躯体と製品
  6
CONTINUOUS
 62
    2
 10
-1830.8082100000011
 20
517.95520000000124
 11
-1816.8082099999947
 21
517.95520000000124
  0
LINE
  8
_0-3_躯体と製品
  6
CONTINUOUS
 62
    3
 10
-1858.8082099999929
 20
984.26724000000127
 11
-1834.1279299999997
 21
990.42072000000007
  0
LINE
  8
_0-3_躯体と製品
  6
CONTINUOUS
 62
    3
 10
-1848.8082099999929
 20
1032.1075200000023
 11
-1798.8082099999929
 21
1044.5739200000003
  0
LINE
  8
_0-3_躯体と製品
  6
CONTINUOUS
 62
    2
 10
-1868.8082099999938
 20
864.1227600000002
 11
-1828.8082099999929
 21
864.1227600000002
  0
LINE
  8
_0-3_躯体と製品
  6
CONTINUOUS
 62
    3
 10
-2553.8082099999974
 20
1212.9552000000012
 11
-1348.8082099999929
 21
1212.9552000000012
  0
LINE
  8
_0-3_躯体と製品
  6
CONTINUOUS
 62
    3
 10
-2110.8565899999985
 20
972.95520000000124
 11
-1348.8082099999929
 21
1162.9552000000012
  0
LINE
  8
_0-3_躯体と製品
  6
CONTINUOUS
 62
    3
 10
-2553.8082099999974
 20
1252.955200000001
 11
-1348.8082099999929
 21
1252.955200000001
  0
LINE
  8
_0-3_躯体と製品
  6
PLINE5
 62
    3
 10
-2553.8082099999974
 20
1218.9552000000001
 11
-1348.8082099999929
 21
1218.9552000000001
  0
LINE
  8
_0-3_躯体と製品
  6
CONTINUOUS
 62
    4
 10
-1348.8082099999929
 20
1163.1613200000013
 11
-2100.9049899999945
 21
975.64254000000119
  0
LINE
  8
_0-3_躯体と製品
  6
CONTINUOUS
 62
    3
 10
-2723.8082099999974
 20
1042.9552000000012
 11
-2553.8082099999974
 21
1212.9552000000012
  0
LINE
  8
_0-3_躯体と製品
  6
CONTINUOUS
 62
    3
 10
-2525.5239499999971
 20
1184.6709400000011
 11
-2673.8206699999955
 21
1036.3742200000002
  0
LINE
  8
_0-3_躯体と製品
  6
CONTINUOUS
 62
    4
 10
-2303.8082099999929
 20
1212.9552000000012
 11
-2543.8082099999974
 21
972.95520000000124
  0
LINE
  8
_0-3_躯体と製品
  6
CONTINUOUS
 62
    4
 10
-2053.808209999992
 20
1212.9552000000012
 11
-2293.8082099999938
 21
972.95520000000124
  0
LINE
  8
_0-3_躯体と製品
  6
PLINE5
 62
    3
 10
-2545.3675099999964
 20
1212.9552000000012
 11
-2716.3100899999981
 21
1041.9680600000022
  0
LINE
  8
_0-3_躯体と製品
  6
CONTINUOUS
 62
    2
 10
-2610.4767699999948
 20
1184.5709400000012
 11
-2582.1924899999976
 21
1156.2866600000011
  0
LINE
  8
_0-3_躯体と製品
  6
CONTINUOUS
 62
    4
 10
-2724.3833099999938
 20
1042.8043800000003
 11
-2554.4324899999947
 21
1212.7552000000012
  0
LINE
  8
_0-3_躯体と製品
  6
CONTINUOUS
 62
    4
 10
-2323.8082099999929
 20
972.95520000000124
 11
-2293.8082099999938
 21
972.95520000000124
  0
LINE
  8
_0-3_躯体と製品
  6
CONTINUOUS
 62
    4
 10
-2323.8082099999929
 20
973.15520000000129
 11
-2293.8082099999938
 21
973.15520000000129
  0
LINE
  8
_0-3_躯体と製品
  6
CONTINUOUS
 62
    3
 10
-2676.465489999996
 20
972.95520000000124
 11
-2110.8565899999985
 21
972.95520000000124
  0
LINE
  8
_0-3_躯体と製品
  6
PLINE5
 62
    3
 10
-2104.7173699999939
 20
922.95520000000124
 11
-2647.5979899999948
 21
922.95520000000124
  0
LINE
  8
_0-3_躯体と製品
  6
PLINE5
 62
    3
 10
-2110.8565899999985
 20
966.9552000000001
 11
-2673.0013899999949
 21
966.9552000000001
  0
LINE
  8
_0-3_躯体と製品
  6
PLINE2
 62
    5
 10
-2597.3576699999967
 20
972.95520000000124
 11
-2622.6202899999998
 21
947.69258000000013
  0
LINE
  8
_0-3_躯体と製品
  6
PLINE2
 62
    5
 10
-2526.6469900000002
 20
972.95520000000124
 11
-2596.7383899999959
 21
902.86380000000008
  0
LINE
  8
_0-3_躯体と製品
  6
PLINE2
 62
    5
 10
-2455.9363099999964
 20
972.95520000000124
 11
-2570.8564899999965
 21
858.03504000000021
  0
LINE
  8
_0-3_躯体と製品
  6
PLINE2
 62
    5
 10
-2385.2256499999976
 20
972.95520000000124
 11
-2544.9745899999971
 21
813.20625999999925
  0
LINE
  8
_0-3_躯体と製品
  6
PLINE2
 62
    5
 10
-2314.5149699999956
 20
972.95520000000124
 11
-2519.0926699999955
 21
768.37748000000215
  0
LINE
  8
_0-3_躯体と製品
  6
CONTINUOUS
 62
    4
 10
-2573.8082099999965
 20
972.95520000000124
 11
-2543.8082099999974
 21
972.95520000000124
  0
LINE
  8
_0-3_躯体と製品
  6
CONTINUOUS
 62
    4
 10
-2573.8082099999965
 20
973.15520000000129
 11
-2543.8082099999974
 21
973.15520000000129
  0
LINE
  8
_0-3_躯体と製品
  6
CONTINUOUS
 62
    2
 10
-2308.8082099999929
 20
992.95520000000124
 11
-2308.8082099999929
 21
952.95520000000124
  0
LINE
  8
_0-3_躯体と製品
  6
CONTINUOUS
 62
    2
 10
-2558.8082099999974
 20
992.95520000000124
 11
-2558.8082099999974
 21
952.95520000000124
  0
LINE
  8
_0-3_躯体と製品
  6
CONTINUOUS
 62
    2
 10
-2716.7268099999956
 20
989.4898400000011
 11
-2682.0857899999965
 21
1009.4898400000011
  0
LINE
  8
_0-3_躯体と製品
  6
CONTINUOUS
 62
    2
 10
-2651.9281099999944
 20
944.4552000000001
 11
-2639.8037499999964
 21
951.4552000000001
  0
LINE
  8
_0-3_躯体と製品
  6
CONTINUOUS
 62
    2
 10
-2649.3659299999954
 20
954.01738000000023
 11
-2642.3659299999963
 21
941.89302000000021
  0
LINE
  8
_0-3_躯体と製品
  6
CONTINUOUS
 62
    3
 10
-1848.8082099999929
 20
984.0740400000002
 11
-1842.8082099999974
 21
984.0740400000002
  0
LINE
  8
_0-3_躯体と製品
  6
CONTINUOUS
 62
    3
 10
-1848.8082099999929
 20
879.1227600000002
 11
-1854.8082099999965
 21
879.1227600000002
  0
LINE
  8
_0-3_躯体と製品
  6
CONTINUOUS
 62
    4
 10
-1863.8082099999929
 20
859.36870000000022
 11
-1863.8082099999929
 21
844.36870000000022
  0
LINE
  8
_0-3_躯体と製品
  6
CONTINUOUS
 62
    2
 10
-1937.9362099999935
 20
808.27610000000027
 11
-1912.2246899999991
 21
777.63432000000012
  0
LINE
  8
_0-3_躯体と製品
  6
CONTINUOUS
 62
    3
 10
-1854.8082099999965
 20
879.1227600000002
 11
-1854.8082099999965
 21
851.92060000000129
  0
LINE
  8
_0-3_躯体と製品
  6
CONTINUOUS
 62
    2
 10
-2038.0823899999959
 20
1011.7590600000021
 11
-2028.3945099999946
 21
972.90304000000128
  0
LINE
  8
_0-3_躯体と製品
  6
CONTINUOUS
 62
    2
 10
-2167.8565899999967
 20
947.95520000000124
 11
-2153.8565899999903
 21
947.95520000000124
  0
LINE
  8
_0-3_躯体と製品
  6
CONTINUOUS
 62
    2
 10
-2160.8565899999985
 20
954.95520000000215
 11
-2160.8565899999985
 21
940.95520000000124
  0
LINE
  8
_0-3_躯体と製品
  6
CONTINUOUS
 62
    4
 10
-2100.8565899999985
 20
975.64254000000119
 11
-2100.8565899999985
 21
960.64254000000119
  0
LINE
  8
_0-3_躯体と製品
  6
CONTINUOUS
 62
    3
 10
-1858.8082099999929
 20
984.26724000000127
 11
-2104.7173699999939
 21
922.95520000000124
  0
LINE
  8
_0-3_躯体と製品
  6
PLINE5
 62
    3
 10
-1848.7563699999964
 20
1032.1204400000013
 11
-2110.1198899999918
 21
966.9552000000001
  0
LINE
  8
_0-3_躯体と製品
  6
PLINE5
 62
    3
 10
-2445.3675099999964
 20
1212.9552000000012
 11
-2445.3675099999964
 21
1206.7552000000003
  0
LINE
  8
_0-3_躯体と製品
  6
CONTINUOUS
 62
    2
 10
-2495.3675099999964
 20
1232.9552000000012
 11
-2495.3675099999964
 21
1192.9552000000012
  0
LINE
  8
_0-3_躯体と製品
  6
CONTINUOUS
 62
    3
 10
-2553.8082099999974
 20
1252.955200000001
 11
-2553.8082099999974
 21
1212.9552000000012
  0
LINE
  8
_0-3_躯体と製品
  6
CONTINUOUS
 62
    3
 10
-2553.8082099999974
 20
1212.9552000000012
 11
-2525.5239499999971
 21
1184.6709400000011
  0
LINE
  8
_0-3_躯体と製品
  6
CONTINUOUS
 62
    3
 10
-2553.8082099999974
 20
1196.0259200000003
 11
-2543.0817299999935
 21
1206.7552000000003
  0
LINE
  8
_0-3_躯体と製品
  6
CONTINUOUS
 62
    4
 10
-2554.4324899999947
 20
1212.7552000000012
 11
-2523.8082099999974
 21
1212.7552000000012
  0
LINE
  8
_0-3_躯体と製品
  6
CONTINUOUS
 62
    3
 10
-2543.0817299999935
 20
1206.7552000000003
 11
-2445.3675099999964
 21
1206.7552000000003
  0
LINE
  8
_0-3_躯体と製品
  6
CONTINUOUS
 62
    3
 10
-2584.9209099999962
 20
1173.3572200000001
 11
-2580.6954099999939
 21
1169.1317200000001
  0
LINE
  8
_0-3_躯体と製品
  6
CONTINUOUS
 62
    3
 10
-2580.6954099999939
 20
1169.1317200000001
 11
-2569.4639899999947
 21
1180.3660600000012
  0
LINE
  8
_0-3_躯体と製品
  6
CONTINUOUS
 62
    4
 10
-2053.808209999992
 20
1212.9552000000012
 11
-2023.8082099999929
 21
1212.9552000000012
  0
LINE
  8
_0-3_躯体と製品
  6
CONTINUOUS
 62
    4
 10
-2053.808209999992
 20
1212.7552000000012
 11
-2023.8082099999929
 21
1212.7552000000012
  0
LINE
  8
_0-3_躯体と製品
  6
CONTINUOUS
 62
    2
 10
-2038.8082099999929
 20
1232.9552000000012
 11
-2038.8082099999929
 21
1192.9552000000012
  0
LINE
  8
_0-3_躯体と製品
  6
CONTINUOUS
 62
    2
 10
-2288.8082099999929
 20
1232.9552000000012
 11
-2288.8082099999929
 21
1192.9552000000012
  0
LINE
  8
_0-3_躯体と製品
  6
CONTINUOUS
 62
    4
 10
-2303.8082099999929
 20
1212.9552000000012
 11
-2273.8082099999929
 21
1212.9552000000012
  0
LINE
  8
_0-3_躯体と製品
  6
CONTINUOUS
 62
    4
 10
-2303.8082099999929
 20
1212.7552000000012
 11
-2273.8082099999929
 21
1212.7552000000012
  0
LINE
  8
_0-3_躯体と製品
  6
CONTINUOUS
 62
    3
 10
-1348.8082099999929
 20
1111.4245200000003
 11
-1811.3842299999988
 21
996.09136000000012
  0
LINE
  8
_0-3_躯体と製品
  6
PLINE5
 62
    3
 10
-1348.8082099999929
 20
1156.7715200000002
 11
-1798.66579
 21
1044.6094400000022
  0
LINE
  8
_0-3_躯体と製品
  6
CONTINUOUS
 62
    2
 10
-1567.1117099999947
 20
1129.1383000000001
 11
-1557.4348499999951
 21
1090.3264800000011
  0
LINE
  8
_0-3_躯体と製品
  6
CONTINUOUS
 62
    2
 10
-1823.8082099999929
 20
1025.7590600000001
 11
-1823.8082099999929
 21
1011.7590600000021
  0
LINE
  8
_0-3_躯体と製品
  6
CONTINUOUS
 62
    2
 10
-1830.8082100000011
 20
1018.7590600000001
 11
-1816.8082099999947
 21
1018.7590600000001
  0
LINE
  8
_0-3_躯体と製品
  6
CONTINUOUS
 62
    2
 10
-979.97656999999344
 20
1038.0154999999993
 11
-966.39242999999169
 21
1034.6286000000011
  0
LINE
  8
_0-3_躯体と製品
  6
CONTINUOUS
 62
    2
 10
-971.49104999999963
 20
1043.1141200000002
 11
-974.87794999999551
 21
1029.5299800000003
  0
LINE
  8
_0-3_躯体と製品
  6
CONTINUOUS
 62
    2
 10
-1170.1545299999943
 20
1085.4322000000002
 11
-1156.5703899999926
 21
1082.0453000000002
  0
LINE
  8
_0-3_躯体と製品
  6
CONTINUOUS
 62
    2
 10
-1161.6690099999914
 20
1090.5308200000011
 11
-1165.0559099999964
 21
1076.9466800000012
  0
LINE
  8
_0-3_躯体と製品
  6
CONTINUOUS
 62
    2
 10
-1348.8082099999929
 20
1136.4245200000003
 11
-1341.8082099999947
 21
1136.4245200000003
  0
LINE
  8
_0-3_躯体と製品
  6
CONTINUOUS
 62
    2
 10
2369.4587700000047
 20
-24.240959999999859
 11
2369.4587700000047
 21
-308.00133999999775
  0
LINE
  8
_0-3_躯体と製品
  6
CONTINUOUS
 62
    2
 10
2506.3511500000059
 20
-24.798119999999699
 11
2506.3511500000059
 21
-308.00133999999775
  0
LINE
  8
_0-3_躯体と製品
  6
CONTINUOUS
 62
    2
 10
2633.3356699999986
 20
-24.581860000000916
 11
2633.3356699999986
 21
-308.00133999999775
  0
LINE
  8
_0-3_躯体と製品
  6
CONTINUOUS
 62
    2
 10
2759.7399299999997
 20
-24.773079999999709
 11
2759.7399299999997
 21
-308.00133999999775
  0
LINE
  8
_0-3_躯体と製品
  6
CONTINUOUS
 62
    2
 10
2112.6381100000017
 20
-23.865799999998899
 11
2112.6381100000017
 21
-308.00133999999775
  0
LINE
  8
_0-3_躯体と製品
  6
CONTINUOUS
 62
    2
 10
2240.3854100000026
 20
-24.190339999999878
 11
2240.3854100000026
 21
-308.00133999999775
  0
LINE
  8
_0-3_躯体と製品
  6
CONTINUOUS
 62
    2
 10
2707.7302700000055
 20
-294.68017999999961
 11
2707.7302700000055
 21
1278.9983000000002
  0
LINE
  8
_0-3_躯体と製品
  6
CONTINUOUS
 62
    2
 10
2687.7302700000091
 20
1279.3251000000007
 11
2687.7302700000091
 21
-294.35335999999984
  0
LINE
  8
_0-3_躯体と製品
  6
PLINE3
 62
    2
 10
1634.1068500000001
 20
1162.9552000000012
 11
1634.1068500000001
 21
-295.57771999999864
  0
LINE
  8
_0-3_躯体と製品
  6
CONTINUOUS
 62
    3
 10
1659.1068500000019
 20
537.00587999999925
 11
1659.1068500000019
 21
-104.96891999999866
  0
LINE
  8
_0-3_躯体と製品
  6
CONTINUOUS
 62
    3
 10
1250.7302700000091
 20
536.9552000000001
 11
1250.7302700000091
 21
-104.96891999999866
  0
LINE
  8
_0-3_躯体と製品
  6
CONTINUOUS
 62
    3
 10
1200.7302700000082
 20
1044.6791800000012
 11
1200.7302700000082
 21
-104.96891999999866
  0
LINE
  8
_0-3_躯体と製品
  6
CONTINUOUS
 62
    3
 10
1206.7302700000037
 20
922.95520000000124
 11
1206.7302700000037
 21
-104.96891999999866
  0
LINE
  8
_0-3_躯体と製品
  6
CONTINUOUS
 62
    3
 10
1609.1068500000019
 20
1044.7298600000001
 11
1609.1068500000019
 21
-104.96891999999866
  0
LINE
  8
_0-3_躯体と製品
  6
CONTINUOUS
 62
    3
 10
1615.1068500000056
 20
923.00588000000107
 11
1615.1068500000056
 21
-104.96891999999866
  0
LINE
  8
_0-3_躯体と製品
  6
PLINE3
 62
    2
 10
2474.1068500000038
 20
1212.4589200000012
 11
2474.1068500000038
 21
-295.57771999999864
  0
LINE
  8
_0-3_躯体と製品
  6
CONTINUOUS
 62
    2
 10
2041.6068500000019
 20
1252.955200000001
 11
2041.6068500000019
 21
-295.57771999999864
  0
LINE
  8
_0-3_躯体と製品
  6
CONTINUOUS
 62
    2
 10
2066.6068500000019
 20
1252.955200000001
 11
2066.6068500000019
 21
-295.57771999999864
  0
LINE
  8
_0-3_躯体と製品
  6
CONTINUOUS
 62
    2
 10
1371.0924700000069
 20
-295.57771999999864
 11
1371.0924700000069
 21
1278.1007599999994
  0
LINE
  8
_0-3_躯体と製品
  6
CONTINUOUS
 62
    2
 10
1391.0924700000069
 20
-295.57771999999864
 11
1391.0924700000069
 21
1278.1007599999994
  0
LINE
  8
_0-3_躯体と製品
  6
PLINE3
 62
    2
 10
1225.7302700000091
 20
-295.57771999999864
 11
1225.7302700000091
 21
1212.9552000000012
  0
LINE
  8
_0-3_躯体と製品
  6
PLINE2
 62
    3
 10
-855.30820999999833
 20
-9.2332799999987856
 11
-884.22798999999577
 21
-104.96022000000062
  0
LINE
  8
_0-3_躯体と製品
  6
CONTINUOUS
 62
    2
 10
-847.77164999999968
 20
-13.912799999999834
 11
-875.36112999999659
 21
-105.23629999999889
  0
LINE
  8
_0-3_躯体と製品
  6
CONTINUOUS
 62
    2
 10
-849.30820999999469
 20
-11.045919999998887
 11
-878.22798999999213
 21
-106.7728599999989
  0
LINE
  8
_0-3_躯体と製品
  6
CONTINUOUS
 62
    2
 10
-801.44474999999602
 20
-25.505819999998721
 11
-352.45910999999614
 21
-161.1474999999989
  0
LINE
  8
_0-3_躯体と製品
  6
CONTINUOUS
 62
    2
 10
-828.32678999999644
 20
41.115180000001374
 11
-336.26402999999755
 21
-107.54042000000004
  0
LINE
  8
_0-3_躯体と製品
  6
CONTINUOUS
 62
    2
 10
-842.786689999999
 20
-6.7482999999986077
 11
-350.7239299999992
 21
-155.40387999999871
  0
LINE
  8
_0-4_図面枠
  6
CONTINUOUS
 62
    2
 10
1559.1938100000007
 20
-67.413559999999734
 11
1547.8540499999999
 21
-107.0545599999989
  0
LINE
  8
_0-4_図面枠
  6
CONTINUOUS
 62
    2
 10
878.2264300000088
 20
204.77294000000006
 11
638.90781000000607
 21
-209.7390799999996
  0
LINE
  8
_0-4_図面枠
  6
CONTINUOUS
 62
    2
 10
998.09583000000657
 20
173.71358000000123
 11
672.96698999999899
 21
-389.42610000000082
  0
LINE
  8
_0-4_図面枠
  6
CONTINUOUS
 62
    2
 10
1559.1938100000007
 20
-67.413559999999734
 11
1096.8839500000058
 21
-868.15771999999902
  0
LINE
  8
_0-4_図面枠
  6
CONTINUOUS
 62
    2
 10
1660.2178900000072
 20
-65.867739999999003
 11
1675.2094700000034
 21
-63.599839999998721
  0
LINE
  8
_0-4_図面枠
  6
CONTINUOUS
 62
    2
 10
1675.2094700000034
 20
-63.599839999998721
 11
1686.8260500000015
 21
-64.68513999999891
  0
LINE
  8
_0-4_図面枠
  6
CONTINUOUS
 62
    2
 10
1686.8260500000015
 20
-64.68513999999891
 11
1692.7893100000001
 21
-89.858759999998938
  0
LINE
  8
_0-4_図面枠
  6
CONTINUOUS
 62
    2
 10
1692.7893100000001
 20
-89.858759999998938
 11
1679.139250000002
 21
-129.136040000001
  0
LINE
  8
_0-4_図面枠
  6
CONTINUOUS
 62
    2
 10
1679.139250000002
 20
-129.136040000001
 11
1662.6533099999997
 21
-161.08121999999889
  0
LINE
  8
_0-4_図面枠
  6
CONTINUOUS
 62
    2
 10
1662.6533099999997
 20
-161.08121999999889
 11
1656.0788300000004
 21
-190.03917999999862
  0
LINE
  8
_0-4_図面枠
  6
CONTINUOUS
 62
    2
 10
1656.0788300000004
 20
-190.03917999999862
 11
1662.75317
 21
-214.07637999999884
  0
LINE
  8
_0-4_図面枠
  6
CONTINUOUS
 62
    2
 10
1662.75317
 20
-214.07637999999884
 11
1678.5479500000056
 21
-232.0209599999996
  0
LINE
  8
_0-4_図面枠
  6
CONTINUOUS
 62
    2
 10
1678.5479500000056
 20
-232.0209599999996
 11
1697.6328700000031
 21
-236.1372400000007
  0
LINE
  8
_0-4_図面枠
  6
CONTINUOUS
 62
    2
 10
1697.6328700000031
 20
-236.1372400000007
 11
1719.3471500000069
 21
-233.79483999999889
  0
TEXT
  8
_0-4_図面枠
 62
    7
 10
940.08387000000948
 20
-858.15780736676516
 40
60.000000000000234
 41
0.799999999999997
 50
0.0000100000010968
  1
添母屋
  0
TEXT
  8
_0-4_図面枠
 62
    7
 10
901.39895000000706
 20
-1583.6808399999998
 40
60
 41
0.8
 50
0
  1
２４８０
  0
TEXT
  8
_0-4_図面枠
 62
    7
 10
892.67579000000751
 20
-1430.7842799999996
 40
60
 41
0.8
 50
0
  1
２０６０
  0
LINE
  8
_0-4_図面枠
  6
CONTINUOUS
 62
    2
 10
1096.8839500000058
 20
-868.15771999999902
 11
927.4758300000085
 21
-868.15771999999902
  0
TEXT
  8
_0-4_図面枠
 62
    7
 10
-849.79184999999688
 20
-1589.8991000000001
 40
60
 41
0.8000000000000002
 50
0
  1
ＳＣ　９００
  0
TEXT
  8
_0-4_図面枠
 62
    7
 10
-854.83640999999352
 20
-1431.83896
 40
60
 41
0.8000000000000002
 50
0
  1
ＳＣ　７５０
  0
TEXT
  8
_0-4_図面枠
 62
    7
 10
-429.4567699999925
 20
-1434.079099999999
 40
60
 41
0.8000000000000003
 50
0
  1
ＨＬ
  0
TEXT
  8
_0-4_図面枠
 62
    7
 10
-429.4567699999925
 20
-1584.0792599999988
 40
60
 41
0.8000000000000003
 50
0
  1
ＨＬ
  0
TEXT
  8
_0-4_図面枠
 62
    7
 10
-234.65146999999615
 20
-1568.8306799999989
 40
60
 41
0.8
 50
0
  1
　９００
  0
TEXT
  8
_0-4_図面枠
 62
    7
 10
-243.89950999999655
 20
-1715.12066
 40
60
 41
0.8000000000000002
 50
0
  1
１０００
  0
TEXT
  8
_0-4_図面枠
 62
    7
 10
-227.9253899999967
 20
-1425.9039000000009
 40
60
 41
0.8
 50
0
  1
　７５０
  0
TEXT
  8
_0-4_図面枠
 62
    7
 10
-828.07858999999189
 20
-1274.0043999999989
 40
60
 41
0.8
 50
0
  1
型　　式
  0
TEXT
  8
_0-4_図面枠
 62
    7
 10
-146.95554999999786
 20
-1265.0761799999989
 40
60
 41
0.8000000000000006
 50
0
  1
Ａ
  0
TEXT
  8
_0-4_図面枠
 62
    7
 10
161.28175000000192
 20
-1714.7129599999987
 40
60
 41
0.8000000000000002
 50
0
  1
１０１０
  0
TEXT
  8
_0-4_図面枠
 62
    7
 10
156.5991300000087
 20
-1576.8658200000007
 40
60
 41
0.8000000000000001
 50
0
  1
　９２０
  0
TEXT
  8
_0-4_図面枠
 62
    7
 10
154.06679000000258
 20
-1429.8208399999999
 40
60
 41
0.8000000000000001
 50
0
  1
　７７０
  0
TEXT
  8
_0-4_図面枠
 62
    7
 10
472.85585000000083
 20
-1566.4808399999993
 40
60
 41
0.8000000000000001
 50
0
  1
　１５０
  0
TEXT
  8
_0-4_図面枠
 62
    7
 10
472.85585000000083
 20
-1716.4808399999993
 40
60
 41
0.8000000000000001
 50
0
  1
　１５０
  0
TEXT
  8
_0-4_図面枠
 62
    7
 10
472.85585000000083
 20
-1416.4806799999999
 40
60
 41
0.8000000000000001
 50
0
  1
　１５０
  0
TEXT
  8
_0-4_図面枠
 62
    7
 10
254.13759000000482
 20
-1269.8695799999998
 40
60
 41
0.8
 50
0
  1
Ｉ
  0
TEXT
  8
_0-4_図面枠
 62
    7
 10
598.30323000000499
 20
-1261.8799199999989
 40
60
 41
0.8000000000000003
 50
0
  1
Ｊ
  0
LINE
  8
_0-3_躯体と製品
  6
CONTINUOUS
 62
    2
 10
-826.78228999999646
 20
-101.42219999999975
 11
-824.58056999999371
 21
-102.08735999999794
  0
LINE
  8
_0-3_躯体と製品
  6
CONTINUOUS
 62
    2
 10
-831.90108999999666
 20
-118.3658799999987
 11
-826.78228999999646
 21
-101.42219999999975
  0
LINE
  8
_0-3_躯体と製品
  6
CONTINUOUS
 62
    2
 10
-830.36452999999256
 20
-121.23273999999969
 11
-824.58056999999371
 21
-102.08735999999794
  0
LINE
  8
_0-3_躯体と製品
  6
CONTINUOUS
 62
    2
 10
-878.22798999999213
 20
-106.7728599999989
 11
-830.36452999999256
 21
-121.23273999999969
  0
LINE
  8
_0-3_躯体と製品
  6
CONTINUOUS
 62
    2
 10
-875.36112999999659
 20
-105.23629999999889
 11
-831.90108999999666
 21
-118.3658799999987
  0
TEXT
  8
_0-4_図面枠
 62
    7
 10
478.90809000000263
 20
-199.73952792526887
 40
60.000000000000007
 41
0.8
 50
0.0000100000010064
  1
水切板
  0
TEXT
  8
_0-4_図面枠
 62
    7
 10
340.16725000001134
 20
-379.42705808456151
 40
60.000000000000007
 41
0.8
 50
0.0000100000009838
  1
スレート大波
  0
LINE
  8
_0-4_図面枠
  6
CONTINUOUS
 62
    2
 10
638.90781000000607
 20
-209.7390799999996
 11
458.30781000000115
 21
-209.7390799999996
  0
LINE
  8
_0-4_図面枠
  6
CONTINUOUS
 62
    2
 10
672.96698999999899
 20
-389.42610000000082
 11
350.55403000000751
 21
-389.42610000000082
  0
TEXT
  8
_0-4_図面枠
 62
    7
 10
1256.8127700000023
 20
-1436.2656799999991
 40
60
 41
0.7999999999999999
 50
0
  1
０．６
  0
TEXT
  8
_0-4_図面枠
 62
    7
 10
1256.8127700000023
 20
-1586.2656799999991
 40
60
 41
0.7999999999999999
 50
0
  1
０．６
  0
TEXT
  8
_0-4_図面枠
 62
    7
 10
1252.3828300000005
 20
-1270.6689999999996
 40
60
 41
0.7999999999999996
 50
0
  1
板厚
  0
TEXT
  8
_0-4_図面枠
 62
    7
 10
998.30323000000499
 20
-1261.8799199999989
 40
60
 41
0.7999999999999993
 50
0
  1
Ｅ
  0
TEXT
  8
_0-4_図面枠
 62
    7
 10
1730.5813700000035
 20
-248.57769999999869
 40
60
 41
0.7999999999999993
 50
0
  1
現場溶接
  0
LINE
  8
_0-3_躯体と製品
  6
PLINE5
 62
    2
 10
1659.1068500000019
 20
-84.968919999998661
 11
2041.6068500000019
 21
-84.968919999998661
  0
LINE
  8
_0-3_躯体と製品
  6
PLINE5
 62
    2
 10
1659.1068500000019
 20
-101.31659999999988
 11
2041.6068500000019
 21
-101.31659999999988
  0
LINE
  8
_0-3_躯体と製品
  6
CONTINUOUS
 62
    2
 10
2041.6068500000019
 20
-121.12713999999892
 11
1391.0924700000069
 21
-121.12713999999892
  0
LINE
  8
_0-3_躯体と製品
  6
CONTINUOUS
 62
    2
 10
2041.6068500000019
 20
-104.96891999999866
 11
1391.0924700000069
 21
-104.96891999999866
  0
INSERT
  2
-008-_D11
  8
_0-2_寸法
 10
-6857.3020051132607
 20
2262.2758609788434
 41
10
 42
10
 50
0
  0
LINE
  8
_0-3_躯体と製品
  6
PLINE5
 62
    2
 10
1391.0924700000069
 20
-84.968919999998661
 11
1609.1068500000019
 21
-84.968919999998661
  0
LINE
  8
_0-3_躯体と製品
  6
PLINE5
 62
    2
 10
1609.1068500000019
 20
-101.31659999999988
 11
1391.0924700000069
 21
-101.31659999999988
  0
LINE
  8
_0-3_躯体と製品
  6
PLINE5
 62
    2
 10
1250.7302700000091
 20
-84.968919999998661
 11
1371.0924700000069
 21
-84.968919999998661
  0
LINE
  8
_0-3_躯体と製品
  6
PLINE5
 62
    2
 10
1135.7302700000082
 20
-84.968919999998661
 11
1200.7302700000082
 21
-84.968919999998661
  0
LINE
  8
_0-3_躯体と製品
  6
PLINE5
 62
    2
 10
1371.0924700000069
 20
-101.31659999999988
 11
1250.7302700000091
 21
-101.31659999999988
  0
LINE
  8
_0-3_躯体と製品
  6
PLINE5
 62
    2
 10
1200.7302700000082
 20
-101.31659999999988
 11
1135.7302700000082
 21
-101.31659999999988
  0
LINE
  8
_0-3_躯体と製品
  6
CONTINUOUS
 62
    2
 10
1371.0924700000069
 20
-121.12713999999892
 11
1135.7302700000082
 21
-121.12713999999892
  0
LINE
  8
_0-3_躯体と製品
  6
CONTINUOUS
 62
    2
 10
1371.0924700000069
 20
-104.96891999999866
 11
1135.7302700000082
 21
-104.96891999999866
  0
INSERT
  2
-009-_D12
  8
_0-2_寸法
 10
-6857.3020051132607
 20
2262.2758609788434
 41
10
 42
10
 50
0
  0
TEXT
  8
_0-4_図面枠
 62
    7
 10
890.09087000000636
 20
823.56768000000125
 40
60
 41
0.8
 50
0
  1
妻板
  0
TEXT
  8
_0-4_図面枠
 62
    7
 10
776.44869000000108
 20
1181.2288199999991
 40
60
 41
0.8
 50
0
  1
妻板補強
  0
ARC
  8
_0-3_躯体と製品
  6
CONTINUOUS
 62
    3
 10
965.97445000000789
 20
162.97720000000004
 40
34.610720000000001
 50
24.692923000003631
 51
155.48782100000352
  0
ARC
  8
_0-3_躯体と製品
  6
CONTINUOUS
 62
    3
 10
965.97445000000789
 20
162.97720000000004
 40
28.610720000000001
 50
24.692923000003631
 51
155.48782100000352
  0
LINE
  8
_0-3_躯体と製品
  6
CONTINUOUS
 62
    4
 10
790.7302700000082
 20
203.26052000000141
 11
1040.7302700000082
 21
203.26052000000141
  0
LINE
  8
_0-4_図面枠
  6
CONTINUOUS
 62
    2
 10
992.49035000000367
 20
813.56782000000112
 11
863.49035000000731
 21
813.56782000000112
  0
LINE
  8
_0-4_図面枠
  6
CONTINUOUS
 62
    2
 10
961.63409000000138
 20
1168.4970000000001
 11
755.69107000000622
 21
1168.4970000000001
  0
LINE
  8
_0-3_躯体と製品
  6
CONTINUOUS
 62
    3
 10
57.434010000002672
 20
1047.0683200000012
 11
-175.2319899999975
 21
644.07898000000114
  0
TEXT
  8
_0-4_図面枠
 62
    7
 10
-349.25626999999167
 20
322.46630000000118
 40
60
 41
0.8000000000000003
 50
0
  1
妻板
  0
LINE
  8
_0-3_躯体と製品
  6
CONTINUOUS
 62
    3
 10
-175.2319899999975
 20
644.07898000000114
 11
-723.80820999999287
 21
259.96178000000123
  0
LINE
  8
_0-4_図面枠
  6
CONTINUOUS
 62
    2
 10
-459.29588999999851
 20
503.06094000000007
 11
-349.25612999999885
 21
312.46650000000022
  0
LINE
  8
_0-3_躯体と製品
  6
CONTINUOUS
 62
    5
 10
-649.20450999999503
 20
-45.055499999998801
 11
-673.25092999999833
 21
-20.91597999999999
  0
LINE
  8
_0-3_躯体と製品
  6
CONTINUOUS
 62
    5
 10
-661.94482999999764
 20
-3.9267799999986437
 11
-642.63534999999592
 21
-23.311019999998962
  0
LINE
  8
_0-3_躯体と製品
  6
CONTINUOUS
 62
    4
 10
-609.76702999999907
 20
-22.218419999999014
 11
-614.81070999999702
 21
-18.166339999999991
  0
LINE
  8
_0-3_躯体と製品
  6
PLINE2
 62
    2
 10
-638.88396999999259
 20
-10.893640000000005
 11
-654.78984999999284
 21
-63.543459999998731
  0
LINE
  8
_0-3_躯体と製品
  6
CONTINUOUS
 62
    5
 10
-659.1282899999951
 20
-63.432379999998602
 11
-679.82008999999834
 21
-42.660479999999779
  0
LINE
  8
_0-3_躯体と製品
  6
PLINE2
 62
    2
 10
-667.60204999999132
 20
-2.217699999999013
 11
-683.50792999999157
 21
-54.867520000000013
  0
LINE
  8
_0-3_躯体と製品
  6
CONTINUOUS
 62
    3
 10
-723.80820999999287
 20
259.96178000000123
 11
-723.80820999999287
 21
-41.619159999999965
  0
LINE
  8
_0-3_躯体と製品
  6
CONTINUOUS
 62
    2
 10
-809.43042999999761
 20
-43.986040000000003
 11
-807.22870999999486
 21
-44.651200000000927
  0
LINE
  8
_0-3_躯体と製品
  6
CONTINUOUS
 62
    2
 10
-809.43042999999761
 20
-43.986040000000003
 11
-804.31162999999651
 21
-27.042379999999639
  0
LINE
  8
_0-3_躯体と製品
  6
CONTINUOUS
 62
    2
 10
-807.22870999999486
 20
-44.651200000000927
 11
-801.44474999999602
 21
-25.505819999998721
  0
CIRCLE
  8
_0-3_躯体と製品
  6
CONTINUOUS
 62
    3
 10
-849.64132999999947
 20
-10.945299999997815
 40
5
  0
LINE
  8
_0-3_躯体と製品
  6
CONTINUOUS
 62
    2
 10
-804.31162999999651
 20
-27.042379999999639
 11
-847.77164999999968
 21
-13.912799999999834
  0
LINE
  8
_0-3_躯体と製品
  6
CONTINUOUS
 62
    2
 10
-801.44474999999602
 20
-25.505819999998721
 11
-849.30820999999469
 21
-11.045919999998887
  0
LINE
  8
_0-3_躯体と製品
  6
PLINE2
 62
    2
 10
-828.32678999999644
 20
41.115180000001374
 11
-844.52186999999412
 21
-12.491919999999709
  0
LINE
  8
_0-3_躯体と製品
  6
PLINE2
 62
    3
 10
-854.80820999999651
 20
202.95520000000101
 11
-854.80820999999651
 21
-3.1164999999989504
  0
LINE
  8
_0-3_躯体と製品
  6
PLINE2
 62
    3
 10
-848.80820999999287
 20
202.95520000000101
 11
-848.80820999999287
 21
-4.929139999998597
  0
LINE
  8
_0-3_躯体と製品
  6
PLINE2
 62
    3
 10
-898.80820999999287
 20
202.95520000000101
 11
-898.80820999999287
 21
10.176200000001018
  0
LINE
  8
_0-4_図面枠
  6
CONTINUOUS
 62
    2
 10
-349.25612999999885
 20
312.46650000000022
 11
-212.36468999999852
 21
312.46650000000022
  0
LINE
  8
_0-4_図面枠
  6
CONTINUOUS
 62
    2
 10
-459.29588999999851
 20
503.06094000000007
 11
-431.01162999999906
 21
474.77670000000012
  0
LINE
  8
_0-3_躯体と製品
  6
CONTINUOUS
 62
    4
 10
800.73027000000911
 20
201.26052000000141
 11
790.7302700000082
 21
201.26052000000141
  0
LINE
  8
_0-3_躯体と製品
  6
CONTINUOUS
 62
    4
 10
790.7302700000082
 20
201.26052000000141
 11
790.7302700000082
 21
203.26052000000141
  0
ARC
  8
_0-3_躯体と製品
  6
CONTINUOUS
 62
    3
 10
836.01519000000189
 20
162.97720000000004
 40
34.610720000000001
 50
24.692923000003631
 51
155.48782100000352
  0
ARC
  8
_0-3_躯体と製品
  6
CONTINUOUS
 62
    3
 10
836.01519000000189
 20
162.97720000000004
 40
28.610720000000001
 50
24.692923000003631
 51
155.48782100000352
  0
ARC
  8
_0-3_躯体と製品
  6
CONTINUOUS
 62
    3
 10
901.48243000000093
 20
191.52872000000139
 40
36.131099999999989
 50
203.12831999999824
 51
336.70039199999871
  0
ARC
  8
_0-3_躯体と製品
  6
CONTINUOUS
 62
    3
 10
901.48243000000093
 20
191.52872000000139
 40
42.131099999999989
 50
203.12831999999824
 51
336.70039199999871
  0
ARC
  8
_0-3_躯体と製品
  6
CONTINUOUS
 62
    3
 10
705.97445000000789
 20
163.4212200000004
 40
34.610720000000001
 50
24.692923000003631
 51
155.48782100000352
  0
ARC
  8
_0-3_躯体と製品
  6
CONTINUOUS
 62
    3
 10
705.97445000000789
 20
163.4212200000004
 40
28.610720000000001
 50
24.692923000003631
 51
155.48782100000352
  0
ARC
  8
_0-3_躯体と製品
  6
CONTINUOUS
 62
    3
 10
771.44169000000693
 20
191.97274000000129
 40
36.131099999999989
 50
203.12831999999824
 51
336.70039199999871
  0
ARC
  8
_0-3_躯体と製品
  6
CONTINUOUS
 62
    3
 10
771.44169000000693
 20
191.97274000000129
 40
42.131099999999989
 50
203.12831999999824
 51
336.70039199999871
  0
LINE
  8
_0-4_図面枠
  6
CONTINUOUS
 62
    2
 10
878.2264300000088
 20
204.77294000000006
 11
866.88669000000664
 21
165.1319200000014
  0
LINE
  8
_0-3_躯体と製品
  6
CONTINUOUS
 62
    3
 10
-108.45288999999502
 20
1212.9552000000012
 11
57.434010000002672
 21
1047.0683200000012
  0
TEXT
  8
_0-4_図面枠
 62
    7
 10
-628.05966999999782
 20
785.65356000000111
 40
60
 41
0.8
 50
0
  1
妻板補強
  0
LINE
  8
_0-3_躯体と製品
  6
PLINE5
 62
    3
 10
-587.49654999999166
 20
966.9552000000001
 11
-40.283569999997781
 21
966.9552000000001
  0
LINE
  8
_0-3_躯体と製品
  6
PLINE5
 62
    3
 10
-592.89906999999857
 20
922.95520000000124
 11
-50.018449999994118
 21
922.95520000000124
  0
LINE
  8
_0-3_躯体と製品
  6
PLINE5
 62
    3
 10
-21.150949999996556
 20
972.95520000000124
 11
-586.75984999999491
 21
972.95520000000124
  0
LINE
  8
_0-4_図面枠
  6
CONTINUOUS
 62
    2
 10
-628.05918999999903
 20
775.65372000000025
 11
-421.21602999999141
 21
775.65372000000025
  0
LINE
  8
_0-3_躯体と製品
  6
CONTINUOUS
 62
    2
 10
-558.62828999999147
 20
947.95520000000124
 11
-544.62828999999601
 21
947.95520000000124
  0
LINE
  8
_0-3_躯体と製品
  6
CONTINUOUS
 62
    2
 10
-551.6282899999951
 20
954.95520000000215
 11
-551.6282899999951
 21
940.95520000000124
  0
LINE
  8
_0-3_躯体と製品
  6
CONTINUOUS
 62
    2
 10
-789.79860999999346
 20
990.59882000000016
 11
-776.21446999999989
 21
987.21192000000019
  0
LINE
  8
_0-3_躯体と製品
  6
CONTINUOUS
 62
    2
 10
-781.31308999999874
 20
995.69744000000128
 11
-784.69998999999461
 21
982.11330000000112
  0
LINE
  8
_0-4_図面枠
  6
CONTINUOUS
 62
    2
 10
-741.47086999999919
 20
972.08854000000019
 11
-713.1866299999956
 21
943.8042999999991
  0
LINE
  8
_0-4_図面枠
  6
CONTINUOUS
 62
    2
 10
-741.47086999999919
 20
972.08854000000019
 11
-628.05918999999903
 21
775.65372000000025
  0
LINE
  8
_0-3_躯体と製品
  6
CONTINUOUS
 62
    2
 10
-54.241809999998623
 20
1134.7025000000012
 11
-44.34230999999636
 21
1124.8029999999992
  0
LINE
  8
_0-3_躯体と製品
  6
CONTINUOUS
 62
    2
 10
-54.241809999998623
 20
1124.8029999999992
 11
-44.34230999999636
 21
1134.7025000000012
  0
LINE
  8
_0-3_躯体と製品
  6
CONTINUOUS
 62
    2
 10
-0.1335499999959211
 20
1080.5942400000001
 11
9.7659500000063417
 21
1070.6947400000013
  0
LINE
  8
_0-3_躯体と製品
  6
CONTINUOUS
 62
    2
 10
-0.1335499999959211
 20
1070.6947400000013
 11
9.7659500000063417
 21
1080.5942400000001
  0
LINE
  8
_0-3_躯体と製品
  6
CONTINUOUS
 62
    2
 10
-143.80820999999196
 20
954.95520000000215
 11
-143.80820999999196
 21
940.95520000000124
  0
LINE
  8
_0-3_躯体と製品
  6
CONTINUOUS
 62
    2
 10
-345.80821000000105
 20
954.95520000000215
 11
-345.80821000000105
 21
940.95520000000124
  0
LINE
  8
_0-3_躯体と製品
  6
CONTINUOUS
 62
    2
 10
-352.80820999999833
 20
947.95520000000124
 11
-338.80820999999287
 21
947.95520000000124
  0
LINE
  8
_0-3_躯体と製品
  6
CONTINUOUS
 62
    2
 10
-150.80821000000105
 20
947.95520000000124
 11
-136.80820999999378
 21
947.95520000000124
  0
LINE
  8
_0-3_躯体と製品
  6
CONTINUOUS
 62
    3
 10
-143.80820999999196
 20
1252.955200000001
 11
-143.80820999999196
 21
1212.9552000000012
  0
LINE
  8
_0-3_躯体と製品
  6
CONTINUOUS
 62
    3
 10
-143.80820999999196
 20
1212.9552000000012
 11
-108.45288999999502
 21
1212.9552000000012
  0
LINE
  8
_0-3_躯体と製品
  6
CONTINUOUS
 62
    2
 10
-108.35006999999314
 20
1188.8107599999992
 11
-98.450569999990876
 21
1178.9112600000001
  0
LINE
  8
_0-3_躯体と製品
  6
CONTINUOUS
 62
    2
 10
-108.35006999999314
 20
1178.9112600000001
 11
-98.450569999990876
 21
1188.8107599999992
  0
LINE
  8
_0-3_躯体と製品
  6
CONTINUOUS
 62
    3
 10
1250.7302700000091
 20
984.0740400000002
 11
1250.7302700000091
 21
542.95520000000124
  0
LINE
  8
_0-3_躯体と製品
  6
CONTINUOUS
 62
    3
 10
1659.1068500000019
 20
984.12472000000207
 11
1659.1068500000019
 21
543.00588000000107
  0
LINE
  8
_0-3_躯体と製品
  6
CONTINUOUS
 62
    4
 10
1035.7302700000082
 20
923.00588000000107
 11
1035.7302700000082
 21
203.26052000000141
  0
LINE
  8
_0-4_図面枠
  6
CONTINUOUS
 62
    2
 10
1034.410810000003
 20
740.95946000000208
 11
992.49035000000367
 21
813.56782000000112
  0
LINE
  8
_0-4_図面枠
  6
CONTINUOUS
 62
    2
 10
1034.410810000003
 20
740.95946000000208
 11
1006.1265500000045
 21
769.24370000000022
  0
LINE
  8
_0-3_躯体と製品
  6
CONTINUOUS
 62
    3
 10
1659.1068500000019
 20
715.64406000000213
 11
2041.6068500000019
 21
715.64406000000213
  0
LINE
  8
_0-3_躯体と製品
  6
CONTINUOUS
 62
    3
 10
1659.1068500000019
 20
700.81118000000015
 11
2041.6068500000019
 21
700.81118000000015
  0
LINE
  8
_0-3_躯体と製品
  6
CONTINUOUS
 62
    3
 10
1665.1068500000056
 20
542.95520000000124
 11
2041.6068500000019
 21
542.95520000000124
  0
ARC
  8
_0-3_躯体と製品
  6
CONTINUOUS
 62
    3
 10
1851.6476100000036
 20
6.2581800000000385
 40
34.610720000000001
 50
24.692923000003631
 51
91.6724030000006
  0
ARC
  8
_0-3_躯体と製品
  6
CONTINUOUS
 62
    3
 10
1917.1148300000041
 20
34.809720000001334
 40
42.131099999999989
 50
203.12831999999824
 51
318.23384300000089
  0
ARC
  8
_0-3_躯体と製品
  6
CONTINUOUS
 62
    3
 10
1851.6476100000036
 20
6.2581800000000385
 40
28.610720000000001
 50
24.692923000003631
 51
92.02325900000605
  0
LINE
  8
_0-3_躯体と製品
  6
CONTINUOUS
 62
    4
 10
2041.6068500000019
 20
52.530040000001236
 11
1659.1068500000019
 21
52.530040000001236
  0
LINE
  8
_0-3_躯体と製品
  6
PLINE5
 62
    2
 10
1659.1068500000019
 20
-33.220720000000028
 11
2041.6068500000019
 21
-33.220720000000028
  0
LINE
  8
_0-3_躯体と製品
  6
PLINE2
 62
    2
 10
1659.1068500000019
 20
-16.220719999998664
 11
2041.6068500000019
 21
-16.220719999998664
  0
LINE
  8
_0-3_躯体と製品
  6
CONTINUOUS
 62
    2
 10
1659.1068500000019
 20
-13.220719999998664
 11
2041.6068500000019
 21
-13.220719999998664
  0
ARC
  8
_0-3_躯体と製品
  6
CONTINUOUS
 62
    3
 10
1390.1204700000053
 20
34.70058000000131
 40
36.131099999999989
 50
271.54157400000088
 51
315.96489899999852
  0
ARC
  8
_0-3_躯体と製品
  6
CONTINUOUS
 62
    3
 10
1390.1204700000053
 20
34.70058000000131
 40
42.131099999999989
 50
271.32199299999559
 51
318.23384300000089
  0
LINE
  8
_0-3_躯体と製品
  6
CONTINUOUS
 62
    5
 10
1391.0924700000069
 20
10.62068000000022
 11
1417.0577100000028
 21
10.62068000000022
  0
LINE
  8
_0-3_躯体と製品
  6
CONTINUOUS
 62
    4
 10
1609.1068500000019
 20
52.530040000001236
 11
1391.0924700000069
 21
52.530040000001236
  0
LINE
  8
_0-3_躯体と製品
  6
PLINE2
 62
    2
 10
1391.0924700000069
 20
-16.220719999998664
 11
1609.1068500000019
 21
-16.220719999998664
  0
LINE
  8
_0-3_躯体と製品
  6
CONTINUOUS
 62
    2
 10
1391.0924700000069
 20
-13.220719999998664
 11
1609.1068500000019
 21
-13.220719999998664
  0
LINE
  8
_0-3_躯体と製品
  6
PLINE5
 62
    2
 10
1609.1068500000019
 20
-33.220720000000028
 11
1391.0924700000069
 21
-33.220720000000028
  0
ARC
  8
_0-3_躯体と製品
  6
CONTINUOUS
 62
    3
 10
1160.6475300000002
 20
191.62800000000038
 40
36.131099999999989
 50
203.12831999999824
 51
226.39880699999651
  0
ARC
  8
_0-3_躯体と製品
  6
CONTINUOUS
 62
    3
 10
1160.6475300000002
 20
191.62800000000038
 40
42.131099999999989
 50
203.12831999999824
 51
233.35391899999732
  0
ARC
  8
_0-3_躯体と製品
  6
CONTINUOUS
 62
    3
 10
1324.6532300000081
 20
6.1490599999999631
 40
34.610720000000001
 50
24.692923000003631
 51
91.6724030000006
  0
ARC
  8
_0-3_躯体と製品
  6
CONTINUOUS
 62
    3
 10
1323.0992700000061
 20
6.1385799999991377
 40
34.610720000000001
 50
90.368339000005065
 51
155.48782100000349
  0
LINE
  8
_0-3_躯体と製品
  6
CONTINUOUS
 62
    4
 10
1371.0924700000069
 20
52.530040000001236
 11
1250.7302700000091
 21
52.530040000001236
  0
LINE
  8
_0-3_躯体と製品
  6
CONTINUOUS
 62
    5
 10
1362.1316100000004
 20
10.62068000000022
 11
1371.0924700000069
 21
10.62068000000022
  0
ARC
  8
_0-3_躯体と製品
  6
CONTINUOUS
 62
    3
 10
1389.4878499999995
 20
34.203520000001163
 40
42.131099999999989
 50
203.12831999999824
 51
244.11145100000303
  0
ARC
  8
_0-3_躯体と製品
  6
CONTINUOUS
 62
    3
 10
1258.5665100000051
 20
34.690100000000029
 40
42.131099999999989
 50
319.54478900000038
 51
336.70039199999871
  0
LINE
  8
_0-3_躯体と製品
  6
CONTINUOUS
 62
    5
 10
1250.7302700000091
 20
10.610200000001214
 11
1285.5037500000026
 21
10.610200000001214
  0
ARC
  8
_0-3_躯体と製品
  6
CONTINUOUS
 62
    3
 10
1258.5665100000051
 20
34.690100000000029
 40
36.131099999999989
 50
257.47395200000346
 51
315.96489899999852
  0
ARC
  8
_0-3_躯体と製品
  6
CONTINUOUS
 62
    3
 10
1258.5665100000051
 20
34.690100000000029
 40
42.131099999999989
 50
259.28076399999674
 51
318.23384300000095
  0
LINE
  8
_0-3_躯体と製品
  6
PLINE2
 62
    2
 10
1250.7302700000091
 20
-16.220719999998664
 11
1371.0924700000069
 21
-16.220719999998664
  0
LINE
  8
_0-3_躯体と製品
  6
CONTINUOUS
 62
    2
 10
1250.7302700000091
 20
-13.220719999998664
 11
1371.0924700000069
 21
-13.220719999998664
  0
LINE
  8
_0-3_躯体と製品
  6
PLINE5
 62
    2
 10
1371.0924700000069
 20
-33.220720000000028
 11
1250.7302700000091
 21
-33.220720000000028
  0
ARC
  8
_0-3_躯体と製品
  6
CONTINUOUS
 62
    3
 10
1324.6532300000081
 20
6.1490599999999631
 40
28.610720000000001
 50
24.692923000003631
 51
92.02325900000605
  0
ARC
  8
_0-3_躯体と製品
  6
CONTINUOUS
 62
    3
 10
1258.5665100000051
 20
34.690100000000029
 40
36.131099999999989
 50
317.64076999999781
 51
336.70039199999871
  0
ARC
  8
_0-3_躯体と製品
  6
CONTINUOUS
 62
    3
 10
1323.0992700000061
 20
6.1385799999991377
 40
28.610720000000001
 50
90.447384999994938
 51
155.48782100000349
  0
ARC
  8
_0-3_躯体と製品
  6
CONTINUOUS
 62
    3
 10
1394.6843900000058
 20
37.366639999999961
 40
42.131099999999989
 50
203.12831999999824
 51
235.94667600000332
  0
ARC
  8
_0-3_躯体と製品
  6
CONTINUOUS
 62
    3
 10
1186.7564100000036
 20
-4.0137199999996938
 40
34.610720000000001
 50
66.187582999993978
 51
91.6724030000006
  0
ARC
  8
_0-3_躯体と製品
  6
CONTINUOUS
 62
    3
 10
1186.7564100000036
 20
-4.0137199999996938
 40
28.610720000000001
 50
60.763656000003273
 51
92.02325900000605
  0
LINE
  8
_0-3_躯体と製品
  6
CONTINUOUS
 62
    4
 10
1135.7302700000082
 20
52.530040000001236
 11
1200.7302700000082
 21
52.530040000001236
  0
LINE
  8
_0-3_躯体と製品
  6
CONTINUOUS
 62
    5
 10
1153.9591500000042
 20
10.610200000001214
 11
1135.7302700000082
 21
10.610200000001214
  0
ARC
  8
_0-3_躯体と製品
  6
CONTINUOUS
 62
    3
 10
1126.6475300000038
 20
34.33246000000122
 40
36.131099999999989
 50
284.55935599999998
 51
313.96466099999515
  0
ARC
  8
_0-3_躯体と製品
  6
CONTINUOUS
 62
    3
 10
1126.6475300000038
 20
26.825120000001107
 40
36.131099999999989
 50
284.55935599999998
 51
313.96466099999515
  0
LINE
  8
_0-3_躯体と製品
  6
CONTINUOUS
 62
    3
 10
1153.7110900000025
 20
10.335339999999405
 11
1151.70219
 21
8.3264400000009573
  0
LINE
  8
_0-3_躯体と製品
  6
PLINE2
 62
    2
 10
1135.7302700000082
 20
-16.220719999998664
 11
1200.7302700000082
 21
-16.220719999998664
  0
LINE
  8
_0-3_躯体と製品
  6
CONTINUOUS
 62
    2
 10
1135.7302700000082
 20
-13.220719999998664
 11
1200.7302700000082
 21
-13.220719999998664
  0
LINE
  8
_0-3_躯体と製品
  6
CONTINUOUS
 62
    3
 10
1159.1703299999999
 20
7.8460200000001805
 11
1151.7302700000018
 21
0.4059600000011869
  0
LINE
  8
_0-3_躯体と製品
  6
PLINE5
 62
    2
 10
1200.7302700000082
 20
-33.220720000000028
 11
1135.7302700000082
 21
-33.220720000000028
  0
ARC
  8
_0-3_躯体と製品
  6
CONTINUOUS
 62
    3
 10
1185.2024500000025
 20
-4.0241799999987506
 40
34.610720000000001
 50
90.368339000005065
 51
155.48782100000349
  0
ARC
  8
_0-3_躯体と製品
  6
CONTINUOUS
 62
    3
 10
1185.2024500000025
 20
-4.0241799999987506
 40
28.610720000000001
 50
90.447384999994938
 51
155.48782100000349
  0
LINE
  8
_0-3_躯体と製品
  6
CONTINUOUS
 62
    2
 10
1135.7302700000082
 20
211.23090000000025
 11
1135.7302700000082
 21
65.373680000000377
  0
LINE
  8
_0-3_躯体と製品
  6
CONTINUOUS
 62
    2
 10
1017.4598300000025
 20
241.71121999999923
 11
1043.0815500000017
 21
241.71121999999923
  0
ARC
  8
_0-3_躯体と製品
  6
CONTINUOUS
 62
    3
 10
1031.441690000006
 20
191.52872000000139
 40
36.131099999999989
 50
203.12831999999824
 51
336.70039199999871
  0
ARC
  8
_0-3_躯体と製品
  6
CONTINUOUS
 62
    3
 10
1031.441690000006
 20
191.52872000000139
 40
42.131099999999989
 50
203.12831999999824
 51
336.70039199999871
  0
LINE
  8
_0-3_躯体と製品
  6
CONTINUOUS
 62
    4
 10
1040.7302700000082
 20
203.26052000000141
 11
1040.7302700000082
 21
326.04006000000027
  0
ARC
  8
_0-3_躯体と製品
  6
CONTINUOUS
 62
    3
 10
1095.974450000007
 20
162.97720000000004
 40
34.610720000000001
 50
24.692923000003631
 51
155.48782100000352
  0
ARC
  8
_0-3_躯体と製品
  6
CONTINUOUS
 62
    3
 10
1095.974450000007
 20
162.97720000000004
 40
28.610720000000001
 50
24.692923000003631
 51
155.48782100000352
  0
LINE
  8
_0-4_図面枠
  6
CONTINUOUS
 62
    2
 10
998.09583000000657
 20
173.71358000000123
 11
986.75609000000441
 21
134.07255999999938
  0
TEXT
  8
_0-4_図面枠
 62
    7
 10
1698.6770900000047
 20
215.1881800000001
 40
59.999999999999993
 41
0.7999999999999992
 50
0.0000100000010064
  1
支柱
  0
ARC
  8
_0-3_躯体と製品
  6
CONTINUOUS
 62
    3
 10
1719.104850000007
 20
6.3301800000001549
 40
34.610720000000001
 50
24.692923000003631
 51
91.6724030000006
  0
ARC
  8
_0-3_躯体と製品
  6
CONTINUOUS
 62
    3
 10
1785.3662500000009
 20
34.782440000001088
 40
42.131099999999989
 50
319.54478900000038
 51
336.70039199999871
  0
LINE
  8
_0-3_躯体と製品
  6
CONTINUOUS
 62
    5
 10
1758.4290100000035
 20
10.70252000000005
 11
1812.3034900000075
 21
10.70252000000005
  0
ARC
  8
_0-3_躯体と製品
  6
CONTINUOUS
 62
    3
 10
1785.3662500000009
 20
34.782440000001088
 40
42.131099999999989
 50
203.12831999999824
 51
318.23384300000089
  0
ARC
  8
_0-3_躯体と製品
  6
CONTINUOUS
 62
    3
 10
1719.104850000007
 20
6.3301800000001549
 40
28.610720000000001
 50
24.692923000003631
 51
92.02325900000605
  0
ARC
  8
_0-3_躯体と製品
  6
CONTINUOUS
 62
    3
 10
1785.3662500000009
 20
34.782440000001088
 40
36.131099999999989
 50
203.12831999999824
 51
315.96489899999852
  0
ARC
  8
_0-3_躯体と製品
  6
CONTINUOUS
 62
    3
 10
1785.3662500000009
 20
34.782440000001088
 40
36.131099999999989
 50
317.64076999999781
 51
336.70039199999871
  0
ARC
  8
_0-3_躯体と製品
  6
CONTINUOUS
 62
    3
 10
1850.0936500000025
 20
6.2477200000009816
 40
34.610720000000001
 50
90.368339000005065
 51
155.48782100000349
  0
ARC
  8
_0-3_躯体と製品
  6
CONTINUOUS
 62
    3
 10
1850.0936500000025
 20
6.2477200000009816
 40
28.610720000000001
 50
90.447384999994938
 51
155.48782100000349
  0
ARC
  8
_0-3_躯体と製品
  6
CONTINUOUS
 62
    3
 10
1588.0989700000046
 20
6.0875400000011268
 40
28.610720000000001
 50
42.754780000001823
 51
92.023259000006036
  0
ARC
  8
_0-3_躯体と製品
  6
CONTINUOUS
 62
    3
 10
1588.0989700000046
 20
6.0875400000011268
 40
34.610720000000001
 50
52.628833000000029
 51
91.6724030000006
  0
ARC
  8
_0-3_躯体と製品
  6
CONTINUOUS
 62
    3
 10
1586.5450100000035
 20
6.0770600000003014
 40
34.610720000000001
 50
90.368339000005065
 51
155.48782100000349
  0
ARC
  8
_0-3_躯体と製品
  6
CONTINUOUS
 62
    3
 10
1652.8234900000025
 20
34.854419999998981
 40
42.131099999999989
 50
278.57698299999879
 51
318.23384300000089
  0
ARC
  8
_0-3_躯体と製品
  6
CONTINUOUS
 62
    3
 10
1652.8234900000025
 20
34.854419999998981
 40
36.131099999999989
 50
280.01490099999933
 51
315.96489899999852
  0
LINE
  8
_0-3_躯体と製品
  6
CONTINUOUS
 62
    5
 10
1659.1068500000019
 20
10.774520000000166
 11
1679.7607300000018
 21
10.774520000000166
  0
ARC
  8
_0-3_躯体と製品
  6
CONTINUOUS
 62
    3
 10
1652.8234900000025
 20
34.854419999998981
 40
42.131099999999989
 50
319.54478900000038
 51
336.70039199999871
  0
ARC
  8
_0-3_躯体と製品
  6
CONTINUOUS
 62
    3
 10
1521.8690499999975
 20
34.727860000000192
 40
42.131099999999989
 50
319.54478900000038
 51
336.70039199999871
  0
ARC
  8
_0-3_躯体と製品
  6
CONTINUOUS
 62
    3
 10
1586.5450100000035
 20
6.0770600000003014
 40
28.610720000000001
 50
90.447384999994938
 51
155.48782100000349
  0
ARC
  8
_0-3_躯体と製品
  6
CONTINUOUS
 62
    3
 10
1521.8690499999975
 20
34.727860000000192
 40
36.131099999999989
 50
317.64076999999781
 51
336.70039199999871
  0
ARC
  8
_0-3_躯体と製品
  6
CONTINUOUS
 62
    3
 10
1652.8234900000025
 20
34.854419999998981
 40
36.131099999999989
 50
317.64076999999781
 51
336.70039199999871
  0
ARC
  8
_0-3_躯体と製品
  6
CONTINUOUS
 62
    3
 10
1454.8478700000069
 20
6.1658600000012029
 40
34.610720000000001
 50
90.368339000005065
 51
155.48782100000349
  0
ARC
  8
_0-3_躯体と製品
  6
CONTINUOUS
 62
    3
 10
1456.401830000008
 20
6.1763399999992998
 40
34.610720000000001
 50
24.692923000003631
 51
91.6724030000006
  0
ARC
  8
_0-3_躯体と製品
  6
CONTINUOUS
 62
    3
 10
1390.1204700000053
 20
34.70058000000131
 40
42.131099999999989
 50
319.54478900000038
 51
336.70039199999871
  0
ARC
  8
_0-3_躯体と製品
  6
CONTINUOUS
 62
    3
 10
1456.401830000008
 20
6.1763399999992998
 40
28.610720000000001
 50
24.692923000003631
 51
92.02325900000605
  0
ARC
  8
_0-3_躯体と製品
  6
CONTINUOUS
 62
    3
 10
1454.8478700000069
 20
6.1658600000012029
 40
28.610720000000001
 50
90.447384999994938
 51
155.48782100000349
  0
ARC
  8
_0-3_躯体と製品
  6
CONTINUOUS
 62
    3
 10
1390.1204700000053
 20
34.70058000000131
 40
36.131099999999989
 50
317.64076999999781
 51
336.70039199999871
  0
LINE
  8
_0-3_躯体と製品
  6
CONTINUOUS
 62
    5
 10
1494.9318100000037
 20
10.647960000001376
 11
1548.8062900000059
 21
10.647960000001376
  0
ARC
  8
_0-3_躯体と製品
  6
CONTINUOUS
 62
    3
 10
1521.8690499999975
 20
34.727860000000192
 40
36.131099999999989
 50
203.12831999999824
 51
315.96489899999852
  0
ARC
  8
_0-3_躯体と製品
  6
CONTINUOUS
 62
    3
 10
1521.8690499999975
 20
34.727860000000192
 40
42.131099999999989
 50
203.12831999999824
 51
318.23384300000089
  0
ARC
  8
_0-3_躯体と製品
  6
CONTINUOUS
 62
    3
 10
1717.5508900000059
 20
6.3197000000011485
 40
34.610720000000001
 50
90.368339000005065
 51
155.48782100000349
  0
ARC
  8
_0-3_躯体と製品
  6
CONTINUOUS
 62
    3
 10
1717.5508900000059
 20
6.3197000000011485
 40
28.610720000000001
 50
90.447384999994938
 51
155.48782100000349
  0
LINE
  8
_0-4_図面枠
  6
CONTINUOUS
 62
    2
 10
1698.6762500000023
 20
205.18808000000013
 11
1743.8085700000047
 21
205.18808000000013
  0
LINE
  8
_0-4_図面枠
  6
CONTINUOUS
 62
    2
 10
1645.8793300000016
 20
296.63502000000108
 11
1674.1635900000019
 21
268.35078000000021
  0
LINE
  8
_0-4_図面枠
  6
CONTINUOUS
 62
    2
 10
1661.5836299999992
 20
-65.417479999998932
 11
1679.2993099999985
 21
-60.670579999998836
  0
LINE
  8
_0-4_図面枠
  6
CONTINUOUS
 62
    2
 10
1645.8793300000016
 20
296.63502000000108
 11
1698.6762500000023
 21
205.18808000000013
  0
LINE
  8
_0-3_躯体と製品
  6
CONTINUOUS
 62
    3
 10
1391.0924700000069
 20
715.64406000000213
 11
1609.1068500000019
 21
715.64406000000213
  0
LINE
  8
_0-3_躯体と製品
  6
CONTINUOUS
 62
    3
 10
1391.0924700000069
 20
700.81118000000015
 11
1609.1068500000019
 21
700.81118000000015
  0
LINE
  8
_0-3_躯体と製品
  6
CONTINUOUS
 62
    3
 10
1391.0924700000069
 20
542.95520000000124
 11
1609.1068500000019
 21
542.95520000000124
  0
LINE
  8
_0-3_躯体と製品
  6
CONTINUOUS
 62
    3
 10
1250.7302700000091
 20
715.64406000000213
 11
1371.0924700000069
 21
715.64406000000213
  0
LINE
  8
_0-3_躯体と製品
  6
CONTINUOUS
 62
    3
 10
1250.7302700000091
 20
700.81118000000015
 11
1371.0924700000069
 21
700.81118000000015
  0
LINE
  8
_0-3_躯体と製品
  6
CONTINUOUS
 62
    3
 10
1256.7302700000046
 20
542.95520000000124
 11
1256.7302700000046
 21
539.95520000000215
  0
ARC
  8
_0-3_躯体と製品
  6
CONTINUOUS
 62
    3
 10
1253.73027
 20
539.95520000000215
 40
3
 50
270
 51
0
  0
LINE
  8
_0-3_躯体と製品
  6
CONTINUOUS
 62
    3
 10
1256.7302700000046
 20
542.95520000000124
 11
1371.0924700000069
 21
542.95520000000124
  0
ARC
  8
_0-3_躯体と製品
  6
CONTINUOUS
 62
    3
 10
1215.7302700000073
 20
533.9552000000001
 40
3
 50
90
 51
180
  0
LINE
  8
_0-3_躯体と製品
  6
CONTINUOUS
 62
    3
 10
1212.7302700000073
 20
495.95520000000124
 11
1212.7302700000073
 21
533.9552000000001
  0
LINE
  8
_0-3_躯体と製品
  6
CONTINUOUS
 62
    2
 10
1187.8962700000056
 20
517.95520000000124
 11
1212.3371500000094
 21
517.95520000000124
  0
ARC
  8
_0-3_躯体と製品
  6
CONTINUOUS
 62
    3
 10
1209.7302700000055
 20
495.95520000000124
 40
3
 50
270
 51
0
  0
LINE
  8
_0-3_躯体と製品
  6
CONTINUOUS
 62
    3
 10
1209.7302700000055
 20
492.95520000000124
 11
1206.7302700000037
 21
492.95520000000124
  0
LINE
  8
_0-3_躯体と製品
  6
CONTINUOUS
 62
    3
 10
1206.7302700000037
 20
542.95520000000124
 11
1256.7302700000046
 21
542.95520000000124
  0
LINE
  8
_0-3_躯体と製品
  6
CONTINUOUS
 62
    3
 10
1215.7302700000073
 20
536.9552000000001
 11
1253.73027
 21
536.9552000000001
  0
LINE
  8
_0-3_躯体と製品
  6
CONTINUOUS
 62
    3
 10
1035.7302700000082
 20
715.64406000000213
 11
1200.7302700000082
 21
715.64406000000213
  0
LINE
  8
_0-3_躯体と製品
  6
CONTINUOUS
 62
    3
 10
1035.7302700000082
 20
700.81118000000015
 11
1200.7302700000082
 21
700.81118000000015
  0
LINE
  8
_0-3_躯体と製品
  6
CONTINUOUS
 62
    3
 10
1035.7302700000082
 20
542.95520000000124
 11
1200.7302700000082
 21
542.95520000000124
  0
LINE
  8
_0-3_躯体と製品
  6
CONTINUOUS
 62
    3
 10
1665.1068500000056
 20
543.00588000000107
 11
1665.1068500000056
 21
540.00588000000107
  0
ARC
  8
_0-3_躯体と製品
  6
CONTINUOUS
 62
    3
 10
1662.1068500000038
 20
540.00588000000107
 40
3
 50
270
 51
0
  0
LINE
  8
_0-3_躯体と製品
  6
CONTINUOUS
 62
    3
 10
1624.1068500000019
 20
537.00587999999925
 11
1662.1068500000038
 21
537.00587999999925
  0
ARC
  8
_0-3_躯体と製品
  6
CONTINUOUS
 62
    3
 10
1624.1068500000019
 20
534.00588000000016
 40
3
 50
90
 51
180
  0
LINE
  8
_0-3_躯体と製品
  6
CONTINUOUS
 62
    3
 10
1621.1068500000001
 20
496.00588000000016
 11
1621.1068500000001
 21
534.00588000000016
  0
ARC
  8
_0-3_躯体と製品
  6
CONTINUOUS
 62
    3
 10
1618.1068500000001
 20
496.00588000000016
 40
3
 50
270
 51
0
  0
LINE
  8
_0-3_躯体と製品
  6
CONTINUOUS
 62
    3
 10
1615.1068500000056
 20
543.00588000000107
 11
1665.1068500000056
 21
543.00588000000107
  0
LINE
  8
_0-3_躯体と製品
  6
CONTINUOUS
 62
    2
 10
1596.2728499999976
 20
518.00588000000016
 11
1620.7137299999995
 21
518.00588000000016
  0
LINE
  8
_0-3_躯体と製品
  6
CONTINUOUS
 62
    3
 10
1618.1068500000001
 20
493.00588000000016
 11
1615.1068500000056
 21
493.00588000000016
  0
LINE
  8
_0-3_躯体と製品
  6
PLINE2
 62
    5
 10
2307.6251700000066
 20
-65.811300000000983
 11
2351.0710700000018
 21
-22.365379999998595
  0
LINE
  8
_0-3_躯体と製品
  6
PLINE2
 62
    5
 10
2339.428150000007
 20
-22.365379999998595
 11
2350.163750000007
 21
-33.100999999998976
  0
LINE
  8
_0-3_躯体と製品
  6
CONTINUOUS
 62
    4
 10
2066.6068500000019
 20
-22.365379999998595
 11
2687.7302700000091
 21
-22.365379999998595
  0
LINE
  8
_0-3_躯体と製品
  6
CONTINUOUS
 62
    4
 10
2687.7302700000091
 20
52.530040000001236
 11
2066.6068500000019
 21
52.530040000001236
  0
ARC
  8
_0-3_躯体と製品
  6
CONTINUOUS
 62
    3
 10
2308.6888700000036
 20
-30.133119999999735
 40
36.131099999999989
 50
203.12831999999824
 51
336.70039199999871
  0
LINE
  8
_0-3_躯体と製品
  6
CONTINUOUS
 62
    3
 10
2066.6068500000019
 20
272.97596000000112
 11
2687.7302700000091
 21
272.97596000000112
  0
LINE
  8
_0-3_躯体と製品
  6
CONTINUOUS
 62
    3
 10
2066.6068500000019
 20
202.95520000000101
 11
2687.7302700000091
 21
202.95520000000101
  0
LINE
  8
_0-3_躯体と製品
  6
PLINE2
 62
    5
 10
2311.1438900000066
 20
-22.365379999998595
 11
2338.8322700000062
 21
-50.053779999998596
  0
LINE
  8
_0-3_躯体と製品
  6
PLINE2
 62
    5
 10
2260.1097900000004
 20
-28.473859999998922
 11
2263.7912900000065
 21
-24.79235999999878
  0
LINE
  8
_0-3_躯体と製品
  6
PLINE2
 62
    5
 10
2274.004570000001
 20
-42.863359999998693
 11
2294.5025300000034
 21
-22.365379999998595
  0
LINE
  8
_0-3_躯体と製品
  6
PLINE2
 62
    5
 10
2207.2344100000046
 20
-24.502199999998766
 11
2217.8624300000029
 21
-35.130200000000741
  0
LINE
  8
_0-3_躯体と製品
  6
PLINE2
 62
    5
 10
2178.9363299999986
 20
-24.488380000000006
 11
2207.0358100000012
 21
-52.587859999998955
  0
LINE
  8
_0-3_躯体と製品
  6
PLINE2
 62
    5
 10
2153.6374300000025
 20
-56.130039999999781
 11
2185.4734300000055
 21
-24.294039999999995
  0
LINE
  8
_0-3_躯体と製品
  6
PLINE2
 62
    5
 10
2172.3543900000041
 20
-65.697339999999031
 11
2213.7433300000012
 21
-24.308419999999614
  0
ARC
  8
_0-3_躯体と製品
  6
CONTINUOUS
 62
    3
 10
2243.2216300000036
 20
-58.684659999998757
 40
34.610720000000001
 50
24.692923000003631
 51
155.48782100000352
  0
LINE
  8
_0-3_躯体と製品
  6
PLINE2
 62
    5
 10
2127.0672300000078
 20
-26.131699999998773
 11
2128.9336500000027
 21
-24.265279999999848
  0
ARC
  8
_0-3_躯体と製品
  6
CONTINUOUS
 62
    3
 10
2113.2623700000058
 20
-58.684659999998757
 40
34.610720000000001
 50
24.692923000003631
 51
155.48782100000352
  0
LINE
  8
_0-3_躯体と製品
  6
PLINE2
 62
    5
 10
2066.6068500000019
 20
-45.770879999999806
 11
2075.1390100000062
 21
-54.303059999999959
  0
LINE
  8
_0-3_躯体と製品
  6
CONTINUOUS
 62
    5
 10
2021.9261900000074
 20
10.757100000001401
 11
2041.6068500000019
 21
10.757100000001401
  0
ARC
  8
_0-3_躯体と製品
  6
CONTINUOUS
 62
    3
 10
2048.8634300000049
 20
34.837000000000216
 40
42.131099999999989
 50
203.12831999999824
 51
260.08202099999778
  0
ARC
  8
_0-3_躯体と製品
  6
CONTINUOUS
 62
    3
 10
2048.68887
 20
-29.689120000000685
 40
36.131099999999989
 50
299.73014400000102
 51
336.70039199999871
  0
LINE
  8
_0-3_躯体と製品
  6
PLINE2
 62
    5
 10
2066.6068500000019
 20
-37.109299999999848
 11
2079.7695300000069
 21
-23.946619999999029
  0
LINE
  8
_0-3_躯体と製品
  6
PLINE2
 62
    5
 10
2073.2606299999989
 20
-24.140399999998635
 11
2084.3868700000021
 21
-35.266639999999597
  0
ARC
  8
_0-3_躯体と製品
  6
CONTINUOUS
 62
    3
 10
2048.8634300000049
 20
34.837000000000216
 40
36.131099999999989
 50
203.12831999999824
 51
258.41389199999662
  0
LINE
  8
_0-3_躯体と製品
  6
PLINE2
 62
    5
 10
2150.6382500000054
 20
-24.474579999998014
 11
2190.4679700000052
 21
-64.304279999998698
  0
LINE
  8
_0-3_躯体と製品
  6
PLINE2
 62
    5
 10
2143.4685900000059
 20
-38.014619999998786
 11
2157.2035500000075
 21
-24.279659999999922
  0
ARC
  8
_0-3_躯体と製品
  6
CONTINUOUS
 62
    3
 10
2178.7295900000081
 20
-30.133119999999735
 40
36.131099999999989
 50
203.12831999999824
 51
336.70039199999871
  0
ARC
  8
_0-3_躯体と製品
  6
CONTINUOUS
 62
    3
 10
1981.8422500000033
 20
6.2750000000003183
 40
34.610720000000001
 50
90.368339000005065
 51
155.48782100000349
  0
ARC
  8
_0-3_躯体と製品
  6
CONTINUOUS
 62
    3
 10
1917.1148300000041
 20
34.809720000001334
 40
42.131099999999989
 50
319.54478900000038
 51
336.70039199999871
  0
LINE
  8
_0-3_躯体と製品
  6
CONTINUOUS
 62
    5
 10
1890.1775900000066
 20
10.729819999999336
 11
1944.0520700000015
 21
10.729819999999336
  0
ARC
  8
_0-3_躯体と製品
  6
CONTINUOUS
 62
    3
 10
1917.1148300000041
 20
34.809720000001334
 40
36.131099999999989
 50
203.12831999999824
 51
315.96489899999852
  0
ARC
  8
_0-3_躯体と製品
  6
CONTINUOUS
 62
    3
 10
1981.8422500000033
 20
6.2750000000003183
 40
28.610720000000001
 50
90.447384999994938
 51
155.48782100000349
  0
ARC
  8
_0-3_躯体と製品
  6
CONTINUOUS
 62
    3
 10
1917.1148300000041
 20
34.809720000001334
 40
36.131099999999989
 50
317.64076999999781
 51
336.70039199999871
  0
ARC
  8
_0-3_躯体と製品
  6
CONTINUOUS
 62
    3
 10
1983.3961900000068
 20
6.2854800000020532
 40
28.610720000000001
 50
24.692923000003631
 51
92.02325900000605
  0
ARC
  8
_0-3_躯体と製品
  6
CONTINUOUS
 62
    3
 10
1983.3961900000068
 20
6.2854800000020532
 40
34.610720000000001
 50
24.692923000003631
 51
91.6724030000006
  0
LINE
  8
_0-3_躯体と製品
  6
PLINE2
 62
    5
 10
2289.0065900000045
 20
-56.145599999999604
 11
2322.7868100000014
 21
-22.365379999998595
  0
LINE
  8
_0-3_躯体と製品
  6
PLINE2
 62
    5
 10
2282.8596100000104
 20
-22.365379999998595
 11
2323.5573500000064
 21
-63.063119999998662
  0
LINE
  8
_0-3_躯体と製品
  6
PLINE2
 62
    5
 10
2789.6830700000064
 20
-37.697519999999031
 11
2804.8318700000018
 21
-22.548739999999952
  0
LINE
  8
_0-3_躯体と製品
  6
PLINE2
 62
    5
 10
2774.6955500000004
 20
-24.400779999998804
 11
2776.5619700000079
 21
-22.534359999999879
  0
LINE
  8
_0-3_躯体と製品
  6
PLINE2
 62
    5
 10
2723.004810000004
 20
-22.771279999998796
 11
2737.1232500000024
 21
-36.889699999999038
  0
LINE
  8
_0-3_躯体と製品
  6
PLINE2
 62
    5
 10
2707.7302700000055
 20
-44.360939999998891
 11
2729.5137100000065
 21
-22.577499999999645
  0
LINE
  8
_0-3_躯体と製品
  6
PLINE2
 62
    5
 10
2707.7302700000055
 20
-35.780999999999722
 11
2725.6351500000019
 21
-53.68589999999972
  0
ARC
  8
_0-3_躯体と製品
  6
CONTINUOUS
 62
    3
 10
2698.8320500000045
 20
-30.676420000000007
 40
36.131099999999989
 50
284.25725499999498
 51
336.70039199999871
  0
LINE
  8
_0-3_躯体と製品
  6
PLINE2
 62
    5
 10
2641.6218300000073
 20
-25.616579999998748
 11
2644.7040500000039
 21
-22.534359999999879
  0
LINE
  8
_0-3_躯体と製品
  6
PLINE2
 62
    5
 10
2659.2593700000034
 20
-36.263299999998935
 11
2672.9739300000037
 21
-22.548739999999952
  0
LINE
  8
_0-3_躯体と製品
  6
PLINE2
 62
    5
 10
2670.5922900000005
 20
-53.214659999998958
 11
2687.7302700000091
 21
-36.076679999998987
  0
LINE
  8
_0-3_躯体と製品
  6
PLINE2
 62
    5
 10
2666.4086500000085
 20
-22.74365999999759
 11
2687.7302700000091
 21
-44.06528000000003
  0
ARC
  8
_0-3_躯体と製品
  6
CONTINUOUS
 62
    3
 10
2698.8320500000045
 20
-30.676420000000007
 40
36.131099999999989
 50
203.12831999999824
 51
252.10559700000013
  0
ARC
  8
_0-3_躯体と製品
  6
CONTINUOUS
 62
    3
 10
2763.5079900000019
 20
-59.327199999999948
 40
34.610720000000001
 50
24.692923000003631
 51
155.48782100000352
  0
LINE
  8
_0-3_躯体と製品
  6
CONTINUOUS
 62
    2
 10
2465.1068500000074
 20
301.16328000000112
 11
2483.1068500000019
 21
301.16328000000112
  0
LINE
  8
_0-3_躯体と製品
  6
CONTINUOUS
 62
    2
 10
2465.1068500000074
 20
177.95520000000101
 11
2483.1068500000019
 21
177.95520000000101
  0
LINE
  8
_0-3_躯体と製品
  6
CONTINUOUS
 62
    2
 10
2465.1068500000074
 20
127.95520000000101
 11
2483.1068500000019
 21
127.95520000000101
  0
LINE
  8
_0-3_躯体と製品
  6
PLINE2
 62
    5
 10
2558.7454100000068
 20
-63.553279999998949
 11
2599.721190000002
 21
-22.577499999999645
  0
LINE
  8
_0-3_躯体と製品
  6
PLINE2
 62
    5
 10
2540.1268300000047
 20
-53.887599999999793
 11
2571.4513100000077
 21
-22.563120000000026
  0
LINE
  8
_0-3_躯体と製品
  6
PLINE2
 62
    5
 10
2536.616130000004
 20
-22.74365999999759
 11
2577.1179900000025
 21
-63.245499999999765
  0
LINE
  8
_0-3_躯体と製品
  6
PLINE2
 62
    5
 10
2564.9142100000026
 20
-22.757460000000037
 11
2595.8426500000096
 21
-53.68589999999972
  0
LINE
  8
_0-3_躯体と製品
  6
PLINE2
 62
    5
 10
2593.2122900000086
 20
-22.771279999998796
 11
2607.3307300000088
 21
-36.889699999999038
  0
LINE
  8
_0-3_躯体と製品
  6
PLINE2
 62
    5
 10
2513.0450899999996
 20
-24.400779999998804
 11
2514.9115300000049
 21
-22.534359999999879
  0
LINE
  8
_0-3_躯体と製品
  6
PLINE2
 62
    5
 10
2464.9306900000047
 20
-22.365379999998595
 11
2478.1391900000071
 21
-35.573899999999639
  0
ARC
  8
_0-3_躯体と製品
  6
CONTINUOUS
 62
    3
 10
2503.4055500000031
 20
-59.227939999997716
 40
34.610720000000001
 50
24.692923000003631
 51
155.48782100000352
  0
LINE
  8
_0-3_躯体と製品
  6
PLINE2
 62
    5
 10
2528.0326300000015
 20
-37.697519999999031
 11
2543.1814100000011
 21
-22.548739999999952
  0
ARC
  8
_0-3_躯体と製品
  6
CONTINUOUS
 62
    3
 10
2568.8727700000018
 20
-30.676420000000007
 40
36.131099999999989
 50
203.12831999999824
 51
336.70039199999871
  0
LINE
  8
_0-3_躯体と製品
  6
PLINE2
 62
    5
 10
2401.981210000009
 20
-39.521819999999707
 11
2419.1376500000097
 21
-22.365379999998595
  0
LINE
  8
_0-3_躯体と製品
  6
PLINE2
 62
    5
 10
2414.0754100000013
 20
-55.71189999999865
 11
2447.4219300000041
 21
-22.365379999998595
  0
LINE
  8
_0-3_躯体と製品
  6
PLINE2
 62
    5
 10
2386.993690000003
 20
-26.225079999999025
 11
2388.8601100000014
 21
-24.358659999999645
  0
LINE
  8
_0-3_躯体と製品
  6
PLINE2
 62
    5
 10
2408.3621500000081
 20
-22.365379999998595
 11
2451.0665700000081
 21
-65.069819999999027
  0
ARC
  8
_0-3_躯体と製品
  6
CONTINUOUS
 62
    3
 10
2373.3648100000046
 20
-58.783919999998716
 40
34.610720000000001
 50
24.692923000003631
 51
155.48782100000352
  0
LINE
  8
_0-3_躯体と製品
  6
PLINE2
 62
    5
 10
2432.6939900000034
 20
-65.377599999998665
 11
2475.7061900000044
 21
-22.365379999998595
  0
LINE
  8
_0-3_躯体と製品
  6
PLINE2
 62
    5
 10
2436.6464100000067
 20
-22.365379999998595
 11
2467.0628700000052
 21
-52.781839999999875
  0
ARC
  8
_0-3_躯体と製品
  6
CONTINUOUS
 62
    3
 10
2438.8320500000045
 20
-30.232399999999643
 40
36.131099999999989
 50
203.12831999999824
 51
336.70039199999871
  0
LINE
  8
_0-3_躯体と製品
  6
CONTINUOUS
 62
    2
 10
2454.1068500000038
 20
102.95520000000101
 11
2494.1068500000038
 21
102.95520000000101
  0
LINE
  8
_0-3_躯体と製品
  6
CONTINUOUS
 62
    2
 10
2454.1068500000038
 20
202.95520000000101
 11
2454.1068500000038
 21
102.95520000000101
  0
LINE
  8
_0-3_躯体と製品
  6
CONTINUOUS
 62
    2
 10
2494.1068500000038
 20
102.95520000000101
 11
2494.1068500000038
 21
202.95520000000101
  0
ARC
  8
_0-3_躯体と製品
  6
CONTINUOUS
 62
    3
 10
2633.3648100000064
 20
-59.227939999997716
 40
34.610720000000001
 50
24.692923000003631
 51
155.48782100000352
  0
LINE
  8
_0-3_躯体と製品
  6
CONTINUOUS
 62
    3
 10
2066.6068500000019
 20
659.49294000000009
 11
2687.7302700000091
 21
659.49294000000009
  0
LINE
  8
_0-3_躯体と製品
  6
CONTINUOUS
 62
    3
 10
2066.6068500000019
 20
643.14942000000019
 11
2687.7302700000091
 21
643.14942000000019
  0
LINE
  8
_0-3_躯体と製品
  6
CONTINUOUS
 62
    2
 10
2465.1068500000074
 20
704.27818000000116
 11
2483.1068500000019
 21
704.27818000000116
  0
LINE
  8
_0-3_躯体と製品
  6
CONTINUOUS
 62
    2
 10
2465.1068500000074
 20
632.24876000000017
 11
2483.1068500000019
 21
632.24876000000017
  0
LINE
  8
_0-3_躯体と製品
  6
CONTINUOUS
 62
    2
 10
2465.1068500000074
 20
466.35330000000113
 11
2483.1068500000019
 21
466.35330000000113
  0
INSERT
  2
-010-_D13
  8
_0-2_寸法
 10
-6857.3020051132607
 20
2262.2758609788434
 41
10
 42
10
 50
0
  0
LINE
  8
_0-3_躯体と製品
  6
CONTINUOUS
 62
    3
 10
1391.0924700000069
 20
1212.9552000000012
 11
2041.6068500000019
 21
1212.9552000000012
  0
LINE
  8
_0-3_躯体と製品
  6
CONTINUOUS
 62
    4
 10
1391.0924700000069
 20
1162.9552000000012
 11
2041.6068500000019
 21
1162.9552000000012
  0
LINE
  8
_0-3_躯体と製品
  6
CONTINUOUS
 62
    3
 10
1665.1068500000056
 20
975.44848000000025
 11
2041.6068500000019
 21
975.44848000000025
  0
LINE
  8
_0-3_躯体と製品
  6
CONTINUOUS
 62
    3
 10
2041.6068500000019
 20
960.64254000000119
 11
1659.1068500000019
 21
960.64254000000119
  0
LINE
  8
_0-3_躯体と製品
  6
CONTINUOUS
 62
    3
 10
1659.1068500000019
 20
859.36870000000022
 11
2041.6068500000019
 21
859.36870000000022
  0
LINE
  8
_0-3_躯体と製品
  6
CONTINUOUS
 62
    3
 10
2041.6068500000019
 20
844.36870000000022
 11
1659.1068500000019
 21
844.36870000000022
  0
LINE
  8
_0-3_躯体と製品
  6
CONTINUOUS
 62
    3
 10
1665.1068500000056
 20
1163.0058800000011
 11
1665.1068500000056
 21
967.00587999999925
  0
LINE
  8
_0-3_躯体と製品
  6
CONTINUOUS
 62
    3
 10
1615.1068500000056
 20
1163.0058800000011
 11
1615.1068500000056
 21
923.00588000000107
  0
LINE
  8
_0-3_躯体と製品
  6
CONTINUOUS
 62
    3
 10
1256.7302700000046
 20
1162.9552000000012
 11
1256.7302700000046
 21
966.9552000000001
  0
LINE
  8
_0-3_躯体と製品
  6
CONTINUOUS
 62
    3
 10
1206.7302700000037
 20
1162.9552000000012
 11
1206.7302700000037
 21
922.95520000000124
  0
LINE
  8
_0-3_躯体と製品
  6
CONTINUOUS
 62
    3
 10
1085.7302700000082
 20
1163.0058800000011
 11
1085.7302700000082
 21
967.00587999999925
  0
LINE
  8
_0-3_躯体と製品
  6
CONTINUOUS
 62
    4
 10
1035.7302700000082
 20
1163.0058800000011
 11
1035.7302700000082
 21
923.00588000000107
  0
LINE
  8
_0-4_図面枠
  6
CONTINUOUS
 62
    2
 10
1052.227110000008
 20
1011.5852800000011
 11
961.63409000000138
 21
1168.4970000000001
  0
LINE
  8
_0-3_躯体と製品
  6
CONTINUOUS
 62
    3
 10
1391.0924700000069
 20
975.44848000000025
 11
1609.1068500000019
 21
975.44848000000025
  0
LINE
  8
_0-3_躯体と製品
  6
CONTINUOUS
 62
    3
 10
1609.1068500000019
 20
960.64254000000119
 11
1391.0924700000069
 21
960.64254000000119
  0
LINE
  8
_0-3_躯体と製品
  6
CONTINUOUS
 62
    3
 10
1391.0924700000069
 20
859.36870000000022
 11
1609.1068500000019
 21
859.36870000000022
  0
LINE
  8
_0-3_躯体と製品
  6
CONTINUOUS
 62
    3
 10
1391.0924700000069
 20
844.36870000000022
 11
1609.1068500000019
 21
844.36870000000022
  0
LINE
  8
_0-3_躯体と製品
  6
CONTINUOUS
 62
    3
 10
1256.7302700000046
 20
975.44848000000025
 11
1371.0924700000069
 21
975.44848000000025
  0
LINE
  8
_0-3_躯体と製品
  6
CONTINUOUS
 62
    3
 10
1206.7302700000037
 20
1111.4245200000003
 11
1212.7302700000073
 21
1111.4245200000003
  0
LINE
  8
_0-3_躯体と製品
  6
CONTINUOUS
 62
    3
 10
1206.7302700000037
 20
1044.6791800000012
 11
1200.7302700000082
 21
1044.6791800000012
  0
LINE
  8
_0-3_躯体と製品
  6
CONTINUOUS
 62
    2
 10
1187.8962700000056
 20
1018.7590600000001
 11
1212.3371500000094
 21
1018.7590600000001
  0
LINE
  8
_0-3_躯体と製品
  6
CONTINUOUS
 62
    3
 10
1085.7302700000082
 20
975.44848000000025
 11
1200.7302700000082
 21
975.44848000000025
  0
LINE
  8
_0-3_躯体と製品
  6
CONTINUOUS
 62
    3
 10
1212.7302700000073
 20
1156.9552000000001
 11
1212.7302700000073
 21
984.0740400000002
  0
LINE
  8
_0-3_躯体と製品
  6
CONTINUOUS
 62
    3
 10
1206.7302700000037
 20
984.0740400000002
 11
1250.7302700000091
 21
984.0740400000002
  0
LINE
  8
_0-3_躯体と製品
  6
PLINE2
 62
    3
 10
1206.7302700000037
 20
972.95520000000124
 11
1256.7302700000046
 21
972.95520000000124
  0
LINE
  8
_0-3_躯体と製品
  6
CONTINUOUS
 62
    3
 10
1256.7302700000046
 20
1156.9552000000001
 11
1212.7302700000073
 21
1156.9552000000001
  0
LINE
  8
_0-3_躯体と製品
  6
CONTINUOUS
 62
    3
 10
1371.0924700000069
 20
960.64254000000119
 11
1250.7302700000091
 21
960.64254000000119
  0
LINE
  8
_0-3_躯体と製品
  6
CONTINUOUS
 62
    3
 10
1250.7302700000091
 20
859.36870000000022
 11
1371.0924700000069
 21
859.36870000000022
  0
LINE
  8
_0-3_躯体と製品
  6
CONTINUOUS
 62
    3
 10
1250.7302700000091
 20
844.36870000000022
 11
1371.0924700000069
 21
844.36870000000022
  0
LINE
  8
_0-3_躯体と製品
  6
CONTINUOUS
 62
    3
 10
1206.7302700000037
 20
922.95520000000124
 11
1212.7302700000073
 21
922.95520000000124
  0
LINE
  8
_0-3_躯体と製品
  6
CONTINUOUS
 62
    2
 10
1187.8962700000056
 20
947.95520000000124
 11
1212.3371500000094
 21
947.95520000000124
  0
LINE
  8
_0-3_躯体と製品
  6
PLINE2
 62
    3
 10
1256.7302700000046
 20
966.9552000000001
 11
1212.7302700000073
 21
966.9552000000001
  0
LINE
  8
_0-3_躯体と製品
  6
PLINE2
 62
    3
 10
1212.7302700000073
 20
922.95520000000124
 11
1212.7302700000073
 21
984.0740400000002
  0
LINE
  8
_0-3_躯体と製品
  6
CONTINUOUS
 62
    2
 10
1019.1762700000036
 20
1136.4245200000003
 11
1043.6171500000055
 21
1136.4245200000003
  0
LINE
  8
_0-3_躯体と製品
  6
CONTINUOUS
 62
    2
 10
1019.1762700000036
 20
1083.2608800000003
 11
1043.6171500000055
 21
1083.2608800000003
  0
LINE
  8
_0-3_躯体と製品
  6
CONTINUOUS
 62
    3
 10
1041.7302700000018
 20
1157.0058799999993
 11
1041.7302700000018
 21
984.12472000000207
  0
LINE
  8
_0-3_躯体と製品
  6
CONTINUOUS
 62
    3
 10
1035.7302700000082
 20
923.00588000000107
 11
1041.7302700000018
 21
923.00588000000107
  0
LINE
  8
_0-3_躯体と製品
  6
CONTINUOUS
 62
    2
 10
1019.1762700000036
 20
947.98661999999922
 11
1043.6171500000055
 21
947.98661999999922
  0
LINE
  8
_0-3_躯体と製品
  6
PLINE2
 62
    3
 10
1041.7302700000018
 20
923.00588000000107
 11
1041.7302700000018
 21
984.12472000000207
  0
LINE
  8
_0-3_躯体と製品
  6
CONTINUOUS
 62
    3
 10
1041.7302700000018
 20
960.64254000000119
 11
1200.7302700000082
 21
960.64254000000119
  0
LINE
  8
_0-3_躯体と製品
  6
CONTINUOUS
 62
    3
 10
1035.7302700000082
 20
859.36870000000022
 11
1200.7302700000082
 21
859.36870000000022
  0
LINE
  8
_0-3_躯体と製品
  6
CONTINUOUS
 62
    3
 10
1035.7302700000082
 20
844.36870000000022
 11
1200.7302700000082
 21
844.36870000000022
  0
LINE
  8
_0-3_躯体と製品
  6
PLINE2
 62
    3
 10
1085.7302700000082
 20
967.00587999999925
 11
1041.7302700000018
 21
967.00587999999925
  0
LINE
  8
_0-3_躯体と製品
  6
PLINE2
 62
    3
 10
1035.7302700000082
 20
973.00588000000016
 11
1085.7302700000082
 21
973.00588000000016
  0
LINE
  8
_0-3_躯体と製品
  6
CONTINUOUS
 62
    3
 10
1085.7302700000082
 20
1157.0058799999993
 11
1041.7302700000018
 21
1157.0058799999993
  0
LINE
  8
_0-4_図面枠
  6
CONTINUOUS
 62
    2
 10
1052.227110000008
 20
1011.5852800000011
 11
1023.9428700000053
 21
1039.8695400000001
  0
LINE
  8
_0-4_図面枠
  6
CONTINUOUS
 62
    2
 10
1052.227110000008
 20
1011.5852800000011
 11
1041.8743700000005
 21
1050.2223000000001
  0
LINE
  8
_0-3_躯体と製品
  6
CONTINUOUS
 62
    3
 10
1665.1068500000056
 20
1157.0058799999993
 11
1621.1068500000001
 21
1157.0058799999993
  0
LINE
  8
_0-3_躯体と製品
  6
CONTINUOUS
 62
    3
 10
1615.1068500000056
 20
1111.4245200000003
 11
1621.1068500000001
 21
1111.4245200000003
  0
LINE
  8
_0-3_躯体と製品
  6
CONTINUOUS
 62
    3
 10
1615.1068500000056
 20
1044.7298600000001
 11
1609.1068500000019
 21
1044.7298600000001
  0
LINE
  8
_0-3_躯体と製品
  6
CONTINUOUS
 62
    3
 10
1615.1068500000056
 20
984.12472000000207
 11
1659.1068500000019
 21
984.12472000000207
  0
LINE
  8
_0-3_躯体と製品
  6
PLINE2
 62
    3
 10
1615.1068500000056
 20
973.00588000000016
 11
1665.1068500000056
 21
973.00588000000016
  0
LINE
  8
_0-3_躯体と製品
  6
CONTINUOUS
 62
    2
 10
1596.2728499999976
 20
1018.8097400000013
 11
1620.7137299999995
 21
1018.8097400000013
  0
LINE
  8
_0-3_躯体と製品
  6
CONTINUOUS
 62
    3
 10
1621.1068500000001
 20
1157.0058799999993
 11
1621.1068500000001
 21
984.12472000000207
  0
LINE
  8
_0-3_躯体と製品
  6
PLINE2
 62
    3
 10
1665.1068500000056
 20
967.00587999999925
 11
1621.1068500000001
 21
967.00587999999925
  0
LINE
  8
_0-3_躯体と製品
  6
CONTINUOUS
 62
    3
 10
1615.1068500000056
 20
923.00588000000107
 11
1621.1068500000001
 21
923.00588000000107
  0
LINE
  8
_0-3_躯体と製品
  6
CONTINUOUS
 62
    2
 10
1596.2728499999976
 20
948.00588000000107
 11
1620.7137299999995
 21
948.00588000000107
  0
LINE
  8
_0-3_躯体と製品
  6
PLINE2
 62
    3
 10
1621.1068500000001
 20
923.00588000000107
 11
1621.1068500000001
 21
984.12472000000207
  0
ARC
  8
_0-3_躯体と製品
  6
CONTINUOUS
 62
    3
 10
1243.73027
 20
1215.9552000000012
 40
3
 50
0
 51
90
  0
LINE
  8
_0-3_躯体と製品
  6
CONTINUOUS
 62
    3
 10
1246.7302700000018
 20
1215.9552000000012
 11
1246.7302700000018
 21
1212.9552000000012
  0
LINE
  8
_0-3_躯体と製品
  6
CONTINUOUS
 62
    3
 10
1206.7302700000037
 20
1212.9552000000012
 11
1206.7302700000037
 21
1252.955200000001
  0
LINE
  8
_0-3_躯体と製品
  6
CONTINUOUS
 62
    3
 10
1206.7302700000037
 20
1252.955200000001
 11
1209.7302700000055
 21
1252.955200000001
  0
ARC
  8
_0-3_躯体と製品
  6
CONTINUOUS
 62
    3
 10
1209.7302700000055
 20
1249.9552000000022
 40
3
 50
0
 51
90
  0
LINE
  8
_0-3_躯体と製品
  6
CONTINUOUS
 62
    3
 10
1212.7302700000073
 20
1221.9552000000001
 11
1212.7302700000073
 21
1249.9552000000022
  0
ARC
  8
_0-3_躯体と製品
  6
CONTINUOUS
 62
    3
 10
1215.7302700000073
 20
1221.9552000000001
 40
3
 50
180
 51
270
  0
LINE
  8
_0-3_躯体と製品
  6
CONTINUOUS
 62
    4
 10
1085.7302700000082
 20
1212.9552000000012
 11
1085.7302700000082
 21
1192.9552000000012
  0
LINE
  8
_0-3_躯体と製品
  6
CONTINUOUS
 62
    3
 10
1206.7302700000037
 20
1212.9552000000012
 11
1246.7302700000018
 21
1212.9552000000012
  0
LINE
  8
_0-3_躯体と製品
  6
CONTINUOUS
 62
    3
 10
1243.73027
 20
1218.9552000000001
 11
1215.7302700000073
 21
1218.9552000000001
  0
LINE
  8
_0-3_躯体と製品
  6
CONTINUOUS
 62
    4
 10
1035.7302700000082
 20
1212.9552000000012
 11
1085.7302700000082
 21
1212.9552000000012
  0
LINE
  8
_0-3_躯体と製品
  6
CONTINUOUS
 62
    3
 10
1035.7302700000082
 20
1212.9552000000012
 11
1371.0924700000069
 21
1212.9552000000012
  0
LINE
  8
_0-3_躯体と製品
  6
CONTINUOUS
 62
    3
 10
1206.7302700000037
 20
1162.9552000000012
 11
1256.7302700000046
 21
1162.9552000000012
  0
LINE
  8
_0-3_躯体と製品
  6
CONTINUOUS
 62
    3
 10
1035.7302700000082
 20
1163.0058800000011
 11
1085.7302700000082
 21
1163.0058800000011
  0
LINE
  8
_0-3_躯体と製品
  6
CONTINUOUS
 62
    4
 10
1035.7302700000082
 20
1162.9552000000012
 11
1371.0924700000069
 21
1162.9552000000012
  0
LINE
  8
_0-3_躯体と製品
  6
CONTINUOUS
 62
    4
 10
1035.7302700000082
 20
1162.9552000000012
 11
1035.7302700000082
 21
1212.9552000000012
  0
ARC
  8
_0-3_躯体と製品
  6
CONTINUOUS
 62
    3
 10
1618.1068500000001
 20
1249.9552000000022
 40
3
 50
0
 51
90
  0
LINE
  8
_0-3_躯体と製品
  6
CONTINUOUS
 62
    3
 10
1621.1068500000001
 20
1221.9552000000001
 11
1621.1068500000001
 21
1249.9552000000022
  0
ARC
  8
_0-3_躯体と製品
  6
CONTINUOUS
 62
    3
 10
1624.1068500000019
 20
1221.9552000000001
 40
3
 50
180
 51
270
  0
LINE
  8
_0-3_躯体と製品
  6
CONTINUOUS
 62
    3
 10
1652.1068500000038
 20
1218.9552000000001
 11
1624.1068500000019
 21
1218.9552000000001
  0
ARC
  8
_0-3_躯体と製品
  6
CONTINUOUS
 62
    3
 10
1652.1068500000038
 20
1215.9552000000012
 40
3
 50
0
 51
90
  0
LINE
  8
_0-3_躯体と製品
  6
CONTINUOUS
 62
    3
 10
1655.1068500000056
 20
1215.9552000000012
 11
1655.1068500000056
 21
1212.9552000000012
  0
LINE
  8
_0-3_躯体と製品
  6
CONTINUOUS
 62
    3
 10
1615.1068500000056
 20
1212.9552000000012
 11
1615.1068500000056
 21
1252.955200000001
  0
LINE
  8
_0-3_躯体と製品
  6
CONTINUOUS
 62
    3
 10
1615.1068500000056
 20
1212.9552000000012
 11
1655.1068500000056
 21
1212.9552000000012
  0
LINE
  8
_0-3_躯体と製品
  6
CONTINUOUS
 62
    3
 10
1615.1068500000056
 20
1252.955200000001
 11
1618.1068500000001
 21
1252.955200000001
  0
LINE
  8
_0-3_躯体と製品
  6
CONTINUOUS
 62
    3
 10
1615.1068500000056
 20
1163.0058800000011
 11
1665.1068500000056
 21
1163.0058800000011
  0
LINE
  8
_0-3_躯体と製品
  6
PLINE3
 62
    2
 10
1634.1068500000001
 20
1212.9552000000012
 11
1634.1068500000001
 21
1162.9552000000012
  0
LINE
  8
_0-3_躯体と製品
  6
CONTINUOUS
 62
    3
 10
2066.6068500000019
 20
1042.9552000000012
 11
2687.7302700000091
 21
1042.9552000000012
  0
LINE
  8
_0-3_躯体と製品
  6
CONTINUOUS
 62
    2
 10
2465.1068500000074
 20
999.50312000000213
 11
2483.1068500000019
 21
999.50312000000213
  0
LINE
  8
_0-3_躯体と製品
  6
CONTINUOUS
 62
    3
 10
2066.6068500000019
 20
1212.4589200000012
 11
2687.7302700000091
 21
1212.4589200000012
  0
LINE
  8
_0-3_躯体と製品
  6
CONTINUOUS
 62
    3
 10
2461.1068500000001
 20
1221.4589200000003
 11
2461.1068500000001
 21
1249.45892
  0
ARC
  8
_0-3_躯体と製品
  6
CONTINUOUS
 62
    3
 10
2464.1068500000038
 20
1221.4589200000003
 40
3
 50
180
 51
270
  0
LINE
  8
_0-3_躯体と製品
  6
CONTINUOUS
 62
    3
 10
2492.1068500000038
 20
1218.4589200000012
 11
2464.1068500000038
 21
1218.4589200000012
  0
ARC
  8
_0-3_躯体と製品
  6
CONTINUOUS
 62
    3
 10
2492.1068500000038
 20
1215.4589200000012
 40
3
 50
0
 51
90
  0
LINE
  8
_0-3_躯体と製品
  6
CONTINUOUS
 62
    3
 10
2495.1068500000056
 20
1215.4589200000012
 11
2495.1068500000056
 21
1212.4589200000012
  0
LINE
  8
_0-3_躯体と製品
  6
CONTINUOUS
 62
    3
 10
2455.1068500000074
 20
1212.4589200000012
 11
2455.1068500000074
 21
1252.4589200000012
  0
LINE
  8
_0-3_躯体と製品
  6
CONTINUOUS
 62
    3
 10
2455.1068500000074
 20
1252.4589200000012
 11
2458.1068500000001
 21
1252.4589200000012
  0
LINE
  8
_0-3_躯体と製品
  6
CONTINUOUS
 62
    3
 10
2455.1068500000074
 20
1212.4589200000012
 11
2495.1068500000056
 21
1212.4589200000012
  0
ARC
  8
_0-3_躯体と製品
  6
CONTINUOUS
 62
    3
 10
2458.1068500000001
 20
1249.45892
 40
3
 50
0
 51
90
  0
LINE
  8
_0-3_躯体と製品
  6
CONTINUOUS
 62
    2
 10
2465.1068500000074
 20
1170.6409200000012
 11
2483.1068500000019
 21
1170.6409200000012
  0
LINE
  8
_0-3_躯体と製品
  6
CONTINUOUS
 62
    2
 10
3542.9207699999988
 20
202.54423999999904
 11
3542.9207699999988
 21
-292.40285999999992
  0
LINE
  8
_0-3_躯体と製品
  6
CONTINUOUS
 62
    2
 10
3413.7953499999985
 20
202.65423999999916
 11
3413.7953499999985
 21
-292.40285999999992
  0
LINE
  8
_0-3_躯体と製品
  6
CONTINUOUS
 62
    2
 10
3021.7170900000056
 20
-25.206860000000916
 11
3021.7170900000056
 21
-308.00133999999775
  0
LINE
  8
_0-3_躯体と製品
  6
CONTINUOUS
 62
    2
 10
3154.7869899999987
 20
-25.278419999999869
 11
3154.7869899999987
 21
-308.00133999999775
  0
LINE
  8
_0-3_躯体と製品
  6
CONTINUOUS
 62
    2
 10
3284.7606699999997
 20
-25.720279999998866
 11
3284.7606699999997
 21
-308.00133999999775
  0
LINE
  8
_0-3_躯体と製品
  6
CONTINUOUS
 62
    2
 10
2892.4201500000017
 20
-25.178899999998748
 11
2892.4201500000017
 21
-308.00133999999775
  0
LINE
  8
_0-3_躯体と製品
  6
PLINE3
 62
    2
 10
2870.1068500000056
 20
1212.4589200000012
 11
2870.1068500000056
 21
-295.57771999999864
  0
LINE
  8
_0-4_図面枠
  6
CONTINUOUS
 62
    2
 10
3065.7402700000039
 20
-26.543380000000752
 11
3293.3534099999997
 21
-420.78089999999997
  0
TEXT
  8
_0-4_図面枠
 62
    7
 10
3293.3535899999988
 20
-410.78167999999982
 40
60.000000000000007
 41
0.8
 50
0.0000100000010215
  1
ケミカルメンド処理
  0
LINE
  8
_0-4_図面枠
  6
CONTINUOUS
 62
    2
 10
3293.3534099999997
 20
-420.78089999999997
 11
3747.8949299999986
 21
-420.78089999999997
  0
INSERT
  2
-011-_D14
  8
_0-2_寸法
 10
-6857.3020051132607
 20
2262.2758609788434
 41
10
 42
10
 50
0
  0
LINE
  8
_0-3_躯体と製品
  6
CONTINUOUS
 62
    4
 10
3060.1068500000074
 20
1212.4589200000012
 11
3060.1068500000074
 21
-10.384739999999738
  0
LINE
  8
_0-4_図面枠
  6
CONTINUOUS
 62
    2
 10
2875.1277900000023
 20
708.75990000000024
 11
2886.4675500000012
 21
748.40092000000118
  0
LINE
  8
_0-4_図面枠
  6
CONTINUOUS
 62
    2
 10
2875.1277900000023
 20
708.75990000000024
 11
3198.9457899999998
 21
1269.6291399999993
  0
ARC
  8
_0-3_躯体と製品
  6
CONTINUOUS
 62
    3
 10
3283.6918900000001
 20
-60.314499999998816
 40
34.610720000000001
 50
88.230424000003708
 51
155.48782100000349
  0
LINE
  8
_0-3_躯体と製品
  6
CONTINUOUS
 62
    4
 10
3326.73027
 20
203.26052000000141
 11
3060.1068500000074
 21
203.26052000000141
  0
LINE
  8
_0-3_躯体と製品
  6
PLINE2
 62
    5
 10
3244.1997499999998
 20
-22.771279999998796
 11
3258.2633699999988
 21
-36.834899999998697
  0
LINE
  8
_0-3_躯体と製品
  6
PLINE2
 62
    5
 10
3162.1211699999985
 20
-26.312159999999722
 11
3165.8989899999997
 21
-22.534359999999879
  0
LINE
  8
_0-3_躯体と製品
  6
PLINE2
 62
    5
 10
3179.6703899999993
 20
-37.047219999998788
 11
3194.1688700000086
 21
-22.548739999999952
  0
LINE
  8
_0-3_躯体と製品
  6
PLINE2
 62
    5
 10
3190.9970699999994
 20
-54.004819999999881
 11
3222.4387699999988
 21
-22.563120000000026
  0
LINE
  8
_0-3_躯体と製品
  6
PLINE2
 62
    5
 10
3114.4230500000012
 20
-22.771279999998796
 11
3128.1364100000028
 21
-36.48461999999904
  0
LINE
  8
_0-3_躯体と製品
  6
PLINE2
 62
    5
 10
3077.8984500000079
 20
-65.610999999998739
 11
3120.9319700000069
 21
-22.577499999999645
  0
LINE
  8
_0-3_躯体と製品
  6
PLINE2
 62
    5
 10
3086.1249700000062
 20
-22.757460000000037
 11
3117.1752100000012
 21
-53.807699999999613
  0
ARC
  8
_0-3_躯体と製品
  6
CONTINUOUS
 62
    3
 10
3153.6511699999992
 20
-59.870499999998856
 40
34.610720000000001
 50
24.692923000003631
 51
155.48782100000352
  0
LINE
  8
_0-3_躯体と製品
  6
PLINE2
 62
    5
 10
3049.7437500000015
 20
-37.197180000000799
 11
3064.3921900000041
 21
-22.548739999999952
  0
LINE
  8
_0-3_躯体と製品
  6
PLINE2
 62
    5
 10
3032.3481500000034
 20
-26.308499999999867
 11
3036.1222900000066
 21
-22.534359999999879
  0
LINE
  8
_0-3_躯体と製品
  6
PLINE2
 62
    5
 10
2919.2405900000049
 20
-36.580059999998639
 11
2933.2719300000063
 21
-22.548739999999952
  0
LINE
  8
_0-3_躯体と製品
  6
PLINE2
 62
    5
 10
2930.5866100000057
 20
-53.518320000000813
 11
2961.5418100000024
 21
-22.563120000000026
  0
LINE
  8
_0-3_躯体と製品
  6
PLINE2
 62
    5
 10
2955.0047100000083
 20
-22.757460000000037
 11
2986.6928900000094
 21
-54.445639999998775
  0
LINE
  8
_0-3_躯体と製品
  6
PLINE2
 62
    5
 10
2926.706630000006
 20
-22.74365999999759
 11
2969.6984700000066
 21
-65.735499999997728
  0
LINE
  8
_0-3_躯体と製品
  6
PLINE2
 62
    5
 10
2947.0702700000074
 20
-65.318919999999935
 11
2989.811710000009
 21
-22.577499999999645
  0
ARC
  8
_0-3_躯体と製品
  6
CONTINUOUS
 62
    3
 10
2959.0159500000082
 20
-31.219699999998966
 40
36.131099999999989
 50
203.12831999999824
 51
336.70039199999871
  0
LINE
  8
_0-3_躯体と製品
  6
PLINE2
 62
    5
 10
2983.3027900000016
 20
-22.771279999998796
 11
2997.4844100000009
 21
-36.952899999998635
  0
ARC
  8
_0-3_躯体と製品
  6
CONTINUOUS
 62
    3
 10
3023.5079900000019
 20
-59.771219999999857
 40
34.610720000000001
 50
24.692923000003631
 51
155.48782100000352
  0
LINE
  8
_0-3_躯体と製品
  6
PLINE2
 62
    5
 10
3061.0629300000037
 20
-54.162260000000742
 11
3092.662070000004
 21
-22.563120000000026
  0
LINE
  8
_0-3_躯体と製品
  6
PLINE2
 62
    5
 10
3057.8268900000021
 20
-22.74365999999759
 11
3100.5349300000089
 21
-65.451700000000756
  0
ARC
  8
_0-3_躯体と製品
  6
CONTINUOUS
 62
    3
 10
3088.9752300000018
 20
-31.219699999998966
 40
36.131099999999989
 50
203.12831999999824
 51
336.70039199999871
  0
LINE
  8
_0-3_躯体と製品
  6
PLINE2
 62
    5
 10
3207.690849999999
 20
-65.595299999999725
 11
3250.7086499999987
 21
-22.577499999999645
  0
LINE
  8
_0-3_躯体と製品
  6
PLINE2
 62
    5
 10
3215.9016699999993
 20
-22.757460000000037
 11
3247.1991899999994
 21
-54.05497999999875
  0
LINE
  8
_0-3_躯体と製品
  6
PLINE2
 62
    5
 10
3187.6035899999988
 20
-22.74365999999759
 11
3230.4778700000097
 21
-65.617939999999862
  0
ARC
  8
_0-3_躯体と製品
  6
CONTINUOUS
 62
    3
 10
3219.1183899999996
 20
-31.318959999998924
 40
36.131099999999989
 50
203.12831999999824
 51
336.70039199999871
  0
LINE
  8
_0-3_躯体と製品
  6
CONTINUOUS
 62
    2
 10
2861.1068500000019
 20
301.16328000000112
 11
2879.1068500000056
 21
301.16328000000112
  0
LINE
  8
_0-3_躯体と製品
  6
CONTINUOUS
 62
    2
 10
2861.1068500000019
 20
177.95520000000101
 11
2879.1068500000056
 21
177.95520000000101
  0
LINE
  8
_0-3_躯体と製品
  6
CONTINUOUS
 62
    2
 10
2861.1068500000019
 20
127.95520000000101
 11
2879.1068500000056
 21
127.95520000000101
  0
LINE
  8
_0-3_躯体と製品
  6
CONTINUOUS
 62
    2
 10
2850.1068500000092
 20
102.95520000000101
 11
2890.1068500000074
 21
102.95520000000101
  0
LINE
  8
_0-3_躯体と製品
  6
PLINE2
 62
    5
 10
2901.459670000002
 20
-26.076719999998886
 11
2905.0020300000106
 21
-22.534359999999879
  0
LINE
  8
_0-3_躯体と製品
  6
PLINE2
 62
    5
 10
2854.4568500000023
 20
-22.365379999998595
 11
2868.2467500000039
 21
-36.15528000000063
  0
LINE
  8
_0-3_躯体と製品
  6
PLINE2
 62
    5
 10
2826.1725900000019
 20
-22.365379999998595
 11
2857.1732700000066
 21
-53.366079999998647
  0
LINE
  8
_0-3_躯体と製品
  6
PLINE2
 62
    5
 10
2820.3958500000008
 20
-63.553279999998949
 11
2861.3716500000046
 21
-22.577499999999645
  0
LINE
  8
_0-3_躯体と製品
  6
CONTINUOUS
 62
    2
 10
2850.1068500000092
 20
202.95520000000101
 11
2850.1068500000092
 21
102.95520000000101
  0
LINE
  8
_0-3_躯体と製品
  6
CONTINUOUS
 62
    2
 10
2890.1068500000074
 20
102.95520000000101
 11
2890.1068500000074
 21
202.95520000000101
  0
ARC
  8
_0-3_躯体と製品
  6
CONTINUOUS
 62
    3
 10
2893.5487300000059
 20
-59.771219999999857
 40
34.610720000000001
 50
24.692923000003631
 51
155.48782100000352
  0
LINE
  8
_0-4_図面枠
  6
CONTINUOUS
 62
    2
 10
3065.7402700000039
 20
-26.543380000000752
 11
3094.4005300000081
 21
-56.184399999999869
  0
ARC
  8
_0-3_躯体と製品
  6
CONTINUOUS
 62
    3
 10
3413.6511699999992
 20
168.0438200000001
 40
34.610720000000001
 50
24.692923000003631
 51
155.48782100000352
  0
ARC
  8
_0-3_躯体と製品
  6
CONTINUOUS
 62
    3
 10
3479.1183899999996
 20
196.59534000000099
 40
36.131099999999989
 50
203.12831999999824
 51
336.70039199999871
  0
ARC
  8
_0-3_躯体と製品
  6
CONTINUOUS
 62
    3
 10
3349.15913
 20
196.59534000000099
 40
36.131099999999989
 50
231.62810800000432
 51
336.70039199999877
  0
LINE
  8
_0-3_躯体と製品
  6
CONTINUOUS
 62
    4
 10
3316.73027
 20
-23.365379999999959
 11
3326.73027
 21
-23.365379999999959
  0
LINE
  8
_0-3_躯体と製品
  6
CONTINUOUS
 62
    4
 10
3326.73027
 20
-23.365379999999959
 11
3326.73027
 21
-22.365379999998595
  0
LINE
  8
_0-3_躯体と製品
  6
CONTINUOUS
 62
    4
 10
3326.73027
 20
-22.365379999998595
 11
3326.73027
 21
203.26052000000141
  0
ARC
  8
_0-3_躯体と製品
  6
CONTINUOUS
 62
    3
 10
3543.7943500000001
 20
167.9445400000011
 40
34.610720000000001
 50
82.778178999995617
 51
155.48782100000352
  0
LINE
  8
_0-3_躯体と製品
  6
CONTINUOUS
 62
    2
 10
2861.1068500000019
 20
704.27818000000116
 11
2879.1068500000056
 21
704.27818000000116
  0
LINE
  8
_0-3_躯体と製品
  6
CONTINUOUS
 62
    2
 10
2861.1068500000019
 20
632.24876000000017
 11
2879.1068500000056
 21
632.24876000000017
  0
LINE
  8
_0-3_躯体と製品
  6
CONTINUOUS
 62
    2
 10
2861.1068500000019
 20
466.35330000000113
 11
2879.1068500000056
 21
466.35330000000113
  0
LINE
  8
_0-3_躯体と製品
  6
PLINE5
 62
    3
 10
3060.1068500000074
 20
972.95520000000124
 11
3010.1068500000074
 21
972.95520000000124
  0
LINE
  8
_0-3_躯体と製品
  6
PLINE2
 62
    3
 10
3060.1068500000074
 20
922.95520000000124
 11
3057.1068500000038
 21
922.95520000000124
  0
ARC
  8
_0-3_躯体と製品
  6
PLINE2
 62
    3
 10
3057.1068500000038
 20
925.95520000000124
 40
3
 50
180
 51
270
  0
LINE
  8
_0-3_躯体と製品
  6
PLINE2
 62
    3
 10
3054.1068500000038
 20
925.95520000000124
 11
3054.1068500000038
 21
963.9552000000001
  0
ARC
  8
_0-3_躯体と製品
  6
PLINE2
 62
    3
 10
3051.1068500000001
 20
963.9552000000001
 40
3
 50
0
 51
90
  0
LINE
  8
_0-3_躯体と製品
  6
PLINE2
 62
    3
 10
3051.1068500000001
 20
966.9552000000001
 11
3013.1068500000001
 21
966.9552000000001
  0
ARC
  8
_0-3_躯体と製品
  6
PLINE2
 62
    3
 10
3013.1068500000001
 20
969.95520000000215
 40
3
 50
180
 51
270
  0
LINE
  8
_0-3_躯体と製品
  6
CONTINUOUS
 62
    2
 10
3028.1068500000001
 20
889.95520000000215
 11
3042.1068500000038
 21
889.95520000000215
  0
LINE
  8
_0-3_躯体と製品
  6
CONTINUOUS
 62
    2
 10
3035.1068500000074
 20
896.9552000000001
 11
3035.1068500000074
 21
882.95520000000124
  0
LINE
  8
_0-3_躯体と製品
  6
PLINE5
 62
    3
 10
3010.1068500000074
 20
822.95520000000124
 11
3060.1068500000074
 21
822.95520000000124
  0
LINE
  8
_0-3_躯体と製品
  6
CONTINUOUS
 62
    2
 10
3028.1068500000001
 20
856.9552000000001
 11
3042.1068500000038
 21
856.9552000000001
  0
LINE
  8
_0-3_躯体と製品
  6
CONTINUOUS
 62
    2
 10
3035.1068500000074
 20
863.9552000000001
 11
3035.1068500000074
 21
849.95520000000215
  0
LINE
  8
_0-3_躯体と製品
  6
PLINE5
 62
    3
 10
3010.1068500000074
 20
972.95520000000124
 11
3010.1068500000074
 21
822.95520000000124
  0
LINE
  8
_0-3_躯体と製品
  6
PLINE2
 62
    3
 10
3010.1068500000074
 20
969.95520000000215
 11
3010.1068500000074
 21
972.95520000000124
  0
LINE
  8
_0-3_躯体と製品
  6
CONTINUOUS
 62
    2
 10
2861.1068500000019
 20
999.50312000000213
 11
2879.1068500000056
 21
999.50312000000213
  0
TEXT
  8
_0-4_図面枠
 62
    7
 10
3198.9456299999983
 20
1279.6290799999992
 40
60.000000000000114
 41
0.7999999999999986
 50
0
  1
六角ボルト
  0
LINE
  8
_0-4_図面枠
  6
CONTINUOUS
 62
    2
 10
3198.9457899999998
 20
1269.6291399999993
 11
3456.9457899999998
 21
1269.6291399999993
  0
LINE
  8
_0-3_躯体と製品
  6
CONTINUOUS
 62
    4
 10
3010.1068500000074
 20
1192.9552000000012
 11
3010.1068500000074
 21
1212.4589200000012
  0
LINE
  8
_0-3_躯体と製品
  6
CONTINUOUS
 62
    4
 10
3010.1068500000074
 20
1212.4589200000012
 11
3060.1068500000074
 21
1212.4589200000012
  0
LINE
  8
_0-3_躯体と製品
  6
CONTINUOUS
 62
    3
 10
2851.1068500000019
 20
1212.4589200000012
 11
2891.1068500000001
 21
1212.4589200000012
  0
LINE
  8
_0-3_躯体と製品
  6
CONTINUOUS
 62
    3
 10
2851.1068500000019
 20
1212.4589200000012
 11
2851.1068500000019
 21
1252.4589200000012
  0
LINE
  8
_0-3_躯体と製品
  6
CONTINUOUS
 62
    3
 10
2851.1068500000019
 20
1252.4589200000012
 11
2854.1068500000056
 21
1252.4589200000012
  0
ARC
  8
_0-3_躯体と製品
  6
CONTINUOUS
 62
    3
 10
2854.1068500000056
 20
1249.45892
 40
3
 50
0
 51
90
  0
LINE
  8
_0-3_躯体と製品
  6
CONTINUOUS
 62
    3
 10
2857.1068500000056
 20
1221.4589200000003
 11
2857.1068500000056
 21
1249.45892
  0
ARC
  8
_0-3_躯体と製品
  6
CONTINUOUS
 62
    3
 10
2860.1068500000074
 20
1221.4589200000003
 40
3
 50
180
 51
270
  0
LINE
  8
_0-3_躯体と製品
  6
CONTINUOUS
 62
    3
 10
2888.1068500000001
 20
1218.4589200000012
 11
2860.1068500000074
 21
1218.4589200000012
  0
ARC
  8
_0-3_躯体と製品
  6
CONTINUOUS
 62
    3
 10
2888.1068500000001
 20
1215.4589200000012
 40
3
 50
0
 51
90
  0
LINE
  8
_0-3_躯体と製品
  6
CONTINUOUS
 62
    3
 10
2891.1068500000001
 20
1215.4589200000012
 11
2891.1068500000001
 21
1212.4589200000012
  0
LINE
  8
_0-3_躯体と製品
  6
CONTINUOUS
 62
    2
 10
2861.1068500000019
 20
1170.6409200000012
 11
2879.1068500000056
 21
1170.6409200000012
  0
TEXT
  8
_0-4_図面枠
 62
    7
 10
2310.9738300000081
 20
2687.3213600000004
 40
200
 41
0.8
 50
0
  1
（スレート　棟）
  0
LINE
  8
_0-4_図面枠
  6
CONTINUOUS
 62
    4
 10
-3451.1666699999978
 20
2633.6666600000008
 11
4292.1666699999987
 21
2633.6666600000008
  0
LINE
  8
_0-4_図面枠
  6
CONTINUOUS
 62
    4
 10
-3451.1666699999978
 20
2967
 11
4292.1666699999987
 21
2967
  0
TEXT
  8
_0-4_図面枠
 62
    7
 10
-1533.3160299999918
 20
2694.4234000000001
 40
200
 41
0.8
 50
0
  1
連続式ベンチレーター　排煙ＨＬ型　標準施工図
  0
TEXT
  8
_0-4_図面枠
 62
    7
 10
-3201.0829699999977
 20
2434.2875999999997
 40
60
 41
0.8000000000000002
 50
0
  1
図中は、ＳＣ－１０００ＨＬ型
  0
LINE
  8
_0-4_図面枠
  6
CONTINUOUS
 62
    2
 10
-2117.8333299999986
 20
2800.3333400000001
 11
-3451.1666699999978
 21
2800.3333400000001
  0
LINE
  8
_0-4_図面枠
  6
CONTINUOUS
 62
    2
 10
-2784.5000099999979
 20
2967
 11
-2784.5000099999979
 21
2633.6666600000008
  0
TEXT
  8
_0-4_図面枠
 62
    7
 10
-3259.9878699999963
 20
2678.2521399999991
 40
60
 41
0.8000000000000006
 50
0
  1
縮　　尺
  0
TEXT
  8
_0-4_図面枠
 62
    7
 10
-3294.8180699999966
 20
2835.8519199999996
 40
60
 41
0.8000000000000001
 50
0
  1
ファイル名
  0
LINE
  8
_0-4_図面枠
  6
CONTINUOUS
 62
    4
 10
-2117.8333299999986
 20
2967
 11
-2117.8333299999986
 21
2633.6666600000008
  0
TEXT
  8
_0-4_図面枠
 62
    7
 10
-2656.6694499999949
 20
2675.0441199999996
 40
60
 41
0.7999999999999999
 50
0
  1
Ｓ　１：２０
  0
TEXT
  8
_0-4_図面枠
 62
    7
 10
-2658.4876099999974
 20
2839.7441399999998
 40
60
 41
0.7999999999999999
 50
0
  1
ＭＯＮ０１２
  0
ENDSEC
  0
EOF
