  0
SECTION
  2
HEADER
  9
$ACADVER
  1
AC1009
  9
$INSBASE
 10
0
 20
0
 30
0
  9
$EXTMIN
 10
0
 20
0
  9
$EXTMAX
 10
841
 20
594
  9
$LIMMIN
 10
0
 20
0
  9
$LIMMAX
 10
841
 20
594
  9
$LTSCALE
 40
1
  0
ENDSEC
  0
SECTION
  2
TABLES
  0
TABLE
  2
LTYPE
 70
     9
  0
LTYPE
  2
CONTINUOUS
 70
    64
  3
実線
 72
    65
 73
     0
 40
0.0
  0
LTYPE
  2
DASHED1
 70
    64
  3
--  --  --  --  --  --  --  --  
 72
    65
 73
     2
 40
2.5
 49
1.25
 49
-1.25
  0
LTYPE
  2
DASHED2
 70
    64
  3
----    ----    ----    ----    
 72
    65
 73
     2
 40
5.0
 49
2.5
 49
-2.5
  0
LTYPE
  2
DASHED3
 70
    64
  3
------  ------  ------  ------  
 72
    65
 73
     2
 40
5.0
 49
3.75
 49
-1.25
  0
LTYPE
  2
CENTER1
 70
    64
  3
----- - ----- - ----- - ----- - 
 72
    65
 73
     4
 40
10.0
 49
6.25
 49
-1.25
 49
1.25
 49
-1.25
  0
LTYPE
  2
CENTER2
 70
    64
  3
----------  --  ----------  --  
 72
    65
 73
     4
 40
20.0
 49
12.5
 49
-2.5
 49
2.5
 49
-2.5
  0
LTYPE
  2
PHANTOM1
 70
    64
  3
--- - - --- - - --- - - --- - - 
 72
    65
 73
     6
 40
10.0
 49
3.25
 49
-1.25
 49
1.25
 49
-1.25
 49
1.25
 49
-1.25
  0
LTYPE
  2
PHANTOM2
 70
    64
  3
--------  -  -  --------  -  -  
 72
    65
 73
     6
 40
20.0
 49
10.0
 49
-2.5
 49
1.25
 49
-2.5
 49
1.25
 49
-2.5
  0
LTYPE
  2
DOT
 70
    64
  3
-   -   -   -   -   -   -   -   
 72
    65
 73
     2
 40
2.5
 49
0.625
 49
-1.875
  0
LTYPE
  2
DUMMY
 70
    64
  3
ダミー
 72
    65
 73
     0
 40
0.0
  0
LTYPE
  2
RAND1
 70
    64
  3
ランダム線1
 72
    65
 73
     4
 40
10.0
 49
1.0
 49
-2.0
 49
3.0
 49
-4.0
  0
LTYPE
  2
RAND2
 70
    64
  3
ランダム線2
 72
    65
 73
     4
 40
14.0
 49
2.0
 49
-3.0
 49
4.0
 49
-5.0
  0
LTYPE
  2
RAND3
 70
    64
  3
ランダム線3
 72
    65
 73
     4
 40
18.0
 49
3.0
 49
-4.0
 49
5.0
 49
-6.0
  0
LTYPE
  2
RAND4
 70
    64
  3
ランダム線4
 72
    65
 73
     4
 40
22.0
 49
4.0
 49
-5.0
 49
6.0
 49
-7.0
  0
LTYPE
  2
RAND5
 70
    64
  3
ランダム線5
 72
    65
 73
     4
 40
26.0
 49
5.0
 49
-6.0
 49
7.0
 49
-8.0
  0
LTYPE
  2
LONG1
 70
    64
  3
----------  --  ----------  --  
 72
    65
 73
     4
 40
40.0
 49
32.5
 49
-2.5
 49
2.5
 49
-2.5
  0
LTYPE
  2
LONG2
 70
    64
  3
--------  -  -  --------  -  -  
 72
    65
 73
     6
 40
40.0
 49
30.0
 49
-2.5
 49
1.25
 49
-2.5
 49
1.25
 49
-2.5
  0
LTYPE
  2
LONG3
 70
    64
  3
+++++++++++++++..+++++++++++++++
 72
    65
 73
     2
 40
40.0
 49
37.5
 49
-2.5
  0
LTYPE
  2
LONG4
 70
    64
  3
+++++++++++++++..+++++++++++++++
 72
    65
 73
     2
 40
80.0
 49
75.0
 49
-5.0
  0
LTYPE
  2
LONG5
 70
    64
  3
----------  --  ----------  --  
 72
    65
 73
     4
 40
60.0
 49
37.5
 49
-7.5
 49
7.5
 49
-7.5
  0
LTYPE
  2
dashed
 70
   64
  3
-------   -------------   ------
 72
   65
 73
    2
 40
7.5
 49
6
 49
-1.5
  0
LTYPE
  2
dashed_spaced
 70
   64
  3
----        --------        ----
 72
   65
 73
    2
 40
12
 49
6
 49
-6
  0
LTYPE
  2
long_dashed_dotted
 70
   64
  3
------------- --- --------------
 72
   65
 73
    4
 40
15.25
 49
12
 49
-1.5
 49
0.25
 49
-1.5
  0
LTYPE
  2
long_dashed_double-dotted
 70
   64
  3
----------- --- --- ------------
 72
   65
 73
    6
 40
17
 49
12
 49
-1.5
 49
0.25
 49
-1.5
 49
0.25
 49
-1.5
  0
LTYPE
  2
long_dashed_triplicate-dotted
 70
   64
  3
--------- --- --- --- ----------
 72
   65
 73
    8
 40
18.75
 49
12
 49
-1.5
 49
0.25
 49
-1.5
 49
0.25
 49
-1.5
 49
0.25
 49
-1.5
  0
LTYPE
  2
dotted
 70
   64
  3
   -       -       -       -    
 72
   65
 73
    2
 40
1.75
 49
0.25
 49
-1.5
  0
LTYPE
  2
chain
 70
   64
  3
-------------- -- --------------
 72
   65
 73
    4
 40
18.5
 49
12
 49
-1.5
 49
3.5
 49
-1.5
  0
LTYPE
  2
chain_double_dash
 70
   64
  3
------------ -- -- -------------
 72
   65
 73
    6
 40
23.5
 49
12
 49
-1.5
 49
3.5
 49
-1.5
 49
3.5
 49
-1.5
  0
LTYPE
  2
dashed_dotted
 70
   64
  3
-----------     -     ----------
 72
   65
 73
    4
 40
9.25
 49
6
 49
-1.5
 49
0.25
 49
-1.5
  0
LTYPE
  2
double-dashed_dotted
 70
   64
  3
------   -----------   -   -----
 72
   65
 73
    6
 40
16.75
 49
6
 49
-1.5
 49
6
 49
-1.5
 49
0.25
 49
-1.5
  0
LTYPE
  2
dashed_double-dotted
 70
   64
  3
---------    -    -    ---------
 72
   65
 73
    6
 40
11
 49
6
 49
-1.5
 49
0.25
 49
-1.5
 49
0.25
 49
-1.5
  0
LTYPE
  2
double-dashed_double-dotted
 70
   64
  3
-----   ---------   -   -   ----
 72
   65
 73
    8
 40
18.5
 49
6
 49
-1.5
 49
6
 49
-1.5
 49
0.25
 49
-1.5
 49
0.25
 49
-1.5
  0
LTYPE
  2
dashed_triplicate-dotted
 70
   64
  3
-------    -    -    -    ------
 72
   65
 73
    8
 40
12.75
 49
6
 49
-1.5
 49
0.25
 49
-1.5
 49
0.25
 49
-1.5
 49
0.25
 49
-1.5
  0
LTYPE
  2
double-dashed_triplicate-dotted
 70
   64
  3
-----  ---------  -  -  -  -----
 72
   65
 73
   10
 40
20.25
 49
6
 49
-1.5
 49
6
 49
-1.5
 49
0.25
 49
-1.5
 49
0.25
 49
-1.5
 49
0.25
 49
-1.5
  0
LTYPE
  2
undefined
 70
   64
  3
--------------------------------
 72
   65
 73
    0
 40
0
  0
LTYPE
  2
PLINE2
 70
   64
  3
------     -----------     -----
 72
   65
 73
    2
 40
3
 49
2.1000000000000001
 49
-0.9
  0
LTYPE
  2
PLINE3
 70
   64
  3
------------   ---   -----------
 72
   65
 73
    4
 40
10
 49
7
 49
-1
 49
1
 49
-1
  0
LTYPE
  2
PLINE4
 70
   64
  3
---------   ---   ---   --------
 72
   65
 73
    6
 40
10
 49
5
 49
-1
 49
1
 49
-1
 49
1
 49
-1
  0
LTYPE
  2
PLINE5
 70
   64
  3
------     -----------     -----
 72
   65
 73
    2
 40
5
 49
3.5
 49
-1.5
  0
LTYPE
  2
PLINE6
 70
   64
  3
------------   ---   -----------
 72
   65
 73
    4
 40
15
 49
10.5
 49
-1.5
 49
1.5
 49
-1.5
  0
LTYPE
  2
PLINE7
 70
   64
  3
---------   ---   ---   --------
 72
   65
 73
    6
 40
15
 49
7.5
 49
-1.5
 49
1.5
 49
-1.5
 49
1.5
 49
-1.5
  0
LTYPE
  2
PLINE8
 70
   64
  3
------     -----------     -----
 72
   65
 73
    2
 40
7
 49
4.9000000000000004
 49
-2.1000000000000001
  0
LTYPE
  2
PLINE9
 70
   64
  3
------------   ---   -----------
 72
   65
 73
    4
 40
20
 49
14
 49
-2
 49
2
 49
-2
  0
LTYPE
  2
PLINE10
 70
   64
  3
---------   ---   ---   --------
 72
   65
 73
    6
 40
20
 49
10
 49
-2
 49
2
 49
-2
 49
2
 49
-2
  0
LTYPE
  2
PLINE11
 70
   64
  3
------     -----------     -----
 72
   65
 73
    2
 40
9
 49
6.2999999999999989
 49
-2.7000000000000002
  0
LTYPE
  2
PLINE12
 70
   64
  3
------------   ---   -----------
 72
   65
 73
    4
 40
25
 49
17.5
 49
-2.5
 49
2.5
 49
-2.5
  0
LTYPE
  2
PLINE13
 70
   64
  3
---------   ---   ---   --------
 72
   65
 73
    6
 40
25
 49
12.5
 49
-2.5
 49
2.5
 49
-2.5
 49
2.5
 49
-2.5
  0
LTYPE
  2
PLINE14
 70
   64
  3
------     -----------     -----
 72
   65
 73
    2
 40
11
 49
7.7000000000000002
 49
-3.2999999999999989
  0
LTYPE
  2
PLINE15
 70
   64
  3
------------   ---   -----------
 72
   65
 73
    4
 40
30
 49
21
 49
-3
 49
3
 49
-3
  0
LTYPE
  2
PLINE16
 70
   64
  3
---------   ---   ---   --------
 72
   65
 73
    6
 40
30
 49
15
 49
-3
 49
3
 49
-3
 49
3
 49
-3
  0
ENDTAB
  0
TABLE
  2
STYLE
  5
3
100
AcDbSymbolTable
 70
     1
  0
STYLE
  5
10
100
AcDbSymbolTableRecord
100
AcDbTextStyleTableRecord
  2
STANDARD
 70
     0
 40
0.0
 41
1.0
 50
0.0
 71
     0
 42
0.2
  3
txt
  4
bigfont.shx
  0
STYLE
  5
26
100
AcDbSymbolTableRecord
100
AcDbTextStyleTableRecord
  2
TATEGAKI
 70
    68
 40
0.0
 41
1.0
 50
0.0
 71
     0
 42
1.0
  3
txt
  4
bigfont.shx
  0
ENDTAB
  0
TABLE
  2
LAYER
 70
    4
  0
LAYER
  2
_0-2_寸法
 70
   64
 62
    7
  6
CONTINUOUS
  0
LAYER
  2
_0-3_躯体と製品
 70
   64
 62
    7
  6
CONTINUOUS
  0
LAYER
  2
_0-4_図面枠
 70
   64
 62
    7
  6
CONTINUOUS
  0
LAYER
  2
ADD_LINE
 70
   64
 62
    7
  6
CONTINUOUS
  0
ENDTAB
  0
ENDSEC
  0
SECTION
  2
BLOCKS
  0
BLOCK
  2
-000-_Dot
 70
   64
 10
0
 20
0
 30
0
  0
CIRCLE
  8
_0-0_0
  6
CONTINUOUS
 62
    7
 10
0
 20
0
 40
0.025
  0
LINE
  8
_0-0_0
  6
CONTINUOUS
 62
    7
 10
0.025
 20
0
 11
-0.025
 21
0
  0
LINE
  8
_0-0_0
  6
CONTINUOUS
 62
    7
 10
-0.05
 20
0
 11
-0.1
 21
0
  0
ENDBLK
  0
BLOCK
  2
-001-_D4
 70
   64
 10
0
 20
0
 30
0
  0
LINE
  8
_0-2_寸法
  6
CONTINUOUS
 62
    4
 10
693.49384999771462
 20
-87.9550704244717
 11
693.49384999771462
 21
9.1720315755283082
  0
LINE
  8
_0-2_寸法
  6
CONTINUOUS
 62
    4
 10
893.49384999771462
 20
-71.525238424471524
 11
893.49384999771462
 21
9.1720315755283082
  0
LINE
  8
_0-2_寸法
  6
CONTINUOUS
 62
    4
 10
693.59384999771441
 20
9.1720315755283082
 11
893.3938499977146
 21
9.1720315755283082
  0
INSERT
  2
-000-_Dot
  8
_0-2_寸法
 10
693.49384999771462
 20
9.1720315755283082
 41
1
 42
1
 50
180
  0
INSERT
  2
-000-_Dot
  8
_0-2_寸法
 10
893.49384999771462
 20
9.1720315755283082
 41
1
 42
1
 50
0
  0
TEXT
  8
_0-2_寸法
 62
    7
 10
792.24384999771462
 20
9.2520315755282994
 40
5
 41
1
 50
0
  1
E
  0
POINT
  8
_0-1_Defpoints
 62
    7
 10
693.49384999771462
 20
-87.9550704244717
  0
POINT
  8
_0-1_Defpoints
 62
    7
 10
893.49384999771462
 20
-71.525238424471524
  0
POINT
  8
_0-1_Defpoints
 62
    7
 10
893.49384999771462
 20
9.1720315755283082
  0
ENDBLK
  0
BLOCK
  2
-002-_D5
 70
   64
 10
0
 20
0
 30
0
  0
LINE
  8
_0-2_寸法
  6
CONTINUOUS
 62
    4
 10
740.47258599771442
 20
-31.887542424471754
 11
685.36575799771447
 21
-31.887542424471739
  0
LINE
  8
_0-2_寸法
  6
CONTINUOUS
 62
    4
 10
738.79508799771452
 20
-131.88754242447169
 11
685.36575799771447
 21
-131.88754242447169
  0
LINE
  8
_0-2_寸法
  6
CONTINUOUS
 62
    4
 10
685.36575799771447
 20
-31.98754242447173
 11
685.36575799771447
 21
-131.7875424244717
  0
INSERT
  2
-000-_Dot
  8
_0-2_寸法
 10
685.36575799771447
 20
-31.887542424471739
 41
1
 42
1
 50
90
  0
INSERT
  2
-000-_Dot
  8
_0-2_寸法
 10
685.36575799771447
 20
-131.88754242447169
 41
1
 42
1
 50
270
  0
TEXT
  8
_0-2_寸法
 62
    7
 10
685.28575799771454
 20
-84.387542424471633
 40
5
 41
1
 50
90
  1
 I
  0
POINT
  8
_0-1_Defpoints
 62
    7
 10
740.47258599771442
 20
-31.887542424471754
  0
POINT
  8
_0-1_Defpoints
 62
    7
 10
738.79508799771452
 20
-131.88754242447169
  0
POINT
  8
_0-1_Defpoints
 62
    7
 10
685.36575799771447
 20
-131.88754242447169
  0
ENDBLK
  0
BLOCK
  2
-003-_D6
 70
   64
 10
0
 20
0
 30
0
  0
LINE
  8
_0-2_寸法
  6
CONTINUOUS
 62
    4
 10
738.79508799771452
 20
-131.88754242447169
 11
685.36575799771447
 21
-131.88754242447169
  0
LINE
  8
_0-2_寸法
  6
CONTINUOUS
 62
    4
 10
739.92408399771432
 20
-146.88754242447169
 11
685.36575799771447
 21
-146.88754242447169
  0
LINE
  8
_0-2_寸法
  6
CONTINUOUS
 62
    4
 10
685.36575799771447
 20
-131.98754242447168
 11
685.36575799771447
 21
-146.7875424244717
  0
INSERT
  2
-000-_Dot
  8
_0-2_寸法
 10
685.36575799771447
 20
-131.88754242447169
 41
1
 42
1
 50
90
  0
INSERT
  2
-000-_Dot
  8
_0-2_寸法
 10
685.36575799771447
 20
-146.88754242447169
 41
1
 42
1
 50
270
  0
TEXT
  8
_0-2_寸法
 62
    7
 10
685.28575799771454
 20
-140.6375424244716
 40
5
 41
1
 50
90
  1
J
  0
POINT
  8
_0-1_Defpoints
 62
    7
 10
738.79508799771452
 20
-131.88754242447169
  0
POINT
  8
_0-1_Defpoints
 62
    7
 10
739.92408399771432
 20
-146.88754242447169
  0
POINT
  8
_0-1_Defpoints
 62
    7
 10
685.36575799771447
 20
-146.88754242447169
  0
ENDBLK
  0
BLOCK
  2
-004-_D7
 70
   64
 10
0
 20
0
 30
0
  0
LINE
  8
_0-2_寸法
  6
CONTINUOUS
 62
    4
 10
743.49384999771462
 20
-163.6911106849725
 11
743.49384999771462
 21
-202.4686564244719
  0
LINE
  8
_0-2_寸法
  6
CONTINUOUS
 62
    4
 10
843.49384999771462
 20
-165.8105959893997
 11
843.49384999771462
 21
-202.4686564244719
  0
LINE
  8
_0-2_寸法
  6
CONTINUOUS
 62
    4
 10
743.59384999771441
 20
-202.4686564244719
 11
843.3938499977146
 21
-202.4686564244719
  0
INSERT
  2
-000-_Dot
  8
_0-2_寸法
 10
743.49384999771462
 20
-202.4686564244719
 41
1
 42
1
 50
180
  0
INSERT
  2
-000-_Dot
  8
_0-2_寸法
 10
843.49384999771462
 20
-202.4686564244719
 41
1
 42
1
 50
0
  0
TEXT
  8
_0-2_寸法
 62
    7
 10
783.49384999771462
 20
-202.38865642447189
 40
5
 41
1
 50
0
  1
Ａ　開口
  0
POINT
  8
_0-1_Defpoints
 62
    7
 10
743.49384999771462
 20
-163.6911106849725
  0
POINT
  8
_0-1_Defpoints
 62
    7
 10
843.49384999771462
 20
-165.8105959893997
  0
POINT
  8
_0-1_Defpoints
 62
    7
 10
843.49384999771462
 20
-202.4686564244719
  0
ENDBLK
  0
BLOCK
  2
-005-_D8
 70
   64
 10
0
 20
0
 30
0
  0
LINE
  8
_0-2_寸法
  6
CONTINUOUS
 62
    4
 10
972.07690599771445
 20
-168.8824264244715
 11
972.07690599771445
 21
-204.04123242447162
  0
LINE
  8
_0-2_寸法
  6
CONTINUOUS
 62
    4
 10
982.07690599771445
 20
-168.8824264244715
 11
982.07690599771445
 21
-204.04123242447162
  0
LINE
  8
_0-2_寸法
  6
CONTINUOUS
 62
    4
 10
972.1769059977147
 20
-204.04123242447162
 11
981.97690599771454
 21
-204.04123242447162
  0
INSERT
  2
-000-_Dot
  8
_0-2_寸法
 10
972.07690599771445
 20
-204.04123242447162
 41
1
 42
1
 50
180
  0
INSERT
  2
-000-_Dot
  8
_0-2_寸法
 10
982.07690599771445
 20
-204.04123242447162
 41
1
 42
1
 50
0
  0
TEXT
  8
_0-2_寸法
 62
    7
 10
973.32690599771468
 20
-203.9612324244716
 40
5
 41
1
 50
0
  1
100
  0
POINT
  8
_0-1_Defpoints
 62
    7
 10
972.07690599771445
 20
-168.8824264244715
  0
POINT
  8
_0-1_Defpoints
 62
    7
 10
982.07690599771445
 20
-168.8824264244715
  0
POINT
  8
_0-1_Defpoints
 62
    7
 10
982.07690599771445
 20
-204.04123242447162
  0
ENDBLK
  0
BLOCK
  2
-006-_D9
 70
   64
 10
0
 20
0
 30
0
  0
LINE
  8
_0-2_寸法
  6
CONTINUOUS
 62
    4
 10
982.07690599771445
 20
-168.8824264244715
 11
982.07690599771445
 21
-204.04123242447162
  0
LINE
  8
_0-2_寸法
  6
CONTINUOUS
 62
    4
 10
1163.276905997714
 20
-175.03112642447161
 11
1163.276905997714
 21
-204.04123242447162
  0
LINE
  8
_0-2_寸法
  6
CONTINUOUS
 62
    4
 10
982.1769059977147
 20
-204.04123242447162
 11
1163.1769059977139
 21
-204.04123242447162
  0
INSERT
  2
-000-_Dot
  8
_0-2_寸法
 10
982.07690599771445
 20
-204.04123242447162
 41
1
 42
1
 50
180
  0
INSERT
  2
-000-_Dot
  8
_0-2_寸法
 10
1163.276905997714
 20
-204.04123242447162
 41
1
 42
1
 50
0
  0
TEXT
  8
_0-2_寸法
 62
    7
 10
1067.6769059977139
 20
-203.9612324244716
 40
5
 41
1
 50
0
  1
開口
  0
POINT
  8
_0-1_Defpoints
 62
    7
 10
982.07690599771445
 20
-168.8824264244715
  0
POINT
  8
_0-1_Defpoints
 62
    7
 10
1163.276905997714
 20
-175.03112642447161
  0
POINT
  8
_0-1_Defpoints
 62
    7
 10
1163.276905997714
 20
-204.04123242447162
  0
ENDBLK
  0
BLOCK
  2
-007-_D10
 70
   64
 10
0
 20
0
 30
0
  0
LINE
  8
_0-2_寸法
  6
CONTINUOUS
 62
    4
 10
1163.276905997714
 20
-175.03112642447161
 11
1163.276905997714
 21
-204.04123242447162
  0
LINE
  8
_0-2_寸法
  6
CONTINUOUS
 62
    4
 10
1173.276905997714
 20
-175.03112642447161
 11
1173.276905997714
 21
-204.04123242447162
  0
LINE
  8
_0-2_寸法
  6
CONTINUOUS
 62
    4
 10
1163.3769059977139
 20
-204.04123242447162
 11
1173.1769059977139
 21
-204.04123242447162
  0
INSERT
  2
-000-_Dot
  8
_0-2_寸法
 10
1163.276905997714
 20
-204.04123242447162
 41
1
 42
1
 50
180
  0
INSERT
  2
-000-_Dot
  8
_0-2_寸法
 10
1173.276905997714
 20
-204.04123242447162
 41
1
 42
1
 50
0
  0
TEXT
  8
_0-2_寸法
 62
    7
 10
1164.526905997714
 20
-203.9612324244716
 40
5
 41
1
 50
0
  1
100
  0
POINT
  8
_0-1_Defpoints
 62
    7
 10
1163.276905997714
 20
-175.03112642447161
  0
POINT
  8
_0-1_Defpoints
 62
    7
 10
1173.276905997714
 20
-175.03112642447161
  0
POINT
  8
_0-1_Defpoints
 62
    7
 10
1173.276905997714
 20
-204.04123242447162
  0
ENDBLK
  0
BLOCK
  2
-008-_D11
 70
   64
 10
0
 20
0
 30
0
  0
LINE
  8
_0-2_寸法
  6
CONTINUOUS
 62
    4
 10
1030.6769059977139
 20
-9.4189384244717083
 11
1030.6769059977139
 21
9.0253315755282522
  0
LINE
  8
_0-2_寸法
  6
CONTINUOUS
 62
    4
 10
1114.6769059977139
 20
-9.4189384244717083
 11
1114.6769059977139
 21
9.0253315755282522
  0
LINE
  8
_0-2_寸法
  6
CONTINUOUS
 62
    4
 10
1030.776905997714
 20
9.0253315755282522
 11
1114.576905997714
 21
9.0253315755282522
  0
INSERT
  2
-000-_Dot
  8
_0-2_寸法
 10
1030.6769059977139
 20
9.0253315755282522
 41
1
 42
1
 50
180
  0
INSERT
  2
-000-_Dot
  8
_0-2_寸法
 10
1114.6769059977139
 20
9.0253315755282522
 41
1
 42
1
 50
0
  0
TEXT
  8
_0-2_寸法
 62
    7
 10
1057.6769059977139
 20
9.1053315755282505
 40
5
 41
1
 50
0
  1
８４０ピッチ
  0
POINT
  8
_0-1_Defpoints
 62
    7
 10
1030.6769059977139
 20
-9.4189384244717083
  0
POINT
  8
_0-1_Defpoints
 62
    7
 10
1114.6769059977139
 20
-9.4189384244717083
  0
POINT
  8
_0-1_Defpoints
 62
    7
 10
1114.6769059977139
 20
9.0253315755282522
  0
ENDBLK
  0
BLOCK
  2
-009-_D12
 70
   64
 10
0
 20
0
 30
0
  0
LINE
  8
_0-2_寸法
  6
CONTINUOUS
 62
    4
 10
1031.6452911922529
 20
-12.363922778442419
 11
1031.6452911922529
 21
-12.613382424471629
  0
LINE
  8
_0-2_寸法
  6
CONTINUOUS
 62
    4
 10
1114.6769059977139
 20
-11.613382424471629
 11
1114.6769059977139
 21
-12.613382424471629
  0
LINE
  8
_0-2_寸法
  6
CONTINUOUS
 62
    4
 10
1031.745291192253
 20
-12.613382424471629
 11
1114.576905997714
 21
-12.613382424471629
  0
INSERT
  2
-000-_Dot
  8
_0-2_寸法
 10
1031.6452911922529
 20
-12.613382424471629
 41
1
 42
1
 50
180
  0
INSERT
  2
-000-_Dot
  8
_0-2_寸法
 10
1114.6769059977139
 20
-12.613382424471629
 41
1
 42
1
 50
0
  0
TEXT
  8
_0-2_寸法
 62
    7
 10
1069.411098594984
 20
-12.533382424471629
 40
5
 41
1
 50
0
  1
840
  0
POINT
  8
_0-1_Defpoints
 62
    7
 10
1031.6452911922529
 20
-12.363922778442419
  0
POINT
  8
_0-1_Defpoints
 62
    7
 10
1114.6769059977139
 20
-11.613382424471629
  0
POINT
  8
_0-1_Defpoints
 62
    7
 10
1114.6769059977139
 20
-12.613382424471629
  0
ENDBLK
  0
BLOCK
  2
-010-_D13
 70
   64
 10
0
 20
0
 30
0
  0
LINE
  8
_0-2_寸法
  6
CONTINUOUS
 62
    4
 10
972.07690599771445
 20
-8.5335584244716305
 11
972.07690599771445
 21
33.92818357552823
  0
LINE
  8
_0-2_寸法
  6
CONTINUOUS
 62
    4
 10
1173.276905997714
 20
-10.031890424471559
 11
1173.276905997714
 21
33.92818357552823
  0
LINE
  8
_0-2_寸法
  6
CONTINUOUS
 62
    4
 10
972.1769059977147
 20
33.92818357552823
 11
1173.1769059977139
 21
33.92818357552823
  0
INSERT
  2
-000-_Dot
  8
_0-2_寸法
 10
972.07690599771445
 20
33.92818357552823
 41
1
 42
1
 50
180
  0
INSERT
  2
-000-_Dot
  8
_0-2_寸法
 10
1173.276905997714
 20
33.92818357552823
 41
1
 42
1
 50
0
  0
TEXT
  8
_0-2_寸法
 62
    7
 10
1067.6769059977139
 20
34.008183575528236
 40
5
 41
1
 50
0
  1
全長
  0
POINT
  8
_0-1_Defpoints
 62
    7
 10
972.07690599771445
 20
-8.5335584244716305
  0
POINT
  8
_0-1_Defpoints
 62
    7
 10
1173.276905997714
 20
-10.031890424471559
  0
POINT
  8
_0-1_Defpoints
 62
    7
 10
1173.276905997714
 20
33.92818357552823
  0
ENDBLK
  0
BLOCK
  2
-011-_D14
 70
   64
 10
0
 20
0
 30
0
  0
LINE
  8
_0-2_寸法
  6
CONTINUOUS
 62
    4
 10
947.57690599771433
 20
-130.8291904244717
 11
947.57690599771433
 21
-116.8406564244716
  0
LINE
  8
_0-2_寸法
  6
CONTINUOUS
 62
    4
 10
947.67690599771447
 20
-116.8406564244716
 11
971.97690599771465
 21
-116.8406564244716
  0
INSERT
  2
-000-_Dot
  8
_0-2_寸法
 10
947.57690599771433
 20
-116.8406564244716
 41
1
 42
1
 50
180
  0
INSERT
  2
-000-_Dot
  8
_0-2_寸法
 10
972.07690599771445
 20
-116.8406564244716
 41
1
 42
1
 50
0
  0
TEXT
  8
_0-2_寸法
 62
    7
 10
947.32690599771445
 20
-116.76065642447161
 40
5
 41
1
 50
0
  1
現場合わせ
  0
POINT
  8
_0-1_Defpoints
 62
    7
 10
947.57690599771433
 20
-130.8291904244717
  0
POINT
  8
_0-1_Defpoints
 62
    7
 10
972.07690599771445
 20
-116.8406564244716
  0
POINT
  8
_0-1_Defpoints
 62
    7
 10
972.07690599771445
 20
-116.8406564244716
  0
ENDBLK
  0
BLOCK
  2
-012-_D15
 70
   64
 10
0
 20
0
 30
0
  0
LINE
  8
_0-2_寸法
  6
CONTINUOUS
 62
    4
 10
718.97574599771428
 20
-152.6200724244722
 11
717.41468415408895
 21
-147.45282492390649
  0
LINE
  8
_0-2_寸法
  6
CONTINUOUS
 62
    4
 10
743.01352584637254
 20
-145.3580899235177
 11
741.45246400274721
 21
-140.1908424229521
  0
LINE
  8
_0-2_寸法
  6
CONTINUOUS
 62
    4
 10
717.51041108998629
 20
-147.4239051427231
 11
741.35673706684997
 21
-140.21976220413552
  0
INSERT
  2
-000-_Dot
  8
_0-2_寸法
 10
717.41468415408895
 20
-147.45282492390649
 41
1
 42
1
 50
196.80993628728891
  0
INSERT
  2
-000-_Dot
  8
_0-2_寸法
 10
741.45246400274721
 20
-140.1908424229521
 41
1
 42
1
 50
16.809936287288984
  0
TEXT
  8
_0-2_寸法
 62
    7
 10
717.44457126629538
 20
-147.36022477263137
 40
5
 41
1
 50
16.809936287289531
  1
現場合わせ
  0
POINT
  8
_0-1_Defpoints
 62
    7
 10
718.97574599771428
 20
-152.6200724244722
  0
POINT
  8
_0-1_Defpoints
 62
    7
 10
743.01352584637254
 20
-145.3580899235177
  0
POINT
  8
_0-1_Defpoints
 62
    7
 10
741.45246400274721
 20
-140.1908424229521
  0
ENDBLK
  0
ENDSEC
  0
SECTION
  2
ENTITIES
  0
TEXT
  8
_0-4_図面枠
 62
    7
 10
700.75481000000582
 20
444.20444263323407
 40
60.000000000000007
 41
0.8
 50
0.0000100000010064
  1
添母屋
  0
LINE
  8
_0-4_図面枠
  6
CONTINUOUS
 62
    2
 10
857.55479000000196
 20
434.20470999999907
 11
688.1466700000019
 21
434.20470999999907
  0
LINE
  8
_0-4_図面枠
  6
CONTINUOUS
 62
    2
 10
767.72449000000233
 20
1359.0578099999989
 11
442.59565000000293
 21
795.91810999999689
  0
LINE
  8
_0-4_図面枠
  6
CONTINUOUS
 62
    2
 10
813.46677000000091
 20
1785.0273099999995
 11
726.82365000000391
 21
1935.0976099999971
  0
TEXT
  8
_0-4_図面枠
 62
    7
 10
659.54323000000295
 20
2192.6532321278264
 40
60.000000000000007
 41
0.8
 50
0.0000100000010064
  1
妻板
  0
LINE
  8
_0-4_図面枠
  6
CONTINUOUS
 62
    2
 10
761.94287000000259
 20
2182.6532099999999
 11
635.76261000000159
 21
2182.6532099999999
  0
TEXT
  8
_0-4_図面枠
 62
    7
 10
-1064.9377099999983
 20
3732.4484699999975
 40
200
 41
0.8
 50
0
  1
連続式ベンチレーター　標準ＳＣ型　　施工図
  0
LINE
  8
_0-4_図面枠
  6
CONTINUOUS
 62
    4
 10
-3177.4393899999968
 20
3984.1696699999993
 11
4565.8939499999979
 21
3984.1696699999993
  0
LINE
  8
_0-4_図面枠
  6
CONTINUOUS
 62
    4
 10
-3177.4393899999968
 20
3650.8363299999987
 11
4565.8939499999979
 21
3650.8363299999987
  0
LINE
  8
_0-4_図面枠
  6
CONTINUOUS
 62
    4
 10
-3177.4393899999968
 20
-1355.8303300000002
 11
4565.8939499999979
 21
-1355.8303300000002
  0
TEXT
  8
_0-4_図面枠
 62
    7
 10
715.73139000000447
 20
-339.06061000000227
 40
60
 41
0.8000000000000002
 50
0
  1
ＳＣ７５０
  0
LINE
  8
_0-4_図面枠
  6
CONTINUOUS
 62
    2
 10
641.40163000000211
 20
-222.45943000000034
 11
3290.3078299999979
 21
-222.45943000000034
  0
LINE
  8
_0-4_図面枠
  6
CONTINUOUS
 62
    2
 10
641.40163000000211
 20
-372.45943000000034
 11
3290.3078299999979
 21
-372.45943000000034
  0
TEXT
  8
_0-4_図面枠
 62
    7
 10
723.29791000000114
 20
-799.49678999999924
 40
60
 41
0.8000000000000001
 50
0
  1
ＳＣ１２００
  0
TEXT
  8
_0-4_図面枠
 62
    7
 10
726.66095000000132
 20
-654.04756999999836
 40
60
 41
0.8000000000000002
 50
0
  1
ＳＣ１０００
  0
TEXT
  8
_0-4_図面枠
 62
    7
 10
711.52729000000363
 20
-500.88541000000123
 40
60
 41
0.8
 50
0
  1
ＳＣ９００
  0
LINE
  8
_0-4_図面枠
  6
CONTINUOUS
 62
    2
 10
641.40163000000211
 20
-522.45942999999897
 11
3290.3078299999979
 21
-522.45942999999897
  0
LINE
  8
_0-4_図面枠
  6
CONTINUOUS
 62
    2
 10
641.40163000000211
 20
-672.45942999999897
 11
3290.3078299999979
 21
-672.45942999999897
  0
LINE
  8
_0-4_図面枠
  6
CONTINUOUS
 62
    2
 10
641.40163000000211
 20
-822.45942999999897
 11
3290.3078299999979
 21
-822.45942999999897
  0
TEXT
  8
_0-4_図面枠
 62
    7
 10
715.73139000000447
 20
-939.06053000000202
 40
60
 41
0.8
 50
0
  1
ＳＣ１５００
  0
LINE
  8
_0-4_図面枠
  6
CONTINUOUS
 62
    3
 10
-2007.5045699999982
 20
-972.45943000000034
 11
3290.3078299999979
 21
-972.45943000000034
  0
TEXT
  8
_0-4_図面枠
 62
    7
 10
738.28509000000304
 20
-193.05049000000099
 40
60
 41
0.8000000000000002
 50
0
  1
型　　式
  0
LINE
  8
_0-4_図面枠
  6
CONTINUOUS
 62
    2
 10
641.40163000000211
 20
-212.45943000000034
 11
3290.3078299999979
 21
-212.45943000000034
  0
LINE
  8
_0-4_図面枠
  6
CONTINUOUS
 62
    3
 10
3290.3078299999979
 20
-72.459429999998974
 11
641.40163000000211
 21
-72.459429999998974
  0
ARC
  8
_0-3_躯体と製品
  6
CONTINUOUS
 62
    3
 10
735.60313000000497
 20
1348.3214300000009
 40
28.610720000000001
 50
24.692922999995002
 51
155.48782100000079
  0
ARC
  8
_0-3_躯体と製品
  6
CONTINUOUS
 62
    3
 10
735.60313000000497
 20
1348.3214300000009
 40
34.610720000000001
 50
24.692922999995002
 51
155.48782100000079
  0
LINE
  8
_0-3_躯体と製品
  6
CONTINUOUS
 62
    4
 10
560.35893000000033
 20
1388.6047499999988
 11
810.35893000000397
 21
1388.6047499999988
  0
LINE
  8
_0-4_図面枠
  6
CONTINUOUS
 62
    4
 10
-3177.4393899999968
 20
3984.1696699999993
 11
-3177.4393899999968
 21
-1355.8303300000002
  0
ARC
  8
_0-3_躯体と製品
  6
CONTINUOUS
 62
    3
 10
541.07035000000178
 20
1377.3169700000008
 40
42.131099999999989
 50
203.12832000000424
 51
336.70039199999877
  0
ARC
  8
_0-3_躯体と製品
  6
CONTINUOUS
 62
    3
 10
541.07035000000178
 20
1377.3169700000008
 40
36.131099999999989
 50
203.12832000000424
 51
336.70039199999877
  0
LINE
  8
_0-4_図面枠
  6
CONTINUOUS
 62
    2
 10
647.85509000000275
 20
1390.1171699999979
 11
636.51535000000331
 21
1350.4761499999988
  0
LINE
  8
_0-4_図面枠
  6
CONTINUOUS
 62
    2
 10
647.85509000000275
 20
1390.1171699999979
 11
408.53647000000274
 21
975.60515000000078
  0
ARC
  8
_0-3_躯体と製品
  6
CONTINUOUS
 62
    3
 10
671.11109000000215
 20
1376.8729500000009
 40
42.131099999999989
 50
203.12832000000424
 51
336.70039199999877
  0
ARC
  8
_0-3_躯体と製品
  6
CONTINUOUS
 62
    3
 10
671.11109000000215
 20
1376.8729500000009
 40
36.131099999999989
 50
203.12832000000424
 51
336.70039199999877
  0
LINE
  8
_0-3_躯体と製品
  6
PLINE2
 62
    3
 10
-480.47162999999819
 20
1174.1472499999998
 11
-480.47162999999819
 21
1581.2654299999979
  0
LINE
  8
_0-3_躯体と製品
  6
PLINE2
 62
    3
 10
-486.47162999999455
 20
1175.9598899999989
 11
-486.47162999999455
 21
1581.2654299999979
  0
LINE
  8
_0-3_躯体と製品
  6
PLINE2
 62
    3
 10
-530.47162999999819
 20
1189.252590000001
 11
-530.47162999999819
 21
1581.2654299999979
  0
LINE
  8
_0-3_躯体と製品
  6
CONTINUOUS
 62
    2
 10
-459.99018999999862
 20
1226.4594100000018
 11
-980.97162999999819
 21
1383.8515099999988
  0
LINE
  8
_0-3_躯体と製品
  6
CONTINUOUS
 62
    4
 10
-246.47410999999738
 20
1167.1778899999979
 11
-980.97162999999819
 21
1389.0747099999999
  0
LINE
  8
_0-3_躯体と製品
  6
CONTINUOUS
 62
    3
 10
-1480.4716299999991
 20
1172.6432699999978
 11
-1480.4716299999991
 21
2120.387850000001
  0
LINE
  8
_0-3_躯体と製品
  6
PLINE5
 62
    3
 10
-1474.47163
 20
1174.4559100000008
 11
-1474.47163
 21
2061.4824499999977
  0
LINE
  8
_0-3_躯体と製品
  6
CONTINUOUS
 62
    3
 10
-1430.4716299999991
 20
1186.1447899999978
 11
-1430.4716299999991
 21
2137.7996899999962
  0
LINE
  8
_0-3_躯体と製品
  6
PLINE3
 62
    2
 10
-980.4716299999991
 20
2490.75387
 11
-980.4716299999991
 21
1161.7488700000008
  0
LINE
  8
_0-3_躯体と製品
  6
CONTINUOUS
 62
    3
 10
-1490.4716299999982
 20
1288.521230000001
 11
-1490.4716299999982
 21
1617.2635899999968
  0
LINE
  8
_0-3_躯体と製品
  6
CONTINUOUS
 62
    3
 10
-355.47162999999819
 20
1434.3664699999999
 11
-355.47162999999819
 21
1200.1067899999989
  0
LINE
  8
_0-3_躯体と製品
  6
CONTINUOUS
 62
    4
 10
-1480.9716299999982
 20
1238.0212299999989
 11
-1480.9716299999982
 21
1737.7996899999962
  0
TEXT
  8
_0-4_図面枠
 62
    7
 10
-1907.2567499999986
 20
-2617.5409900000031
 40
60
 41
0.8000000000000006
 50
0
  1
２０６０
  0
TEXT
  8
_0-4_図面枠
 62
    7
 10
-1908.4249499999969
 20
-3060.3476899999987
 40
60
 41
0.7999999999999993
 50
0
  1
３３００
  0
TEXT
  8
_0-4_図面枠
 62
    7
 10
-1903.9376499999998
 20
-2916.5107099999977
 40
60
 41
0.8000000000000006
 50
0
  1
２７５０
  0
TEXT
  8
_0-4_図面枠
 62
    7
 10
-1898.5335899999991
 20
-2770.4375699999991
 40
60
 41
0.8000000000000006
 50
0
  1
２４８０
  0
TEXT
  8
_0-4_図面枠
 62
    7
 10
-1908.4249499999969
 20
-3360.3478499999992
 40
60
 41
0.7999999999999993
 50
0
  1
５３４０
  0
TEXT
  8
_0-4_図面枠
 62
    7
 10
-1903.9376499999998
 20
-3216.5107099999996
 40
60
 41
0.8000000000000006
 50
0
  1
４０００
  0
LINE
  8
_0-4_図面枠
  6
CONTINUOUS
 62
    2
 10
-3724.8939499999997
 20
-3090.1696700000011
 11
-1354.4953299999979
 21
-3090.1696700000011
  0
LINE
  8
_0-4_図面枠
  6
CONTINUOUS
 62
    2
 10
-3724.8939499999997
 20
-2940.1696700000002
 11
-1354.4953299999979
 21
-2940.1696700000002
  0
LINE
  8
_0-4_図面枠
  6
CONTINUOUS
 62
    2
 10
-3724.8939499999997
 20
-2790.1696700000011
 11
-1354.4953299999979
 21
-2790.1696700000011
  0
LINE
  8
_0-4_図面枠
  6
CONTINUOUS
 62
    2
 10
-3724.8939499999997
 20
-2640.1696700000002
 11
-1354.4953299999979
 21
-2640.1696700000002
  0
LINE
  8
_0-4_図面枠
  6
CONTINUOUS
 62
    2
 10
-3724.8939499999997
 20
-2480.1696700000011
 11
-1354.4953299999979
 21
-2480.1696700000011
  0
LINE
  8
_0-4_図面枠
  6
CONTINUOUS
 62
    2
 10
-3724.8939499999997
 20
-2490.1696700000011
 11
-1354.4953299999979
 21
-2490.1696700000011
  0
LINE
  8
_0-4_図面枠
  6
CONTINUOUS
 62
    3
 10
-1354.4953299999979
 20
-2340.1696700000011
 11
-3724.8939499999997
 21
-2340.1696700000011
  0
LINE
  8
_0-4_図面枠
  6
CONTINUOUS
 62
    3
 10
-3724.8939499999997
 20
-3390.1696700000002
 11
-1354.4953299999979
 21
-3390.1696700000002
  0
LINE
  8
_0-4_図面枠
  6
CONTINUOUS
 62
    2
 10
-3724.8939499999997
 20
-3240.1696700000011
 11
-1354.4953299999979
 21
-3240.1696700000011
  0
TEXT
  8
_0-4_図面枠
 62
    7
 10
-3035.4256899999991
 20
-3063.3007300000017
 40
60
 41
0.8000000000000006
 50
0
  1
１２００
  0
TEXT
  8
_0-4_図面枠
 62
    7
 10
-3043.8320699999967
 20
-2901.8773900000006
 40
60
 41
0.7999999999999987
 50
0
  1
１０００
  0
TEXT
  8
_0-4_図面枠
 62
    7
 10
-3034.5840299999982
 20
-2755.5874099999983
 40
60
 41
0.8000000000000006
 50
0
  1
　９００
  0
TEXT
  8
_0-4_図面枠
 62
    7
 10
-3027.8579499999987
 20
-2612.6606300000012
 40
60
 41
0.8000000000000006
 50
0
  1
　７５０
  0
TEXT
  8
_0-4_図面枠
 62
    7
 10
-2946.8880899999976
 20
-2451.8329099999992
 40
60
 41
0.7999999999999982
 50
0
  1
Ａ
  0
TEXT
  8
_0-4_図面枠
 62
    7
 10
-3035.425089999997
 20
-3363.3005700000012
 40
60
 41
0.7999999999999987
 50
0
  1
２０００
  0
TEXT
  8
_0-4_図面枠
 62
    7
 10
-3043.8320699999967
 20
-3201.8773900000015
 40
60
 41
0.7999999999999987
 50
0
  1
１５００
  0
LINE
  8
_0-4_図面枠
  6
CONTINUOUS
 62
    2
 10
-3069.7589099999977
 20
-2340.1696700000011
 11
-3069.7589099999977
 21
-3090.1696700000011
  0
TEXT
  8
_0-4_図面枠
 62
    7
 10
-3229.3893099999987
 20
-2920.8359700000001
 40
60
 41
0.7999999999999982
 50
0
  1
ＨＬ
  0
TEXT
  8
_0-4_図面枠
 62
    7
 10
-3641.3168099999966
 20
-2922.945810000002
 40
60
 41
0.7999999999999999
 50
0
  1
ＳＣ１０００
  0
LINE
  8
_0-4_図面枠
  6
CONTINUOUS
 62
    3
 10
-3724.8939499999997
 20
-2340.1696700000011
 11
-3724.8939499999997
 21
-3090.1696700000011
  0
TEXT
  8
_0-4_図面枠
 62
    7
 10
-3639.6352899999974
 20
-3071.7577500000025
 40
60
 41
0.800000000000001
 50
0
  1
ＳＣ１２００
  0
TEXT
  8
_0-4_図面枠
 62
    7
 10
-3641.3168099999966
 20
-3222.9456500000024
 40
60
 41
0.7999999999999999
 50
0
  1
ＳＣ１５００
  0
TEXT
  8
_0-4_図面枠
 62
    7
 10
-3639.6352899999974
 20
-3371.7577500000025
 40
60
 41
0.800000000000001
 50
0
  1
ＳＣ２０００
  0
LINE
  8
_0-4_図面枠
  6
CONTINUOUS
 62
    3
 10
-3724.8939499999997
 20
-3090.1696700000011
 11
-3724.8939499999997
 21
-3390.1696700000002
  0
LINE
  8
_0-4_図面枠
  6
CONTINUOUS
 62
    2
 10
-3069.7589099999977
 20
-3090.1696700000011
 11
-3069.7589099999977
 21
-3390.1696700000002
  0
TEXT
  8
_0-4_図面枠
 62
    7
 10
-3229.3887100000002
 20
-3370.8359699999992
 40
60
 41
0.7999999999999982
 50
0
  1
ＨＬ
  0
TEXT
  8
_0-4_図面枠
 62
    7
 10
-3229.3887100000002
 20
-3220.8358300000018
 40
60
 41
0.7999999999999982
 50
0
  1
ＨＬ
  0
TEXT
  8
_0-4_図面枠
 62
    7
 10
-3229.3893099999987
 20
-3070.8359699999992
 40
60
 41
0.7999999999999982
 50
0
  1
ＨＬ
  0
TEXT
  8
_0-4_図面枠
 62
    7
 10
-3654.7689499999988
 20
-2618.5956900000028
 40
60
 41
0.800000000000001
 50
0
  1
ＳＣ　７５０
  0
TEXT
  8
_0-4_図面枠
 62
    7
 10
-3649.7243899999976
 20
-2776.6558299999997
 40
60
 41
0.800000000000001
 50
0
  1
ＳＣ　９００
  0
TEXT
  8
_0-4_図面枠
 62
    7
 10
-3628.011129999999
 20
-2460.7611300000008
 40
60
 41
0.8000000000000006
 50
0
  1
型　　式
  0
TEXT
  8
_0-4_図面枠
 62
    7
 10
-3229.3893099999987
 20
-2770.8359699999992
 40
60
 41
0.7999999999999982
 50
0
  1
ＨＬ
  0
TEXT
  8
_0-4_図面枠
 62
    7
 10
-3229.3893099999987
 20
-2620.8358300000018
 40
60
 41
0.7999999999999982
 50
0
  1
ＨＬ
  0
TEXT
  8
_0-4_図面枠
 62
    7
 10
-2327.076689999999
 20
-2903.2375499999998
 40
60
 41
0.8000000000000006
 50
0
  1
　１５０
  0
LINE
  8
_0-4_図面枠
  6
CONTINUOUS
 62
    2
 10
-2004.4953299999979
 20
-2340.1696700000011
 11
-2004.4953299999979
 21
-3090.1696700000011
  0
TEXT
  8
_0-4_図面枠
 62
    7
 10
-2638.6507899999979
 20
-2901.4696700000022
 40
60
 41
0.8000000000000006
 50
0
  1
１０１０
  0
LINE
  8
_0-4_図面枠
  6
CONTINUOUS
 62
    2
 10
-2329.1904899999972
 20
-2340.1696700000011
 11
-2329.1904899999972
 21
-3090.1696700000011
  0
LINE
  8
_0-4_図面枠
  6
CONTINUOUS
 62
    2
 10
-2729.1904899999972
 20
-2340.1696700000011
 11
-2729.1904899999972
 21
-3090.1696700000011
  0
TEXT
  8
_0-4_図面枠
 62
    7
 10
-2642.9079899999979
 20
-3361.6265300000005
 40
60
 41
0.8000000000000006
 50
0
  1
１９９０
  0
LINE
  8
_0-4_図面枠
  6
CONTINUOUS
 62
    2
 10
-2329.1904899999972
 20
-3090.1696700000011
 11
-2329.1904899999972
 21
-3390.1696700000002
  0
LINE
  8
_0-4_図面枠
  6
CONTINUOUS
 62
    2
 10
-2729.1904899999972
 20
-3090.1696700000011
 11
-2729.1904899999972
 21
-3390.1696700000002
  0
TEXT
  8
_0-4_図面枠
 62
    7
 10
-2638.6501699999981
 20
-3201.4698300000009
 40
60
 41
0.8000000000000006
 50
0
  1
１５６０
  0
TEXT
  8
_0-4_図面枠
 62
    7
 10
-2642.9073699999999
 20
-3061.6263900000013
 40
60
 41
0.8000000000000006
 50
0
  1
１２６０
  0
TEXT
  8
_0-4_図面枠
 62
    7
 10
-2308.4255699999967
 20
-3360.3478499999992
 40
60
 41
0.8000000000000006
 50
0
  1
　１５０
  0
LINE
  8
_0-4_図面枠
  6
CONTINUOUS
 62
    2
 10
-2004.4953299999979
 20
-3090.1696700000011
 11
-2004.4953299999979
 21
-3390.1696700000002
  0
TEXT
  8
_0-4_図面枠
 62
    7
 10
-2308.4255699999967
 20
-3210.3476900000005
 40
60
 41
0.8000000000000006
 50
0
  1
　１５０
  0
TEXT
  8
_0-4_図面枠
 62
    7
 10
-2327.076689999999
 20
-3053.2374100000025
 40
60
 41
0.8000000000000006
 50
0
  1
　１５０
  0
TEXT
  8
_0-4_図面枠
 62
    7
 10
-2643.3334100000002
 20
-2763.6225299999978
 40
60
 41
0.8000000000000006
 50
0
  1
　９２０
  0
TEXT
  8
_0-4_図面枠
 62
    7
 10
-2645.865749999999
 20
-2616.5775500000027
 40
60
 41
0.8000000000000006
 50
0
  1
　７７０
  0
TEXT
  8
_0-4_図面枠
 62
    7
 10
-2545.7949499999977
 20
-2456.6263100000024
 40
60
 41
0.7999999999999982
 50
0
  1
Ｉ
  0
TEXT
  8
_0-4_図面枠
 62
    7
 10
-2327.076689999999
 20
-2753.2375499999998
 40
60
 41
0.8000000000000006
 50
0
  1
　１５０
  0
TEXT
  8
_0-4_図面枠
 62
    7
 10
-2327.076689999999
 20
-2603.2374100000034
 40
60
 41
0.8000000000000006
 50
0
  1
　１５０
  0
TEXT
  8
_0-4_図面枠
 62
    7
 10
-2201.6293099999984
 20
-2448.6366499999995
 40
60
 41
0.7999999999999982
 50
0
  1
Ｊ
  0
TEXT
  8
_0-4_図面枠
 62
    7
 10
-1801.6293099999984
 20
-2448.6366499999995
 40
60
 41
0.7999999999999982
 50
0
  1
Ｅ
  0
TEXT
  8
_0-4_図面枠
 62
    7
 10
-1543.1197699999984
 20
-2923.0224099999996
 40
60
 41
0.7999999999999999
 50
0
  1
０．６
  0
LINE
  8
_0-4_図面枠
  6
CONTINUOUS
 62
    3
 10
-1354.4953299999979
 20
-2340.1696700000011
 11
-1354.4953299999979
 21
-3090.1696700000011
  0
LINE
  8
_0-4_図面枠
  6
CONTINUOUS
 62
    2
 10
-1604.4953299999979
 20
-2340.1696700000011
 11
-1604.4953299999979
 21
-3090.1696700000011
  0
TEXT
  8
_0-4_図面枠
 62
    7
 10
-1543.1197699999984
 20
-3373.0224099999996
 40
60
 41
0.7999999999999999
 50
0
  1
１．０
  0
LINE
  8
_0-4_図面枠
  6
CONTINUOUS
 62
    3
 10
-1354.4953299999979
 20
-3090.1696700000011
 11
-1354.4953299999979
 21
-3390.1696700000002
  0
LINE
  8
_0-4_図面枠
  6
CONTINUOUS
 62
    2
 10
-1604.4953299999979
 20
-3090.1696700000011
 11
-1604.4953299999979
 21
-3390.1696700000002
  0
TEXT
  8
_0-4_図面枠
 62
    7
 10
-1543.1197699999984
 20
-3073.0224099999996
 40
60
 41
0.7999999999999999
 50
0
  1
０．８
  0
TEXT
  8
_0-4_図面枠
 62
    7
 10
-1543.1197699999984
 20
-3223.02225
 40
60
 41
0.7999999999999999
 50
0
  1
０．８
  0
TEXT
  8
_0-4_図面枠
 62
    7
 10
-1547.5497099999984
 20
-2457.4257099999995
 40
60
 41
0.7999999999999987
 50
0
  1
板厚
  0
TEXT
  8
_0-4_図面枠
 62
    7
 10
-1543.1197699999984
 20
-2773.0224099999996
 40
60
 41
0.7999999999999999
 50
0
  1
０．６
  0
TEXT
  8
_0-4_図面枠
 62
    7
 10
-1543.1197699999984
 20
-2623.0224099999996
 40
60
 41
0.7999999999999999
 50
0
  1
０．６
  0
LINE
  8
_0-4_図面枠
  6
CONTINUOUS
 62
    2
 10
-1498.8523299999979
 20
1065.5112899999988
 11
-1961.1621699999987
 21
264.76712999999972
  0
LINE
  8
_0-4_図面枠
  6
CONTINUOUS
 62
    2
 10
-1669.4589499999984
 20
1150.3459100000009
 11
-1960.4909099999986
 21
646.26377000000002
  0
LINE
  8
_0-4_図面枠
  6
CONTINUOUS
 62
    2
 10
-1576.7017499999974
 20
1209.3072299999988
 11
-2014.1450499999974
 21
451.63320999999905
  0
TEXT
  8
_0-4_図面枠
 62
    7
 10
-1910.6212299999988
 20
-193.05049000000099
 40
60
 41
0.8000000000000006
 50
0
  1
型　　式
  0
TEXT
  8
_0-4_図面枠
 62
    7
 10
-1925.6084099999989
 20
-949.49686999999903
 40
60
 41
0.8000000000000001
 50
0
  1
ＳＣ６００
  0
TEXT
  8
_0-4_図面枠
 62
    7
 10
-1922.245369999996
 20
-804.04772999999796
 40
60
 41
0.8000000000000001
 50
0
  1
ＳＣ５００
  0
TEXT
  8
_0-4_図面枠
 62
    7
 10
-1923.9268899999988
 20
-655.23555000000306
 40
60
 41
0.8000000000000001
 50
0
  1
ＳＣ４５０
  0
TEXT
  8
_0-4_図面枠
 62
    7
 10
-1932.3344900000002
 20
-508.94570999999814
 40
60
 41
0.8000000000000001
 50
0
  1
ＳＣ４００
  0
TEXT
  8
_0-4_図面枠
 62
    7
 10
-1937.3790499999968
 20
-350.88526999999931
 40
60
 41
0.8000000000000001
 50
0
  1
ＳＣ３００
  0
LINE
  8
_0-4_図面枠
  6
CONTINUOUS
 62
    2
 10
-2007.5045699999982
 20
-222.45943000000034
 11
641.40163000000211
 21
-222.45943000000034
  0
LINE
  8
_0-4_図面枠
  6
CONTINUOUS
 62
    2
 10
-2007.5045699999982
 20
-212.45943000000034
 11
641.40163000000211
 21
-212.45943000000034
  0
LINE
  8
_0-4_図面枠
  6
CONTINUOUS
 62
    2
 10
-2007.5045699999982
 20
-372.45943000000034
 11
641.40163000000211
 21
-372.45943000000034
  0
LINE
  8
_0-4_図面枠
  6
CONTINUOUS
 62
    2
 10
-2007.5045699999982
 20
-522.45942999999897
 11
641.40163000000211
 21
-522.45942999999897
  0
LINE
  8
_0-4_図面枠
  6
CONTINUOUS
 62
    2
 10
-2007.5045699999982
 20
-672.45942999999897
 11
641.40163000000211
 21
-672.45942999999897
  0
LINE
  8
_0-4_図面枠
  6
CONTINUOUS
 62
    2
 10
-2007.5045699999982
 20
-822.45942999999897
 11
641.40163000000211
 21
-822.45942999999897
  0
LINE
  8
_0-4_図面枠
  6
CONTINUOUS
 62
    3
 10
641.40163000000211
 20
-72.459429999998974
 11
-2007.5045699999982
 21
-72.459429999998974
  0
LINE
  8
_0-3_躯体と製品
  6
CONTINUOUS
 62
    2
 10
-1501.9530499999973
 20
1226.4594100000018
 11
-1994.0158099999971
 21
1077.8038099999999
  0
LINE
  8
_0-3_躯体と製品
  6
CONTINUOUS
 62
    2
 10
-1528.8350899999987
 20
1159.8384099999969
 11
-1977.8207299999995
 21
1024.1967299999978
  0
LINE
  8
_0-3_躯体と製品
  6
CONTINUOUS
 62
    2
 10
-1487.4931499999975
 20
1178.5959300000009
 11
-1979.5559099999964
 21
1029.9403500000008
  0
LINE
  8
_0-3_躯体と製品
  6
CONTINUOUS
 62
    4
 10
-1715.4691299999968
 20
1167.1778899999979
 11
-1480.9716299999982
 21
1238.0212299999989
  0
LINE
  8
_0-4_図面枠
  6
CONTINUOUS
 62
    3
 10
-2007.5045699999982
 20
-72.459429999998974
 11
-2007.5045699999982
 21
-972.45943000000034
  0
TEXT
  8
_0-4_図面枠
 62
    7
 10
-2174.1443299999946
 20
461.63302207472907
 40
59.999999999999979
 41
0.8000000000000001
 50
0.0000100000009951
  1
水切板
  0
TEXT
  8
_0-4_図面枠
 62
    7
 10
-2117.9621499999957
 20
274.76686263323472
 40
60
 41
0.7999999999999999
 50
0.0000100000010064
  1
添母屋
  0
LINE
  8
_0-4_図面枠
  6
CONTINUOUS
 62
    2
 10
-1961.1621699999987
 20
264.76712999999972
 11
-2130.5702899999978
 21
264.76712999999972
  0
LINE
  8
_0-4_図面枠
  6
CONTINUOUS
 62
    2
 10
-2014.1450499999974
 20
451.63320999999905
 11
-2194.7450499999977
 21
451.63320999999905
  0
TEXT
  8
_0-4_図面枠
 62
    7
 10
-2466.091149999992
 20
656.26340175614496
 40
60.000000000000007
 41
0.8000000000000006
 50
0.0000100000010139
  1
ケミカルメンド処理
  0
LINE
  8
_0-4_図面枠
  6
CONTINUOUS
 62
    2
 10
-1960.4909099999986
 20
646.26377000000002
 11
-2416.5698699999994
 21
646.26377000000002
  0
TEXT
  8
_0-4_図面枠
 62
    7
 10
-2410.3456699999924
 20
821.70227191543881
 40
60.000000000000007
 41
0.7999999999999998
 50
0.0000100000010064
  1
スレート大波
  0
LINE
  8
_0-4_図面枠
  6
CONTINUOUS
 62
    2
 10
-2077.5457299999971
 20
811.70281000000091
 11
-2392.5674099999978
 21
811.70281000000091
  0
LINE
  8
_0-4_図面枠
  6
CONTINUOUS
 62
    2
 10
-1927.9342499999984
 20
1070.837510000001
 11
-2077.5457299999971
 21
811.70281000000091
  0
LINE
  8
_0-4_図面枠
  6
CONTINUOUS
 62
    2
 10
-1927.9342499999984
 20
1070.837510000001
 11
-1939.2739899999988
 21
1031.1964899999969
  0
LINE
  8
_0-3_躯体と製品
  6
CONTINUOUS
 62
    4
 10
-1720.5128099999984
 20
1163.1257899999989
 11
-1715.4691299999968
 21
1167.1778899999979
  0
LINE
  8
_0-4_図面枠
  6
CONTINUOUS
 62
    2
 10
634.40163000000211
 20
-72.459429999998974
 11
634.40163000000211
 21
-972.45943000000034
  0
LINE
  8
_0-4_図面枠
  6
CONTINUOUS
 62
    2
 10
648.40163000000211
 20
-72.459429999998974
 11
648.40163000000211
 21
-972.45943000000034
  0
LINE
  8
_0-4_図面枠
  6
CONTINUOUS
 62
    2
 10
91.401630000002115
 20
-72.459429999998974
 11
91.401630000002115
 21
-972.45943000000034
  0
LINE
  8
_0-4_図面枠
  6
CONTINUOUS
 62
    2
 10
-1508.5983699999979
 20
-72.459429999998974
 11
-1508.5983699999979
 21
-972.45943000000034
  0
LINE
  8
_0-4_図面枠
  6
CONTINUOUS
 62
    2
 10
-1108.5983699999979
 20
-72.459429999998974
 11
-1108.5983699999979
 21
-972.45943000000034
  0
LINE
  8
_0-4_図面枠
  6
CONTINUOUS
 62
    2
 10
-708.59836999999607
 20
-72.459429999998974
 11
-708.59836999999607
 21
-972.45943000000034
  0
LINE
  8
_0-4_図面枠
  6
CONTINUOUS
 62
    2
 10
-308.59836999999607
 20
-72.459429999998974
 11
-308.59836999999607
 21
-972.45943000000034
  0
LINE
  8
_0-4_図面枠
  6
CONTINUOUS
 62
    2
 10
341.40163000000211
 20
-72.459429999998974
 11
341.40163000000211
 21
-972.45943000000034
  0
TEXT
  8
_0-4_図面枠
 62
    7
 10
-1339.6079699999982
 20
-353.40752999999995
 40
60
 41
0.7999999999999999
 50
0
  1
３００
  0
TEXT
  8
_0-4_図面枠
 62
    7
 10
152.77729000000181
 20
-355.31199000000106
 40
60
 41
0.8000000000000001
 50
0
  1
０．６
  0
TEXT
  8
_0-4_図面枠
 62
    7
 10
-939.6078099999977
 20
-353.40752999999995
 40
60
 41
0.7999999999999999
 50
0
  1
３００
  0
TEXT
  8
_0-4_図面枠
 62
    7
 10
-139.64092999999593
 20
-351.84123000000136
 40
60
 41
0.8000000000000003
 50
0
  1
６００
  0
TEXT
  8
_0-4_図面枠
 62
    7
 10
-612.52850999999828
 20
-792.63759000000027
 40
60
 41
0.8
 50
0
  1
　１００
  0
TEXT
  8
_0-4_図面枠
 62
    7
 10
-621.20524999999907
 20
-941.88357000000133
 40
60
 41
0.8
 50
0
  1
　１５０
  0
TEXT
  8
_0-4_図面枠
 62
    7
 10
-612.52850999999828
 20
-642.63759000000027
 40
60
 41
0.8
 50
0
  1
　１００
  0
TEXT
  8
_0-4_図面枠
 62
    7
 10
-612.52850999999828
 20
-492.63751000000002
 40
60
 41
0.8
 50
0
  1
　１００
  0
TEXT
  8
_0-4_図面枠
 62
    7
 10
-1347.1751100000001
 20
-804.04772999999796
 40
60
 41
0.7999999999999999
 50
0
  1
５００
  0
TEXT
  8
_0-4_図面枠
 62
    7
 10
-1343.812069999999
 20
-945.29315000000315
 40
60
 41
0.7999999999999999
 50
0
  1
６００
  0
TEXT
  8
_0-4_図面枠
 62
    7
 10
-1355.582089999999
 20
-642.62444999999934
 40
60
 41
0.7999999999999999
 50
0
  1
４５０
  0
TEXT
  8
_0-4_図面枠
 62
    7
 10
-1346.3340499999995
 20
-496.33440999999993
 40
60
 41
0.800000000000001
 50
0
  1
４００
  0
TEXT
  8
_0-4_図面枠
 62
    7
 10
-947.17494999999872
 20
-804.04772999999796
 40
60
 41
0.7999999999999999
 50
0
  1
５００
  0
TEXT
  8
_0-4_図面枠
 62
    7
 10
-943.81190999999762
 20
-945.29315000000315
 40
60
 41
0.7999999999999999
 50
0
  1
６００
  0
TEXT
  8
_0-4_図面枠
 62
    7
 10
-946.33388999999806
 20
-496.33440999999993
 40
60
 41
0.7999999999999999
 50
0
  1
４００
  0
TEXT
  8
_0-4_図面枠
 62
    7
 10
-955.58192999999937
 20
-642.62444999999934
 40
60
 41
0.7999999999999999
 50
0
  1
４５０
  0
TEXT
  8
_0-4_図面枠
 62
    7
 10
-212.52850999999828
 20
-792.63759000000027
 40
60
 41
0.8000000000000002
 50
0
  1
１０００
  0
TEXT
  8
_0-4_図面枠
 62
    7
 10
-221.20524999999907
 20
-941.88357000000133
 40
60
 41
0.8
 50
0
  1
１２００
  0
TEXT
  8
_0-4_図面枠
 62
    7
 10
-141.37614999999823
 20
-650.33319000000211
 40
60
 41
0.8000000000000001
 50
0
  1
９００
  0
TEXT
  8
_0-4_図面枠
 62
    7
 10
-139.64092999999593
 20
-493.27777000000015
 40
60
 41
0.8000000000000003
 50
0
  1
８００
  0
TEXT
  8
_0-4_図面枠
 62
    7
 10
152.77729000000181
 20
-805.31221000000323
 40
60
 41
0.8000000000000001
 50
0
  1
０．６
  0
TEXT
  8
_0-4_図面枠
 62
    7
 10
398.98578999999881
 20
-787.91407000000208
 40
60
 41
0.8000000000000001
 50
0
  1
Ｌ型鋼
  0
TEXT
  8
_0-4_図面枠
 62
    7
 10
398.98578999999881
 20
-937.91415000000234
 40
60
 41
0.8000000000000001
 50
0
  1
Ｌ型鋼
  0
TEXT
  8
_0-4_図面枠
 62
    7
 10
152.77729000000181
 20
-955.31221000000323
 40
60
 41
0.8000000000000001
 50
0
  1
０．６
  0
TEXT
  8
_0-4_図面枠
 62
    7
 10
398.98578999999881
 20
-637.91407000000208
 40
60
 41
0.8000000000000001
 50
0
  1
Ｌ型鋼
  0
TEXT
  8
_0-4_図面枠
 62
    7
 10
152.77729000000181
 20
-655.31215000000111
 40
60
 41
0.8000000000000001
 50
0
  1
０．６
  0
TEXT
  8
_0-4_図面枠
 62
    7
 10
152.77729000000181
 20
-505.31215000000111
 40
60
 41
0.8000000000000001
 50
0
  1
０．６
  0
TEXT
  8
_0-4_図面枠
 62
    7
 10
430.04963000000134
 20
-496.58205000000225
 40
60
 41
0.8000000000000001
 50
0
  1
ＦＢ
  0
TEXT
  8
_0-4_図面枠
 62
    7
 10
-505.7322299999978
 20
-180.92631000000119
 40
60
 41
0.8000000000000006
 50
0
  1
Ｊ
  0
TEXT
  8
_0-4_図面枠
 62
    7
 10
-612.52850999999828
 20
-342.63743000000022
 40
60
 41
0.8
 50
0
  1
　１００
  0
LINE
  8
_0-3_躯体と製品
  6
CONTINUOUS
 62
    2
 10
-507.02452999999878
 20
1080.1079299999988
 11
-463.5644899999952
 21
1066.978349999999
  0
LINE
  8
_0-3_躯体と製品
  6
CONTINUOUS
 62
    2
 10
-509.89138999999705
 20
1078.571369999999
 11
-462.02792999999838
 21
1064.1114699999978
  0
LINE
  8
_0-3_躯体と製品
  6
CONTINUOUS
 62
    2
 10
-480.97162999999637
 20
1174.2983099999988
 11
-509.89138999999705
 21
1078.571369999999
  0
LINE
  8
_0-3_躯体と製品
  6
PLINE3
 62
    2
 10
-980.97162999999819
 20
1199.9952299999989
 11
-18.826249999998254
 21
909.32440999999881
  0
LINE
  8
_0-3_躯体と製品
  6
CONTINUOUS
 62
    2
 10
-479.43504999999823
 20
1171.4314299999969
 11
-507.02452999999878
 21
1080.1079299999988
  0
CIRCLE
  8
_0-3_躯体と製品
  6
CONTINUOUS
 62
    3
 10
-481.30472999999802
 20
1174.3989300000019
 40
5
  0
LINE
  8
_0-3_躯体と製品
  6
CONTINUOUS
 62
    2
 10
-980.97162999999819
 20
1325.3517899999988
 11
-476.18526999999631
 21
1172.8523099999979
  0
LINE
  8
_0-3_躯体と製品
  6
CONTINUOUS
 62
    2
 10
-474.45008999999845
 20
1178.5959300000009
 11
-980.97162999999819
 21
1331.6196100000018
  0
TEXT
  8
_0-4_図面枠
 62
    7
 10
-1326.2955899999979
 20
-184.12227000000303
 40
60
 41
0.800000000000002
 50
0
  1
Ａ
  0
TEXT
  8
_0-4_図面枠
 62
    7
 10
-925.20228999999836
 20
-188.91611000000012
 40
60
 41
0.7999999999999982
 50
0
  1
Ｉ
  0
TEXT
  8
_0-4_図面枠
 62
    7
 10
-1414.6177299999981
 20
969.90666999999985
 40
60
 41
0.8000000000000003
 50
0
  1
現場溶接
  0
LINE
  8
_0-4_図面枠
  6
CONTINUOUS
 62
    2
 10
-1669.4589499999984
 20
1150.3459100000009
 11
-1680.7986899999978
 21
1110.7048900000009
  0
LINE
  8
_0-3_躯体と製品
  6
CONTINUOUS
 62
    3
 10
-1430.4716299999991
 20
1186.1447899999978
 11
-1402.4958499999993
 21
1093.5425699999989
  0
LINE
  8
_0-3_躯体と製品
  6
PLINE5
 62
    3
 10
-1474.47163
 20
1174.4559100000008
 11
-1446.051849999998
 21
1080.3840100000018
  0
LINE
  8
_0-3_躯体と製品
  6
CONTINUOUS
 62
    2
 10
-1480.9716299999982
 20
1174.2983099999988
 11
-1452.0518499999989
 21
1078.571369999999
  0
LINE
  8
_0-3_躯体と製品
  6
CONTINUOUS
 62
    2
 10
-1691.3958699999976
 20
1174.4505900000008
 11
-1675.4899899999964
 21
1121.8007699999989
  0
LINE
  8
_0-3_躯体と製品
  6
CONTINUOUS
 62
    2
 10
-1662.6777899999979
 20
1183.1265299999989
 11
-1646.7719099999977
 21
1130.4767099999979
  0
LINE
  8
_0-3_躯体と製品
  6
CONTINUOUS
 62
    5
 10
-1681.0753299999978
 20
1140.2887299999968
 11
-1657.0289099999982
 21
1164.4282299999979
  0
LINE
  8
_0-3_躯体と製品
  6
CONTINUOUS
 62
    5
 10
-1671.1515499999996
 20
1121.9118500000009
 11
-1650.4597499999982
 21
1142.6837500000008
  0
LINE
  8
_0-3_躯体と製品
  6
CONTINUOUS
 62
    2
 10
-1520.8494099999971
 20
1141.3581899999999
 11
-1525.9682099999964
 21
1158.3018500000019
  0
LINE
  8
_0-3_躯体と製品
  6
CONTINUOUS
 62
    2
 10
-1482.5081899999968
 20
1171.4314299999969
 11
-1454.918709999999
 21
1080.1079299999988
  0
LINE
  8
_0-3_躯体と製品
  6
CONTINUOUS
 62
    2
 10
-1523.051129999998
 20
1140.693029999997
 11
-1528.8350899999987
 21
1159.8384099999969
  0
LINE
  8
_0-4_図面枠
  6
CONTINUOUS
 62
    2
 10
-1498.8523299999979
 20
1065.5112899999988
 11
-1530.1920699999982
 21
991.22926999999891
  0
LINE
  8
_0-4_図面枠
  6
CONTINUOUS
 62
    2
 10
-1463.8194499999972
 20
1125.710509999999
 11
-1446.5558699999974
 21
1127.8684699999978
  0
LINE
  8
_0-4_図面枠
  6
CONTINUOUS
 62
    2
 10
-1446.5558699999974
 20
1127.8684699999978
 11
-1436.8458099999989
 21
1116.6517900000008
  0
LINE
  8
_0-4_図面枠
  6
CONTINUOUS
 62
    2
 10
-1436.8458099999989
 20
1116.6517900000008
 11
-1433.1766099999986
 21
1098.0888099999988
  0
LINE
  8
_0-4_図面枠
  6
CONTINUOUS
 62
    2
 10
-1433.1766099999986
 20
1098.0888099999988
 11
-1434.6479499999959
 21
1070.5976099999989
  0
LINE
  8
_0-4_図面枠
  6
CONTINUOUS
 62
    2
 10
-1434.6479499999959
 20
1070.5976099999989
 11
-1444.3979300000001
 21
1046.2981299999999
  0
LINE
  8
_0-4_図面枠
  6
CONTINUOUS
 62
    2
 10
-1444.3979300000001
 20
1046.2981299999999
 11
-1455.8759099999997
 21
1028.7283500000008
  0
LINE
  8
_0-4_図面枠
  6
CONTINUOUS
 62
    2
 10
-1455.8759099999997
 20
1028.7283500000008
 11
-1461.2299099999982
 21
1010.4762299999988
  0
LINE
  8
_0-4_図面枠
  6
CONTINUOUS
 62
    2
 10
-1461.2299099999982
 20
1010.4762299999988
 11
-1454.4073299999991
 21
993.93904999999882
  0
LINE
  8
_0-4_図面枠
  6
CONTINUOUS
 62
    2
 10
-1454.4073299999991
 20
993.93904999999882
 11
-1440.0820499999982
 21
983.7177099999999
  0
LINE
  8
_0-4_図面枠
  6
CONTINUOUS
 62
    2
 10
-1440.0820499999982
 20
983.7177099999999
 11
-1421.9552899999971
 21
985.0124700000008
  0
LINE
  8
_0-3_躯体と製品
  6
CONTINUOUS
 62
    2
 10
-1454.918709999999
 20
1080.1079299999988
 11
-1498.378749999998
 21
1066.978349999999
  0
LINE
  8
_0-3_躯体と製品
  6
CONTINUOUS
 62
    2
 10
-1452.0518499999989
 20
1078.571369999999
 11
-1499.9153099999976
 21
1064.1114699999978
  0
LINE
  8
_0-3_躯体と製品
  6
CONTINUOUS
 62
    2
 10
-1520.8494099999971
 20
1141.3581899999999
 11
-1523.051129999998
 21
1140.693029999997
  0
LINE
  8
_0-3_躯体と製品
  6
CONTINUOUS
 62
    2
 10
-1498.378749999998
 20
1066.978349999999
 11
-1503.4975499999982
 21
1083.9220299999979
  0
LINE
  8
_0-3_躯体と製品
  6
CONTINUOUS
 62
    2
 10
-1503.4975499999982
 20
1083.9220299999979
 11
-1505.6992700000001
 21
1083.2568699999999
  0
LINE
  8
_0-3_躯体と製品
  6
CONTINUOUS
 62
    2
 10
-1499.9153099999976
 20
1064.1114699999978
 11
-1505.6992700000001
 21
1083.2568699999999
  0
LINE
  8
_0-3_躯体と製品
  6
CONTINUOUS
 62
    3
 10
-1402.4958499999993
 20
1093.5425699999989
 11
-1452.0518499999989
 21
1078.571369999999
  0
LINE
  8
_0-4_図面枠
  6
CONTINUOUS
 62
    2
 10
-1465.0291099999995
 20
1125.5004299999969
 11
-1454.013869999997
 21
1131.8600699999979
  0
LINE
  8
_0-3_躯体と製品
  6
CONTINUOUS
 62
    5
 10
-1668.3350099999971
 20
1181.4174300000009
 11
-1687.6444899999988
 21
1162.0332099999989
  0
LINE
  8
_0-4_図面枠
  6
CONTINUOUS
 62
    2
 10
-1576.7017499999974
 20
1209.3072299999988
 11
-1588.0414899999987
 21
1169.6662099999999
  0
CIRCLE
  8
_0-3_躯体と製品
  6
CONTINUOUS
 62
    3
 10
-1480.9716299999982
 20
1174.2983099999988
 40
5
  0
LINE
  8
_0-3_躯体と製品
  6
CONTINUOUS
 62
    2
 10
-1528.8350899999987
 20
1159.8384099999969
 11
-1480.9716299999982
 21
1174.2983099999988
  0
LINE
  8
_0-3_躯体と製品
  6
CONTINUOUS
 62
    2
 10
-1525.9682099999964
 20
1158.3018500000019
 11
-1482.5081899999968
 21
1171.4314299999969
  0
LINE
  8
_0-3_躯体と製品
  6
CONTINUOUS
 62
    2
 10
-1501.9530499999973
 20
1226.4594100000018
 11
-1485.7579699999987
 21
1172.8523099999979
  0
LINE
  8
_0-3_躯体と製品
  6
CONTINUOUS
 62
    2
 10
-1500.9716299999991
 20
1318.3235699999968
 11
-1460.9716299999982
 21
1318.3235699999968
  0
LINE
  8
_0-3_躯体と製品
  6
CONTINUOUS
 62
    3
 10
-1480.4716299999991
 20
1288.521230000001
 11
-1490.4716299999982
 21
1288.521230000001
  0
LINE
  8
_0-3_躯体と製品
  6
CONTINUOUS
 62
    2
 10
-978.2216299999991
 20
1167.4882500000008
 11
-978.2216299999991
 21
1024.4106700000018
  0
LINE
  8
_0-3_躯体と製品
  6
CONTINUOUS
 62
    2
 10
-983.72162999999819
 20
1167.4882500000008
 11
-983.72162999999819
 21
1024.4106700000018
  0
LINE
  8
_0-3_躯体と製品
  6
CONTINUOUS
 62
    2
 10
-983.72162999999819
 20
1169.488249999999
 11
-983.72162999999819
 21
1024.4106700000018
  0
LINE
  8
_0-3_躯体と製品
  6
CONTINUOUS
 62
    2
 10
-908.4716299999991
 20
1169.488249999999
 11
-976.22162999999819
 21
1169.488249999999
  0
LINE
  8
_0-3_躯体と製品
  6
CONTINUOUS
 62
    2
 10
-1055.4716299999991
 20
1177.4882500000008
 11
-906.47162999999637
 21
1177.4882500000008
  0
LINE
  8
_0-3_躯体と製品
  6
CONTINUOUS
 62
    2
 10
-1053.4716299999991
 20
1169.488249999999
 11
-985.72163
 21
1169.488249999999
  0
LINE
  8
_0-3_躯体と製品
  6
CONTINUOUS
 62
    2
 10
-1055.4716299999991
 20
1171.4882499999969
 11
-1055.4716299999991
 21
1177.4882500000008
  0
ARC
  8
_0-3_躯体と製品
  6
CONTINUOUS
 62
    2
 10
-1053.4716299999991
 20
1171.4882499999969
 40
2
 50
180
 51
270
  0
ARC
  8
_0-3_躯体と製品
  6
CONTINUOUS
 62
    2
 10
-976.22162999999819
 20
1167.4882500000008
 40
2
 50
90
 51
180
  0
ARC
  8
_0-3_躯体と製品
  6
CONTINUOUS
 62
    2
 10
-985.72163
 20
1167.4882500000008
 40
2
 50
0
 51
90
  0
ARC
  8
_0-3_躯体と製品
  6
CONTINUOUS
 62
    2
 10
-908.4716299999991
 20
1171.4882499999969
 40
2
 50
270
 51
0
  0
LINE
  8
_0-3_躯体と製品
  6
CONTINUOUS
 62
    2
 10
-906.47162999999637
 20
1171.4882499999969
 11
-906.47162999999637
 21
1177.4882500000008
  0
LINE
  8
_0-3_躯体と製品
  6
PLINE2
 62
    3
 10
-486.97162999999819
 20
1176.1109499999968
 11
-515.89138999999886
 21
1080.3840100000018
  0
LINE
  8
_0-3_躯体と製品
  6
CONTINUOUS
 62
    3
 10
-530.52762999999686
 20
1189.2695099999989
 11
-559.44739000000118
 21
1093.5425699999989
  0
LINE
  8
_0-3_躯体と製品
  6
CONTINUOUS
 62
    3
 10
-559.44739000000118
 20
1093.5425699999989
 11
-509.89138999999705
 21
1078.571369999999
  0
TEXT
  8
_0-4_図面枠
 62
    7
 10
-105.73222999999962
 20
-180.92631000000119
 40
60
 41
0.8000000000000003
 50
0
  1
Ｅ
  0
TEXT
  8
_0-4_図面枠
 62
    7
 10
422.4013100000011
 20
-188.91611000000012
 40
60
 41
0.8000000000000002
 50
0
  1
支柱
  0
TEXT
  8
_0-4_図面枠
 62
    7
 10
148.34735000000364
 20
-189.7152100000003
 40
60
 41
0.8
 50
0
  1
板厚
  0
TEXT
  8
_0-4_図面枠
 62
    7
 10
430.04963000000134
 20
-346.581970000002
 40
60
 41
0.8000000000000001
 50
0
  1
ＦＢ
  0
LINE
  8
_0-4_図面枠
  6
CONTINUOUS
 62
    2
 10
442.59565000000293
 20
795.91810999999689
 11
120.18271000000277
 21
795.91810999999689
  0
LINE
  8
_0-3_躯体と製品
  6
CONTINUOUS
 62
    2
 10
-474.45008999999845
 20
1178.5959300000009
 11
17.612670000002254
 21
1029.9403500000008
  0
LINE
  8
_0-3_躯体と製品
  6
CONTINUOUS
 62
    2
 10
-459.99018999999862
 20
1226.4594100000018
 11
32.072570000002088
 21
1077.8038099999999
  0
LINE
  8
_0-3_躯体と製品
  6
CONTINUOUS
 62
    2
 10
-433.1081499999982
 20
1159.8384099999969
 11
15.877490000002581
 21
1024.1967299999978
  0
LINE
  8
_0-3_躯体と製品
  6
CONTINUOUS
 62
    2
 10
-438.89210999999523
 20
1140.693029999997
 11
-433.1081499999982
 21
1159.8384099999969
  0
LINE
  8
_0-3_躯体と製品
  6
PLINE2
 62
    2
 10
-270.54736999999841
 20
1174.4505900000008
 11
-286.45324999999866
 21
1121.8007699999989
  0
LINE
  8
_0-3_躯体と製品
  6
PLINE2
 62
    2
 10
-299.26544999999714
 20
1183.1265299999989
 11
-315.1713299999974
 21
1130.4767099999979
  0
LINE
  8
_0-3_躯体と製品
  6
CONTINUOUS
 62
    5
 10
-280.86790999999539
 20
1140.2887299999968
 11
-304.91432999999597
 21
1164.4282299999979
  0
LINE
  8
_0-3_躯体と製品
  6
CONTINUOUS
 62
    5
 10
-290.79168999999638
 20
1121.9118500000009
 11
-311.48348999999689
 21
1142.6837500000008
  0
LINE
  8
_0-3_躯体と製品
  6
CONTINUOUS
 62
    2
 10
-441.09382999999798
 20
1141.3581899999999
 11
-435.97502999999779
 21
1158.3018500000019
  0
LINE
  8
_0-3_躯体と製品
  6
CONTINUOUS
 62
    2
 10
-462.02792999999838
 20
1064.1114699999978
 11
-456.24397000000135
 21
1083.2568699999999
  0
LINE
  8
_0-3_躯体と製品
  6
CONTINUOUS
 62
    2
 10
-463.5644899999952
 20
1066.978349999999
 11
-458.44568999999501
 21
1083.9220299999979
  0
LINE
  8
_0-3_躯体と製品
  6
CONTINUOUS
 62
    2
 10
-458.44568999999501
 20
1083.9220299999979
 11
-456.24397000000135
 21
1083.2568699999999
  0
LINE
  8
_0-3_躯体と製品
  6
CONTINUOUS
 62
    2
 10
-441.09382999999798
 20
1141.3581899999999
 11
-438.89210999999523
 21
1140.693029999997
  0
LINE
  8
_0-3_躯体と製品
  6
CONTINUOUS
 62
    2
 10
-433.1081499999982
 20
1159.8384099999969
 11
-480.97162999999637
 21
1174.2983099999988
  0
LINE
  8
_0-3_躯体と製品
  6
CONTINUOUS
 62
    2
 10
-435.97502999999779
 20
1158.3018500000019
 11
-479.43504999999823
 21
1171.4314299999969
  0
LINE
  8
_0-3_躯体と製品
  6
PLINE2
 62
    2
 10
-459.99018999999862
 20
1226.4594100000018
 11
-476.18526999999631
 21
1172.8523099999979
  0
LINE
  8
_0-3_躯体と製品
  6
CONTINUOUS
 62
    5
 10
-293.608229999998
 20
1181.4174300000009
 11
-274.29874999999811
 21
1162.0332099999989
  0
LINE
  8
_0-3_躯体と製品
  6
CONTINUOUS
 62
    4
 10
-241.43045000000166
 20
1163.1257899999989
 11
-246.47410999999738
 21
1167.1778899999979
  0
TEXT
  8
_0-4_図面枠
 62
    7
 10
109.79571000000578
 20
805.91735191543785
 40
60.000000000000007
 41
0.8
 50
0.0000100000010064
  1
スレート大波
  0
TEXT
  8
_0-4_図面枠
 62
    7
 10
248.53657000000385
 20
985.60488207473088
 40
60.000000000000007
 41
0.8
 50
0.0000100000010064
  1
水切板
  0
LINE
  8
_0-4_図面枠
  6
CONTINUOUS
 62
    2
 10
408.53647000000274
 20
975.60515000000078
 11
227.93646999999874
 21
975.60515000000078
  0
LINE
  8
_0-3_躯体と製品
  6
CONTINUOUS
 62
    3
 10
-1773.4563099999978
 20
1787.0544099999997
 11
-1706.8446099999992
 21
2253.3364099999985
  0
LINE
  8
_0-3_躯体と製品
  6
CONTINUOUS
 62
    3
 10
-1490.4716299999982
 20
1617.2635899999968
 11
-1773.4563099999978
 21
1787.0544099999997
  0
LINE
  8
_0-3_躯体と製品
  6
PLINE2
 62
    5
 10
-1724.2121900000002
 20
1593.0750899999969
 11
-1691.6674699999985
 21
1625.61979
  0
LINE
  8
_0-3_躯体と製品
  6
PLINE2
 62
    5
 10
-1707.7778099999996
 20
1680.220130000002
 11
-1665.6358299999965
 21
1722.3621099999982
  0
LINE
  8
_0-3_躯体と製品
  6
PLINE2
 62
    5
 10
-1734.151969999999
 20
1689.2013099999979
 11
-1687.7329099999988
 21
1735.6203700000005
  0
LINE
  8
_0-3_躯体と製品
  6
CONTINUOUS
 62
    3
 10
-1863.7371699999994
 20
2152.1090499999982
 11
-1464.0282899999975
 21
2291.3024099999998
  0
LINE
  8
_0-3_躯体と製品
  6
PLINE5
 62
    3
 10
-1903.5063700000001
 20
2184.8515299999999
 11
-1478.4984299999987
 21
2332.8549699999976
  0
LINE
  8
_0-3_躯体と製品
  6
CONTINUOUS
 62
    3
 10
-980.4716299999991
 20
2300.8596699999989
 11
-1737.7276299999985
 21
2037.1552300000021
  0
LINE
  8
_0-3_躯体と製品
  6
CONTINUOUS
 62
    3
 10
-1466.5578099999975
 20
2078.6415699999989
 11
-1745.6871699999965
 21
1981.438430000002
  0
LINE
  8
_0-3_躯体と製品
  6
PLINE5
 62
    3
 10
-980.4716299999991
 20
2294.5062699999985
 11
-1935.344549999998
 21
1961.984349999997
  0
LINE
  8
_0-3_躯体と製品
  6
CONTINUOUS
 62
    4
 10
-981.12934999999743
 20
2302.7484299999983
 11
-1726.528949999999
 21
2043.1728299999977
  0
LINE
  8
_0-3_躯体と製品
  6
CONTINUOUS
 62
    4
 10
-1912.3311699999986
 20
2188.1318099999989
 11
-1480.4716299999991
 21
2338.5212300000003
  0
LINE
  8
_0-3_躯体と製品
  6
CONTINUOUS
 62
    4
 10
-981.29378999999881
 20
2303.2206099999999
 11
-1727.0289499999981
 21
2043.5281499999965
  0
LINE
  8
_0-3_躯体と製品
  6
PLINE5
 62
    3
 10
-1973.9685299999974
 20
1691.6165099999989
 11
-1490.4716299999982
 21
1401.518369999998
  0
LINE
  8
_0-4_図面枠
  6
CONTINUOUS
 62
    2
 10
-1689.026789999999
 20
1513.0712299999998
 11
-1723.1593699999994
 21
1453.9518499999979
  0
LINE
  8
_0-3_躯体と製品
  6
CONTINUOUS
 62
    4
 10
-1980.4716299999991
 20
1688.5212300000007
 11
-1580.4716299999982
 21
1448.521230000001
  0
LINE
  8
_0-3_躯体と製品
  6
CONTINUOUS
 62
    3
 10
-1926.279129999999
 20
1714.3152499999987
 11
-1490.4716299999982
 21
1452.8307499999978
  0
TEXT
  8
_0-4_図面枠
 62
    7
 10
-1764.8035899999968
 20
1626.178650000001
 40
60
 41
0.7999999999999999
 50
0
  1
誘導板
  0
LINE
  8
_0-3_躯体と製品
  6
PLINE2
 62
    5
 10
-1879.9901899999977
 20
2038.3378500000017
 11
-1714.1150499999985
 21
2204.21299
  0
LINE
  8
_0-3_躯体と製品
  6
CONTINUOUS
 62
    2
 10
-1843.4824499999977
 20
2218.9903300000005
 11
-1835.2607699999999
 21
2195.3809300000003
  0
LINE
  8
_0-3_躯体と製品
  6
PLINE5
 62
    3
 10
-1903.5063700000001
 20
2184.8515299999999
 11
-1973.9685299999974
 21
1691.6165099999989
  0
LINE
  8
_0-3_躯体と製品
  6
PLINE2
 62
    5
 10
-1819.8399300000001
 20
1744.9347100000014
 11
-1772.7456699999975
 21
1792.0289700000003
  0
LINE
  8
_0-3_躯体と製品
  6
PLINE2
 62
    5
 10
-1900.9888899999969
 20
1699.1410899999978
 11
-1766.8531099999991
 21
1833.2768699999988
  0
LINE
  8
_0-3_躯体と製品
  6
PLINE2
 62
    5
 10
-1923.0859699999992
 20
1712.3993499999997
 11
-1760.960549999998
 21
1874.5247700000018
  0
LINE
  8
_0-3_躯体と製品
  6
PLINE2
 62
    5
 10
-1921.238089999998
 20
1749.6025700000009
 11
-1755.0679899999977
 21
1915.7726700000003
  0
LINE
  8
_0-3_躯体と製品
  6
CONTINUOUS
 62
    3
 10
-1863.7371699999994
 20
2152.1090499999982
 11
-1926.279129999999
 21
1714.3152499999987
  0
LINE
  8
_0-3_躯体と製品
  6
CONTINUOUS
 62
    4
 10
-1908.9294499999969
 20
2189.316429999998
 11
-1980.9626499999986
 21
1685.0840299999977
  0
TEXT
  8
_0-4_図面枠
 62
    7
 10
-1876.0652899999959
 20
1460.1828321278269
 40
59.99999999999978
 41
0.8000000000000039
 50
0.0000100000010064
  1
外板
  0
LINE
  8
_0-4_図面枠
  6
CONTINUOUS
 62
    2
 10
-1723.1593699999994
 20
1453.9518499999979
 11
-1904.1169099999988
 21
1453.9518499999979
  0
LINE
  8
_0-3_躯体と製品
  6
CONTINUOUS
 62
    2
 10
-1740.7165299999979
 20
1559.2455499999999
 11
-1753.5789299999979
 21
1537.8082299999999
  0
LINE
  8
_0-3_躯体と製品
  6
CONTINUOUS
 62
    4
 10
-1980.9626499999986
 20
1685.0840299999977
 11
-1939.2433699999992
 21
1660.0524499999979
  0
LINE
  8
_0-3_躯体と製品
  6
CONTINUOUS
 62
    2
 10
-1911.8844099999988
 20
1661.9462699999979
 11
-1924.7467899999974
 21
1640.5089499999979
  0
LINE
  8
_0-3_躯体と製品
  6
CONTINUOUS
 62
    2
 10
-1984.5917099999988
 20
1748.0688899999986
 11
-1959.8429899999992
 21
1744.5333500000006
  0
LINE
  8
_0-3_躯体と製品
  6
PLINE2
 62
    5
 10
-1878.8917899999988
 20
1685.8828500000018
 11
-1865.3354499999978
 21
1699.4391899999978
  0
LINE
  8
_0-3_躯体と製品
  6
PLINE2
 62
    5
 10
-1834.6976299999969
 20
1659.3663499999998
 11
-1815.2443899999989
 21
1678.8195699999999
  0
LINE
  8
_0-3_躯体と製品
  6
PLINE2
 62
    5
 10
-1790.5034499999974
 20
1632.8498299999999
 11
-1777.8759700000001
 21
1645.4773100000009
  0
LINE
  8
_0-3_躯体と製品
  6
PLINE2
 62
    5
 10
-1812.6005299999979
 20
1646.1080900000018
 11
-1788.2260499999984
 21
1670.4825699999988
  0
LINE
  8
_0-3_躯体と製品
  6
PLINE2
 62
    5
 10
-1746.3092699999979
 20
1606.333330000002
 11
-1716.5116899999985
 21
1636.1309100000008
  0
LINE
  8
_0-3_躯体と製品
  6
PLINE2
 62
    5
 10
-1768.4063500000002
 20
1619.5915899999998
 11
-1760.9230099999977
 21
1627.0749299999989
  0
TEXT
  8
_0-4_図面枠
 62
    7
 10
-1857.072269999996
 20
1686.8271499999987
 40
60
 41
0.8000000000000006
 50
0
  1
排気
  0
LINE
  8
_0-3_躯体と製品
  6
PLINE2
 62
    5
 10
-1856.7947099999992
 20
1672.6245899999999
 11
-1843.953709999998
 21
1685.4655899999989
  0
LINE
  8
_0-3_躯体と製品
  6
PLINE2
 62
    5
 10
-1755.6142299999974
 20
1703.0944099999979
 11
-1709.8300099999988
 21
1748.8786099999961
  0
LINE
  8
_0-3_躯体と製品
  6
PLINE2
 62
    5
 10
-1762.4212899999975
 20
1731.6426899999979
 11
-1731.9270899999965
 21
1762.1368699999985
  0
LINE
  8
_0-3_躯体と製品
  6
PLINE2
 62
    5
 10
-1778.6495299999988
 20
1750.7697700000008
 11
-1754.0241699999988
 21
1775.3951300000008
  0
LINE
  8
_0-3_躯体と製品
  6
PLINE2
 62
    5
 10
-1909.4529699999985
 20
1832.0983699999979
 11
-1743.2828699999991
 21
1998.2684499999996
  0
LINE
  8
_0-3_躯体と製品
  6
PLINE2
 62
    5
 10
-1903.5604099999964
 20
1873.3462499999987
 11
-1737.3903300000002
 21
2039.5163499999981
  0
LINE
  8
_0-3_躯体と製品
  6
PLINE2
 62
    5
 10
-1897.6678700000002
 20
1914.5941499999972
 11
-1731.4977699999972
 21
2080.7642499999965
  0
LINE
  8
_0-3_躯体と製品
  6
PLINE2
 62
    5
 10
-1891.7753099999991
 20
1955.8420500000002
 11
-1725.6052099999979
 21
2122.0121499999996
  0
LINE
  8
_0-3_躯体と製品
  6
PLINE5
 62
    3
 10
-1737.7276299999985
 20
2037.1552300000021
 11
-1934.389409999998
 21
1968.6703499999967
  0
LINE
  8
_0-3_躯体と製品
  6
PLINE2
 62
    5
 10
-1915.3455299999996
 20
1790.8504699999994
 11
-1749.1754300000002
 21
1957.0205699999988
  0
LINE
  8
_0-3_躯体と製品
  6
PLINE5
 62
    3
 10
-1745.6871699999965
 20
1981.438430000002
 11
-1942.3489499999996
 21
1912.9535499999965
  0
LINE
  8
_0-3_躯体と製品
  6
CONTINUOUS
 62
    2
 10
-1961.6560499999987
 20
1905.0830499999975
 11
-1936.9073099999987
 21
1901.5475099999994
  0
LINE
  8
_0-3_躯体と製品
  6
CONTINUOUS
 62
    2
 10
-1925.6127299999989
 20
1945.2542299999996
 11
-1910.730209999997
 21
1950.4368699999977
  0
LINE
  8
_0-3_躯体と製品
  6
CONTINUOUS
 62
    2
 10
-1917.0571300000001
 20
1955.6458899999998
 11
-1919.2858099999967
 21
1940.0451899999998
  0
LINE
  8
_0-3_躯体と製品
  6
PLINE2
 62
    5
 10
-1885.882749999997
 20
1997.0899499999987
 11
-1719.7126499999968
 21
2163.2600300000004
  0
LINE
  8
_0-3_躯体と製品
  6
PLINE2
 62
    5
 10
-1874.0976299999975
 20
2079.585729999998
 11
-1768.3607299999976
 21
2185.3226299999997
  0
LINE
  8
_0-3_躯体と製品
  6
PLINE2
 62
    5
 10
-1868.2050699999991
 20
2120.833630000001
 11
-1822.6064299999971
 21
2166.432289999997
  0
LINE
  8
_0-3_躯体と製品
  6
CONTINUOUS
 62
    2
 10
-1932.2826899999982
 20
2114.2321500000016
 11
-1907.5339499999991
 21
2110.6966099999991
  0
LINE
  8
_0-3_躯体と製品
  6
CONTINUOUS
 62
    4
 10
-1919.2048899999982
 20
2140.0156899999993
 11
-1912.3311699999986
 21
2188.1318099999989
  0
LINE
  8
_0-3_躯体と製品
  6
CONTINUOUS
 62
    4
 10
-1726.528949999999
 20
2026.0550300000014
 11
-1726.528949999999
 21
2043.1728299999977
  0
LINE
  8
_0-3_躯体と製品
  6
CONTINUOUS
 62
    4
 10
-1727.0289499999981
 20
2043.5281499999965
 11
-1727.0289499999981
 21
2026.0550300000014
  0
TEXT
  8
_0-4_図面枠
 62
    7
 10
-3021.0907899999984
 20
3853.0215899999966
 40
60
 41
0.8000000000000001
 50
0
  1
ファイル名
  0
TEXT
  8
_0-4_図面枠
 62
    7
 10
-2986.260589999998
 20
3695.4218099999994
 40
60
 41
0.8000000000000006
 50
0
  1
縮　　尺
  0
LINE
  8
_0-4_図面枠
  6
CONTINUOUS
 62
    2
 10
-1844.1060499999976
 20
3817.5030099999985
 11
-3177.4393899999968
 21
3817.5030099999985
  0
LINE
  8
_0-4_図面枠
  6
CONTINUOUS
 62
    2
 10
-2510.772729999997
 20
3984.1696699999993
 11
-2510.772729999997
 21
3650.8363299999987
  0
LINE
  8
_0-4_図面枠
  6
CONTINUOUS
 62
    4
 10
-1844.1060499999976
 20
3984.1696699999993
 11
-1844.1060499999976
 21
3650.8363299999987
  0
TEXT
  8
_0-4_図面枠
 62
    7
 10
-2384.7603299999973
 20
3856.91381
 40
60
 41
0.7999999999999999
 50
0
  1
ＭＯＮ０１１
  0
TEXT
  8
_0-4_図面枠
 62
    7
 10
-2927.3556899999985
 20
3451.4572699999999
 40
60
 41
0.8000000000000003
 50
0
  1
図中は、ＳＣ－１０００型
  0
TEXT
  8
_0-4_図面枠
 62
    7
 10
-2382.9421699999966
 20
3692.2137899999998
 40
60
 41
0.7999999999999999
 50
0
  1
Ｓ　１：２０
  0
LINE
  8
_0-3_躯体と製品
  6
CONTINUOUS
 62
    3
 10
-980.4716299999991
 20
2388.5212300000003
 11
-480.47162999999819
 21
2388.5212300000003
  0
LINE
  8
_0-3_躯体と製品
  6
PLINE5
 62
    3
 10
-980.4716299999991
 20
1788.0212299999985
 11
-132.74938999999722
 21
1788.0212299999985
  0
LINE
  8
_0-3_躯体と製品
  6
PLINE5
 62
    3
 10
-980.4716299999991
 20
1782.0212299999994
 11
-132.74938999999722
 21
1782.0212299999994
  0
LINE
  8
_0-3_躯体と製品
  6
PLINE5
 62
    3
 10
-980.4716299999991
 20
1738.0212299999985
 11
-132.74938999999722
 21
1738.0212299999985
  0
TEXT
  8
_0-4_図面枠
 62
    7
 10
-676.14848999999595
 20
2060.82953
 40
60.000000000000007
 41
0.8000000000000004
 50
0.0000100000009385
  1
妻板補強
  0
LINE
  8
_0-4_図面枠
  6
CONTINUOUS
 62
    2
 10
-676.1485700000012
 20
2050.8297100000018
 11
-457.51286999999684
 21
2050.8297100000018
  0
LINE
  8
_0-3_躯体と製品
  6
CONTINUOUS
 62
    3
 10
-980.4716299999991
 20
2247.9146899999992
 11
-1446.7543699999969
 21
2085.5378499999997
  0
LINE
  8
_0-3_躯体と製品
  6
CONTINUOUS
 62
    3
 10
-980.4716299999991
 20
1737.7996899999962
 11
-1474.47163
 21
1737.7996899999962
  0
LINE
  8
_0-3_躯体と製品
  6
CONTINUOUS
 62
    3
 10
-980.4716299999991
 20
1687.7996900000007
 11
-1474.47163
 21
1687.7996900000007
  0
LINE
  8
_0-3_躯体と製品
  6
PLINE5
 62
    3
 10
-980.4716299999991
 20
1731.7996900000016
 11
-1474.47163
 21
1731.7996900000016
  0
LINE
  8
_0-4_図面枠
  6
CONTINUOUS
 62
    2
 10
-1451.9303499999978
 20
1583.2734900000009
 11
-1391.6303499999995
 21
1478.8308099999988
  0
LINE
  8
_0-3_躯体と製品
  6
PLINE2
 62
    5
 10
-1569.5325699999967
 20
1500.2673099999988
 11
-1490.4716299999982
 21
1579.3282700000009
  0
LINE
  8
_0-3_躯体と製品
  6
PLINE2
 62
    5
 10
-1591.6296699999975
 20
1513.5255700000009
 11
-1490.4716299999982
 21
1614.683610000001
  0
LINE
  8
_0-3_躯体と製品
  6
PLINE2
 62
    5
 10
-1613.7267499999971
 20
1526.7838299999989
 11
-1510.956229999998
 21
1629.5543499999978
  0
LINE
  8
_0-3_躯体と製品
  6
PLINE2
 62
    5
 10
-1635.8238299999966
 20
1540.0420699999988
 11
-1533.0533100000002
 21
1642.8126099999999
  0
LINE
  8
_0-3_躯体と製品
  6
PLINE2
 62
    5
 10
-1657.9209299999975
 20
1553.3003300000018
 11
-1555.150389999998
 21
1656.070850000001
  0
LINE
  8
_0-3_躯体と製品
  6
CONTINUOUS
 62
    2
 10
-1451.9303499999978
 20
1583.2734900000009
 11
-1423.646109999997
 21
1554.9892499999978
  0
LINE
  8
_0-3_躯体と製品
  6
CONTINUOUS
 62
    3
 10
-1490.4716299999982
 20
1394.5212299999998
 11
-1580.4716299999982
 21
1448.521230000001
  0
LINE
  8
_0-3_躯体と製品
  6
CONTINUOUS
 62
    4
 10
-1580.4716299999982
 20
1448.521230000001
 11
-1580.4716299999982
 21
1388.521230000001
  0
LINE
  8
_0-3_躯体と製品
  6
CONTINUOUS
 62
    4
 10
-1577.2716299999984
 20
1388.521230000001
 11
-1580.4716299999982
 21
1388.521230000001
  0
LINE
  8
_0-3_躯体と製品
  6
CONTINUOUS
 62
    4
 10
-1577.2716299999984
 20
1407.7036499999979
 11
-1577.2716299999984
 21
1388.521230000001
  0
LINE
  8
_0-3_躯体と製品
  6
CONTINUOUS
 62
    4
 10
-1580.9716299999982
 20
1388.0212299999989
 11
-1576.7716300000002
 21
1388.0212299999989
  0
LINE
  8
_0-4_図面枠
  6
CONTINUOUS
 62
    2
 10
-1689.026789999999
 20
1513.0712299999998
 11
-1699.3795299999974
 21
1474.4342300000008
  0
LINE
  8
_0-3_躯体と製品
  6
CONTINUOUS
 62
    2
 10
-1612.7748099999972
 20
1482.4805099999999
 11
-1625.6372099999999
 21
1461.0431899999999
  0
LINE
  8
_0-3_躯体と製品
  6
CONTINUOUS
 62
    2
 10
-1500.4716299999991
 20
1361.1601699999978
 11
-1460.4716299999982
 21
1361.1601699999978
  0
LINE
  8
_0-3_躯体と製品
  6
CONTINUOUS
 62
    3
 10
-1490.4716299999982
 20
1452.8307499999978
 11
-1480.4716299999991
 21
1452.8307499999978
  0
LINE
  8
_0-3_躯体と製品
  6
PLINE2
 62
    5
 10
-1503.2413099999967
 20
1460.4925700000008
 11
-1490.4716299999982
 21
1473.2622500000018
  0
LINE
  8
_0-3_躯体と製品
  6
PLINE2
 62
    5
 10
-1525.3384099999976
 20
1473.7508100000009
 11
-1490.4716299999982
 21
1508.6175899999989
  0
LINE
  8
_0-3_躯体と製品
  6
PLINE2
 62
    5
 10
-1547.435489999998
 20
1487.0090699999989
 11
-1490.4716299999982
 21
1543.9729299999988
  0
LINE
  8
_0-3_躯体と製品
  6
PLINE2
 62
    5
 10
-1621.3277499999976
 20
1660.6041899999989
 11
-1599.3445700000002
 21
1682.5873499999989
  0
LINE
  8
_0-3_躯体と製品
  6
PLINE2
 62
    5
 10
-1680.018009999998
 20
1566.558570000002
 11
-1577.2474899999979
 21
1669.3291099999979
  0
LINE
  8
_0-3_躯体と製品
  6
PLINE2
 62
    5
 10
-1702.1150899999984
 20
1579.8168299999988
 11
-1660.1398499999987
 21
1621.7920899999988
  0
LINE
  8
_0-3_躯体と製品
  6
PLINE2
 62
    5
 10
-1639.4080299999987
 20
1677.879229999998
 11
-1621.4416499999979
 21
1695.8456100000008
  0
LINE
  8
_0-3_躯体と製品
  6
PLINE2
 62
    5
 10
-1667.7952699999978
 20
1684.84735
 11
-1643.5387499999997
 21
1709.1038699999981
  0
LINE
  8
_0-3_躯体と製品
  6
CONTINUOUS
 62
    2
 10
-1500.4716299999991
 20
1669.4022299999999
 11
-1460.4716299999982
 21
1669.4022299999999
  0
LINE
  8
_0-3_躯体と製品
  6
CONTINUOUS
 62
    4
 10
-1529.7845499999985
 20
1724.720309999997
 11
-1480.9716299999982
 21
1737.7996899999962
  0
LINE
  8
_0-3_躯体と製品
  6
CONTINUOUS
 62
    2
 10
-1462.4716299999982
 20
1709.3395899999987
 11
-1448.4716299999982
 21
1709.3395899999987
  0
LINE
  8
_0-3_躯体と製品
  6
CONTINUOUS
 62
    2
 10
-1455.4716299999982
 20
1716.3395900000014
 11
-1455.4716299999982
 21
1702.339590000001
  0
TEXT
  8
_0-4_図面枠
 62
    7
 10
-1391.6303699999989
 20
1488.83061
 40
60.000000000000007
 41
0.799999999999999
 50
0.0000100000010064
  1
支柱
  0
LINE
  8
_0-4_図面枠
  6
CONTINUOUS
 62
    2
 10
-1391.6303499999995
 20
1478.8308099999988
 11
-1266.7291299999979
 21
1478.8308099999988
  0
LINE
  8
_0-3_躯体と製品
  6
CONTINUOUS
 62
    3
 10
-1633.6805099999974
 20
1873.4255100000009
 11
-1486.4716299999964
 21
1996.9484299999967
  0
LINE
  8
_0-3_躯体と製品
  6
CONTINUOUS
 62
    3
 10
-1480.4716299999991
 20
1994.1505899999984
 11
-1620.9944299999961
 21
1876.2379499999988
  0
LINE
  8
_0-3_躯体と製品
  6
CONTINUOUS
 62
    4
 10
-1495.4716299999964
 20
1989.3965299999982
 11
-1648.6805099999992
 21
1860.8390099999988
  0
LINE
  8
_0-3_躯体と製品
  6
CONTINUOUS
 62
    3
 10
-1486.4716299999964
 20
1833.9810100000013
 11
-1633.6805099999974
 21
1873.4255100000009
  0
LINE
  8
_0-3_躯体と製品
  6
CONTINUOUS
 62
    3
 10
-1620.9944299999961
 20
1876.2379499999988
 11
-1480.4716299999991
 21
1838.5849699999962
  0
LINE
  8
_0-3_躯体と製品
  6
CONTINUOUS
 62
    2
 10
-1569.5996099999984
 20
1953.3039299999964
 11
-1543.8880899999995
 21
1922.6621500000001
  0
LINE
  8
_0-3_躯体と製品
  6
CONTINUOUS
 62
    4
 10
-1648.6805099999992
 20
1860.8390099999988
 11
-1648.6805099999992
 21
1845.8390099999988
  0
LINE
  8
_0-3_躯体と製品
  6
CONTINUOUS
 62
    2
 10
-1500.4716299999991
 20
1823.5849699999962
 11
-1460.4716299999982
 21
1823.5849699999962
  0
LINE
  8
_0-3_躯体と製品
  6
CONTINUOUS
 62
    3
 10
-1486.4716299999964
 20
1808.5849699999962
 11
-1486.4716299999964
 21
1833.9810100000013
  0
LINE
  8
_0-3_躯体と製品
  6
CONTINUOUS
 62
    3
 10
-1480.4716299999991
 20
1808.5849699999962
 11
-1486.4716299999964
 21
1808.5849699999962
  0
LINE
  8
_0-3_躯体と製品
  6
CONTINUOUS
 62
    2
 10
-1639.1701699999985
 20
2084.71281
 11
-1630.9485100000002
 21
2061.1034099999997
  0
LINE
  8
_0-3_躯体と製品
  6
CONTINUOUS
 62
    3
 10
-1480.4716299999991
 20
2061.4824499999977
 11
-1474.47163
 21
2061.4824499999977
  0
LINE
  8
_0-3_躯体と製品
  6
CONTINUOUS
 62
    2
 10
-1500.4716299999991
 20
2009.1505899999984
 11
-1460.4716299999982
 21
2009.1505899999984
  0
LINE
  8
_0-3_躯体と製品
  6
CONTINUOUS
 62
    3
 10
-1486.4716299999964
 20
2024.1505899999984
 11
-1486.4716299999964
 21
1996.9484299999967
  0
LINE
  8
_0-3_躯体と製品
  6
CONTINUOUS
 62
    3
 10
-1480.4716299999991
 20
2024.1505899999984
 11
-1486.4716299999964
 21
2024.1505899999984
  0
LINE
  8
_0-3_躯体と製品
  6
CONTINUOUS
 62
    4
 10
-1495.4716299999964
 20
2004.3965299999982
 11
-1495.4716299999964
 21
1989.3965299999982
  0
LINE
  8
_0-3_躯体と製品
  6
CONTINUOUS
 62
    2
 10
-1462.4716299999982
 20
2106.9603700000007
 11
-1448.4716299999982
 21
2106.9603700000007
  0
LINE
  8
_0-3_躯体と製品
  6
CONTINUOUS
 62
    2
 10
-1455.4716299999982
 20
2113.9603699999989
 11
-1455.4716299999982
 21
2099.960369999998
  0
LINE
  8
_0-4_図面枠
  6
CONTINUOUS
 62
    2
 10
-841.2884699999986
 20
1764.7990100000006
 11
-830.93572999999924
 21
1803.4360099999994
  0
LINE
  8
_0-4_図面枠
  6
CONTINUOUS
 62
    2
 10
-841.2884699999986
 20
1764.7990100000006
 11
-676.1485700000012
 21
2050.8297100000018
  0
LINE
  8
_0-3_躯体と製品
  6
CONTINUOUS
 62
    2
 10
-884.8685099999966
 20
1763.0212299999985
 11
-870.86850999999842
 21
1763.0212299999985
  0
LINE
  8
_0-3_躯体と製品
  6
CONTINUOUS
 62
    2
 10
-877.86850999999842
 20
1770.0212299999966
 11
-877.86850999999842
 21
1756.0212300000003
  0
LINE
  8
_0-3_躯体と製品
  6
CONTINUOUS
 62
    2
 10
-741.57636999999886
 20
1763.0212299999985
 11
-727.57636999999795
 21
1763.0212299999985
  0
LINE
  8
_0-3_躯体と製品
  6
CONTINUOUS
 62
    2
 10
-734.57636999999886
 20
1770.0212299999966
 11
-734.57636999999886
 21
1756.0212300000003
  0
LINE
  8
_0-3_躯体と製品
  6
CONTINUOUS
 62
    2
 10
-558.31326999999692
 20
1763.0212299999985
 11
-544.31326999999692
 21
1763.0212299999985
  0
LINE
  8
_0-3_躯体と製品
  6
CONTINUOUS
 62
    2
 10
-551.31326999999692
 20
1770.0212299999966
 11
-551.31326999999692
 21
1756.0212300000003
  0
LINE
  8
_0-3_躯体と製品
  6
CONTINUOUS
 62
    3
 10
-1461.2123099999972
 20
2332.5212299999989
 11
-980.4716299999991
 21
2332.5212299999989
  0
LINE
  8
_0-3_躯体と製品
  6
CONTINUOUS
 62
    3
 10
-980.4716299999991
 20
2338.5212300000003
 11
-1462.227149999997
 21
2338.5212300000003
  0
LINE
  8
_0-4_図面枠
  6
CONTINUOUS
 62
    2
 10
-1325.5167899999979
 20
2406.0004499999982
 11
-1015.9167899999975
 21
2406.0004499999982
  0
LINE
  8
_0-3_躯体と製品
  6
CONTINUOUS
 62
    3
 10
-1570.9628499999972
 20
2294.3020500000002
 11
-1461.2123099999972
 21
2332.5212299999989
  0
LINE
  8
_0-3_躯体と製品
  6
CONTINUOUS
 62
    2
 10
-1664.1260699999975
 20
2281.9782699999987
 11
-1655.9044100000001
 21
2258.3688699999984
  0
LINE
  8
_0-3_躯体と製品
  6
CONTINUOUS
 62
    3
 10
-1572.9360499999984
 20
2299.9683099999984
 11
-1570.9628499999972
 21
2294.3020500000002
  0
LINE
  8
_0-3_躯体と製品
  6
CONTINUOUS
 62
    3
 10
-1464.0282899999975
 20
2291.3024099999998
 11
-1480.4716299999991
 21
2338.5212300000003
  0
LINE
  8
_0-3_躯体と製品
  6
CONTINUOUS
 62
    2
 10
-1531.8900099999973
 20
2327.49829
 11
-1523.6683299999986
 21
2303.8888899999997
  0
LINE
  8
_0-3_躯体と製品
  6
CONTINUOUS
 62
    3
 10
-1462.227149999997
 20
2338.5212300000003
 11
-1478.3821899999975
 21
2332.5212299999989
  0
LINE
  8
_0-3_躯体と製品
  6
CONTINUOUS
 62
    4
 10
-1480.4716299999991
 20
2388.5212300000003
 11
-1477.2716299999984
 21
2388.5212300000003
  0
LINE
  8
_0-3_躯体と製品
  6
CONTINUOUS
 62
    4
 10
-1480.4716299999991
 20
2388.5212300000003
 11
-1480.4716299999991
 21
2338.5212300000003
  0
LINE
  8
_0-3_躯体と製品
  6
CONTINUOUS
 62
    4
 10
-1477.2716299999984
 20
2365.4494299999978
 11
-1477.2716299999984
 21
2388.5212300000003
  0
LINE
  8
_0-4_図面枠
  6
CONTINUOUS
 62
    2
 10
-1365.2087099999981
 20
2337.2520299999987
 11
-1354.8559699999978
 21
2375.8890299999975
  0
LINE
  8
_0-4_図面枠
  6
CONTINUOUS
 62
    2
 10
-1365.2087099999981
 20
2337.2520299999987
 11
-1325.5167899999979
 21
2406.0004499999982
  0
LINE
  8
_0-3_躯体と製品
  6
CONTINUOUS
 62
    2
 10
-1180.9903299999987
 20
2244.26793
 11
-1172.7686499999991
 21
2220.6585099999998
  0
TEXT
  8
_0-4_図面枠
 62
    7
 10
-1325.5167899999979
 20
2416.0004100000006
 40
60
 41
0.7999999999999993
 50
0
  1
渡し金具
  0
LINE
  8
_0-3_躯体と製品
  6
CONTINUOUS
 62
    3
 10
-29.417649999995774
 20
2207.9201099999991
 11
46.624630000002071
 21
1675.6242100000009
  0
TEXT
  8
_0-4_図面枠
 62
    7
 10
45.875130000003992
 20
2119.4641700000002
 40
60
 41
0.8000000000000003
 50
0
  1
妻板
  0
LINE
  8
_0-4_図面枠
  6
CONTINUOUS
 62
    2
 10
45.875470000002679
 20
2109.4643899999974
 11
154.43301000000065
 21
2109.4643899999974
  0
LINE
  8
_0-3_躯体と製品
  6
CONTINUOUS
 62
    3
 10
46.624630000002071
 20
1675.6242100000009
 11
-355.47162999999819
 21
1434.3664699999999
  0
LINE
  8
_0-3_躯体と製品
  6
CONTINUOUS
 62
    2
 10
-385.60852999999588
 20
1763.0212299999985
 11
-371.60852999999952
 21
1763.0212299999985
  0
LINE
  8
_0-3_躯体と製品
  6
CONTINUOUS
 62
    2
 10
-378.6085299999977
 20
1770.0212299999966
 11
-378.6085299999977
 21
1756.0212300000003
  0
LINE
  8
_0-3_躯体と製品
  6
CONTINUOUS
 62
    2
 10
-169.1619899999987
 20
1763.0212299999985
 11
-155.16198999999506
 21
1763.0212299999985
  0
LINE
  8
_0-3_躯体と製品
  6
CONTINUOUS
 62
    2
 10
-162.16199000000051
 20
1770.0212299999966
 11
-162.16199000000051
 21
1756.0212300000003
  0
LINE
  8
_0-3_躯体と製品
  6
CONTINUOUS
 62
    3
 10
-352.042489999998
 20
1791.0212300000003
 11
-352.042489999998
 21
1788.0212299999985
  0
ARC
  8
_0-3_躯体と製品
  6
CONTINUOUS
 62
    3
 10
-355.04248999999436
 20
1791.0212300000003
 40
3
 50
0
 51
90
  0
LINE
  8
_0-3_躯体と製品
  6
CONTINUOUS
 62
    3
 10
-393.042489999998
 20
1794.0212300000021
 11
-355.04248999999436
 21
1794.0212300000021
  0
ARC
  8
_0-3_躯体と製品
  6
CONTINUOUS
 62
    3
 10
-393.042489999998
 20
1797.0212299999994
 40
3
 50
180
 51
270
  0
LINE
  8
_0-3_躯体と製品
  6
CONTINUOUS
 62
    3
 10
-396.042489999998
 20
1835.0212299999966
 11
-396.042489999998
 21
1797.0212299999994
  0
ARC
  8
_0-3_躯体と製品
  6
CONTINUOUS
 62
    3
 10
-399.042489999998
 20
1835.0212299999966
 40
3
 50
0
 51
90
  0
LINE
  8
_0-3_躯体と製品
  6
CONTINUOUS
 62
    3
 10
-402.042489999998
 20
1838.0212299999985
 11
-399.042489999998
 21
1838.0212299999985
  0
LINE
  8
_0-3_躯体と製品
  6
CONTINUOUS
 62
    3
 10
-402.042489999998
 20
1788.0212299999985
 11
-402.042489999998
 21
1838.0212299999985
  0
LINE
  8
_0-4_図面枠
  6
CONTINUOUS
 62
    2
 10
-62.945929999998043
 20
1920.9802299999992
 11
45.875470000002679
 21
2109.4643899999974
  0
LINE
  8
_0-4_図面枠
  6
CONTINUOUS
 62
    2
 10
-62.945929999998043
 20
1920.9802299999992
 11
-52.593169999998281
 21
1959.617229999998
  0
ARC
  8
_0-3_躯体と製品
  6
CONTINUOUS
 62
    3
 10
605.64385000000038
 20
1348.3214300000009
 40
28.610720000000001
 50
24.692922999995002
 51
155.48782100000079
  0
ARC
  8
_0-3_躯体と製品
  6
CONTINUOUS
 62
    3
 10
605.64385000000038
 20
1348.3214300000009
 40
34.610720000000001
 50
24.692922999995002
 51
155.48782100000079
  0
ARC
  8
_0-3_躯体と製品
  6
CONTINUOUS
 62
    3
 10
475.60313000000315
 20
1348.7654499999999
 40
28.610720000000001
 50
24.692922999995002
 51
155.48782100000079
  0
ARC
  8
_0-3_躯体と製品
  6
CONTINUOUS
 62
    3
 10
475.60313000000315
 20
1348.7654499999999
 40
34.610720000000001
 50
24.692922999995002
 51
155.48782100000079
  0
LINE
  8
_0-3_躯体と製品
  6
CONTINUOUS
 62
    4
 10
560.35893000000033
 20
1386.6047500000009
 11
560.35893000000033
 21
1388.6047499999988
  0
LINE
  8
_0-3_躯体と製品
  6
CONTINUOUS
 62
    4
 10
570.35893000000033
 20
1386.6047500000009
 11
560.35893000000033
 21
1386.6047500000009
  0
TEXT
  8
_0-4_図面枠
 62
    7
 10
517.03205000000162
 20
1947.9117299999998
 40
60
 41
0.8000000000000002
 50
0
  1
妻板補強
  0
LINE
  8
_0-4_図面枠
  6
CONTINUOUS
 62
    2
 10
726.82365000000391
 20
1935.0976099999971
 11
491.6404700000021
 21
1935.0976099999971
  0
LINE
  8
_0-3_躯体と製品
  6
CONTINUOUS
 62
    3
 10
-480.47162999999819
 20
2364.9937300000001
 11
-29.417649999995774
 21
2207.9201099999991
  0
LINE
  8
_0-3_躯体と製品
  6
CONTINUOUS
 62
    2
 10
-376.95414999999775
 20
2302.4726299999988
 11
-363.732869999998
 21
2297.8684899999998
  0
LINE
  8
_0-3_躯体と製品
  6
CONTINUOUS
 62
    2
 10
-368.04144999999698
 20
2306.7811899999983
 11
-372.64557000000059
 21
2293.5599299999981
  0
LINE
  8
_0-3_躯体と製品
  6
CONTINUOUS
 62
    3
 10
-480.47162999999819
 20
2388.5212300000003
 11
-480.47162999999819
 21
2364.9937300000001
  0
LINE
  8
_0-3_躯体と製品
  6
CONTINUOUS
 62
    2
 10
-259.85412999999789
 20
2261.69409
 11
-246.63286999999946
 21
2257.0899499999987
  0
LINE
  8
_0-3_躯体と製品
  6
CONTINUOUS
 62
    2
 10
-250.94142999999895
 20
2266.0026499999994
 11
-255.54556999999841
 21
2252.7813899999992
  0
LINE
  8
_0-3_躯体と製品
  6
CONTINUOUS
 62
    2
 10
-120.33348999999907
 20
2215.0119699999996
 11
-107.11222999999882
 21
2210.4078500000005
  0
LINE
  8
_0-3_躯体と製品
  6
CONTINUOUS
 62
    2
 10
-111.42078999999831
 20
2219.320549999999
 11
-116.02492999999959
 21
2206.0992699999988
  0
ARC
  8
_0-3_躯体と製品
  6
CONTINUOUS
 62
    3
 10
801.07035000000178
 20
1376.8729500000009
 40
42.131099999999989
 50
203.12832000000424
 51
336.70039199999877
  0
ARC
  8
_0-3_躯体と製品
  6
CONTINUOUS
 62
    3
 10
801.07035000000178
 20
1376.8729500000009
 40
36.131099999999989
 50
203.12832000000424
 51
336.70039199999877
  0
LINE
  8
_0-4_図面枠
  6
CONTINUOUS
 62
    2
 10
767.72449000000233
 20
1359.0578099999989
 11
756.38475000000108
 21
1319.4167899999998
  0
LINE
  8
_0-4_図面枠
  6
CONTINUOUS
 62
    4
 10
4565.8939499999979
 20
-1355.8303300000002
 11
4565.8939499999979
 21
3984.1696699999993
  0
LINE
  8
_0-3_躯体と製品
  6
CONTINUOUS
 62
    2
 10
905.35893000000215
 20
1380.2546900000009
 11
905.35893000000215
 21
1250.3030499999968
  0
LINE
  8
_0-3_躯体と製品
  6
CONTINUOUS
 62
    4
 10
3096.3589299999967
 20
1162.9788300000009
 11
3096.3589299999967
 21
1388.6047499999988
  0
ARC
  8
_0-3_躯体と製品
  6
CONTINUOUS
 62
    3
 10
3248.7470699999976
 20
1381.9395699999989
 40
36.131099999999989
 50
203.12832000000424
 51
336.70039199999877
  0
ARC
  8
_0-3_躯体と製品
  6
CONTINUOUS
 62
    3
 10
3118.7877899999967
 20
1381.9395699999989
 40
36.131099999999989
 50
231.62810799999909
 51
336.70039199999871
  0
LINE
  8
_0-3_躯体と製品
  6
CONTINUOUS
 62
    2
 10
3183.424009999997
 20
1387.9984699999968
 11
3183.424009999997
 21
892.94136999999796
  0
LINE
  8
_0-3_躯体と製品
  6
CONTINUOUS
 62
    2
 10
3312.5494299999973
 20
1387.8884699999978
 11
3312.5494299999973
 21
892.94136999999796
  0
ARC
  8
_0-3_躯体と製品
  6
CONTINUOUS
 62
    3
 10
930.27619000000414
 20
1376.9722300000008
 40
42.131099999999989
 50
203.12832000000424
 51
233.35391899999732
  0
ARC
  8
_0-3_躯体と製品
  6
CONTINUOUS
 62
    3
 10
930.27619000000414
 20
1376.9722300000008
 40
36.131099999999989
 50
203.12832000000424
 51
226.39880700000572
  0
LINE
  8
_0-3_躯体と製品
  6
CONTINUOUS
 62
    2
 10
2477.3589299999967
 20
831.76410999999894
 11
2477.3589299999967
 21
2488.1406499999994
  0
LINE
  8
_0-3_躯体と製品
  6
CONTINUOUS
 62
    2
 10
2457.3589299999967
 20
2488.1406499999994
 11
2457.3589299999967
 21
831.76410999999894
  0
LINE
  8
_0-3_躯体と製品
  6
CONTINUOUS
 62
    2
 10
1160.7211299999981
 20
922.26372999999876
 11
1160.7211299999981
 21
2478.2060700000002
  0
LINE
  8
_0-3_躯体と製品
  6
CONTINUOUS
 62
    2
 10
1140.7211299999981
 20
2478.2060700000002
 11
1140.7211299999981
 21
922.26372999999876
  0
LINE
  8
_0-3_躯体と製品
  6
CONTINUOUS
 62
    4
 10
2817.3589299999967
 20
2388.5212300000003
 11
2817.3589299999967
 21
1166.5525900000009
  0
LINE
  8
_0-3_躯体と製品
  6
PLINE3
 62
    2
 10
2627.3589299999967
 20
2388.5212300000003
 11
2627.3589299999967
 21
831.76410999999894
  0
LINE
  8
_0-3_躯体と製品
  6
PLINE3
 62
    2
 10
2231.3589299999967
 20
2388.5212300000003
 11
2231.3589299999967
 21
831.76410999999894
  0
LINE
  8
_0-3_躯体と製品
  6
CONTINUOUS
 62
    2
 10
1821.3589299999967
 20
2450.8601699999999
 11
1821.3589299999967
 21
831.76410999999894
  0
LINE
  8
_0-3_躯体と製品
  6
CONTINUOUS
 62
    2
 10
1801.3589299999967
 20
831.76410999999894
 11
1801.3589299999967
 21
2450.8601699999999
  0
LINE
  8
_0-3_躯体と製品
  6
CONTINUOUS
 62
    3
 10
970.35893000000033
 20
2132.8278499999979
 11
970.35893000000033
 21
1080.3753099999988
  0
LINE
  8
_0-3_躯体と製品
  6
CONTINUOUS
 62
    3
 10
976.35893000000033
 20
2302.7484299999983
 11
976.35893000000033
 21
1080.3753099999988
  0
LINE
  8
_0-3_躯体と製品
  6
CONTINUOUS
 62
    3
 10
1020.3589300000021
 20
1731.7996900000016
 11
1020.3589300000021
 21
1080.3753099999988
  0
LINE
  8
_0-3_躯体と製品
  6
CONTINUOUS
 62
    3
 10
1416.3589299999967
 20
1731.7996900000016
 11
1416.3589299999967
 21
1080.3753099999988
  0
LINE
  8
_0-3_躯体と製品
  6
PLINE3
 62
    2
 10
1391.3589299999967
 20
2388.5212300000003
 11
1391.3589299999967
 21
922.26372999999876
  0
LINE
  8
_0-3_躯体と製品
  6
CONTINUOUS
 62
    3
 10
1366.3589299999967
 20
2132.8278499999979
 11
1366.3589299999967
 21
1080.3753099999988
  0
LINE
  8
_0-3_躯体と製品
  6
CONTINUOUS
 62
    3
 10
1372.3589299999967
 20
2302.7484299999983
 11
1372.3589299999967
 21
1080.3753099999988
  0
LINE
  8
_0-3_躯体と製品
  6
PLINE3
 62
    2
 10
995.35893000000215
 20
2388.5212300000003
 11
995.35893000000215
 21
922.26372999999876
  0
LINE
  8
_0-3_躯体と製品
  6
CONTINUOUS
 62
    3
 10
2206.3589299999967
 20
1388.0212299999989
 11
2206.3589299999967
 21
1288.521230000001
  0
LINE
  8
_0-3_躯体と製品
  6
CONTINUOUS
 62
    3
 10
2256.3589299999967
 20
1288.521230000001
 11
2256.3589299999967
 21
1388.0212299999989
  0
LINE
  8
_0-3_躯体と製品
  6
CONTINUOUS
 62
    3
 10
2602.3589299999967
 20
1388.0212299999989
 11
2602.3589299999967
 21
1288.521230000001
  0
LINE
  8
_0-3_躯体と製品
  6
CONTINUOUS
 62
    3
 10
2652.3589299999967
 20
1288.521230000001
 11
2652.3589299999967
 21
1388.0212299999989
  0
TEXT
  8
_0-4_図面枠
 62
    7
 10
3047.8920299999972
 20
-337.91407000000208
 40
60
 41
0.8000000000000013
 50
0
  1
Ｌ型鋼
  0
TEXT
  8
_0-4_図面枠
 62
    7
 10
3040.3279499999971
 20
-784.24959000000035
 40
60
 41
0.8000000000000013
 50
0
  1
Ｌ型鋼
  0
TEXT
  8
_0-4_図面枠
 62
    7
 10
3040.3279499999971
 20
-634.24959000000035
 40
60
 41
0.8000000000000013
 50
0
  1
Ｌ型鋼
  0
TEXT
  8
_0-4_図面枠
 62
    7
 10
3040.3279499999971
 20
-484.24967000000015
 40
60
 41
0.8000000000000013
 50
0
  1
Ｌ型鋼
  0
TEXT
  8
_0-4_図面枠
 62
    7
 10
3040.3279499999971
 20
-934.24959000000035
 40
60
 41
0.8000000000000013
 50
0
  1
Ｌ型鋼
  0
TEXT
  8
_0-4_図面枠
 62
    7
 10
3071.3075499999977
 20
-188.91611000000012
 40
60
 41
0.800000000000002
 50
0
  1
支柱
  0
TEXT
  8
_0-4_図面枠
 62
    7
 10
3062.9823699999979
 20
774.56273000000192
 40
60.000000000000007
 41
0.8
 50
0.0000100000010139
  1
ケミカルメンド処理
  0
LINE
  8
_0-4_図面枠
  6
CONTINUOUS
 62
    2
 10
3062.9820699999964
 20
764.56333000000086
 11
3517.5235899999971
 21
764.56333000000086
  0
TEXT
  8
_0-4_図面枠
 62
    7
 10
1302.5722099999966
 20
-344.94593000000032
 40
60
 41
0.7999999999999999
 50
0
  1
７５０
  0
TEXT
  8
_0-4_図面枠
 62
    7
 10
2019.8915499999966
 20
-348.07123000000092
 40
60
 41
0.7999999999999993
 50
0
  1
　１５０
  0
TEXT
  8
_0-4_図面枠
 62
    7
 10
1702.5722099999966
 20
-344.94593000000032
 40
60
 41
0.7999999999999999
 50
0
  1
７５０
  0
TEXT
  8
_0-4_図面枠
 62
    7
 10
2801.6835299999966
 20
-355.3121500000002
 40
60
 41
0.7999999999999999
 50
0
  1
０．８
  0
TEXT
  8
_0-4_図面枠
 62
    7
 10
2419.8915499999966
 20
-348.07123000000092
 40
60
 41
0.7999999999999993
 50
0
  1
１５００
  0
LINE
  8
_0-4_図面枠
  6
CONTINUOUS
 62
    2
 10
2740.3078299999979
 20
-72.459429999998974
 11
2740.3078299999979
 21
-972.45943000000034
  0
LINE
  8
_0-4_図面枠
  6
CONTINUOUS
 62
    2
 10
1540.3078299999979
 20
-72.459429999998974
 11
1540.3078299999979
 21
-972.45943000000034
  0
LINE
  8
_0-4_図面枠
  6
CONTINUOUS
 62
    2
 10
1940.3078299999979
 20
-72.459429999998974
 11
1940.3078299999979
 21
-972.45943000000034
  0
LINE
  8
_0-4_図面枠
  6
CONTINUOUS
 62
    2
 10
2340.3078299999979
 20
-72.459429999998974
 11
2340.3078299999979
 21
-972.45943000000034
  0
LINE
  8
_0-4_図面枠
  6
CONTINUOUS
 62
    2
 10
2990.3078299999979
 20
-72.459429999998974
 11
2990.3078299999979
 21
-972.45943000000034
  0
LINE
  8
_0-4_図面枠
  6
CONTINUOUS
 62
    2
 10
1140.3078299999979
 20
-72.459429999998974
 11
1140.3078299999979
 21
-972.45943000000034
  0
TEXT
  8
_0-4_図面枠
 62
    7
 10
1230.750909999997
 20
-637.742490000001
 40
60
 41
0.8
 50
0
  1
１０００
  0
TEXT
  8
_0-4_図面枠
 62
    7
 10
1293.3244699999977
 20
-492.62444999999934
 40
60
 41
0.8000000000000003
 50
0
  1
９００
  0
TEXT
  8
_0-4_図面枠
 62
    7
 10
1230.750909999997
 20
-787.742490000001
 40
60
 41
0.8
 50
0
  1
１２００
  0
TEXT
  8
_0-4_図面枠
 62
    7
 10
1225.8717699999979
 20
-941.75005000000101
 40
60
 41
0.8
 50
0
  1
１５００
  0
TEXT
  8
_0-4_図面枠
 62
    7
 10
1630.7503099999976
 20
-787.742490000001
 40
60
 41
0.7999999999999993
 50
0
  1
１２００
  0
TEXT
  8
_0-4_図面枠
 62
    7
 10
1631.7464099999979
 20
-940.68483000000106
 40
60
 41
0.8000000000000003
 50
0
  1
１５００
  0
TEXT
  8
_0-4_図面枠
 62
    7
 10
1630.7503099999976
 20
-637.742490000001
 40
60
 41
0.7999999999999993
 50
0
  1
１０００
  0
TEXT
  8
_0-4_図面枠
 62
    7
 10
1693.3241499999967
 20
-492.62444999999934
 40
60
 41
0.7999999999999999
 50
0
  1
９００
  0
TEXT
  8
_0-4_図面枠
 62
    7
 10
2428.490789999998
 20
-500.33319000000211
 40
60
 41
0.7999999999999993
 50
0
  1
１８００
  0
TEXT
  8
_0-4_図面枠
 62
    7
 10
2436.3771299999971
 20
-642.63751000000002
 40
60
 41
0.8000000000000006
 50
0
  1
２０００
  0
TEXT
  8
_0-4_図面枠
 62
    7
 10
2427.7003899999963
 20
-791.88341000000128
 40
60
 41
0.8000000000000006
 50
0
  1
２４００
  0
TEXT
  8
_0-4_図面枠
 62
    7
 10
2419.8909299999978
 20
-948.07100999999921
 40
60
 41
0.8000000000000006
 50
0
  1
３０００
  0
TEXT
  8
_0-4_図面枠
 62
    7
 10
2027.7003899999963
 20
-791.88341000000128
 40
60
 41
0.8000000000000006
 50
0
  1
　１５０
  0
TEXT
  8
_0-4_図面枠
 62
    7
 10
2019.8909299999978
 20
-948.07100999999921
 40
60
 41
0.8000000000000006
 50
0
  1
　１５０
  0
TEXT
  8
_0-4_図面枠
 62
    7
 10
2027.7003899999963
 20
-491.88349000000107
 40
60
 41
0.8000000000000006
 50
0
  1
　１５０
  0
TEXT
  8
_0-4_図面枠
 62
    7
 10
2027.7003899999963
 20
-641.88341000000128
 40
60
 41
0.8000000000000006
 50
0
  1
　１５０
  0
TEXT
  8
_0-4_図面枠
 62
    7
 10
2801.6829299999972
 20
-805.31206999999995
 40
60
 41
0.7999999999999999
 50
0
  1
１．０
  0
TEXT
  8
_0-4_図面枠
 62
    7
 10
2801.6829299999972
 20
-955.31206999999995
 40
60
 41
0.7999999999999999
 50
0
  1
１．０
  0
TEXT
  8
_0-4_図面枠
 62
    7
 10
2801.6829299999972
 20
-505.31215000000111
 40
60
 41
0.7999999999999999
 50
0
  1
０．８
  0
TEXT
  8
_0-4_図面枠
 62
    7
 10
2801.6829299999972
 20
-655.31206999999995
 40
60
 41
0.7999999999999999
 50
0
  1
０．８
  0
ARC
  8
_0-3_躯体と製品
  6
CONTINUOUS
 62
    3
 10
1948.358269999997
 20
1155.211089999998
 40
36.131099999999989
 50
203.12832000000424
 51
336.70039199999877
  0
LINE
  8
_0-3_躯体と製品
  6
PLINE2
 62
    5
 10
1941.9830499999971
 20
1119.6468899999988
 11
1983.3719899999978
 21
1161.0358099999978
  0
LINE
  8
_0-3_躯体と製品
  6
PLINE2
 62
    5
 10
1948.5650099999966
 20
1160.855850000002
 11
1976.6644699999979
 21
1132.7563700000019
  0
LINE
  8
_0-3_躯体と製品
  6
CONTINUOUS
 62
    4
 10
2457.3589299999967
 20
1237.8742700000018
 11
1820.8239499999963
 21
1237.8742700000018
  0
LINE
  8
_0-3_躯体と製品
  6
CONTINUOUS
 62
    4
 10
1820.9157899999973
 20
1162.9788300000009
 11
2457.3589299999967
 21
1162.9788300000009
  0
LINE
  8
_0-4_図面枠
  6
CONTINUOUS
 62
    2
 10
1254.3508699999966
 20
1121.4756900000009
 11
857.55479000000196
 21
434.20470999999907
  0
TEXT
  8
_0-4_図面枠
 62
    7
 10
1322.6106499999969
 20
-184.12227000000303
 40
60
 41
0.8000000000000006
 50
0
  1
Ａ
  0
TEXT
  8
_0-4_図面枠
 62
    7
 10
1723.7037899999978
 20
-188.91611000000012
 40
60
 41
0.7999999999999982
 50
0
  1
Ｉ
  0
ARC
  8
_0-3_躯体と製品
  6
CONTINUOUS
 62
    3
 10
1356.2251299999971
 20
1191.5373700000009
 40
28.610720000000001
 50
90.447385000001461
 51
155.48782100000079
  0
ARC
  8
_0-3_躯体と製品
  6
CONTINUOUS
 62
    3
 10
1356.2251299999971
 20
1191.5373700000009
 40
34.610720000000001
 50
90.368338999998613
 51
155.48782100000079
  0
LINE
  8
_0-3_躯体と製品
  6
CONTINUOUS
 62
    4
 10
1366.3589299999967
 20
1237.8742700000018
 11
1160.7211299999981
 21
1237.8742700000018
  0
LINE
  8
_0-3_躯体と製品
  6
CONTINUOUS
 62
    2
 10
1160.7211299999981
 20
1080.3753099999988
 11
1801.3589299999967
 21
1080.3753099999988
  0
LINE
  8
_0-3_躯体と製品
  6
PLINE5
 62
    2
 10
1160.7211299999981
 20
1084.0276299999998
 11
1366.3589299999967
 21
1084.0276299999998
  0
LINE
  8
_0-3_躯体と製品
  6
CONTINUOUS
 62
    2
 10
1160.7211299999981
 20
1172.1235100000008
 11
1366.3589299999967
 21
1172.1235100000008
  0
LINE
  8
_0-3_躯体と製品
  6
PLINE2
 62
    2
 10
1160.7211299999981
 20
1169.1235099999988
 11
1366.3589299999967
 21
1169.1235099999988
  0
LINE
  8
_0-3_躯体と製品
  6
CONTINUOUS
 62
    2
 10
1160.7211299999981
 20
1064.2170899999969
 11
1801.3589299999967
 21
1064.2170899999969
  0
LINE
  8
_0-3_躯体と製品
  6
PLINE5
 62
    2
 10
1160.7211299999981
 20
1152.1235100000008
 11
1366.3589299999967
 21
1152.1235100000008
  0
LINE
  8
_0-3_躯体と製品
  6
PLINE5
 62
    2
 10
1160.7211299999981
 20
1100.3753099999988
 11
1366.3589299999967
 21
1100.3753099999988
  0
LINE
  8
_0-3_躯体と製品
  6
CONTINUOUS
 62
    2
 10
905.35893000000215
 20
1080.3753099999988
 11
1140.7211299999981
 21
1080.3753099999988
  0
LINE
  8
_0-3_躯体と製品
  6
PLINE5
 62
    2
 10
1020.3589300000021
 20
1084.0276299999998
 11
1140.7211299999981
 21
1084.0276299999998
  0
LINE
  8
_0-3_躯体と製品
  6
CONTINUOUS
 62
    2
 10
1020.3589300000021
 20
1172.1235100000008
 11
1140.7211299999981
 21
1172.1235100000008
  0
LINE
  8
_0-3_躯体と製品
  6
PLINE2
 62
    2
 10
1020.3589300000021
 20
1169.1235099999988
 11
1140.7211299999981
 21
1169.1235099999988
  0
LINE
  8
_0-3_躯体と製品
  6
CONTINUOUS
 62
    2
 10
905.35893000000215
 20
1064.2170899999969
 11
1140.7211299999981
 21
1064.2170899999969
  0
LINE
  8
_0-3_躯体と製品
  6
CONTINUOUS
 62
    4
 10
1140.7211299999981
 20
1237.8742700000018
 11
1020.3589300000021
 21
1237.8742700000018
  0
ARC
  8
_0-3_躯体と製品
  6
CONTINUOUS
 62
    3
 10
1028.1951700000027
 20
1220.0343299999979
 40
42.131099999999989
 50
259.28076399999674
 51
318.23384300000095
  0
ARC
  8
_0-3_躯体と製品
  6
CONTINUOUS
 62
    3
 10
1028.1951700000027
 20
1220.0343299999979
 40
36.131099999999989
 50
257.47395199999846
 51
315.96489900000313
  0
LINE
  8
_0-3_躯体と製品
  6
CONTINUOUS
 62
    5
 10
1020.3589300000021
 20
1195.9544300000009
 11
1055.132410000002
 21
1195.9544300000009
  0
LINE
  8
_0-3_躯体と製品
  6
PLINE5
 62
    2
 10
1020.3589300000021
 20
1152.1235100000008
 11
1140.7211299999981
 21
1152.1235100000008
  0
LINE
  8
_0-3_躯体と製品
  6
PLINE5
 62
    2
 10
1020.3589300000021
 20
1100.3753099999988
 11
1140.7211299999981
 21
1100.3753099999988
  0
LINE
  8
_0-3_躯体と製品
  6
PLINE5
 62
    2
 10
905.35893000000215
 20
1084.0276299999998
 11
970.35893000000033
 21
1084.0276299999998
  0
LINE
  8
_0-3_躯体と製品
  6
PLINE5
 62
    2
 10
905.35893000000215
 20
1100.3753099999988
 11
970.35893000000033
 21
1100.3753099999988
  0
ARC
  8
_0-3_躯体と製品
  6
CONTINUOUS
 62
    3
 10
956.38507000000391
 20
1181.3305100000018
 40
28.610720000000001
 50
60.76365600000009
 51
92.023258999999513
  0
LINE
  8
_0-3_躯体と製品
  6
CONTINUOUS
 62
    3
 10
928.79898999999932
 20
1193.1902500000019
 11
921.35893000000033
 21
1185.7501899999988
  0
LINE
  8
_0-3_躯体と製品
  6
CONTINUOUS
 62
    3
 10
923.339750000001
 20
1195.6795699999968
 11
921.3308500000021
 21
1193.6706700000009
  0
LINE
  8
_0-3_躯体と製品
  6
CONTINUOUS
 62
    4
 10
905.35893000000215
 20
1237.8742700000018
 11
970.35893000000033
 21
1237.8742700000018
  0
ARC
  8
_0-3_躯体と製品
  6
CONTINUOUS
 62
    3
 10
896.27619000000232
 20
1212.1693499999988
 40
36.131099999999989
 50
284.55935599999998
 51
313.96466099999998
  0
ARC
  8
_0-3_躯体と製品
  6
CONTINUOUS
 62
    3
 10
896.27619000000232
 20
1219.6766900000009
 40
36.131099999999989
 50
284.55935599999998
 51
313.96466099999998
  0
LINE
  8
_0-3_躯体と製品
  6
CONTINUOUS
 62
    2
 10
905.35893000000215
 20
1172.1235100000008
 11
970.35893000000033
 21
1172.1235100000008
  0
LINE
  8
_0-3_躯体と製品
  6
PLINE2
 62
    2
 10
905.35893000000215
 20
1169.1235099999988
 11
970.35893000000033
 21
1169.1235099999988
  0
LINE
  8
_0-3_躯体と製品
  6
CONTINUOUS
 62
    2
 10
923.58781000000454
 20
1195.9544300000009
 11
905.35893000000215
 21
1195.9544300000009
  0
LINE
  8
_0-3_躯体と製品
  6
PLINE5
 62
    2
 10
905.35893000000215
 20
1152.1235100000008
 11
970.35893000000033
 21
1152.1235100000008
  0
ARC
  8
_0-3_躯体と製品
  6
CONTINUOUS
 62
    3
 10
954.83111000000281
 20
1181.3200300000008
 40
28.610720000000001
 50
90.447385000001461
 51
155.48782100000079
  0
ARC
  8
_0-3_躯体と製品
  6
CONTINUOUS
 62
    3
 10
954.83111000000281
 20
1181.3200300000008
 40
34.610720000000001
 50
90.368338999998613
 51
155.48782100000079
  0
ARC
  8
_0-3_躯体と製品
  6
CONTINUOUS
 62
    3
 10
956.38507000000391
 20
1181.3305100000018
 40
34.610720000000001
 50
66.187582999999918
 51
91.672403000000585
  0
LINE
  8
_0-4_図面枠
  6
CONTINUOUS
 62
    2
 10
1254.3508699999966
 20
1121.4756900000009
 11
1243.0111299999971
 21
1081.8346699999979
  0
ARC
  8
_0-3_躯体と製品
  6
CONTINUOUS
 62
    3
 10
1224.4765299999981
 20
1191.5100900000009
 40
28.610720000000001
 50
90.447385000001461
 51
155.48782100000079
  0
ARC
  8
_0-3_躯体と製品
  6
CONTINUOUS
 62
    3
 10
1224.4765299999981
 20
1191.5100900000009
 40
34.610720000000001
 50
90.368338999998613
 51
155.48782100000079
  0
ARC
  8
_0-3_躯体と製品
  6
CONTINUOUS
 62
    3
 10
1159.116509999998
 20
1219.5477500000009
 40
42.131099999999989
 50
203.12832000000424
 51
244.11145100000303
  0
ARC
  8
_0-3_躯体と製品
  6
CONTINUOUS
 62
    3
 10
1164.313049999997
 20
1222.7108499999979
 40
42.131099999999989
 50
203.12832000000424
 51
235.94667599999784
  0
ARC
  8
_0-3_躯体と製品
  6
CONTINUOUS
 62
    3
 10
1094.2818899999966
 20
1191.4932700000008
 40
34.610720000000001
 50
24.692922999995002
 51
91.6724030000006
  0
ARC
  8
_0-3_躯体と製品
  6
CONTINUOUS
 62
    3
 10
1092.7279499999968
 20
1191.4828100000018
 40
28.610720000000001
 50
90.447385000001461
 51
155.48782100000079
  0
ARC
  8
_0-3_躯体と製品
  6
CONTINUOUS
 62
    3
 10
1092.7279499999968
 20
1191.4828100000018
 40
34.610720000000001
 50
90.368338999998613
 51
155.48782100000079
  0
ARC
  8
_0-3_躯体と製品
  6
CONTINUOUS
 62
    3
 10
1028.1951700000027
 20
1220.0343299999979
 40
42.131099999999989
 50
319.54478900000038
 51
336.70039199999871
  0
ARC
  8
_0-3_躯体と製品
  6
CONTINUOUS
 62
    3
 10
1028.1951700000027
 20
1220.0343299999979
 40
36.131099999999989
 50
317.6407700000027
 51
336.70039199999871
  0
ARC
  8
_0-3_躯体と製品
  6
CONTINUOUS
 62
    3
 10
1094.2818899999966
 20
1191.4932700000008
 40
28.610720000000001
 50
24.692922999995002
 51
92.023258999999499
  0
LINE
  8
_0-3_躯体と製品
  6
CONTINUOUS
 62
    5
 10
1131.760269999997
 20
1195.964909999997
 11
1140.7211299999981
 21
1195.964909999997
  0
LINE
  8
_0-3_躯体と製品
  6
CONTINUOUS
 62
    5
 10
1160.7211299999981
 20
1195.964909999997
 11
1186.6863699999976
 21
1195.964909999997
  0
ARC
  8
_0-3_躯体と製品
  6
CONTINUOUS
 62
    3
 10
1159.7491299999965
 20
1220.044809999999
 40
42.131099999999989
 50
319.54478900000038
 51
336.70039199999871
  0
ARC
  8
_0-3_躯体と製品
  6
CONTINUOUS
 62
    3
 10
1159.7491299999965
 20
1220.044809999999
 40
36.131099999999989
 50
317.6407700000027
 51
336.70039199999871
  0
ARC
  8
_0-3_躯体と製品
  6
CONTINUOUS
 62
    3
 10
1159.7491299999965
 20
1220.044809999999
 40
42.131099999999989
 50
271.32199300000229
 51
318.23384300000095
  0
ARC
  8
_0-3_躯体と製品
  6
CONTINUOUS
 62
    3
 10
1159.7491299999965
 20
1220.044809999999
 40
36.131099999999989
 50
271.54157400000082
 51
315.96489900000307
  0
ARC
  8
_0-3_躯体と製品
  6
CONTINUOUS
 62
    3
 10
1291.4977299999973
 20
1220.0720899999978
 40
42.131099999999989
 50
203.12832000000424
 51
318.23384300000095
  0
ARC
  8
_0-3_躯体と製品
  6
CONTINUOUS
 62
    3
 10
1291.4977299999973
 20
1220.0720899999978
 40
36.131099999999989
 50
203.12832000000424
 51
315.96489900000307
  0
LINE
  8
_0-3_躯体と製品
  6
CONTINUOUS
 62
    5
 10
1264.560489999998
 20
1195.9921900000008
 11
1318.4349699999966
 21
1195.9921900000008
  0
ARC
  8
_0-3_躯体と製品
  6
CONTINUOUS
 62
    3
 10
1226.0304899999974
 20
1191.520569999997
 40
34.610720000000001
 50
24.692922999995002
 51
91.6724030000006
  0
ARC
  8
_0-3_躯体と製品
  6
CONTINUOUS
 62
    3
 10
1226.0304899999974
 20
1191.520569999997
 40
28.610720000000001
 50
24.692922999995002
 51
92.023258999999499
  0
ARC
  8
_0-3_躯体と製品
  6
CONTINUOUS
 62
    3
 10
1291.4977299999973
 20
1220.0720899999978
 40
42.131099999999989
 50
319.54478900000038
 51
336.70039199999871
  0
ARC
  8
_0-3_躯体と製品
  6
CONTINUOUS
 62
    3
 10
1291.4977299999973
 20
1220.0720899999978
 40
36.131099999999989
 50
317.6407700000027
 51
336.70039199999871
  0
LINE
  8
_0-3_躯体と製品
  6
CONTINUOUS
 62
    2
 10
1882.2667899999979
 20
1161.4784300000019
 11
1882.2667899999979
 21
877.34288999999876
  0
LINE
  8
_0-3_躯体と製品
  6
PLINE5
 62
    2
 10
1416.3589299999967
 20
1084.0276299999998
 11
1801.3589299999967
 21
1084.0276299999998
  0
LINE
  8
_0-3_躯体と製品
  6
CONTINUOUS
 62
    2
 10
1416.3589299999967
 20
1172.1235100000008
 11
1801.3589299999967
 21
1172.1235100000008
  0
LINE
  8
_0-3_躯体と製品
  6
PLINE2
 62
    2
 10
1416.3589299999967
 20
1169.1235099999988
 11
1801.3589299999967
 21
1169.1235099999988
  0
LINE
  8
_0-3_躯体と製品
  6
PLINE5
 62
    2
 10
1416.3589299999967
 20
1152.1235100000008
 11
1801.3589299999967
 21
1152.1235100000008
  0
LINE
  8
_0-3_躯体と製品
  6
PLINE5
 62
    2
 10
1416.3589299999967
 20
1100.3753099999988
 11
1801.3589299999967
 21
1100.3753099999988
  0
LINE
  8
_0-3_躯体と製品
  6
CONTINUOUS
 62
    4
 10
1802.3702499999963
 20
1237.8742700000018
 11
1416.3589299999967
 21
1237.8742700000018
  0
TEXT
  8
_0-4_図面枠
 62
    7
 10
1489.6126099999965
 20
930.76818999999796
 40
60
 41
0.8
 50
0
  1
現場溶接
  0
ARC
  8
_0-3_躯体と製品
  6
CONTINUOUS
 62
    3
 10
1686.7435099999966
 20
1220.1539499999988
 40
42.131099999999989
 50
203.12832000000424
 51
318.23384300000095
  0
ARC
  8
_0-3_躯体と製品
  6
CONTINUOUS
 62
    3
 10
1686.7435099999966
 20
1220.1539499999988
 40
36.131099999999989
 50
203.12832000000424
 51
315.96489900000307
  0
LINE
  8
_0-3_躯体と製品
  6
CONTINUOUS
 62
    5
 10
1659.8062699999973
 20
1196.0740299999989
 11
1713.6807499999977
 21
1196.0740299999989
  0
LINE
  8
_0-4_図面枠
  6
CONTINUOUS
 62
    2
 10
1419.2488499999963
 20
1113.477809999999
 11
1434.240429999998
 21
1115.7456899999979
  0
LINE
  8
_0-4_図面枠
  6
CONTINUOUS
 62
    2
 10
1434.240429999998
 20
1115.7456899999979
 11
1445.8570099999979
 21
1114.6603899999989
  0
LINE
  8
_0-4_図面枠
  6
CONTINUOUS
 62
    2
 10
1445.8570099999979
 20
1114.6603899999989
 11
1451.8202699999965
 21
1089.4867699999979
  0
LINE
  8
_0-4_図面枠
  6
CONTINUOUS
 62
    2
 10
1451.8202699999965
 20
1089.4867699999979
 11
1438.1702099999966
 21
1050.2094900000009
  0
LINE
  8
_0-4_図面枠
  6
CONTINUOUS
 62
    2
 10
1438.1702099999966
 20
1050.2094900000009
 11
1421.6842899999974
 21
1018.2643099999989
  0
LINE
  8
_0-4_図面枠
  6
CONTINUOUS
 62
    2
 10
1421.6842899999974
 20
1018.2643099999989
 11
1415.1098099999981
 21
989.30635000000098
  0
LINE
  8
_0-4_図面枠
  6
CONTINUOUS
 62
    2
 10
1415.1098099999981
 20
989.30635000000098
 11
1421.7841299999964
 21
965.26914999999894
  0
LINE
  8
_0-4_図面枠
  6
CONTINUOUS
 62
    2
 10
1421.7841299999964
 20
965.26914999999894
 11
1437.5789299999979
 21
947.32456999999977
  0
LINE
  8
_0-4_図面枠
  6
CONTINUOUS
 62
    2
 10
1437.5789299999979
 20
947.32456999999977
 11
1456.6638299999977
 21
943.20828999999776
  0
LINE
  8
_0-4_図面枠
  6
CONTINUOUS
 62
    2
 10
1456.6638299999977
 20
943.20828999999776
 11
1478.3781099999978
 21
945.55068999999889
  0
LINE
  8
_0-4_図面枠
  6
CONTINUOUS
 62
    2
 10
1420.6145899999974
 20
1113.9280499999988
 11
1438.3302899999981
 21
1118.6749499999989
  0
ARC
  8
_0-3_躯体と製品
  6
CONTINUOUS
 62
    3
 10
1488.7335099999964
 20
1191.6744099999999
 40
34.610720000000001
 50
24.692922999995002
 51
91.6724030000006
  0
ARC
  8
_0-3_躯体と製品
  6
CONTINUOUS
 62
    3
 10
1488.7335099999964
 20
1191.6744099999999
 40
28.610720000000001
 50
24.692922999995002
 51
92.023258999999499
  0
ARC
  8
_0-3_躯体と製品
  6
CONTINUOUS
 62
    3
 10
1422.4521499999973
 20
1220.1986499999969
 40
42.131099999999989
 50
261.68442099999731
 51
318.23384300000089
  0
ARC
  8
_0-3_躯体と製品
  6
CONTINUOUS
 62
    3
 10
1422.4521499999973
 20
1220.1986499999969
 40
36.131099999999989
 50
260.29112799999859
 51
315.96489900000307
  0
LINE
  8
_0-3_躯体と製品
  6
CONTINUOUS
 62
    5
 10
1416.3589299999967
 20
1196.1187499999999
 11
1449.3893899999966
 21
1196.1187499999999
  0
LINE
  8
_0-3_躯体と製品
  6
PLINE2
 62
    5
 10
1425.6721899999975
 20
1161.1198099999999
 11
1425.8825299999971
 21
1161.3301499999989
  0
ARC
  8
_0-3_躯体と製品
  6
CONTINUOUS
 62
    3
 10
1357.7790899999964
 20
1191.5478500000008
 40
34.610720000000001
 50
75.646980000000354
 51
91.6724030000006
  0
ARC
  8
_0-3_躯体と製品
  6
CONTINUOUS
 62
    3
 10
1357.7790899999964
 20
1191.5478500000008
 40
28.610720000000001
 50
72.549472999995189
 51
92.023258999999499
  0
ARC
  8
_0-3_躯体と製品
  6
CONTINUOUS
 62
    3
 10
1422.4521499999973
 20
1220.1986499999969
 40
42.131099999999989
 50
319.54478900000038
 51
336.70039199999871
  0
ARC
  8
_0-3_躯体と製品
  6
CONTINUOUS
 62
    3
 10
1422.4521499999973
 20
1220.1986499999969
 40
36.131099999999989
 50
317.6407700000027
 51
336.70039199999871
  0
ARC
  8
_0-3_躯体と製品
  6
CONTINUOUS
 62
    3
 10
1487.1795499999971
 20
1191.6639299999988
 40
28.610720000000001
 50
90.447385000001461
 51
155.48782100000079
  0
ARC
  8
_0-3_躯体と製品
  6
CONTINUOUS
 62
    3
 10
1487.1795499999971
 20
1191.6639299999988
 40
34.610720000000001
 50
90.368338999998613
 51
155.48782100000079
  0
ARC
  8
_0-3_躯体と製品
  6
CONTINUOUS
 62
    3
 10
1554.9949099999976
 20
1220.126649999997
 40
36.131099999999989
 50
317.6407700000027
 51
336.70039199999871
  0
ARC
  8
_0-3_躯体と製品
  6
CONTINUOUS
 62
    3
 10
1554.9949099999976
 20
1220.126649999997
 40
42.131099999999989
 50
203.12832000000424
 51
318.23384300000095
  0
ARC
  8
_0-3_躯体と製品
  6
CONTINUOUS
 62
    3
 10
1554.9949099999976
 20
1220.126649999997
 40
36.131099999999989
 50
203.12832000000424
 51
315.96489900000307
  0
LINE
  8
_0-3_躯体と製品
  6
CONTINUOUS
 62
    5
 10
1528.0576699999965
 20
1196.04675
 11
1581.9321499999969
 21
1196.04675
  0
ARC
  8
_0-3_躯体と製品
  6
CONTINUOUS
 62
    3
 10
1554.9949099999976
 20
1220.126649999997
 40
42.131099999999989
 50
319.54478900000038
 51
336.70039199999871
  0
ARC
  8
_0-3_躯体と製品
  6
CONTINUOUS
 62
    3
 10
1619.7223099999974
 20
1191.5919499999968
 40
28.610720000000001
 50
90.447385000001461
 51
155.48782100000079
  0
ARC
  8
_0-3_躯体と製品
  6
CONTINUOUS
 62
    3
 10
1619.7223099999974
 20
1191.5919499999968
 40
34.610720000000001
 50
90.368338999998613
 51
155.48782100000079
  0
ARC
  8
_0-3_躯体と製品
  6
CONTINUOUS
 62
    3
 10
1621.2762699999967
 20
1191.60241
 40
34.610720000000001
 50
24.692922999995002
 51
91.6724030000006
  0
ARC
  8
_0-3_躯体と製品
  6
CONTINUOUS
 62
    3
 10
1621.2762699999967
 20
1191.60241
 40
28.610720000000001
 50
24.692922999995002
 51
92.023258999999499
  0
LINE
  8
_0-3_躯体と製品
  6
PLINE2
 62
    5
 10
1820.9257299999972
 20
1154.8831299999979
 11
1844.7676899999969
 21
1131.0411699999979
  0
LINE
  8
_0-3_躯体と製品
  6
PLINE2
 62
    5
 10
1820.9526099999966
 20
1132.9520300000008
 11
1849.3981899999981
 21
1161.3976099999988
  0
ARC
  8
_0-3_躯体と製品
  6
CONTINUOUS
 62
    3
 10
1882.891029999997
 20
1126.6595700000009
 40
34.610720000000001
 50
24.692922999995002
 51
155.48782100000079
  0
LINE
  8
_0-3_躯体と製品
  6
PLINE2
 62
    5
 10
1923.2660899999973
 20
1129.214189999997
 11
1955.1020899999967
 21
1161.0501899999999
  0
LINE
  8
_0-3_躯体と製品
  6
PLINE2
 62
    5
 10
1920.2669099999966
 20
1160.869649999999
 11
1960.0966299999964
 21
1121.039949999999
  0
ARC
  8
_0-3_躯体と製品
  6
CONTINUOUS
 62
    3
 10
1818.3175299999966
 20
1155.655110000002
 40
36.131099999999989
 50
274.208359000001
 51
336.70039199999871
  0
LINE
  8
_0-3_躯体と製品
  6
PLINE2
 62
    5
 10
1820.9604499999969
 20
1126.5641300000009
 11
1826.953349999998
 21
1120.5712299999998
  0
ARC
  8
_0-3_躯体と製品
  6
CONTINUOUS
 62
    3
 10
1751.4709099999964
 20
1191.6192300000009
 40
28.610720000000001
 50
90.447385000001461
 51
155.48782100000079
  0
ARC
  8
_0-3_躯体と製品
  6
CONTINUOUS
 62
    3
 10
1751.4709099999964
 20
1191.6192300000009
 40
34.610720000000001
 50
90.368338999998613
 51
155.48782100000079
  0
ARC
  8
_0-3_躯体と製品
  6
CONTINUOUS
 62
    3
 10
1686.7435099999966
 20
1220.1539499999988
 40
42.131099999999989
 50
319.54478900000038
 51
336.70039199999871
  0
ARC
  8
_0-3_躯体と製品
  6
CONTINUOUS
 62
    3
 10
1686.7435099999966
 20
1220.1539499999988
 40
36.131099999999989
 50
317.6407700000027
 51
336.70039199999871
  0
ARC
  8
_0-3_躯体と製品
  6
CONTINUOUS
 62
    3
 10
1818.4920899999979
 20
1220.1812299999979
 40
42.131099999999989
 50
203.12832000000424
 51
246.00461799999871
  0
ARC
  8
_0-3_躯体と製品
  6
CONTINUOUS
 62
    3
 10
1818.4920899999979
 20
1220.1812299999979
 40
36.131099999999989
 50
203.12832000000424
 51
241.69309899999644
  0
LINE
  8
_0-3_躯体と製品
  6
CONTINUOUS
 62
    5
 10
1791.5548499999968
 20
1196.1013300000009
 11
1801.3589299999967
 21
1196.1013300000009
  0
ARC
  8
_0-3_躯体と製品
  6
CONTINUOUS
 62
    3
 10
1753.0248699999975
 20
1191.629710000002
 40
34.610720000000001
 50
24.692922999995002
 51
91.6724030000006
  0
ARC
  8
_0-3_躯体と製品
  6
CONTINUOUS
 62
    3
 10
1753.0248699999975
 20
1191.629710000002
 40
28.610720000000001
 50
24.692922999995002
 51
92.023258999999499
  0
LINE
  8
_0-3_躯体と製品
  6
PLINE2
 62
    5
 10
1820.9179699999968
 20
1161.2016699999999
 11
1821.1282899999969
 21
1161.411990000001
  0
LINE
  8
_0-3_躯体と製品
  6
PLINE2
 62
    5
 10
1842.8892899999973
 20
1161.2038299999988
 11
1854.0155299999969
 21
1150.0775900000008
  0
LINE
  8
_0-3_躯体と製品
  6
PLINE2
 62
    5
 10
1896.6958899999972
 20
1159.2125299999998
 11
1898.5623099999975
 21
1161.0789500000008
  0
LINE
  8
_0-3_躯体と製品
  6
PLINE2
 62
    5
 10
1913.0972499999971
 20
1147.3296100000009
 11
1926.8322099999968
 21
1161.064569999998
  0
TEXT
  8
_0-4_図面枠
 62
    7
 10
2543.174009999997
 20
-180.92631000000119
 40
60
 41
0.7999999999999982
 50
0
  1
Ｅ
  0
TEXT
  8
_0-4_図面枠
 62
    7
 10
2143.174009999997
 20
-180.92631000000119
 40
60
 41
0.7999999999999982
 50
0
  1
Ｊ
  0
TEXT
  8
_0-4_図面枠
 62
    7
 10
2797.2536099999979
 20
-189.7152100000003
 40
60
 41
0.8000000000000006
 50
0
  1
板厚
  0
LINE
  8
_0-3_躯体と製品
  6
CONTINUOUS
 62
    4
 10
2817.3589299999967
 20
1237.8742700000018
 11
2477.3589299999967
 21
1237.8742700000018
  0
ARC
  8
_0-3_躯体と製品
  6
CONTINUOUS
 62
    3
 10
2598.6038899999967
 20
1154.5685499999988
 40
36.131099999999989
 50
203.12832000000424
 51
336.70039199999877
  0
LINE
  8
_0-3_躯体と製品
  6
PLINE2
 62
    5
 10
2571.4059499999967
 20
1131.4566299999969
 11
2602.7304099999965
 21
1162.7811099999999
  0
LINE
  8
_0-3_躯体と製品
  6
PLINE2
 62
    5
 10
2567.8952499999978
 20
1162.6005699999989
 11
2610.1603699999978
 21
1120.3354499999969
  0
LINE
  8
_0-3_躯体と製品
  6
CONTINUOUS
 62
    4
 10
2477.3589299999967
 20
1162.9788300000009
 11
3096.3589299999967
 21
1162.9788300000009
  0
LINE
  8
_0-3_躯体と製品
  6
CONTINUOUS
 62
    2
 10
2529.3686099999977
 20
1160.5711499999998
 11
2529.3686099999977
 21
877.34288999999876
  0
LINE
  8
_0-3_躯体と製品
  6
CONTINUOUS
 62
    2
 10
2402.9643299999971
 20
1160.762369999997
 11
2402.9643299999971
 21
877.34288999999876
  0
LINE
  8
_0-3_躯体と製品
  6
CONTINUOUS
 62
    2
 10
2275.9798299999966
 20
1160.5461099999998
 11
2275.9798299999966
 21
877.34288999999876
  0
LINE
  8
_0-3_躯体と製品
  6
CONTINUOUS
 62
    2
 10
2139.0874299999978
 20
1161.1032699999978
 11
2139.0874299999978
 21
877.34288999999876
  0
LINE
  8
_0-3_躯体と製品
  6
CONTINUOUS
 62
    2
 10
2010.0140699999974
 20
1161.1538899999998
 11
2010.0140699999974
 21
877.34288999999876
  0
ARC
  8
_0-3_躯体と製品
  6
CONTINUOUS
 62
    3
 10
2273.034209999998
 20
1126.1162899999999
 40
34.610720000000001
 50
24.692922999995002
 51
155.48782100000079
  0
ARC
  8
_0-3_躯体と製品
  6
CONTINUOUS
 62
    3
 10
2012.8502899999967
 20
1126.6595700000009
 40
34.610720000000001
 50
24.692922999995002
 51
155.48782100000079
  0
ARC
  8
_0-3_躯体と製品
  6
CONTINUOUS
 62
    3
 10
2142.9934699999976
 20
1126.5603099999998
 40
34.610720000000001
 50
24.692922999995002
 51
155.48782100000079
  0
LINE
  8
_0-3_躯体と製品
  6
PLINE2
 62
    5
 10
2052.488269999998
 20
1162.9788300000009
 11
2093.1860099999976
 21
1122.2810900000009
  0
LINE
  8
_0-3_躯体と製品
  6
PLINE2
 62
    5
 10
2080.7725499999979
 20
1162.9788300000009
 11
2108.4609299999975
 21
1135.2904499999968
  0
LINE
  8
_0-3_躯体と製品
  6
PLINE2
 62
    5
 10
2077.2538299999978
 20
1119.5329299999999
 11
2120.6997499999979
 21
1162.9788300000009
  0
LINE
  8
_0-3_躯体と製品
  6
PLINE2
 62
    5
 10
2058.6352499999975
 20
1129.1986299999999
 11
2092.4154699999981
 21
1162.9788300000009
  0
LINE
  8
_0-3_躯体と製品
  6
PLINE2
 62
    5
 10
2177.9908099999975
 20
1162.9788300000009
 11
2220.6952299999975
 21
1120.2744100000009
  0
LINE
  8
_0-3_躯体と製品
  6
PLINE2
 62
    5
 10
2206.2750699999979
 20
1162.9788300000009
 11
2236.6915299999964
 21
1132.5623899999978
  0
LINE
  8
_0-3_躯体と製品
  6
PLINE2
 62
    5
 10
2202.3226499999964
 20
1119.9666299999988
 11
2245.3348499999975
 21
1162.9788300000009
  0
LINE
  8
_0-3_躯体と製品
  6
PLINE2
 62
    5
 10
2183.704069999998
 20
1129.6323299999988
 11
2217.0505899999971
 21
1162.9788300000009
  0
ARC
  8
_0-3_躯体と製品
  6
CONTINUOUS
 62
    3
 10
2078.3175299999966
 20
1155.211089999998
 40
36.131099999999989
 50
203.12832000000424
 51
336.70039199999877
  0
ARC
  8
_0-3_躯体と製品
  6
CONTINUOUS
 62
    3
 10
2208.4607099999976
 20
1155.1118299999998
 40
36.131099999999989
 50
203.12832000000424
 51
336.70039199999877
  0
LINE
  8
_0-3_躯体と製品
  6
PLINE2
 62
    5
 10
2043.6332299999976
 20
1142.480869999999
 11
2064.1311899999964
 21
1162.9788300000009
  0
LINE
  8
_0-3_躯体と製品
  6
PLINE2
 62
    5
 10
1976.8630899999971
 20
1160.8420299999989
 11
1987.4910899999977
 21
1150.2140300000019
  0
LINE
  8
_0-3_躯体と製品
  6
PLINE2
 62
    5
 10
2029.7384699999966
 20
1156.8703700000008
 11
2033.4199499999977
 21
1160.5518699999989
  0
LINE
  8
_0-3_躯体と製品
  6
PLINE2
 62
    5
 10
2109.0568099999964
 20
1162.9788300000009
 11
2119.7924099999964
 21
1152.2432299999989
  0
LINE
  8
_0-3_躯体と製品
  6
PLINE2
 62
    5
 10
2156.6223499999978
 20
1159.1191500000009
 11
2158.4887699999981
 21
1160.9855699999978
  0
LINE
  8
_0-3_躯体と製品
  6
PLINE2
 62
    5
 10
2171.6098699999966
 20
1145.8224099999998
 11
2188.7663099999972
 21
1162.9788300000009
  0
LINE
  8
_0-3_躯体と製品
  6
PLINE2
 62
    5
 10
2234.5593499999977
 20
1162.9788300000009
 11
2247.7678499999965
 21
1149.770330000001
  0
LINE
  8
_0-3_躯体と製品
  6
CONTINUOUS
 62
    3
 10
2206.3589299999967
 20
1288.521230000001
 11
2256.3589299999967
 21
1288.521230000001
  0
LINE
  8
_0-3_躯体と製品
  6
CONTINUOUS
 62
    2
 10
2218.8589299999967
 20
1318.3235699999968
 11
2243.8589299999967
 21
1318.3235699999968
  0
LINE
  8
_0-3_躯体と製品
  6
PLINE2
 62
    5
 10
2477.3589299999967
 20
1149.5632299999979
 11
2495.2638299999981
 21
1131.65833
  0
LINE
  8
_0-3_躯体と製品
  6
PLINE2
 62
    5
 10
2436.0373099999979
 20
1162.6005699999989
 11
2457.3589299999967
 21
1141.2789499999999
  0
LINE
  8
_0-3_躯体と製品
  6
PLINE2
 62
    5
 10
2439.5480099999968
 20
1131.4566299999969
 11
2457.3589299999967
 21
1149.2675499999989
  0
LINE
  8
_0-3_躯体と製品
  6
PLINE2
 62
    5
 10
2477.3589299999967
 20
1140.9832899999988
 11
2499.1423699999978
 21
1162.7667299999978
  0
ARC
  8
_0-3_躯体と製品
  6
CONTINUOUS
 62
    3
 10
2402.9934699999976
 20
1126.1162899999999
 40
34.610720000000001
 50
24.692922999995002
 51
155.48782100000079
  0
ARC
  8
_0-3_躯体と製品
  6
CONTINUOUS
 62
    3
 10
2533.1366499999967
 20
1126.0170099999998
 40
34.610720000000001
 50
24.692922999995002
 51
155.48782100000079
  0
LINE
  8
_0-3_躯体と製品
  6
PLINE2
 62
    5
 10
2334.5428699999975
 20
1162.5867700000019
 11
2365.4713099999972
 21
1131.65833
  0
LINE
  8
_0-3_躯体と製品
  6
PLINE2
 62
    5
 10
2306.244789999997
 20
1162.6005699999989
 11
2346.7466499999973
 21
1122.098730000002
  0
LINE
  8
_0-3_躯体と製品
  6
PLINE2
 62
    5
 10
2309.7554899999977
 20
1131.4566299999969
 11
2341.079969999997
 21
1162.7811099999999
  0
LINE
  8
_0-3_躯体と製品
  6
PLINE2
 62
    5
 10
2328.374069999998
 20
1121.7909499999989
 11
2369.3498699999964
 21
1162.7667299999978
  0
ARC
  8
_0-3_躯体と製品
  6
CONTINUOUS
 62
    3
 10
2338.5014299999966
 20
1154.6678099999999
 40
36.131099999999989
 50
203.12832000000424
 51
336.70039199999877
  0
ARC
  8
_0-3_躯体と製品
  6
CONTINUOUS
 62
    3
 10
2468.4607099999976
 20
1154.6678099999999
 40
36.131099999999989
 50
284.25725500000118
 51
336.70039199999871
  0
ARC
  8
_0-3_躯体と製品
  6
CONTINUOUS
 62
    3
 10
2468.4607099999976
 20
1154.6678099999999
 40
36.131099999999989
 50
203.12832000000424
 51
252.10559699999803
  0
LINE
  8
_0-3_躯体と製品
  6
PLINE2
 62
    5
 10
2282.6737699999976
 20
1160.9434499999988
 11
2284.5401899999979
 21
1162.809870000001
  0
LINE
  8
_0-3_躯体と製品
  6
PLINE2
 62
    5
 10
2297.6612899999964
 20
1147.6467099999988
 11
2312.8100899999972
 21
1162.7954899999979
  0
LINE
  8
_0-3_躯体と製品
  6
PLINE2
 62
    5
 10
2362.840949999998
 20
1162.5729499999989
 11
2376.9593899999963
 21
1148.4545100000009
  0
LINE
  8
_0-3_躯体と製品
  6
PLINE2
 62
    5
 10
2412.4662699999972
 20
1160.9434499999988
 11
2414.332709999997
 21
1162.809870000001
  0
LINE
  8
_0-3_躯体と製品
  6
PLINE2
 62
    5
 10
2492.633469999997
 20
1162.5729499999989
 11
2506.7519099999972
 21
1148.4545100000009
  0
LINE
  8
_0-3_躯体と製品
  6
PLINE2
 62
    5
 10
2427.4538099999972
 20
1147.6467099999988
 11
2442.6025899999968
 21
1162.7954899999979
  0
LINE
  8
_0-3_躯体と製品
  6
PLINE2
 62
    5
 10
2544.324209999997
 20
1160.9434499999988
 11
2546.1906299999973
 21
1162.809870000001
  0
LINE
  8
_0-3_躯体と製品
  6
PLINE2
 62
    5
 10
2559.3117499999971
 20
1147.6467099999988
 11
2574.4605299999967
 21
1162.7954899999979
  0
LINE
  8
_0-3_躯体と製品
  6
CONTINUOUS
 62
    2
 10
3054.3893499999976
 20
1159.6239499999999
 11
3054.3893499999976
 21
877.34288999999876
  0
LINE
  8
_0-3_躯体と製品
  6
CONTINUOUS
 62
    2
 10
2924.4156499999972
 20
1160.065810000001
 11
2924.4156499999972
 21
877.34288999999876
  0
LINE
  8
_0-3_躯体と製品
  6
CONTINUOUS
 62
    2
 10
2791.3457499999968
 20
1160.137369999997
 11
2791.3457499999968
 21
877.34288999999876
  0
LINE
  8
_0-3_躯体と製品
  6
CONTINUOUS
 62
    2
 10
2662.0488099999966
 20
1160.1653299999989
 11
2662.0488099999966
 21
877.34288999999876
  0
LINE
  8
_0-4_図面枠
  6
CONTINUOUS
 62
    2
 10
2835.3689499999964
 20
1158.8008500000019
 11
3062.9820699999964
 21
764.56333000000086
  0
ARC
  8
_0-3_躯体と製品
  6
CONTINUOUS
 62
    3
 10
2858.6038899999967
 20
1154.1245299999989
 40
36.131099999999989
 50
203.12832000000424
 51
336.70039199999877
  0
LINE
  8
_0-3_躯体と製品
  6
PLINE2
 62
    5
 10
2855.7536499999969
 20
1162.5867700000019
 11
2886.8038699999979
 21
1131.5365299999978
  0
LINE
  8
_0-3_躯体と製品
  6
PLINE2
 62
    5
 10
2847.5271299999968
 20
1119.733230000001
 11
2890.5606299999963
 21
1162.7667299999978
  0
LINE
  8
_0-3_躯体と製品
  6
PLINE2
 62
    5
 10
2884.0517299999974
 20
1162.5729499999989
 11
2897.7650699999976
 21
1148.8596099999988
  0
ARC
  8
_0-3_躯体と製品
  6
CONTINUOUS
 62
    3
 10
2793.1366499999967
 20
1125.5730099999978
 40
34.610720000000001
 50
24.692922999995002
 51
155.48782100000079
  0
ARC
  8
_0-3_躯体と製品
  6
CONTINUOUS
 62
    3
 10
2663.1773899999971
 20
1125.5730099999978
 40
34.610720000000001
 50
24.692922999995002
 51
155.48782100000079
  0
LINE
  8
_0-3_躯体と製品
  6
PLINE2
 62
    5
 10
2590.0245099999975
 20
1121.7909499999989
 11
2631.0003099999976
 21
1162.7667299999978
  0
LINE
  8
_0-3_躯体と製品
  6
PLINE2
 62
    5
 10
2595.8012499999968
 20
1162.9788300000009
 11
2626.8019499999973
 21
1131.9781499999988
  0
LINE
  8
_0-3_躯体と製品
  6
PLINE2
 62
    5
 10
2716.6989299999968
 20
1120.0253100000009
 11
2759.4403699999966
 21
1162.7667299999978
  0
LINE
  8
_0-3_躯体と製品
  6
PLINE2
 62
    5
 10
2696.3352899999973
 20
1162.6005699999989
 11
2739.3271499999973
 21
1119.6087299999999
  0
LINE
  8
_0-3_躯体と製品
  6
PLINE2
 62
    5
 10
2724.6333899999972
 20
1162.5867700000019
 11
2756.3215499999969
 21
1130.8985900000009
  0
LINE
  8
_0-3_躯体と製品
  6
PLINE2
 62
    5
 10
2700.215269999997
 20
1131.8259100000018
 11
2731.1704699999973
 21
1162.7811099999999
  0
LINE
  8
_0-3_躯体と製品
  6
PLINE2
 62
    5
 10
2827.4555699999964
 20
1162.6005699999989
 11
2870.1636099999978
 21
1119.8925300000008
  0
LINE
  8
_0-3_躯体と製品
  6
PLINE2
 62
    5
 10
2830.6915899999967
 20
1131.1819700000019
 11
2862.290729999997
 21
1162.7811099999999
  0
LINE
  8
_0-4_図面枠
  6
CONTINUOUS
 62
    2
 10
2835.3689499999964
 20
1158.8008500000019
 11
2864.0291899999975
 21
1129.1598299999978
  0
ARC
  8
_0-3_躯体と製品
  6
CONTINUOUS
 62
    3
 10
2728.6446099999976
 20
1154.1245299999989
 40
36.131099999999989
 50
203.12832000000424
 51
336.70039199999877
  0
LINE
  8
_0-3_躯体と製品
  6
PLINE2
 62
    5
 10
2624.0855099999972
 20
1162.9788300000009
 11
2637.8754099999969
 21
1149.1889500000018
  0
LINE
  8
_0-3_躯体と製品
  6
PLINE2
 62
    5
 10
2688.8692499999979
 20
1148.7641699999988
 11
2702.9005899999975
 21
1162.7954899999979
  0
LINE
  8
_0-3_躯体と製品
  6
PLINE2
 62
    5
 10
2671.0883299999969
 20
1159.2675099999988
 11
2674.6306899999963
 21
1162.809870000001
  0
LINE
  8
_0-3_躯体と製品
  6
CONTINUOUS
 62
    3
 10
2652.3589299999967
 20
1288.521230000001
 11
2602.3589299999967
 21
1288.521230000001
  0
LINE
  8
_0-3_躯体と製品
  6
CONTINUOUS
 62
    2
 10
2614.8589299999967
 20
1318.3235699999968
 11
2639.8589299999967
 21
1318.3235699999968
  0
LINE
  8
_0-3_躯体と製品
  6
PLINE2
 62
    5
 10
2752.9314699999977
 20
1162.5729499999989
 11
2767.1130899999971
 21
1148.3913299999988
  0
LINE
  8
_0-3_躯体と製品
  6
PLINE2
 62
    5
 10
2801.9768099999965
 20
1159.0357299999998
 11
2805.7509499999978
 21
1162.809870000001
  0
LINE
  8
_0-3_躯体と製品
  6
PLINE2
 62
    5
 10
2819.3724099999963
 20
1148.1470500000019
 11
2834.0208499999972
 21
1162.7954899999979
  0
ARC
  8
_0-3_躯体と製品
  6
CONTINUOUS
 62
    3
 10
3053.320569999998
 20
1125.0297300000009
 40
34.610720000000001
 50
88.2304239999972
 51
155.48782100000082
  0
ARC
  8
_0-3_躯体と製品
  6
CONTINUOUS
 62
    3
 10
2923.2798299999977
 20
1125.4737299999988
 40
34.610720000000001
 50
24.692922999995002
 51
155.48782100000079
  0
LINE
  8
_0-3_躯体と製品
  6
PLINE2
 62
    5
 10
2957.2322499999973
 20
1162.6005699999989
 11
3000.1065299999973
 21
1119.7262899999978
  0
LINE
  8
_0-3_躯体と製品
  6
PLINE2
 62
    5
 10
2985.5303299999978
 20
1162.5867700000019
 11
3016.8278499999979
 21
1131.2892499999989
  0
LINE
  8
_0-3_躯体と製品
  6
PLINE2
 62
    5
 10
2977.3195099999975
 20
1119.748909999998
 11
3020.3373099999972
 21
1162.7667299999978
  0
LINE
  8
_0-3_躯体と製品
  6
PLINE2
 62
    5
 10
2960.6257299999979
 20
1131.3394099999998
 11
2992.0674299999973
 21
1162.7811099999999
  0
ARC
  8
_0-3_躯体と製品
  6
CONTINUOUS
 62
    3
 10
2988.7470699999976
 20
1154.0252700000008
 40
36.131099999999989
 50
203.12832000000424
 51
336.70039199999877
  0
LINE
  8
_0-3_躯体と製品
  6
PLINE2
 62
    5
 10
2949.2990699999973
 20
1148.2970100000009
 11
2963.797529999998
 21
1162.7954899999979
  0
LINE
  8
_0-3_躯体と製品
  6
PLINE2
 62
    5
 10
2931.749829999997
 20
1159.0320699999979
 11
2935.5276499999964
 21
1162.809870000001
  0
LINE
  8
_0-3_躯体と製品
  6
PLINE2
 62
    5
 10
3013.8284099999964
 20
1162.5729499999989
 11
3027.8920299999972
 21
1148.5093300000008
  0
LINE
  8
_0-3_躯体と製品
  6
CONTINUOUS
 62
    4
 10
3096.3589299999967
 20
1161.9788300000018
 11
3096.3589299999967
 21
1162.9788300000009
  0
LINE
  8
_0-3_躯体と製品
  6
CONTINUOUS
 62
    4
 10
3086.3589299999967
 20
1161.9788300000018
 11
3096.3589299999967
 21
1161.9788300000018
  0
LINE
  8
_0-4_図面枠
  6
CONTINUOUS
 62
    3
 10
3290.3078299999979
 20
-972.45943000000034
 11
3290.3078299999979
 21
-72.459429999998974
  0
TEXT
  8
_0-4_図面枠
 62
    7
 10
2498.9619699999967
 20
3723.0292299999987
 40
200
 41
0.8
 50
0
  1
（スレート　棟）
  0
ARC
  8
_0-3_躯体と製品
  6
CONTINUOUS
 62
    3
 10
3183.2798299999977
 20
1353.388049999998
 40
34.610720000000001
 50
24.692922999995002
 51
155.48782100000079
  0
TEXT
  8
_0-4_図面枠
 62
    7
 10
2966.5730699999967
 20
2305.7590299999983
 40
60
 41
0.8000000000000007
 50
0
  1
六角ボルト
  0
LINE
  8
_0-4_図面枠
  6
CONTINUOUS
 62
    2
 10
2966.5731499999965
 20
2295.7589699999985
 11
3224.5731499999965
 21
2295.7589699999985
  0
LINE
  8
_0-3_躯体と製品
  6
CONTINUOUS
 62
    3
 10
1821.3589299999967
 20
2338.5212300000003
 11
2457.3589299999967
 21
2338.5212300000003
  0
LINE
  8
_0-3_躯体と製品
  6
CONTINUOUS
 62
    3
 10
1821.3589299999967
 20
2189.316429999998
 11
2457.3589299999967
 21
2189.316429999998
  0
LINE
  8
_0-3_躯体と製品
  6
PLINE5
 62
    3
 10
2457.3589299999967
 20
2365.4494299999978
 11
1821.3589299999967
 21
2365.4494299999978
  0
LINE
  8
_0-3_躯体と製品
  6
CONTINUOUS
 62
    3
 10
1821.3589299999967
 20
2388.5212300000003
 11
2457.3589299999967
 21
2388.5212300000003
  0
LINE
  8
_0-3_躯体と製品
  6
CONTINUOUS
 62
    3
 10
1821.3589299999967
 20
2140.0156899999993
 11
2457.3589299999967
 21
2140.0156899999993
  0
LINE
  8
_0-3_躯体と製品
  6
CONTINUOUS
 62
    3
 10
1821.3589299999967
 20
1688.5212300000007
 11
2457.3589299999967
 21
1688.5212300000007
  0
LINE
  8
_0-3_躯体と製品
  6
CONTINUOUS
 62
    3
 10
2457.3589299999967
 20
1660.0524499999979
 11
1821.3589299999967
 21
1660.0524499999979
  0
LINE
  8
_0-3_躯体と製品
  6
CONTINUOUS
 62
    3
 10
1821.3589299999967
 20
1448.521230000001
 11
2457.3589299999967
 21
1448.521230000001
  0
LINE
  8
_0-3_躯体と製品
  6
CONTINUOUS
 62
    3
 10
1821.3589299999967
 20
1388.0212299999989
 11
2457.3589299999967
 21
1388.0212299999989
  0
LINE
  8
_0-3_躯体と製品
  6
PLINE5
 62
    3
 10
1821.3589299999967
 20
1407.7036499999979
 11
2457.3589299999967
 21
1407.7036499999979
  0
LINE
  8
_0-3_躯体と製品
  6
PLINE2
 62
    3
 10
1416.3589299999967
 20
2296.7484299999992
 11
1416.3589299999967
 21
2072.7466899999981
  0
LINE
  8
_0-3_躯体と製品
  6
PLINE2
 62
    3
 10
1366.3589299999967
 20
2132.8278499999979
 11
1366.3589299999967
 21
2302.7484299999983
  0
LINE
  8
_0-3_躯体と製品
  6
CONTINUOUS
 62
    3
 10
1378.3589299999967
 20
2296.7484299999992
 11
1378.3589299999967
 21
2072.7466899999981
  0
LINE
  8
_0-3_躯体と製品
  6
CONTINUOUS
 62
    3
 10
1422.3589299999967
 20
1968.6373499999982
 11
1422.3589299999967
 21
2296.7484299999992
  0
LINE
  8
_0-3_躯体と製品
  6
PLINE2
 62
    3
 10
1020.3589300000021
 20
2296.7484299999992
 11
1020.3589300000021
 21
2072.7466899999981
  0
LINE
  8
_0-3_躯体と製品
  6
PLINE2
 62
    3
 10
970.35893000000033
 20
2132.8278499999979
 11
970.35893000000033
 21
2302.7484299999983
  0
LINE
  8
_0-3_躯体と製品
  6
CONTINUOUS
 62
    3
 10
982.35893000000215
 20
2296.7484299999992
 11
982.35893000000215
 21
2072.7466899999981
  0
LINE
  8
_0-3_躯体と製品
  6
CONTINUOUS
 62
    3
 10
1026.3589300000021
 20
1968.6373499999982
 11
1026.3589300000021
 21
2296.7484299999992
  0
LINE
  8
_0-3_躯体と製品
  6
CONTINUOUS
 62
    4
 10
805.35893000000215
 20
2388.5212300000003
 11
805.35893000000215
 21
1388.9236500000009
  0
LINE
  8
_0-3_躯体と製品
  6
CONTINUOUS
 62
    3
 10
1160.7211299999981
 20
2043.1728299999977
 11
1366.3589299999967
 21
2043.1728299999977
  0
LINE
  8
_0-3_躯体と製品
  6
CONTINUOUS
 62
    3
 10
1366.3589299999967
 20
2026.0550300000014
 11
1160.7211299999981
 21
2026.0550300000014
  0
LINE
  8
_0-3_躯体と製品
  6
CONTINUOUS
 62
    3
 10
1160.7211299999981
 20
2004.3965299999982
 11
1366.3589299999967
 21
2004.3965299999982
  0
LINE
  8
_0-3_躯体と製品
  6
CONTINUOUS
 62
    3
 10
1366.3589299999967
 20
1989.3965299999982
 11
1160.7211299999981
 21
1989.3965299999982
  0
LINE
  8
_0-3_躯体と製品
  6
CONTINUOUS
 62
    3
 10
1366.3589299999967
 20
1860.8390099999988
 11
1160.7211299999981
 21
1860.8390099999988
  0
LINE
  8
_0-3_躯体と製品
  6
CONTINUOUS
 62
    3
 10
1160.7211299999981
 20
1845.8390099999988
 11
1366.3589299999967
 21
1845.8390099999988
  0
LINE
  8
_0-3_躯体と製品
  6
CONTINUOUS
 62
    3
 10
1160.7211299999981
 20
1738.0212299999985
 11
1366.3589299999967
 21
1738.0212299999985
  0
LINE
  8
_0-3_躯体と製品
  6
CONTINUOUS
 62
    3
 10
1020.3589300000021
 20
2072.7466899999981
 11
1020.3589300000021
 21
1738.0212299999985
  0
LINE
  8
_0-3_躯体と製品
  6
CONTINUOUS
 62
    3
 10
811.35893000000033
 20
1740.799689999998
 11
811.35893000000033
 21
1778.7996899999998
  0
LINE
  8
_0-3_躯体と製品
  6
CONTINUOUS
 62
    3
 10
976.35893000000033
 20
1738.0212299999985
 11
1140.7211299999981
 21
1738.0212299999985
  0
ARC
  8
_0-3_躯体と製品
  6
CONTINUOUS
 62
    3
 10
865.60313000000497
 20
1348.3214300000009
 40
34.610720000000001
 50
24.692922999995002
 51
155.48782100000079
  0
LINE
  8
_0-3_躯体と製品
  6
CONTINUOUS
 62
    4
 10
810.35893000000397
 20
1388.6047499999988
 11
810.35893000000397
 21
1511.3842900000009
  0
LINE
  8
_0-3_躯体と製品
  6
CONTINUOUS
 62
    2
 10
787.08851000000141
 20
1427.0554499999978
 11
812.71021000000292
 21
1427.0554499999978
  0
ARC
  8
_0-3_躯体と製品
  6
CONTINUOUS
 62
    3
 10
865.60313000000497
 20
1348.3214300000009
 40
28.610720000000001
 50
24.692922999995002
 51
155.48782100000079
  0
LINE
  8
_0-3_躯体と製品
  6
CONTINUOUS
 62
    3
 10
970.35893000000033
 20
1738.0212299999985
 11
805.35893000000215
 21
1738.0212299999985
  0
ARC
  8
_0-3_躯体と製品
  6
CONTINUOUS
 62
    3
 10
808.35893000000215
 20
1740.799689999998
 40
3
 50
270
 51
0
  0
LINE
  8
_0-3_躯体と製品
  6
CONTINUOUS
 62
    3
 10
808.35893000000215
 20
1737.7996899999962
 11
805.35893000000215
 21
1737.7996899999962
  0
LINE
  8
_0-3_躯体と製品
  6
CONTINUOUS
 62
    2
 10
792.85893000000397
 20
1762.7996899999962
 11
817.85893000000397
 21
1762.7996899999962
  0
LINE
  8
_0-3_躯体と製品
  6
CONTINUOUS
 62
    2
 10
963.85893000000033
 20
1712.7996900000007
 11
988.85893000000033
 21
1712.7996900000007
  0
LINE
  8
_0-3_躯体と製品
  6
CONTINUOUS
 62
    3
 10
1026.3589300000021
 20
1734.7996899999989
 11
1026.3589300000021
 21
1738.0212299999985
  0
ARC
  8
_0-3_躯体と製品
  6
CONTINUOUS
 62
    3
 10
1023.3589300000021
 20
1734.7996899999989
 40
3
 50
270
 51
0
  0
LINE
  8
_0-3_躯体と製品
  6
CONTINUOUS
 62
    3
 10
985.35893000000215
 20
1731.7996900000016
 11
1023.3589300000021
 21
1731.7996900000016
  0
ARC
  8
_0-3_躯体と製品
  6
CONTINUOUS
 62
    3
 10
985.35893000000215
 20
1728.7996899999998
 40
3
 50
90
 51
180
  0
LINE
  8
_0-3_躯体と製品
  6
CONTINUOUS
 62
    3
 10
982.35893000000215
 20
1690.7996899999989
 11
982.35893000000215
 21
1728.7996899999998
  0
ARC
  8
_0-3_躯体と製品
  6
CONTINUOUS
 62
    3
 10
979.35893000000215
 20
1690.7996899999989
 40
3
 50
270
 51
0
  0
LINE
  8
_0-3_躯体と製品
  6
CONTINUOUS
 62
    3
 10
979.35893000000215
 20
1687.7996900000007
 11
976.35893000000033
 21
1687.7996900000007
  0
LINE
  8
_0-3_躯体と製品
  6
CONTINUOUS
 62
    3
 10
1026.3589300000021
 20
2043.1728299999977
 11
1140.7211299999981
 21
2043.1728299999977
  0
LINE
  8
_0-3_躯体と製品
  6
CONTINUOUS
 62
    3
 10
1140.7211299999981
 20
2026.0550300000014
 11
1026.3589300000021
 21
2026.0550300000014
  0
LINE
  8
_0-3_躯体と製品
  6
CONTINUOUS
 62
    3
 10
1026.3589300000021
 20
2004.3965299999982
 11
1140.7211299999981
 21
2004.3965299999982
  0
LINE
  8
_0-3_躯体と製品
  6
CONTINUOUS
 62
    3
 10
1140.7211299999981
 20
1989.3965299999982
 11
1026.3589300000021
 21
1989.3965299999982
  0
LINE
  8
_0-3_躯体と製品
  6
CONTINUOUS
 62
    3
 10
1140.7211299999981
 20
1860.8390099999988
 11
1020.3589300000021
 21
1860.8390099999988
  0
LINE
  8
_0-3_躯体と製品
  6
CONTINUOUS
 62
    3
 10
1140.7211299999981
 20
1845.8390099999988
 11
1020.3589300000021
 21
1845.8390099999988
  0
LINE
  8
_0-3_躯体と製品
  6
CONTINUOUS
 62
    3
 10
982.35893000000215
 20
2072.7466899999981
 11
982.35893000000215
 21
1912.8214299999981
  0
LINE
  8
_0-3_躯体と製品
  6
CONTINUOUS
 62
    3
 10
805.35893000000215
 20
1860.8390099999988
 11
970.35893000000033
 21
1860.8390099999988
  0
LINE
  8
_0-3_躯体と製品
  6
CONTINUOUS
 62
    3
 10
805.35893000000215
 20
1845.8390099999988
 11
970.35893000000033
 21
1845.8390099999988
  0
LINE
  8
_0-3_躯体と製品
  6
CONTINUOUS
 62
    3
 10
855.35893000000397
 20
1788.0212299999985
 11
805.35893000000215
 21
1788.0212299999985
  0
LINE
  8
_0-3_躯体と製品
  6
PLINE2
 62
    3
 10
805.35893000000215
 20
1838.0212299999985
 11
855.05214999999953
 21
1838.0212299999985
  0
LINE
  8
_0-3_躯体と製品
  6
PLINE2
 62
    3
 10
805.35893000000215
 20
1794.0212300000021
 11
855.05214999999953
 21
1794.0212300000021
  0
LINE
  8
_0-3_躯体と製品
  6
CONTINUOUS
 62
    3
 10
814.35893000000397
 20
1781.7996900000016
 11
852.35893000000397
 21
1781.7996900000016
  0
LINE
  8
_0-4_図面枠
  6
CONTINUOUS
 62
    2
 10
813.46677000000091
 20
1785.0273099999995
 11
785.18251000000237
 21
1813.3115499999976
  0
ARC
  8
_0-3_躯体と製品
  6
CONTINUOUS
 62
    3
 10
814.35893000000397
 20
1778.7996899999998
 40
3
 50
90
 51
180
  0
LINE
  8
_0-3_躯体と製品
  6
PLINE2
 62
    3
 10
855.05214999999953
 20
1788.0212299999985
 11
855.05214999999953
 21
1838.0212299999985
  0
LINE
  8
_0-3_躯体と製品
  6
CONTINUOUS
 62
    3
 10
855.35893000000397
 20
1784.7996899999989
 11
855.35893000000397
 21
1788.0212299999985
  0
ARC
  8
_0-3_躯体と製品
  6
CONTINUOUS
 62
    3
 10
852.35893000000397
 20
1784.7996899999989
 40
3
 50
270
 51
0
  0
LINE
  8
_0-3_躯体と製品
  6
CONTINUOUS
 62
    2
 10
963.85893000000033
 20
1947.4279900000001
 11
988.85893000000033
 21
1947.4279900000001
  0
LINE
  8
_0-3_躯体と製品
  6
CONTINUOUS
 62
    3
 10
976.35893000000033
 20
1912.8214299999981
 11
982.35893000000215
 21
1912.8214299999981
  0
LINE
  8
_0-3_躯体と製品
  6
PLINE2
 62
    3
 10
982.35893000000215
 20
1968.6373499999982
 11
1026.3589300000021
 21
1968.6373499999982
  0
LINE
  8
_0-3_躯体と製品
  6
CONTINUOUS
 62
    3
 10
805.35893000000215
 20
2043.1728299999977
 11
970.35893000000033
 21
2043.1728299999977
  0
LINE
  8
_0-3_躯体と製品
  6
CONTINUOUS
 62
    3
 10
805.35893000000215
 20
2026.0550300000014
 11
970.35893000000033
 21
2026.0550300000014
  0
LINE
  8
_0-3_躯体と製品
  6
CONTINUOUS
 62
    3
 10
805.35893000000215
 20
2004.3965299999982
 11
970.35893000000033
 21
2004.3965299999982
  0
LINE
  8
_0-3_躯体と製品
  6
CONTINUOUS
 62
    3
 10
805.35893000000215
 20
1989.3965299999982
 11
970.35893000000033
 21
1989.3965299999982
  0
LINE
  8
_0-4_図面枠
  6
CONTINUOUS
 62
    2
 10
807.03667000000132
 20
2104.5484699999988
 11
778.75241000000096
 21
2132.832709999997
  0
LINE
  8
_0-4_図面枠
  6
CONTINUOUS
 62
    2
 10
807.03667000000132
 20
2104.5484699999988
 11
761.94287000000259
 21
2182.6532099999999
  0
LINE
  8
_0-3_躯体と製品
  6
CONTINUOUS
 62
    3
 10
1020.3589300000021
 20
2072.7466899999981
 11
976.35893000000033
 21
2072.7466899999981
  0
LINE
  8
_0-3_躯体と製品
  6
CONTINUOUS
 62
    3
 10
970.35893000000033
 20
2132.8278499999979
 11
982.35893000000215
 21
2132.8278499999979
  0
LINE
  8
_0-3_躯体と製品
  6
CONTINUOUS
 62
    2
 10
963.85893000000033
 20
2106.5576899999987
 11
988.85893000000033
 21
2106.5576899999987
  0
LINE
  8
_0-3_躯体と製品
  6
CONTINUOUS
 62
    3
 10
1416.3589299999967
 20
2072.7466899999981
 11
1416.3589299999967
 21
1738.0212299999985
  0
LINE
  8
_0-3_躯体と製品
  6
CONTINUOUS
 62
    3
 10
1372.3589299999967
 20
1738.0212299999985
 11
1801.3589299999967
 21
1738.0212299999985
  0
LINE
  8
_0-3_躯体と製品
  6
CONTINUOUS
 62
    2
 10
1397.2535099999968
 20
1566.3853299999978
 11
1425.5377499999977
 21
1538.1010899999999
  0
LINE
  8
_0-4_図面枠
  6
CONTINUOUS
 62
    2
 10
1397.2535099999968
 20
1566.3853299999978
 11
1457.5535099999979
 21
1461.94265
  0
TEXT
  8
_0-4_図面枠
 62
    7
 10
1457.5535899999977
 20
1471.9424900000008
 40
60.000000000000007
 41
0.8000000000000008
 50
0.0000100000010064
  1
支柱
  0
LINE
  8
_0-4_図面枠
  6
CONTINUOUS
 62
    2
 10
1457.5535099999979
 20
1461.94265
 11
1582.4547299999977
 21
1461.94265
  0
LINE
  8
_0-3_躯体と製品
  6
CONTINUOUS
 62
    3
 10
1422.3589299999967
 20
1734.7996899999989
 11
1422.3589299999967
 21
1738.0212299999985
  0
ARC
  8
_0-3_躯体と製品
  6
CONTINUOUS
 62
    3
 10
1419.3589299999967
 20
1734.7996899999989
 40
3
 50
270
 51
0
  0
LINE
  8
_0-3_躯体と製品
  6
CONTINUOUS
 62
    3
 10
1381.3589299999967
 20
1731.7996900000016
 11
1419.3589299999967
 21
1731.7996900000016
  0
ARC
  8
_0-3_躯体と製品
  6
CONTINUOUS
 62
    3
 10
1381.3589299999967
 20
1728.7996899999998
 40
3
 50
90
 51
180
  0
LINE
  8
_0-3_躯体と製品
  6
CONTINUOUS
 62
    3
 10
1378.3589299999967
 20
1690.7996899999989
 11
1378.3589299999967
 21
1728.7996899999998
  0
ARC
  8
_0-3_躯体と製品
  6
CONTINUOUS
 62
    3
 10
1375.3589299999967
 20
1690.7996899999989
 40
3
 50
270
 51
0
  0
LINE
  8
_0-3_躯体と製品
  6
CONTINUOUS
 62
    3
 10
1375.3589299999967
 20
1687.7996900000007
 11
1372.3589299999967
 21
1687.7996900000007
  0
LINE
  8
_0-3_躯体と製品
  6
CONTINUOUS
 62
    2
 10
1359.8589299999967
 20
1712.7996900000007
 11
1384.8589299999967
 21
1712.7996900000007
  0
LINE
  8
_0-3_躯体と製品
  6
CONTINUOUS
 62
    3
 10
1422.3589299999967
 20
2043.1728299999977
 11
1801.3589299999967
 21
2043.1728299999977
  0
LINE
  8
_0-3_躯体と製品
  6
CONTINUOUS
 62
    3
 10
1801.3589299999967
 20
2026.0550300000014
 11
1422.3589299999967
 21
2026.0550300000014
  0
LINE
  8
_0-3_躯体と製品
  6
CONTINUOUS
 62
    3
 10
1422.3589299999967
 20
2004.3965299999982
 11
1801.3589299999967
 21
2004.3965299999982
  0
LINE
  8
_0-3_躯体と製品
  6
CONTINUOUS
 62
    3
 10
1801.3589299999967
 20
1989.3965299999982
 11
1422.3589299999967
 21
1989.3965299999982
  0
LINE
  8
_0-3_躯体と製品
  6
CONTINUOUS
 62
    3
 10
1416.3589299999967
 20
1860.8390099999988
 11
1801.3589299999967
 21
1860.8390099999988
  0
LINE
  8
_0-3_躯体と製品
  6
CONTINUOUS
 62
    3
 10
1801.3589299999967
 20
1845.8390099999988
 11
1416.3589299999967
 21
1845.8390099999988
  0
LINE
  8
_0-3_躯体と製品
  6
CONTINUOUS
 62
    3
 10
1378.3589299999967
 20
2072.7466899999981
 11
1378.3589299999967
 21
1912.8214299999981
  0
LINE
  8
_0-3_躯体と製品
  6
CONTINUOUS
 62
    3
 10
1372.3589299999967
 20
1912.8214299999981
 11
1378.3589299999967
 21
1912.8214299999981
  0
LINE
  8
_0-3_躯体と製品
  6
PLINE2
 62
    3
 10
1378.3589299999967
 20
1968.6373499999982
 11
1422.3589299999967
 21
1968.6373499999982
  0
LINE
  8
_0-3_躯体と製品
  6
CONTINUOUS
 62
    2
 10
1359.8589299999967
 20
1947.4279900000001
 11
1384.8589299999967
 21
1947.4279900000001
  0
LINE
  8
_0-3_躯体と製品
  6
CONTINUOUS
 62
    3
 10
1416.3589299999967
 20
2072.7466899999981
 11
1372.3589299999967
 21
2072.7466899999981
  0
LINE
  8
_0-3_躯体と製品
  6
CONTINUOUS
 62
    3
 10
1366.3589299999967
 20
2132.8278499999979
 11
1378.3589299999967
 21
2132.8278499999979
  0
LINE
  8
_0-3_躯体と製品
  6
CONTINUOUS
 62
    2
 10
1359.8589299999967
 20
2106.5576899999987
 11
1384.8589299999967
 21
2106.5576899999987
  0
LINE
  8
_0-3_躯体と製品
  6
CONTINUOUS
 62
    3
 10
1160.7211299999981
 20
2388.5212300000003
 11
1801.3589299999967
 21
2388.5212300000003
  0
LINE
  8
_0-3_躯体と製品
  6
CONTINUOUS
 62
    3
 10
1160.7211299999981
 20
2338.5212300000003
 11
1801.3589299999967
 21
2338.5212300000003
  0
LINE
  8
_0-3_躯体と製品
  6
CONTINUOUS
 62
    4
 10
1160.7211299999981
 20
2302.7484299999983
 11
1801.3589299999967
 21
2302.7484299999983
  0
LINE
  8
_0-3_躯体と製品
  6
CONTINUOUS
 62
    3
 10
1160.7211299999981
 20
2365.4494299999978
 11
1801.3589299999967
 21
2365.4494299999978
  0
LINE
  8
_0-3_躯体と製品
  6
CONTINUOUS
 62
    3
 10
805.35893000000215
 20
2388.5212300000003
 11
1140.7211299999981
 21
2388.5212300000003
  0
LINE
  8
_0-3_躯体と製品
  6
CONTINUOUS
 62
    3
 10
1140.7211299999981
 20
2338.5212300000003
 11
805.35893000000215
 21
2338.5212300000003
  0
LINE
  8
_0-3_躯体と製品
  6
CONTINUOUS
 62
    4
 10
805.35893000000215
 20
2302.7484299999983
 11
1140.7211299999981
 21
2302.7484299999983
  0
LINE
  8
_0-3_躯体と製品
  6
CONTINUOUS
 62
    3
 10
1140.7211299999981
 20
2365.4494299999978
 11
805.35893000000215
 21
2365.4494299999978
  0
LINE
  8
_0-3_躯体と製品
  6
CONTINUOUS
 62
    2
 10
792.84739000000263
 20
2290.7793299999994
 11
817.84739000000081
 21
2290.7793299999994
  0
LINE
  8
_0-3_躯体と製品
  6
CONTINUOUS
 62
    2
 10
793.34739000000263
 20
2270.8598900000006
 11
818.34739000000263
 21
2270.8598900000006
  0
LINE
  8
_0-3_躯体と製品
  6
CONTINUOUS
 62
    4
 10
855.35893000000397
 20
2388.5212300000003
 11
805.35893000000215
 21
2388.5212300000003
  0
LINE
  8
_0-3_躯体と製品
  6
CONTINUOUS
 62
    2
 10
792.84739000000263
 20
2331.4384099999997
 11
817.84739000000081
 21
2331.4384099999997
  0
LINE
  8
_0-3_躯体と製品
  6
CONTINUOUS
 62
    4
 10
855.35893000000397
 20
2352.4321699999987
 11
855.35893000000397
 21
2388.5212300000003
  0
LINE
  8
_0-3_躯体と製品
  6
CONTINUOUS
 62
    3
 10
1020.3589300000021
 20
2338.5212300000003
 11
1020.3589300000021
 21
2302.7484299999983
  0
LINE
  8
_0-3_躯体と製品
  6
CONTINUOUS
 62
    3
 10
976.35893000000033
 20
2332.5212299999989
 11
976.35893000000033
 21
2302.7484299999983
  0
LINE
  8
_0-3_躯体と製品
  6
CONTINUOUS
 62
    3
 10
970.35893000000033
 20
2338.5212300000003
 11
970.35893000000033
 21
2302.7484299999983
  0
LINE
  8
_0-3_躯体と製品
  6
CONTINUOUS
 62
    3
 10
1026.3589300000021
 20
2302.7484299999983
 11
1026.3589300000021
 21
2296.7484299999992
  0
LINE
  8
_0-3_躯体と製品
  6
CONTINUOUS
 62
    3
 10
982.35893000000215
 20
2296.7484299999992
 11
1026.3589300000021
 21
2296.7484299999992
  0
LINE
  8
_0-3_躯体と製品
  6
CONTINUOUS
 62
    3
 10
1020.3589300000021
 20
2332.5212299999989
 11
976.35893000000033
 21
2332.5212299999989
  0
LINE
  8
_0-3_躯体と製品
  6
CONTINUOUS
 62
    3
 10
1416.3589299999967
 20
2338.5212300000003
 11
1416.3589299999967
 21
2302.7484299999983
  0
LINE
  8
_0-3_躯体と製品
  6
CONTINUOUS
 62
    3
 10
1372.3589299999967
 20
2332.5212299999989
 11
1372.3589299999967
 21
2302.7484299999983
  0
LINE
  8
_0-3_躯体と製品
  6
CONTINUOUS
 62
    3
 10
1366.3589299999967
 20
2338.5212300000003
 11
1366.3589299999967
 21
2302.7484299999983
  0
LINE
  8
_0-3_躯体と製品
  6
CONTINUOUS
 62
    3
 10
1422.3589299999967
 20
2302.7484299999983
 11
1422.3589299999967
 21
2296.7484299999992
  0
LINE
  8
_0-3_躯体と製品
  6
CONTINUOUS
 62
    3
 10
1378.3589299999967
 20
2296.7484299999992
 11
1422.3589299999967
 21
2296.7484299999992
  0
LINE
  8
_0-3_躯体と製品
  6
CONTINUOUS
 62
    3
 10
1416.3589299999967
 20
2332.5212299999989
 11
1372.3589299999967
 21
2332.5212299999989
  0
LINE
  8
_0-4_図面枠
  6
CONTINUOUS
 62
    2
 10
2642.7551499999972
 20
1734.8897499999966
 11
2966.5731499999965
 21
2295.7589699999985
  0
LINE
  8
_0-3_躯体と製品
  6
CONTINUOUS
 62
    3
 10
2477.3589299999967
 20
2140.0156899999993
 11
2817.3589299999967
 21
2140.0156899999993
  0
LINE
  8
_0-3_躯体と製品
  6
CONTINUOUS
 62
    3
 10
2477.3589299999967
 20
2189.316429999998
 11
2817.3589299999967
 21
2189.316429999998
  0
LINE
  8
_0-3_躯体と製品
  6
CONTINUOUS
 62
    3
 10
2477.3589299999967
 20
1688.5212300000007
 11
2817.3589299999967
 21
1688.5212300000007
  0
LINE
  8
_0-3_躯体と製品
  6
CONTINUOUS
 62
    3
 10
2817.3589299999967
 20
1660.0524499999979
 11
2477.3589299999967
 21
1660.0524499999979
  0
LINE
  8
_0-3_躯体と製品
  6
CONTINUOUS
 62
    3
 10
2477.3589299999967
 20
1448.521230000001
 11
2817.3589299999967
 21
1448.521230000001
  0
LINE
  8
_0-3_躯体と製品
  6
CONTINUOUS
 62
    3
 10
2477.3589299999967
 20
1388.0212299999989
 11
2817.3589299999967
 21
1388.0212299999989
  0
LINE
  8
_0-3_躯体と製品
  6
PLINE5
 62
    3
 10
2477.3589299999967
 20
1407.7036499999979
 11
2817.8589299999967
 21
1407.7036499999979
  0
LINE
  8
_0-3_躯体と製品
  6
CONTINUOUS
 62
    2
 10
2218.8589299999967
 20
1361.1601699999978
 11
2243.8589299999967
 21
1361.1601699999978
  0
LINE
  8
_0-3_躯体と製品
  6
CONTINUOUS
 62
    2
 10
2218.8589299999967
 20
1471.7618499999978
 11
2243.8589299999967
 21
1471.7618499999978
  0
LINE
  8
_0-3_躯体と製品
  6
CONTINUOUS
 62
    2
 10
2218.8589299999967
 20
1650.7988699999978
 11
2243.8589299999967
 21
1650.7988699999978
  0
LINE
  8
_0-3_躯体と製品
  6
CONTINUOUS
 62
    2
 10
2218.8589299999967
 20
1746.3011299999962
 11
2243.8589299999967
 21
1746.3011299999962
  0
LINE
  8
_0-3_躯体と製品
  6
CONTINUOUS
 62
    2
 10
2218.8589299999967
 20
2112.4643899999992
 11
2243.8589299999967
 21
2112.4643899999992
  0
LINE
  8
_0-3_躯体と製品
  6
PLINE2
 62
    3
 10
2767.3589299999967
 20
1910.0524499999974
 11
2767.3589299999967
 21
1760.0524499999974
  0
LINE
  8
_0-3_躯体と製品
  6
PLINE2
 62
    3
 10
2811.3589299999967
 20
1804.0524499999983
 11
2811.3589299999967
 21
1760.0524499999974
  0
LINE
  8
_0-3_躯体と製品
  6
CONTINUOUS
 62
    4
 10
3096.3589299999967
 20
1388.6047499999988
 11
2817.3589299999967
 21
1388.6047499999988
  0
LINE
  8
_0-3_躯体と製品
  6
CONTINUOUS
 62
    2
 10
2614.8589299999967
 20
1361.1601699999978
 11
2639.8589299999967
 21
1361.1601699999978
  0
LINE
  8
_0-3_躯体と製品
  6
CONTINUOUS
 62
    2
 10
2614.8589299999967
 20
1471.7618499999978
 11
2639.8589299999967
 21
1471.7618499999978
  0
LINE
  8
_0-3_躯体と製品
  6
CONTINUOUS
 62
    2
 10
2614.8589299999967
 20
1650.7988699999978
 11
2639.8589299999967
 21
1650.7988699999978
  0
LINE
  8
_0-3_躯体と製品
  6
CONTINUOUS
 62
    2
 10
2614.8589299999967
 20
1746.3011299999962
 11
2639.8589299999967
 21
1746.3011299999962
  0
LINE
  8
_0-4_図面枠
  6
CONTINUOUS
 62
    2
 10
2642.7551499999972
 20
1734.8897499999966
 11
2654.0948899999967
 21
1774.5307499999981
  0
LINE
  8
_0-3_躯体と製品
  6
PLINE2
 62
    3
 10
2767.3589299999967
 20
1760.0524499999974
 11
2817.3589299999967
 21
1760.0524499999974
  0
LINE
  8
_0-3_躯体と製品
  6
CONTINUOUS
 62
    2
 10
2794.4891099999968
 20
1886.1159899999975
 11
2794.4891099999968
 21
1872.1159899999966
  0
LINE
  8
_0-3_躯体と製品
  6
PLINE2
 62
    3
 10
2767.3589299999967
 20
1804.0524499999983
 11
2811.3589299999967
 21
1804.0524499999983
  0
LINE
  8
_0-3_躯体と製品
  6
PLINE2
 62
    3
 10
2767.3589299999967
 20
1810.0524499999974
 11
2817.3589299999967
 21
1810.0524499999974
  0
LINE
  8
_0-3_躯体と製品
  6
CONTINUOUS
 62
    2
 10
2787.4891099999968
 20
1879.1159899999993
 11
2801.4891099999968
 21
1879.1159899999993
  0
LINE
  8
_0-3_躯体と製品
  6
CONTINUOUS
 62
    2
 10
2787.4891099999968
 20
1835.9031300000006
 11
2801.4891099999968
 21
1835.9031300000006
  0
LINE
  8
_0-3_躯体と製品
  6
CONTINUOUS
 62
    2
 10
2794.4891099999968
 20
1842.9031299999988
 11
2794.4891099999968
 21
1828.9031299999979
  0
LINE
  8
_0-3_躯体と製品
  6
PLINE2
 62
    3
 10
2817.3589299999967
 20
1910.0524499999974
 11
2767.3589299999967
 21
1910.0524499999974
  0
LINE
  8
_0-3_躯体と製品
  6
CONTINUOUS
 62
    2
 10
2614.8589299999967
 20
2112.4643899999992
 11
2639.8589299999967
 21
2112.4643899999992
  0
LINE
  8
_0-3_躯体と製品
  6
CONTINUOUS
 62
    3
 10
2477.3589299999967
 20
2388.5212300000003
 11
2767.3589299999967
 21
2388.5212300000003
  0
LINE
  8
_0-3_躯体と製品
  6
CONTINUOUS
 62
    3
 10
2477.3589299999967
 20
2338.5212300000003
 11
2817.3589299999967
 21
2338.5212300000003
  0
LINE
  8
_0-3_躯体と製品
  6
PLINE5
 62
    3
 10
2817.3589299999967
 20
2365.4494299999978
 11
2477.3589299999967
 21
2365.4494299999978
  0
LINE
  8
_0-3_躯体と製品
  6
CONTINUOUS
 62
    2
 10
2218.8589299999967
 20
2213.3240699999978
 11
2243.8589299999967
 21
2213.3240699999978
  0
LINE
  8
_0-3_躯体と製品
  6
CONTINUOUS
 62
    2
 10
2218.8589299999967
 20
2321.8320299999996
 11
2243.8589299999967
 21
2321.8320299999996
  0
LINE
  8
_0-3_躯体と製品
  6
CONTINUOUS
 62
    2
 10
2614.8589299999967
 20
2213.3240699999978
 11
2639.8589299999967
 21
2213.3240699999978
  0
LINE
  8
_0-3_躯体と製品
  6
CONTINUOUS
 62
    2
 10
2614.8589299999967
 20
2321.8320299999996
 11
2639.8589299999967
 21
2321.8320299999996
  0
LINE
  8
_0-3_躯体と製品
  6
CONTINUOUS
 62
    4
 10
2767.3589299999967
 20
2388.5212300000003
 11
2817.3589299999967
 21
2388.5212300000003
  0
LINE
  8
_0-3_躯体と製品
  6
CONTINUOUS
 62
    4
 10
2767.3589299999967
 20
2352.4321699999987
 11
2767.3589299999967
 21
2388.5212300000003
  0
ARC
  8
_0-3_躯体と製品
  6
CONTINUOUS
 62
    3
 10
3313.4230099999968
 20
1353.288769999999
 40
34.610720000000001
 50
82.778179000002908
 51
155.48782100000082
  0
INSERT
  2
-001-_D4
  8
_0-2_寸法
 10
-8915.4101299771428
 20
2706.8966542447179
 41
10
 42
10
 50
0
  0
INSERT
  2
-002-_D5
  8
_0-2_寸法
 10
-8915.4101299771428
 20
2706.8966542447179
 41
10
 42
10
 50
0
  0
INSERT
  2
-003-_D6
  8
_0-2_寸法
 10
-8915.4101299771428
 20
2706.8966542447179
 41
10
 42
10
 50
0
  0
INSERT
  2
-004-_D7
  8
_0-2_寸法
 10
-8915.4101299771428
 20
2706.8966542447179
 41
10
 42
10
 50
0
  0
INSERT
  2
-005-_D8
  8
_0-2_寸法
 10
-8915.4101299771428
 20
2706.8966542447179
 41
10
 42
10
 50
0
  0
INSERT
  2
-006-_D9
  8
_0-2_寸法
 10
-8915.4101299771428
 20
2706.8966542447179
 41
10
 42
10
 50
0
  0
INSERT
  2
-007-_D10
  8
_0-2_寸法
 10
-8915.4101299771428
 20
2706.8966542447179
 41
10
 42
10
 50
0
  0
INSERT
  2
-008-_D11
  8
_0-2_寸法
 10
-8915.4101299771428
 20
2706.8966542447179
 41
10
 42
10
 50
0
  0
INSERT
  2
-009-_D12
  8
_0-2_寸法
 10
-8915.4101299771428
 20
2706.8966542447179
 41
10
 42
10
 50
0
  0
INSERT
  2
-010-_D13
  8
_0-2_寸法
 10
-8915.4101299771428
 20
2706.8966542447179
 41
10
 42
10
 50
0
  0
INSERT
  2
-011-_D14
  8
_0-2_寸法
 10
-8915.4101299771428
 20
2706.8966542447179
 41
10
 42
10
 50
0
  0
INSERT
  2
-012-_D15
  8
_0-2_寸法
 10
-8915.4101299771428
 20
2706.8966542447179
 41
10
 42
10
 50
0
  0
ENDSEC
  0
EOF
