  0
SECTION
  2
HEADER
  9
$ACADVER
  1
AC1009
  9
$INSBASE
 10
0
 20
0
 30
0
  9
$EXTMIN
 10
0
 20
0
  9
$EXTMAX
 10
841
 20
594
  9
$LIMMIN
 10
0
 20
0
  9
$LIMMAX
 10
841
 20
594
  9
$LTSCALE
 40
1
  0
ENDSEC
  0
SECTION
  2
TABLES
  0
TABLE
  2
LTYPE
 70
     9
  0
LTYPE
  2
CONTINUOUS
 70
    64
  3
実線
 72
    65
 73
     0
 40
0.0
  0
LTYPE
  2
DASHED1
 70
    64
  3
--  --  --  --  --  --  --  --  
 72
    65
 73
     2
 40
2.5
 49
1.25
 49
-1.25
  0
LTYPE
  2
DASHED2
 70
    64
  3
----    ----    ----    ----    
 72
    65
 73
     2
 40
5.0
 49
2.5
 49
-2.5
  0
LTYPE
  2
DASHED3
 70
    64
  3
------  ------  ------  ------  
 72
    65
 73
     2
 40
5.0
 49
3.75
 49
-1.25
  0
LTYPE
  2
CENTER1
 70
    64
  3
----- - ----- - ----- - ----- - 
 72
    65
 73
     4
 40
10.0
 49
6.25
 49
-1.25
 49
1.25
 49
-1.25
  0
LTYPE
  2
CENTER2
 70
    64
  3
----------  --  ----------  --  
 72
    65
 73
     4
 40
20.0
 49
12.5
 49
-2.5
 49
2.5
 49
-2.5
  0
LTYPE
  2
PHANTOM1
 70
    64
  3
--- - - --- - - --- - - --- - - 
 72
    65
 73
     6
 40
10.0
 49
3.25
 49
-1.25
 49
1.25
 49
-1.25
 49
1.25
 49
-1.25
  0
LTYPE
  2
PHANTOM2
 70
    64
  3
--------  -  -  --------  -  -  
 72
    65
 73
     6
 40
20.0
 49
10.0
 49
-2.5
 49
1.25
 49
-2.5
 49
1.25
 49
-2.5
  0
LTYPE
  2
DOT
 70
    64
  3
-   -   -   -   -   -   -   -   
 72
    65
 73
     2
 40
2.5
 49
0.625
 49
-1.875
  0
LTYPE
  2
DUMMY
 70
    64
  3
ダミー
 72
    65
 73
     0
 40
0.0
  0
LTYPE
  2
RAND1
 70
    64
  3
ランダム線1
 72
    65
 73
     4
 40
10.0
 49
1.0
 49
-2.0
 49
3.0
 49
-4.0
  0
LTYPE
  2
RAND2
 70
    64
  3
ランダム線2
 72
    65
 73
     4
 40
14.0
 49
2.0
 49
-3.0
 49
4.0
 49
-5.0
  0
LTYPE
  2
RAND3
 70
    64
  3
ランダム線3
 72
    65
 73
     4
 40
18.0
 49
3.0
 49
-4.0
 49
5.0
 49
-6.0
  0
LTYPE
  2
RAND4
 70
    64
  3
ランダム線4
 72
    65
 73
     4
 40
22.0
 49
4.0
 49
-5.0
 49
6.0
 49
-7.0
  0
LTYPE
  2
RAND5
 70
    64
  3
ランダム線5
 72
    65
 73
     4
 40
26.0
 49
5.0
 49
-6.0
 49
7.0
 49
-8.0
  0
LTYPE
  2
LONG1
 70
    64
  3
----------  --  ----------  --  
 72
    65
 73
     4
 40
40.0
 49
32.5
 49
-2.5
 49
2.5
 49
-2.5
  0
LTYPE
  2
LONG2
 70
    64
  3
--------  -  -  --------  -  -  
 72
    65
 73
     6
 40
40.0
 49
30.0
 49
-2.5
 49
1.25
 49
-2.5
 49
1.25
 49
-2.5
  0
LTYPE
  2
LONG3
 70
    64
  3
+++++++++++++++..+++++++++++++++
 72
    65
 73
     2
 40
40.0
 49
37.5
 49
-2.5
  0
LTYPE
  2
LONG4
 70
    64
  3
+++++++++++++++..+++++++++++++++
 72
    65
 73
     2
 40
80.0
 49
75.0
 49
-5.0
  0
LTYPE
  2
LONG5
 70
    64
  3
----------  --  ----------  --  
 72
    65
 73
     4
 40
60.0
 49
37.5
 49
-7.5
 49
7.5
 49
-7.5
  0
LTYPE
  2
dashed
 70
   64
  3
-------   -------------   ------
 72
   65
 73
    2
 40
7.5
 49
6
 49
-1.5
  0
LTYPE
  2
dashed_spaced
 70
   64
  3
----        --------        ----
 72
   65
 73
    2
 40
12
 49
6
 49
-6
  0
LTYPE
  2
long_dashed_dotted
 70
   64
  3
------------- --- --------------
 72
   65
 73
    4
 40
15.25
 49
12
 49
-1.5
 49
0.25
 49
-1.5
  0
LTYPE
  2
long_dashed_double-dotted
 70
   64
  3
----------- --- --- ------------
 72
   65
 73
    6
 40
17
 49
12
 49
-1.5
 49
0.25
 49
-1.5
 49
0.25
 49
-1.5
  0
LTYPE
  2
long_dashed_triplicate-dotted
 70
   64
  3
--------- --- --- --- ----------
 72
   65
 73
    8
 40
18.75
 49
12
 49
-1.5
 49
0.25
 49
-1.5
 49
0.25
 49
-1.5
 49
0.25
 49
-1.5
  0
LTYPE
  2
dotted
 70
   64
  3
   -       -       -       -    
 72
   65
 73
    2
 40
1.75
 49
0.25
 49
-1.5
  0
LTYPE
  2
chain
 70
   64
  3
-------------- -- --------------
 72
   65
 73
    4
 40
18.5
 49
12
 49
-1.5
 49
3.5
 49
-1.5
  0
LTYPE
  2
chain_double_dash
 70
   64
  3
------------ -- -- -------------
 72
   65
 73
    6
 40
23.5
 49
12
 49
-1.5
 49
3.5
 49
-1.5
 49
3.5
 49
-1.5
  0
LTYPE
  2
dashed_dotted
 70
   64
  3
-----------     -     ----------
 72
   65
 73
    4
 40
9.25
 49
6
 49
-1.5
 49
0.25
 49
-1.5
  0
LTYPE
  2
double-dashed_dotted
 70
   64
  3
------   -----------   -   -----
 72
   65
 73
    6
 40
16.75
 49
6
 49
-1.5
 49
6
 49
-1.5
 49
0.25
 49
-1.5
  0
LTYPE
  2
dashed_double-dotted
 70
   64
  3
---------    -    -    ---------
 72
   65
 73
    6
 40
11
 49
6
 49
-1.5
 49
0.25
 49
-1.5
 49
0.25
 49
-1.5
  0
LTYPE
  2
double-dashed_double-dotted
 70
   64
  3
-----   ---------   -   -   ----
 72
   65
 73
    8
 40
18.5
 49
6
 49
-1.5
 49
6
 49
-1.5
 49
0.25
 49
-1.5
 49
0.25
 49
-1.5
  0
LTYPE
  2
dashed_triplicate-dotted
 70
   64
  3
-------    -    -    -    ------
 72
   65
 73
    8
 40
12.75
 49
6
 49
-1.5
 49
0.25
 49
-1.5
 49
0.25
 49
-1.5
 49
0.25
 49
-1.5
  0
LTYPE
  2
double-dashed_triplicate-dotted
 70
   64
  3
-----  ---------  -  -  -  -----
 72
   65
 73
   10
 40
20.25
 49
6
 49
-1.5
 49
6
 49
-1.5
 49
0.25
 49
-1.5
 49
0.25
 49
-1.5
 49
0.25
 49
-1.5
  0
LTYPE
  2
undefined
 70
   64
  3
--------------------------------
 72
   65
 73
    0
 40
0
  0
LTYPE
  2
PLINE2
 70
   64
  3
------     -----------     -----
 72
   65
 73
    2
 40
3
 49
2.1000000000000001
 49
-0.9
  0
LTYPE
  2
PLINE3
 70
   64
  3
------------   ---   -----------
 72
   65
 73
    4
 40
10
 49
7
 49
-1
 49
1
 49
-1
  0
LTYPE
  2
PLINE4
 70
   64
  3
---------   ---   ---   --------
 72
   65
 73
    6
 40
10
 49
5
 49
-1
 49
1
 49
-1
 49
1
 49
-1
  0
LTYPE
  2
PLINE5
 70
   64
  3
------     -----------     -----
 72
   65
 73
    2
 40
5
 49
3.5
 49
-1.5
  0
LTYPE
  2
PLINE6
 70
   64
  3
------------   ---   -----------
 72
   65
 73
    4
 40
15
 49
10.5
 49
-1.5
 49
1.5
 49
-1.5
  0
LTYPE
  2
PLINE7
 70
   64
  3
---------   ---   ---   --------
 72
   65
 73
    6
 40
15
 49
7.5
 49
-1.5
 49
1.5
 49
-1.5
 49
1.5
 49
-1.5
  0
LTYPE
  2
PLINE8
 70
   64
  3
------     -----------     -----
 72
   65
 73
    2
 40
7
 49
4.9000000000000004
 49
-2.1000000000000001
  0
LTYPE
  2
PLINE9
 70
   64
  3
------------   ---   -----------
 72
   65
 73
    4
 40
20
 49
14
 49
-2
 49
2
 49
-2
  0
LTYPE
  2
PLINE10
 70
   64
  3
---------   ---   ---   --------
 72
   65
 73
    6
 40
20
 49
10
 49
-2
 49
2
 49
-2
 49
2
 49
-2
  0
LTYPE
  2
PLINE11
 70
   64
  3
------     -----------     -----
 72
   65
 73
    2
 40
9
 49
6.2999999999999989
 49
-2.7000000000000002
  0
LTYPE
  2
PLINE12
 70
   64
  3
------------   ---   -----------
 72
   65
 73
    4
 40
25
 49
17.5
 49
-2.5
 49
2.5
 49
-2.5
  0
LTYPE
  2
PLINE13
 70
   64
  3
---------   ---   ---   --------
 72
   65
 73
    6
 40
25
 49
12.5
 49
-2.5
 49
2.5
 49
-2.5
 49
2.5
 49
-2.5
  0
LTYPE
  2
PLINE14
 70
   64
  3
------     -----------     -----
 72
   65
 73
    2
 40
11
 49
7.7000000000000002
 49
-3.2999999999999989
  0
LTYPE
  2
PLINE15
 70
   64
  3
------------   ---   -----------
 72
   65
 73
    4
 40
30
 49
21
 49
-3
 49
3
 49
-3
  0
LTYPE
  2
PLINE16
 70
   64
  3
---------   ---   ---   --------
 72
   65
 73
    6
 40
30
 49
15
 49
-3
 49
3
 49
-3
 49
3
 49
-3
  0
ENDTAB
  0
TABLE
  2
STYLE
  5
3
100
AcDbSymbolTable
 70
     1
  0
STYLE
  5
10
100
AcDbSymbolTableRecord
100
AcDbTextStyleTableRecord
  2
STANDARD
 70
     0
 40
0.0
 41
1.0
 50
0.0
 71
     0
 42
0.2
  3
txt
  4
bigfont.shx
  0
STYLE
  5
26
100
AcDbSymbolTableRecord
100
AcDbTextStyleTableRecord
  2
TATEGAKI
 70
    68
 40
0.0
 41
1.0
 50
0.0
 71
     0
 42
1.0
  3
txt
  4
bigfont.shx
  0
ENDTAB
  0
TABLE
  2
LAYER
 70
    4
  0
LAYER
  2
_0-2_寸法
 70
   64
 62
    7
  6
CONTINUOUS
  0
LAYER
  2
_0-3_躯体と製品
 70
   64
 62
    7
  6
CONTINUOUS
  0
LAYER
  2
_0-4_図面枠
 70
   64
 62
    7
  6
CONTINUOUS
  0
LAYER
  2
ADD_LINE
 70
   64
 62
    7
  6
CONTINUOUS
  0
ENDTAB
  0
ENDSEC
  0
SECTION
  2
BLOCKS
  0
BLOCK
  2
-000-_Dot
 70
   64
 10
0
 20
0
 30
0
  0
CIRCLE
  8
_0-0_0
  6
CONTINUOUS
 62
    7
 10
0
 20
0
 40
0.025
  0
LINE
  8
_0-0_0
  6
CONTINUOUS
 62
    7
 10
0.025
 20
0
 11
-0.025
 21
0
  0
LINE
  8
_0-0_0
  6
CONTINUOUS
 62
    7
 10
-0.05
 20
0
 11
-0.1
 21
0
  0
ENDBLK
  0
BLOCK
  2
-001-_D4
 70
   64
 10
0
 20
0
 30
0
  0
LINE
  8
_0-2_寸法
  6
CONTINUOUS
 62
    4
 10
-3037.3492511470099
 20
-2777.940565373312
 11
-3082.3316351470066
 21
-2777.940565373312
  0
LINE
  8
_0-2_寸法
  6
CONTINUOUS
 62
    4
 10
-3050.0120611470188
 20
-2762.940565373312
 11
-3082.3316351470066
 21
-2762.940565373312
  0
LINE
  8
_0-2_寸法
  6
CONTINUOUS
 62
    4
 10
-3082.3316351470066
 20
-2777.8405653733121
 11
-3082.3316351470066
 21
-2763.0405653733119
  0
INSERT
  2
-000-_Dot
  8
_0-2_寸法
 10
-3082.3316351470066
 20
-2777.940565373312
 41
1
 42
1
 50
270
  0
INSERT
  2
-000-_Dot
  8
_0-2_寸法
 10
-3082.3316351470066
 20
-2762.940565373312
 41
1
 42
1
 50
90
  0
TEXT
  8
_0-2_寸法
 62
    7
 10
-3082.4116351470061
 20
-2771.690565373312
 40
5
 41
1
 50
90
  1
J
  0
POINT
  8
_0-1_Defpoints
 62
    7
 10
-3037.3492511470099
 20
-2777.940565373312
  0
POINT
  8
_0-1_Defpoints
 62
    7
 10
-3050.0120611470188
 20
-2762.940565373312
  0
POINT
  8
_0-1_Defpoints
 62
    7
 10
-3082.3316351470066
 20
-2762.940565373312
  0
ENDBLK
  0
BLOCK
  2
-002-_D5
 70
   64
 10
0
 20
0
 30
0
  0
LINE
  8
_0-2_寸法
  6
CONTINUOUS
 62
    4
 10
-3050.0120611470188
 20
-2762.940565373312
 11
-3082.3316351470066
 21
-2762.940565373312
  0
LINE
  8
_0-2_寸法
  6
CONTINUOUS
 62
    4
 10
-3040.1310831470178
 20
-2687.9405653733111
 11
-3082.3316351470066
 21
-2687.9405653733111
  0
LINE
  8
_0-2_寸法
  6
CONTINUOUS
 62
    4
 10
-3082.3316351470066
 20
-2762.8405653733107
 11
-3082.3316351470066
 21
-2688.0405653733119
  0
INSERT
  2
-000-_Dot
  8
_0-2_寸法
 10
-3082.3316351470066
 20
-2762.940565373312
 41
1
 42
1
 50
270
  0
INSERT
  2
-000-_Dot
  8
_0-2_寸法
 10
-3082.3316351470066
 20
-2687.9405653733111
 41
1
 42
1
 50
90
  0
TEXT
  8
_0-2_寸法
 62
    7
 10
-3082.4116351470061
 20
-2727.940565373312
 40
5
 41
1
 50
90
  1
 I
  0
POINT
  8
_0-1_Defpoints
 62
    7
 10
-3050.0120611470188
 20
-2762.940565373312
  0
POINT
  8
_0-1_Defpoints
 62
    7
 10
-3040.1310831470178
 20
-2687.9405653733111
  0
POINT
  8
_0-1_Defpoints
 62
    7
 10
-3082.3316351470066
 20
-2687.9405653733111
  0
ENDBLK
  0
BLOCK
  2
-003-_D6
 70
   64
 10
0
 20
0
 30
0
  0
LINE
  8
_0-2_寸法
  6
CONTINUOUS
 62
    4
 10
-3072.200913146999
 20
-2727.3962693733101
 11
-3072.200913146999
 21
-2667.1364873733191
  0
LINE
  8
_0-2_寸法
  6
CONTINUOUS
 62
    4
 10
-2922.200913146999
 20
-2714.6658933733179
 11
-2922.200913146999
 21
-2667.1364873733191
  0
LINE
  8
_0-2_寸法
  6
CONTINUOUS
 62
    4
 10
-3072.1009131469991
 20
-2667.1364873733191
 11
-2922.3009131469989
 21
-2667.1364873733191
  0
INSERT
  2
-000-_Dot
  8
_0-2_寸法
 10
-3072.200913146999
 20
-2667.1364873733191
 41
1
 42
1
 50
180
  0
INSERT
  2
-000-_Dot
  8
_0-2_寸法
 10
-2922.200913146999
 20
-2667.1364873733191
 41
1
 42
1
 50
0
  0
TEXT
  8
_0-2_寸法
 62
    7
 10
-2998.450913146999
 20
-2667.0564873733201
 40
5
 41
1
 50
0
  1
E
  0
POINT
  8
_0-1_Defpoints
 62
    7
 10
-3072.200913146999
 20
-2727.3962693733101
  0
POINT
  8
_0-1_Defpoints
 62
    7
 10
-2922.200913146999
 20
-2714.6658933733179
  0
POINT
  8
_0-1_Defpoints
 62
    7
 10
-2922.200913146999
 20
-2667.1364873733191
  0
ENDBLK
  0
BLOCK
  2
-004-_D7
 70
   64
 10
0
 20
0
 30
0
  0
LINE
  8
_0-2_寸法
  6
CONTINUOUS
 62
    4
 10
-2959.700913146999
 20
-2778.1610973733177
 11
-2959.700913146999
 21
-2808.080425373319
  0
LINE
  8
_0-2_寸法
  6
CONTINUOUS
 62
    4
 10
-3034.700913146999
 20
-2778.684750002943
 11
-3034.700913146999
 21
-2808.080425373319
  0
LINE
  8
_0-2_寸法
  6
CONTINUOUS
 62
    4
 10
-2959.8009131469989
 20
-2808.080425373319
 11
-3034.6009131469991
 21
-2808.080425373319
  0
INSERT
  2
-000-_Dot
  8
_0-2_寸法
 10
-2959.700913146999
 20
-2808.080425373319
 41
1
 42
1
 50
0
  0
INSERT
  2
-000-_Dot
  8
_0-2_寸法
 10
-3034.700913146999
 20
-2808.080425373319
 41
1
 42
1
 50
180
  0
TEXT
  8
_0-2_寸法
 62
    7
 10
-2998.450913146999
 20
-2808.0004253733191
 40
5
 41
1
 50
0
  1
A
  0
POINT
  8
_0-1_Defpoints
 62
    7
 10
-2959.700913146999
 20
-2778.1610973733177
  0
POINT
  8
_0-1_Defpoints
 62
    7
 10
-3034.700913146999
 20
-2778.684750002943
  0
POINT
  8
_0-1_Defpoints
 62
    7
 10
-3034.700913146999
 20
-2808.080425373319
  0
ENDBLK
  0
ENDSEC
  0
SECTION
  2
ENTITIES
  0
LINE
  8
_0-3_躯体と製品
  6
PLINE2
 62
    3
 10
-348.17025577138702
 20
-1121.2193956784904
 11
485.65738422855429
 21
-1371.3676956784911
  0
TEXT
  8
_0-4_図面枠
 62
    7
 10
454.46644422861573
 20
-714.85199567848031
 40
60
 41
0.8000000000000002
 50
0
  1
妻板
  0
LINE
  8
_0-4_図面枠
  6
CONTINUOUS
 62
    2
 10
454.46582422855499
 20
-719.8520156784798
 11
555.60062422854389
 21
-719.8520156784798
  0
TEXT
  8
_0-4_図面枠
 62
    7
 10
318.24268422862588
 20
-1098.4582556784917
 40
60
 41
0.8000000000000001
 50
0
  1
妻板補強
  0
LINE
  8
_0-4_図面枠
  6
CONTINUOUS
 62
    2
 10
318.24274422849339
 20
-1108.4582356784813
 11
525.69408422861306
 21
-1108.4582356784813
  0
TEXT
  8
_0-4_図面枠
 62
    7
 10
-832.5980757713769
 20
2714.7437843214684
 40
200
 41
0.8
 50
0
  1
連続式ベンチレーター　標準型（３００～７５０）
  0
LINE
  8
_0-4_図面枠
  6
CONTINUOUS
 62
    4
 10
-3450.3647957714493
 20
-2373.5350156784989
 11
4292.9685442285154
 21
-2373.5350156784989
  0
LINE
  8
_0-4_図面枠
  6
CONTINUOUS
 62
    4
 10
-3450.3647957714493
 20
2633.131644321471
 11
4292.9685442285154
 21
2633.131644321471
  0
LINE
  8
_0-4_図面枠
  6
CONTINUOUS
 62
    4
 10
-3450.3647957714493
 20
2966.4649843215011
 11
4292.9685442285154
 21
2966.4649843215011
  0
TEXT
  8
_0-4_図面枠
 62
    7
 10
447.13978422850414
 20
10.49392432149034
 40
60
 41
0.8000000000000001
 50
0
  1
シルタップ止め
  0
LINE
  8
_0-4_図面枠
  6
CONTINUOUS
 62
    2
 10
447.13970422862258
 20
0.4940443215309642
 11
812.12984422863519
 21
0.4940443215309642
  0
LINE
  8
_0-3_躯体と製品
  6
PLINE2
 62
    3
 10
1042.9385642285451
 20
1275.9870643215218
 11
361.11092422856382
 21
1071.4387643215014
  0
LINE
  8
_0-4_図面枠
  6
CONTINUOUS
 62
    4
 10
-3450.3647957714493
 20
2966.4649843215011
 11
-3450.3647957714493
 21
-2373.5350156784989
  0
LINE
  8
_0-3_躯体と製品
  6
CONTINUOUS
 62
    2
 10
-2106.0896757714945
 20
-535.01503567851978
 11
-1854.7662357713743
 21
-622.53509567847141
  0
LINE
  8
_0-3_躯体と製品
  6
CONTINUOUS
 62
    2
 10
-2046.0896757714945
 20
-1090.9363556784992
 11
-1803.7652157714074
 21
-945.54167567846889
  0
LINE
  8
_0-3_躯体と製品
  6
PLINE2
 62
    3
 10
-2431.0896757714945
 20
-1172.7815956785416
 11
-1674.2620357713749
 21
-1399.8298956784893
  0
LINE
  8
_0-3_躯体と製品
  6
CONTINUOUS
 62
    4
 10
-1939.239455771447
 20
-1319.2926356785101
 11
-2431.0896757714945
 21
-1171.7375756784895
  0
LINE
  8
_0-3_躯体と製品
  6
PLINE2
 62
    3
 10
-2431.0896757714945
 20
-1172.7815956785416
 11
-3187.9173157714758
 21
-1399.8298956784893
  0
TEXT
  8
_0-4_図面枠
 62
    7
 10
-2545.8375157714072
 20
-1537.6055956784694
 40
60
 41
0.8000000000000001
 50
0
  1
ＳＣ６００
  0
LINE
  8
_0-3_躯体と製品
  6
PLINE3
 62
    2
 10
-2431.0896757714945
 20
-427.70599567847967
 11
-2431.0896757714945
 21
-1262.7815956785416
  0
LINE
  8
_0-3_躯体と製品
  6
CONTINUOUS
 62
    2
 10
-2431.0896757714945
 20
-617.73453567847173
 11
-2702.9238957713751
 21
-712.39721567850938
  0
LINE
  8
_0-3_躯体と製品
  6
CONTINUOUS
 62
    2
 10
-2431.0896757714945
 20
-575.37853567846832
 11
-2918.3661757715054
 21
-745.06615567850895
  0
LINE
  8
_0-3_躯体と製品
  6
PLINE2
 62
    2
 10
-2431.0896757714945
 20
-580.67303567847921
 11
-3001.8127157713643
 21
-779.41981567849143
  0
LINE
  8
_0-3_躯体と製品
  6
CONTINUOUS
 62
    4
 10
-2431.5280557714759
 20
-573.41339567851173
 11
-2875.3849557714275
 21
-727.98071567849911
  0
LINE
  8
_0-3_躯体と製品
  6
CONTINUOUS
 62
    2
 10
-2431.0896757714945
 20
-913.93227567852955
 11
-2726.0896757714945
 21
-913.93227567852955
  0
LINE
  8
_0-3_躯体と製品
  6
CONTINUOUS
 62
    2
 10
-2431.0896757714945
 20
-953.93227567852955
 11
-2699.4655757714572
 21
-953.93227567852955
  0
LINE
  8
_0-3_躯体と製品
  6
PLINE2
 62
    2
 10
-2431.0896757714945
 20
-918.93227567852955
 11
-2726.0896757714945
 21
-918.93227567852955
  0
LINE
  8
_0-3_躯体と製品
  6
CONTINUOUS
 62
    4
 10
-2732.0896757714072
 20
-1262.0375756784815
 11
-2732.0896757714072
 21
-913.93227567852955
  0
LINE
  8
_0-3_躯体と製品
  6
CONTINUOUS
 62
    2
 10
-2731.0896757714945
 20
-1262.7815956785416
 11
-2731.0896757714945
 21
-685.14407567847957
  0
LINE
  8
_0-3_躯体と製品
  6
PLINE2
 62
    5
 10
-2887.3983357714169
 20
-972.34879567848839
 11
-2840.0218557714652
 21
-924.97229567852992
  0
LINE
  8
_0-3_躯体と製品
  6
PLINE2
 62
    5
 10
-2905.0760157714649
 20
-961.74217567851883
 11
-2857.6995157713754
 21
-914.36569567850165
  0
LINE
  8
_0-3_躯体と製品
  6
PLINE2
 62
    5
 10
-2922.7536757713751
 20
-951.13557567850148
 11
-2875.3771957714271
 21
-903.75909567848066
  0
LINE
  8
_0-3_躯体と製品
  6
PLINE2
 62
    5
 10
-2940.4313557714268
 20
-940.5289756785387
 11
-2893.0548557714646
 21
-893.15249567852152
  0
LINE
  8
_0-3_躯体と製品
  6
CONTINUOUS
 62
    4
 10
-3031.7624757713747
 20
-937.04267567853094
 11
-2985.0538357713849
 21
-641.22127567847929
  0
LINE
  8
_0-3_躯体と製品
  6
CONTINUOUS
 62
    2
 10
-2916.3269157714858
 20
-879.18927567850915
 11
-2741.0896757714945
 21
-984.33161567852949
  0
LINE
  8
_0-3_躯体と製品
  6
CONTINUOUS
 62
    2
 10
-2711.0896757714945
 20
-928.93227567852955
 11
-2711.0896757714945
 21
-938.93227567852955
  0
LINE
  8
_0-3_躯体と製品
  6
CONTINUOUS
 62
    2
 10
-2987.3705357714643
 20
-912.36547567852904
 11
-2741.0896757714945
 21
-1060.1339956784796
  0
LINE
  8
_0-3_躯体と製品
  6
PLINE2
 62
    2
 10
-3025.6247757714154
 20
-930.2295956784692
 11
-2741.0896757714945
 21
-1100.9506556785418
  0
LINE
  8
_0-3_躯体と製品
  6
CONTINUOUS
 62
    4
 10
-3031.0896757714945
 20
-932.78159567854163
 11
-2790.935275771466
 21
-1076.8742356784787
  0
LINE
  8
_0-3_躯体と製品
  6
CONTINUOUS
 62
    2
 10
-2691.0896757714945
 20
-1250.7815956784907
 11
-2691.0896757714945
 21
-671.21461567848019
  0
LINE
  8
_0-3_躯体と製品
  6
PLINE2
 62
    2
 10
-2726.0896757714945
 20
-1261.2815956785198
 11
-2726.0896757714945
 21
-722.20557567853029
  0
LINE
  8
_0-3_躯体と製品
  6
CONTINUOUS
 62
    4
 10
-2922.9398757713971
 20
-1319.2926356785101
 11
-2732.0896757714072
 21
-1262.0375756784815
  0
LINE
  8
_0-3_躯体と製品
  6
CONTINUOUS
 62
    4
 10
-2922.7863757713858
 20
-1319.8043356784983
 11
-2906.0950357714246
 21
-1314.7969156785293
  0
LINE
  8
_0-3_躯体と製品
  6
CONTINUOUS
 62
    4
 10
-2922.9398757713971
 20
-1319.2926356785101
 11
-2922.7863757713858
 21
-1319.8043356784983
  0
LINE
  8
_0-3_躯体と製品
  6
CONTINUOUS
 62
    2
 10
-2972.6171957714469
 20
-956.20319567847037
 11
-2982.9070957715048
 21
-973.35305567852993
  0
LINE
  8
_0-3_躯体と製品
  6
CONTINUOUS
 62
    4
 10
-2997.8656957714556
 20
-955.15433567852961
 11
-3031.4413557713742
 21
-935.00893567848834
  0
LINE
  8
_0-3_躯体と製品
  6
CONTINUOUS
 62
    4
 10
-2998.847935771475
 20
-956.79139567851962
 11
-3031.7624757713747
 21
-937.04267567853094
  0
LINE
  8
_0-3_躯体と製品
  6
CONTINUOUS
 62
    2
 10
-2741.0896757714945
 20
-1212.7815956785416
 11
-2741.0896757714945
 21
-984.33161567852949
  0
LINE
  8
_0-3_躯体と製品
  6
CONTINUOUS
 62
    2
 10
-2731.0896757714945
 20
-1212.7815956785416
 11
-2741.0896757714945
 21
-1212.7815956785416
  0
LINE
  8
_0-3_躯体と製品
  6
CONTINUOUS
 62
    2
 10
-2744.7959757714052
 20
-1182.4708756784894
 11
-2724.0641757714875
 21
-1182.4708756784894
  0
LINE
  8
_0-3_躯体と製品
  6
PLINE2
 62
    5
 10
-2763.6546557713773
 20
-1046.5949956785407
 11
-2741.0896757714945
 21
-1024.0300156785088
  0
LINE
  8
_0-3_躯体と製品
  6
PLINE2
 62
    5
 10
-2781.3323157714258
 20
-1035.9883956785088
 11
-2741.0896757714945
 21
-995.74575567850843
  0
LINE
  8
_0-3_躯体と製品
  6
CONTINUOUS
 62
    2
 10
-2790.6882557713761
 20
-1077.0224556785288
 11
-2741.0896757714945
 21
-1106.7815956784798
  0
LINE
  8
_0-3_躯体と製品
  6
CONTINUOUS
 62
    2
 10
-2826.4996157714559
 20
-1043.8737356784986
 11
-2836.7895357713751
 21
-1061.0235956784891
  0
LINE
  8
_0-3_躯体と製品
  6
CONTINUOUS
 62
    4
 10
-2791.0896757714945
 20
-1112.7815956785416
 11
-2791.0896757714945
 21
-1076.7815956784798
  0
LINE
  8
_0-3_躯体と製品
  6
CONTINUOUS
 62
    4
 10
-2789.0896757713854
 20
-1112.7815956785416
 11
-2789.0896757713854
 21
-1102.9306956785185
  0
LINE
  8
_0-3_躯体と製品
  6
CONTINUOUS
 62
    4
 10
-2791.0896757714945
 20
-1112.7815956785416
 11
-2789.0896757713854
 21
-1112.7815956785416
  0
LINE
  8
_0-3_躯体と製品
  6
PLINE2
 62
    5
 10
-2834.3653357714247
 20
-1004.1685956785004
 11
-2786.9888557714767
 21
-956.7921156784796
  0
LINE
  8
_0-3_躯体と製品
  6
PLINE2
 62
    5
 10
-2852.0429957714659
 20
-993.56199567846852
 11
-2804.666515771376
 21
-946.18551567852046
  0
LINE
  8
_0-3_躯体と製品
  6
PLINE2
 62
    5
 10
-2869.7206757713757
 20
-982.95539567850938
 11
-2822.3441757714172
 21
-935.57889567848906
  0
LINE
  8
_0-3_躯体と製品
  6
PLINE2
 62
    5
 10
-2799.0099957714774
 20
-1025.3817956784806
 11
-2751.6335157713875
 21
-978.00531567852886
  0
LINE
  8
_0-3_躯体と製品
  6
PLINE2
 62
    5
 10
-2816.6876557713767
 20
-1014.7751956785287
 11
-2769.311175771425
 21
-967.39871567851151
  0
LINE
  8
_0-3_躯体と製品
  6
PLINE2
 62
    5
 10
-2745.9769757714748
 20
-1057.201595678489
 11
-2741.0896757714945
 21
-1052.3142956785196
  0
LINE
  8
_0-3_躯体と製品
  6
CONTINUOUS
 62
    2
 10
-2741.0896757714945
 20
-1060.1339956784796
 11
-2731.0896757714945
 21
-1060.1339956784796
  0
LINE
  8
_0-3_躯体と製品
  6
CONTINUOUS
 62
    2
 10
-2745.7959757714671
 20
-1145.1198556784984
 11
-2725.0641757713965
 21
-1145.1198556784984
  0
LINE
  8
_0-3_躯体と製品
  6
CONTINUOUS
 62
    2
 10
-2713.1472357714556
 20
-953.93227567852955
 11
-2726.0896757714945
 21
-953.93227567852955
  0
LINE
  8
_0-3_躯体と製品
  6
CONTINUOUS
 62
    2
 10
-2716.0896757714945
 20
-933.93227567852955
 11
-2706.0896757714945
 21
-933.93227567852955
  0
LINE
  8
_0-3_躯体と製品
  6
CONTINUOUS
 62
    2
 10
-2744.7959757714052
 20
-974.00865567848086
 11
-2724.0641757714875
 21
-974.00865567848086
  0
LINE
  8
_0-3_躯体と製品
  6
CONTINUOUS
 62
    2
 10
-2721.3558557713841
 20
-718.81589567849005
 11
-2921.818555771446
 21
-788.62439567848924
  0
LINE
  8
_0-3_躯体と製品
  6
CONTINUOUS
 62
    2
 10
-2877.7899757714367
 20
-635.12193567847862
 11
-2916.3269157714858
 21
-879.18927567850915
  0
LINE
  8
_0-3_躯体と製品
  6
PLINE2
 62
    5
 10
-2974.9357757714351
 20
-833.61205567853176
 11
-2896.7920357714975
 21
-755.46831567852132
  0
LINE
  8
_0-3_躯体と製品
  6
PLINE2
 62
    5
 10
-2969.6324757714974
 20
-800.02447567852141
 11
-2891.4887357714069
 21
-721.88073567850006
  0
LINE
  8
_0-3_躯体と製品
  6
PLINE2
 62
    5
 10
-2964.3291757714069
 20
-766.43691567849964
 11
-2886.1854357714656
 21
-688.2931556784788
  0
LINE
  8
_0-3_躯体と製品
  6
PLINE2
 62
    5
 10
-2959.0258757714655
 20
-732.84933567847838
 11
-2880.882135771375
 21
-654.7055956785407
  0
LINE
  8
_0-3_躯体と製品
  6
CONTINUOUS
 62
    2
 10
-2717.9349957714949
 20
-590.55665567851975
 11
-2949.2789957714449
 21
-671.11915567854157
  0
LINE
  8
_0-3_躯体と製品
  6
PLINE2
 62
    2
 10
-2729.4453357714447
 20
-557.50347567853896
 11
-2980.5819757714853
 21
-644.95851567852151
  0
LINE
  8
_0-3_躯体と製品
  6
CONTINUOUS
 62
    4
 10
-2731.0896757714945
 20
-552.78159567854163
 11
-2985.0538357713849
 21
-641.22127567847929
  0
LINE
  8
_0-3_躯体と製品
  6
CONTINUOUS
 62
    2
 10
-2949.2789957714449
 20
-671.11915567854157
 11
-2987.3705357714643
 21
-912.36547567852904
  0
LINE
  8
_0-3_躯体と製品
  6
PLINE2
 62
    2
 10
-2980.5819757714853
 20
-644.95851567852151
 11
-3025.6247757714154
 21
-930.2295956784692
  0
LINE
  8
_0-3_躯体と製品
  6
PLINE2
 62
    5
 10
-2985.5423757714671
 20
-900.78719567849839
 11
-2907.3986357713766
 21
-822.64345567848068
  0
LINE
  8
_0-3_躯体と製品
  6
PLINE2
 62
    5
 10
-2980.2390757713765
 20
-867.19963567849118
 11
-2902.0953357714352
 21
-789.05587567853945
  0
LINE
  8
_0-3_躯体と製品
  6
PLINE2
 62
    5
 10
-2975.7866957713741
 20
-919.31577567847853
 11
-2912.7019357714671
 21
-856.23101567849881
  0
LINE
  8
_0-3_躯体と製品
  6
CONTINUOUS
 62
    2
 10
-3036.288415771407
 20
-901.5890956785006
 11
-3016.5331557714562
 21
-904.70833567851878
  0
LINE
  8
_0-3_躯体と製品
  6
PLINE2
 62
    5
 10
-2958.1090157714643
 20
-929.92237567851043
 11
-2910.7325357713744
 21
-882.54589567848961
  0
LINE
  8
_0-3_躯体と製品
  6
CONTINUOUS
 62
    2
 10
-2935.2220757714458
 20
-793.29199567851902
 11
-2983.9234557714262
 21
-810.25161567849864
  0
LINE
  8
_0-3_躯体と製品
  6
CONTINUOUS
 62
    2
 10
-2931.0512557714464
 20
-749.48357567852872
 11
-2977.9026957714741
 21
-765.7989756784882
  0
LINE
  8
_0-3_躯体と製品
  6
CONTINUOUS
 62
    2
 10
-2999.8233957713674
 20
-815.78855567851861
 11
-3008.0050157714759
 21
-818.63769567848067
  0
LINE
  8
_0-3_躯体と製品
  6
CONTINUOUS
 62
    2
 10
-2991.4549557714672
 20
-770.5183756785118
 11
-3000.9280957713672
 21
-773.81727567852067
  0
LINE
  8
_0-3_躯体と製品
  6
CONTINUOUS
 62
    2
 10
-2993.7536157714057
 20
-792.49685567848064
 11
-2983.0406757714663
 21
-788.76621567847906
  0
LINE
  8
_0-3_躯体と製品
  6
CONTINUOUS
 62
    2
 10
-2987.5125357713769
 20
-785.0289756785096
 11
-2989.2817557715061
 21
-796.23407567851973
  0
LINE
  8
_0-3_躯体と製品
  6
CONTINUOUS
 62
    2
 10
-2999.6103357714273
 20
-669.29453567849123
 11
-2979.8550757714765
 21
-672.4137956785089
  0
LINE
  8
_0-3_躯体と製品
  6
PLINE2
 62
    5
 10
-2953.722575771375
 20
-699.26175567852988
 11
-2912.9175757714147
 21
-658.45677567849998
  0
LINE
  8
_0-3_躯体と製品
  6
CONTINUOUS
 62
    2
 10
-2960.0112157713666
 20
-621.91151567850829
 11
-2953.4338757714359
 21
-640.79903567850852
  0
LINE
  8
_0-3_躯体と製品
  6
CONTINUOUS
 62
    2
 10
-2731.0896757714945
 20
-766.47533567847859
 11
-2816.6719757714454
 21
-838.28741567850011
  0
LINE
  8
_0-3_躯体と製品
  6
CONTINUOUS
 62
    4
 10
-2741.0896757714945
 20
-771.12361567851985
 11
-2833.1077557714743
 21
-848.16243567853962
  0
LINE
  8
_0-3_躯体と製品
  6
CONTINUOUS
 62
    2
 10
-2733.9948557714451
 20
-764.99685567848064
 11
-2823.0149957713547
 21
-839.69361567847955
  0
LINE
  8
_0-3_躯体と製品
  6
CONTINUOUS
 62
    4
 10
-2762.9593157714371
 20
-922.47171567847909
 11
-2732.0896757714072
 21
-913.93227567852955
  0
LINE
  8
_0-3_躯体と製品
  6
CONTINUOUS
 62
    2
 10
-2816.6719757714454
 20
-838.28741567850011
 11
-2731.0896757714945
 21
-861.21911567846837
  0
LINE
  8
_0-3_躯体と製品
  6
CONTINUOUS
 62
    2
 10
-2823.0149957713547
 20
-839.69361567847955
 11
-2734.0896757713854
 21
-863.52109567851949
  0
LINE
  8
_0-3_躯体と製品
  6
CONTINUOUS
 62
    4
 10
-2833.0896757714654
 20
-855.66243567852871
 11
-2833.0896757714654
 21
-848.14727567850059
  0
LINE
  8
_0-3_躯体と製品
  6
CONTINUOUS
 62
    4
 10
-2875.3849557714275
 20
-727.98071567849911
 11
-2875.3849557714275
 21
-737.98071567849911
  0
LINE
  8
_0-3_躯体と製品
  6
CONTINUOUS
 62
    2
 10
-2780.8256357714563
 20
-796.69293567851128
 11
-2769.7096757714353
 21
-809.94041567849854
  0
LINE
  8
_0-3_躯体と製品
  6
CONTINUOUS
 62
    2
 10
-2731.0896757714945
 20
-876.68411567850853
 11
-2734.0896757713854
 21
-876.68411567850853
  0
LINE
  8
_0-3_躯体と製品
  6
CONTINUOUS
 62
    2
 10
-2734.0896757713854
 20
-876.68411567850853
 11
-2734.0896757713854
 21
-863.52109567851949
  0
LINE
  8
_0-3_躯体と製品
  6
CONTINUOUS
 62
    2
 10
-2744.7959757714052
 20
-869.18411567850853
 11
-2724.0641757714875
 21
-869.18411567850853
  0
LINE
  8
_0-3_躯体と製品
  6
PLINE2
 62
    2
 10
-2731.0896757714945
 20
-722.20557567853029
 11
-2726.0896757714945
 21
-722.20557567853029
  0
LINE
  8
_0-3_躯体と製品
  6
CONTINUOUS
 62
    2
 10
-2731.0896757714945
 20
-752.15697567852112
 11
-2734.0896757713854
 21
-752.15697567852112
  0
LINE
  8
_0-3_躯体と製品
  6
CONTINUOUS
 62
    2
 10
-2734.0896757713854
 20
-752.15697567852112
 11
-2734.0896757713854
 21
-765.07641567848987
  0
LINE
  8
_0-3_躯体と製品
  6
CONTINUOUS
 62
    4
 10
-2741.0896757714945
 20
-763.62361567851985
 11
-2741.0896757714945
 21
-771.12361567851985
  0
LINE
  8
_0-3_躯体と製品
  6
CONTINUOUS
 62
    2
 10
-2744.7959757714052
 20
-759.65697567852112
 11
-2724.0641757714875
 21
-759.65697567852112
  0
LINE
  8
_0-3_躯体と製品
  6
CONTINUOUS
 62
    2
 10
-2873.4526357713876
 20
-607.65213567850878
 11
-2875.2811757713644
 21
-619.23293567851942
  0
LINE
  8
_0-3_躯体と製品
  6
CONTINUOUS
 62
    2
 10
-2804.6466557714957
 20
-694.87583567847105
 11
-2798.0693357714263
 21
-713.76337567847077
  0
LINE
  8
_0-3_躯体と製品
  6
CONTINUOUS
 62
    2
 10
-2762.7096357714472
 20
-553.20383567850877
 11
-2756.1322957713746
 21
-572.09137567850848
  0
LINE
  8
_0-3_躯体と製品
  6
CONTINUOUS
 62
    2
 10
-2715.9483557713866
 20
-695.28907567852002
 11
-2705.9483557713866
 21
-695.28907567852002
  0
LINE
  8
_0-3_躯体と製品
  6
CONTINUOUS
 62
    2
 10
-2710.9483557713866
 20
-690.28907567852002
 11
-2710.9483557713866
 21
-700.28907567853093
  0
LINE
  8
_0-3_躯体と製品
  6
CONTINUOUS
 62
    2
 10
-2731.0896757714945
 20
-552.78159567854163
 11
-2717.9349957714949
 21
-590.55665567851975
  0
LINE
  8
_0-3_躯体と製品
  6
CONTINUOUS
 62
    4
 10
-2729.0896757713854
 20
-512.78159567854163
 11
-2731.0896757714945
 21
-512.78159567854163
  0
LINE
  8
_0-3_躯体と製品
  6
CONTINUOUS
 62
    4
 10
-2729.0896757713854
 20
-528.35911567847143
 11
-2729.0896757713854
 21
-512.78159567854163
  0
LINE
  8
_0-3_躯体と製品
  6
CONTINUOUS
 62
    4
 10
-2731.0896757714945
 20
-512.78159567854163
 11
-2731.0896757714945
 21
-552.78159567854163
  0
LINE
  8
_0-3_躯体と製品
  6
CONTINUOUS
 62
    2
 10
-2046.0896757714945
 20
-1287.2375756785186
 11
-2046.0896757714945
 21
-1090.9363556784992
  0
LINE
  8
_0-3_躯体と製品
  6
CONTINUOUS
 62
    2
 10
-2131.0896757714945
 20
-1019.7668556784593
 11
-2131.0896757714945
 21
-1261.7375756784895
  0
LINE
  8
_0-3_躯体と製品
  6
CONTINUOUS
 62
    2
 10
-2171.0896757714945
 20
-1019.7668556784593
 11
-2171.0896757714945
 21
-1250.7815956784907
  0
LINE
  8
_0-3_躯体と製品
  6
PLINE2
 62
    2
 10
-2136.0896757714945
 20
-1019.7668556784593
 11
-2136.0896757714945
 21
-1260.2375756784786
  0
LINE
  8
_0-3_躯体と製品
  6
CONTINUOUS
 62
    2
 10
-2431.0896757714945
 20
-512.78159567854163
 11
-2106.0896757714945
 21
-512.78159567854163
  0
LINE
  8
_0-3_躯体と製品
  6
CONTINUOUS
 62
    2
 10
-2525.8604157714472
 20
-597.7921956784885
 11
-2519.2830757713673
 21
-616.67971567848144
  0
LINE
  8
_0-3_躯体と製品
  6
CONTINUOUS
 62
    2
 10
-2091.9680157714065
 20
-555.81621567850016
 11
-2082.5242557714155
 21
-559.10487567853124
  0
LINE
  8
_0-3_躯体と製品
  6
CONTINUOUS
 62
    2
 10
-2085.6167557714762
 20
-552.78159567854163
 11
-2088.8904757714663
 21
-562.18241567847144
  0
LINE
  8
_0-3_躯体と製品
  6
CONTINUOUS
 62
    2
 10
-2106.0896757714945
 20
-512.78159567854163
 11
-2106.0896757714945
 21
-535.01503567851978
  0
LINE
  8
_0-3_躯体と製品
  6
CONTINUOUS
 62
    2
 10
-2017.1869957714662
 20
-581.8577156784886
 11
-2007.7432157714647
 21
-585.1463756785306
  0
LINE
  8
_0-3_躯体と製品
  6
CONTINUOUS
 62
    2
 10
-2010.8357357713867
 20
-578.82311567854049
 11
-2014.1094357713773
 21
-588.2239356784703
  0
LINE
  8
_0-3_躯体と製品
  6
PLINE2
 62
    3
 10
-348.17025577138702
 20
-1121.2193956784904
 11
-1181.9978957714848
 21
-1371.3676956784911
  0
TEXT
  8
_0-4_図面枠
 62
    7
 10
-480.37029577141584
 20
-1707.6766356785083
 40
60
 41
0.8000000000000001
 50
0
  1
ＳＣ７５０
  0
LINE
  8
_0-3_躯体と製品
  6
CONTINUOUS
 62
    4
 10
-917.02047577140547
 20
-1290.8304356785084
 11
-725.17025577150707
 21
-1233.2753756784987
  0
LINE
  8
_0-3_躯体と製品
  6
CONTINUOUS
 62
    2
 10
-1054.8162757714344
 20
-838.68417567849974
 11
-733.17025577138702
 21
-1031.6717756784783
  0
LINE
  8
_0-3_躯体と製品
  6
PLINE2
 62
    2
 10
-1091.6671557714144
 20
-856.22411567849122
 11
-733.17025577138702
 21
-1071.3222556785404
  0
LINE
  8
_0-3_躯体と製品
  6
CONTINUOUS
 62
    2
 10
-733.17025577138702
 20
-1078.3193956784817
 11
-798.17025577138702
 21
-1039.3193956784708
  0
LINE
  8
_0-3_躯体と製品
  6
CONTINUOUS
 62
    2
 10
-838.07695577138657
 20
-723.78737567851931
 11
-729.17025577144523
 21
-752.96883567847908
  0
LINE
  8
_0-3_躯体と製品
  6
CONTINUOUS
 62
    4
 10
-764.56257577140423
 20
-846.45369567850867
 11
-725.17025577150707
 21
-839.50777567851037
  0
LINE
  8
_0-3_躯体と製品
  6
CONTINUOUS
 62
    2
 10
-710.01559577139415
 20
-412.0944556785289
 11
-1008.7356357714343
 21
-516.11977567852955
  0
LINE
  8
_0-3_躯体と製品
  6
PLINE2
 62
    2
 10
-721.19705577147761
 20
-379.9856556784689
 11
-1039.4663957714474
 21
-490.81875567849056
  0
LINE
  8
_0-3_躯体と製品
  6
CONTINUOUS
 62
    2
 10
-348.17025577138702
 20
-402.56555567852047
 11
-953.52261577149693
 21
-613.37155567853915
  0
LINE
  8
_0-3_躯体と製品
  6
CONTINUOUS
 62
    2
 10
-709.4523357714861
 20
-570.73327567851084
 11
-942.4175357713757
 21
-651.86035567850922
  0
LINE
  8
_0-3_躯体と製品
  6
PLINE2
 62
    2
 10
-348.17025577138702
 20
-408.91895567853135
 11
-1063.3450357714755
 21
-657.96915567851102
  0
LINE
  8
_0-3_躯体と製品
  6
CONTINUOUS
 62
    4
 10
-348.82799577141486
 20
-400.67681567852924
 11
-906.01005577146498
 21
-594.70813567852019
  0
LINE
  8
_0-3_躯体と製品
  6
CONTINUOUS
 62
    4
 10
-1044.889475771477
 20
-486.35387567846919
 11
-723.17025577138702
 21
-374.31939567847076
  0
LINE
  8
_0-3_躯体と製品
  6
CONTINUOUS
 62
    2
 10
-733.17025577138702
 20
-920.88369567850168
 11
-951.85053577136568
 21
-789.67553567847062
  0
LINE
  8
_0-3_躯体と製品
  6
PLINE2
 62
    5
 10
-819.45497577150672
 20
-979.90095567853132
 11
-750.21241577137698
 21
-910.65839567848161
  0
LINE
  8
_0-3_躯体と製品
  6
PLINE2
 62
    5
 10
-797.35787577140582
 20
-993.15921567854093
 11
-733.17025577138702
 21
-928.971575678519
  0
LINE
  8
_0-3_躯体と製品
  6
PLINE2
 62
    5
 10
-775.2607957714572
 20
-1006.4174556785292
 11
-733.17025577138702
 21
-964.32691567846996
  0
LINE
  8
_0-3_躯体と製品
  6
CONTINUOUS
 62
    2
 10
-825.39089577140476
 20
-720.97493567852871
 11
-723.17025577138702
 21
-748.36487567852964
  0
LINE
  8
_0-3_躯体と製品
  6
CONTINUOUS
 62
    2
 10
-723.17025577138702
 20
-635.2016356785316
 11
-825.39089577140476
 21
-720.97493567852871
  0
LINE
  8
_0-3_躯体と製品
  6
CONTINUOUS
 62
    4
 10
-739.45583577150683
 20
-638.42361567847911
 11
-854.36249577148556
 21
-734.84175567849888
  0
LINE
  8
_0-3_躯体と製品
  6
CONTINUOUS
 62
    2
 10
-729.17025577144523
 20
-632.4037956784814
 11
-838.07695577138657
 21
-723.78737567851931
  0
LINE
  8
_0-3_躯体と製品
  6
CONTINUOUS
 62
    2
 10
-755.61237577144493
 20
-372.38069567851926
 11
-747.39071577146751
 21
-395.99009567849862
  0
LINE
  8
_0-3_躯体と製品
  6
PLINE2
 62
    2
 10
-1039.4663957714474
 20
-490.81875567849056
 11
-1091.6671557714144
 21
-856.22411567849122
  0
LINE
  8
_0-3_躯体と製品
  6
CONTINUOUS
 62
    2
 10
-951.85053577136568
 20
-789.67553567847062
 11
-906.25895577147458
 21
-470.5344756785089
  0
LINE
  8
_0-3_躯体と製品
  6
PLINE2
 62
    5
 10
-1011.5132757714164
 20
-535.56315567846832
 11
-983.16539577149524
 21
-507.21527567847079
  0
LINE
  8
_0-3_躯体と製品
  6
PLINE2
 62
    5
 10
-1017.4058157714753
 20
-576.81103567847822
 11
-928.91971577146614
 21
-488.32493567846905
  0
LINE
  8
_0-3_躯体と製品
  6
PLINE2
 62
    5
 10
-1023.2983757713955
 20
-618.05893567849853
 11
-911.33981577148734
 21
-506.10035567849991
  0
LINE
  8
_0-3_躯体と製品
  6
CONTINUOUS
 62
    4
 10
-1098.7073157714476
 20
-863.07883567854151
 11
-1044.889475771477
 21
-486.35387567846919
  0
LINE
  8
_0-4_図面枠
  6
CONTINUOUS
 62
    2
 10
-1019.406475771375
 20
-833.18949567852906
 11
-1336.8801957713658
 21
-283.30887567848913
  0
LINE
  8
_0-3_躯体と製品
  6
CONTINUOUS
 62
    2
 10
-1803.7652157714074
 20
-945.54167567846889
 11
-1854.7662357713743
 21
-622.53509567847141
  0
LINE
  8
_0-3_躯体と製品
  6
CONTINUOUS
 62
    4
 10
-1939.392975771465
 20
-1319.8043356784983
 11
-1956.0843157714262
 21
-1314.7969156785293
  0
LINE
  8
_0-3_躯体と製品
  6
CONTINUOUS
 62
    4
 10
-1939.239455771447
 20
-1319.2926356785101
 11
-1939.392975771465
 21
-1319.8043356784983
  0
LINE
  8
_0-3_躯体と製品
  6
CONTINUOUS
 62
    2
 10
-1939.4691557714941
 20
-608.92191567851842
 11
-1930.0253957715067
 21
-612.21059567849079
  0
LINE
  8
_0-3_躯体と製品
  6
CONTINUOUS
 62
    2
 10
-1933.1178957714146
 20
-605.88731567849027
 11
-1936.3916157714157
 21
-615.2881356784892
  0
LINE
  8
_0-3_躯体と製品
  6
CONTINUOUS
 62
    4
 10
-1098.1702557713943
 20
-859.31939567847076
 11
-798.17025577138702
 21
-1039.3193956784708
  0
LINE
  8
_0-3_躯体と製品
  6
PLINE2
 62
    5
 10
-885.74623577150487
 20
-940.12619567853835
 11
-816.50367577136421
 21
-870.88365567848086
  0
LINE
  8
_0-3_躯体と製品
  6
PLINE2
 62
    5
 10
-863.6491557714071
 20
-953.38445567854069
 11
-794.40659577142651
 21
-884.14189567848007
  0
LINE
  8
_0-3_躯体と製品
  6
PLINE2
 62
    5
 10
-841.55205577144443
 20
-966.64269567852898
 11
-772.30949577146748
 21
-897.40015567847877
  0
LINE
  8
_0-3_躯体と製品
  6
CONTINUOUS
 62
    4
 10
-916.86695577139471
 20
-1291.3421156784898
 11
-900.17561577142624
 21
-1286.3347156785312
  0
LINE
  8
_0-3_躯体と製品
  6
CONTINUOUS
 62
    4
 10
-917.02047577140547
 20
-1290.8304356785084
 11
-916.86695577139471
 21
-1291.3421156784898
  0
LINE
  8
_0-3_躯体と製品
  6
CONTINUOUS
 62
    4
 10
-798.17025577138702
 20
-1039.3193956784708
 11
-798.17025577138702
 21
-1084.3193956784708
  0
LINE
  8
_0-3_躯体と製品
  6
CONTINUOUS
 62
    4
 10
-798.17025577138702
 20
-1084.3193956784708
 11
-794.97025577146633
 21
-1084.3193956784708
  0
LINE
  8
_0-3_躯体と製品
  6
CONTINUOUS
 62
    4
 10
-794.97025577146633
 20
-1072.6924156784698
 11
-794.97025577146633
 21
-1084.3193956784708
  0
LINE
  8
_0-3_躯体と製品
  6
CONTINUOUS
 62
    2
 10
-816.36233577139501
 20
-1013.8267756784699
 11
-829.22471577140459
 21
-1035.2640956785108
  0
LINE
  8
_0-3_躯体と製品
  6
CONTINUOUS
 62
    2
 10
-1044.1743557713853
 20
-644.93983567853138
 11
-1062.3898757714669
 21
-651.2831356785282
  0
LINE
  8
_0-3_躯体と製品
  6
CONTINUOUS
 62
    2
 10
-1059.9474557714675
 20
-692.78859567851032
 11
-1068.7575157714164
 21
-695.8565756784883
  0
LINE
  8
_0-3_躯体と製品
  6
CONTINUOUS
 62
    2
 10
-1062.8776357714269
 20
-523.88273567848955
 11
-1038.1289157713654
 21
-527.41825567850174
  0
LINE
  8
_0-3_躯体と製品
  6
CONTINUOUS
 62
    4
 10
-1098.7073157714476
 20
-863.07883567854151
 11
-1064.6922757713655
 21
-883.48785567847153
  0
LINE
  8
_0-3_躯体と製品
  6
CONTINUOUS
 62
    2
 10
-1104.6049357714874
 20
-815.97375567850031
 11
-1080.3563557714951
 21
-819.43783567848004
  0
LINE
  8
_0-3_躯体と製品
  6
CONTINUOUS
 62
    2
 10
-1008.7356357714343
 20
-516.11977567852955
 11
-1054.8162757714344
 21
-838.68417567849974
  0
LINE
  8
_0-3_躯体と製品
  6
PLINE2
 62
    5
 10
-1040.9760557714544
 20
-741.80261567854177
 11
-929.01747577138667
 21
-629.8440556784808
  0
LINE
  8
_0-3_躯体と製品
  6
PLINE2
 62
    5
 10
-1046.8686157713746
 20
-783.0505156784784
 11
-934.91003577145602
 21
-671.09195567850111
  0
LINE
  8
_0-3_躯体と製品
  6
PLINE2
 62
    5
 10
-1052.7611557714263
 20
-824.29841567849871
 11
-940.8025957713653
 21
-712.33983567851101
  0
LINE
  8
_0-3_躯体と製品
  6
PLINE2
 62
    5
 10
-974.13457577144436
 20
-887.09319567845887
 11
-904.89203577146691
 21
-817.85063567847828
  0
LINE
  8
_0-3_躯体と製品
  6
PLINE2
 62
    5
 10
-952.03749577149574
 20
-900.35143567853083
 11
-882.794935771366
 21
-831.10889567848062
  0
LINE
  8
_0-3_躯体と製品
  6
PLINE2
 62
    5
 10
-929.94041577140524
 20
-913.60969567854045
 11
-860.69785577142466
 21
-844.36713567847983
  0
LINE
  8
_0-3_躯体と製品
  6
PLINE2
 62
    5
 10
-1040.4258357714461
 20
-847.31843567853866
 11
-946.69513577143516
 21
-753.5877356785204
  0
LINE
  8
_0-3_躯体と製品
  6
PLINE2
 62
    5
 10
-1018.3287557714975
 20
-860.57669567846824
 11
-949.08619577136415
 21
-791.33413567848038
  0
LINE
  8
_0-3_躯体と製品
  6
PLINE2
 62
    5
 10
-996.23167577140703
 20
-873.83493567854021
 11
-926.98911577141553
 21
-804.59237567847958
  0
LINE
  8
_0-4_図面枠
  6
CONTINUOUS
 62
    2
 10
-1019.406475771375
 20
-833.18949567852906
 11
-1048.0667357714156
 21
-803.54847567847901
  0
LINE
  8
_0-3_躯体と製品
  6
CONTINUOUS
 62
    2
 10
-1043.5979557713872
 20
-906.64015567846945
 11
-1030.7355557713745
 21
-885.20283567850129
  0
LINE
  8
_0-3_躯体と製品
  6
PLINE2
 62
    5
 10
-907.84331577144621
 20
-926.86795567847003
 11
-838.60077577147604
 21
-857.62539567847853
  0
LINE
  8
_0-3_躯体と製品
  6
CONTINUOUS
 62
    4
 10
-854.36249577148556
 20
-734.84175567849888
 11
-854.36249577148556
 21
-749.84175567849888
  0
LINE
  8
_0-3_躯体と製品
  6
PLINE2
 62
    5
 10
-1029.1909357714649
 20
-659.30683567851156
 11
-917.23235577139712
 21
-547.34825567852022
  0
LINE
  8
_0-3_躯体と製品
  6
PLINE2
 62
    5
 10
-1035.0834957713851
 20
-700.55473567852823
 11
-923.12491577146648
 21
-588.59615567854053
  0
LINE
  8
_0-3_躯体と製品
  6
CONTINUOUS
 62
    2
 10
-966.30887577148678
 20
-617.82419567848046
 11
-996.92977577141573
 21
-628.48753567850872
  0
LINE
  8
_0-3_躯体と製品
  6
CONTINUOUS
 62
    2
 10
-982.27919577139619
 20
-665.74165567851014
 11
-1005.4181357714551
 21
-673.79947567854106
  0
LINE
  8
_0-3_躯体と製品
  6
CONTINUOUS
 62
    2
 10
-1009.1359357714755
 20
-632.73815567852944
 11
-1037.5932357714773
 21
-642.6480356785105
  0
LINE
  8
_0-3_躯体と製品
  6
CONTINUOUS
 62
    2
 10
-1015.2810157714557
 20
-677.23409567850831
 11
-1051.1729557714643
 21
-689.73299567849972
  0
LINE
  8
_0-3_躯体と製品
  6
CONTINUOUS
 62
    2
 10
-1059.7475757714674
 20
-674.62999567847874
 11
-1044.8650757713658
 21
-669.44735567850148
  0
LINE
  8
_0-3_躯体と製品
  6
CONTINUOUS
 62
    2
 10
-1051.1919957715072
 20
-664.23831567852903
 11
-1053.4206557714642
 21
-679.83903567853122
  0
LINE
  8
_0-3_躯体と製品
  6
CONTINUOUS
 62
    2
 10
-951.473295771415
 20
-655.01389567850129
 11
-971.07551577150662
 21
-661.8401156785003
  0
LINE
  8
_0-3_躯体と製品
  6
CONTINUOUS
 62
    2
 10
-791.5510157713943
 20
-662.55553567847892
 11
-772.267395771476
 21
-685.53687567852103
  0
LINE
  8
_0-3_躯体と製品
  6
CONTINUOUS
 62
    4
 10
-906.01005577146498
 20
-594.70813567852019
 11
-906.01005577146498
 21
-604.70813567853111
  0
LINE
  8
_0-3_躯体と製品
  6
CONTINUOUS
 62
    2
 10
-871.68809577137654
 20
-571.63751567852159
 11
-863.46643577139548
 21
-595.24691567850823
  0
TEXT
  8
_0-4_図面枠
 62
    7
 10
-1612.0793757713764
 20
-278.30892370970832
 40
60
 41
0.8000000000000002
 50
0.0000099999488962
  1
排気誘導板
  0
LINE
  8
_0-4_図面枠
  6
CONTINUOUS
 62
    2
 10
-1336.8801957713658
 20
-283.30887567848913
 11
-1636.0769157713949
 21
-283.30887567848913
  0
LINE
  8
_0-4_図面枠
  6
CONTINUOUS
 62
    2
 10
-954.81231577140716
 20
-459.47245567847858
 11
-1173.8188957713865
 21
-80.141915678468649
  0
LINE
  8
_0-3_躯体と製品
  6
CONTINUOUS
 62
    2
 10
-1010.2808757714047
 20
-461.06563567854027
 11
-1002.0592157714273
 21
-484.67505567853004
  0
LINE
  8
_0-4_図面枠
  6
CONTINUOUS
 62
    2
 10
-954.81231577140716
 20
-459.47245567847858
 11
-983.47257577143682
 21
-429.83143567850129
  0
LINE
  8
_0-3_躯体と製品
  6
CONTINUOUS
 62
    2
 10
-903.69075577137482
 20
-452.55701567847063
 11
-902.33467577140618
 21
-443.06445567846822
  0
LINE
  8
_0-3_躯体と製品
  6
CONTINUOUS
 62
    2
 10
-904.6084557713657
 20
-458.98097567849982
 11
-903.82081577145436
 21
-453.4674756784807
  0
LINE
  8
_0-3_躯体と製品
  6
CONTINUOUS
 62
    2
 10
-905.98743577137429
 20
-468.63371567851937
 11
-904.88263577149701
 21
-460.9002156784918
  0
TEXT
  8
_0-4_図面枠
 62
    7
 10
-1276.2183157714862
 20
-75.141793550581497
 40
60.000000000000007
 41
0.8000000000000008
 50
0.0000099999488962
  1
外板
  0
LINE
  8
_0-4_図面枠
  6
CONTINUOUS
 62
    2
 10
-1173.8188957713865
 20
-80.141915678468649
 11
-1282.9154157714147
 21
-80.141915678468649
  0
LINE
  8
_0-3_躯体と製品
  6
CONTINUOUS
 62
    2
 10
428.92598422856463
 20
-872.21641567848928
 11
371.14510422850435
 21
-467.75019567853087
  0
LINE
  8
_0-3_躯体と製品
  6
CONTINUOUS
 62
    2
 10
-348.17025577138702
 20
-444.92155567852024
 11
-692.83943577144601
 21
-564.94805567846925
  0
LINE
  8
_0-3_躯体と製品
  6
PLINE3
 62
    2
 10
-348.17025577138702
 20
-282.27507567848079
 11
-348.17025577138702
 21
-1297.4631956785088
  0
LINE
  8
_0-3_躯体と製品
  6
CONTINUOUS
 62
    4
 10
-348.17025577138702
 20
-1120.1753756785183
 11
220.67994422862466
 21
-1290.8304356785084
  0
LINE
  8
_0-3_躯体と製品
  6
CONTINUOUS
 62
    2
 10
-348.17025577138702
 20
-797.75273567852128
 11
234.22532422862423
 21
-797.75273567852128
  0
LINE
  8
_0-3_躯体と製品
  6
CONTINUOUS
 62
    2
 10
-348.17025577138702
 20
-837.75273567852128
 11
234.22532422862423
 21
-837.75273567852128
  0
LINE
  8
_0-3_躯体と製品
  6
PLINE2
 62
    2
 10
-348.17025577138702
 20
-803.75273567849945
 11
234.22532422862423
 21
-803.75273567849945
  0
LINE
  8
_0-3_躯体と製品
  6
CONTINUOUS
 62
    4
 10
-725.17025577150707
 20
-1233.2753756784987
 11
-725.17025577150707
 21
-839.50777567851037
  0
LINE
  8
_0-3_躯体と製品
  6
CONTINUOUS
 62
    2
 10
-683.17025577138702
 20
-1221.7193956785195
 11
-683.17025577138702
 21
-525.57829567850058
  0
LINE
  8
_0-3_躯体と製品
  6
CONTINUOUS
 62
    2
 10
-723.17025577138702
 20
-1234.3193956784708
 11
-723.17025577138702
 21
-539.50777567851037
  0
LINE
  8
_0-3_躯体と製品
  6
CONTINUOUS
 62
    2
 10
-733.17025577138702
 20
-1184.3193956784708
 11
-733.17025577138702
 21
-920.88369567850168
  0
LINE
  8
_0-3_躯体と製品
  6
PLINE2
 62
    2
 10
-718.17025577138702
 20
-575.51037567849926
 11
-718.17025577138702
 21
-1232.2537356785397
  0
LINE
  8
_0-3_躯体と製品
  6
CONTINUOUS
 62
    2
 10
-740.17025577150707
 20
-1147.3187556785015
 11
-710.17025577150707
 21
-1147.3187556785015
  0
LINE
  8
_0-3_躯体と製品
  6
CONTINUOUS
 62
    2
 10
-723.17025577138702
 20
-1184.3193956784708
 11
-733.17025577138702
 21
-1184.3193956784708
  0
TEXT
  8
_0-4_図面枠
 62
    7
 10
-656.62883577139655
 20
-1086.2579556785204
 40
60
 41
0.8000000000000006
 50
0
  1
支柱
  0
LINE
  8
_0-4_図面枠
  6
CONTINUOUS
 62
    2
 10
-656.62909577148457
 20
-1091.2579356785209
 11
-536.51075577143638
 21
-1091.2579356785209
  0
LINE
  8
_0-4_図面枠
  6
CONTINUOUS
 62
    2
 10
-698.59089577147461
 20
-1018.5779756784905
 11
-669.93063577144494
 21
-1048.2189956784787
  0
LINE
  8
_0-4_図面枠
  6
CONTINUOUS
 62
    2
 10
-698.59089577147461
 20
-1018.5779756784905
 11
-656.62909577148457
 21
-1091.2579356785209
  0
LINE
  8
_0-3_躯体と製品
  6
CONTINUOUS
 62
    2
 10
-738.1702557713943
 20
-1110.5760756784803
 11
-708.17025577138702
 21
-1110.5760756784803
  0
LINE
  8
_0-3_躯体と製品
  6
CONTINUOUS
 62
    2
 10
-733.17025577138702
 20
-1031.6717756784783
 11
-723.17025577138702
 21
-1031.6717756784783
  0
LINE
  8
_0-3_躯体と製品
  6
PLINE2
 62
    5
 10
-753.16371577150494
 20
-1019.6757156785388
 11
-733.17025577138702
 21
-999.68225567849004
  0
LINE
  8
_0-3_躯体と製品
  6
CONTINUOUS
 62
    2
 10
-723.17025577138702
 20
-839.50777567851037
 11
-348.17025577138702
 21
-839.50777567851037
  0
LINE
  8
_0-3_躯体と製品
  6
CONTINUOUS
 62
    2
 10
-692.07961577149763
 20
-879.50777567851037
 11
-348.17025577138702
 21
-879.50777567851037
  0
LINE
  8
_0-3_躯体と製品
  6
PLINE2
 62
    2
 10
-723.17025577138702
 20
-845.50777567848854
 11
-348.17025577138702
 21
-845.50777567848854
  0
LINE
  8
_0-3_躯体と製品
  6
CONTINUOUS
 62
    2
 10
-723.17025577138702
 20
-879.50777567851037
 11
-703.42153577147474
 21
-879.50777567851037
  0
LINE
  8
_0-3_躯体と製品
  6
CONTINUOUS
 62
    2
 10
-707.82247577137605
 20
-863.32669567847915
 11
-693.82247577143426
 21
-863.32669567847915
  0
LINE
  8
_0-3_躯体と製品
  6
CONTINUOUS
 62
    2
 10
-700.82247577140515
 20
-856.32669567850826
 11
-700.82247577140515
 21
-870.32669567851917
  0
LINE
  8
_0-3_躯体と製品
  6
CONTINUOUS
 62
    2
 10
-723.17025577138702
 20
-778.36487567852964
 11
-729.17025577144523
 21
-778.36487567852964
  0
LINE
  8
_0-3_躯体と製品
  6
CONTINUOUS
 62
    2
 10
-729.17025577144523
 20
-752.96883567847908
 11
-729.17025577144523
 21
-778.36487567852964
  0
LINE
  8
_0-3_躯体と製品
  6
CONTINUOUS
 62
    2
 10
-738.1702557713943
 20
-763.36487567852964
 11
-708.17025577138702
 21
-763.36487567852964
  0
LINE
  8
_0-3_躯体と製品
  6
CONTINUOUS
 62
    2
 10
-729.17025577144523
 20
-605.2016356785316
 11
-729.17025577144523
 21
-632.4037956784814
  0
LINE
  8
_0-3_躯体と製品
  6
CONTINUOUS
 62
    4
 10
-739.45583577150683
 20
-624.95569567850907
 11
-739.45583577150683
 21
-638.42361567847911
  0
LINE
  8
_0-3_躯体と製品
  6
CONTINUOUS
 62
    2
 10
-738.1702557713943
 20
-620.2016356785316
 11
-708.17025577138702
 21
-620.2016356785316
  0
LINE
  8
_0-3_躯体と製品
  6
CONTINUOUS
 62
    2
 10
-723.17025577138702
 20
-605.2016356785316
 11
-729.17025577144523
 21
-605.2016356785316
  0
LINE
  8
_0-3_躯体と製品
  6
CONTINUOUS
 62
    2
 10
-710.43471577139644
 20
-553.34197567848969
 11
-696.43471577145465
 21
-553.34197567848969
  0
LINE
  8
_0-3_躯体と製品
  6
CONTINUOUS
 62
    2
 10
-703.43471577142554
 20
-546.34197567851879
 11
-703.43471577142554
 21
-560.34197567852971
  0
LINE
  8
_0-3_躯体と製品
  6
PLINE2
 62
    2
 10
-723.17025577138702
 20
-575.51037567849926
 11
-718.17025577138702
 21
-575.51037567849926
  0
LINE
  8
_0-3_躯体と製品
  6
CONTINUOUS
 62
    2
 10
-309.02249577148541
 20
-823.49979567850824
 11
-295.02249577139446
 21
-823.49979567850824
  0
LINE
  8
_0-3_躯体と製品
  6
CONTINUOUS
 62
    2
 10
-302.02249577136536
 20
-816.49979567846822
 11
-302.02249577136536
 21
-830.49979567847913
  0
LINE
  8
_0-3_躯体と製品
  6
CONTINUOUS
 62
    2
 10
-198.79661577141451
 20
-816.49979567846822
 11
-198.79661577141451
 21
-830.49979567847913
  0
LINE
  8
_0-3_躯体と製品
  6
CONTINUOUS
 62
    2
 10
-205.7966157713854
 20
-823.49979567850824
 11
-191.79661577144725
 21
-823.49979567850824
  0
LINE
  8
_0-3_躯体と製品
  6
CONTINUOUS
 62
    2
 10
428.92598422856463
 20
-872.21641567848928
 11
126.82974422861298
 21
-1053.4741556784902
  0
LINE
  8
_0-4_図面枠
  6
CONTINUOUS
 62
    2
 10
137.07964422852456
 20
-794.67453567849952
 11
318.24274422849339
 21
-1108.4582356784813
  0
LINE
  8
_0-3_躯体と製品
  6
CONTINUOUS
 62
    2
 10
126.82974422861298
 20
-1053.4741556784902
 11
126.82974422861298
 21
-1262.6753756785183
  0
LINE
  8
_0-3_躯体と製品
  6
PLINE2
 62
    2
 10
26.829744228612981
 20
-1233.7193956784904
 11
26.829744228612981
 21
-1084.3193956784708
  0
LINE
  8
_0-3_躯体と製品
  6
PLINE2
 62
    2
 10
-13.170255771387019
 20
-1221.7193956785195
 11
-13.170255771387019
 21
-1084.3193956784708
  0
LINE
  8
_0-3_躯体と製品
  6
PLINE2
 62
    2
 10
21.829744228612981
 20
-1084.3193956784708
 11
21.829744228612981
 21
-1232.2193956784795
  0
LINE
  8
_0-3_躯体と製品
  6
CONTINUOUS
 62
    4
 10
220.52644422860249
 20
-1291.3421156784898
 11
203.83510422850304
 21
-1286.3347156785312
  0
LINE
  8
_0-3_躯体と製品
  6
CONTINUOUS
 62
    4
 10
220.67994422862466
 20
-1290.8304356785084
 11
220.52644422860249
 21
-1291.3421156784898
  0
LINE
  8
_0-3_躯体と製品
  6
CONTINUOUS
 62
    2
 10
168.44198422856425
 20
-790.9744356785086
 11
140.44198422854242
 21
-790.9744356785086
  0
LINE
  8
_0-4_図面枠
  6
CONTINUOUS
 62
    2
 10
137.07964422852456
 20
-794.67453567849952
 11
165.73988422854381
 21
-824.31555567848045
  0
LINE
  8
_0-3_躯体と製品
  6
CONTINUOUS
 62
    2
 10
-98.267835771384853
 20
-816.00941567849077
 11
-98.267835771384853
 21
-830.00941567850896
  0
LINE
  8
_0-3_躯体と製品
  6
CONTINUOUS
 62
    2
 10
-6.565975771365629
 20
-816.25459567848156
 11
-6.565975771365629
 21
-830.25459567848884
  0
LINE
  8
_0-3_躯体と製品
  6
CONTINUOUS
 62
    2
 10
-105.26783577136666
 20
-823.0094156785417
 11
-91.267835771417595
 21
-823.0094156785417
  0
LINE
  8
_0-3_躯体と製品
  6
CONTINUOUS
 62
    2
 10
-13.565975771474768
 20
-823.25459567852158
 11
0.434024228612543
 21
-823.25459567852158
  0
LINE
  8
_0-3_躯体と製品
  6
CONTINUOUS
 62
    2
 10
94.943564228604373
 20
-815.51903567852059
 11
94.943564228604373
 21
-829.51903567853151
  0
LINE
  8
_0-3_躯体と製品
  6
CONTINUOUS
 62
    2
 10
131.44198422859336
 20
-796.97443567850132
 11
131.44198422859336
 21
-752.97443567847949
  0
LINE
  8
_0-3_躯体と製品
  6
CONTINUOUS
 62
    2
 10
134.44198422862246
 20
-752.97443567847949
 11
131.44198422859336
 21
-752.97443567847949
  0
ARC
  8
_0-3_躯体と製品
  6
CONTINUOUS
 62
    2
 10
134.44198422862246
 20
-755.9744356785086
 40
3
 50
0
 51
90
  0
LINE
  8
_0-3_躯体と製品
  6
CONTINUOUS
 62
    2
 10
137.44198422851332
 20
-787.97443567847949
 11
137.44198422851332
 21
-755.9744356785086
  0
ARC
  8
_0-3_躯体と製品
  6
CONTINUOUS
 62
    2
 10
140.44198422854242
 20
-787.97443567847949
 40
3
 50
180
 51
270
  0
LINE
  8
_0-3_躯体と製品
  6
CONTINUOUS
 62
    2
 10
152.98274422851318
 20
-809.97443567853043
 11
152.98274422851318
 21
-779.97443567851951
  0
LINE
  8
_0-3_躯体と製品
  6
CONTINUOUS
 62
    2
 10
87.943564228633477
 20
-822.51903567849149
 11
101.94356422857527
 21
-822.51903567849149
  0
LINE
  8
_0-4_図面枠
  6
CONTINUOUS
 62
    2
 10
392.40500422850528
 20
-827.34453567850142
 11
454.46582422855499
 21
-719.8520156784798
  0
LINE
  8
_0-3_躯体と製品
  6
CONTINUOUS
 62
    2
 10
193.51080422858286
 20
-815.02863567847089
 11
193.51080422858286
 21
-829.02863567848181
  0
LINE
  8
_0-3_躯体と製品
  6
CONTINUOUS
 62
    2
 10
186.51080422860468
 20
-822.02863567851091
 11
200.51080422855375
 21
-822.02863567851091
  0
ARC
  8
_0-3_躯体と製品
  6
CONTINUOUS
 62
    2
 10
168.44198422856425
 20
-793.97443567846858
 40
3
 50
0
 51
90
  0
LINE
  8
_0-3_躯体と製品
  6
CONTINUOUS
 62
    2
 10
171.44198422859336
 20
-793.97443567846858
 11
171.44198422859336
 21
-796.97443567850132
  0
LINE
  8
_0-4_図面枠
  6
CONTINUOUS
 62
    2
 10
392.40500422850528
 20
-827.34453567850142
 11
403.74474422861385
 21
-787.70351567852049
  0
LINE
  8
_0-3_躯体と製品
  6
CONTINUOUS
 62
    2
 10
-348.17025577138702
 20
-334.31939567847076
 11
25.576924228524149
 21
-334.31939567847076
  0
LINE
  8
_0-3_躯体と製品
  6
CONTINUOUS
 62
    2
 10
-723.17025577138702
 20
-374.31939567847076
 11
-710.01559577139415
 21
-412.0944556785289
  0
LINE
  8
_0-3_躯体と製品
  6
CONTINUOUS
 62
    4
 10
-719.97025577146633
 20
-334.31939567847076
 11
-723.17025577138702
 21
-334.31939567847076
  0
LINE
  8
_0-3_躯体と製品
  6
CONTINUOUS
 62
    4
 10
-719.97025577146633
 20
-346.93577567851025
 11
-719.97025577146633
 21
-334.31939567847076
  0
LINE
  8
_0-3_躯体と製品
  6
CONTINUOUS
 62
    4
 10
-723.17025577138702
 20
-334.31939567847076
 11
-723.17025577138702
 21
-374.31939567847076
  0
LINE
  8
_0-3_躯体と製品
  6
CONTINUOUS
 62
    2
 10
-541.1563757713775
 20
-456.5341756785383
 11
-532.93469577138603
 21
-480.14359567853171
  0
LINE
  8
_0-4_図面枠
  6
CONTINUOUS
 62
    2
 10
191.16180422862453
 20
-442.87267567852177
 11
447.13970422862258
 21
0.4940443215309642
  0
LINE
  8
_0-3_躯体と製品
  6
CONTINUOUS
 62
    2
 10
25.576924228524149
 20
-347.41061567853103
 11
371.14510422850435
 21
-467.75019567853087
  0
LINE
  8
_0-3_躯体と製品
  6
CONTINUOUS
 62
    2
 10
112.31872422854576
 20
-413.73681567850144
 11
125.53998422853329
 21
-418.34093567850141
  0
LINE
  8
_0-3_躯体と製品
  6
CONTINUOUS
 62
    2
 10
121.23142422861565
 20
-409.42823567850064
 11
116.62728422861255
 21
-422.64951567849857
  0
LINE
  8
_0-3_躯体と製品
  6
CONTINUOUS
 62
    2
 10
25.576924228524149
 20
-334.31939567847076
 11
25.576924228524149
 21
-347.41061567853103
  0
LINE
  8
_0-4_図面枠
  6
CONTINUOUS
 62
    2
 10
191.16180422862453
 20
-442.87267567852177
 11
202.50156422860528
 21
-403.23165567847172
  0
LINE
  8
_0-3_躯体と製品
  6
CONTINUOUS
 62
    2
 10
185.67564422862415
 20
-439.2823956785287
 11
198.89690422861531
 21
-443.88651567852867
  0
LINE
  8
_0-3_躯体と製品
  6
CONTINUOUS
 62
    2
 10
194.5883442285558
 20
-434.97381567853881
 11
189.98420422854542
 21
-448.19509567852947
  0
LINE
  8
_0-3_躯体と製品
  6
CONTINUOUS
 62
    2
 10
269.76402422851243
 20
-468.56507567848894
 11
282.98530422850308
 21
-473.16919567849982
  0
LINE
  8
_0-3_躯体と製品
  6
CONTINUOUS
 62
    2
 10
278.67672422858595
 20
-464.25649567849177
 11
274.07260422857507
 21
-477.47777567848971
  0
LINE
  8
_0-3_躯体と製品
  6
PLINE2
 62
    3
 10
-2511.9329957714872
 20
1253.7870643215101
 11
-1904.1053557714549
 21
1071.4387643215014
  0
LINE
  8
_0-3_躯体と製品
  6
CONTINUOUS
 62
    4
 10
-2662.9329957713962
 20
1209.5310843214902
 11
-2854.7832157714474
 21
1151.9760243214805
  0
LINE
  8
_0-3_躯体と製品
  6
PLINE2
 62
    3
 10
-2511.9329957714872
 20
1253.7870643215101
 11
-3119.7606357713667
 21
1071.4387643215014
  0
LINE
  8
_0-3_躯体と製品
  6
CONTINUOUS
 62
    4
 10
-2511.9329957714872
 20
1254.8310843214786
 11
-2169.0827957713773
 21
1151.9760243214805
  0
TEXT
  8
_0-4_図面枠
 62
    7
 10
-2627.5776957714552
 20
1017.9344043214915
 40
60
 41
0.8000000000000001
 50
0
  1
ＳＣ３００
  0
LINE
  8
_0-3_躯体と製品
  6
CONTINUOUS
 62
    4
 10
-2854.6296957714258
 20
1151.4643443214991
 11
-2837.9383557714646
 21
1156.4717443215304
  0
LINE
  8
_0-3_躯体と製品
  6
CONTINUOUS
 62
    4
 10
-2854.7832157714474
 20
1151.9760243214805
 11
-2854.6296957714258
 21
1151.4643443214991
  0
LINE
  8
_0-3_躯体と製品
  6
CONTINUOUS
 62
    4
 10
-2169.2362957713958
 20
1151.4643443214991
 11
-2185.9276357715062
 21
1156.4717443215304
  0
LINE
  8
_0-3_躯体と製品
  6
CONTINUOUS
 62
    4
 10
-2169.0827957713773
 20
1151.9760243214805
 11
-2169.2362957713958
 21
1151.4643443214991
  0
LINE
  8
_0-3_躯体と製品
  6
CONTINUOUS
 62
    2
 10
-2511.9329957714872
 20
1567.1886043214909
 11
-2797.4931757713675
 21
1467.7460243215282
  0
LINE
  8
_0-3_躯体と製品
  6
CONTINUOUS
 62
    4
 10
-2734.1903157714041
 20
1490.8493043215312
 11
-2512.2618557714959
 21
1568.1329843214917
  0
LINE
  8
_0-3_躯体と製品
  6
CONTINUOUS
 62
    2
 10
-2511.9329957714872
 20
1562.4235443215002
 11
-2793.4258757714852
 21
1464.3973643214813
  0
LINE
  8
_0-3_躯体と製品
  6
CONTINUOUS
 62
    4
 10
-2660.9329957714253
 20
1598.4870643215218
 11
-2660.9329957714253
 21
1608.4870643215218
  0
LINE
  8
_0-3_躯体と製品
  6
CONTINUOUS
 62
    4
 10
-2661.9329957714872
 20
1608.4870643215218
 11
-2661.9329957714872
 21
1578.4870643215218
  0
LINE
  8
_0-3_躯体と製品
  6
CONTINUOUS
 62
    4
 10
-2662.9329957713962
 20
1400.3855643214702
 11
-2662.9329957713962
 21
1209.5310843214902
  0
LINE
  8
_0-3_躯体と製品
  6
CONTINUOUS
 62
    2
 10
-2807.0556757713966
 20
1400.80852432147
 11
-2661.9329957714872
 21
1313.7349243214703
  0
LINE
  8
_0-3_躯体と製品
  6
CONTINUOUS
 62
    2
 10
-2661.9329957714872
 20
1208.7870643215101
 11
-2661.9329957714872
 21
1510.1880243214691
  0
LINE
  8
_0-3_躯体と製品
  6
CONTINUOUS
 62
    2
 10
-2655.9329957714253
 20
1505.9240443215094
 11
-2655.9329957714253
 21
1210.5870643215094
  0
LINE
  8
_0-3_躯体と製品
  6
CONTINUOUS
 62
    4
 10
-2811.9329957714872
 20
1398.4870643215218
 11
-2691.9329957714872
 21
1326.4870643214817
  0
LINE
  8
_0-3_躯体と製品
  6
CONTINUOUS
 62
    4
 10
-2682.2414357714151
 20
1389.2378443214693
 11
-2662.9329957713962
 21
1400.3855643214702
  0
LINE
  8
_0-3_躯体と製品
  6
CONTINUOUS
 62
    2
 10
-2666.4329957714544
 20
1311.1870643214897
 11
-2666.4329957714544
 21
1241.4870643214817
  0
LINE
  8
_0-3_躯体と製品
  6
CONTINUOUS
 62
    2
 10
-2674.6302157714563
 20
1274.2278043214792
 11
-2650.0426757713867
 21
1274.2278043214792
  0
LINE
  8
_0-3_躯体と製品
  6
CONTINUOUS
 62
    2
 10
-2661.9329957714872
 20
1241.4870643214817
 11
-2666.4329957714544
 21
1241.4870643214817
  0
LINE
  8
_0-3_躯体と製品
  6
CONTINUOUS
 62
    2
 10
-2691.9253957713845
 20
1326.4825043214587
 11
-2666.4329957714544
 21
1311.1870643214897
  0
LINE
  8
_0-3_躯体と製品
  6
CONTINUOUS
 62
    4
 10
-2691.9329957714872
 20
1326.4870643214817
 11
-2691.9329957714872
 21
1308.4870643215218
  0
LINE
  8
_0-3_躯体と製品
  6
CONTINUOUS
 62
    4
 10
-2690.9329957714253
 20
1308.4870643215218
 11
-2690.9329957714253
 21
1313.4870643215218
  0
LINE
  8
_0-3_躯体と製品
  6
CONTINUOUS
 62
    4
 10
-2691.9329957714872
 20
1308.4870643215218
 11
-2690.9329957714253
 21
1308.4870643215218
  0
LINE
  8
_0-3_躯体と製品
  6
CONTINUOUS
 62
    2
 10
-2660.4530957715069
 20
1574.2373643215215
 11
-2788.6580757713746
 21
1529.5916643214914
  0
LINE
  8
_0-3_躯体と製品
  6
CONTINUOUS
 62
    4
 10
-2661.9329957714872
 20
1578.4870643215218
 11
-2792.7253957713947
 21
1532.9403243215311
  0
LINE
  8
_0-3_躯体と製品
  6
CONTINUOUS
 62
    2
 10
-2788.6580757713746
 20
1529.5916643214914
 11
-2807.0556757713966
 21
1400.80852432147
  0
LINE
  8
_0-3_躯体と製品
  6
CONTINUOUS
 62
    4
 10
-2792.7253957713947
 20
1532.9403243215311
 11
-2811.9329957714872
 21
1398.4870643215218
  0
LINE
  8
_0-3_躯体と製品
  6
CONTINUOUS
 62
    2
 10
-2802.0186557713751
 20
1436.0676443215198
 11
-2797.5638757714369
 21
1435.4312443215204
  0
LINE
  8
_0-3_躯体と製品
  6
CONTINUOUS
 62
    2
 10
-2793.4258757714852
 20
1464.3973643214813
 11
-2797.5638757714369
 21
1435.4312443215204
  0
LINE
  8
_0-3_躯体と製品
  6
CONTINUOUS
 62
    4
 10
-2794.8514557714152
 20
1532.1999643214804
 11
-2792.7253957713947
 21
1532.9403243215311
  0
LINE
  8
_0-3_躯体と製品
  6
CONTINUOUS
 62
    4
 10
-2796.826615771417
 20
1518.3739443215018
 11
-2794.8514557714152
 21
1532.1999643214804
  0
LINE
  8
_0-3_躯体と製品
  6
CONTINUOUS
 62
    2
 10
-2802.5131557714376
 20
1513.4140043215302
 11
-2789.0432757713861
 21
1511.4897243214982
  0
LINE
  8
_0-3_躯体と製品
  6
CONTINUOUS
 62
    2
 10
-2774.6246957714866
 20
1547.1854043214989
 11
-2769.6916957714566
 21
1533.0197643214997
  0
LINE
  8
_0-3_躯体と製品
  6
CONTINUOUS
 62
    2
 10
-2696.9351357714841
 20
1510.7057843214716
 11
-2692.002135771465
 21
1496.5401443214796
  0
LINE
  8
_0-3_躯体と製品
  6
CONTINUOUS
 62
    4
 10
-2734.1903157714041
 20
1480.8493043215312
 11
-2734.1903157714041
 21
1490.8493043215312
  0
LINE
  8
_0-3_躯体と製品
  6
CONTINUOUS
 62
    2
 10
-2684.1108757714246
 20
1578.7056643215292
 11
-2679.1778757714055
 21
1564.5400043215304
  0
LINE
  8
_0-3_躯体と製品
  6
CONTINUOUS
 62
    2
 10
-2661.9329957714872
 20
1578.4870643215218
 11
-2660.4530957715069
 21
1574.2373643215215
  0
LINE
  8
_0-3_躯体と製品
  6
CONTINUOUS
 62
    2
 10
-2631.7129557714943
 20
1520.7117643215315
 11
-2629.7397557714357
 21
1515.0455043215297
  0
LINE
  8
_0-3_躯体と製品
  6
CONTINUOUS
 62
    2
 10
-2629.7397557714357
 20
1515.0455043215297
 11
-2655.9329957714253
 21
1505.9240443215094
  0
LINE
  8
_0-3_躯体と製品
  6
CONTINUOUS
 62
    4
 10
-2660.9329957714253
 20
1608.4870643215218
 11
-2661.9329957714872
 21
1608.4870643215218
  0
LINE
  8
_0-3_躯体と製品
  6
CONTINUOUS
 62
    2
 10
-2361.9329957714872
 20
1608.4870643215218
 11
-2361.9329957714872
 21
1604.9595643214707
  0
LINE
  8
_0-3_躯体と製品
  6
PLINE3
 62
    2
 10
-2511.9329957714872
 20
1652.7902243214994
 11
-2511.9329957714872
 21
1193.6544643215093
  0
LINE
  8
_0-3_躯体と製品
  6
CONTINUOUS
 62
    2
 10
-2184.8367557713864
 20
1385.5900443214996
 11
-2306.9329957714872
 21
1312.3323043215314
  0
LINE
  8
_0-3_躯体と製品
  6
CONTINUOUS
 62
    2
 10
-2361.9329957714872
 20
1604.9595643214707
 11
-2208.5444557714654
 21
1551.5440243214798
  0
LINE
  8
_0-3_躯体と製品
  6
PLINE2
 62
    2
 10
-2361.9329957714872
 20
1209.8310843214786
 11
-2361.9329957714872
 21
1333.4801643215214
  0
LINE
  8
_0-3_躯体と製品
  6
PLINE2
 62
    2
 10
-2367.9329957713962
 20
1333.4801643215214
 11
-2367.9329957713962
 21
1211.6310843214815
  0
LINE
  8
_0-3_躯体と製品
  6
CONTINUOUS
 62
    2
 10
-2306.9329957714872
 20
1312.3323043215314
 11
-2306.9329957714872
 21
1193.3310843214713
  0
LINE
  8
_0-3_躯体と製品
  6
CONTINUOUS
 62
    2
 10
-2347.3661757714472
 20
1584.0033643214701
 11
-2337.9224157714561
 21
1580.7146843215014
  0
LINE
  8
_0-3_躯体と製品
  6
CONTINUOUS
 62
    2
 10
-2340.9999557713963
 20
1587.0809043214795
 11
-2344.288635771507
 21
1577.6371443214812
  0
LINE
  8
_0-3_躯体と製品
  6
CONTINUOUS
 62
    2
 10
-2307.8963357714965
 20
1570.2585043215295
 11
-2298.4525757715055
 21
1566.9698443214984
  0
LINE
  8
_0-3_躯体と製品
  6
CONTINUOUS
 62
    2
 10
-2301.5301157714457
 20
1573.3360443214697
 11
-2304.818775771404
 21
1563.8922843214787
  0
LINE
  8
_0-3_躯体と製品
  6
CONTINUOUS
 62
    2
 10
-2208.5444557714654
 20
1551.5440243214798
 11
-2184.8367557713864
 21
1385.5900443214996
  0
LINE
  8
_0-3_躯体と製品
  6
CONTINUOUS
 62
    2
 10
-2266.9366357714061
 20
1555.9948243215294
 11
-2257.4928757714151
 21
1552.7061643214984
  0
LINE
  8
_0-3_躯体と製品
  6
CONTINUOUS
 62
    2
 10
-2260.5704157714972
 20
1559.0723843214691
 11
-2263.8590957714659
 21
1549.6286243214818
  0
LINE
  8
_0-3_躯体と製品
  6
CONTINUOUS
 62
    2
 10
-2511.9329957714872
 20
1608.4870643215218
 11
-2361.9329957714872
 21
1608.4870643215218
  0
LINE
  8
_0-4_図面枠
  6
CONTINUOUS
 62
    2
 10
-2117.0314557714846
 20
2799.7983243215313
 11
-3450.3647957714493
 21
2799.7983243215313
  0
TEXT
  8
_0-4_図面枠
 62
    7
 10
-3259.1859957713968
 20
2677.7171243215016
 40
60
 41
0.8000000000000006
 50
0
  1
縮　　尺
  0
TEXT
  8
_0-4_図面枠
 62
    7
 10
-3294.0161957713935
 20
2835.3169043215203
 40
60
 41
0.8000000000000001
 50
0
  1
ファイル名
  0
TEXT
  8
_0-4_図面枠
 62
    7
 10
-2657.685735771367
 20
2839.2091243214891
 40
60
 41
0.7999999999999999
 50
0
  1
ＭＯＮ００１
  0
LINE
  8
_0-4_図面枠
  6
CONTINUOUS
 62
    4
 10
-2117.0314557714846
 20
2966.4649843215011
 11
-2117.0314557714846
 21
2633.131644321471
  0
LINE
  8
_0-4_図面枠
  6
CONTINUOUS
 62
    2
 10
-2783.6981357713958
 20
2966.4649843215011
 11
-2783.6981357713958
 21
2633.131644321471
  0
TEXT
  8
_0-4_図面枠
 62
    7
 10
-2655.8675757713972
 20
2674.5091043214707
 40
60
 41
0.7999999999999999
 50
0
  1
Ｓ　１：２０
  0
TEXT
  8
_0-4_図面枠
 62
    7
 10
-861.97245577145441
 20
1013.4587043215215
 40
60
 41
0.8000000000000001
 50
0
  1
ＳＣ４００
  0
LINE
  8
_0-3_躯体と製品
  6
PLINE2
 62
    3
 10
-754.43663577140615
 20
1268.4870643215218
 11
-1411.264295771387
 21
1071.4387643215014
  0
LINE
  8
_0-3_躯体と製品
  6
CONTINUOUS
 62
    2
 10
-754.43663577140615
 20
1663.4224443214698
 11
-1135.274735771367
 21
1530.8005843214705
  0
LINE
  8
_0-3_躯体と製品
  6
CONTINUOUS
 62
    4
 10
-1047.1933157714266
 20
1562.5326843214789
 11
-754.43663577140615
 21
1664.4813443214589
  0
LINE
  8
_0-3_躯体と製品
  6
CONTINUOUS
 62
    2
 10
-1131.2074357714955
 20
1527.4519243215
 11
-754.43663577140615
 21
1658.6574043214896
  0
LINE
  8
_0-3_躯体と製品
  6
CONTINUOUS
 62
    4
 10
-1146.2868557714573
 20
1151.9760243214805
 11
-956.43663577137704
 21
1208.9310843215208
  0
LINE
  8
_0-3_躯体と製品
  6
CONTINUOUS
 62
    4
 10
-1146.1333557714461
 20
1151.4643443214991
 11
-1129.4419957714745
 21
1156.4717443215304
  0
LINE
  8
_0-3_躯体と製品
  6
CONTINUOUS
 62
    4
 10
-1146.2868557714573
 20
1151.9760243214805
 11
-1146.1333557714461
 21
1151.4643443214991
  0
LINE
  8
_0-3_躯体と製品
  6
CONTINUOUS
 62
    2
 10
-1123.2558357714042
 20
1614.932944321481
 11
-1149.5593157714648
 21
1430.80852432147
  0
LINE
  8
_0-3_躯体と製品
  6
CONTINUOUS
 62
    4
 10
-1127.3231357714249
 20
1618.2816243215311
 11
-1154.4366357714061
 21
1428.4870643215218
  0
LINE
  8
_0-3_躯体と製品
  6
CONTINUOUS
 62
    4
 10
-1134.8713557714545
 20
1579.5861843215207
 11
-1129.4492157714449
 21
1617.54124432147
  0
LINE
  8
_0-3_躯体と製品
  6
CONTINUOUS
 62
    2
 10
-1149.5593157714648
 20
1430.80852432147
 11
-956.43663577137704
 21
1314.9349243214892
  0
LINE
  8
_0-3_躯体と製品
  6
CONTINUOUS
 62
    4
 10
-1154.4366357714061
 20
1428.4870643215218
 11
-994.43663577140615
 21
1332.4870643214599
  0
LINE
  8
_0-3_躯体と製品
  6
CONTINUOUS
 62
    2
 10
-1135.3454557714467
 20
1498.4858043215318
 11
-1131.2074357714955
 21
1527.4519243215
  0
LINE
  8
_0-3_躯体と製品
  6
CONTINUOUS
 62
    2
 10
-1139.8002157713745
 20
1499.1222043214584
 11
-1135.3454557714467
 21
1498.4858043215318
  0
LINE
  8
_0-3_躯体と製品
  6
CONTINUOUS
 62
    2
 10
-1139.0604157713751
 20
1568.9498443214616
 11
-1123.7013957714844
 21
1566.7557043214692
  0
LINE
  8
_0-3_躯体と製品
  6
CONTINUOUS
 62
    4
 10
-956.43663577137704
 20
1208.9310843215208
 11
-956.43663577137704
 21
1439.5337643215316
  0
LINE
  8
_0-3_躯体と製品
  6
CONTINUOUS
 62
    2
 10
-954.43663577140615
 20
1208.4870643215218
 11
-954.43663577140615
 21
1589.0100243214692
  0
LINE
  8
_0-3_躯体と製品
  6
CONTINUOUS
 62
    2
 10
-948.43663577149709
 20
1584.7460443215095
 11
-948.43663577149709
 21
1210.287064321521
  0
LINE
  8
_0-3_躯体と製品
  6
CONTINUOUS
 62
    2
 10
-960.93663577149709
 20
1312.3870643215196
 11
-960.93663577149709
 21
1241.8204043214791
  0
LINE
  8
_0-3_躯体と製品
  6
CONTINUOUS
 62
    2
 10
-956.43663577137704
 20
1241.8204043214791
 11
-960.93663577149709
 21
1241.8204043214791
  0
LINE
  8
_0-3_躯体と製品
  6
CONTINUOUS
 62
    2
 10
-967.19033577143637
 20
1276.0565443214691
 11
-943.6275157715063
 21
1276.0565443214691
  0
LINE
  8
_0-3_躯体と製品
  6
CONTINUOUS
 62
    2
 10
-994.21305577138628
 20
1332.3529043215203
 11
-960.93663577149709
 21
1312.3870643215196
  0
LINE
  8
_0-3_躯体と製品
  6
CONTINUOUS
 62
    4
 10
-994.43663577140615
 20
1308.4870643215218
 11
-994.43663577140615
 21
1332.4870643214599
  0
LINE
  8
_0-3_躯体と製品
  6
CONTINUOUS
 62
    2
 10
-1006.6095157714044
 20
1352.7747843215184
 11
-1016.2576157714575
 21
1336.6946243215316
  0
LINE
  8
_0-3_躯体と製品
  6
CONTINUOUS
 62
    4
 10
-993.43663577149709
 20
1308.4870643215218
 11
-994.43663577140615
 21
1308.4870643215218
  0
LINE
  8
_0-3_躯体と製品
  6
CONTINUOUS
 62
    4
 10
-993.43663577149709
 20
1318.4870643215218
 11
-993.43663577149709
 21
1308.4870643215218
  0
LINE
  8
_0-3_躯体と製品
  6
CONTINUOUS
 62
    4
 10
-956.43663577137704
 20
1439.5337643215316
 11
-973.67779577149486
 21
1433.1952843214785
  0
LINE
  8
_0-3_躯体と製品
  6
CONTINUOUS
 62
    2
 10
-967.19033577143637
 20
1422.3210043214895
 11
-943.6275157715063
 21
1422.3210043214895
  0
LINE
  8
_0-3_躯体と製品
  6
CONTINUOUS
 62
    4
 10
-1047.1933157714266
 20
1551.4737843214898
 11
-1047.1933157714266
 21
1562.5326843214789
  0
LINE
  8
_0-3_躯体と製品
  6
CONTINUOUS
 62
    2
 10
-1021.4205557714668
 20
1574.5570243214715
 11
-1017.6389757713951
 21
1563.6978243215017
  0
LINE
  8
_0-3_躯体と製品
  6
CONTINUOUS
 62
    2
 10
-922.24339577149658
 20
1593.8675043215299
 11
-948.43663577149709
 21
1584.7460443215095
  0
LINE
  8
_0-3_躯体と製品
  6
CONTINUOUS
 62
    2
 10
-924.21659577142418
 20
1599.5337643215316
 11
-922.24339577149658
 21
1593.8675043215299
  0
LINE
  8
_0-3_躯体と製品
  6
CONTINUOUS
 62
    2
 10
-952.95675577143629
 20
1674.2373643215215
 11
-1123.2558357714042
 21
1614.932944321481
  0
LINE
  8
_0-3_躯体と製品
  6
CONTINUOUS
 62
    4
 10
-1129.4492157714449
 20
1617.54124432147
 11
-954.43663577140615
 21
1678.4870643215218
  0
LINE
  8
_0-3_躯体と製品
  6
CONTINUOUS
 62
    2
 10
-1107.2614957713668
 20
1629.3760243215293
 11
-1103.4799157714442
 21
1618.5168243214794
  0
LINE
  8
_0-3_躯体と製品
  6
CONTINUOUS
 62
    2
 10
-954.43663577140615
 20
1678.4870643215218
 11
-952.95675577143629
 21
1674.2373643215215
  0
LINE
  8
_0-3_躯体と製品
  6
CONTINUOUS
 62
    4
 10
-953.43663577149709
 20
1708.4870643215218
 11
-953.43663577149709
 21
1698.4870643215218
  0
LINE
  8
_0-3_躯体と製品
  6
CONTINUOUS
 62
    4
 10
-954.43663577140615
 20
1708.4870643215218
 11
-953.43663577149709
 21
1708.4870643215218
  0
LINE
  8
_0-3_躯体と製品
  6
CONTINUOUS
 62
    4
 10
-954.43663577140615
 20
1708.4870643215218
 11
-954.43663577140615
 21
1678.4870643215218
  0
LINE
  8
_0-3_躯体と製品
  6
CONTINUOUS
 62
    2
 10
-977.16661577141713
 20
1674.6798643215116
 11
-973.38503577148731
 21
1663.8206643214617
  0
LINE
  8
_0-3_躯体と製品
  6
PLINE2
 62
    3
 10
-754.43663577140615
 20
1268.4870643215218
 11
-97.608995771424816
 21
1071.4387643215014
  0
LINE
  8
_0-3_躯体と製品
  6
CONTINUOUS
 62
    4
 10
-362.58643577150724
 20
1151.9760243214805
 11
-754.43663577140615
 21
1269.5310843214902
  0
LINE
  8
_0-3_躯体と製品
  6
PLINE3
 62
    2
 10
-754.43663577140615
 20
1767.256544321499
 11
-754.43663577140615
 21
1128.0483043214917
  0
LINE
  8
_0-3_躯体と製品
  6
CONTINUOUS
 62
    4
 10
-362.73993577137662
 20
1151.4643443214991
 11
-379.43129577148648
 21
1156.4717443215304
  0
LINE
  8
_0-3_躯体と製品
  6
CONTINUOUS
 62
    4
 10
-362.58643577150724
 20
1151.9760243214805
 11
-362.73993577137662
 21
1151.4643443214991
  0
LINE
  8
_0-3_躯体と製品
  6
CONTINUOUS
 62
    2
 10
-358.95401577143639
 20
1636.8853043214694
 11
-327.3403957714545
 21
1415.5900443214996
  0
LINE
  8
_0-3_躯体と製品
  6
CONTINUOUS
 62
    2
 10
-489.43663577140615
 20
1318.3323043215205
 11
-327.3403957714545
 21
1415.5900443214996
  0
LINE
  8
_0-3_躯体と製品
  6
PLINE2
 62
    2
 10
-554.43663577140615
 20
1209.5310843214902
 11
-554.43663577140615
 21
1308.4870643215218
  0
LINE
  8
_0-3_躯体と製品
  6
PLINE2
 62
    2
 10
-560.43663577146435
 20
1308.4870643215218
 11
-560.43663577146435
 21
1211.3310843214895
  0
LINE
  8
_0-3_躯体と製品
  6
CONTINUOUS
 62
    2
 10
-489.43663577140615
 20
1190.0310843215193
 11
-489.43663577140615
 21
1318.3323043215205
  0
LINE
  8
_0-3_躯体と製品
  6
CONTINUOUS
 62
    2
 10
-529.43663577140615
 20
1696.2536443214813
 11
-358.95401577143639
 21
1636.8853043214694
  0
LINE
  8
_0-3_躯体と製品
  6
CONTINUOUS
 62
    2
 10
-754.43663577140615
 20
1708.4870643215218
 11
-554.43663577140615
 21
1708.4870643215218
  0
LINE
  8
_0-3_躯体と製品
  6
CONTINUOUS
 62
    2
 10
-554.43663577140615
 20
1704.9595643214707
 11
-529.43663577140615
 21
1696.2536443214813
  0
LINE
  8
_0-3_躯体と製品
  6
CONTINUOUS
 62
    2
 10
-554.43663577140615
 20
1704.9595643214707
 11
-554.43663577140615
 21
1708.4870643215218
  0
LINE
  8
_0-3_躯体と製品
  6
CONTINUOUS
 62
    2
 10
-508.58147577148702
 20
1676.5869843214714
 11
-501.97085577149483
 21
1674.2849243214696
  0
LINE
  8
_0-3_躯体と製品
  6
CONTINUOUS
 62
    2
 10
-504.12513577145728
 20
1678.7412643214993
 11
-506.42719577138632
 21
1672.1306443215108
  0
LINE
  8
_0-3_躯体と製品
  6
CONTINUOUS
 62
    2
 10
-452.70429577139657
 20
1660.8346443215087
 11
-455.00637577147427
 21
1654.2240043215097
  0
LINE
  8
_0-3_躯体と製品
  6
CONTINUOUS
 62
    2
 10
-457.16065577142581
 20
1658.6803643214807
 11
-450.55001577142684
 21
1656.3782843214685
  0
LINE
  8
_0-3_躯体と製品
  6
CONTINUOUS
 62
    2
 10
-404.82413577147599
 20
1640.454844321499
 11
-398.21349577147703
 21
1638.1527843215008
  0
LINE
  8
_0-3_躯体と製品
  6
CONTINUOUS
 62
    2
 10
-400.36777577143584
 20
1642.6091443214682
 11
-402.6698557713753
 21
1635.9985043214692
  0
LINE
  8
_0-4_図面枠
  6
CONTINUOUS
 62
    4
 10
4292.9685442285154
 20
-2373.5350156784989
 11
4292.9685442285154
 21
2966.4649843215011
  0
LINE
  8
_0-4_図面枠
  6
CONTINUOUS
 62
    3
 10
3850.5520042285352
 20
-319.77245567847058
 11
1201.6458042286249
 21
-319.77245567847058
  0
LINE
  8
_0-4_図面枠
  6
CONTINUOUS
 62
    3
 10
1201.6458042286249
 20
-1369.7724556784706
 11
3850.5520042285352
 21
-1369.7724556784706
  0
LINE
  8
_0-4_図面枠
  6
CONTINUOUS
 62
    2
 10
1201.6458042286249
 20
-469.77245567847058
 11
3850.5520042285352
 21
-469.77245567847058
  0
LINE
  8
_0-4_図面枠
  6
CONTINUOUS
 62
    2
 10
1201.6458042286249
 20
-459.77245567847058
 11
3850.5520042285352
 21
-459.77245567847058
  0
LINE
  8
_0-4_図面枠
  6
CONTINUOUS
 62
    2
 10
1201.6458042286249
 20
-619.77245567847058
 11
3850.5520042285352
 21
-619.77245567847058
  0
LINE
  8
_0-4_図面枠
  6
CONTINUOUS
 62
    2
 10
1201.6458042286249
 20
-769.77245567847058
 11
3850.5520042285352
 21
-769.77245567847058
  0
LINE
  8
_0-4_図面枠
  6
CONTINUOUS
 62
    2
 10
1201.6458042286249
 20
-919.77245567847058
 11
3850.5520042285352
 21
-919.77245567847058
  0
LINE
  8
_0-4_図面枠
  6
CONTINUOUS
 62
    2
 10
1201.6458042286249
 20
-1069.7724556784706
 11
3850.5520042285352
 21
-1069.7724556784706
  0
LINE
  8
_0-4_図面枠
  6
CONTINUOUS
 62
    2
 10
1201.6458042286249
 20
-1219.7724556784706
 11
3850.5520042285352
 21
-1219.7724556784706
  0
LINE
  8
_0-4_図面枠
  6
CONTINUOUS
 62
    3
 10
1201.6458042286249
 20
-319.77245567847058
 11
1201.6458042286249
 21
-1369.7724556784706
  0
LINE
  8
_0-4_図面枠
  6
CONTINUOUS
 62
    2
 10
1700.5520042285352
 20
-319.77245567847058
 11
1700.5520042285352
 21
-1369.7724556784706
  0
LINE
  8
_0-4_図面枠
  6
CONTINUOUS
 62
    2
 10
2100.5520042285352
 20
-319.77245567847058
 11
2100.5520042285352
 21
-1369.7724556784706
  0
LINE
  8
_0-4_図面枠
  6
CONTINUOUS
 62
    2
 10
2500.5520042285352
 20
-319.77245567847058
 11
2500.5520042285352
 21
-1369.7724556784706
  0
LINE
  8
_0-4_図面枠
  6
CONTINUOUS
 62
    2
 10
2900.5520042285352
 20
-319.77245567847058
 11
2900.5520042285352
 21
-1369.7724556784706
  0
TEXT
  8
_0-4_図面枠
 62
    7
 10
1275.9752242286158
 20
-1336.3736156785417
 40
60
 41
0.8000000000000001
 50
0
  1
ＳＣ７５０
  0
TEXT
  8
_0-4_図面枠
 62
    7
 10
1283.5417642285938
 20
-1196.8097756784882
 40
60
 41
0.8000000000000001
 50
0
  1
ＳＣ６００
  0
TEXT
  8
_0-4_図面枠
 62
    7
 10
1286.904804228554
 20
-1051.3606356784985
 40
60
 41
0.8000000000000001
 50
0
  1
ＳＣ５００
  0
TEXT
  8
_0-4_図面枠
 62
    7
 10
1285.2232842285739
 20
-902.54853567851023
 40
60
 41
0.8000000000000001
 50
0
  1
ＳＣ４５０
  0
TEXT
  8
_0-4_図面枠
 62
    7
 10
1276.8156842285025
 20
-756.25871567849026
 40
60
 41
0.8000000000000001
 50
0
  1
ＳＣ４００
  0
TEXT
  8
_0-4_図面枠
 62
    7
 10
1271.771124228555
 20
-598.19841567848925
 40
60
 41
0.8000000000000001
 50
0
  1
ＳＣ３００
  0
TEXT
  8
_0-4_図面枠
 62
    7
 10
1298.5289442286157
 20
-440.36363567852095
 40
60
 41
0.8
 50
0
  1
型　　式
  0
TEXT
  8
_0-4_図面枠
 62
    7
 10
2269.5424242285735
 20
-600.72067567853082
 40
60
 41
0.7999999999999999
 50
0
  1
３００
  0
TEXT
  8
_0-4_図面枠
 62
    7
 10
2262.8163642285035
 20
-743.647475678521
 40
60
 41
0.7999999999999999
 50
0
  1
４００
  0
TEXT
  8
_0-4_図面枠
 62
    7
 10
2253.5683042285527
 20
-889.93745567851875
 40
60
 41
0.800000000000001
 50
0
  1
４５０
  0
TEXT
  8
_0-4_図面枠
 62
    7
 10
2261.9752842285452
 20
-1051.3606356784985
 40
60
 41
0.7999999999999999
 50
0
  1
５００
  0
TEXT
  8
_0-4_図面枠
 62
    7
 10
2265.3383242285126
 20
-1192.6060556784796
 40
60
 41
0.7999999999999999
 50
0
  1
６００
  0
TEXT
  8
_0-4_図面枠
 62
    7
 10
2262.8163642285035
 20
-1342.2589156784707
 40
60
 41
0.7999999999999999
 50
0
  1
７５０
  0
TEXT
  8
_0-4_図面枠
 62
    7
 10
1861.9752842285452
 20
-1051.3606356784985
 40
60
 41
0.7999999999999999
 50
0
  1
５００
  0
TEXT
  8
_0-4_図面枠
 62
    7
 10
1865.3383242285126
 20
-1192.6060556784796
 40
60
 41
0.7999999999999999
 50
0
  1
６００
  0
TEXT
  8
_0-4_図面枠
 62
    7
 10
1862.8163642285035
 20
-1342.2589156784707
 40
60
 41
0.7999999999999999
 50
0
  1
７５０
  0
TEXT
  8
_0-4_図面枠
 62
    7
 10
1869.5424242285735
 20
-600.72067567853082
 40
60
 41
0.7999999999999999
 50
0
  1
３００
  0
TEXT
  8
_0-4_図面枠
 62
    7
 10
1862.8163642285035
 20
-743.647475678521
 40
60
 41
0.7999999999999999
 50
0
  1
４００
  0
TEXT
  8
_0-4_図面枠
 62
    7
 10
1853.5683042285527
 20
-889.93745567851875
 40
60
 41
0.800000000000001
 50
0
  1
４５０
  0
TEXT
  8
_0-4_図面枠
 62
    7
 10
2587.9451442285936
 20
-1189.1964756784801
 40
60
 41
0.8000000000000006
 50
0
  1
　１５０
  0
TEXT
  8
_0-4_図面枠
 62
    7
 10
2580.1356842286041
 20
-1345.3840756785212
 40
60
 41
0.8000000000000006
 50
0
  1
　１５０
  0
TEXT
  8
_0-4_図面枠
 62
    7
 10
2596.6219042285338
 20
-1039.9505756785184
 40
60
 41
0.7999999999999993
 50
0
  1
　１００
  0
TEXT
  8
_0-4_図面枠
 62
    7
 10
2596.6219042285338
 20
-739.95057567852928
 40
60
 41
0.7999999999999993
 50
0
  1
　１００
  0
TEXT
  8
_0-4_図面枠
 62
    7
 10
2596.6219042285338
 20
-889.95057567851836
 40
60
 41
0.7999999999999993
 50
0
  1
　１００
  0
TEXT
  8
_0-4_図面枠
 62
    7
 10
2596.6219042285338
 20
-589.95057567852928
 40
60
 41
0.7999999999999993
 50
0
  1
　１００
  0
TEXT
  8
_0-4_図面枠
 62
    7
 10
1882.8548042285656
 20
-431.43541567850116
 40
60
 41
0.800000000000002
 50
0
  1
Ａ
  0
TEXT
  8
_0-4_図面枠
 62
    7
 10
2283.9479442285738
 20
-436.2292556784887
 40
60
 41
0.7999999999999982
 50
0
  1
Ｉ
  0
TEXT
  8
_0-4_図面枠
 62
    7
 10
2703.4181642285039
 20
-428.23945567848932
 40
60
 41
0.7999999999999982
 50
0
  1
Ｊ
  0
LINE
  8
_0-4_図面枠
  6
CONTINUOUS
 62
    2
 10
3300.5520042285352
 20
-319.77245567847058
 11
3300.5520042285352
 21
-1369.7724556784706
  0
LINE
  8
_0-4_図面枠
  6
CONTINUOUS
 62
    3
 10
3850.5520042285352
 20
-1369.7724556784706
 11
3850.5520042285352
 21
-319.77245567847058
  0
LINE
  8
_0-4_図面枠
  6
CONTINUOUS
 62
    2
 10
3550.5520042285352
 20
-319.77245567847058
 11
3550.5520042285352
 21
-1369.7724556784706
  0
TEXT
  8
_0-4_図面枠
 62
    7
 10
3361.9276842285835
 20
-602.62513567847054
 40
60
 41
0.8000000000000013
 50
0
  1
０．６
  0
TEXT
  8
_0-4_図面枠
 62
    7
 10
3361.9276842285835
 20
-752.62513567847054
 40
60
 41
0.8000000000000013
 50
0
  1
０．６
  0
TEXT
  8
_0-4_図面枠
 62
    7
 10
3361.9276842285835
 20
-902.62513567847054
 40
60
 41
0.8000000000000013
 50
0
  1
０．６
  0
TEXT
  8
_0-4_図面枠
 62
    7
 10
3361.9276842285835
 20
-1052.6251356784705
 40
60
 41
0.8000000000000013
 50
0
  1
０．６
  0
TEXT
  8
_0-4_図面枠
 62
    7
 10
3361.9276842285835
 20
-1202.6251356784705
 40
60
 41
0.8000000000000013
 50
0
  1
０．６
  0
TEXT
  8
_0-4_図面枠
 62
    7
 10
3361.9276842285835
 20
-1352.6251356784705
 40
60
 41
0.8000000000000013
 50
0
  1
０．８
  0
TEXT
  8
_0-4_図面枠
 62
    7
 10
2996.6219042285338
 20
-1039.9505756785184
 40
60
 41
0.7999999999999987
 50
0
  1
１０００
  0
TEXT
  8
_0-4_図面枠
 62
    7
 10
2987.9451442285936
 20
-1189.1964756784801
 40
60
 41
0.8000000000000006
 50
0
  1
１２００
  0
TEXT
  8
_0-4_図面枠
 62
    7
 10
2980.1356842286041
 20
-1345.3840756785212
 40
60
 41
0.8000000000000006
 50
0
  1
１５００
  0
TEXT
  8
_0-4_図面枠
 62
    7
 10
3069.509464228624
 20
-599.1543756784813
 40
60
 41
0.7999999999999988
 50
0
  1
６００
  0
TEXT
  8
_0-4_図面枠
 62
    7
 10
3069.509464228624
 20
-740.5908356785294
 40
60
 41
0.7999999999999988
 50
0
  1
８００
  0
TEXT
  8
_0-4_図面枠
 62
    7
 10
3067.7742442285053
 20
-897.64619567853879
 40
60
 41
0.7999999999999988
 50
0
  1
９００
  0
TEXT
  8
_0-4_図面枠
 62
    7
 10
3608.136184228515
 20
-1185.2270556784788
 40
60
 41
0.7999999999999988
 50
0
  1
Ｌ型鋼
  0
TEXT
  8
_0-4_図面枠
 62
    7
 10
3608.136184228515
 20
-1335.2270556784788
 40
60
 41
0.7999999999999988
 50
0
  1
Ｌ型鋼
  0
TEXT
  8
_0-4_図面枠
 62
    7
 10
3608.136184228515
 20
-1035.2270556784788
 40
60
 41
0.7999999999999988
 50
0
  1
Ｌ型鋼
  0
TEXT
  8
_0-4_図面枠
 62
    7
 10
3639.2000242284957
 20
-743.89511567854061
 40
60
 41
0.7999999999999982
 50
0
  1
ＦＢ
  0
TEXT
  8
_0-4_図面枠
 62
    7
 10
3608.136184228515
 20
-885.22705567847879
 40
60
 41
0.7999999999999988
 50
0
  1
Ｌ型鋼
  0
TEXT
  8
_0-4_図面枠
 62
    7
 10
3639.2000242284957
 20
-593.89511567854061
 40
60
 41
0.7999999999999982
 50
0
  1
ＦＢ
  0
TEXT
  8
_0-4_図面枠
 62
    7
 10
3103.4181642285039
 20
-428.23945567848932
 40
60
 41
0.7999999999999982
 50
0
  1
Ｅ
  0
TEXT
  8
_0-4_図面枠
 62
    7
 10
3357.4977442286145
 20
-437.02835567848888
 40
60
 41
0.7999999999999982
 50
0
  1
板厚
  0
TEXT
  8
_0-4_図面枠
 62
    7
 10
3631.5517042286338
 20
-436.2292556784887
 40
60
 41
0.7999999999999982
 50
0
  1
支柱
  0
TEXT
  8
_0-4_図面枠
 62
    7
 10
2849.7261442286326
 20
926.10304432149132
 40
60
 41
0.8000000000000001
 50
0
  1
ＳＣ５００
  0
LINE
  8
_0-3_躯体と製品
  6
CONTINUOUS
 62
    2
 10
2973.8955242285847
 20
1378.6165843214912
 11
2740.2541242285333
 21
1378.6165843214912
  0
LINE
  8
_0-3_躯体と製品
  6
CONTINUOUS
 62
    2
 10
2973.8955242285847
 20
1348.6165843214985
 11
2741.9539442285932
 21
1348.6165843214985
  0
LINE
  8
_0-3_躯体と製品
  6
PLINE2
 62
    2
 10
2973.8955242285847
 20
1375.6165843214585
 11
2726.8955242286138
 21
1375.6165843214585
  0
LINE
  8
_0-3_躯体と製品
  6
PLINE2
 62
    3
 10
2974.3955242286138
 20
1183.4870643215218
 11
2267.567864228633
 21
971.43876432150137
  0
LINE
  8
_0-3_躯体と製品
  6
PLINE2
 62
    2
 10
2974.3955242286138
 20
1656.4795843214888
 11
2496.299824228634
 21
1489.9890643214894
  0
LINE
  8
_0-3_躯体と製品
  6
CONTINUOUS
 62
    4
 10
2974.3955242286138
 20
1660.7151843215215
 11
2606.0887242286226
 21
1532.4572043214685
  0
LINE
  8
_0-3_躯体と製品
  6
CONTINUOUS
 62
    2
 10
2974.3955242286138
 20
1659.6562843215288
 11
2573.436704228523
 21
1520.0276643215293
  0
LINE
  8
_0-3_躯体と製品
  6
CONTINUOUS
 62
    2
 10
2974.3955242286138
 20
1627.8892843214999
 11
2748.288124228573
 21
1549.1503643214601
  0
LINE
  8
_0-3_躯体と製品
  6
PLINE2
 62
    3
 10
1042.9385642285451
 20
1275.9870643215218
 11
1724.766224228526
 21
1071.4387643215014
  0
LINE
  8
_0-3_躯体と製品
  6
CONTINUOUS
 62
    4
 10
1042.9385642285451
 20
1277.0310843214902
 11
626.08836422850436
 21
1151.9760243214805
  0
LINE
  8
_0-3_躯体と製品
  6
CONTINUOUS
 62
    4
 10
1042.9385642285451
 20
1277.0310843214902
 11
1459.7887842285927
 21
1151.9760243214805
  0
LINE
  8
_0-3_躯体と製品
  6
PLINE3
 62
    2
 10
1042.9385642285451
 20
1796.4612043215311
 11
1042.9385642285451
 21
1099.7289643214717
  0
TEXT
  8
_0-4_図面枠
 62
    7
 10
948.38826422857528
 20
986.60566432146152
 40
60
 41
0.8000000000000001
 50
0
  1
ＳＣ４５０
  0
LINE
  8
_0-3_躯体と製品
  6
CONTINUOUS
 62
    4
 10
626.24186422851562
 20
1151.4643443214991
 11
642.93322422862548
 21
1156.4717443215304
  0
LINE
  8
_0-3_躯体と製品
  6
CONTINUOUS
 62
    4
 10
626.08836422850436
 20
1151.9760243214805
 11
626.24186422851562
 21
1151.4643443214991
  0
LINE
  8
_0-3_躯体と製品
  6
CONTINUOUS
 62
    4
 10
1459.6352842285851
 20
1151.4643443214991
 11
1442.9439242286135
 21
1156.4717443215304
  0
LINE
  8
_0-3_躯体と製品
  6
CONTINUOUS
 62
    4
 10
1459.7887842285927
 20
1151.9760243214805
 11
1459.6352842285851
 21
1151.4643443214991
  0
LINE
  8
_0-3_躯体と製品
  6
CONTINUOUS
 62
    2
 10
1042.9385642285451
 20
1758.4870643215218
 11
1267.9385642285451
 21
1758.4870643215218
  0
LINE
  8
_0-3_躯体と製品
  6
CONTINUOUS
 62
    2
 10
751.20422422858246
 20
1618.7118043215014
 11
756.2994042284954
 21
1604.0804643215197
  0
LINE
  8
_0-3_躯体と製品
  6
CONTINUOUS
 62
    2
 10
817.93856422854515
 20
1630.0093843215291
 11
817.93856422854515
 21
1209.5310843214902
  0
LINE
  8
_0-3_躯体と製品
  6
CONTINUOUS
 62
    2
 10
847.93856422854515
 20
1640.4564843214685
 11
847.93856422854515
 21
1218.5310843215084
  0
LINE
  8
_0-3_躯体と製品
  6
CONTINUOUS
 62
    4
 10
624.00502422854333
 20
1660.9522643215314
 11
592.93856422854515
 21
1443.4870643215218
  0
LINE
  8
_0-3_躯体と製品
  6
CONTINUOUS
 62
    2
 10
651.12040422858263
 20
1638.6278443215197
 11
625.45406422855376
 21
1458.963484321499
  0
LINE
  8
_0-3_躯体と製品
  6
PLINE2
 62
    2
 10
626.7165642285654
 20
1658.7198243215207
 11
596.19012422860396
 21
1445.0347043215115
  0
LINE
  8
_0-3_躯体と製品
  6
CONTINUOUS
 62
    2
 10
1042.9385642285451
 20
1711.5393643214993
 11
612.86696422860405
 21
1561.7725843215085
  0
LINE
  8
_0-3_躯体と製品
  6
CONTINUOUS
 62
    4
 10
711.74910422852554
 20
1598.3247843215213
 11
1042.9385642285451
 21
1713.6571643214811
  0
LINE
  8
_0-3_躯体と製品
  6
PLINE2
 62
    2
 10
1042.9385642285451
 20
1708.3626643214593
 11
612.38938422860519
 21
1558.4295843214895
  0
LINE
  8
_0-3_躯体と製品
  6
PLINE2
 62
    2
 10
596.19012422860396
 20
1445.0347043215115
 11
812.93856422854515
 21
1314.9856443214885
  0
LINE
  8
_0-3_躯体と製品
  6
CONTINUOUS
 62
    2
 10
625.45406422855376
 20
1458.963484321499
 11
812.93856422854515
 21
1346.4727843215187
  0
LINE
  8
_0-3_躯体と製品
  6
CONTINUOUS
 62
    2
 10
772.93856422854515
 20
1335.487064321489
 11
812.93856422854515
 21
1311.4870643214817
  0
LINE
  8
_0-3_躯体と製品
  6
CONTINUOUS
 62
    2
 10
827.97132422857248
 20
1604.9128443215086
 11
608.09124422857349
 21
1528.3425043214811
  0
LINE
  8
_0-3_躯体と製品
  6
CONTINUOUS
 62
    4
 10
592.93856422854515
 20
1443.4870643215218
 11
772.93856422854515
 21
1335.487064321489
  0
LINE
  8
_0-3_躯体と製品
  6
CONTINUOUS
 62
    2
 10
750.2249842285637
 20
1360.6611643215001
 11
742.60426422858291
 21
1347.9599643214788
  0
LINE
  8
_0-3_躯体と製品
  6
CONTINUOUS
 62
    4
 10
772.93856422854515
 20
1308.4870643215218
 11
772.93856422854515
 21
1335.487064321489
  0
LINE
  8
_0-3_躯体と製品
  6
CONTINUOUS
 62
    4
 10
773.58824422860562
 20
1308.4870643215218
 11
772.93856422854515
 21
1308.4870643215218
  0
LINE
  8
_0-3_躯体と製品
  6
CONTINUOUS
 62
    4
 10
773.58824422860562
 20
1313.3842243214785
 11
773.58824422860562
 21
1308.4870643215218
  0
LINE
  8
_0-3_躯体と製品
  6
CONTINUOUS
 62
    2
 10
619.32148422857426
 20
1548.6325443215101
 11
626.32148422854516
 21
1548.6325443215101
  0
LINE
  8
_0-3_躯体と製品
  6
CONTINUOUS
 62
    2
 10
622.82148422863247
 20
1552.1325443214992
 11
622.82148422863247
 21
1545.1325443215283
  0
LINE
  8
_0-3_躯体と製品
  6
CONTINUOUS
 62
    4
 10
711.74910422852554
 20
1596.4360443215191
 11
711.74910422852554
 21
1598.3247843215213
  0
LINE
  8
_0-3_躯体と製品
  6
CONTINUOUS
 62
    4
 10
711.74910422852554
 20
1586.4360443215191
 11
711.74910422852554
 21
1596.4360443215191
  0
LINE
  8
_0-3_躯体と製品
  6
PLINE2
 62
    2
 10
820.93856422857425
 20
1601.4190843215292
 11
820.93856422857425
 21
1210.4310843215317
  0
LINE
  8
_0-3_躯体と製品
  6
CONTINUOUS
 62
    4
 10
817.93856422854515
 20
1463.6331843215085
 11
817.93856422854515
 21
1209.5310843214902
  0
LINE
  8
_0-3_躯体と製品
  6
CONTINUOUS
 62
    2
 10
812.93856422854515
 20
1346.4727843215187
 11
812.93856422854515
 21
1241.4870643214817
  0
LINE
  8
_0-3_躯体と製品
  6
CONTINUOUS
 62
    2
 10
812.93856422854515
 20
1241.4870643214817
 11
817.93856422854515
 21
1241.4870643214817
  0
LINE
  8
_0-3_躯体と製品
  6
CONTINUOUS
 62
    2
 10
802.93856422854515
 20
1277.2619443215008
 11
832.93856422854515
 21
1277.2619443215008
  0
LINE
  8
_0-3_躯体と製品
  6
CONTINUOUS
 62
    2
 10
812.93856422854515
 20
1346.4727843215187
 11
817.93856422854515
 21
1346.4727843215187
  0
LINE
  8
_0-3_躯体と製品
  6
CONTINUOUS
 62
    4
 10
791.65536422851437
 20
1458.0920443215182
 11
817.93856422854515
 21
1463.6331843215085
  0
LINE
  8
_0-3_躯体と製品
  6
PLINE2
 62
    2
 10
817.93856422854515
 20
1601.4190843215292
 11
820.93856422857425
 21
1601.4190843215292
  0
LINE
  8
_0-3_躯体と製品
  6
CONTINUOUS
 62
    4
 10
817.93856422854515
 20
1728.4870643215218
 11
621.87896422854465
 21
1660.2118843214703
  0
LINE
  8
_0-3_躯体と製品
  6
CONTINUOUS
 62
    2
 10
827.80456422858333
 20
1700.155764321531
 11
651.12040422858263
 21
1638.6278443215197
  0
LINE
  8
_0-3_躯体と製品
  6
PLINE2
 62
    2
 10
818.92516422857443
 20
1725.6539243215193
 11
626.7165642285654
 21
1658.7198243215207
  0
LINE
  8
_0-3_躯体と製品
  6
CONTINUOUS
 62
    2
 10
612.04480422850247
 20
1618.9141843214711
 11
624.55332422863285
 21
1617.1272443215203
  0
LINE
  8
_0-3_躯体と製品
  6
CONTINUOUS
 62
    4
 10
618.62292422855535
 20
1637.4197043215099
 11
621.87896422854465
 21
1660.2118843214703
  0
LINE
  8
_0-3_躯体と製品
  6
CONTINUOUS
 62
    2
 10
651.41050422856279
 20
1677.1431443215188
 11
656.50568422862489
 21
1662.5117843214612
  0
LINE
  8
_0-3_躯体と製品
  6
CONTINUOUS
 62
    2
 10
1042.9385642285451
 20
1679.7723643214704
 11
836.73792422851329
 21
1607.9657043214611
  0
LINE
  8
_0-3_躯体と製品
  6
CONTINUOUS
 62
    2
 10
817.93856422854515
 20
1728.4870643215218
 11
827.80456422858333
 21
1700.155764321531
  0
LINE
  8
_0-3_躯体と製品
  6
CONTINUOUS
 62
    2
 10
787.08758422858591
 20
1723.6855243214814
 11
791.87628422850321
 21
1709.9342643214914
  0
LINE
  8
_0-3_躯体と製品
  6
CONTINUOUS
 62
    2
 10
829.43856422863246
 20
1622.5261243215209
 11
836.43856422860335
 21
1622.5261243215209
  0
LINE
  8
_0-3_躯体と製品
  6
CONTINUOUS
 62
    2
 10
832.93856422854515
 20
1626.0261243214991
 11
832.93856422854515
 21
1619.0261243215282
  0
LINE
  8
_0-3_躯体と製品
  6
CONTINUOUS
 62
    4
 10
817.93856422854515
 20
1758.4870643215218
 11
817.93856422854515
 21
1728.4870643215218
  0
LINE
  8
_0-3_躯体と製品
  6
CONTINUOUS
 62
    4
 10
818.93856422860335
 20
1758.4870643215218
 11
817.93856422854515
 21
1758.4870643215218
  0
LINE
  8
_0-3_躯体と製品
  6
CONTINUOUS
 62
    4
 10
818.93856422860335
 20
1748.4870643215218
 11
818.93856422860335
 21
1758.4870643215218
  0
LINE
  8
_0-3_躯体と製品
  6
CONTINUOUS
 62
    2
 10
1520.0348242285036
 20
1430.5900443214996
 11
1484.4682642285043
 21
1679.5559443214697
  0
LINE
  8
_0-3_躯体と製品
  6
CONTINUOUS
 62
    2
 10
1520.0348242285036
 20
1430.5900443214996
 11
1337.9385642285451
 21
1321.3323043214696
  0
LINE
  8
_0-3_躯体と製品
  6
CONTINUOUS
 62
    2
 10
1337.9385642285451
 20
1321.3323043214696
 11
1337.9385642285451
 21
1188.5310843215084
  0
LINE
  8
_0-3_躯体と製品
  6
CONTINUOUS
 62
    2
 10
1377.4213442285036
 20
1700.8149043215199
 11
1390.6426042284947
 21
1696.2107643215095
  0
LINE
  8
_0-3_躯体と製品
  6
CONTINUOUS
 62
    2
 10
1267.9385642285451
 20
1754.9595643214707
 11
1484.4682642285043
 21
1679.5559443214697
  0
LINE
  8
_0-3_躯体と製品
  6
CONTINUOUS
 62
    2
 10
1386.3340442285735
 20
1705.1234643215103
 11
1381.729904228574
 21
1691.9022043215191
  0
LINE
  8
_0-3_躯体と製品
  6
CONTINUOUS
 62
    2
 10
1307.219824228534
 20
1725.2616643215115
 11
1320.4410842285251
 21
1720.6575243215011
  0
LINE
  8
_0-3_躯体と製品
  6
CONTINUOUS
 62
    2
 10
1316.1325242286039
 20
1729.5702243214982
 11
1311.5283842285935
 21
1716.3489643215107
  0
LINE
  8
_0-3_躯体と製品
  6
CONTINUOUS
 62
    2
 10
1267.9385642285451
 20
1758.4870643215218
 11
1267.9385642285451
 21
1754.9595643214707
  0
LINE
  8
_0-3_躯体と製品
  6
CONTINUOUS
 62
    2
 10
1429.3447642286046
 20
1682.7332643215013
 11
1442.5660242285958
 21
1678.129124321491
  0
LINE
  8
_0-3_躯体と製品
  6
CONTINUOUS
 62
    2
 10
1438.2574642285326
 20
1687.0418243214917
 11
1433.653324228515
 21
1673.8205643215006
  0
LINE
  8
_0-3_躯体と製品
  6
CONTINUOUS
 62
    4
 10
2723.8955242285847
 20
1109.3810843214997
 11
2723.8955242285847
 21
1378.6165843214912
  0
LINE
  8
_0-3_躯体と製品
  6
CONTINUOUS
 62
    2
 10
2724.3955242286138
 20
1108.4870643215218
 11
2724.3955242286138
 21
1569.4203843214891
  0
LINE
  8
_0-3_躯体と製品
  6
CONTINUOUS
 62
    2
 10
2754.3955242286138
 20
1117.4870643214708
 11
2754.3955242286138
 21
1579.8674843215085
  0
LINE
  8
_0-3_躯体と製品
  6
PLINE2
 62
    2
 10
2727.3955242284937
 20
1109.3870643214905
 11
2727.3955242284937
 21
1539.4991043215086
  0
LINE
  8
_0-3_躯体と製品
  6
CONTINUOUS
 62
    2
 10
2719.3955242286138
 20
1158.4870643215218
 11
2719.3955242286138
 21
1310.6132443214992
  0
LINE
  8
_0-3_躯体と製品
  6
CONTINUOUS
 62
    4
 10
2532.5453042285626
 20
1051.9760243214805
 11
2723.8955242285847
 21
1109.3810843214997
  0
LINE
  8
_0-3_躯体と製品
  6
CONTINUOUS
 62
    4
 10
2532.6988042285739
 20
1051.4643443214991
 11
2549.3901642285455
 21
1056.4717443215304
  0
LINE
  8
_0-3_躯体と製品
  6
CONTINUOUS
 62
    4
 10
2532.5453042285626
 20
1051.9760243214805
 11
2532.6988042285739
 21
1051.4643443214991
  0
LINE
  8
_0-3_躯体と製品
  6
CONTINUOUS
 62
    2
 10
2723.8955242285847
 20
1158.4870643215218
 11
2719.3955242286138
 21
1158.4870643215218
  0
LINE
  8
_0-3_躯体と製品
  6
PLINE2
 62
    2
 10
2725.3821242284939
 20
1675.6539243215193
 11
2512.1264642285059
 21
1601.390464321521
  0
LINE
  8
_0-3_躯体と製品
  6
CONTINUOUS
 62
    2
 10
2566.5227442285832
 20
1402.3369043214916
 11
2596.0921042286027
 21
1609.3224643215217
  0
LINE
  8
_0-3_躯体と製品
  6
CONTINUOUS
 62
    4
 10
2724.3955242286138
 20
1678.4870643215218
 11
2509.414924228633
 21
1603.6229043215208
  0
LINE
  8
_0-3_躯体と製品
  6
CONTINUOUS
 62
    2
 10
2536.5302842285128
 20
1581.2984843215199
 11
2734.2615042284924
 21
1650.155764321531
  0
LINE
  8
_0-3_躯体と製品
  6
CONTINUOUS
 62
    2
 10
2719.3955242286138
 20
1310.6132443214992
 11
2566.5227442285832
 21
1402.3369043214916
  0
LINE
  8
_0-3_躯体と製品
  6
PLINE2
 62
    2
 10
2477.647064228524
 20
1360.0347043215115
 11
2675.9131842285642
 21
1241.0750243214716
  0
LINE
  8
_0-3_躯体と製品
  6
PLINE2
 62
    5
 10
2610.3737842285846
 20
1311.8858043215005
 11
2650.4615842286257
 21
1351.9736043214616
  0
LINE
  8
_0-3_躯体と製品
  6
PLINE2
 62
    5
 10
2601.5349442286351
 20
1317.189104321511
 11
2641.6227442285235
 21
1357.2769043214794
  0
LINE
  8
_0-3_躯体と製品
  6
PLINE2
 62
    5
 10
2592.6961242285433
 20
1322.4924043215215
 11
2632.7839042285741
 21
1362.5802043214899
  0
LINE
  8
_0-3_躯体と製品
  6
PLINE2
 62
    5
 10
2583.8572842285939
 20
1327.7957043214701
 11
2623.9450842286351
 21
1367.8835043215113
  0
LINE
  8
_0-3_躯体と製品
  6
PLINE2
 62
    5
 10
2575.0184442286336
 20
1333.099024321491
 11
2615.1062442285256
 21
1373.1868043215218
  0
LINE
  8
_0-3_躯体と製品
  6
CONTINUOUS
 62
    4
 10
2474.3955242286138
 20
1358.4870643215218
 11
2674.369704228604
 21
1238.50254432152
  0
LINE
  8
_0-3_躯体と製品
  6
CONTINUOUS
 62
    2
 10
2506.9110042286156
 20
1373.963484321499
 11
2719.3955242286138
 21
1246.4727843215187
  0
LINE
  8
_0-3_躯体と製品
  6
CONTINUOUS
 62
    2
 10
2734.8055642286054
 20
1544.4552443214998
 11
2568.2252842285452
 21
1486.4458443214899
  0
LINE
  8
_0-3_躯体と製品
  6
PLINE2
 62
    5
 10
2530.8242642285841
 20
1359.6155243214889
 11
2570.9120642286252
 21
1399.7033043215088
  0
LINE
  8
_0-3_躯体と製品
  6
PLINE2
 62
    5
 10
2521.9854442284959
 20
1364.9188243214994
 11
2567.7092842286329
 21
1410.6426643214909
  0
LINE
  8
_0-3_躯体と製品
  6
PLINE2
 62
    5
 10
2513.1466042285429
 20
1370.2221243215099
 11
2570.0663042285451
 21
1427.1418243215085
  0
LINE
  8
_0-3_躯体と製品
  6
PLINE2
 62
    5
 10
2507.6052042286137
 20
1378.8228643214788
 11
2572.4233242285954
 21
1443.6409843215406
  0
LINE
  8
_0-3_躯体と製品
  6
PLINE2
 62
    2
 10
2512.1264642285059
 20
1601.390464321521
 11
2477.647064228524
 21
1360.0347043215115
  0
LINE
  8
_0-3_躯体と製品
  6
CONTINUOUS
 62
    4
 10
2509.414924228633
 20
1603.6229043215208
 11
2474.3955242286138
 21
1358.4870643215218
  0
LINE
  8
_0-3_躯体と製品
  6
CONTINUOUS
 62
    2
 10
2506.9110042286156
 20
1373.963484321499
 11
2536.5302842285128
 21
1581.2984843215199
  0
LINE
  8
_0-3_躯体と製品
  6
CONTINUOUS
 62
    2
 10
2505.6263042285136
 20
1351.4104843215282
 11
2494.9499642285955
 21
1333.6165843214985
  0
LINE
  8
_0-3_躯体と製品
  6
CONTINUOUS
 62
    4
 10
2486.7434042286332
 20
1349.9121243214904
 11
2474.2420642286124
 21
1357.4129443214806
  0
LINE
  8
_0-3_躯体と製品
  6
CONTINUOUS
 62
    4
 10
2474.3955242286138
 20
1358.4870643215218
 11
2474.2420642286124
 21
1357.4129443214806
  0
LINE
  8
_0-3_躯体と製品
  6
CONTINUOUS
 62
    2
 10
2488.3842042285032
 20
1385.6972043214701
 11
2468.5852042285951
 21
1388.5256443214894
  0
LINE
  8
_0-3_躯体と製品
  6
PLINE2
 62
    5
 10
2566.1796042285459
 20
1338.4023243215015
 11
2606.2674042285726
 21
1378.4901043215286
  0
LINE
  8
_0-3_躯体と製品
  6
PLINE2
 62
    5
 10
2557.3407842285924
 20
1343.7056243215193
 11
2597.4285642286231
 21
1383.79340432147
  0
LINE
  8
_0-3_躯体と製品
  6
PLINE2
 62
    5
 10
2548.5019442284938
 20
1349.0089243215298
 11
2588.589744228535
 21
1389.0967043214914
  0
LINE
  8
_0-3_躯体と製品
  6
PLINE2
 62
    5
 10
2539.6631042285444
 20
1354.3122243214711
 11
2579.7509042285747
 21
1394.4000043214983
  0
LINE
  8
_0-3_躯体と製品
  6
PLINE2
 62
    5
 10
2517.0333042285456
 20
1444.8194843214806
 11
2581.8514242285237
 21
1509.6376043214696
  0
LINE
  8
_0-3_躯体と製品
  6
PLINE2
 62
    5
 10
2519.3903242286033
 20
1461.3186443215018
 11
2584.208444228585
 21
1526.1367643214908
  0
LINE
  8
_0-3_躯体と製品
  6
PLINE2
 62
    5
 10
2521.7473442285045
 20
1477.8178043215194
 11
2586.5654642286354
 21
1542.6359243215084
  0
LINE
  8
_0-3_躯体と製品
  6
PLINE2
 62
    5
 10
2524.1043642285658
 20
1494.3169643214715
 11
2588.9224842285439
 21
1559.1350843215296
  0
LINE
  8
_0-3_躯体と製品
  6
CONTINUOUS
 62
    2
 10
2539.8263842285232
 20
1508.3233043215296
 11
2512.4713842285746
 21
1498.7972843214811
  0
LINE
  8
_0-3_躯体と製品
  6
PLINE2
 62
    5
 10
2509.9622242285259
 20
1395.3220243215001
 11
2574.780344228504
 21
1460.1401443214818
  0
LINE
  8
_0-3_躯体と製品
  6
PLINE2
 62
    5
 10
2512.3192442285726
 20
1411.8211643215109
 11
2577.1373642285544
 21
1476.6393043214994
  0
LINE
  8
_0-3_躯体と製品
  6
PLINE2
 62
    5
 10
2514.676264228634
 20
1428.3203243214593
 11
2579.4943842286157
 21
1493.1384443215211
  0
LINE
  8
_0-3_躯体と製品
  6
CONTINUOUS
 62
    2
 10
2501.6940442285049
 20
1478.8661043214888
 11
2512.3244042285733
 21
1482.5679843215003
  0
LINE
  8
_0-3_躯体と製品
  6
CONTINUOUS
 62
    2
 10
2507.8051842285058
 20
1486.28872432149
 11
2506.2132842285828
 21
1475.1453643214991
  0
LINE
  8
_0-3_躯体と製品
  6
CONTINUOUS
 62
    2
 10
2501.8473842286148
 20
1463.0360043214714
 11
2491.8649242285828
 21
1459.5597443215192
  0
LINE
  8
_0-3_躯体と製品
  6
CONTINUOUS
 62
    2
 10
2532.3556842285434
 20
1473.6601243214609
 11
2510.1291042285557
 21
1465.9200043215205
  0
LINE
  8
_0-3_躯体と製品
  6
CONTINUOUS
 62
    2
 10
2504.9283242285455
 20
1496.1705043214788
 11
2496.6849442286257
 21
1493.2998643215215
  0
LINE
  8
_0-3_躯体と製品
  6
CONTINUOUS
 62
    2
 10
2559.8985842285147
 20
1483.5461843215307
 11
2540.4634042285143
 21
1476.778144321499
  0
LINE
  8
_0-3_躯体と製品
  6
PLINE2
 62
    5
 10
2526.4613842286126
 20
1510.8161243215
 11
2591.2795042285943
 21
1575.6342443214817
  0
LINE
  8
_0-3_躯体と製品
  6
PLINE2
 62
    5
 10
2528.8184042285247
 20
1527.3152843215212
 11
2593.3503842285536
 21
1591.84726432147
  0
LINE
  8
_0-3_躯体と製品
  6
PLINE2
 62
    5
 10
2531.1754242285751
 20
1543.8144443214696
 11
2585.8260842286254
 21
1598.4650843214986
  0
LINE
  8
_0-3_躯体と製品
  6
PLINE2
 62
    5
 10
2533.0863442285154
 20
1559.8674843215085
 11
2564.1278042284939
 21
1590.9089443214907
  0
LINE
  8
_0-3_躯体と製品
  6
CONTINUOUS
 62
    4
 10
2508.3518842286248
 20
1603.2527043214905
 11
2509.414924228633
 21
1603.6229043215208
  0
LINE
  8
_0-3_躯体と製品
  6
CONTINUOUS
 62
    4
 10
2506.2305642286228
 20
1588.40346432152
 11
2508.3518842286248
 21
1603.2527043214905
  0
LINE
  8
_0-3_躯体と製品
  6
CONTINUOUS
 62
    2
 10
2514.8134642285149
 20
1570.7020243215011
 11
2495.0144642286032
 21
1573.53044432151
  0
LINE
  8
_0-3_躯体と製品
  6
CONTINUOUS
 62
    4
 10
2606.0887242286226
 20
1532.4572043214685
 11
2606.0887242286226
 21
1517.4572043214685
  0
LINE
  8
_0-3_躯体と製品
  6
CONTINUOUS
 62
    2
 10
2567.973104228593
 20
1518.1250243214818
 11
2548.6985042285341
 21
1511.4129043214707
  0
LINE
  8
_0-3_躯体と製品
  6
PLINE2
 62
    5
 10
2689.923304228585
 20
1264.1561043215188
 11
2719.3955242286138
 21
1293.6283243214712
  0
LINE
  8
_0-3_躯体と製品
  6
PLINE2
 62
    5
 10
2681.0844642286356
 20
1269.4594043215293
 11
2719.3955242286138
 21
1307.7704643215111
  0
LINE
  8
_0-3_躯体と製品
  6
PLINE2
 62
    5
 10
2672.2456242285334
 20
1274.7627043214707
 11
2712.3334242285746
 21
1314.8505043215082
  0
LINE
  8
_0-3_躯体と製品
  6
PLINE2
 62
    5
 10
2663.4068042285944
 20
1280.0660043214884
 11
2703.4945842286252
 21
1320.1538043215187
  0
LINE
  8
_0-3_躯体と製品
  6
PLINE2
 62
    5
 10
2654.5679642284958
 20
1285.3693043214989
 11
2694.6557642285225
 21
1325.4571043214601
  0
LINE
  8
_0-3_躯体と製品
  6
PLINE2
 62
    2
 10
2676.0466242286348
 20
1240.9949643215004
 11
2719.3955242286138
 21
1214.9856443214885
  0
LINE
  8
_0-3_躯体と製品
  6
CONTINUOUS
 62
    2
 10
2674.5031442285253
 20
1238.4224843214906
 11
2719.3955242286138
 21
1211.4870643214817
  0
LINE
  8
_0-3_躯体と製品
  6
CONTINUOUS
 62
    4
 10
2674.3955242286138
 20
1238.4870643215218
 11
2674.3955242286138
 21
1208.4870643215218
  0
LINE
  8
_0-3_躯体と製品
  6
CONTINUOUS
 62
    4
 10
2675.3955242285228
 20
1208.4870643215218
 11
2675.3955242285228
 21
1217.5826843215291
  0
LINE
  8
_0-3_躯体と製品
  6
CONTINUOUS
 62
    4
 10
2674.3955242286138
 20
1208.4870643215218
 11
2675.3955242285228
 21
1208.4870643215218
  0
LINE
  8
_0-3_躯体と製品
  6
CONTINUOUS
 62
    2
 10
2641.9822842285939
 20
1246.2731043215099
 11
2652.2722042285131
 21
1263.4229643215112
  0
LINE
  8
_0-3_躯体と製品
  6
PLINE2
 62
    5
 10
2716.4398042285829
 20
1248.2462043214691
 11
2719.3955242286138
 21
1251.2019043214896
  0
LINE
  8
_0-3_躯体と製品
  6
PLINE2
 62
    5
 10
2707.6009642286335
 20
1253.5495043214905
 11
2719.3955242286138
 21
1265.3440443215404
  0
LINE
  8
_0-3_躯体と製品
  6
PLINE2
 62
    5
 10
2698.762124228535
 20
1258.852804321501
 11
2719.3955242286138
 21
1279.4861843215003
  0
LINE
  8
_0-3_躯体と製品
  6
CONTINUOUS
 62
    2
 10
2719.2326042286149
 20
1246.5705243215016
 11
2723.8955242285847
 21
1246.5705243215016
  0
LINE
  8
_0-3_躯体と製品
  6
CONTINUOUS
 62
    2
 10
2715.701204228546
 20
1183.4870643215218
 11
2730.8097842286334
 21
1183.4870643215218
  0
LINE
  8
_0-3_躯体と製品
  6
PLINE2
 62
    5
 10
2645.7291242285428
 20
1290.6726043215203
 11
2685.816924228573
 21
1330.7604043214815
  0
LINE
  8
_0-3_躯体と製品
  6
PLINE2
 62
    5
 10
2636.8902842285825
 20
1295.9759043215308
 11
2676.9780842286236
 21
1336.0637043214883
  0
LINE
  8
_0-3_躯体と製品
  6
PLINE2
 62
    5
 10
2628.0514642284943
 20
1301.2792043214686
 11
2668.1392442285251
 21
1341.3670043215097
  0
LINE
  8
_0-3_躯体と製品
  6
PLINE2
 62
    5
 10
2619.2126242285449
 20
1306.5825043214791
 11
2659.3004242285824
 21
1346.6703043215202
  0
LINE
  8
_0-3_躯体と製品
  6
CONTINUOUS
 62
    2
 10
2733.7820242285743
 20
1378.6165843214912
 11
2726.8955242286138
 21
1378.6165843214912
  0
LINE
  8
_0-3_躯体と製品
  6
CONTINUOUS
 62
    2
 10
2738.9640242286332
 20
1348.6165843214985
 11
2726.8955242286138
 21
1348.6165843214985
  0
LINE
  8
_0-3_躯体と製品
  6
CONTINUOUS
 62
    2
 10
2739.3955242286138
 20
1368.6165843214912
 11
2739.3955242286138
 21
1358.6165843214985
  0
LINE
  8
_0-3_躯体と製品
  6
CONTINUOUS
 62
    2
 10
2734.3955242286138
 20
1363.6165843214985
 11
2744.3955242286138
 21
1363.6165843214985
  0
LINE
  8
_0-3_躯体と製品
  6
CONTINUOUS
 62
    4
 10
2709.6390042285348
 20
1374.8815243215286
 11
2723.8955242285847
 21
1378.6165843214912
  0
LINE
  8
_0-3_躯体と製品
  6
CONTINUOUS
 62
    2
 10
2647.7910642285242
 20
1448.635964321511
 11
2721.3955242285847
 21
1510.3974243214907
  0
LINE
  8
_0-3_躯体と製品
  6
CONTINUOUS
 62
    4
 10
2716.8955242286138
 20
1506.6214643214989
 11
2640.2910642285242
 21
1442.3427043214906
  0
LINE
  8
_0-3_躯体と製品
  6
CONTINUOUS
 62
    2
 10
2724.3955242286138
 20
1508.9984843214916
 11
2654.1341042285931
 21
1450.0421643214904
  0
LINE
  8
_0-3_躯体と製品
  6
CONTINUOUS
 62
    2
 10
2721.3955242285847
 20
1428.9137043215305
 11
2647.7910642285242
 21
1448.635964321511
  0
LINE
  8
_0-3_躯体と製品
  6
CONTINUOUS
 62
    2
 10
2679.8315242285134
 20
1488.5751643215117
 11
2692.6872842286029
 21
1473.2542643215093
  0
LINE
  8
_0-3_躯体と製品
  6
CONTINUOUS
 62
    2
 10
2654.1341042285931
 20
1450.0421643214904
 11
2724.3955242286138
 21
1431.2156843215016
  0
LINE
  8
_0-3_躯体と製品
  6
CONTINUOUS
 62
    4
 10
2640.2910642285242
 20
1442.3427043214906
 11
2640.2910642285242
 21
1434.8427043214906
  0
LINE
  8
_0-3_躯体と製品
  6
CONTINUOUS
 62
    2
 10
2714.3955242286138
 20
1423.7156843215016
 11
2734.3955242286138
 21
1423.7156843215016
  0
LINE
  8
_0-3_躯体と製品
  6
CONTINUOUS
 62
    2
 10
2724.3955242286138
 20
1416.2156843215016
 11
2721.3955242285847
 21
1416.2156843215016
  0
LINE
  8
_0-3_躯体と製品
  6
CONTINUOUS
 62
    2
 10
2721.3955242285847
 20
1416.2156843215016
 11
2721.3955242285847
 21
1428.9137043215305
  0
LINE
  8
_0-3_躯体と製品
  6
CONTINUOUS
 62
    2
 10
2642.1341842285037
 20
1551.8237043215013
 11
2647.1032042286351
 21
1537.5546243214885
  0
LINE
  8
_0-3_躯体と製品
  6
PLINE2
 62
    2
 10
2724.3955242286138
 20
1539.4991043215086
 11
2727.3955242284937
 21
1539.4991043215086
  0
LINE
  8
_0-3_躯体と製品
  6
CONTINUOUS
 62
    4
 10
2716.8955242286138
 20
1514.1214643214989
 11
2716.8955242286138
 21
1506.6214643214989
  0
LINE
  8
_0-3_躯体と製品
  6
CONTINUOUS
 62
    2
 10
2714.3955242286138
 20
1516.4984843214916
 11
2734.3955242286138
 21
1516.4984843214916
  0
LINE
  8
_0-3_躯体と製品
  6
CONTINUOUS
 62
    2
 10
2724.3955242286138
 20
1523.9984843214916
 11
2721.3955242285847
 21
1523.9984843214916
  0
LINE
  8
_0-3_躯体と製品
  6
CONTINUOUS
 62
    2
 10
2721.3955242285847
 20
1523.9984843214916
 11
2721.3955242285847
 21
1510.3974243214907
  0
LINE
  8
_0-3_躯体と製品
  6
CONTINUOUS
 62
    2
 10
2739.3955242286138
 20
1564.7434443214988
 11
2739.3955242286138
 21
1554.7434443214988
  0
LINE
  8
_0-3_躯体と製品
  6
CONTINUOUS
 62
    2
 10
2734.3955242286138
 20
1559.7434443214988
 11
2744.3955242286138
 21
1559.7434443214988
  0
LINE
  8
_0-3_躯体と製品
  6
CONTINUOUS
 62
    2
 10
2598.4170242285545
 20
1625.5968643214801
 11
2599.295464228504
 21
1631.7459243215089
  0
LINE
  8
_0-3_躯体と製品
  6
CONTINUOUS
 62
    2
 10
2596.615704228614
 20
1612.9876243214603
 11
2597.9813442286249
 21
1622.5471243214997
  0
LINE
  8
_0-3_躯体と製品
  6
CONTINUOUS
 62
    2
 10
2724.3955242286138
 20
1678.4870643215218
 11
2734.2615042284924
 21
1650.155764321531
  0
LINE
  8
_0-3_躯体と製品
  6
CONTINUOUS
 62
    4
 10
2725.3955242285228
 20
1708.4870643215218
 11
2725.3955242285228
 21
1692.33970432149
  0
LINE
  8
_0-3_躯体と製品
  6
CONTINUOUS
 62
    4
 10
2724.3955242286138
 20
1708.4870643215218
 11
2725.3955242285228
 21
1708.4870643215218
  0
LINE
  8
_0-3_躯体と製品
  6
CONTINUOUS
 62
    2
 10
2699.352884228585
 20
1659.1773043214889
 11
2692.7755642285156
 21
1678.0648243214782
  0
LINE
  8
_0-3_躯体と製品
  6
CONTINUOUS
 62
    4
 10
2724.3955242286138
 20
1708.4870643215218
 11
2724.3955242286138
 21
1678.4870643215218
  0
LINE
  8
_0-3_躯体と製品
  6
CONTINUOUS
 62
    2
 10
3299.3955242286138
 20
1085.9870643215218
 11
3299.3955242286138
 21
1224.3323043214987
  0
LINE
  8
_0-3_躯体と製品
  6
PLINE2
 62
    2
 10
3224.3955242286138
 20
1109.5310843214902
 11
3224.3955242286138
 21
1357.0906043214891
  0
LINE
  8
_0-3_躯体と製品
  6
PLINE2
 62
    2
 10
3221.3955242285847
 20
1110.4310843215317
 11
3221.3955242285847
 21
1357.0906043214891
  0
LINE
  8
_0-3_躯体と製品
  6
PLINE2
 62
    2
 10
3194.3955242286138
 20
1118.5310843215084
 11
3194.3955242286138
 21
1357.0906043214891
  0
LINE
  8
_0-3_躯体と製品
  6
PLINE2
 62
    3
 10
2974.3955242286138
 20
1183.4870643215218
 11
3681.2231642285842
 21
971.43876432150137
  0
LINE
  8
_0-3_躯体と製品
  6
CONTINUOUS
 62
    4
 10
3416.2457242285127
 20
1051.9760243214805
 11
2974.3955242286138
 21
1184.5310843214902
  0
LINE
  8
_0-3_躯体と製品
  6
PLINE4
 62
    2
 10
2974.3955242286138
 20
1794.5650643215013
 11
2974.3955242286138
 21
1108.4032643215287
  0
LINE
  8
_0-3_躯体と製品
  6
CONTINUOUS
 62
    4
 10
3416.0922242285051
 20
1051.4643443214991
 11
3399.4008642285226
 21
1056.4717443215304
  0
LINE
  8
_0-3_躯体と製品
  6
CONTINUOUS
 62
    4
 10
3416.2457242285127
 20
1051.9760243214805
 11
3416.0922242285051
 21
1051.4643443214991
  0
LINE
  8
_0-3_躯体と製品
  6
CONTINUOUS
 62
    2
 10
3224.3955242286138
 20
1684.9595643214707
 11
3464.9789842285245
 21
1601.1795443214905
  0
LINE
  8
_0-3_躯体と製品
  6
CONTINUOUS
 62
    2
 10
3464.9789842285245
 20
1601.1795443214905
 11
3501.4917642285654
 21
1345.5900443214996
  0
LINE
  8
_0-3_躯体と製品
  6
CONTINUOUS
 62
    2
 10
3299.3955242286138
 20
1224.3323043214987
 11
3501.4917642285654
 21
1345.5900443214996
  0
LINE
  8
_0-3_躯体と製品
  6
CONTINUOUS
 62
    2
 10
2974.3955242286138
 20
1708.4870643215218
 11
3224.3955242286138
 21
1708.4870643215218
  0
LINE
  8
_0-3_躯体と製品
  6
CONTINUOUS
 62
    4
 10
2973.8955242285847
 20
1660.5410643215109
 11
2973.8955242285847
 21
1662.0075243215215
  0
LINE
  8
_0-3_躯体と製品
  6
CONTINUOUS
 62
    2
 10
3224.3955242286138
 20
1708.4870643215218
 11
3224.3955242286138
 21
1684.9595643214707
  0
LINE
  8
_0-3_躯体と製品
  6
CONTINUOUS
 62
    2
 10
3251.6855042285242
 20
1659.5726843214616
 11
3261.1292842285329
 21
1656.2840043214892
  0
LINE
  8
_0-3_躯体と製品
  6
CONTINUOUS
 62
    2
 10
3258.051724228586
 20
1662.6502243214709
 11
3254.7630642286131
 21
1653.2064643214799
  0
LINE
  8
_0-3_躯体と製品
  6
CONTINUOUS
 62
    2
 10
3325.8489242284959
 20
1633.746244321519
 11
3335.2926842286324
 21
1630.4575843214807
  0
LINE
  8
_0-3_躯体と製品
  6
CONTINUOUS
 62
    2
 10
3332.2151242285436
 20
1636.8238043214587
 11
3328.9264642285852
 21
1627.3800443214714
  0
INSERT
  2
-001-_D4
  8
_0-2_寸法
 10
29623.838875698624
 20
26545.08625805466
 41
10
 42
10
 50
0
  0
INSERT
  2
-002-_D5
  8
_0-2_寸法
 10
29623.838875698624
 20
26545.08625805466
 41
10
 42
10
 50
0
  0
INSERT
  2
-003-_D6
  8
_0-2_寸法
 10
29623.838875698624
 20
26545.08625805466
 41
10
 42
10
 50
0
  0
INSERT
  2
-004-_D7
  8
_0-2_寸法
 10
29623.838875698624
 20
26545.08625805466
 41
10
 42
10
 50
0
  0
ENDSEC
  0
EOF
