  0
SECTION
  2
HEADER
  9
$ACADVER
  1
AC1009
  9
$INSBASE
 10
0
 20
0
 30
0
  9
$EXTMIN
 10
0
 20
0
  9
$EXTMAX
 10
420.5
 20
297
  9
$LIMMIN
 10
0
 20
0
  9
$LIMMAX
 10
420.5
 20
297
  9
$LTSCALE
 40
0.5
  0
ENDSEC
  0
SECTION
  2
TABLES
  0
TABLE
  2
LTYPE
 70
     9
  0
LTYPE
  2
CONTINUOUS
 70
    64
  3
実線
 72
    65
 73
     0
 40
0.0
  0
LTYPE
  2
DASHED1
 70
    64
  3
--  --  --  --  --  --  --  --  
 72
    65
 73
     2
 40
2.5
 49
1.25
 49
-1.25
  0
LTYPE
  2
DASHED2
 70
    64
  3
----    ----    ----    ----    
 72
    65
 73
     2
 40
5.0
 49
2.5
 49
-2.5
  0
LTYPE
  2
DASHED3
 70
    64
  3
------  ------  ------  ------  
 72
    65
 73
     2
 40
5.0
 49
3.75
 49
-1.25
  0
LTYPE
  2
CENTER1
 70
    64
  3
----- - ----- - ----- - ----- - 
 72
    65
 73
     4
 40
10.0
 49
6.25
 49
-1.25
 49
1.25
 49
-1.25
  0
LTYPE
  2
CENTER2
 70
    64
  3
----------  --  ----------  --  
 72
    65
 73
     4
 40
20.0
 49
12.5
 49
-2.5
 49
2.5
 49
-2.5
  0
LTYPE
  2
PHANTOM1
 70
    64
  3
--- - - --- - - --- - - --- - - 
 72
    65
 73
     6
 40
10.0
 49
3.25
 49
-1.25
 49
1.25
 49
-1.25
 49
1.25
 49
-1.25
  0
LTYPE
  2
PHANTOM2
 70
    64
  3
--------  -  -  --------  -  -  
 72
    65
 73
     6
 40
20.0
 49
10.0
 49
-2.5
 49
1.25
 49
-2.5
 49
1.25
 49
-2.5
  0
LTYPE
  2
DOT
 70
    64
  3
-   -   -   -   -   -   -   -   
 72
    65
 73
     2
 40
2.5
 49
0.625
 49
-1.875
  0
LTYPE
  2
DUMMY
 70
    64
  3
ダミー
 72
    65
 73
     0
 40
0.0
  0
LTYPE
  2
RAND1
 70
    64
  3
ランダム線1
 72
    65
 73
     4
 40
10.0
 49
1.0
 49
-2.0
 49
3.0
 49
-4.0
  0
LTYPE
  2
RAND2
 70
    64
  3
ランダム線2
 72
    65
 73
     4
 40
14.0
 49
2.0
 49
-3.0
 49
4.0
 49
-5.0
  0
LTYPE
  2
RAND3
 70
    64
  3
ランダム線3
 72
    65
 73
     4
 40
18.0
 49
3.0
 49
-4.0
 49
5.0
 49
-6.0
  0
LTYPE
  2
RAND4
 70
    64
  3
ランダム線4
 72
    65
 73
     4
 40
22.0
 49
4.0
 49
-5.0
 49
6.0
 49
-7.0
  0
LTYPE
  2
RAND5
 70
    64
  3
ランダム線5
 72
    65
 73
     4
 40
26.0
 49
5.0
 49
-6.0
 49
7.0
 49
-8.0
  0
LTYPE
  2
LONG1
 70
    64
  3
----------  --  ----------  --  
 72
    65
 73
     4
 40
40.0
 49
32.5
 49
-2.5
 49
2.5
 49
-2.5
  0
LTYPE
  2
LONG2
 70
    64
  3
--------  -  -  --------  -  -  
 72
    65
 73
     6
 40
40.0
 49
30.0
 49
-2.5
 49
1.25
 49
-2.5
 49
1.25
 49
-2.5
  0
LTYPE
  2
LONG3
 70
    64
  3
+++++++++++++++..+++++++++++++++
 72
    65
 73
     2
 40
40.0
 49
37.5
 49
-2.5
  0
LTYPE
  2
LONG4
 70
    64
  3
+++++++++++++++..+++++++++++++++
 72
    65
 73
     2
 40
80.0
 49
75.0
 49
-5.0
  0
LTYPE
  2
LONG5
 70
    64
  3
----------  --  ----------  --  
 72
    65
 73
     4
 40
60.0
 49
37.5
 49
-7.5
 49
7.5
 49
-7.5
  0
LTYPE
  2
dashed
 70
   64
  3
-------   -------------   ------
 72
   65
 73
    2
 40
7.5
 49
6
 49
-1.5
  0
LTYPE
  2
dashed_spaced
 70
   64
  3
----        --------        ----
 72
   65
 73
    2
 40
12
 49
6
 49
-6
  0
LTYPE
  2
long_dashed_dotted
 70
   64
  3
------------- --- --------------
 72
   65
 73
    4
 40
15.25
 49
12
 49
-1.5
 49
0.25
 49
-1.5
  0
LTYPE
  2
long_dashed_double-dotted
 70
   64
  3
----------- --- --- ------------
 72
   65
 73
    6
 40
17
 49
12
 49
-1.5
 49
0.25
 49
-1.5
 49
0.25
 49
-1.5
  0
LTYPE
  2
long_dashed_triplicate-dotted
 70
   64
  3
--------- --- --- --- ----------
 72
   65
 73
    8
 40
18.75
 49
12
 49
-1.5
 49
0.25
 49
-1.5
 49
0.25
 49
-1.5
 49
0.25
 49
-1.5
  0
LTYPE
  2
dotted
 70
   64
  3
   -       -       -       -    
 72
   65
 73
    2
 40
1.75
 49
0.25
 49
-1.5
  0
LTYPE
  2
chain
 70
   64
  3
-------------- -- --------------
 72
   65
 73
    4
 40
18.5
 49
12
 49
-1.5
 49
3.5
 49
-1.5
  0
LTYPE
  2
chain_double_dash
 70
   64
  3
------------ -- -- -------------
 72
   65
 73
    6
 40
23.5
 49
12
 49
-1.5
 49
3.5
 49
-1.5
 49
3.5
 49
-1.5
  0
LTYPE
  2
dashed_dotted
 70
   64
  3
-----------     -     ----------
 72
   65
 73
    4
 40
9.25
 49
6
 49
-1.5
 49
0.25
 49
-1.5
  0
LTYPE
  2
double-dashed_dotted
 70
   64
  3
------   -----------   -   -----
 72
   65
 73
    6
 40
16.75
 49
6
 49
-1.5
 49
6
 49
-1.5
 49
0.25
 49
-1.5
  0
LTYPE
  2
dashed_double-dotted
 70
   64
  3
---------    -    -    ---------
 72
   65
 73
    6
 40
11
 49
6
 49
-1.5
 49
0.25
 49
-1.5
 49
0.25
 49
-1.5
  0
LTYPE
  2
double-dashed_double-dotted
 70
   64
  3
-----   ---------   -   -   ----
 72
   65
 73
    8
 40
18.5
 49
6
 49
-1.5
 49
6
 49
-1.5
 49
0.25
 49
-1.5
 49
0.25
 49
-1.5
  0
LTYPE
  2
dashed_triplicate-dotted
 70
   64
  3
-------    -    -    -    ------
 72
   65
 73
    8
 40
12.75
 49
6
 49
-1.5
 49
0.25
 49
-1.5
 49
0.25
 49
-1.5
 49
0.25
 49
-1.5
  0
LTYPE
  2
double-dashed_triplicate-dotted
 70
   64
  3
-----  ---------  -  -  -  -----
 72
   65
 73
   10
 40
20.25
 49
6
 49
-1.5
 49
6
 49
-1.5
 49
0.25
 49
-1.5
 49
0.25
 49
-1.5
 49
0.25
 49
-1.5
  0
LTYPE
  2
undefined
 70
   64
  3
--------------------------------
 72
   65
 73
    0
 40
0
  0
LTYPE
  2
破線
 70
   64
  3
------     -----------     -----
 72
   65
 73
    2
 40
3
 49
2.1000000000000001
 49
-0.9
  0
LTYPE
  2
一点鎖線
 70
   64
  3
------------   ---   -----------
 72
   65
 73
    4
 40
10
 49
7
 49
-1
 49
1
 49
-1
  0
LTYPE
  2
二点鎖線
 70
   64
  3
---------   ---   ---   --------
 72
   65
 73
    6
 40
10
 49
5
 49
-1
 49
1
 49
-1
 49
1
 49
-1
  0
LTYPE
  2
破線1
 70
   64
  3
------     -----------     -----
 72
   65
 73
    2
 40
5
 49
3.5
 49
-1.5
  0
LTYPE
  2
一点鎖線1
 70
   64
  3
------------   ---   -----------
 72
   65
 73
    4
 40
15
 49
10.5
 49
-1.5
 49
1.5
 49
-1.5
  0
LTYPE
  2
二点鎖線1
 70
   64
  3
---------   ---   ---   --------
 72
   65
 73
    6
 40
15
 49
7.5
 49
-1.5
 49
1.5
 49
-1.5
 49
1.5
 49
-1.5
  0
LTYPE
  2
破線2
 70
   64
  3
------     -----------     -----
 72
   65
 73
    2
 40
7
 49
4.9000000000000004
 49
-2.1000000000000001
  0
LTYPE
  2
一点鎖線2
 70
   64
  3
------------   ---   -----------
 72
   65
 73
    4
 40
20
 49
14
 49
-2
 49
2
 49
-2
  0
LTYPE
  2
二点鎖線2
 70
   64
  3
---------   ---   ---   --------
 72
   65
 73
    6
 40
20
 49
10
 49
-2
 49
2
 49
-2
 49
2
 49
-2
  0
LTYPE
  2
破線3
 70
   64
  3
------     -----------     -----
 72
   65
 73
    2
 40
8.9999999999999982
 49
6.299999999999998
 49
-2.7000000000000002
  0
LTYPE
  2
一点鎖線3
 70
   64
  3
------------   ---   -----------
 72
   65
 73
    4
 40
25
 49
17.5
 49
-2.5
 49
2.5
 49
-2.5
  0
LTYPE
  2
二点鎖線3
 70
   64
  3
---------   ---   ---   --------
 72
   65
 73
    6
 40
25
 49
12.5
 49
-2.5
 49
2.5
 49
-2.5
 49
2.5
 49
-2.5
  0
LTYPE
  2
破線4
 70
   64
  3
------     -----------     -----
 72
   65
 73
    2
 40
10.999999999999998
 49
7.7000000000000002
 49
-3.299999999999998
  0
LTYPE
  2
一点鎖線4
 70
   64
  3
------------   ---   -----------
 72
   65
 73
    4
 40
30
 49
21
 49
-3
 49
3
 49
-3
  0
LTYPE
  2
二点鎖線4
 70
   64
  3
---------   ---   ---   --------
 72
   65
 73
    6
 40
30
 49
15
 49
-3
 49
3
 49
-3
 49
3
 49
-3
  0
LTYPE
  2
_
 70
   64
  3
                                
 72
   65
 73
    0
 40
0
  0
ENDTAB
  0
TABLE
  2
STYLE
  5
3
100
AcDbSymbolTable
 70
     1
  0
STYLE
  5
10
100
AcDbSymbolTableRecord
100
AcDbTextStyleTableRecord
  2
STANDARD
 70
     0
 40
0.0
 41
1.0
 50
0.0
 71
     0
 42
0.2
  3
txt
  4
bigfont.shx
  0
STYLE
  5
26
100
AcDbSymbolTableRecord
100
AcDbTextStyleTableRecord
  2
TATEGAKI
 70
    68
 40
0.0
 41
1.0
 50
0.0
 71
     0
 42
1.0
  3
txt
  4
bigfont.shx
  0
ENDTAB
  0
TABLE
  2
LAYER
 70
    3
  0
LAYER
  2
_0-2_____1
 70
   64
 62
    7
  6
CONTINUOUS
  0
LAYER
  2
_0-3_______
 70
   64
 62
    7
  6
CONTINUOUS
  0
LAYER
  2
ADD_LINE
 70
   64
 62
    7
  6
CONTINUOUS
  0
ENDTAB
  0
ENDSEC
  0
SECTION
  2
BLOCKS
  0
BLOCK
  2
-000-_DOTBLANK
 70
   64
 10
0
 20
0
 30
0
  0
CIRCLE
  8
_0-0_0
  6
CONTINUOUS
 62
    7
 10
0
 20
0
 40
0.5
  0
LINE
  8
_0-0_0
  6
CONTINUOUS
 62
    7
 10
-0.5
 20
0
 11
-1
 21
0
  0
ENDBLK
  0
BLOCK
  2
-001-D0
 70
   64
 10
0
 20
0
 30
0
  0
LINE
  8
_0-2_____1
  6
CONTINUOUS
 62
    3
 10
67.77374300000001
 20
191.690335
 11
67.77374300000001
 21
170.41208599999999
  0
LINE
  8
_0-2_____1
  6
CONTINUOUS
 62
    3
 10
192.773743
 20
191.690335
 11
192.773743
 21
170.41208599999999
  0
LINE
  8
_0-2_____1
  6
CONTINUOUS
 62
    3
 10
68.77374300000001
 20
171.41208599999999
 11
191.773743
 21
171.41208599999999
  0
INSERT
  2
-000-_DOTBLANK
  8
_0-2_____1
 10
67.77374300000001
 20
171.41208599999999
 41
1
 42
1
 50
180
  0
INSERT
  2
-000-_DOTBLANK
  8
_0-2_____1
 10
192.773743
 20
171.41208599999999
 41
1
 42
1
 50
0
  0
TEXT
  8
_0-2_____1
 62
    7
 10
123.07374299999999
 20
172.212086
 40
2.399999999999999
 41
1
 50
0
  1
Ｗ　台巾寸法
  0
POINT
  8
_0-1_DEFPOINTS
 62
    7
 10
67.77374300000001
 20
191.690335
  0
POINT
  8
_0-1_DEFPOINTS
 62
    7
 10
192.773743
 20
191.690335
  0
POINT
  8
_0-1_DEFPOINTS
 62
    7
 10
192.773743
 20
171.41208599999999
  0
ENDBLK
  0
BLOCK
  2
-002-D1
 70
   64
 10
0
 20
0
 30
0
  0
CIRCLE
  8
_0-0_0
  6
CONTINUOUS
 62
    3
 10
0
 20
3.125
 40
0.5
  0
CIRCLE
  8
_0-0_0
  6
CONTINUOUS
 62
    3
 10
0
 20
-3.125
 40
0.5
  0
LINE
  8
_0-0_0
  6
CONTINUOUS
 62
    3
 10
0
 20
3.125
 11
0
 21
-3.125
  0
LINE
  8
_0-0_0
  6
CONTINUOUS
 62
    3
 10
5.1837060000000008
 20
-3.125
 11
-0.9999999999999928
 21
-3.125
  0
TEXT
  8
_0-0_0
 62
    7
 10
1.2908890000000071
 20
-8.7824150000000145
 40
3
 41
0.8579999999999999
 50
90
  1
５０
  0
ENDBLK
  0
BLOCK
  2
-003-D2
 70
   64
 10
0
 20
0
 30
0
  0
LINE
  8
_0-2_____1
  6
CONTINUOUS
 62
    3
 10
92.773742999999996
 20
210.63727399999999
 11
92.773742999999996
 21
246.07107400000001
  0
LINE
  8
_0-2_____1
  6
CONTINUOUS
 62
    3
 10
167.773743
 20
210.870463
 11
167.773743
 21
246.07107400000001
  0
LINE
  8
_0-2_____1
  6
CONTINUOUS
 62
    3
 10
93.773742999999996
 20
245.07107400000001
 11
166.773743
 21
245.07107400000001
  0
INSERT
  2
-000-_DOTBLANK
  8
_0-2_____1
 10
92.773742999999996
 20
245.07107400000001
 41
1
 42
1
 50
180
  0
INSERT
  2
-000-_DOTBLANK
  8
_0-2_____1
 10
167.773743
 20
245.07107400000001
 41
1
 42
1
 50
0
  0
TEXT
  8
_0-2_____1
 62
    7
 10
123.07374299999999
 20
245.87107400000002
 40
2.399999999999999
 41
1
 50
0
  1
Ａ　開口寸法
  0
POINT
  8
_0-1_DEFPOINTS
 62
    7
 10
92.773742999999996
 20
210.63727399999999
  0
POINT
  8
_0-1_DEFPOINTS
 62
    7
 10
167.773743
 20
210.870463
  0
POINT
  8
_0-1_DEFPOINTS
 62
    7
 10
167.773743
 20
245.07107400000001
  0
ENDBLK
  0
BLOCK
  2
-004-D3
 70
   64
 10
0
 20
0
 30
0
  0
CIRCLE
  8
_0-0_0
  6
CONTINUOUS
 62
    3
 10
-8.75
 20
0
 40
0.5
  0
CIRCLE
  8
_0-0_0
  6
CONTINUOUS
 62
    3
 10
8.75
 20
0
 40
0.5
  0
LINE
  8
_0-0_0
  6
CONTINUOUS
 62
    3
 10
-8.75
 20
0
 11
8.75
 21
0
  0
LINE
  8
_0-0_0
  6
CONTINUOUS
 62
    3
 10
8.75
 20
-11.562394000000012
 11
8.75
 21
1
  0
TEXT
  8
_0-0_0
 62
    7
 10
-4.2968839999999773
 20
0.5
 40
3
 41
0.8579999999999999
 50
0
  1
１４０
  0
ENDBLK
  0
BLOCK
  2
-005-D4
 70
   64
 10
0
 20
0
 30
0
  0
LINE
  8
_0-2_____1
  6
CONTINUOUS
 62
    3
 10
372.918631
 20
205.342386
 11
386.59075000000001
 21
205.342386
  0
LINE
  8
_0-2_____1
  6
CONTINUOUS
 62
    3
 10
372.72886199999999
 20
80.342386000000005
 11
386.59075000000001
 21
80.342386000000005
  0
LINE
  8
_0-2_____1
  6
CONTINUOUS
 62
    3
 10
385.59075000000001
 20
204.342386
 11
385.59075000000001
 21
81.342386000000005
  0
INSERT
  2
-000-_DOTBLANK
  8
_0-2_____1
 10
385.59075000000001
 20
205.342386
 41
1
 42
1
 50
90
  0
INSERT
  2
-000-_DOTBLANK
  8
_0-2_____1
 10
385.59075000000001
 20
80.342386000000005
 41
1
 42
1
 50
270
  0
TEXT
  8
_0-2_____1
 62
    7
 10
384.79075
 20
135.64238600000002
 40
2.399999999999999
 41
1
 50
90
  1
Ｗ　台巾寸法
  0
POINT
  8
_0-1_DEFPOINTS
 62
    7
 10
372.918631
 20
205.342386
  0
POINT
  8
_0-1_DEFPOINTS
 62
    7
 10
372.72886199999999
 20
80.342386000000005
  0
POINT
  8
_0-1_DEFPOINTS
 62
    7
 10
385.59075000000001
 20
80.342386000000005
  0
ENDBLK
  0
BLOCK
  2
-006-D5
 70
   64
 10
0
 20
0
 30
0
  0
LINE
  8
_0-2_____1
  6
CONTINUOUS
 62
    3
 10
92.773742999999996
 20
95.851191
 11
92.773742999999996
 21
112.67524
  0
LINE
  8
_0-2_____1
  6
CONTINUOUS
 62
    3
 10
167.773743
 20
95.394728000000001
 11
167.773743
 21
112.67524
  0
LINE
  8
_0-2_____1
  6
CONTINUOUS
 62
    3
 10
93.773742999999996
 20
111.67524
 11
166.773743
 21
111.67524
  0
INSERT
  2
-000-_DOTBLANK
  8
_0-2_____1
 10
92.773742999999996
 20
111.67524
 41
1
 42
1
 50
180
  0
INSERT
  2
-000-_DOTBLANK
  8
_0-2_____1
 10
167.773743
 20
111.67524
 41
1
 42
1
 50
0
  0
TEXT
  8
_0-2_____1
 62
    7
 10
120.673743
 20
112.47524
 40
2.399999999999999
 41
1
 50
0
  1
６００　開口寸法
  0
POINT
  8
_0-1_DEFPOINTS
 62
    7
 10
92.773742999999996
 20
95.851191
  0
POINT
  8
_0-1_DEFPOINTS
 62
    7
 10
167.773743
 20
95.394728000000001
  0
POINT
  8
_0-1_DEFPOINTS
 62
    7
 10
167.773743
 20
111.67524
  0
ENDBLK
  0
BLOCK
  2
-007-D6
 70
   64
 10
0
 20
0
 30
0
  0
LINE
  8
_0-2_____1
  6
CONTINUOUS
 62
    3
 10
67.433573999999993
 20
83.693596000000014
 11
56.171639999999996
 21
83.693596000000014
  0
LINE
  8
_0-2_____1
  6
CONTINUOUS
 62
    3
 10
67.101720999999998
 20
77.443595999999999
 11
56.171639999999996
 21
77.443595999999999
  0
LINE
  8
_0-2_____1
  6
CONTINUOUS
 62
    3
 10
57.171639999999996
 20
82.693595999999985
 11
57.171639999999996
 21
78.443595999999999
  0
INSERT
  2
-000-_DOTBLANK
  8
_0-2_____1
 10
57.171639999999996
 20
83.693596000000014
 41
1
 42
1
 50
90
  0
INSERT
  2
-000-_DOTBLANK
  8
_0-2_____1
 10
57.171639999999996
 20
77.443595999999999
 41
1
 42
1
 50
270
  0
TEXT
  8
_0-2_____1
 62
    7
 10
56.371640000000014
 20
78.168596000000008
 40
2.399999999999999
 41
1
 50
90
  1
５０
  0
POINT
  8
_0-1_DEFPOINTS
 62
    7
 10
67.433573999999993
 20
83.693596000000014
  0
POINT
  8
_0-1_DEFPOINTS
 62
    7
 10
67.101720999999998
 20
77.443595999999999
  0
POINT
  8
_0-1_DEFPOINTS
 62
    7
 10
57.171639999999996
 20
77.443595999999999
  0
ENDBLK
  0
BLOCK
  2
-008-D7
 70
   64
 10
0
 20
0
 30
0
  0
LINE
  8
_0-2_____1
  6
CONTINUOUS
 62
    3
 10
69.64874300000001
 20
69.863024999999993
 11
69.64874300000001
 21
53.516205999999997
  0
LINE
  8
_0-2_____1
  6
CONTINUOUS
 62
    3
 10
92.773742999999996
 20
54.204596000000002
 11
92.773742999999996
 21
55.516205999999997
  0
LINE
  8
_0-2_____1
  6
CONTINUOUS
 62
    3
 10
70.648743000000024
 20
54.516205999999997
 11
79.397521999999995
 21
54.516205999999997
  0
LINE
  8
_0-2_____1
  6
CONTINUOUS
 62
    3
 10
91.773743000000024
 20
54.516205999999997
 11
88.883235999999968
 21
54.516205999999997
  0
INSERT
  2
-000-_DOTBLANK
  8
_0-2_____1
 10
69.64874300000001
 20
54.516205999999997
 41
1
 42
1
 50
180
  0
INSERT
  2
-000-_DOTBLANK
  8
_0-2_____1
 10
92.773742999999996
 20
54.516205999999997
 41
1
 42
1
 50
0
  0
TEXT
  8
_0-2_____1
 62
    7
 10
80.54037900000003
 20
55.316206000000008
 40
2.399999999999999
 41
1
 50
0
  1
１８５
  0
POINT
  8
_0-1_DEFPOINTS
 62
    7
 10
69.64874300000001
 20
69.863024999999993
  0
POINT
  8
_0-1_DEFPOINTS
 62
    7
 10
92.773742999999996
 20
54.204596000000002
  0
POINT
  8
_0-1_DEFPOINTS
 62
    7
 10
92.773742999999996
 20
54.516205999999997
  0
ENDBLK
  0
BLOCK
  2
-009-D8
 70
   64
 10
0
 20
0
 30
0
  0
LINE
  8
_0-2_____1
  6
CONTINUOUS
 62
    3
 10
67.77374300000001
 20
76.875664
 11
67.77374300000001
 21
61.043013999999999
  0
LINE
  8
_0-2_____1
  6
CONTINUOUS
 62
    3
 10
69.64874300000001
 20
61.980691999999998
 11
69.64874300000001
 21
63.043013999999992
  0
LINE
  8
_0-2_____1
  6
CONTINUOUS
 62
    3
 10
66.77374300000001
 20
62.043013999999999
 11
65.77374300000001
 21
62.043013999999999
  0
LINE
  8
_0-2_____1
  6
CONTINUOUS
 62
    3
 10
70.648743000000024
 20
62.043013999999999
 11
71.648743000000024
 21
62.043013999999999
  0
INSERT
  2
-000-_DOTBLANK
  8
_0-2_____1
 10
67.77374300000001
 20
62.043013999999999
 41
1
 42
1
 50
0
  0
INSERT
  2
-000-_DOTBLANK
  8
_0-2_____1
 10
69.64874300000001
 20
62.043013999999999
 41
1
 42
1
 50
180
  0
TEXT
  8
_0-2_____1
 62
    7
 10
62.451543999999977
 20
60.800844999999988
 40
2.399999999999999
 41
1
 50
0
  1
１５
  0
POINT
  8
_0-1_DEFPOINTS
 62
    7
 10
67.77374300000001
 20
76.875664
  0
POINT
  8
_0-1_DEFPOINTS
 62
    7
 10
69.64874300000001
 20
61.980691999999998
  0
POINT
  8
_0-1_DEFPOINTS
 62
    7
 10
69.64874300000001
 20
62.043013999999999
  0
ENDBLK
  0
BLOCK
  2
-010-D9
 70
   64
 10
0
 20
0
 30
0
  0
LINE
  8
_0-2_____1
  6
CONTINUOUS
 62
    3
 10
93.178906999999995
 20
87.256095999999999
 11
100.78532300000001
 21
87.256095999999999
  0
LINE
  8
_0-2_____1
  6
CONTINUOUS
 62
    3
 10
93.178906999999995
 20
83.440228000000019
 11
100.78532300000001
 21
83.440228000000019
  0
LINE
  8
_0-2_____1
  6
CONTINUOUS
 62
    3
 10
99.785323000000005
 20
88.256095999999985
 11
99.785323000000005
 21
89.256095999999985
  0
LINE
  8
_0-2_____1
  6
CONTINUOUS
 62
    3
 10
99.785323000000005
 20
82.440228000000005
 11
99.785323000000005
 21
81.440228000000005
  0
INSERT
  2
-000-_DOTBLANK
  8
_0-2_____1
 10
99.785323000000005
 20
87.256095999999999
 41
1
 42
1
 50
270
  0
INSERT
  2
-000-_DOTBLANK
  8
_0-2_____1
 10
99.785323000000005
 20
83.440228000000019
 41
1
 42
1
 50
90
  0
TEXT
  8
_0-2_____1
 62
    7
 10
99.144513000000003
 20
87.803477999999998
 40
2.399999999999999
 41
1
 50
90
  1
３０
  0
POINT
  8
_0-1_DEFPOINTS
 62
    7
 10
93.178906999999995
 20
87.256095999999999
  0
POINT
  8
_0-1_DEFPOINTS
 62
    7
 10
93.178906999999995
 20
83.440228000000019
  0
POINT
  8
_0-1_DEFPOINTS
 62
    7
 10
99.785323000000005
 20
83.440228000000019
  0
ENDBLK
  0
BLOCK
  2
-011-D10
 70
   64
 10
0
 20
0
 30
0
  0
LINE
  8
_0-2_____1
  6
CONTINUOUS
 62
    3
 10
67.77374300000001
 20
84.504510999999994
 11
67.77374300000001
 21
105.984503
  0
LINE
  8
_0-2_____1
  6
CONTINUOUS
 62
    3
 10
92.773742999999996
 20
98.938267999999994
 11
92.773742999999996
 21
105.984503
  0
LINE
  8
_0-2_____1
  6
CONTINUOUS
 62
    3
 10
68.77374300000001
 20
104.984503
 11
91.773743000000024
 21
104.984503
  0
INSERT
  2
-000-_DOTBLANK
  8
_0-2_____1
 10
67.77374300000001
 20
104.984503
 41
1
 42
1
 50
180
  0
INSERT
  2
-000-_DOTBLANK
  8
_0-2_____1
 10
92.773742999999996
 20
104.984503
 41
1
 42
1
 50
0
  0
TEXT
  8
_0-2_____1
 62
    7
 10
76.67374300000003
 20
105.784503
 40
2.399999999999999
 41
1
 50
0
  1
２００
  0
POINT
  8
_0-1_DEFPOINTS
 62
    7
 10
67.77374300000001
 20
84.504510999999994
  0
POINT
  8
_0-1_DEFPOINTS
 62
    7
 10
92.773742999999996
 20
98.938267999999994
  0
POINT
  8
_0-1_DEFPOINTS
 62
    7
 10
92.773742999999996
 20
104.984503
  0
ENDBLK
  0
BLOCK
  2
-012-D11
 70
   64
 10
0
 20
0
 30
0
  0
LINE
  8
_0-2_____1
  6
CONTINUOUS
 62
    3
 10
85.273743000000024
 20
75.358722999999998
 11
85.273743000000024
 21
68.07817
  0
LINE
  8
_0-2_____1
  6
CONTINUOUS
 62
    3
 10
92.773742999999996
 20
67.647944999999993
 11
92.773742999999996
 21
70.07817
  0
LINE
  8
_0-2_____1
  6
CONTINUOUS
 62
    3
 10
86.273743000000024
 20
69.07817
 11
91.773743000000024
 21
69.07817
  0
INSERT
  2
-000-_DOTBLANK
  8
_0-2_____1
 10
85.273743000000024
 20
69.07817
 41
1
 42
1
 50
180
  0
INSERT
  2
-000-_DOTBLANK
  8
_0-2_____1
 10
92.773742999999996
 20
69.07817
 41
1
 42
1
 50
0
  0
TEXT
  8
_0-2_____1
 62
    7
 10
86.864530999999999
 20
69.602074000000002
 40
2.399999999999999
 41
1
 50
0
  1
６０
  0
POINT
  8
_0-1_DEFPOINTS
 62
    7
 10
85.273743000000024
 20
75.358722999999998
  0
POINT
  8
_0-1_DEFPOINTS
 62
    7
 10
92.773742999999996
 20
67.647944999999993
  0
POINT
  8
_0-1_DEFPOINTS
 62
    7
 10
92.773742999999996
 20
69.07817
  0
ENDBLK
  0
BLOCK
  2
-013-D12
 70
   64
 10
0
 20
0
 30
0
  0
LINE
  8
_0-2_____1
  6
CONTINUOUS
 62
    3
 10
92.773742999999996
 20
29.278492
 11
92.773742999999996
 21
19.976075000000002
  0
LINE
  8
_0-2_____1
  6
CONTINUOUS
 62
    3
 10
167.773743
 20
29.04128
 11
167.773743
 21
19.976075000000002
  0
LINE
  8
_0-2_____1
  6
CONTINUOUS
 62
    3
 10
93.773742999999996
 20
20.976075000000002
 11
166.773743
 21
20.976075000000002
  0
INSERT
  2
-000-_DOTBLANK
  8
_0-2_____1
 10
92.773742999999996
 20
20.976075000000002
 41
1
 42
1
 50
180
  0
INSERT
  2
-000-_DOTBLANK
  8
_0-2_____1
 10
167.773743
 20
20.976075000000002
 41
1
 42
1
 50
0
  0
TEXT
  8
_0-2_____1
 62
    7
 10
120.673743
 20
21.776075000000002
 40
2.399999999999999
 41
1
 50
0
  1
６００　躯体内径
  0
POINT
  8
_0-1_DEFPOINTS
 62
    7
 10
92.773742999999996
 20
29.278492
  0
POINT
  8
_0-1_DEFPOINTS
 62
    7
 10
167.773743
 20
29.04128
  0
POINT
  8
_0-1_DEFPOINTS
 62
    7
 10
167.773743
 20
20.976075000000002
  0
ENDBLK
  0
BLOCK
  2
-014-D13
 70
   64
 10
0
 20
0
 30
0
  0
LINE
  8
_0-2_____1
  6
CONTINUOUS
 62
    3
 10
271.49811099999999
 20
100.89123499999999
 11
271.49811099999999
 21
67.222494999999995
  0
LINE
  8
_0-2_____1
  6
CONTINUOUS
 62
    3
 10
346.49811099999999
 20
103.10663700000001
 11
346.49811099999999
 21
67.222494999999995
  0
LINE
  8
_0-2_____1
  6
CONTINUOUS
 62
    3
 10
272.49811099999999
 20
68.222494999999995
 11
345.49811099999999
 21
68.222494999999995
  0
INSERT
  2
-000-_DOTBLANK
  8
_0-2_____1
 10
271.49811099999999
 20
68.222494999999995
 41
1
 42
1
 50
180
  0
INSERT
  2
-000-_DOTBLANK
  8
_0-2_____1
 10
346.49811099999999
 20
68.222494999999995
 41
1
 42
1
 50
0
  0
TEXT
  8
_0-2_____1
 62
    7
 10
301.79811100000001
 20
69.022494999999992
 40
2.399999999999999
 41
1
 50
0
  1
Ａ　開口寸法
  0
POINT
  8
_0-1_DEFPOINTS
 62
    7
 10
271.49811099999999
 20
100.89123499999999
  0
POINT
  8
_0-1_DEFPOINTS
 62
    7
 10
346.49811099999999
 20
103.10663700000001
  0
POINT
  8
_0-1_DEFPOINTS
 62
    7
 10
346.49811099999999
 20
68.222494999999995
  0
ENDBLK
  0
BLOCK
  2
-015-D14
 70
   64
 10
0
 20
0
 30
0
  0
LINE
  8
_0-2_____1
  6
CONTINUOUS
 62
    3
 10
261.61927400000002
 20
174.092386
 11
236.60718399999999
 21
174.092386
  0
LINE
  8
_0-2_____1
  6
CONTINUOUS
 62
    3
 10
262.025847
 20
111.592386
 11
236.60718399999999
 21
111.592386
  0
LINE
  8
_0-2_____1
  6
CONTINUOUS
 62
    3
 10
237.60718399999999
 20
173.092386
 11
237.60718399999999
 21
112.592386
  0
INSERT
  2
-000-_DOTBLANK
  8
_0-2_____1
 10
237.60718399999999
 20
174.092386
 41
1
 42
1
 50
90
  0
INSERT
  2
-000-_DOTBLANK
  8
_0-2_____1
 10
237.60718399999999
 20
111.592386
 41
1
 42
1
 50
270
  0
TEXT
  8
_0-2_____1
 62
    7
 10
236.80718399999998
 20
126.04238600000001
 40
2.399999999999999
 41
1
 50
90
  1
５００（４００）アンカー位置
  0
POINT
  8
_0-1_DEFPOINTS
 62
    7
 10
261.61927400000002
 20
174.092386
  0
POINT
  8
_0-1_DEFPOINTS
 62
    7
 10
262.025847
 20
111.592386
  0
POINT
  8
_0-1_DEFPOINTS
 62
    7
 10
237.60718399999999
 20
111.592386
  0
ENDBLK
  0
BLOCK
  2
-016-D15
 70
   64
 10
0
 20
0
 30
0
  0
LINE
  8
_0-2_____1
  6
CONTINUOUS
 62
    3
 10
263.99811099999999
 20
177.48838000000001
 11
263.99811099999999
 21
218.437003
  0
LINE
  8
_0-2_____1
  6
CONTINUOUS
 62
    3
 10
353.99811099999999
 20
176.415706
 11
353.99811099999999
 21
218.437003
  0
LINE
  8
_0-2_____1
  6
CONTINUOUS
 62
    3
 10
264.99811099999999
 20
217.437003
 11
352.99811099999999
 21
217.437003
  0
INSERT
  2
-000-_DOTBLANK
  8
_0-2_____1
 10
263.99811099999999
 20
217.437003
 41
1
 42
1
 50
180
  0
INSERT
  2
-000-_DOTBLANK
  8
_0-2_____1
 10
353.99811099999999
 20
217.437003
 41
1
 42
1
 50
0
  0
TEXT
  8
_0-2_____1
 62
    7
 10
290.99811099999999
 20
218.23700300000002
 40
2.399999999999999
 41
1
 50
0
  1
７２０（６２０）　アンカー位置
  0
POINT
  8
_0-1_DEFPOINTS
 62
    7
 10
263.99811099999999
 20
177.48838000000001
  0
POINT
  8
_0-1_DEFPOINTS
 62
    7
 10
353.99811099999999
 20
176.415706
  0
POINT
  8
_0-1_DEFPOINTS
 62
    7
 10
353.99811099999999
 20
217.437003
  0
ENDBLK
  0
BLOCK
  2
-017-D16
 70
   64
 10
0
 20
0
 30
0
  0
LINE
  8
_0-2_____1
  6
CONTINUOUS
 62
    3
 10
99.023742999999996
 20
197.61153100000001
 11
99.023742999999996
 21
185.66192799999999
  0
LINE
  8
_0-2_____1
  6
CONTINUOUS
 62
    3
 10
161.523743
 20
197.61153100000001
 11
161.523743
 21
185.66192799999999
  0
LINE
  8
_0-2_____1
  6
CONTINUOUS
 62
    3
 10
100.023743
 20
186.66192799999999
 11
160.523743
 21
186.66192799999999
  0
INSERT
  2
-000-_DOTBLANK
  8
_0-2_____1
 10
99.023742999999996
 20
186.66192799999999
 41
1
 42
1
 50
180
  0
INSERT
  2
-000-_DOTBLANK
  8
_0-2_____1
 10
161.523743
 20
186.66192799999999
 41
1
 42
1
 50
0
  0
TEXT
  8
_0-2_____1
 62
    7
 10
114.673743
 20
187.461928
 40
2.399999999999999
 41
1
 50
0
  1
５００　アンカーボルト位置
  0
POINT
  8
_0-1_DEFPOINTS
 62
    7
 10
99.023742999999996
 20
197.61153100000001
  0
POINT
  8
_0-1_DEFPOINTS
 62
    7
 10
161.523743
 20
197.61153100000001
  0
POINT
  8
_0-1_DEFPOINTS
 62
    7
 10
161.523743
 20
186.66192799999999
  0
ENDBLK
  0
BLOCK
  2
-018-D17
 70
   64
 10
0
 20
0
 30
0
  0
LINE
  8
_0-2_____1
  6
CONTINUOUS
 62
    3
 10
92.773742999999996
 20
161.20872
 11
92.773742999999996
 21
154.381202
  0
LINE
  8
_0-2_____1
  6
CONTINUOUS
 62
    3
 10
167.773743
 20
161.20872
 11
167.773743
 21
154.381202
  0
LINE
  8
_0-2_____1
  6
CONTINUOUS
 62
    3
 10
93.773742999999996
 20
155.381202
 11
166.773743
 21
155.381202
  0
INSERT
  2
-000-_DOTBLANK
  8
_0-2_____1
 10
92.773742999999996
 20
155.381202
 41
1
 42
1
 50
180
  0
INSERT
  2
-000-_DOTBLANK
  8
_0-2_____1
 10
167.773743
 20
155.381202
 41
1
 42
1
 50
0
  0
TEXT
  8
_0-2_____1
 62
    7
 10
123.07374299999999
 20
156.18120200000001
 40
2.399999999999999
 41
1
 50
0
  1
Ｊ　躯体内径
  0
POINT
  8
_0-1_DEFPOINTS
 62
    7
 10
92.773742999999996
 20
161.20872
  0
POINT
  8
_0-1_DEFPOINTS
 62
    7
 10
167.773743
 20
161.20872
  0
POINT
  8
_0-1_DEFPOINTS
 62
    7
 10
167.773743
 20
155.381202
  0
ENDBLK
  0
BLOCK
  2
-019-D18
 70
   64
 10
0
 20
0
 30
0
  0
ARC
  8
_0-2_____1
  6
CONTINUOUS
 62
    3
 10
168.14930799999999
 20
209.639715
 40
27.542478046848512
 50
94.541065232293846
 51
177.91961613094799
  0
INSERT
  2
-000-_DOTBLANK
  8
_0-2_____1
 10
166.96680501416861
 20
237.15679667029411
 41
1
 42
1
 50
3.5008732977678698
  0
INSERT
  2
-000-_DOTBLANK
  8
_0-2_____1
 10
140.6068299531515
 20
209.639715
 41
1
 42
1
 50
268.95980806547408
  0
TEXT
  8
_0-2_____1
 62
    7
 10
144.52464221880032
 20
224.79304016933978
 40
2.399999999999999
 41
1
 50
46.230339655458835
  1
８５+00B0
  0
POINT
  8
_0-1_DEFPOINTS
 62
    7
 10
168.14930799999999
 20
209.639715
  0
POINT
  8
_0-1_DEFPOINTS
 62
    7
 10
166.96680499999999
 20
237.15679700000001
  0
POINT
  8
_0-1_DEFPOINTS
 62
    7
 10
140.60683
 20
209.639715
  0
POINT
  8
_0-1_DEFPOINTS
 62
    7
 10
144.1021287342769
 20
223.0680904163826
  0
ENDBLK
  0
BLOCK
  2
-020-D19
 70
   64
 10
0
 20
0
 30
0
  0
LINE
  8
_0-2_____1
  6
CONTINUOUS
 62
    3
 10
62.974212000000001
 20
193.389715
 11
55.014482999999991
 21
193.389715
  0
LINE
  8
_0-2_____1
  6
CONTINUOUS
 62
    3
 10
99.923580999999999
 20
211.139715
 11
55.014482999999991
 21
211.139715
  0
LINE
  8
_0-2_____1
  6
CONTINUOUS
 62
    3
 10
56.014482999999998
 20
194.389715
 11
56.014482999999998
 21
210.139715
  0
INSERT
  2
-000-_DOTBLANK
  8
_0-2_____1
 10
56.014482999999998
 20
193.389715
 41
1
 42
1
 50
270
  0
INSERT
  2
-000-_DOTBLANK
  8
_0-2_____1
 10
56.014482999999998
 20
211.139715
 41
1
 42
1
 50
90
  0
TEXT
  8
_0-2_____1
 62
    7
 10
55.214483000000001
 20
201.06471500000001
 40
2.399999999999999
 41
1
 50
90
  1
Ｈ
  0
POINT
  8
_0-1_DEFPOINTS
 62
    7
 10
62.974212000000001
 20
193.389715
  0
POINT
  8
_0-1_DEFPOINTS
 62
    7
 10
99.923580999999999
 20
211.139715
  0
POINT
  8
_0-1_DEFPOINTS
 62
    7
 10
56.014482999999998
 20
211.139715
  0
ENDBLK
  0
BLOCK
  2
-021-D20
 70
   64
 10
0
 20
0
 30
0
  0
LINE
  8
_0-2_____1
  6
CONTINUOUS
 62
    3
 10
263.99811099999999
 20
114.822155
 11
263.99811099999999
 21
125.308694
  0
LINE
  8
_0-2_____1
  6
CONTINUOUS
 62
    3
 10
271.49811099999999
 20
123.631084
 11
271.49811099999999
 21
125.308694
  0
LINE
  8
_0-2_____1
  6
CONTINUOUS
 62
    3
 10
264.99811099999999
 20
124.308694
 11
270.49811099999999
 21
124.308694
  0
INSERT
  2
-000-_DOTBLANK
  8
_0-2_____1
 10
263.99811099999999
 20
124.308694
 41
1
 42
1
 50
180
  0
INSERT
  2
-000-_DOTBLANK
  8
_0-2_____1
 10
271.49811099999999
 20
124.308694
 41
1
 42
1
 50
0
  0
TEXT
  8
_0-2_____1
 62
    7
 10
265.34811100000002
 20
125.108694
 40
2.399999999999999
 41
1
 50
0
  1
６０
  0
POINT
  8
_0-1_DEFPOINTS
 62
    7
 10
263.99811099999999
 20
114.822155
  0
POINT
  8
_0-1_DEFPOINTS
 62
    7
 10
271.49811099999999
 20
123.631084
  0
POINT
  8
_0-1_DEFPOINTS
 62
    7
 10
271.49811099999999
 20
124.308694
  0
ENDBLK
  0
ENDSEC
  0
SECTION
  2
ENTITIES
  0
LINE
  8
_0-2_____1
  6
CONTINUOUS
 62
    4
 10
354.00583149707217
 20
100.81208395467752
 11
354.00583149707217
 21
188.31208395467752
  0
LINE
  8
_0-2_____1
  6
破線
 62
    4
 10
372.56833149707217
 20
82.249583954677519
 11
372.56833149707217
 21
206.87458395467752
  0
LINE
  8
_0-2_____1
  6
CONTINUOUS
 62
    4
 10
372.75583149707217
 20
82.062083954677519
 11
372.75583149707217
 21
206.87458395467752
  0
LINE
  8
_0-2_____1
  6
CONTINUOUS
 62
    4
 10
69.218963497072195
 20
195.10941295467751
 11
70.906463497072195
 21
195.10941295467751
  0
LINE
  8
_0-2_____1
  6
CONTINUOUS
 62
    4
 10
192.15646349707217
 20
195.10941295467751
 11
193.84396349707217
 21
195.10941295467751
  0
LINE
  8
_0-2_____1
  6
CONTINUOUS
 62
    4
 10
87.781463497072195
 20
205.10941295467751
 11
93.843963497072167
 21
205.10941295467751
  0
LINE
  8
_0-2_____1
  6
CONTINUOUS
 62
    4
 10
108.78146349707217
 20
205.10941295467751
 11
117.53146349707217
 21
205.10941295467751
  0
LINE
  8
_0-2_____1
  6
CONTINUOUS
 62
    4
 10
169.21896349707217
 20
205.10941295467751
 11
175.28146349707217
 21
205.10941295467751
  0
LINE
  8
_0-2_____1
  6
CONTINUOUS
 62
    4
 10
87.800029497072146
 20
204.92191295467751
 11
93.843963497072167
 21
204.92191295467751
  0
LINE
  8
_0-2_____1
  6
CONTINUOUS
 62
    4
 10
310.25583149707217
 20
100.81208395467752
 11
354.00583149707217
 21
100.81208395467752
  0
LINE
  8
_0-2_____1
  6
CONTINUOUS
 62
    4
 10
310.25583149707217
 20
82.062083954677519
 11
372.56833149707217
 21
82.062083954677519
  0
LINE
  8
_0-2_____1
  6
破線
 62
    4
 10
310.25583149707217
 20
82.249583954677519
 11
372.56833149707217
 21
82.249583954677519
  0
LINE
  8
_0-2_____1
  6
CONTINUOUS
 62
    4
 10
354.00583149707217
 20
188.31208395467752
 11
310.25583149707217
 21
188.31208395467752
  0
LINE
  8
_0-2_____1
  6
CONTINUOUS
 62
    4
 10
372.75583149707217
 20
207.06208395467752
 11
310.25583149707217
 21
207.06208395467752
  0
LINE
  8
_0-2_____1
  6
破線
 62
    4
 10
372.56833149707217
 20
206.87458395467752
 11
310.25583149707217
 21
206.87458395467752
  0
ARC
  8
_0-2_____1
  6
CONTINUOUS
 62
    4
 10
174.10143849707217
 20
221.64865095467752
 40
0.3750000000003356
 50
2.4606810000000001
 51
92.460680999999994
  0
ARC
  8
_0-2_____1
  6
CONTINUOUS
 62
    4
 10
174.27317349707218
 20
217.6523399546775
 40
0.3749999999997836
 50
272.46068100000002
 51
2.4606810000000205
  0
LINE
  8
_0-2_____1
  6
CONTINUOUS
 62
    4
 10
174.47609349707218
 20
221.66475095467752
 11
174.64782849707217
 21
217.66843995467752
  0
LINE
  8
_0-2_____1
  6
CONTINUOUS
 62
    4
 10
150.25656749707218
 20
213.87302995467752
 11
150.83190849707216
 21
213.99193895467752
  0
LINE
  8
_0-2_____1
  6
CONTINUOUS
 62
    4
 10
149.70629849707217
 20
216.53551095467751
 11
149.70657149707216
 21
216.49893295467751
  0
LINE
  8
_0-2_____1
  6
CONTINUOUS
 62
    4
 10
149.70657149707216
 20
216.49893295467751
 11
149.69282549707216
 21
216.46503395467752
  0
LINE
  8
_0-2_____1
  6
CONTINUOUS
 62
    4
 10
149.69282549707216
 20
216.46503395467752
 11
149.66715349707218
 21
216.43897595467752
  0
LINE
  8
_0-2_____1
  6
CONTINUOUS
 62
    4
 10
149.66715349707218
 20
216.43897595467752
 11
149.63346349707217
 21
216.42472595467751
  0
LINE
  8
_0-2_____1
  6
CONTINUOUS
 62
    4
 10
149.63346349707217
 20
216.42472595467751
 11
149.59688549707207
 21
216.42445395467752
  0
LINE
  8
_0-2_____1
  6
CONTINUOUS
 62
    4
 10
149.59688549707207
 20
216.42445395467752
 11
149.56298749707216
 21
216.43819995467751
  0
LINE
  8
_0-2_____1
  6
CONTINUOUS
 62
    4
 10
149.56298749707216
 20
216.43819995467751
 11
149.53692949707218
 21
216.4638719546775
  0
LINE
  8
_0-2_____1
  6
CONTINUOUS
 62
    4
 10
149.53692949707218
 20
216.4638719546775
 11
149.52267949707218
 21
216.49756095467751
  0
LINE
  8
_0-2_____1
  6
CONTINUOUS
 62
    4
 10
149.69997349707216
 20
216.56611395467752
 11
150.27531449707217
 21
216.68502295467752
  0
ARC
  8
_0-2_____1
  6
CONTINUOUS
 62
    4
 10
170.69053749707217
 20
219.50028595467751
 40
1.125000000000238
 50
281.67721399999999
 51
101.67721400000001
  0
LINE
  8
_0-2_____1
  6
CONTINUOUS
 62
    4
 10
168.42264549707218
 20
217.62750995467752
 11
168.03092449707216
 21
217.54655095467751
  0
LINE
  8
_0-2_____1
  6
CONTINUOUS
 62
    4
 10
170.46283949707217
 20
220.60200295467752
 11
169.36112349707216
 21
220.37430495467751
  0
LINE
  8
_0-2_____1
  6
CONTINUOUS
 62
    4
 10
170.91823449707206
 20
218.39856995467753
 11
169.81651849707217
 21
218.17087295467752
  0
ARC
  8
_0-2_____1
  6
CONTINUOUS
 62
    4
 10
148.44465249707218
 20
213.53046195467752
 40
0.0937500000001427
 50
11.677214000000001
 51
191.67721400000002
  0
LINE
  8
_0-2_____1
  6
CONTINUOUS
 62
    4
 10
148.54278649707217
 20
213.51883395467752
 11
150.07294849707216
 21
213.83507995467752
  0
CIRCLE
  8
_0-2_____1
  6
CONTINUOUS
 62
    4
 10
113.15646349707217
 20
207.60941295467751
 40
0.6250000000002159
  0
LINE
  8
_0-2_____1
  6
CONTINUOUS
 62
    4
 10
116.37267049707216
 20
206.87006395467751
 11
115.81607649707217
 21
209.5631489546775
  0
LINE
  8
_0-2_____1
  6
CONTINUOUS
 62
    4
 10
168.03092449707216
 20
217.54655095467751
 11
167.47433049707217
 21
220.23963495467751
  0
LINE
  8
_0-2_____1
  6
CONTINUOUS
 62
    4
 10
167.86605149707216
 20
220.32059395467752
 11
167.47433049707217
 21
220.23963495467751
  0
LINE
  8
_0-2_____1
  6
CONTINUOUS
 62
    4
 10
169.36112349707216
 20
220.37430495467751
 11
167.86605149707216
 21
220.32059395467752
  0
LINE
  8
_0-2_____1
  6
CONTINUOUS
 62
    4
 10
116.24617249707217
 20
207.48212895467751
 11
116.80111649707217
 21
206.9586139546775
  0
LINE
  8
_0-2_____1
  6
CONTINUOUS
 62
    4
 10
115.42435549707217
 20
209.48218995467752
 11
115.81607649707217
 21
209.5631489546775
  0
LINE
  8
_0-2_____1
  6
CONTINUOUS
 62
    4
 10
115.98094949707217
 20
206.78910495467753
 11
116.37267049707216
 21
206.87006395467751
  0
LINE
  8
_0-2_____1
  6
CONTINUOUS
 62
    4
 10
112.92876649707217
 20
208.71112895467752
 11
114.03048249707217
 21
208.93882695467752
  0
LINE
  8
_0-2_____1
  6
CONTINUOUS
 62
    4
 10
115.94257549707217
 20
208.9510839546775
 11
116.24452249707217
 21
209.6516979546775
  0
LINE
  8
_0-2_____1
  6
CONTINUOUS
 62
    4
 10
116.80111649707217
 20
206.9586139546775
 11
148.35916749707218
 21
213.48088395467752
  0
LINE
  8
_0-2_____1
  6
CONTINUOUS
 62
    4
 10
114.03048249707217
 20
208.93882695467752
 11
115.42435549707217
 21
209.48218995467752
  0
LINE
  8
_0-2_____1
  6
CONTINUOUS
 62
    4
 10
114.48587749707217
 20
206.73539395467751
 11
115.98094949707217
 21
206.78910495467753
  0
LINE
  8
_0-2_____1
  6
CONTINUOUS
 62
    4
 10
150.30061449707216
 20
216.56260995467753
 11
150.48423349707218
 21
216.60055995467752
  0
LINE
  8
_0-2_____1
  6
CONTINUOUS
 62
    4
 10
150.99022849707217
 20
214.15230095467751
 11
150.48423349707218
 21
216.60055995467752
  0
LINE
  8
_0-2_____1
  6
CONTINUOUS
 62
    4
 10
147.99251749707216
 20
216.1813149546775
 11
147.99279049707218
 21
216.14473595467751
  0
LINE
  8
_0-2_____1
  6
CONTINUOUS
 62
    4
 10
147.99279049707218
 20
216.14473595467751
 11
147.97904449707218
 21
216.11083795467752
  0
LINE
  8
_0-2_____1
  6
CONTINUOUS
 62
    4
 10
147.97904449707218
 20
216.11083795467752
 11
147.95337249707217
 21
216.08477995467751
  0
LINE
  8
_0-2_____1
  6
CONTINUOUS
 62
    4
 10
147.95337249707217
 20
216.08477995467751
 11
147.91968249707216
 21
216.07052995467751
  0
LINE
  8
_0-2_____1
  6
CONTINUOUS
 62
    4
 10
147.91968249707216
 20
216.07052995467751
 11
147.88310449707217
 21
216.07025695467752
  0
LINE
  8
_0-2_____1
  6
CONTINUOUS
 62
    4
 10
147.88310449707217
 20
216.07025695467752
 11
147.84920649707217
 21
216.08400295467752
  0
LINE
  8
_0-2_____1
  6
CONTINUOUS
 62
    4
 10
147.84920649707217
 20
216.08400295467752
 11
147.82314849707217
 21
216.1096749546775
  0
LINE
  8
_0-2_____1
  6
CONTINUOUS
 62
    4
 10
147.82314849707217
 20
216.1096749546775
 11
147.80889849707216
 21
216.14336495467751
  0
LINE
  8
_0-2_____1
  6
CONTINUOUS
 62
    4
 10
147.98619249707218
 20
216.21191795467752
 11
149.51635449707217
 21
216.52816495467752
  0
LINE
  8
_0-2_____1
  6
CONTINUOUS
 62
    4
 10
150.25024249707218
 20
213.90363295467751
 11
150.23599349707217
 21
213.93732295467751
  0
LINE
  8
_0-2_____1
  6
CONTINUOUS
 62
    4
 10
150.23599349707217
 20
213.93732295467751
 11
150.20993549707217
 21
213.96299495467753
  0
LINE
  8
_0-2_____1
  6
CONTINUOUS
 62
    4
 10
150.20993549707217
 20
213.96299495467753
 11
150.17603649707218
 21
213.97674095467752
  0
LINE
  8
_0-2_____1
  6
CONTINUOUS
 62
    4
 10
150.17603649707218
 20
213.97674095467752
 11
150.13945849707218
 21
213.9764679546775
  0
LINE
  8
_0-2_____1
  6
CONTINUOUS
 62
    4
 10
150.13945849707218
 20
213.9764679546775
 11
150.10576849707218
 21
213.96221795467753
  0
LINE
  8
_0-2_____1
  6
CONTINUOUS
 62
    4
 10
150.10576849707218
 20
213.96221795467753
 11
150.08009649707216
 21
213.93615995467752
  0
LINE
  8
_0-2_____1
  6
CONTINUOUS
 62
    4
 10
150.08009649707216
 20
213.93615995467752
 11
150.06635049707216
 21
213.90226195467753
  0
LINE
  8
_0-2_____1
  6
CONTINUOUS
 62
    4
 10
150.06635049707216
 20
213.90226195467753
 11
150.06662349707216
 21
213.86568395467751
  0
LINE
  8
_0-2_____1
  6
CONTINUOUS
 62
    4
 10
116.24452249707217
 20
209.6516979546775
 11
147.80257349707216
 21
216.17396795467752
  0
ARC
  8
_0-2_____1
  6
CONTINUOUS
 62
    4
 10
169.15289949707218
 20
217.43230395467751
 40
0.3749999999998033
 50
182.46068099999999
 51
272.46068100000002
  0
ARC
  8
_0-2_____1
  6
CONTINUOUS
 62
    4
 10
168.98116449707217
 20
221.42861595467753
 40
0.3749999999998421
 50
92.460680999999994
 51
182.46068099999999
  0
LINE
  8
_0-2_____1
  6
CONTINUOUS
 62
    4
 10
174.28927449707217
 20
217.27768495467751
 11
169.16899949707218
 21
217.05764995467752
  0
LINE
  8
_0-2_____1
  6
CONTINUOUS
 62
    4
 10
147.80889849707216
 20
216.14336495467751
 11
147.80257349707216
 21
216.17396795467752
  0
LINE
  8
_0-2_____1
  6
CONTINUOUS
 62
    4
 10
148.35916749707218
 20
213.48088395467752
 11
148.35284249707217
 21
213.51148795467751
  0
LINE
  8
_0-2_____1
  6
CONTINUOUS
 62
    4
 10
147.99251749707216
 20
216.1813149546775
 11
147.98619249707218
 21
216.21191795467752
  0
LINE
  8
_0-2_____1
  6
CONTINUOUS
 62
    4
 10
148.54278649707217
 20
213.51883395467752
 11
148.53646249707216
 21
213.5494369546775
  0
LINE
  8
_0-2_____1
  6
CONTINUOUS
 62
    4
 10
150.30061449707216
 20
216.56260995467753
 11
150.27531449707217
 21
216.68502295467752
  0
LINE
  8
_0-2_____1
  6
CONTINUOUS
 62
    4
 10
150.83190849707216
 20
213.99193895467752
 11
150.80660849707218
 21
214.11435195467752
  0
LINE
  8
_0-2_____1
  6
CONTINUOUS
 62
    4
 10
149.52267949707218
 20
216.49756095467751
 11
149.51635449707217
 21
216.52816495467752
  0
LINE
  8
_0-2_____1
  6
CONTINUOUS
 62
    4
 10
150.07294849707216
 20
213.83507995467752
 11
150.06662549707218
 21
213.86567595467753
  0
LINE
  8
_0-2_____1
  6
CONTINUOUS
 62
    4
 10
168.96506449707218
 20
221.80326995467752
 11
174.08533849707217
 21
222.02330495467751
  0
LINE
  8
_0-2_____1
  6
CONTINUOUS
 62
    4
 10
149.70629849707217
 20
216.53551095467751
 11
149.69997349707216
 21
216.56611395467752
  0
LINE
  8
_0-2_____1
  6
CONTINUOUS
 62
    4
 10
150.25656749707218
 20
213.87302995467752
 11
150.25024249707218
 21
213.90363295467751
  0
LINE
  8
_0-2_____1
  6
CONTINUOUS
 62
    4
 10
168.65222049707216
 20
220.34883795467752
 11
168.60651049707218
 21
221.4125149546775
  0
LINE
  8
_0-2_____1
  6
CONTINUOUS
 62
    4
 10
168.77824549707216
 20
217.41620395467751
 11
168.76345549707216
 21
217.76036495467753
  0
CIRCLE
  8
_0-2_____1
  6
CONTINUOUS
 62
    4
 10
170.69053749707217
 20
219.50028595467751
 40
1.0000000000000191
  0
LINE
  8
_0-2_____1
  6
CONTINUOUS
 62
    4
 10
171.55298649707217
 20
220.26808495467751
 11
170.45682849707217
 21
220.63108895467752
  0
LINE
  8
_0-2_____1
  6
CONTINUOUS
 62
    4
 10
171.78669549707217
 20
219.13728295467752
 11
171.55298649707217
 21
220.26808495467751
  0
LINE
  8
_0-2_____1
  6
CONTINUOUS
 62
    4
 10
170.92424649707218
 20
218.36948395467752
 11
171.78669549707217
 21
219.13728295467752
  0
LINE
  8
_0-2_____1
  6
CONTINUOUS
 62
    4
 10
169.82808849707217
 20
218.73248795467751
 11
170.92424649707218
 21
218.36948395467752
  0
LINE
  8
_0-2_____1
  6
CONTINUOUS
 62
    4
 10
169.59437949707217
 20
219.86328995467753
 11
169.82808849707217
 21
218.73248795467751
  0
LINE
  8
_0-2_____1
  6
CONTINUOUS
 62
    4
 10
170.45682849707217
 20
220.63108895467752
 11
169.59437949707217
 21
219.86328995467753
  0
LINE
  8
_0-2_____1
  6
CONTINUOUS
 62
    4
 10
150.86372949707217
 20
214.76436595467752
 11
167.87912549707218
 21
218.28102795467751
  0
LINE
  8
_0-2_____1
  6
CONTINUOUS
 62
    4
 10
170.88865449707217
 20
205.9962809546775
 11
170.89670449707216
 21
205.80895395467752
  0
LINE
  8
_0-2_____1
  6
CONTINUOUS
 62
    4
 10
175.14854849707217
 20
205.99167095467752
 11
169.83518449707216
 21
205.76333695467753
  0
ARC
  8
_0-2_____1
  6
CONTINUOUS
 62
    4
 10
169.83518449707216
 20
205.76333695467753
 40
0.1874999999996939
 50
92.460680999999994
 51
182.46068099999999
  0
LINE
  8
_0-2_____1
  6
CONTINUOUS
 62
    4
 10
170.88865449707217
 20
205.9962809546775
 11
169.82713449707217
 21
205.95066395467751
  0
LINE
  8
_0-2_____1
  6
CONTINUOUS
 62
    4
 10
171.91692949707218
 20
285.55714695467759
 11
174.86965849707218
 21
245.82892995467751
  0
ARC
  8
_0-2_____1
  6
CONTINUOUS
 62
    4
 10
171.72994549707218
 20
285.54324995467755
 40
0.1875000000000965
 50
4.2505920000000001
 51
92.460680999999994
  0
LINE
  8
_0-2_____1
  6
CONTINUOUS
 62
    4
 10
175.33603549707217
 20
205.99386595467752
 11
174.86965849707218
 21
245.82892995467751
  0
ARC
  8
_0-2_____1
  6
CONTINUOUS
 62
    4
 10
175.14854849707217
 20
205.99167095467752
 40
0.1874999999992396
 50
272.46068100000002
 51
0.6707700000000004
  0
LINE
  8
_0-2_____1
  6
CONTINUOUS
 62
    4
 10
175.15659849707217
 20
205.80434295467751
 11
169.84323449707216
 21
205.57600995467752
  0
LINE
  8
_0-2_____1
  6
CONTINUOUS
 62
    4
 10
171.72189549707218
 20
285.73057695467753
 11
166.40853149707218
 21
285.50224395467751
  0
ARC
  8
_0-2_____1
  6
CONTINUOUS
 62
    4
 10
166.41658149707217
 20
285.31491695467753
 40
0.1874999999996745
 50
92.460680999999994
 51
182.46068099999999
  0
ARC
  8
_0-2_____1
  6
CONTINUOUS
 62
    4
 10
169.83518449707216
 20
205.76333695467753
 40
0.1875000000001481
 50
182.46068099999999
 51
272.46068100000002
  0
LINE
  8
_0-2_____1
  6
CONTINUOUS
 62
    4
 10
166.22925449707216
 20
285.3068669546775
 11
168.95823549707217
 21
221.80291395467751
  0
LINE
  8
_0-2_____1
  6
CONTINUOUS
 62
    4
 10
169.16216549707218
 20
217.0574179546775
 11
169.38403149707216
 21
211.89455795467751
  0
LINE
  8
_0-2_____1
  6
CONTINUOUS
 62
    4
 10
150.61073249707218
 20
215.98849495467752
 11
167.62612849707216
 21
219.50515795467751
  0
LINE
  8
_0-2_____1
  6
CONTINUOUS
 62
    4
 10
169.81651849707217
 20
218.17087295467752
 11
168.42264549707218
 21
217.62750995467752
  0
LINE
  8
_0-2_____1
  6
CONTINUOUS
 62
    4
 10
150.80660849707218
 20
214.11435195467752
 11
150.99022849707217
 21
214.15230095467751
  0
LINE
  8
_0-2_____1
  6
CONTINUOUS
 62
    4
 10
113.38416149707217
 20
206.50769695467753
 11
114.48587749707217
 21
206.73539395467751
  0
ARC
  8
_0-2_____1
  6
CONTINUOUS
 62
    4
 10
113.15646349707217
 20
207.60941295467751
 40
1.1249999999997931
 50
101.67721400000001
 51
281.67721399999999
  0
LINE
  8
_0-2_____1
  6
CONTINUOUS
 62
    4
 10
310.25583149707217
 20
184.12458395467752
 11
350.25583149707217
 21
184.12458395467752
  0
LINE
  8
_0-2_____1
  6
CONTINUOUS
 62
    4
 10
310.25583149707217
 20
144.12458395467752
 11
350.25583149707217
 21
104.12458395467752
  0
LINE
  8
_0-2_____1
  6
CONTINUOUS
 62
    4
 10
350.25583149707217
 20
184.12458395467752
 11
310.25583149707217
 21
144.12458395467752
  0
LINE
  8
_0-2_____1
  6
CONTINUOUS
 62
    4
 10
350.25583149707217
 20
104.12458395467752
 11
310.25583149707217
 21
104.12458395467752
  0
LINE
  8
_0-2_____1
  6
CONTINUOUS
 62
    4
 10
350.25583149707217
 20
184.12458395467752
 11
350.25583149707217
 21
104.12458395467752
  0
LINE
  8
_0-2_____1
  6
破線
 62
    4
 10
347.75583149707217
 20
107.06208395467752
 11
347.75583149707217
 21
182.06208395467752
  0
LINE
  8
_0-2_____1
  6
破線
 62
    4
 10
348.75583149707217
 20
106.06208395467752
 11
348.75583149707217
 21
183.06208395467752
  0
LINE
  8
_0-2_____1
  6
CONTINUOUS
 62
    4
 10
93.843963497072167
 20
204.92191295467751
 11
169.21896349707217
 21
204.92191295467751
  0
LINE
  8
_0-2_____1
  6
CONTINUOUS
 62
    4
 10
93.031463497072195
 20
211.35941295467751
 11
96.406515497072178
 21
211.35941295467751
  0
LINE
  8
_0-2_____1
  6
CONTINUOUS
 62
    4
 10
105.59402249707217
 20
211.35941295467751
 11
154.47160849707217
 21
211.35941295467751
  0
LINE
  8
_0-2_____1
  6
CONTINUOUS
 62
    4
 10
159.21301949707217
 20
211.35941295467751
 11
170.03146349707217
 21
211.35941295467751
  0
LINE
  8
_0-2_____1
  6
CONTINUOUS
 62
    4
 10
90.90530849707217
 20
207.31974795467752
 11
91.09280849707217
 21
207.31997695467751
  0
LINE
  8
_0-2_____1
  6
CONTINUOUS
 62
    4
 10
170.34274949707216
 20
207.41671695467753
 11
170.53024949707216
 21
207.41694595467752
  0
LINE
  8
_0-2_____1
  6
CONTINUOUS
 62
    4
 10
90.906834497072168
 20
206.06974895467752
 11
93.843963497072167
 21
206.07333495467751
  0
LINE
  8
_0-2_____1
  6
CONTINUOUS
 62
    4
 10
154.83756449707218
 20
211.65462995467752
 11
158.83756249707218
 21
211.65951295467752
  0
LINE
  8
_0-2_____1
  6
CONTINUOUS
 62
    4
 10
96.593741497072187
 20
211.58353295467751
 11
105.40622949707218
 21
211.59428995467752
  0
LINE
  8
_0-2_____1
  6
CONTINUOUS
 62
    4
 10
170.53068249707218
 20
211.86012595467753
 11
130.71083649707217
 21
213.0558429546775
  0
LINE
  8
_0-2_____1
  6
CONTINUOUS
 62
    4
 10
170.52505449707218
 20
211.67270995467752
 11
130.71106549707218
 21
212.86825095467751
  0
LINE
  8
_0-2_____1
  6
CONTINUOUS
 62
    4
 10
372.56833149707217
 20
82.062083954677519
 11
372.56833149707217
 21
82.249583954677519
  0
LINE
  8
_0-2_____1
  6
CONTINUOUS
 62
    4
 10
372.56833149707217
 20
82.062083954677519
 11
372.56833149707217
 21
82.249583954677519
  0
LINE
  8
_0-2_____1
  6
破線
 62
    4
 10
310.25583149707217
 20
106.06208395467752
 11
348.75583149707217
 21
106.06208395467752
  0
LINE
  8
_0-2_____1
  6
CONTINUOUS
 62
    4
 10
372.56833149707217
 20
82.249583954677519
 11
350.25583149707217
 21
104.56208395467752
  0
LINE
  8
_0-2_____1
  6
CONTINUOUS
 62
    4
 10
372.75583149707217
 20
82.062083954677519
 11
372.56833149707217
 21
82.062083954677519
  0
LINE
  8
_0-2_____1
  6
破線
 62
    4
 10
310.6352774970722
 20
113.04449595467752
 11
311.06966449707215
 21
112.78593195467751
  0
LINE
  8
_0-2_____1
  6
破線
 62
    4
 10
311.1307294970722
 20
112.67851995467751
 11
311.1307294970722
 21
112.62458395467752
  0
ARC
  8
_0-2_____1
  6
破線
 62
    4
 10
311.0057294970722
 20
112.67851995467751
 40
0.1250000001180142
 50
0
 51
59.237279999999998
  0
LINE
  8
_0-2_____1
  6
破線
 62
    4
 10
311.10856349707217
 20
112.74958395467752
 11
310.25583149707217
 21
112.74958395467752
  0
CIRCLE
  8
_0-2_____1
  6
破線
 62
    4
 10
312.13083149707217
 20
111.12458395467752
 40
0.375
  0
CIRCLE
  8
_0-2_____1
  6
破線
 62
    4
 10
312.13083149707217
 20
114.87458395467752
 40
0.375
  0
ARC
  8
_0-2_____1
  6
破線
 62
    4
 10
310.38355849707216
 20
113.43708395467752
 40
0.3750000000174548
 50
270
 51
336.80138299999999
  0
ARC
  8
_0-2_____1
  6
破線
 62
    4
 10
311.13083149707217
 20
115.81536995467751
 40
0.625000000130877
 50
336.80140199999994
 51
359.99999999999994
  0
ARC
  8
_0-2_____1
  6
破線
 62
    4
 10
310.25583149707217
 20
116.18708395467752
 40
1.499999999986718
 50
0
 51
90
  0
LINE
  8
_0-2_____1
  6
破線
 62
    4
 10
310.75583149707217
 20
115.68708395467752
 11
310.25583149707217
 21
115.68708395467752
  0
LINE
  8
_0-2_____1
  6
破線
 62
    4
 10
311.75583149707217
 20
115.81536995467751
 11
311.75583149707217
 21
116.18708395467752
  0
LINE
  8
_0-2_____1
  6
破線
 62
    4
 10
310.75583149707217
 20
116.68708395467752
 11
310.75583149707217
 21
115.68708395467752
  0
LINE
  8
_0-2_____1
  6
破線
 62
    4
 10
310.25583149707217
 20
116.68708395467752
 11
310.75583149707217
 21
116.68708395467752
  0
LINE
  8
_0-2_____1
  6
破線
 62
    4
 10
311.70529749707219
 20
115.56916995467752
 11
310.72823749707214
 21
113.28936395467751
  0
LINE
  8
_0-2_____1
  6
破線
 62
    4
 10
311.81833149707217
 20
111.99958395467752
 11
310.25583149707217
 21
111.99958395467752
  0
LINE
  8
_0-2_____1
  6
破線
 62
    4
 10
311.81833149707217
 20
110.12458395467752
 11
310.25583149707217
 21
110.12458395467752
  0
LINE
  8
_0-2_____1
  6
破線
 62
    4
 10
311.81833149707217
 20
111.99958395467752
 11
311.81833149707217
 21
110.12458395467752
  0
LINE
  8
_0-2_____1
  6
破線
 62
    4
 10
311.81833149707217
 20
111.81208395467752
 11
310.25583149707217
 21
111.81208395467752
  0
LINE
  8
_0-2_____1
  6
破線
 62
    4
 10
310.89333149707215
 20
111.81208395467752
 11
310.89333149707215
 21
111.99958395467752
  0
LINE
  8
_0-2_____1
  6
破線
 62
    4
 10
310.38083149707217
 20
116.37458395467752
 11
310.25583149707217
 21
116.37458395467752
  0
LINE
  8
_0-2_____1
  6
破線
 62
    4
 10
310.38083149707217
 20
115.62458395467752
 11
310.25583149707217
 21
115.62458395467752
  0
LINE
  8
_0-2_____1
  6
破線
 62
    4
 10
310.38083149707217
 20
116.56208395467752
 11
310.38083149707217
 21
115.43708395467752
  0
LINE
  8
_0-2_____1
  6
破線
 62
    4
 10
310.38083149707217
 20
115.43708395467752
 11
310.25583149707217
 21
115.43708395467752
  0
LINE
  8
_0-2_____1
  6
破線
 62
    4
 10
310.38083149707217
 20
116.56208395467752
 11
310.25583149707217
 21
116.56208395467752
  0
LINE
  8
_0-2_____1
  6
破線
 62
    4
 10
311.63083149707217
 20
116.98094095467751
 11
310.25583149707217
 21
117.77479695467751
  0
LINE
  8
_0-2_____1
  6
破線
 62
    4
 10
310.25583149707217
 20
114.59937095467751
 11
311.63083149707217
 21
115.39322695467752
  0
LINE
  8
_0-2_____1
  6
破線
 62
    4
 10
311.63083149707217
 20
115.39322695467752
 11
311.63083149707217
 21
116.98094095467751
  0
ARC
  8
_0-2_____1
  6
破線
 62
    4
 10
310.25583149707217
 20
116.18708395467752
 40
1.249999999995794
 50
270
 51
90
  0
ARC
  8
_0-2_____1
  6
破線
 62
    4
 10
310.25583149707217
 20
116.18708395467752
 40
1.0000000000001701
 50
270
 51
90
  0
ARC
  8
_0-2_____1
  6
破線
 62
    4
 10
310.25583149707217
 20
116.18708395467752
 40
1.374999999995564
 50
270
 51
90
  0
ARC
  8
_0-2_____1
  6
破線
 62
    4
 10
310.25583149707217
 20
116.18708395467752
 40
0.312500000010175
 50
293.57817799999998
 51
66.421821999999992
  0
LINE
  8
_0-2_____1
  6
破線
 62
    4
 10
310.25583149707217
 20
118.18708395467752
 11
313.25583149707217
 21
118.18708395467752
  0
LINE
  8
_0-2_____1
  6
破線
 62
    4
 10
313.25583149707217
 20
116.43708395467752
 11
310.25583149707217
 21
116.43708395467752
  0
LINE
  8
_0-2_____1
  6
破線
 62
    4
 10
313.75583149707217
 20
107.24958395467752
 11
313.75583149707217
 21
107.06208395467752
  0
LINE
  8
_0-2_____1
  6
破線
 62
    4
 10
311.50583149707217
 20
108.18708395467752
 11
311.50583149707217
 21
107.99958395467752
  0
ARC
  8
_0-2_____1
  6
破線
 62
    4
 10
312.25583149707217
 20
107.24958395467752
 40
0.1874999999467641
 50
180
 51
270
  0
LINE
  8
_0-2_____1
  6
破線
 62
    4
 10
310.25583149707217
 20
107.99958395467752
 11
312.06833149707217
 21
107.99958395467752
  0
LINE
  8
_0-2_____1
  6
破線
 62
    4
 10
310.25583149707217
 20
108.18708395467752
 11
312.06833149707217
 21
108.18708395467752
  0
LINE
  8
_0-2_____1
  6
破線
 62
    4
 10
312.06833149707217
 20
108.18708395467752
 11
312.06833149707217
 21
107.06208395467752
  0
LINE
  8
_0-2_____1
  6
破線
 62
    4
 10
312.25583149707217
 20
107.99958395467752
 11
312.25583149707217
 21
107.24958395467752
  0
ARC
  8
_0-2_____1
  6
破線
 62
    4
 10
312.06833149707217
 20
107.99958395467752
 40
0.1874999998436655
 50
0
 51
90
  0
LINE
  8
_0-2_____1
  6
破線
 62
    4
 10
312.25583149707217
 20
107.24958395467752
 11
313.75583149707217
 21
107.24958395467752
  0
LINE
  8
_0-2_____1
  6
破線
 62
    4
 10
310.8807294970722
 20
108.18708395467752
 11
310.8807294970722
 21
107.62458395467752
  0
LINE
  8
_0-2_____1
  6
破線
 62
    4
 10
310.5057294970722
 20
107.24958395467752
 11
310.25583149707217
 21
107.24958395467752
  0
LINE
  8
_0-2_____1
  6
破線
 62
    4
 10
310.5057294970722
 20
107.24958395467752
 11
310.8807294970722
 21
107.62458395467752
  0
LINE
  8
_0-2_____1
  6
破線
 62
    4
 10
310.25583149707217
 20
107.62458395467752
 11
310.8807294970722
 21
107.62458395467752
  0
LINE
  8
_0-2_____1
  6
破線
 62
    4
 10
311.1307294970722
 20
112.62458395467752
 11
310.25583149707217
 21
112.62458395467752
  0
LINE
  8
_0-2_____1
  6
破線
 62
    4
 10
310.8807294970722
 20
112.62458395467752
 11
310.8807294970722
 21
110.06208395467752
  0
LINE
  8
_0-2_____1
  6
破線
 62
    4
 10
310.25583149707217
 20
112.10315295467751
 11
310.96052949707217
 21
112.06915495467751
  0
LINE
  8
_0-2_____1
  6
破線
 62
    4
 10
310.97613449707217
 20
112.20665495467752
 11
310.25583149707217
 21
112.17190295467752
  0
ARC
  8
_0-2_____1
  6
破線
 62
    4
 10
310.96833149707214
 20
112.24333395467751
 40
0.037499999945224
 50
257.99107900000001
 51
77.991078999999999
  0
LINE
  8
_0-2_____1
  6
破線
 62
    4
 10
310.25583149707217
 20
112.24065295467751
 11
310.96052949707217
 21
112.20665495467752
  0
ARC
  8
_0-2_____1
  6
破線
 62
    4
 10
310.96833149707214
 20
112.38083395467751
 40
0.0375000000941562
 50
282.00878999999998
 51
102.00899799999999
  0
LINE
  8
_0-2_____1
  6
破線
 62
    4
 10
310.97613349707217
 20
112.34415495467752
 11
310.25583149707217
 21
112.30940295467751
  0
LINE
  8
_0-2_____1
  6
破線
 62
    4
 10
310.96052949707217
 20
112.41751295467752
 11
310.25583149707217
 21
112.38351495467751
  0
LINE
  8
_0-2_____1
  6
破線
 62
    4
 10
310.97613449707217
 20
112.48165495467751
 11
310.25583149707217
 21
112.44690295467751
  0
ARC
  8
_0-2_____1
  6
破線
 62
    4
 10
310.96833149707214
 20
112.51833395467752
 40
0.037499999957451
 50
282.00892099999999
 51
102.008921
  0
LINE
  8
_0-2_____1
  6
破線
 62
    4
 10
310.96052949707217
 20
112.55501295467751
 11
310.25583149707217
 21
112.52101495467751
  0
LINE
  8
_0-2_____1
  6
破線
 62
    4
 10
310.96833149707214
 20
112.54958395467752
 11
310.25583149707217
 21
112.54958395467752
  0
ARC
  8
_0-2_____1
  6
破線
 62
    4
 10
310.96833149707214
 20
112.58708395467751
 40
0.0375000001052967
 50
270
 51
90
  0
LINE
  8
_0-2_____1
  6
破線
 62
    4
 10
310.25583149707217
 20
112.43595595467751
 11
310.97613449707217
 21
112.41751295467752
  0
LINE
  8
_0-2_____1
  6
破線
 62
    4
 10
310.25583149707217
 20
112.39446195467751
 11
310.40407049707215
 21
112.39066695467751
  0
LINE
  8
_0-2_____1
  6
破線
 62
    4
 10
310.25583149707217
 20
112.53196195467751
 11
310.40407049707215
 21
112.52816695467752
  0
LINE
  8
_0-2_____1
  6
破線
 62
    4
 10
310.25583149707217
 20
112.29845595467751
 11
310.97613449707217
 21
112.28001295467752
  0
LINE
  8
_0-2_____1
  6
破線
 62
    4
 10
310.40407049707215
 20
112.23350095467751
 11
310.25583149707217
 21
112.22970595467751
  0
LINE
  8
_0-2_____1
  6
破線
 62
    4
 10
310.25583149707217
 20
112.16095595467752
 11
310.97613449707217
 21
112.14251295467751
  0
LINE
  8
_0-2_____1
  6
破線
 62
    4
 10
310.40407049707215
 20
112.09600095467751
 11
310.25583149707217
 21
112.09220595467751
  0
ARC
  8
_0-2_____1
  6
破線
 62
    4
 10
310.96833149707214
 20
112.03708395467751
 40
0.0375000000083786
 50
270
 51
90
  0
LINE
  8
_0-2_____1
  6
破線
 62
    4
 10
310.25583149707217
 20
112.07458395467751
 11
310.96833149707214
 21
112.07458395467751
  0
ARC
  8
_0-2_____1
  6
破線
 62
    4
 10
310.96833149707214
 20
112.10583395467751
 40
0.0374999997863514
 50
257.99107900000001
 51
77.991080000000011
  0
LINE
  8
_0-2_____1
  6
破線
 62
    4
 10
313.25583149707217
 20
116.43708395467752
 11
315.00583149707217
 21
116.43708395467752
  0
LINE
  8
_0-2_____1
  6
破線
 62
    4
 10
315.00583149707217
 20
116.43708395467752
 11
315.00583149707217
 21
109.62458395467752
  0
LINE
  8
_0-2_____1
  6
破線
 62
    4
 10
313.25583149707217
 20
118.18708395467752
 11
313.25583149707217
 21
109.43708395467752
  0
LINE
  8
_0-2_____1
  6
破線
 62
    4
 10
313.97540449707219
 20
116.43708395467752
 11
313.97540449707219
 21
109.62458395467752
  0
LINE
  8
_0-2_____1
  6
破線
 62
    4
 10
313.25583149707217
 20
109.62458395467752
 11
315.00583149707217
 21
109.62458395467752
  0
LINE
  8
_0-2_____1
  6
破線
 62
    4
 10
310.25583149707217
 20
117.15665695467752
 11
313.25583149707217
 21
117.15665695467752
  0
LINE
  8
_0-2_____1
  6
破線
 62
    4
 10
310.57134249707218
 20
113.06208395467752
 11
310.25583149707217
 21
113.06208395467752
  0
ARC
  8
_0-2_____1
  6
破線
 62
    4
 10
310.57134249707218
 20
112.93708395467752
 40
0.1250000005914669
 50
59.237281000000003
 51
90
  0
LINE
  8
_0-2_____1
  6
破線
 62
    4
 10
310.8807294970722
 20
109.93708395467752
 11
310.8807294970722
 21
109.24958395467752
  0
LINE
  8
_0-2_____1
  6
破線
 62
    4
 10
310.8807294970722
 20
109.24958395467752
 11
310.8807294970722
 21
108.18708395467752
  0
LINE
  8
_0-2_____1
  6
破線
 62
    4
 10
312.13083149707217
 20
109.43708395467752
 11
312.13083149707217
 21
109.24958395467752
  0
LINE
  8
_0-2_____1
  6
破線
 62
    4
 10
313.25583149707217
 20
109.43708395467752
 11
313.25583149707217
 21
109.24958395467752
  0
LINE
  8
_0-2_____1
  6
破線
 62
    4
 10
312.88083149707217
 20
109.43708395467752
 11
312.88083149707217
 21
109.24958395467752
  0
LINE
  8
_0-2_____1
  6
破線
 62
    4
 10
315.25583149707217
 20
118.43708395467752
 11
315.25583149707217
 21
109.43708395467752
  0
LINE
  8
_0-2_____1
  6
破線
 62
    4
 10
310.25583149707217
 20
118.43708395467752
 11
315.25583149707217
 21
118.43708395467752
  0
LINE
  8
_0-2_____1
  6
破線
 62
    4
 10
311.31833149707217
 20
115.59005395467751
 11
311.31833149707217
 21
116.78411395467751
  0
ARC
  8
_0-2_____1
  6
破線
 62
    4
 10
310.25583149707217
 20
116.18708395467752
 40
1.218749999989017
 50
29.332110000000004
 51
90
  0
ARC
  8
_0-2_____1
  6
破線
 62
    4
 10
310.25583149707217
 20
116.18708395467752
 40
1.21874999999472
 50
270
 51
330.66789
  0
LINE
  8
_0-2_____1
  6
破線
 62
    4
 10
315.06833149707217
 20
118.24958395467752
 11
315.06833149707217
 21
109.62458395467752
  0
LINE
  8
_0-2_____1
  6
破線
 62
    4
 10
314.00583149707217
 20
117.18708395467752
 11
315.06833149707217
 21
118.24958395467752
  0
LINE
  8
_0-2_____1
  6
破線
 62
    4
 10
314.00583149707217
 20
117.18708395467752
 11
314.00583149707217
 21
109.62458395467752
  0
LINE
  8
_0-2_____1
  6
破線
 62
    4
 10
310.25583149707217
 20
109.62458395467752
 11
315.06833149707217
 21
109.62458395467752
  0
LINE
  8
_0-2_____1
  6
破線
 62
    4
 10
310.25583149707217
 20
118.24958395467752
 11
315.06833149707217
 21
118.24958395467752
  0
LINE
  8
_0-2_____1
  6
破線
 62
    4
 10
310.25583149707217
 20
117.18708395467752
 11
314.00583149707217
 21
117.18708395467752
  0
LINE
  8
_0-2_____1
  6
破線
 62
    4
 10
310.25583149707217
 20
109.43708395467752
 11
315.25583149707217
 21
109.43708395467752
  0
LINE
  8
_0-2_____1
  6
破線
 62
    4
 10
310.25583149707217
 20
110.04958395467752
 11
311.38083149707217
 21
110.04958395467752
  0
LINE
  8
_0-2_____1
  6
破線
 62
    4
 10
311.38083149707217
 20
110.04958395467752
 11
311.38083149707217
 21
109.94958395467751
  0
LINE
  8
_0-2_____1
  6
破線
 62
    4
 10
311.38083149707217
 20
109.94958395467751
 11
310.25583149707217
 21
109.94958395467751
  0
LINE
  8
_0-2_____1
  6
破線
 62
    4
 10
310.8182294970722
 20
110.06208395467752
 11
310.8182294970722
 21
109.93708395467752
  0
LINE
  8
_0-2_____1
  6
破線
 62
    4
 10
310.91208149707217
 20
109.62458395467752
 11
310.91208149707217
 21
109.43708395467752
  0
LINE
  8
_0-2_____1
  6
破線
 62
    4
 10
310.25583149707217
 20
109.24958395467752
 11
313.25583149707217
 21
109.24958395467752
  0
ARC
  8
_0-2_____1
  6
破線
 62
    4
 10
312.50583149707217
 20
109.44844795467752
 40
0.6261675562848193
 50
299.93833800000004
 51
341.48284799999999
  0
LINE
  8
_0-2_____1
  6
破線
 62
    4
 10
312.19333149707217
 20
108.90583395467752
 11
312.81833149707217
 21
108.90583395467752
  0
ARC
  8
_0-2_____1
  6
破線
 62
    4
 10
312.50583149707217
 20
109.44844795467752
 40
0.6261675558954552
 50
198.51715200000001
 51
240.06166200000001
  0
LINE
  8
_0-2_____1
  6
破線
 62
    4
 10
312.24333149707218
 20
110.24958395467752
 11
312.19333149707217
 21
110.19958395467751
  0
LINE
  8
_0-2_____1
  6
破線
 62
    4
 10
312.76833149707215
 20
110.24958395467752
 11
312.81833149707217
 21
110.19958395467751
  0
LINE
  8
_0-2_____1
  6
破線
 62
    4
 10
312.19333149707217
 20
110.19958395467751
 11
312.81833149707217
 21
110.19958395467751
  0
LINE
  8
_0-2_____1
  6
破線
 62
    4
 10
312.19333149707217
 20
110.19958395467751
 11
312.19333149707217
 21
109.24958395467752
  0
LINE
  8
_0-2_____1
  6
破線
 62
    4
 10
312.81833149707217
 20
110.19958395467751
 11
312.81833149707217
 21
109.24958395467752
  0
LINE
  8
_0-2_____1
  6
破線
 62
    4
 10
312.76833149707215
 20
110.24958395467752
 11
312.76833149707215
 21
109.24958395467752
  0
LINE
  8
_0-2_____1
  6
破線
 62
    4
 10
312.76833149707215
 20
110.24958395467752
 11
312.24333149707218
 21
110.24958395467752
  0
LINE
  8
_0-2_____1
  6
破線
 62
    4
 10
312.24333149707218
 20
110.24958395467752
 11
312.24333149707218
 21
109.24958395467752
  0
LINE
  8
_0-2_____1
  6
破線
 62
    4
 10
310.89958149707218
 20
109.43708395467752
 11
310.89958149707218
 21
109.24958395467752
  0
LINE
  8
_0-2_____1
  6
破線
 62
    4
 10
310.8807294970722
 20
109.93708395467752
 11
310.25583149707217
 21
109.93708395467752
  0
LINE
  8
_0-2_____1
  6
破線
 62
    4
 10
310.25583149707217
 20
110.06208395467752
 11
310.8807294970722
 21
110.06208395467752
  0
ARC
  8
_0-2_____1
  6
破線
 62
    3
 10
355.25583149707217
 20
114.12458395467752
 40
0.7500000000057696
 50
0
 51
180
  0
LINE
  8
_0-2_____1
  6
破線
 62
    3
 10
354.50583149707217
 20
114.12458395467752
 11
354.50583149707217
 21
112.49958395467752
  0
ARC
  8
_0-2_____1
  6
破線
 62
    3
 10
355.25583149707217
 20
112.49958395467752
 40
0.7500000000037092
 50
180
 51
0
  0
LINE
  8
_0-2_____1
  6
破線
 62
    3
 10
356.00583149707217
 20
114.12458395467752
 11
356.00583149707217
 21
112.49958395467752
  0
LINE
  8
_0-2_____1
  6
破線
 62
    3
 10
355.25583149707217
 20
113.06208395467752
 11
355.25583149707217
 21
113.56208395467752
  0
LINE
  8
_0-2_____1
  6
破線
 62
    3
 10
355.00583149707217
 20
113.31208395467752
 11
355.50583149707217
 21
113.31208395467752
  0
LINE
  8
_0-2_____1
  6
破線
 62
    3
 10
357.28961849707218
 20
110.18708395467752
 11
357.28961849707218
 21
116.43708395467752
  0
LINE
  8
_0-2_____1
  6
破線
 62
    3
 10
357.86037249707215
 20
116.43708395467752
 11
357.86037249707215
 21
110.18708395467752
  0
LINE
  8
_0-2_____1
  6
破線
 62
    3
 10
353.44333149707217
 20
116.43708395467752
 11
360.31844949707215
 21
116.43708395467752
  0
LINE
  8
_0-2_____1
  6
破線
 62
    3
 10
360.31844949707215
 20
116.43708395467752
 11
360.31844949707215
 21
110.18708395467752
  0
LINE
  8
_0-2_____1
  6
破線
 62
    3
 10
353.44333149707217
 20
110.18708395467752
 11
360.31844949707215
 21
110.18708395467752
  0
ARC
  8
_0-2_____1
  6
破線
 62
    3
 10
353.44333149707217
 20
116.06208395467752
 40
0.3750000000395843
 50
90
 51
180
  0
ARC
  8
_0-2_____1
  6
破線
 62
    3
 10
353.44333149707217
 20
110.56208395467752
 40
0.3750000000146739
 50
180
 51
270
  0
LINE
  8
_0-2_____1
  6
破線
 62
    3
 10
353.06833149707217
 20
110.56208395467752
 11
353.06833149707217
 21
116.06208395467752
  0
LINE
  8
_0-2_____1
  6
破線
 62
    3
 10
358.00745849707215
 20
116.43708395467752
 11
358.00745849707215
 21
110.18708395467752
  0
LINE
  8
_0-2_____1
  6
破線
 62
    4
 10
310.25583149707217
 20
107.06208395467752
 11
347.75583149707217
 21
107.06208395467752
  0
LINE
  8
_0-2_____1
  6
破線
 62
    4
 10
350.25583149707217
 20
104.56208395467752
 11
347.75583149707217
 21
107.06208395467752
  0
LINE
  8
_0-2_____1
  6
一点鎖線
 62
    3
 10
353.69333149707217
 20
113.31208395467752
 11
356.81833149707217
 21
113.31208395467752
  0
LINE
  8
_0-2_____1
  6
一点鎖線
 62
    3
 10
355.25583149707217
 20
114.87458395467752
 11
355.25583149707217
 21
111.74958395467752
  0
LINE
  8
_0-2_____1
  6
一点鎖線
 62
    3
 10
353.69333149707217
 20
175.81208395467752
 11
356.81833149707217
 21
175.81208395467752
  0
LINE
  8
_0-2_____1
  6
一点鎖線
 62
    3
 10
355.25583149707217
 20
177.37458395467752
 11
355.25583149707217
 21
174.24958395467752
  0
LINE
  8
_0-2_____1
  6
破線
 62
    4
 10
320.58267349707216
 20
130.80390195467751
 11
317.49698349707216
 21
129.88242395467751
  0
LINE
  8
_0-2_____1
  6
破線
 62
    4
 10
317.53605349707215
 20
128.15939395467751
 11
317.53579349707218
 21
128.21805495467751
  0
LINE
  8
_0-2_____1
  6
破線
 62
    4
 10
317.53579349707218
 20
128.21805495467751
 11
317.52648349707215
 21
128.27368395467749
  0
LINE
  8
_0-2_____1
  6
破線
 62
    4
 10
317.52648349707215
 20
128.27368395467749
 11
317.50903249707216
 21
128.32083595467753
  0
LINE
  8
_0-2_____1
  6
破線
 62
    4
 10
317.50903249707216
 20
128.32083595467753
 11
317.4851514970722
 21
128.35489495467752
  0
LINE
  8
_0-2_____1
  6
破線
 62
    4
 10
317.4851514970722
 20
128.35489495467752
 11
317.45717649707217
 21
128.37252795467751
  0
LINE
  8
_0-2_____1
  6
破線
 62
    4
 10
317.45717649707217
 20
128.37252795467751
 11
317.44333149707217
 21
128.37458395467752
  0
ARC
  8
_0-2_____1
  6
破線
 62
    4
 10
322.13083149707217
 20
127.87458395467752
 40
0.6250000000167964
 50
270
 51
0
  0
ARC
  8
_0-2_____1
  6
破線
 62
    4
 10
320.73892349707216
 20
127.34333395467752
 40
0.1562500000140403
 50
0
 51
180
  0
LINE
  8
_0-2_____1
  6
破線
 62
    4
 10
320.89517349707216
 20
127.28708395467751
 11
320.89517349707216
 21
127.34333395467752
  0
LINE
  8
_0-2_____1
  6
破線
 62
    4
 10
320.53444349707217
 20
127.26398695467752
 11
317.53605349707215
 21
128.15939395467751
  0
LINE
  8
_0-2_____1
  6
破線
 62
    4
 10
317.44333149707217
 20
129.87458395467752
 11
317.44333149707217
 21
128.37458395467752
  0
LINE
  8
_0-2_____1
  6
破線
 62
    4
 10
322.75583149707217
 20
130.37458395467752
 11
322.75583149707217
 21
127.87458395467752
  0
LINE
  8
_0-2_____1
  6
破線
 62
    4
 10
317.44333149707217
 20
128.37458395467752
 11
310.25583149707217
 21
128.37458395467752
  0
LINE
  8
_0-2_____1
  6
破線
 62
    4
 10
317.25583149707217
 20
128.18708395467752
 11
310.25583149707217
 21
128.18708395467752
  0
LINE
  8
_0-2_____1
  6
破線
 62
    4
 10
320.58267349707216
 20
127.44526595467751
 11
317.49698349707216
 21
128.36674395467753
  0
LINE
  8
_0-2_____1
  6
破線
 62
    4
 10
310.25583149707217
 20
129.87458395467752
 11
317.44333149707217
 21
129.87458395467752
  0
LINE
  8
_0-2_____1
  6
破線
 62
    4
 10
310.25583149707217
 20
130.06208395467752
 11
317.25583149707217
 21
130.06208395467752
  0
ARC
  8
_0-2_____1
  6
破線
 62
    4
 10
320.93267349707207
 20
130.96208395467752
 40
0.0375000007380935
 50
90
 51
180
  0
ARC
  8
_0-2_____1
  6
破線
 62
    4
 10
322.13083149707217
 20
130.37458395467752
 40
0.6250000000440982
 50
0
 51
90
  0
LINE
  8
_0-2_____1
  6
破線
 62
    4
 10
320.53444349707217
 20
130.9851809546775
 11
317.53605349707215
 21
130.08977295467753
  0
ARC
  8
_0-2_____1
  6
破線
 62
    4
 10
320.5451734970722
 20
130.9492489546775
 40
0.0374999994302228
 50
0
 51
106.62717499999998
  0
LINE
  8
_0-2_____1
  6
破線
 62
    4
 10
320.93267349707207
 20
130.99958395467752
 11
322.13083149707217
 21
130.99958395467752
  0
LINE
  8
_0-2_____1
  6
破線
 62
    4
 10
320.89517349707216
 20
130.96208395467752
 11
320.89517349707216
 21
130.90583395467752
  0
ARC
  8
_0-2_____1
  6
破線
 62
    4
 10
320.93267349707207
 20
127.28708395467751
 40
0.0374999998694472
 50
180
 51
270
  0
LINE
  8
_0-2_____1
  6
破線
 62
    4
 10
322.13083149707217
 20
127.24958395467752
 11
320.93267349707207
 21
127.24958395467752
  0
ARC
  8
_0-2_____1
  6
破線
 62
    4
 10
320.5451734970722
 20
127.29991895467751
 40
0.0375000002611151
 50
253.37279699999996
 51
359.99999999999994
  0
ARC
  8
_0-2_____1
  6
破線
 62
    4
 10
317.44333149707217
 20
130.06208395467752
 40
0.1875000000832741
 50
180
 51
270
  0
LINE
  8
_0-2_____1
  6
破線
 62
    4
 10
317.53605349707215
 20
130.08977295467753
 11
317.53579349707218
 21
130.03111295467752
  0
LINE
  8
_0-2_____1
  6
破線
 62
    4
 10
317.53579349707218
 20
130.03111295467752
 11
317.52648349707215
 21
129.97548395467751
  0
LINE
  8
_0-2_____1
  6
破線
 62
    4
 10
317.52648349707215
 20
129.97548395467751
 11
317.50903249707216
 21
129.9283319546775
  0
LINE
  8
_0-2_____1
  6
破線
 62
    4
 10
317.50903249707216
 20
129.9283319546775
 11
317.4851514970722
 21
129.89427295467752
  0
LINE
  8
_0-2_____1
  6
破線
 62
    4
 10
317.4851514970722
 20
129.89427295467752
 11
317.45717649707217
 21
129.8766399546775
  0
LINE
  8
_0-2_____1
  6
破線
 62
    4
 10
317.45717649707217
 20
129.8766399546775
 11
317.44333149707217
 21
129.87458395467752
  0
ARC
  8
_0-2_____1
  6
破線
 62
    4
 10
317.44333149707217
 20
128.18708395467752
 40
0.1875000000851231
 50
90
 51
180
  0
ARC
  8
_0-2_____1
  6
破線
 62
    4
 10
320.73892349707216
 20
130.90583395467752
 40
0.1562499999858459
 50
180
 51
0
  0
LINE
  8
_0-2_____1
  6
破線
 62
    4
 10
320.58267349707216
 20
130.9492489546775
 11
320.58267349707216
 21
127.29991895467751
  0
LINE
  8
_0-2_____1
  6
CONTINUOUS
 62
    4
 10
372.56833149707217
 20
206.87458395467752
 11
349.81833149707217
 21
184.12458395467752
  0
ARC
  8
_0-2_____1
  6
破線
 62
    3
 10
355.25583149707217
 20
176.62458395467752
 40
0.7500000000102886
 50
0
 51
180
  0
LINE
  8
_0-2_____1
  6
破線
 62
    3
 10
354.50583149707217
 20
176.62458395467752
 11
354.50583149707217
 21
174.99958395467752
  0
ARC
  8
_0-2_____1
  6
破線
 62
    3
 10
355.25583149707217
 20
174.99958395467752
 40
0.7500000000091233
 50
180
 51
0
  0
LINE
  8
_0-2_____1
  6
破線
 62
    3
 10
356.00583149707217
 20
176.62458395467752
 11
356.00583149707217
 21
174.99958395467752
  0
LINE
  8
_0-2_____1
  6
破線
 62
    3
 10
355.25583149707217
 20
175.56208395467752
 11
355.25583149707217
 21
176.06208395467752
  0
LINE
  8
_0-2_____1
  6
破線
 62
    3
 10
355.00583149707217
 20
175.81208395467752
 11
355.50583149707217
 21
175.81208395467752
  0
LINE
  8
_0-2_____1
  6
破線
 62
    3
 10
357.28961849707218
 20
172.68708395467752
 11
357.28961849707218
 21
178.93708395467752
  0
LINE
  8
_0-2_____1
  6
破線
 62
    3
 10
357.86037249707215
 20
178.93708395467752
 11
357.86037249707215
 21
172.68708395467752
  0
LINE
  8
_0-2_____1
  6
破線
 62
    3
 10
353.44333149707217
 20
178.93708395467752
 11
360.31844949707215
 21
178.93708395467752
  0
LINE
  8
_0-2_____1
  6
破線
 62
    3
 10
360.31844949707215
 20
178.93708395467752
 11
360.31844949707215
 21
172.68708395467752
  0
LINE
  8
_0-2_____1
  6
破線
 62
    3
 10
353.44333149707217
 20
172.68708395467752
 11
360.31844949707215
 21
172.68708395467752
  0
ARC
  8
_0-2_____1
  6
破線
 62
    3
 10
353.44333149707217
 20
178.56208395467752
 40
0.3750000001011319
 50
90
 51
180
  0
ARC
  8
_0-2_____1
  6
破線
 62
    3
 10
353.44333149707217
 20
173.06208395467752
 40
0.3749999999664205
 50
180
 51
270
  0
LINE
  8
_0-2_____1
  6
破線
 62
    3
 10
353.06833149707217
 20
173.06208395467752
 11
353.06833149707217
 21
178.56208395467752
  0
LINE
  8
_0-2_____1
  6
破線
 62
    3
 10
358.00745849707215
 20
178.93708395467752
 11
358.00745849707215
 21
172.68708395467752
  0
LINE
  8
_0-2_____1
  6
破線
 62
    4
 10
347.75583149707217
 20
182.06208395467752
 11
310.25583149707217
 21
182.06208395467752
  0
LINE
  8
_0-2_____1
  6
破線
 62
    4
 10
348.75583149707217
 20
183.06208395467752
 11
339.62454549707218
 21
183.06208395467752
  0
LINE
  8
_0-2_____1
  6
破線
 62
    4
 10
331.38715949707216
 20
183.06208395467752
 11
310.25583149707217
 21
183.06208395467752
  0
LINE
  8
_0-2_____1
  6
破線
 62
    4
 10
349.81833149707217
 20
184.12458395467752
 11
347.75583149707217
 21
182.06208395467752
  0
LINE
  8
_0-2_____1
  6
CONTINUOUS
 62
    4
 10
372.75583149707217
 20
207.06208395467752
 11
372.75583149707217
 21
206.87458395467752
  0
LINE
  8
_0-2_____1
  6
CONTINUOUS
 62
    4
 10
372.75583149707217
 20
206.87458395467752
 11
372.56833149707217
 21
206.87458395467752
  0
LINE
  8
_0-2_____1
  6
CONTINUOUS
 62
    4
 10
372.75583149707217
 20
206.87458395467752
 11
372.56833149707217
 21
206.87458395467752
  0
ARC
  8
_0-2_____1
  6
CONTINUOUS
 62
    4
 10
90.90660549707215
 20
206.25724895467752
 40
0.1874999999997855
 50
180.06994
 51
270.06993999999997
  0
LINE
  8
_0-2_____1
  6
CONTINUOUS
 62
    4
 10
90.900113497072169
 20
211.57551295467752
 11
90.90660549707215
 21
206.25724895467752
  0
LINE
  8
_0-2_____1
  6
CONTINUOUS
 62
    4
 10
69.406463497072195
 20
195.29691295467751
 11
69.406463497072195
 21
196.35941295467751
  0
LINE
  8
_0-2_____1
  6
CONTINUOUS
 62
    4
 10
69.218963497072195
 20
195.29691295467751
 11
69.218963497072195
 21
201.20569995467753
  0
LINE
  8
_0-2_____1
  6
CONTINUOUS
 62
    4
 10
69.218963497072195
 20
196.35941295467751
 11
69.406463497072195
 21
196.35941295467751
  0
ARC
  8
_0-2_____1
  6
CONTINUOUS
 62
    4
 10
69.218963497072195
 20
201.20569995467753
 40
0.1875000000002232
 50
101.309932
 51
180
  0
LINE
  8
_0-2_____1
  6
CONTINUOUS
 62
    4
 10
69.031463497072195
 20
195.29691295467751
 11
69.031463497072195
 21
201.20569995467753
  0
ARC
  8
_0-2_____1
  6
CONTINUOUS
 62
    4
 10
69.218963497072195
 20
195.29691295467751
 40
0.1875000000000033
 50
180.000011
 51
0
  0
LINE
  8
_0-2_____1
  6
CONTINUOUS
 62
    4
 10
93.034407497072166
 20
211.64066295467751
 11
92.906463497072167
 21
211.64066295467751
  0
LINE
  8
_0-2_____1
  6
CONTINUOUS
 62
    4
 10
93.022517497072158
 20
210.89066295467751
 11
92.906463497072167
 21
210.89066295467751
  0
ARC
  8
_0-2_____1
  6
CONTINUOUS
 62
    4
 10
92.906463497072167
 20
211.01566295467751
 40
0.125
 50
180
 51
270
  0
LINE
  8
_0-2_____1
  6
CONTINUOUS
 62
    4
 10
92.781463497072167
 20
211.01566295467751
 11
92.781463497072167
 21
211.51566295467751
  0
ARC
  8
_0-2_____1
  6
CONTINUOUS
 62
    4
 10
92.906463497072167
 20
211.51566295467751
 40
0.125
 50
90
 51
180
  0
ARC
  8
_0-2_____1
  6
CONTINUOUS
 62
    4
 10
90.900113497072169
 20
211.57551295467752
 40
0.1875000000003345
 50
91.859850999999992
 51
180.06993999999997
  0
LINE
  8
_0-2_____1
  6
CONTINUOUS
 62
    4
 10
91.09280849707217
 20
207.31997695467751
 11
91.094105497072135
 21
206.25747795467751
  0
LINE
  8
_0-2_____1
  6
CONTINUOUS
 62
    4
 10
90.712614497072138
 20
211.5752839546775
 11
90.71910649707219
 21
206.2570199546775
  0
ARC
  8
_0-2_____1
  6
CONTINUOUS
 62
    4
 10
90.90660549707215
 20
206.25724895467752
 40
0.1875000000000129
 50
270.06993999999997
 51
0.0699399999999619
  0
LINE
  8
_0-2_____1
  6
CONTINUOUS
 62
    4
 10
93.031463497072195
 20
211.16566295467752
 11
93.031463497072195
 21
211.3656629546775
  0
LINE
  8
_0-2_____1
  6
CONTINUOUS
 62
    4
 10
69.218963497072195
 20
201.20569995467753
 11
87.800029497072146
 21
204.92191295467751
  0
LINE
  8
_0-2_____1
  6
CONTINUOUS
 62
    4
 10
69.182191497072154
 20
201.38955895467751
 11
87.763258497072172
 21
205.10577195467752
  0
LINE
  8
_0-2_____1
  6
CONTINUOUS
 62
    4
 10
69.031463497072195
 20
195.29691295467751
 11
69.031463497072195
 21
201.20569995467753
  0
LINE
  8
_0-2_____1
  6
CONTINUOUS
 62
    4
 10
103.40646349707217
 20
203.47314295467751
 11
97.156463497072167
 21
203.47314295467751
  0
LINE
  8
_0-2_____1
  6
CONTINUOUS
 62
    4
 10
103.40646349707217
 20
203.65700195467753
 11
97.156463497072167
 21
203.65700195467753
  0
LINE
  8
_0-2_____1
  6
CONTINUOUS
 62
    4
 10
97.156463497072167
 20
204.14729195467751
 11
103.40646349707217
 21
204.14729195467751
  0
LINE
  8
_0-2_____1
  6
CONTINUOUS
 62
    4
 10
97.156463497072167
 20
201.10604495467751
 11
97.156463497072167
 21
204.14729195467751
  0
LINE
  8
_0-2_____1
  6
CONTINUOUS
 62
    4
 10
103.40646349707217
 20
204.14729195467751
 11
103.40646349707217
 21
201.10604495467751
  0
LINE
  8
_0-2_____1
  6
CONTINUOUS
 62
    4
 10
90.900113497072169
 20
211.57551295467752
 11
130.71106549707218
 21
212.86825095467751
  0
LINE
  8
_0-2_____1
  6
CONTINUOUS
 62
    4
 10
90.894028497072171
 20
211.76291395467751
 11
130.71083649707217
 21
213.0558429546775
  0
LINE
  8
_0-2_____1
  6
CONTINUOUS
 62
    4
 10
103.59404249707217
 20
211.34203195467751
 11
96.781548497072166
 21
211.33354495467751
  0
LINE
  8
_0-2_____1
  6
CONTINUOUS
 62
    4
 10
103.59427649707217
 20
211.15453195467751
 11
96.781781497072174
 21
211.14604495467751
  0
LINE
  8
_0-2_____1
  6
CONTINUOUS
 62
    4
 10
103.59397749707217
 20
211.39438995467751
 11
103.56353749707218
 21
211.40449395467752
  0
LINE
  8
_0-2_____1
  6
CONTINUOUS
 62
    4
 10
103.59427649707217
 20
211.15453195467751
 11
103.59373149707217
 21
211.59203195467751
  0
LINE
  8
_0-2_____1
  6
CONTINUOUS
 62
    4
 10
96.781470497072178
 20
211.39604495467751
 11
96.593970497072178
 21
211.3958109546775
  0
LINE
  8
_0-2_____1
  6
CONTINUOUS
 62
    4
 10
105.34427549707218
 20
211.15671295467752
 11
104.31384849707217
 21
211.15542895467752
  0
LINE
  8
_0-2_____1
  6
CONTINUOUS
 62
    4
 10
105.34427549707218
 20
211.15671295467752
 11
105.34404149707217
 21
211.34421195467752
  0
LINE
  8
_0-2_____1
  6
CONTINUOUS
 62
    4
 10
105.34404149707217
 20
211.34421195467752
 11
104.34404249707217
 21
211.34296695467751
  0
LINE
  8
_0-2_____1
  6
CONTINUOUS
 62
    4
 10
104.34404249707217
 20
211.34296695467751
 11
103.59373149707217
 21
211.59203195467751
  0
LINE
  8
_0-2_____1
  6
CONTINUOUS
 62
    4
 10
104.31384849707217
 20
211.15542895467752
 11
103.59397749707217
 21
211.39438995467751
  0
LINE
  8
_0-2_____1
  6
CONTINUOUS
 62
    4
 10
103.56353749707218
 20
211.40449395467752
 11
96.781470497072178
 21
211.39604495467751
  0
ARC
  8
_0-2_____1
  6
CONTINUOUS
 62
    4
 10
96.593970497072178
 20
211.3958109546775
 40
0.1875000000002265
 50
90.071430000000007
 51
180.071382
  0
LINE
  8
_0-2_____1
  6
CONTINUOUS
 62
    4
 10
96.40997449707217
 20
208.58307995467752
 11
96.406470497072178
 21
211.39557795467752
  0
LINE
  8
_0-2_____1
  6
CONTINUOUS
 62
    4
 10
96.593970497072178
 20
211.3958109546775
 11
96.597863497072169
 21
208.27081395467752
  0
LINE
  8
_0-2_____1
  6
CONTINUOUS
 62
    4
 10
96.59747449707217
 20
208.58331295467752
 11
96.40997449707217
 21
208.58307995467752
  0
LINE
  8
_0-2_____1
  6
CONTINUOUS
 62
    4
 10
96.594998497072154
 20
210.57081195467751
 11
96.407498497072169
 21
210.5705779546775
  0
LINE
  8
_0-2_____1
  6
CONTINUOUS
 62
    4
 10
96.596586497072167
 20
209.2958129546775
 11
96.409086497072167
 21
209.29557895467752
  0
LINE
  8
_0-2_____1
  6
CONTINUOUS
 62
    4
 10
105.41059049707216
 20
208.09429295467751
 11
105.40622949707218
 21
211.59428995467752
  0
LINE
  8
_0-2_____1
  6
CONTINUOUS
 62
    4
 10
105.59785649707217
 20
208.28202595467752
 11
105.59396349707217
 21
211.40702395467753
  0
LINE
  8
_0-2_____1
  6
CONTINUOUS
 62
    4
 10
96.782015497072166
 20
210.95854495467751
 11
96.594515497072166
 21
210.95831195467753
  0
LINE
  8
_0-2_____1
  6
CONTINUOUS
 62
    4
 10
96.785597497072175
 20
208.0835469546775
 11
105.41059049707216
 21
208.09429295467751
  0
ARC
  8
_0-2_____1
  6
CONTINUOUS
 62
    4
 10
96.785363497072154
 20
208.2710469546775
 40
0.1874999999999983
 50
180.07138200000003
 51
270.07138200000003
  0
LINE
  8
_0-2_____1
  6
CONTINUOUS
 62
    4
 10
96.781236497072157
 20
211.58354495467751
 11
96.785597497072175
 21
208.0835469546775
  0
ARC
  8
_0-2_____1
  6
CONTINUOUS
 62
    4
 10
105.41035649707217
 20
208.28179295467751
 40
0.1874999999995443
 50
270.07138200000003
 51
0.0713820000000149
  0
ARC
  8
_0-2_____1
  6
CONTINUOUS
 62
    4
 10
105.40646349707217
 20
211.40678995467752
 40
0.1875000000004538
 50
0.071382
 51
90.071381999999986
  0
LINE
  8
_0-2_____1
  6
CONTINUOUS
 62
    4
 10
99.836136497072175
 20
210.8123499546775
 11
99.782199497072185
 21
210.81228295467753
  0
ARC
  8
_0-2_____1
  6
CONTINUOUS
 62
    4
 10
99.836291497072168
 20
210.6873499546775
 40
0.1249999999996745
 50
30.834100999999997
 51
90.071381999999971
  0
LINE
  8
_0-2_____1
  6
CONTINUOUS
 62
    4
 10
97.220091497072175
 20
210.49659095467752
 11
97.095091497072147
 21
210.49643495467751
  0
LINE
  8
_0-2_____1
  6
CONTINUOUS
 62
    4
 10
94.407982497072169
 20
210.18058695467752
 11
94.408605497072159
 21
209.68058695467752
  0
LINE
  8
_0-2_____1
  6
CONTINUOUS
 62
    4
 10
94.78407249707216
 20
209.30605495467751
 11
94.782515497072154
 21
210.55605395467751
  0
LINE
  8
_0-2_____1
  6
CONTINUOUS
 62
    4
 10
94.407982497072169
 20
210.18058695467752
 11
94.782515497072154
 21
210.55605395467751
  0
LINE
  8
_0-2_____1
  6
CONTINUOUS
 62
    4
 10
94.408605497072159
 20
209.68058695467752
 11
94.78407249707216
 21
209.30605495467751
  0
LINE
  8
_0-2_____1
  6
CONTINUOUS
 62
    4
 10
95.345014497072171
 20
210.5567549546775
 11
94.782515497072154
 21
210.55605395467751
  0
LINE
  8
_0-2_____1
  6
CONTINUOUS
 62
    4
 10
94.78407249707216
 20
209.30605495467751
 11
95.346572497072174
 21
209.30675595467753
  0
LINE
  8
_0-2_____1
  6
CONTINUOUS
 62
    4
 10
95.346572497072174
 20
209.30675595467753
 11
96.409071497072176
 21
209.30807895467751
  0
LINE
  8
_0-2_____1
  6
CONTINUOUS
 62
    4
 10
96.407513497072173
 20
210.55807795467751
 11
95.345014497072171
 21
210.5567549546775
  0
LINE
  8
_0-2_____1
  6
CONTINUOUS
 62
    4
 10
100.20272849707219
 20
210.31735495467751
 11
99.943623497072181
 21
210.75141895467752
  0
ARC
  8
_0-2_____1
  6
CONTINUOUS
 62
    4
 10
100.09539649707217
 20
210.25328595467752
 40
0.1249999999997152
 50
0.071411
 51
30.834078000000002
  0
LINE
  8
_0-2_____1
  6
CONTINUOUS
 62
    4
 10
100.22039649707219
 20
210.2534409546775
 11
100.22118249707218
 21
209.62241995467753
  0
LINE
  8
_0-2_____1
  6
CONTINUOUS
 62
    4
 10
100.20368549707217
 20
209.55848195467752
 11
99.945648497072185
 21
209.12356895467752
  0
ARC
  8
_0-2_____1
  6
CONTINUOUS
 62
    4
 10
100.09618249707218
 20
209.62226395467752
 40
0.1249999999998362
 50
329.31911500000001
 51
0.0712930000000256
  0
LINE
  8
_0-2_____1
  6
CONTINUOUS
 62
    4
 10
97.221570497072165
 20
209.30909195467751
 11
99.78406849707217
 21
209.31228395467753
  0
LINE
  8
_0-2_____1
  6
CONTINUOUS
 62
    4
 10
99.838301497072166
 20
209.06235095467753
 11
99.784380497072178
 21
209.06228395467753
  0
LINE
  8
_0-2_____1
  6
CONTINUOUS
 62
    4
 10
97.096492497072177
 20
209.37143595467751
 11
97.221492497072177
 21
209.37159195467751
  0
LINE
  8
_0-2_____1
  6
CONTINUOUS
 62
    4
 10
99.907227497072185
 20
210.7902729546775
 11
99.909352497072177
 21
209.0846159546775
  0
LINE
  8
_0-2_____1
  6
CONTINUOUS
 62
    4
 10
97.221570497072165
 20
209.30909195467751
 11
97.220013497072173
 21
210.55909095467752
  0
LINE
  8
_0-2_____1
  6
CONTINUOUS
 62
    4
 10
97.095013497072159
 20
210.55893495467751
 11
97.096570497072165
 21
209.30893595467751
  0
LINE
  8
_0-2_____1
  6
CONTINUOUS
 62
    4
 10
99.782199497072185
 20
210.81228295467753
 11
99.784380497072178
 21
209.06228395467753
  0
LINE
  8
_0-2_____1
  6
CONTINUOUS
 62
    4
 10
99.782511497072164
 20
210.56228295467753
 11
97.220013497072173
 21
210.55909095467752
  0
LINE
  8
_0-2_____1
  6
CONTINUOUS
 62
    4
 10
96.409071497072176
 20
209.30807895467751
 11
97.096570497072165
 21
209.30893595467751
  0
LINE
  8
_0-2_____1
  6
CONTINUOUS
 62
    4
 10
97.095013497072159
 20
210.55893495467751
 11
96.407513497072173
 21
210.55807795467751
  0
LINE
  8
_0-2_____1
  6
CONTINUOUS
 62
    4
 10
99.297508497072187
 20
209.21637495467752
 11
99.226983497072169
 21
210.64128895467752
  0
ARC
  8
_0-2_____1
  6
CONTINUOUS
 62
    4
 10
99.334178497072187
 20
209.22422295467751
 40
0.0374999999995708
 50
168.06262699999999
 51
348.06253599999997
  0
LINE
  8
_0-2_____1
  6
CONTINUOUS
 62
    4
 10
99.364463497072194
 20
210.65706495467751
 11
99.297488497072166
 21
209.23197995467751
  0
ARC
  8
_0-2_____1
  6
CONTINUOUS
 62
    4
 10
99.401152497072175
 20
210.64930795467751
 40
0.0375000000003564
 50
12.080303000000001
 51
192.08030299999999
  0
ARC
  8
_0-2_____1
  6
CONTINUOUS
 62
    4
 10
99.471677497072164
 20
209.22439495467751
 40
0.0374999999995708
 50
168.06262699999999
 51
348.06253599999997
  0
LINE
  8
_0-2_____1
  6
CONTINUOUS
 62
    4
 10
99.435008497072175
 20
209.21654695467751
 11
99.364483497072172
 21
210.64145995467752
  0
ARC
  8
_0-2_____1
  6
CONTINUOUS
 62
    4
 10
99.538652497072178
 20
210.64947895467751
 40
0.0375000000001085
 50
348.06238400000001
 51
168.06259199999997
  0
LINE
  8
_0-2_____1
  6
CONTINUOUS
 62
    4
 10
99.501963497072197
 20
210.6572359546775
 11
99.434988497072197
 21
209.23215095467751
  0
LINE
  8
_0-2_____1
  6
CONTINUOUS
 62
    4
 10
99.575341497072174
 20
210.6417229546775
 11
99.508366497072174
 21
209.21663795467751
  0
ARC
  8
_0-2_____1
  6
CONTINUOUS
 62
    4
 10
99.609177497072167
 20
209.2245659546775
 40
0.0374999999999987
 50
168.06262699999999
 51
348.06253599999997
  0
LINE
  8
_0-2_____1
  6
CONTINUOUS
 62
    4
 10
99.639463497072171
 20
210.65740695467753
 11
99.572488497072172
 21
209.23232295467753
  0
ARC
  8
_0-2_____1
  6
CONTINUOUS
 62
    4
 10
99.676152497072167
 20
210.64965095467753
 40
0.0374999999997615
 50
348.06246099999998
 51
168.06246100000001
  0
LINE
  8
_0-2_____1
  6
CONTINUOUS
 62
    4
 10
99.712841497072176
 20
210.64189395467753
 11
99.645866497072177
 21
209.2168089546775
  0
LINE
  8
_0-2_____1
  6
CONTINUOUS
 62
    4
 10
99.707402497072167
 20
210.64968995467751
 11
99.709177497072176
 21
209.22469095467753
  0
ARC
  8
_0-2_____1
  6
CONTINUOUS
 62
    4
 10
99.746677497072156
 20
209.22473695467752
 40
0.0375000000004541
 50
180.07138200000003
 51
0.0713820000000149
  0
ARC
  8
_0-2_____1
  6
CONTINUOUS
 62
    4
 10
99.744902497072175
 20
210.64973595467751
 40
0.0375000000000001
 50
0.071382
 51
180.071382
  0
LINE
  8
_0-2_____1
  6
CONTINUOUS
 62
    4
 10
99.598642497072177
 20
209.78881495467752
 11
99.575322497072165
 21
210.6573269546775
  0
LINE
  8
_0-2_____1
  6
CONTINUOUS
 62
    4
 10
99.572508497072164
 20
209.21671795467751
 11
99.549188497072166
 21
210.08523095467751
  0
LINE
  8
_0-2_____1
  6
CONTINUOUS
 62
    4
 10
99.710008497072181
 20
209.2168889546775
 11
99.686688497072169
 21
210.08540195467751
  0
LINE
  8
_0-2_____1
  6
CONTINUOUS
 62
    4
 10
99.461142497072174
 20
209.78864395467753
 11
99.437822497072176
 21
210.65715595467751
  0
LINE
  8
_0-2_____1
  6
CONTINUOUS
 62
    4
 10
99.392022497072176
 20
210.08503495467752
 11
99.370867497072169
 21
209.21646695467751
  0
LINE
  8
_0-2_____1
  6
CONTINUOUS
 62
    4
 10
99.323642497072171
 20
209.7884719546775
 11
99.300322497072187
 21
210.65698495467751
  0
LINE
  8
_0-2_____1
  6
CONTINUOUS
 62
    4
 10
99.254523497072171
 20
210.0848639546775
 11
99.233367497072166
 21
209.21629595467752
  0
ARC
  8
_0-2_____1
  6
CONTINUOUS
 62
    4
 10
99.196678497072185
 20
209.22405195467752
 40
0.0374999999996578
 50
180.07138200000003
 51
0.0713820000000149
  0
ARC
  8
_0-2_____1
  6
CONTINUOUS
 62
    4
 10
99.194902497072178
 20
210.64905095467751
 40
0.037499999999772
 50
0.071382
 51
180.071382
  0
LINE
  8
_0-2_____1
  6
CONTINUOUS
 62
    4
 10
99.234178497072165
 20
209.22409895467752
 11
99.232402497072172
 21
210.6490979546775
  0
ARC
  8
_0-2_____1
  6
CONTINUOUS
 62
    4
 10
99.263652497072187
 20
210.64913695467752
 40
0.0375000000001341
 50
12.080303000000001
 51
192.08030299999999
  0
ARC
  8
_0-2_____1
  6
CONTINUOUS
 62
    4
 10
99.838145497072176
 20
209.18735095467753
 40
0.1249999999995066
 50
270.07138200000003
 51
329.31904500000002
  0
LINE
  8
_0-2_____1
  6
一点鎖線
 62
    3
 10
103.34878849707218
 20
207.53300695467752
 11
103.34427649707217
 21
211.15422095467753
  0
ARC
  8
_0-2_____1
  6
CONTINUOUS
 62
    4
 10
96.607156497072168
 20
209.93332695467751
 40
0.6261675561357432
 50
108.588534
 51
150.13304299999996
  0
LINE
  8
_0-2_____1
  6
CONTINUOUS
 62
    4
 10
96.064932497072178
 20
209.62015095467751
 11
96.064153497072169
 21
210.24514995467752
  0
ARC
  8
_0-2_____1
  6
CONTINUOUS
 62
    4
 10
96.607156497072168
 20
209.93332695467751
 40
0.6261675561360312
 50
210.00971999999999
 51
251.55422999999999
  0
LINE
  8
_0-2_____1
  6
CONTINUOUS
 62
    4
 10
97.408618497072155
 20
209.6718249546775
 11
97.358681497072155
 21
209.62176295467751
  0
LINE
  8
_0-2_____1
  6
CONTINUOUS
 62
    4
 10
97.407964497072186
 20
210.19682395467751
 11
97.357902497072146
 21
210.24676195467751
  0
LINE
  8
_0-2_____1
  6
CONTINUOUS
 62
    4
 10
97.358681497072155
 20
209.62176295467751
 11
97.357902497072146
 21
210.24676195467751
  0
LINE
  8
_0-2_____1
  6
CONTINUOUS
 62
    4
 10
97.358681497072155
 20
209.62176295467751
 11
96.408681497072166
 21
209.62057895467751
  0
LINE
  8
_0-2_____1
  6
CONTINUOUS
 62
    4
 10
97.357902497072146
 20
210.24676195467751
 11
96.407903497072155
 21
210.24557895467751
  0
LINE
  8
_0-2_____1
  6
CONTINUOUS
 62
    4
 10
97.407964497072186
 20
210.19682395467751
 11
96.407965497072169
 21
210.1955789546775
  0
LINE
  8
_0-2_____1
  6
CONTINUOUS
 62
    4
 10
97.407964497072186
 20
210.19682395467751
 11
97.408618497072155
 21
209.6718249546775
  0
LINE
  8
_0-2_____1
  6
CONTINUOUS
 62
    4
 10
97.408618497072155
 20
209.6718249546775
 11
96.408619497072166
 21
209.67057895467752
  0
LINE
  8
_0-2_____1
  6
CONTINUOUS
 62
    4
 10
97.209693497072166
 20
208.80907595467752
 11
97.206890497072166
 21
211.05907495467753
  0
LINE
  8
_0-2_____1
  6
CONTINUOUS
 62
    4
 10
97.206890497072166
 20
211.05907495467753
 11
97.106890497072172
 21
211.0589499546775
  0
LINE
  8
_0-2_____1
  6
CONTINUOUS
 62
    4
 10
97.106890497072172
 20
211.0589499546775
 11
97.109693497072172
 21
208.80895195467753
  0
LINE
  8
_0-2_____1
  6
CONTINUOUS
 62
    4
 10
97.209693497072166
 20
208.80907595467752
 11
97.109693497072172
 21
208.80895195467753
  0
LINE
  8
_0-2_____1
  6
CONTINUOUS
 62
    4
 10
104.84594149707218
 20
209.81859095467752
 11
104.84563049707216
 21
210.06859095467752
  0
LINE
  8
_0-2_____1
  6
CONTINUOUS
 62
    4
 10
104.84563049707216
 20
210.06859095467752
 11
100.22063349707219
 21
210.06282895467751
  0
LINE
  8
_0-2_____1
  6
CONTINUOUS
 62
    4
 10
100.22094549707217
 20
209.81282895467751
 11
104.84594149707218
 21
209.81859095467752
  0
LINE
  8
_0-2_____1
  6
CONTINUOUS
 62
    4
 10
96.784109497072166
 20
209.27729695467752
 11
96.596610497072177
 21
209.27706295467752
  0
LINE
  8
_0-2_____1
  6
CONTINUOUS
 62
    4
 10
96.782474497072172
 20
210.58979595467753
 11
96.594974497072158
 21
210.58956195467752
  0
LINE
  8
_0-2_____1
  6
CONTINUOUS
 62
    4
 10
104.34396449707216
 20
211.40546695467751
 11
104.34373049707217
 21
211.59296595467751
  0
LINE
  8
_0-2_____1
  6
CONTINUOUS
 62
    4
 10
96.785363497072154
 20
208.2710469546775
 11
105.41035649707217
 21
208.28179295467751
  0
LINE
  8
_0-2_____1
  6
CONTINUOUS
 62
    4
 10
101.95808549707218
 20
208.67527395467752
 11
101.91376149707217
 21
208.66327795467751
  0
LINE
  8
_0-2_____1
  6
CONTINUOUS
 62
    4
 10
101.91376149707217
 20
208.66327795467751
 11
101.86969449707217
 21
208.6503689546775
  0
LINE
  8
_0-2_____1
  6
CONTINUOUS
 62
    4
 10
104.72332449707217
 20
207.90593695467751
 11
104.72309049707216
 21
208.09343595467752
  0
LINE
  8
_0-2_____1
  6
CONTINUOUS
 62
    4
 10
104.34855849707218
 20
207.7179689546775
 11
104.34848049707217
 21
207.7804689546775
  0
LINE
  8
_0-2_____1
  6
CONTINUOUS
 62
    4
 10
102.09848249707217
 20
207.7776659546775
 11
104.59848049707217
 21
207.78078095467751
  0
LINE
  8
_0-2_____1
  6
CONTINUOUS
 62
    4
 10
102.34856049707217
 20
207.71547795467751
 11
104.34855849707218
 21
207.7179689546775
  0
LINE
  8
_0-2_____1
  6
CONTINUOUS
 62
    4
 10
104.72332449707217
 20
207.90593695467751
 11
101.97332649707216
 21
207.90250995467753
  0
LINE
  8
_0-2_____1
  6
CONTINUOUS
 62
    4
 10
101.97332649707216
 20
207.90250995467753
 11
101.97309349707217
 21
208.09000995467753
  0
LINE
  8
_0-2_____1
  6
CONTINUOUS
 62
    4
 10
102.34856049707217
 20
207.71547795467751
 11
102.34848249707217
 21
207.77797795467751
  0
LINE
  8
_0-2_____1
  6
CONTINUOUS
 62
    4
 10
102.16059249707217
 20
208.0902439546775
 11
102.16035949707216
 21
208.2777439546775
  0
LINE
  8
_0-2_____1
  6
CONTINUOUS
 62
    4
 10
104.53559149707218
 20
208.09320295467751
 11
104.53535749707217
 21
208.28070295467751
  0
LINE
  8
_0-2_____1
  6
CONTINUOUS
 62
    4
 10
104.59848049707217
 20
207.78078095467751
 11
104.72332449707217
 21
207.90593695467751
  0
LINE
  8
_0-2_____1
  6
CONTINUOUS
 62
    4
 10
102.09848249707217
 20
207.7776659546775
 11
101.97332649707216
 21
207.90250995467753
  0
LINE
  8
_0-2_____1
  6
CONTINUOUS
 62
    4
 10
101.86969449707217
 20
208.6503689546775
 11
101.82590249707216
 21
208.63655395467751
  0
LINE
  8
_0-2_____1
  6
CONTINUOUS
 62
    4
 10
101.82590249707216
 20
208.63655395467751
 11
101.80381349707217
 21
208.62947095467752
  0
LINE
  8
_0-2_____1
  6
CONTINUOUS
 62
    4
 10
101.80381349707217
 20
208.62947095467752
 11
101.78178449707217
 21
208.62220095467751
  0
LINE
  8
_0-2_____1
  6
CONTINUOUS
 62
    4
 10
101.78178449707217
 20
208.62220095467751
 11
101.75981849707217
 21
208.61474495467752
  0
LINE
  8
_0-2_____1
  6
CONTINUOUS
 62
    4
 10
104.93505749707217
 20
208.61870095467751
 11
104.86884349707218
 21
208.6402379546775
  0
LINE
  8
_0-2_____1
  6
CONTINUOUS
 62
    4
 10
104.86884349707218
 20
208.6402379546775
 11
104.82474049707217
 21
208.65310795467752
  0
LINE
  8
_0-2_____1
  6
CONTINUOUS
 62
    4
 10
104.82474049707217
 20
208.65310795467752
 11
104.78060249707217
 21
208.66585795467751
  0
LINE
  8
_0-2_____1
  6
CONTINUOUS
 62
    4
 10
104.78060249707217
 20
208.66585795467751
 11
104.73642949707217
 21
208.67848695467751
  0
LINE
  8
_0-2_____1
  6
CONTINUOUS
 62
    4
 10
104.73642949707217
 20
208.67848695467751
 11
104.69241949707217
 21
208.6870349546775
  0
LINE
  8
_0-2_____1
  6
CONTINUOUS
 62
    4
 10
104.69241949707217
 20
208.6870349546775
 11
104.64829349707217
 21
208.69496095467753
  0
LINE
  8
_0-2_____1
  6
CONTINUOUS
 62
    4
 10
104.64829349707217
 20
208.69496095467753
 11
104.60405949707217
 21
208.70226295467751
  0
LINE
  8
_0-2_____1
  6
CONTINUOUS
 62
    4
 10
104.60405949707217
 20
208.70226295467751
 11
104.55996449707217
 21
208.70344595467751
  0
LINE
  8
_0-2_____1
  6
CONTINUOUS
 62
    4
 10
104.55996449707217
 20
208.70344595467751
 11
104.51585349707217
 21
208.7034479546775
  0
LINE
  8
_0-2_____1
  6
CONTINUOUS
 62
    4
 10
104.51585349707217
 20
208.7034479546775
 11
104.47175849707217
 21
208.70226995467752
  0
LINE
  8
_0-2_____1
  6
CONTINUOUS
 62
    4
 10
104.47175849707217
 20
208.70226995467752
 11
104.42741849707217
 21
208.69575595467751
  0
LINE
  8
_0-2_____1
  6
CONTINUOUS
 62
    4
 10
104.42741849707217
 20
208.69575595467751
 11
104.38332449707217
 21
208.6877439546775
  0
LINE
  8
_0-2_____1
  6
CONTINUOUS
 62
    4
 10
104.38332449707217
 20
208.6877439546775
 11
104.33952749707217
 21
208.67824495467752
  0
LINE
  8
_0-2_____1
  6
CONTINUOUS
 62
    4
 10
104.33952749707217
 20
208.67824495467752
 11
104.29520249707217
 21
208.66624795467752
  0
LINE
  8
_0-2_____1
  6
CONTINUOUS
 62
    4
 10
104.29520249707217
 20
208.66624795467752
 11
104.25113349707217
 21
208.65333895467751
  0
LINE
  8
_0-2_____1
  6
CONTINUOUS
 62
    4
 10
104.25113349707217
 20
208.65333895467751
 11
104.20734149707216
 21
208.63952295467752
  0
LINE
  8
_0-2_____1
  6
CONTINUOUS
 62
    4
 10
104.20734149707216
 20
208.63952295467752
 11
104.18525149707217
 21
208.63243895467753
  0
LINE
  8
_0-2_____1
  6
CONTINUOUS
 62
    4
 10
104.18525149707217
 20
208.63243895467753
 11
104.16322149707217
 21
208.62516795467752
  0
LINE
  8
_0-2_____1
  6
CONTINUOUS
 62
    4
 10
104.16322149707217
 20
208.62516795467752
 11
104.14125449707217
 21
208.6177119546775
  0
LINE
  8
_0-2_____1
  6
CONTINUOUS
 62
    4
 10
103.47962149707217
 20
208.70094495467751
 11
103.39141849707217
 21
208.70204395467752
  0
LINE
  8
_0-2_____1
  6
CONTINUOUS
 62
    4
 10
103.30320949707217
 20
208.70193395467751
 11
103.21500949707217
 21
208.70061395467752
  0
LINE
  8
_0-2_____1
  6
CONTINUOUS
 62
    4
 10
103.21500949707217
 20
208.70061395467752
 11
103.12668449707218
 21
208.69402195467751
  0
LINE
  8
_0-2_____1
  6
CONTINUOUS
 62
    4
 10
103.12668449707218
 20
208.69402195467751
 11
103.03848149707217
 21
208.68594395467753
  0
LINE
  8
_0-2_____1
  6
CONTINUOUS
 62
    4
 10
103.03848149707217
 20
208.68594395467753
 11
102.95042849707217
 21
208.6763839546775
  0
LINE
  8
_0-2_____1
  6
CONTINUOUS
 62
    4
 10
102.95042849707217
 20
208.6763839546775
 11
102.86210449707217
 21
208.66437995467751
  0
LINE
  8
_0-2_____1
  6
CONTINUOUS
 62
    4
 10
102.86210449707217
 20
208.66437995467751
 11
102.77391349707217
 21
208.65144195467752
  0
LINE
  8
_0-2_____1
  6
CONTINUOUS
 62
    4
 10
102.77391349707217
 20
208.65144195467752
 11
102.68586449707217
 21
208.6375709546775
  0
LINE
  8
_0-2_____1
  6
CONTINUOUS
 62
    4
 10
102.68586449707217
 20
208.6375709546775
 11
102.64173849707217
 21
208.6304899546775
  0
LINE
  8
_0-2_____1
  6
CONTINUOUS
 62
    4
 10
102.64173849707217
 20
208.6304899546775
 11
102.59764549707216
 21
208.62321095467752
  0
LINE
  8
_0-2_____1
  6
CONTINUOUS
 62
    4
 10
102.59764549707216
 20
208.62321095467752
 11
102.55358549707218
 21
208.61573395467752
  0
LINE
  8
_0-2_____1
  6
CONTINUOUS
 62
    4
 10
102.55358549707218
 20
208.61573395467752
 11
102.48737549707216
 21
208.63727195467752
  0
LINE
  8
_0-2_____1
  6
CONTINUOUS
 62
    4
 10
102.48737549707216
 20
208.63727195467752
 11
102.44327549707216
 21
208.6501439546775
  0
LINE
  8
_0-2_____1
  6
CONTINUOUS
 62
    4
 10
102.44327549707216
 20
208.6501439546775
 11
102.39913949707217
 21
208.66289395467751
  0
LINE
  8
_0-2_____1
  6
CONTINUOUS
 62
    4
 10
102.39913949707217
 20
208.66289395467751
 11
102.35496949707218
 21
208.67552295467752
  0
LINE
  8
_0-2_____1
  6
CONTINUOUS
 62
    4
 10
102.35496949707218
 20
208.67552295467752
 11
102.31096149707217
 21
208.68407195467751
  0
LINE
  8
_0-2_____1
  6
CONTINUOUS
 62
    4
 10
102.31096149707217
 20
208.68407195467751
 11
102.26683749707217
 21
208.69199695467751
  0
LINE
  8
_0-2_____1
  6
CONTINUOUS
 62
    4
 10
102.26683749707217
 20
208.69199695467751
 11
102.22260549707217
 21
208.69929795467752
  0
LINE
  8
_0-2_____1
  6
CONTINUOUS
 62
    4
 10
102.22260549707217
 20
208.69929795467752
 11
102.17851249707218
 21
208.70047995467752
  0
LINE
  8
_0-2_____1
  6
CONTINUOUS
 62
    4
 10
102.17851249707218
 20
208.70047995467752
 11
102.13440349707217
 21
208.70048095467752
  0
LINE
  8
_0-2_____1
  6
CONTINUOUS
 62
    4
 10
102.13440349707217
 20
208.70048095467752
 11
102.09031049707217
 21
208.69929995467751
  0
LINE
  8
_0-2_____1
  6
CONTINUOUS
 62
    4
 10
102.09031049707217
 20
208.69929995467751
 11
102.04597349707217
 21
208.69278495467751
  0
LINE
  8
_0-2_____1
  6
CONTINUOUS
 62
    4
 10
102.04597349707217
 20
208.69278495467751
 11
102.00188149707218
 21
208.68477395467752
  0
LINE
  8
_0-2_____1
  6
CONTINUOUS
 62
    4
 10
102.00188149707218
 20
208.68477395467752
 11
101.95808549707218
 21
208.67527395467752
  0
LINE
  8
_0-2_____1
  6
CONTINUOUS
 62
    4
 10
102.96958849707217
 20
210.90375395467751
 11
102.84474449707217
 21
210.77859795467751
  0
LINE
  8
_0-2_____1
  6
CONTINUOUS
 62
    4
 10
103.84474349707217
 20
210.77984395467752
 11
103.71958749707217
 21
210.90468795467751
  0
LINE
  8
_0-2_____1
  6
CONTINUOUS
 62
    4
 10
104.53450149707217
 20
208.96820195467751
 11
104.40934549707217
 21
209.09304595467751
  0
LINE
  8
_0-2_____1
  6
CONTINUOUS
 62
    4
 10
104.40856649707217
 20
209.71804595467751
 11
104.40934549707217
 21
209.09304595467751
  0
LINE
  8
_0-2_____1
  6
CONTINUOUS
 62
    4
 10
102.15950249707217
 20
208.96524295467751
 11
102.28434749707218
 21
209.09039895467751
  0
LINE
  8
_0-2_____1
  6
CONTINUOUS
 62
    4
 10
102.40844349707217
 20
209.81555395467751
 11
102.40856849707217
 21
209.71555395467752
  0
LINE
  8
_0-2_____1
  6
CONTINUOUS
 62
    4
 10
102.40709549707218
 20
210.34055295467752
 11
102.53225149707217
 21
210.21570895467752
  0
LINE
  8
_0-2_____1
  6
CONTINUOUS
 62
    4
 10
102.96958849707217
 20
210.90375395467751
 11
103.71958749707217
 21
210.90468795467751
  0
LINE
  8
_0-2_____1
  6
CONTINUOUS
 62
    4
 10
102.40794549707218
 20
210.21555395467752
 11
104.28294349707217
 21
210.2178899546775
  0
LINE
  8
_0-2_____1
  6
CONTINUOUS
 62
    4
 10
102.53155049707217
 20
210.77820795467753
 11
104.15793749707217
 21
210.78023395467753
  0
LINE
  8
_0-2_____1
  6
CONTINUOUS
 62
    4
 10
102.40670649707216
 20
210.65305295467752
 11
102.40709549707218
 21
210.34055295467752
  0
ARC
  8
_0-2_____1
  6
CONTINUOUS
 62
    4
 10
102.64144749707216
 20
210.49836195467751
 40
0.2825326249999268
 50
236.18700499999989
 51
326.18700200000001
  0
ARC
  8
_0-2_____1
  6
CONTINUOUS
 62
    4
 10
103.34427049707217
 20
211.15942895467751
 40
0.9427083750003887
 50
240.22965699999992
 51
299.91311100000001
  0
ARC
  8
_0-2_____1
  6
CONTINUOUS
 62
    4
 10
103.34591849707218
 20
209.83651395467751
 40
0.9427083749994912
 50
60.229657999999993
 51
119.913107
  0
ARC
  8
_0-2_____1
  6
CONTINUOUS
 62
    4
 10
104.04874049707217
 20
210.49758095467752
 40
0.2825326250003046
 50
56.186912
 51
146.187004
  0
ARC
  8
_0-2_____1
  6
CONTINUOUS
 62
    4
 10
102.64145049707217
 20
210.49582795467751
 40
0.282532624999357
 50
33.955762
 51
123.95575900000003
  0
ARC
  8
_0-2_____1
  6
CONTINUOUS
 62
    4
 10
104.04873749707217
 20
210.50011495467751
 40
0.282532625000294
 50
213.95578200000003
 51
303.95585199999999
  0
LINE
  8
_0-2_____1
  6
CONTINUOUS
 62
    4
 10
104.14125449707217
 20
208.6177119546775
 11
104.00892249707218
 21
208.63921995467751
  0
LINE
  8
_0-2_____1
  6
CONTINUOUS
 62
    4
 10
104.00892249707218
 20
208.63921995467751
 11
103.92072149707217
 21
208.6520689546775
  0
LINE
  8
_0-2_____1
  6
CONTINUOUS
 62
    4
 10
103.92072149707217
 20
208.6520689546775
 11
103.83250149707217
 21
208.66478795467751
  0
LINE
  8
_0-2_____1
  6
CONTINUOUS
 62
    4
 10
103.83250149707217
 20
208.66478795467751
 11
103.74426249707217
 21
208.67737395467751
  0
LINE
  8
_0-2_____1
  6
CONTINUOUS
 62
    4
 10
103.74426249707217
 20
208.67737395467751
 11
103.65610849707217
 21
208.68589395467751
  0
LINE
  8
_0-2_____1
  6
CONTINUOUS
 62
    4
 10
103.65610849707217
 20
208.68589395467751
 11
103.56789349707218
 21
208.69375095467751
  0
LINE
  8
_0-2_____1
  6
CONTINUOUS
 62
    4
 10
103.56789349707218
 20
208.69375095467751
 11
103.47962149707217
 21
208.70094495467751
  0
LINE
  8
_0-2_____1
  6
CONTINUOUS
 62
    4
 10
102.40813249707217
 20
210.06555395467751
 11
102.40794549707218
 21
210.21555395467752
  0
LINE
  8
_0-2_____1
  6
CONTINUOUS
 62
    4
 10
104.28313049707216
 20
210.06788995467753
 11
104.28294349707217
 21
210.2178899546775
  0
LINE
  8
_0-2_____1
  6
CONTINUOUS
 62
    4
 10
104.15793749707217
 20
210.78023395467753
 11
104.28309349707217
 21
210.6553899546775
  0
LINE
  8
_0-2_____1
  6
CONTINUOUS
 62
    4
 10
102.53155049707217
 20
210.77820795467753
 11
102.40670649707216
 21
210.65305295467752
  0
LINE
  8
_0-2_____1
  6
CONTINUOUS
 62
    4
 10
102.87580249707217
 20
210.65363695467752
 11
102.87619249707217
 21
210.34113695467752
  0
LINE
  8
_0-2_____1
  6
CONTINUOUS
 62
    4
 10
103.81399649707217
 20
210.65480595467753
 11
103.81438549707217
 21
210.34230595467753
  0
LINE
  8
_0-2_____1
  6
CONTINUOUS
 62
    4
 10
104.28309349707217
 20
210.6553899546775
 11
104.28348249707217
 21
210.3428899546775
  0
LINE
  8
_0-2_____1
  6
CONTINUOUS
 62
    4
 10
103.71958749707217
 20
210.90468795467751
 11
103.71974349707217
 21
210.77968795467751
  0
LINE
  8
_0-2_____1
  6
CONTINUOUS
 62
    4
 10
102.96958849707217
 20
210.90375395467751
 11
102.96974449707217
 21
210.77875395467751
  0
LINE
  8
_0-2_____1
  6
CONTINUOUS
 62
    4
 10
102.28356849707217
 20
209.71539795467751
 11
102.28434749707218
 21
209.09039895467751
  0
LINE
  8
_0-2_____1
  6
CONTINUOUS
 62
    4
 10
102.28356849707217
 20
209.71539795467751
 11
104.40856649707217
 21
209.71804595467751
  0
LINE
  8
_0-2_____1
  6
CONTINUOUS
 62
    4
 10
104.28344249707217
 20
209.81788995467753
 11
104.28356649707217
 21
209.7178899546775
  0
LINE
  8
_0-2_____1
  6
CONTINUOUS
 62
    4
 10
102.28434749707218
 20
209.09039895467751
 11
102.28483249707217
 21
208.70063595467752
  0
LINE
  8
_0-2_____1
  6
CONTINUOUS
 62
    4
 10
102.15983249707217
 20
208.70047995467752
 11
102.15950249707217
 21
208.96524295467751
  0
LINE
  8
_0-2_____1
  6
CONTINUOUS
 62
    4
 10
104.40934549707217
 20
209.09304595467751
 11
104.40983049707216
 21
208.70328295467752
  0
LINE
  8
_0-2_____1
  6
CONTINUOUS
 62
    4
 10
104.53483049707216
 20
208.70343895467752
 11
104.53450149707217
 21
208.96820195467751
  0
LINE
  8
_0-2_____1
  6
CONTINUOUS
 62
    4
 10
101.75981849707217
 20
208.61474495467752
 11
101.76023849707217
 21
208.27724495467751
  0
LINE
  8
_0-2_____1
  6
CONTINUOUS
 62
    4
 10
104.53484249707218
 20
208.70343895467752
 11
102.15984449707217
 21
208.70047995467752
  0
LINE
  8
_0-2_____1
  6
CONTINUOUS
 62
    4
 10
104.93547749707217
 20
208.2812009546775
 11
104.93505749707217
 21
208.61870095467751
  0
LINE
  8
_0-2_____1
  6
CONTINUOUS
 62
    4
 10
102.40709549707218
 20
210.34055295467752
 11
102.53225149707217
 21
210.21570895467752
  0
LINE
  8
_0-2_____1
  6
CONTINUOUS
 62
    4
 10
104.28348249707217
 20
210.3428899546775
 11
104.15863849707218
 21
210.21773495467752
  0
LINE
  8
_0-2_____1
  6
CONTINUOUS
 62
    4
 10
102.55400549707217
 20
208.27823395467752
 11
102.55358549707218
 21
208.61573395467752
  0
LINE
  8
_0-2_____1
  6
CONTINUOUS
 62
    4
 10
104.14167549707217
 20
208.28021195467753
 11
104.14125449707217
 21
208.6177119546775
  0
LINE
  8
_0-2_____1
  6
CONTINUOUS
 62
    4
 10
98.972628497072165
 20
208.46127195467753
 11
98.969435497072183
 21
211.0237699546775
  0
LINE
  8
_0-2_____1
  6
CONTINUOUS
 62
    4
 10
99.160361497072188
 20
208.27400595467751
 11
99.156935497072169
 21
211.02400395467751
  0
LINE
  8
_0-2_____1
  6
CONTINUOUS
 62
    4
 10
97.285129497072177
 20
208.45916995467752
 11
98.972628497072165
 21
208.46127195467753
  0
LINE
  8
_0-2_____1
  6
CONTINUOUS
 62
    4
 10
98.969435497072183
 20
211.0237699546775
 11
99.156935497072169
 21
211.02400395467751
  0
LINE
  8
_0-2_____1
  6
CONTINUOUS
 62
    4
 10
97.285129497072177
 20
208.45916995467752
 11
97.285363497072211
 21
208.27166995467752
  0
LINE
  8
_0-2_____1
  6
CONTINUOUS
 62
    4
 10
93.657587497072186
 20
211.3656629546775
 11
93.652154497072146
 21
211.45621295467751
  0
ARC
  8
_0-2_____1
  6
CONTINUOUS
 62
    4
 10
93.083221497072174
 20
212.0230849546775
 40
1.134047784465265
 50
266.93157700000006
 51
298.21107900000004
  0
LINE
  8
_0-2_____1
  6
CONTINUOUS
 62
    4
 10
93.657587497072186
 20
211.16566295467752
 11
93.652152497072166
 21
211.0750809546775
  0
ARC
  8
_0-2_____1
  6
CONTINUOUS
 62
    4
 10
93.589764497072167
 20
211.07882395467752
 40
0.0625000000002371
 50
298.21107899999998
 51
356.56637000000001
  0
LINE
  8
_0-2_____1
  6
CONTINUOUS
 62
    4
 10
93.657587497072186
 20
211.16566295467752
 11
93.031463497072195
 21
211.16566295467752
  0
LINE
  8
_0-2_____1
  6
CONTINUOUS
 62
    4
 10
93.843963497072167
 20
206.07333495467751
 11
93.843963497072167
 21
211.17191295467751
  0
LINE
  8
_0-2_____1
  6
CONTINUOUS
 62
    4
 10
93.843963497072167
 20
205.10941295467751
 11
93.843963497072167
 21
206.07333495467751
  0
LINE
  8
_0-2_____1
  6
CONTINUOUS
 62
    4
 10
94.031463497072167
 20
205.10941295467751
 11
94.031463497072167
 21
211.35941295467751
  0
ARC
  8
_0-2_____1
  6
CONTINUOUS
 62
    4
 10
93.843963497072167
 20
205.10941295467751
 40
0.1875
 50
270
 51
0
  0
ARC
  8
_0-2_____1
  6
CONTINUOUS
 62
    4
 10
93.843963497072167
 20
211.17191295467751
 40
0.1875
 50
0
 51
90
  0
LINE
  8
_0-2_____1
  6
CONTINUOUS
 62
    4
 10
93.031463497072195
 20
211.17191295467751
 11
93.843963497072167
 21
211.17191295467751
  0
LINE
  8
_0-2_____1
  6
CONTINUOUS
 62
    4
 10
94.968963497072167
 20
208.23441295467751
 11
94.031463497072167
 21
208.23441295467751
  0
ARC
  8
_0-2_____1
  6
CONTINUOUS
 62
    4
 10
94.968963497072167
 20
211.17191295467751
 40
0.1875
 50
0
 51
90
  0
LINE
  8
_0-2_____1
  6
CONTINUOUS
 62
    4
 10
95.156463497072167
 20
208.42191295467751
 11
94.031463497072167
 21
208.42191295467751
  0
LINE
  8
_0-2_____1
  6
CONTINUOUS
 62
    4
 10
95.156463497072167
 20
211.17191295467751
 11
94.031463497072167
 21
211.17191295467751
  0
LINE
  8
_0-2_____1
  6
CONTINUOUS
 62
    4
 10
94.218963497072167
 20
208.42191295467751
 11
94.218963497072167
 21
211.17191295467751
  0
ARC
  8
_0-2_____1
  6
CONTINUOUS
 62
    4
 10
94.968963497072167
 20
208.42191295467751
 40
0.1875
 50
270
 51
0
  0
LINE
  8
_0-2_____1
  6
CONTINUOUS
 62
    4
 10
94.968963497072167
 20
208.42191295467751
 11
94.968963497072167
 21
211.17191295467751
  0
LINE
  8
_0-2_____1
  6
CONTINUOUS
 62
    4
 10
95.156463497072167
 20
211.17191295467751
 11
95.156463497072167
 21
208.42191295467751
  0
LINE
  8
_0-2_____1
  6
CONTINUOUS
 62
    4
 10
95.156463497072167
 20
208.98441295467751
 11
94.968963497072167
 21
208.98441295467751
  0
LINE
  8
_0-2_____1
  6
CONTINUOUS
 62
    4
 10
95.156463497072167
 20
210.60941295467751
 11
94.968963497072167
 21
210.60941295467751
  0
LINE
  8
_0-2_____1
  6
CONTINUOUS
 62
    4
 10
93.657587497072186
 20
211.3656629546775
 11
93.031463497072195
 21
211.3656629546775
  0
ARC
  8
_0-2_____1
  6
CONTINUOUS
 62
    4
 10
93.589766497072148
 20
211.45246895467753
 40
0.0625000000002371
 50
3.43363
 51
61.10237699999999
  0
ARC
  8
_0-2_____1
  6
CONTINUOUS
 62
    4
 10
154.84427849707217
 20
206.1546349546775
 40
0.3749999999991168
 50
180.06994
 51
270.06993999999997
  0
ARC
  8
_0-2_____1
  6
CONTINUOUS
 62
    4
 10
154.83802249707216
 20
211.27963095467751
 40
0.3750000000000264
 50
90.069940000000017
 51
180.06994
  0
LINE
  8
_0-2_____1
  6
CONTINUOUS
 62
    4
 10
117.90646349707217
 20
209.73441295467751
 11
117.90646349707217
 21
205.48441295467751
  0
LINE
  8
_0-2_____1
  6
CONTINUOUS
 62
    4
 10
117.53146349707217
 20
210.10941295467751
 11
108.78146349707217
 21
210.10941295467751
  0
LINE
  8
_0-2_____1
  6
CONTINUOUS
 62
    4
 10
114.84396349707217
 20
209.92191295467751
 11
111.46896349707217
 21
209.92191295467751
  0
LINE
  8
_0-2_____1
  6
CONTINUOUS
 62
    4
 10
114.84396349707217
 20
205.29691295467751
 11
114.84396349707217
 21
205.10941295467751
  0
LINE
  8
_0-2_____1
  6
CONTINUOUS
 62
    4
 10
114.84396349707217
 20
210.10941295467751
 11
114.84396349707217
 21
209.92191295467751
  0
LINE
  8
_0-2_____1
  6
CONTINUOUS
 62
    4
 10
111.46896349707217
 20
210.10941295467751
 11
111.46896349707217
 21
209.92191295467751
  0
CIRCLE
  8
_0-2_____1
  6
CONTINUOUS
 62
    4
 10
113.15646349707217
 20
207.60941295467751
 40
0.8125000000000072
  0
LINE
  8
_0-2_____1
  6
CONTINUOUS
 62
    4
 10
113.85720349707218
 20
208.23324995467752
 11
112.96657549707217
 21
208.52818995467752
  0
LINE
  8
_0-2_____1
  6
CONTINUOUS
 62
    4
 10
114.04709149707217
 20
207.31447295467751
 11
113.85720349707218
 21
208.23324995467752
  0
LINE
  8
_0-2_____1
  6
CONTINUOUS
 62
    4
 10
113.34635249707217
 20
206.6906359546775
 11
114.04709149707217
 21
207.31447295467751
  0
LINE
  8
_0-2_____1
  6
CONTINUOUS
 62
    4
 10
112.45572349707217
 20
206.9855759546775
 11
113.34635249707217
 21
206.6906359546775
  0
LINE
  8
_0-2_____1
  6
CONTINUOUS
 62
    4
 10
112.26583549707217
 20
207.90435295467751
 11
112.45572349707217
 21
206.9855759546775
  0
LINE
  8
_0-2_____1
  6
CONTINUOUS
 62
    4
 10
112.96657549707217
 20
208.52818995467752
 11
112.26583549707217
 21
207.90435295467751
  0
LINE
  8
_0-2_____1
  6
CONTINUOUS
 62
    4
 10
151.34832149707216
 20
206.50049995467751
 11
151.53581949707217
 21
206.50119295467752
  0
LINE
  8
_0-2_____1
  6
CONTINUOUS
 62
    4
 10
151.33908549707206
 20
209.00048295467752
 11
151.52658349707207
 21
209.00117595467751
  0
LINE
  8
_0-2_____1
  6
CONTINUOUS
 62
    4
 10
151.53581949707217
 20
206.50119295467752
 11
151.52658349707207
 21
209.00117595467751
  0
LINE
  8
_0-2_____1
  6
CONTINUOUS
 62
    4
 10
150.57378849707217
 20
206.37263795467751
 11
150.56362849707216
 21
209.12261895467751
  0
LINE
  8
_0-2_____1
  6
CONTINUOUS
 62
    4
 10
148.82380049707217
 20
206.36617295467752
 11
148.81364049707216
 21
209.11615395467751
  0
LINE
  8
_0-2_____1
  6
CONTINUOUS
 62
    4
 10
149.01129849707218
 20
206.36686495467751
 11
149.00113949707216
 21
209.11684695467753
  0
LINE
  8
_0-2_____1
  6
CONTINUOUS
 62
    4
 10
149.00125449707218
 20
209.08559695467753
 11
148.99425149707218
 21
209.04969395467751
  0
LINE
  8
_0-2_____1
  6
CONTINUOUS
 62
    4
 10
148.99425149707218
 20
209.04969395467751
 11
148.97404149707216
 21
209.01920495467752
  0
LINE
  8
_0-2_____1
  6
CONTINUOUS
 62
    4
 10
148.97404149707216
 20
209.01920495467752
 11
148.94370149707217
 21
208.99876995467753
  0
LINE
  8
_0-2_____1
  6
CONTINUOUS
 62
    4
 10
148.94370149707217
 20
208.99876995467753
 11
148.90785149707216
 21
208.99150095467752
  0
LINE
  8
_0-2_____1
  6
CONTINUOUS
 62
    4
 10
148.90785149707216
 20
208.99150095467752
 11
148.87194949707217
 21
208.99850495467751
  0
LINE
  8
_0-2_____1
  6
CONTINUOUS
 62
    4
 10
148.87194949707217
 20
208.99850495467751
 11
148.84145949707218
 21
209.01871495467751
  0
LINE
  8
_0-2_____1
  6
CONTINUOUS
 62
    4
 10
148.84145949707218
 20
209.01871495467751
 11
148.82102449707216
 21
209.0490539546775
  0
LINE
  8
_0-2_____1
  6
CONTINUOUS
 62
    4
 10
148.82102449707216
 20
209.0490539546775
 11
148.81375649707218
 21
209.08490395467751
  0
LINE
  8
_0-2_____1
  6
CONTINUOUS
 62
    4
 10
149.00113949707216
 20
209.11684695467753
 11
150.56362849707216
 21
209.12261895467751
  0
LINE
  8
_0-2_____1
  6
CONTINUOUS
 62
    4
 10
151.34878249707216
 20
206.37550095467751
 11
151.33862349707218
 21
209.12548195467753
  0
LINE
  8
_0-2_____1
  6
CONTINUOUS
 62
    4
 10
150.76117149707218
 20
206.4045799546775
 11
150.75390249707218
 21
206.44042995467751
  0
LINE
  8
_0-2_____1
  6
CONTINUOUS
 62
    4
 10
150.75390249707218
 20
206.44042995467751
 11
150.73346749707218
 21
206.47076995467751
  0
LINE
  8
_0-2_____1
  6
CONTINUOUS
 62
    4
 10
150.73346749707218
 20
206.47076995467751
 11
150.70297849707217
 21
206.49097995467753
  0
LINE
  8
_0-2_____1
  6
CONTINUOUS
 62
    4
 10
150.70297849707217
 20
206.49097995467753
 11
150.66707549707218
 21
206.49798295467752
  0
LINE
  8
_0-2_____1
  6
CONTINUOUS
 62
    4
 10
150.66707549707218
 20
206.49798295467752
 11
150.63122549707217
 21
206.49071495467751
  0
LINE
  8
_0-2_____1
  6
CONTINUOUS
 62
    4
 10
150.63122549707217
 20
206.49071495467751
 11
150.60088649707217
 21
206.47027995467752
  0
LINE
  8
_0-2_____1
  6
CONTINUOUS
 62
    4
 10
150.60088649707217
 20
206.47027995467752
 11
150.58067649707218
 21
206.43978995467751
  0
LINE
  8
_0-2_____1
  6
CONTINUOUS
 62
    4
 10
150.58067649707218
 20
206.43978995467751
 11
150.57367249707218
 21
206.40388795467751
  0
ARC
  8
_0-2_____1
  6
CONTINUOUS
 62
    4
 10
156.84074249707217
 20
207.7677029546775
 40
1.124999999999942
 50
270.21167200000002
 51
298.822945
  0
LINE
  8
_0-2_____1
  6
CONTINUOUS
 62
    4
 10
115.76152549707217
 20
206.24402795467751
 11
116.16152249707217
 21
206.24550595467753
  0
LINE
  8
_0-2_____1
  6
CONTINUOUS
 62
    4
 10
113.15230749707217
 20
208.7344049546775
 11
114.27729949707216
 21
208.73856195467752
  0
LINE
  8
_0-2_____1
  6
CONTINUOUS
 62
    4
 10
116.15367249707217
 20
208.37049095467751
 11
116.58886049707218
 21
208.9971029546775
  0
LINE
  8
_0-2_____1
  6
CONTINUOUS
 62
    4
 10
113.16061949707218
 20
206.48442095467752
 11
114.28561249707217
 21
206.48857695467751
  0
LINE
  8
_0-2_____1
  6
CONTINUOUS
 62
    4
 10
114.27729949707216
 20
208.73856195467752
 11
115.75136649707217
 21
208.99400895467753
  0
LINE
  8
_0-2_____1
  6
CONTINUOUS
 62
    4
 10
114.28561249707217
 20
206.48857695467751
 11
115.76152549707217
 21
206.24402795467751
  0
LINE
  8
_0-2_____1
  6
CONTINUOUS
 62
    4
 10
116.16152249707217
 20
206.24550595467753
 11
116.15136349707217
 21
208.99548695467752
  0
LINE
  8
_0-2_____1
  6
CONTINUOUS
 62
    4
 10
116.59901949707218
 20
206.24712195467751
 11
116.58886049707218
 21
208.9971029546775
  0
LINE
  8
_0-2_____1
  6
CONTINUOUS
 62
    4
 10
116.15921449707217
 20
206.87050095467751
 11
116.59901949707218
 21
206.24712195467751
  0
LINE
  8
_0-2_____1
  6
CONTINUOUS
 62
    4
 10
115.76152549707217
 20
206.24402795467751
 11
115.75136649707217
 21
208.99400895467753
  0
LINE
  8
_0-2_____1
  6
CONTINUOUS
 62
    4
 10
115.75136649707217
 20
208.99400895467753
 11
116.15136349707217
 21
208.99548695467752
  0
LINE
  8
_0-2_____1
  6
CONTINUOUS
 62
    4
 10
116.59901949707218
 20
206.24712195467751
 11
148.82380049707217
 21
206.36617295467752
  0
LINE
  8
_0-2_____1
  6
CONTINUOUS
 62
    4
 10
116.58886049707218
 20
208.9971029546775
 11
148.81364049707216
 21
209.11615395467751
  0
LINE
  8
_0-2_____1
  6
CONTINUOUS
 62
    4
 10
150.76128649707218
 20
206.37333095467753
 11
150.75112749707216
 21
209.12331195467752
  0
LINE
  8
_0-2_____1
  6
CONTINUOUS
 62
    4
 10
150.76128649707218
 20
206.37333095467753
 11
151.34878249707216
 21
206.37550095467751
  0
LINE
  8
_0-2_____1
  6
CONTINUOUS
 62
    4
 10
150.75124249707218
 20
209.09206195467752
 11
150.74423949707216
 21
209.05615895467753
  0
LINE
  8
_0-2_____1
  6
CONTINUOUS
 62
    4
 10
150.74423949707216
 20
209.05615895467753
 11
150.72402949707217
 21
209.02566995467751
  0
LINE
  8
_0-2_____1
  6
CONTINUOUS
 62
    4
 10
150.72402949707217
 20
209.02566995467751
 11
150.69368949707217
 21
209.00523495467752
  0
LINE
  8
_0-2_____1
  6
CONTINUOUS
 62
    4
 10
150.69368949707217
 20
209.00523495467752
 11
150.65783949707216
 21
208.99796595467751
  0
LINE
  8
_0-2_____1
  6
CONTINUOUS
 62
    4
 10
150.65783949707216
 20
208.99796595467751
 11
150.62193749707217
 21
209.00496995467751
  0
LINE
  8
_0-2_____1
  6
CONTINUOUS
 62
    4
 10
150.62193749707217
 20
209.00496995467751
 11
150.59144749707218
 21
209.02517995467753
  0
LINE
  8
_0-2_____1
  6
CONTINUOUS
 62
    4
 10
150.59144749707218
 20
209.02517995467753
 11
150.57101249707216
 21
209.05551895467752
  0
LINE
  8
_0-2_____1
  6
CONTINUOUS
 62
    4
 10
150.57101249707216
 20
209.05551895467752
 11
150.56374449707218
 21
209.09136895467751
  0
LINE
  8
_0-2_____1
  6
CONTINUOUS
 62
    4
 10
150.75112749707216
 20
209.12331195467752
 11
151.33862349707218
 21
209.12548195467753
  0
LINE
  8
_0-2_____1
  6
CONTINUOUS
 62
    4
 10
149.01129849707218
 20
206.36686495467751
 11
150.57378849707217
 21
206.37263795467751
  0
ARC
  8
_0-2_____1
  6
CONTINUOUS
 62
    4
 10
156.84074249707217
 20
207.7677029546775
 40
1.125000000000363
 50
302.09144500000002
 51
357.90855499999998
  0
ARC
  8
_0-2_____1
  6
CONTINUOUS
 62
    4
 10
156.84074249707217
 20
207.7677029546775
 40
1.125000000000085
 50
3.6979999999999986
 51
56.301999999999992
  0
ARC
  8
_0-2_____1
  6
CONTINUOUS
 62
    4
 10
156.84074249707217
 20
207.7677029546775
 40
1.124999999999839
 50
64.377674999999996
 51
90.211671999999979
  0
ARC
  8
_0-2_____1
  6
CONTINUOUS
 62
    4
 10
148.91743449707207
 20
206.3977689546775
 40
0.0937499999998348
 50
0.211672
 51
180.21167199999999
  0
LINE
  8
_0-2_____1
  6
CONTINUOUS
 62
    4
 10
155.71990549707218
 20
206.63855395467752
 11
154.24583949707218
 21
206.38310695467752
  0
LINE
  8
_0-2_____1
  6
CONTINUOUS
 62
    4
 10
154.24583949707218
 20
206.38310695467752
 11
154.23567949707217
 21
209.13308795467751
  0
LINE
  8
_0-2_____1
  6
CONTINUOUS
 62
    4
 10
154.24583949707218
 20
206.38310695467752
 11
153.84584249707217
 21
206.38162895467752
  0
LINE
  8
_0-2_____1
  6
CONTINUOUS
 62
    4
 10
156.83658549707218
 20
208.89269495467752
 11
155.71159349707216
 21
208.8885389546775
  0
LINE
  8
_0-2_____1
  6
CONTINUOUS
 62
    4
 10
156.84489849707217
 20
206.64270995467751
 11
155.71990549707218
 21
206.63855395467752
  0
LINE
  8
_0-2_____1
  6
CONTINUOUS
 62
    4
 10
153.84584249707217
 20
206.38162895467752
 11
153.83568249707218
 21
209.13160995467751
  0
LINE
  8
_0-2_____1
  6
CONTINUOUS
 62
    4
 10
154.23567949707217
 20
209.13308795467751
 11
153.83568249707218
 21
209.13160995467751
  0
LINE
  8
_0-2_____1
  6
CONTINUOUS
 62
    4
 10
155.71159349707216
 20
208.8885389546775
 11
154.23567949707217
 21
209.13308795467751
  0
LINE
  8
_0-2_____1
  6
CONTINUOUS
 62
    4
 10
151.52889249707218
 20
208.37617995467753
 11
153.83844249707218
 21
208.38471195467753
  0
LINE
  8
_0-2_____1
  6
CONTINUOUS
 62
    4
 10
151.53351049707217
 20
207.1261889546775
 11
153.84306049707217
 21
207.1347209546775
  0
ARC
  8
_0-2_____1
  6
CONTINUOUS
 62
    4
 10
158.83801949707217
 20
211.28451295467752
 40
0.37500000000048
 50
0.06994
 51
90.069940000000003
  0
LINE
  8
_0-2_____1
  6
CONTINUOUS
 62
    4
 10
154.65677849707217
 20
206.15440595467751
 11
154.65641249707218
 21
206.4542569546775
  0
LINE
  8
_0-2_____1
  6
CONTINUOUS
 62
    4
 10
154.65322749707218
 20
209.0639029546775
 11
154.65052249707216
 21
211.27940195467752
  0
LINE
  8
_0-2_____1
  6
CONTINUOUS
 62
    4
 10
154.83779349707217
 20
211.46713095467751
 11
158.83779049707218
 21
211.47201295467752
  0
ARC
  8
_0-2_____1
  6
CONTINUOUS
 62
    4
 10
154.83802249707216
 20
211.27963095467751
 40
0.1875000000000129
 50
90.069940000000017
 51
180.06994
  0
ARC
  8
_0-2_____1
  6
CONTINUOUS
 62
    4
 10
158.83801949707217
 20
211.28451295467752
 40
0.1874999999995581
 50
0.06994
 51
90.069940000000003
  0
ARC
  8
_0-2_____1
  6
CONTINUOUS
 62
    4
 10
158.84427549707218
 20
206.15951695467751
 40
0.1875000000004682
 50
270.06993999999997
 51
0.0699399999999619
  0
ARC
  8
_0-2_____1
  6
CONTINUOUS
 62
    4
 10
154.84427849707217
 20
206.1546349546775
 40
0.1875000000000129
 50
180.06994
 51
270.06993999999997
  0
LINE
  8
_0-2_____1
  6
CONTINUOUS
 62
    4
 10
158.84450449707217
 20
205.97201695467751
 11
154.84450749707216
 21
205.9671349546775
  0
LINE
  8
_0-2_____1
  6
CONTINUOUS
 62
    4
 10
159.02551949707217
 20
211.28474195467751
 11
159.03177549707218
 21
206.1597459546775
  0
CIRCLE
  8
_0-2_____1
  6
CONTINUOUS
 62
    4
 10
156.84229349707218
 20
207.78207495467751
 40
1
  0
LINE
  8
_0-2_____1
  6
CONTINUOUS
 62
    4
 10
157.41964349707217
 20
208.78207495467751
 11
156.26494349707218
 21
208.78207495467751
  0
LINE
  8
_0-2_____1
  6
CONTINUOUS
 62
    4
 10
157.99699449707217
 20
207.78207495467751
 11
157.41964349707217
 21
208.78207495467751
  0
LINE
  8
_0-2_____1
  6
CONTINUOUS
 62
    4
 10
157.41964349707217
 20
206.78207495467751
 11
157.99699449707217
 21
207.78207495467751
  0
LINE
  8
_0-2_____1
  6
CONTINUOUS
 62
    4
 10
156.26494349707218
 20
206.78207495467751
 11
157.41964349707217
 21
206.78207495467751
  0
LINE
  8
_0-2_____1
  6
CONTINUOUS
 62
    4
 10
155.68759349707216
 20
207.78207495467751
 11
156.26494349707218
 21
206.78207495467751
  0
LINE
  8
_0-2_____1
  6
CONTINUOUS
 62
    4
 10
156.26494349707218
 20
208.78207495467751
 11
155.68759349707216
 21
207.78207495467751
  0
LINE
  8
_0-2_____1
  6
CONTINUOUS
 62
    4
 10
111.46896349707217
 20
209.92191295467751
 11
111.46896349707217
 21
205.29691295467751
  0
ARC
  8
_0-2_____1
  6
CONTINUOUS
 62
    4
 10
108.78146349707217
 20
205.48441295467751
 40
0.375
 50
180
 51
270
  0
LINE
  8
_0-2_____1
  6
CONTINUOUS
 62
    4
 10
159.21301949707217
 20
211.2849709546775
 11
159.21927549707218
 21
206.15997495467752
  0
LINE
  8
_0-2_____1
  6
CONTINUOUS
 62
    4
 10
158.84473349707218
 20
205.78451795467751
 11
154.84473649707218
 21
205.7796349546775
  0
ARC
  8
_0-2_____1
  6
CONTINUOUS
 62
    4
 10
158.84427549707218
 20
206.15951695467751
 40
0.3750000000000259
 50
270.06993999999997
 51
0.0699399999999619
  0
ARC
  8
_0-2_____1
  6
CONTINUOUS
 62
    4
 10
168.47382249707218
 20
260.13191595467754
 40
0.5625000000523
 50
274.25059199999998
 51
4.2505919999999904
  0
LINE
  8
_0-2_____1
  6
CONTINUOUS
 62
    4
 10
168.09050449707217
 20
261.07315495467753
 11
173.25897349707216
 21
262.36496095467749
  0
LINE
  8
_0-2_____1
  6
CONTINUOUS
 62
    4
 10
169.02087749707218
 20
260.36059195467749
 11
169.20786249707217
 21
260.37448895467753
  0
ARC
  8
_0-2_____1
  6
CONTINUOUS
 62
    4
 10
168.20606449707216
 20
259.51832095467751
 40
0.1875000000339353
 50
184.2505919999999
 51
264.46818500000001
  0
ARC
  8
_0-2_____1
  6
CONTINUOUS
 62
    4
 10
168.09050449707217
 20
261.07315495467753
 40
0.187500000118891
 50
104.032999
 51
184.2505919999999
  0
ARC
  8
_0-2_____1
  6
CONTINUOUS
 62
    4
 10
168.09269549707216
 20
261.0436749546775
 40
0.1874999999677008
 50
94.250591999999983
 51
184.2505919999999
  0
ARC
  8
_0-2_____1
  6
CONTINUOUS
 62
    4
 10
168.20387349707218
 20
259.54780095467754
 40
0.1875000000242842
 50
184.2505919999999
 51
274.25059199999998
  0
LINE
  8
_0-2_____1
  6
CONTINUOUS
 62
    4
 10
168.20606449707216
 20
259.51832095467751
 11
168.09050449707217
 21
261.07315495467753
  0
LINE
  8
_0-2_____1
  6
CONTINUOUS
 62
    4
 10
168.52941149707218
 20
259.38397895467756
 11
168.21777149707216
 21
259.36081595467749
  0
LINE
  8
_0-2_____1
  6
CONTINUOUS
 62
    4
 10
169.22175949707218
 20
260.18750495467748
 11
169.20786249707217
 21
260.37448895467753
  0
ARC
  8
_0-2_____1
  6
CONTINUOUS
 62
    4
 10
168.44602749707218
 20
260.50588395467753
 40
0.562500000032415
 50
4.2505920000000001
 51
94.250591999999983
  0
LINE
  8
_0-2_____1
  6
CONTINUOUS
 62
    4
 10
169.20786249707217
 20
260.37448895467753
 11
169.19396449707216
 21
260.56147295467747
  0
LINE
  8
_0-2_____1
  6
CONTINUOUS
 62
    4
 10
168.39043849707218
 20
261.25382095467751
 11
168.07879849707217
 21
261.23065895467755
  0
LINE
  8
_0-2_____1
  6
CONTINUOUS
 62
    4
 10
168.01908049707217
 20
259.50442395467746
 11
167.90352049707218
 21
261.05925695467749
  0
LINE
  8
_0-2_____1
  6
CONTINUOUS
 62
    4
 10
108.40646349707217
 20
209.73441295467751
 11
108.40646349707217
 21
205.48441295467751
  0
ARC
  8
_0-2_____1
  6
CONTINUOUS
 62
    4
 10
117.53146349707217
 20
209.73441295467751
 40
0.375
 50
0
 51
90
  0
LINE
  8
_0-2_____1
  6
CONTINUOUS
 62
    4
 10
154.46927949707216
 20
206.15417695467752
 11
154.46895249707217
 21
206.42177095467753
  0
LINE
  8
_0-2_____1
  6
CONTINUOUS
 62
    4
 10
154.46568949707216
 20
209.09497695467752
 11
154.46302349707216
 21
211.27917295467751
  0
LINE
  8
_0-2_____1
  6
CONTINUOUS
 62
    4
 10
168.40433649707217
 20
261.06683695467757
 11
168.09269549707216
 21
261.0436749546775
  0
ARC
  8
_0-2_____1
  6
CONTINUOUS
 62
    4
 10
168.47382249707218
 20
260.13191595467754
 40
0.7499999999439391
 50
274.25059199999998
 51
4.2505919999999904
  0
LINE
  8
_0-2_____1
  6
CONTINUOUS
 62
    4
 10
114.84396349707217
 20
205.29691295467751
 11
111.46896349707217
 21
205.29691295467751
  0
LINE
  8
_0-2_____1
  6
CONTINUOUS
 62
    4
 10
111.28146349707217
 20
210.10941295467751
 11
111.28146349707217
 21
205.10941295467751
  0
LINE
  8
_0-2_____1
  6
CONTINUOUS
 62
    4
 10
115.03146349707217
 20
210.10941295467751
 11
115.03146349707217
 21
208.8692539546775
  0
LINE
  8
_0-2_____1
  6
CONTINUOUS
 62
    4
 10
115.03146349707217
 20
206.36499395467752
 11
115.03146349707217
 21
205.10941295467751
  0
LINE
  8
_0-2_____1
  6
CONTINUOUS
 62
    4
 10
114.84396349707217
 20
209.92191295467751
 11
114.84396349707217
 21
208.83676095467752
  0
LINE
  8
_0-2_____1
  6
CONTINUOUS
 62
    4
 10
114.84396349707217
 20
206.39606195467752
 11
114.84396349707217
 21
205.29691295467751
  0
ARC
  8
_0-2_____1
  6
CONTINUOUS
 62
    4
 10
117.53146349707217
 20
205.48441295467751
 40
0.375
 50
270
 51
0
  0
LINE
  8
_0-2_____1
  6
CONTINUOUS
 62
    4
 10
173.52281649707217
 20
258.8150189546775
 11
173.24487149707218
 21
262.55470395467751
  0
LINE
  8
_0-2_____1
  6
CONTINUOUS
 62
    4
 10
173.52281649707217
 20
258.8150189546775
 11
168.18799049707218
 21
259.33169395467746
  0
LINE
  8
_0-2_____1
  6
CONTINUOUS
 62
    4
 10
173.24487149707218
 20
262.55470395467751
 11
173.43185549707218
 21
262.56860095467755
  0
LINE
  8
_0-2_____1
  6
CONTINUOUS
 62
    4
 10
168.51551449707216
 20
259.5709629546775
 11
168.20387349707218
 21
259.54780095467754
  0
LINE
  8
_0-2_____1
  6
CONTINUOUS
 62
    4
 10
169.02087749707218
 20
260.36059195467749
 11
169.00698049707216
 21
260.54757595467754
  0
LINE
  8
_0-2_____1
  6
CONTINUOUS
 62
    4
 10
169.03477549707216
 20
260.17360695467755
 11
169.02087749707218
 21
260.36059195467749
  0
LINE
  8
_0-2_____1
  6
CONTINUOUS
 62
    4
 10
173.50871449707216
 20
259.00476195467752
 11
168.20606449707216
 21
259.51832095467751
  0
ARC
  8
_0-2_____1
  6
CONTINUOUS
 62
    4
 10
168.44602749707218
 20
260.50588395467753
 40
0.7500000000110683
 50
4.2505920000000001
 51
94.250591999999983
  0
LINE
  8
_0-2_____1
  6
CONTINUOUS
 62
    4
 10
168.04503949707217
 20
261.25505895467757
 11
173.24487149707218
 21
262.55470395467751
  0
LINE
  8
_0-2_____1
  6
CONTINUOUS
 62
    4
 10
173.52281649707217
 20
258.8150189546775
 11
173.70980149707216
 21
258.82891595467754
  0
LINE
  8
_0-2_____1
  6
CONTINUOUS
 62
    4
 10
93.619969497072177
 20
211.50718695467751
 11
93.55171949707217
 21
211.54330995467751
  0
LINE
  8
_0-2_____1
  6
CONTINUOUS
 62
    4
 10
93.55171949707217
 20
211.54330995467751
 11
93.481929497072187
 21
211.5745289546775
  0
LINE
  8
_0-2_____1
  6
CONTINUOUS
 62
    4
 10
93.481929497072187
 20
211.5745289546775
 11
93.42910049707217
 21
211.59270095467753
  0
LINE
  8
_0-2_____1
  6
CONTINUOUS
 62
    4
 10
93.42910049707217
 20
211.59270095467753
 11
93.375035497072176
 21
211.60693795467751
  0
LINE
  8
_0-2_____1
  6
CONTINUOUS
 62
    4
 10
93.375035497072176
 20
211.60693795467751
 11
93.263891497072166
 21
211.62581495467751
  0
LINE
  8
_0-2_____1
  6
CONTINUOUS
 62
    4
 10
93.263891497072166
 20
211.62581495467751
 11
93.149885497072177
 21
211.63558295467752
  0
LINE
  8
_0-2_____1
  6
CONTINUOUS
 62
    4
 10
93.149885497072177
 20
211.63558295467752
 11
93.034407497072166
 21
211.64066295467751
  0
LINE
  8
_0-2_____1
  6
CONTINUOUS
 62
    4
 10
165.90646349707217
 20
203.47314295467751
 11
159.65646349707217
 21
203.47314295467751
  0
LINE
  8
_0-2_____1
  6
CONTINUOUS
 62
    4
 10
165.90646349707217
 20
203.65700195467753
 11
159.65646349707217
 21
203.65700195467753
  0
LINE
  8
_0-2_____1
  6
CONTINUOUS
 62
    4
 10
159.65646349707217
 20
204.14729195467751
 11
165.90646349707217
 21
204.14729195467751
  0
LINE
  8
_0-2_____1
  6
CONTINUOUS
 62
    4
 10
159.65646349707217
 20
201.10604495467751
 11
159.65646349707217
 21
204.14729195467751
  0
LINE
  8
_0-2_____1
  6
CONTINUOUS
 62
    4
 10
165.90646349707217
 20
204.14729195467751
 11
165.90646349707217
 21
201.10604495467751
  0
LINE
  8
_0-2_____1
  6
CONTINUOUS
 62
    4
 10
170.03146349707217
 20
211.17191295467751
 11
169.21896349707217
 21
211.17191295467751
  0
LINE
  8
_0-2_____1
  6
CONTINUOUS
 62
    4
 10
169.46896349707217
 20
209.10941295467751
 11
169.21896349707217
 21
209.10941295467751
  0
LINE
  8
_0-2_____1
  6
CONTINUOUS
 62
    4
 10
169.46896349707217
 20
208.60941295467751
 11
169.21896349707217
 21
208.60941295467751
  0
LINE
  8
_0-2_____1
  6
CONTINUOUS
 62
    4
 10
169.46896349707217
 20
207.98441295467751
 11
169.21896349707217
 21
207.98441295467751
  0
LINE
  8
_0-2_____1
  6
CONTINUOUS
 62
    4
 10
169.46896349707217
 20
207.92191295467751
 11
169.21896349707217
 21
207.92191295467751
  0
LINE
  8
_0-2_____1
  6
CONTINUOUS
 62
    4
 10
169.46896349707217
 20
210.29691295467751
 11
169.21896349707217
 21
210.29691295467751
  0
LINE
  8
_0-2_____1
  6
CONTINUOUS
 62
    4
 10
169.64693949707217
 20
206.75796395467751
 11
169.50646349707216
 21
206.96476395467752
  0
LINE
  8
_0-2_____1
  6
CONTINUOUS
 62
    4
 10
169.46896349707217
 20
206.42191295467751
 11
169.46896349707217
 21
210.29691295467751
  0
LINE
  8
_0-2_____1
  6
CONTINUOUS
 62
    4
 10
169.46896349707217
 20
209.04691295467751
 11
169.21896349707217
 21
209.04691295467751
  0
LINE
  8
_0-2_____1
  6
CONTINUOUS
 62
    4
 10
169.46896349707217
 20
208.67191295467751
 11
169.21896349707217
 21
208.67191295467751
  0
LINE
  8
_0-2_____1
  6
CONTINUOUS
 62
    4
 10
169.46896349707217
 20
207.17191295467751
 11
169.21896349707217
 21
207.17191295467751
  0
ARC
  8
_0-2_____1
  6
CONTINUOUS
 62
    4
 10
169.87521349707217
 20
206.42191295467751
 40
0.65625
 50
124.18762700000002
 51
123.215352
  0
LINE
  8
_0-2_____1
  6
CONTINUOUS
 62
    4
 10
169.46896349707217
 20
209.79691295467751
 11
169.21896349707217
 21
209.79691295467751
  0
LINE
  8
_0-2_____1
  6
CONTINUOUS
 62
    4
 10
169.46896349707217
 20
209.73441295467751
 11
169.21896349707217
 21
209.73441295467751
  0
LINE
  8
_0-2_____1
  6
一点鎖線
 62
    3
 10
169.87521349707217
 20
205.48441295467751
 11
169.87521349707217
 21
207.35941295467751
  0
LINE
  8
_0-2_____1
  6
一点鎖線
 62
    3
 10
170.81271349707217
 20
206.42191295467751
 11
168.93771349707217
 21
206.42191295467751
  0
LINE
  8
_0-2_____1
  6
CONTINUOUS
 62
    4
 10
169.71896349707217
 20
209.42191295467751
 11
168.96896349707217
 21
209.42191295467751
  0
LINE
  8
_0-2_____1
  6
CONTINUOUS
 62
    4
 10
169.71896349707217
 20
208.29691295467751
 11
168.96896349707217
 21
208.29691295467751
  0
ARC
  8
_0-2_____1
  6
CONTINUOUS
 62
    4
 10
170.52505449707218
 20
211.67270995467752
 40
0.1875000000000129
 50
0.06994
 51
88.280029999999996
  0
LINE
  8
_0-2_____1
  6
CONTINUOUS
 62
    4
 10
170.71255449707218
 20
211.67293895467751
 11
170.71904649707218
 21
206.35467495467751
  0
ARC
  8
_0-2_____1
  6
CONTINUOUS
 62
    4
 10
170.53154649707218
 20
206.35444595467752
 40
0.1875000000000129
 50
270.06993999999997
 51
0.0699399999999619
  0
LINE
  8
_0-2_____1
  6
CONTINUOUS
 62
    4
 10
170.10307749707218
 20
206.75824195467752
 11
170.24330049707217
 21
206.96521395467752
  0
LINE
  8
_0-2_____1
  6
CONTINUOUS
 62
    4
 10
170.28146349707217
 20
206.42240895467751
 11
170.27505449707218
 21
211.67240495467752
  0
ARC
  8
_0-2_____1
  6
CONTINUOUS
 62
    4
 10
169.87521349707217
 20
206.42191295467751
 40
0.4062500000003302
 50
0.413841
 51
0.0667179999999802
  0
LINE
  8
_0-2_____1
  6
CONTINUOUS
 62
    4
 10
170.27505449707218
 20
211.67240495467752
 11
170.52505449707218
 21
211.67270995467752
  0
LINE
  8
_0-2_____1
  6
CONTINUOUS
 62
    4
 10
170.53146349707217
 20
206.4227139546775
 11
170.52505449707218
 21
211.67270995467752
  0
LINE
  8
_0-2_____1
  6
CONTINUOUS
 62
    4
 10
170.28054749707218
 20
207.17240795467751
 11
170.53054749707218
 21
207.1727139546775
  0
ARC
  8
_0-2_____1
  6
CONTINUOUS
 62
    4
 10
170.53154649707218
 20
206.35444595467752
 40
0.1875000000000134
 50
180.06994
 51
270.06993999999997
  0
LINE
  8
_0-2_____1
  6
CONTINUOUS
 62
    4
 10
193.88073549707218
 20
201.38955895467751
 11
175.29966949707216
 21
205.10577195467752
  0
LINE
  8
_0-2_____1
  6
CONTINUOUS
 62
    4
 10
193.84396349707217
 20
201.20569995467753
 11
175.26289749707217
 21
204.92191295467751
  0
LINE
  8
_0-2_____1
  6
CONTINUOUS
 62
    4
 10
194.03146349707217
 20
201.20569995467753
 11
194.03146349707217
 21
195.29691295467751
  0
LINE
  8
_0-2_____1
  6
CONTINUOUS
 62
    4
 10
193.84396349707217
 20
195.29691295467751
 11
193.84396349707217
 21
201.20569995467753
  0
LINE
  8
_0-2_____1
  6
CONTINUOUS
 62
    4
 10
193.84396349707217
 20
196.35941295467751
 11
193.65646349707217
 21
196.35941295467751
  0
LINE
  8
_0-2_____1
  6
CONTINUOUS
 62
    4
 10
193.65646349707217
 20
195.29691295467751
 11
193.65646349707217
 21
196.35941295467751
  0
ARC
  8
_0-2_____1
  6
CONTINUOUS
 62
    4
 10
193.84396349707217
 20
201.20569995467753
 40
0.1875000000002232
 50
0
 51
78.690067999999997
  0
ARC
  8
_0-2_____1
  6
CONTINUOUS
 62
    4
 10
193.84396349707217
 20
195.29691295467751
 40
0.1875
 50
180
 51
270
  0
ARC
  8
_0-2_____1
  6
CONTINUOUS
 62
    4
 10
193.84396349707217
 20
195.29691295467751
 40
0.1875
 50
270
 51
0
  0
LINE
  8
_0-2_____1
  6
CONTINUOUS
 62
    4
 10
170.34274949707216
 20
207.41671695467753
 11
170.34404649707218
 21
206.35421795467752
  0
LINE
  8
_0-2_____1
  6
CONTINUOUS
 62
    4
 10
175.26289749707217
 20
204.92191295467751
 11
169.21896349707217
 21
204.92191295467751
  0
ARC
  8
_0-2_____1
  6
CONTINUOUS
 62
    4
 10
169.21896349707217
 20
205.10941295467751
 40
0.1875
 50
180
 51
270
  0
ARC
  8
_0-2_____1
  6
CONTINUOUS
 62
    4
 10
169.21896349707217
 20
211.17191295467751
 40
0.1875
 50
90
 51
180
  0
LINE
  8
_0-2_____1
  6
CONTINUOUS
 62
    4
 10
169.03146349707217
 20
205.10941295467751
 11
169.03146349707217
 21
211.17191295467751
  0
LINE
  8
_0-2_____1
  6
CONTINUOUS
 62
    4
 10
169.21896349707217
 20
206.16534395467752
 11
169.21896349707217
 21
211.17191295467751
  0
LINE
  8
_0-2_____1
  6
CONTINUOUS
 62
    4
 10
169.21896349707217
 20
205.10941295467751
 11
169.21896349707217
 21
206.16534395467752
  0
LINE
  8
_0-2_____1
  6
CONTINUOUS
 62
    4
 10
170.03146349707217
 20
211.17191295467751
 11
170.03146349707217
 21
211.35941295467751
  0
LINE
  8
_0-2_____1
  6
CONTINUOUS
 62
    4
 10
170.03146349707217
 20
211.17191295467751
 11
170.03146349707217
 21
211.35941295467751
  0
LINE
  8
_0-2_____1
  6
CONTINUOUS
 62
    7
 10
268.2594204970722
 20
38.510359954677511
 11
410.25922049707219
 21
38.510359954677511
  0
LINE
  8
_0-2_____1
  6
CONTINUOUS
 62
    1
 10
10.259220497072164
 20
8.5103599546775115
 11
10.259220497072164
 21
288.51035995467748
  0
LINE
  8
_0-2_____1
  6
CONTINUOUS
 62
    1
 10
10.259220497072164
 20
8.5103599546775115
 11
410.25922049707219
 21
8.5103599546775115
  0
LINE
  8
_0-2_____1
  6
CONTINUOUS
 62
    1
 10
410.25922049707219
 20
288.51035995467748
 11
10.259220497072164
 21
288.51035995467748
  0
LINE
  8
_0-2_____1
  6
CONTINUOUS
 62
    1
 10
410.25922049707219
 20
8.5103599546775115
 11
410.25922049707219
 21
288.51035995467748
  0
LINE
  8
_0-2_____1
  6
CONTINUOUS
 62
    2
 10
324.97022049707215
 20
28.49775995467752
 11
324.97022049707215
 21
8.488759954677505
  0
LINE
  8
_0-2_____1
  6
CONTINUOUS
 62
    2
 10
355.19122049707215
 20
28.49775995467752
 11
355.19122049707215
 21
8.488759954677505
  0
LINE
  8
_0-2_____1
  6
CONTINUOUS
 62
    2
 10
345.08622049707219
 20
28.49775995467752
 11
345.08622049707219
 21
8.488759954677505
  0
LINE
  8
_0-2_____1
  6
CONTINUOUS
 62
    2
 10
335.0282204970722
 20
28.49775995467752
 11
335.0282204970722
 21
8.488759954677505
  0
LINE
  8
_0-2_____1
  6
CONTINUOUS
 62
    2
 10
268.2594204970722
 20
8.5103599546775115
 11
268.2594204970722
 21
38.510359954677511
  0
LINE
  8
_0-2_____1
  6
CONTINUOUS
 62
    2
 10
284.2594204970722
 20
28.510359954677511
 11
268.2594204970722
 21
28.510359954677511
  0
LINE
  8
_0-2_____1
  6
CONTINUOUS
 62
    2
 10
284.2594204970722
 20
28.510359954677511
 11
410.25922049707219
 21
28.510359954677511
  0
TEXT
  8
_0-2_____1
 62
    7
 10
280.8156164970722
 20
16.683680588459083
 40
5
 41
0.8579999999999999
 50
0
  1
三洋工業株式会社
  0
LINE
  8
_0-2_____1
  6
CONTINUOUS
 62
    2
 10
324.91222049707216
 20
18.510359954677511
 11
410.25922049707219
 21
18.510359954677511
  0
LINE
  8
_0-2_____1
  6
CONTINUOUS
 62
    2
 10
274.84262049707218
 20
19.84195995467752
 11
276.17102049707216
 21
21.424959954677519
  0
LINE
  8
_0-2_____1
  6
CONTINUOUS
 62
    2
 10
275.00602049707214
 20
19.414359954677508
 11
276.47742049707216
 21
21.167759954677507
  0
LINE
  8
_0-2_____1
  6
CONTINUOUS
 62
    2
 10
274.69962049707215
 20
19.414359954677508
 11
273.22822049707219
 21
21.167759954677507
  0
CIRCLE
  8
_0-2_____1
  6
CONTINUOUS
 62
    2
 10
274.85282049707217
 20
19.542959954677514
 40
2.8516000000000168
  0
ARC
  8
_0-2_____1
  6
CONTINUOUS
 62
    2
 10
274.85282049707217
 20
19.542959954677514
 40
1.8643999999999881
 50
294.78930699999995
 51
23.732842999999956
  0
LINE
  8
_0-2_____1
  6
CONTINUOUS
 62
    2
 10
274.87722049707219
 20
16.304959954677514
 11
274.87722049707219
 21
16.089159954677513
  0
LINE
  8
_0-2_____1
  6
CONTINUOUS
 62
    2
 10
278.13082049707219
 20
19.525359954677526
 11
278.34662049707219
 21
19.525359954677526
  0
LINE
  8
_0-2_____1
  6
CONTINUOUS
 62
    2
 10
271.37462049707216
 20
19.55855995467752
 11
271.64022049707216
 21
19.55855995467752
  0
LINE
  8
_0-2_____1
  6
CONTINUOUS
 62
    2
 10
274.89382049707217
 20
22.961559954677512
 11
274.89382049707217
 21
22.795559954677515
  0
LINE
  8
_0-2_____1
  6
CONTINUOUS
 62
    2
 10
274.74442049707216
 20
19.25975995467752
 11
274.74442049707216
 21
17.118359954677516
  0
LINE
  8
_0-2_____1
  6
CONTINUOUS
 62
    2
 10
274.84402049707217
 20
19.375959954677512
 11
274.84402049707217
 21
17.118359954677516
  0
LINE
  8
_0-2_____1
  6
CONTINUOUS
 62
    2
 10
274.9768204970722
 20
19.409159954677506
 11
274.9768204970722
 21
17.118359954677516
  0
LINE
  8
_0-2_____1
  6
CONTINUOUS
 62
    2
 10
273.25042049707218
 20
21.284959954677518
 11
274.69462049707215
 21
19.591759954677514
  0
LINE
  8
_0-2_____1
  6
CONTINUOUS
 62
    2
 10
273.35002049707219
 20
21.334759954677509
 11
274.77762049707218
 21
19.641559954677518
  0
LINE
  8
_0-2_____1
  6
CONTINUOUS
 62
    2
 10
273.43302049707216
 20
21.40115995467751
 11
274.82742049707218
 21
19.724559954677517
  0
LINE
  8
_0-2_____1
  6
CONTINUOUS
 62
    2
 10
276.43762049707215
 20
21.25175995467751
 11
274.67802049707217
 21
19.176759954677522
  0
LINE
  8
_0-2_____1
  6
CONTINUOUS
 62
    2
 10
276.37122049707216
 20
21.301559954677515
 11
274.69462049707215
 21
19.342759954677518
  0
LINE
  8
_0-2_____1
  6
CONTINUOUS
 62
    2
 10
276.27162049707215
 20
21.384559954677513
 11
274.66142049707219
 21
19.492159954677504
  0
ARC
  8
_0-2_____1
  6
CONTINUOUS
 62
    2
 10
271.27562049707217
 20
19.190159954677512
 40
0.3657999999999788
 50
355.29617300000001
 51
105.89806399999998
  0
ARC
  8
_0-2_____1
  6
CONTINUOUS
 62
    2
 10
271.25222049707219
 20
19.957359954677514
 40
0.406000000000006
 50
259.09954800000003
 51
355.25277699999998
  0
ARC
  8
_0-2_____1
  6
CONTINUOUS
 62
    2
 10
275.26342049707216
 20
15.916159954677511
 40
0.4071999999999889
 50
95.298903999999993
 51
188.38882400000003
  0
ARC
  8
_0-2_____1
  6
CONTINUOUS
 62
    2
 10
274.49062049707214
 20
15.940159954677512
 40
0.3956000000000016
 50
347.826324
 51
74.691505000000021
  0
ARC
  8
_0-2_____1
  6
CONTINUOUS
 62
    2
 10
278.47122049707218
 20
19.168559954677505
 40
0.3758000000000266
 50
83.673279000000022
 51
173.67663600000003
  0
ARC
  8
_0-2_____1
  6
CONTINUOUS
 62
    2
 10
278.49382049707219
 20
19.938159954677502
 40
0.396599999999978
 50
177.28331
 51
272.71670499999999
  0
ARC
  8
_0-2_____1
  6
CONTINUOUS
 62
    2
 10
274.56362049707218
 20
23.095959954677511
 40
0.3183999999999969
 50
275.65689099999997
 51
21.099537000000026
  0
ARC
  8
_0-2_____1
  6
CONTINUOUS
 62
    2
 10
275.31262049707215
 20
23.187759954677517
 40
0.4443999999999734
 50
168.42207300000001
 51
275.94152800000001
  0
ARC
  8
_0-2_____1
  6
CONTINUOUS
 62
    2
 10
274.88722049707218
 20
19.5519599546775
 40
3.2432000000000012
 50
0.9964089999999999
 51
89.289803000000006
  0
ARC
  8
_0-2_____1
  6
CONTINUOUS
 62
    2
 10
274.88722049707218
 20
19.5519599546775
 40
3.2432000000000012
 50
270.703125
 51
359.23327599999999
  0
ARC
  8
_0-2_____1
  6
CONTINUOUS
 62
    2
 10
274.85282049707217
 20
19.492759954677524
 40
2.4067999999999761
 50
46.27931199999999
 51
56.032639000000003
  0
ARC
  8
_0-2_____1
  6
CONTINUOUS
 62
    2
 10
274.85282049707217
 20
19.492759954677524
 40
2.4067999999999761
 50
124.197121
 51
134.027039
  0
LINE
  8
_0-2_____1
  6
CONTINUOUS
 62
    2
 10
274.19782049707214
 20
21.695159954677507
 11
274.31402049707219
 21
21.313359954677509
  0
LINE
  8
_0-2_____1
  6
CONTINUOUS
 62
    2
 10
274.08362049707216
 20
17.828159954677517
 11
274.08362049707216
 21
17.453759954677508
  0
ARC
  8
_0-2_____1
  6
CONTINUOUS
 62
    2
 10
274.85282049707217
 20
19.542959954677514
 40
1.8643999999999881
 50
72.958725000000001
 51
106.854652
  0
ARC
  8
_0-2_____1
  6
CONTINUOUS
 62
    2
 10
274.87722049707219
 20
19.525359954677526
 40
2.0097999999999838
 50
73.822806999999983
 51
107.475784
  0
ARC
  8
_0-2_____1
  6
CONTINUOUS
 62
    2
 10
274.89382049707217
 20
19.541959954677509
 40
2.1261999999999812
 50
74.265586999999996
 51
108.37870799999999
  0
ARC
  8
_0-2_____1
  6
CONTINUOUS
 62
    2
 10
274.88722049707218
 20
19.5519599546775
 40
2.254200000000024
 50
74.548271
 51
107.898048
  0
LINE
  8
_0-2_____1
  6
CONTINUOUS
 62
    2
 10
274.68722049707219
 20
19.409159954677506
 11
274.68722049707219
 21
17.118359954677516
  0
LINE
  8
_0-2_____1
  6
CONTINUOUS
 62
    2
 10
274.84762049707217
 20
19.860359954677506
 11
273.53462049707218
 21
21.424959954677519
  0
LINE
  8
_0-2_____1
  6
CONTINUOUS
 62
    2
 10
275.63202049707218
 20
17.847759954677514
 11
275.63202049707218
 21
17.416559954677524
  0
TEXT
  8
_0-2_____1
 62
    7
 10
337.32422249707218
 20
19.509750954677514
 40
3.5
 41
0.8579999999999999
 50
0
  1
ｍｍ
  0
TEXT
  8
_0-2_____1
 62
    7
 10
327.90820749707217
 20
9.5587609546775241
 40
3.5
 41
0.8579999999999999
 50
0
  1
図
  0
TEXT
  8
_0-2_____1
 62
    7
 10
327.90820749707217
 20
13.945754954677511
 40
3.5
 41
0.8579999999999999
 50
0
  1
製
  0
TEXT
  8
_0-2_____1
 62
    7
 10
328.1221964970722
 20
19.616775954677507
 40
3.5
 41
0.8579999999999999
 50
0
  1
位
  0
TEXT
  8
_0-2_____1
 62
    7
 10
328.18304849707215
 20
24.079328954677521
 40
3.5
 41
0.8579999999999999
 50
0
  1
単
  0
TEXT
  8
_0-2_____1
 62
    7
 10
348.02417449707218
 20
9.4517669546775096
 40
3.5
 41
0.8579999999999999
 50
0
  1
番
  0
TEXT
  8
_0-2_____1
 62
    7
 10
348.02417449707218
 20
14.052779954677504
 40
3.5
 41
0.8579999999999999
 50
0
  1
図
  0
TEXT
  8
_0-2_____1
 62
    7
 10
347.70319049707217
 20
19.616775954677507
 40
3.5
 41
0.8579999999999999
 50
0
  1
名
  0
TEXT
  8
_0-2_____1
 62
    7
 10
347.9171794970722
 20
24.110763954677509
 40
3.5
 41
0.8579999999999999
 50
0
  1
形
  0
ARC
  8
_0-2_____1
  6
CONTINUOUS
 62
    2
 10
274.88722049707218
 20
19.5519599546775
 40
2.254200000000024
 50
289.100525
 51
24.998466000000001
  0
ARC
  8
_0-2_____1
  6
CONTINUOUS
 62
    2
 10
274.89382049707217
 20
19.541959954677509
 40
2.1261999999999812
 50
290.04571499999997
 51
25.130846000000052
  0
ARC
  8
_0-2_____1
  6
CONTINUOUS
 62
    2
 10
274.87722049707219
 20
19.525359954677526
 40
2.0097999999999838
 50
291.78128099999998
 51
25.047889999999995
  0
ARC
  8
_0-2_____1
  6
CONTINUOUS
 62
    2
 10
274.88722049707218
 20
19.5519599546775
 40
2.254200000000024
 50
158.24202
 51
249.14645400000001
  0
ARC
  8
_0-2_____1
  6
CONTINUOUS
 62
    2
 10
274.89382049707217
 20
19.541959954677509
 40
2.1261999999999812
 50
158.43277
 51
247.82127400000002
  0
ARC
  8
_0-2_____1
  6
CONTINUOUS
 62
    2
 10
274.87722049707219
 20
19.525359954677526
 40
2.0097999999999838
 50
157.87354999999999
 51
246.792419
  0
ARC
  8
_0-2_____1
  6
CONTINUOUS
 62
    2
 10
274.85282049707217
 20
19.542959954677514
 40
1.8643999999999881
 50
158.49873399999998
 51
245.689301
  0
LINE
  8
_0-2_____1
  6
CONTINUOUS
 62
    2
 10
276.55322049707218
 20
20.297759954677502
 11
276.90602049707218
 21
20.4937599546775
  0
LINE
  8
_0-2_____1
  6
CONTINUOUS
 62
    2
 10
272.80962049707216
 20
20.376159954677519
 11
273.10362049707214
 21
20.238959954677512
  0
LINE
  8
_0-2_____1
  6
CONTINUOUS
 62
    2
 10
275.49482049707217
 20
21.689359954677514
 11
275.39682049707216
 21
21.297359954677518
  0
ARC
  8
_0-2_____1
  6
CONTINUOUS
 62
    2
 10
274.85282049707217
 20
19.492759954677524
 40
2.4067999999999761
 50
265.8207700000001
 51
275.34484900000001
  0
ARC
  8
_0-2_____1
  6
CONTINUOUS
 62
    2
 10
274.85282049707217
 20
19.542959954677514
 40
1.8643999999999881
 50
264.07720899999998
 51
264.12673999999998
  0
CIRCLE
  8
_0-2_____1
  6
CONTINUOUS
 62
    2
 10
274.87722049707219
 20
19.541959954677509
 40
3.1062000000000012
  0
CIRCLE
  8
_0-2_____1
  6
CONTINUOUS
 62
    2
 10
274.87722049707219
 20
19.525359954677526
 40
2.9841999999999871
  0
ARC
  8
_0-2_____1
  6
CONTINUOUS
 62
    2
 10
274.88722049707218
 20
19.5519599546775
 40
3.2432000000000012
 50
181.05299400000001
 51
269.23321499999997
  0
ARC
  8
_0-2_____1
  6
CONTINUOUS
 62
    2
 10
274.88722049707218
 20
19.5519599546775
 40
3.2432000000000012
 50
90.766723999999982
 51
179.59011799999999
  0
LINE
  8
_0-2_____1
  6
CONTINUOUS
 62
    2
 10
275.08722049707217
 20
19.492159954677504
 11
275.08722049707217
 21
17.118359954677516
  0
LINE
  8
_0-2_____1
  6
CONTINUOUS
 62
    2
 10
273.2594204970722
 20
38.510359954677511
 11
273.2594204970722
 21
28.510359954677511
  0
TEXT
  8
_0-2_____1
 62
    7
 10
269.5164224970722
 20
28.866621954677512
 40
3
 41
0.8579999999999999
 50
0
  1
名
  0
TEXT
  8
_0-2_____1
 62
    7
 10
269.56433549707219
 20
31.967604954677512
 40
3
 41
0.8579999999999999
 50
0
  1
事
  0
TEXT
  8
_0-2_____1
 62
    7
 10
269.67596849707218
 20
35.052595954677514
 40
3
 41
0.8579999999999999
 50
0
  1
工
  0
TEXT
  8
_0-2_____1
 62
    7
 10
337.90265349707215
 20
11.853918954677511
 40
3
 41
0.8579999999999999
 50
0
  1
塩原
  0
TEXT
  8
_0-2_____1
 62
    7
 10
358.76630949707214
 20
23.889773954677509
 40
3.5
 41
0.8579999999999999
 50
0
  1
屋上点検ハッチ　６００角
  0
TEXT
  8
_0-2_____1
 62
    7
 10
358.5734294970722
 20
11.675845954677527
 40
4
 41
0.8579999999999999
 50
0
  1
Ｈ－０８－ＯＭ－５０
  0
LINE
  8
_0-2_____1
  6
CONTINUOUS
 62
    2
 10
268.2594204970722
 20
38.510359954677511
 11
410.25922049707219
 21
38.510359954677511
  0
TEXT
  8
_0-2_____1
 62
    7
 10
358.7243884970722
 20
19.348400954677516
 40
3.5
 41
0.8579999999999999
 50
0
  1
ＲＣ陸屋根　標準施工図
  0
INSERT
  2
-001-D0
  8
_0-2_____1
 10
1.2577204970721709
 20
1.719697954677514
 41
1
 42
1
 50
0
  0
LINE
  8
_0-2_____1
  6
CONTINUOUS
 62
    3
 10
120.26486449707217
 20
179.1208539546775
 11
122.25474249707217
 21
179.1208539546775
  0
LINE
  8
_0-2_____1
  6
CONTINUOUS
 62
    3
 10
122.25474249707217
 20
179.1208539546775
 11
122.25474249707217
 21
177.23046895467752
  0
LINE
  8
_0-2_____1
  6
CONTINUOUS
 62
    3
 10
122.25474249707217
 20
177.23046895467752
 11
120.26486449707217
 21
177.23046895467752
  0
LINE
  8
_0-2_____1
  6
CONTINUOUS
 62
    3
 10
120.26486449707217
 20
177.23046895467752
 11
120.26486449707217
 21
179.1208539546775
  0
TEXT
  8
_0-2_____1
 62
    7
 10
115.85228049707217
 20
131.11707595467752
 40
4
 41
0.8579999999999999
 50
0
  1
正面図　Ｓ１：８
  0
LINE
  8
_0-2_____1
  6
CONTINUOUS
 62
    2
 10
114.46404949707217
 20
136.0338909546775
 11
144.26698149707218
 21
136.0338909546775
  0
LINE
  8
_0-2_____1
  6
CONTINUOUS
 62
    2
 10
144.26698149707218
 20
136.0338909546775
 11
144.26698149707218
 21
130.13597695467752
  0
LINE
  8
_0-2_____1
  6
CONTINUOUS
 62
    2
 10
144.26698149707218
 20
130.13597695467752
 11
114.46404949707217
 21
130.13597695467752
  0
LINE
  8
_0-2_____1
  6
CONTINUOUS
 62
    2
 10
114.46404949707217
 20
130.13597695467752
 11
114.46404949707217
 21
136.0338909546775
  0
INSERT
  2
-002-D1
  8
_0-2_____1
 10
63.302234497072163
 20
198.23441295467751
 41
1
 42
1
 50
0
  0
LINE
  8
_0-2_____1
  6
一点鎖線
 62
    3
 10
111.58938749707217
 20
207.28553695467753
 11
172.60299549707216
 21
219.89554395467752
  0
ARC
  8
_0-2_____1
  6
CONTINUOUS
 62
    4
 10
108.78146249707217
 20
209.73532895467753
 40
0.3749999999999998
 50
90.139880000000005
 51
180.13988000000001
  0
INSERT
  2
-003-D2
  8
_0-2_____1
 10
1.2577204970721709
 20
1.719697954677514
 41
1
 42
1
 50
0
  0
LINE
  8
_0-2_____1
  6
CONTINUOUS
 62
    3
 10
120.73521449707216
 20
252.57007295467753
 11
122.72509249707217
 21
252.57007295467753
  0
LINE
  8
_0-2_____1
  6
CONTINUOUS
 62
    3
 10
122.72509249707217
 20
252.57007295467753
 11
122.72509249707217
 21
250.67968895467752
  0
LINE
  8
_0-2_____1
  6
CONTINUOUS
 62
    3
 10
122.72509249707217
 20
250.67968895467752
 11
120.73521449707216
 21
250.67968895467752
  0
LINE
  8
_0-2_____1
  6
CONTINUOUS
 62
    3
 10
120.73521449707216
 20
250.67968895467752
 11
120.73521449707216
 21
252.57007295467753
  0
ARC
  8
_0-2_____1
  6
CONTINUOUS
 62
    6
 10
169.87521349707217
 20
206.42191295467751
 40
79.330160809508413
 50
93.295319999999975
 51
175.41538399999999
  0
LINE
  8
_0-2_____1
  6
CONTINUOUS
 62
    4
 10
87.800029497072146
 20
88.975793954677513
 11
93.843963497072167
 21
88.975793954677513
  0
LINE
  8
_0-2_____1
  6
CONTINUOUS
 62
    4
 10
87.800029497072146
 20
89.163293954677528
 11
93.843963497072167
 21
89.163293954677528
  0
LINE
  8
_0-2_____1
  6
CONTINUOUS
 62
    4
 10
83.743064497072169
 20
88.164403954677539
 11
81.47547249707219
 21
87.71088295467753
  0
ARC
  8
_0-2_____1
  6
CONTINUOUS
 62
    4
 10
83.779836497072168
 20
87.980544954677498
 40
0.1875000000001429
 50
11.310059000000003
 51
101.309957
  0
LINE
  8
_0-2_____1
  6
CONTINUOUS
 62
    4
 10
169.03146349707217
 20
89.163293954677528
 11
169.03146349707217
 21
95.225793954677513
  0
ARC
  8
_0-2_____1
  6
CONTINUOUS
 62
    4
 10
69.218963497072195
 20
85.259580954677489
 40
0.1874999999998665
 50
101.309932
 51
180
  0
LINE
  8
_0-2_____1
  6
CONTINUOUS
 62
    4
 10
69.218963497072195
 20
80.413293954677513
 11
69.406463497072195
 21
80.413293954677513
  0
LINE
  8
_0-2_____1
  6
CONTINUOUS
 62
    4
 10
69.031463497072195
 20
79.35079695467752
 11
69.031463497072195
 21
85.259580954677489
  0
ARC
  8
_0-2_____1
  6
CONTINUOUS
 62
    4
 10
69.218963497072195
 20
79.350793954677499
 40
0.1874999999998184
 50
179.99923700000002
 51
0
  0
LINE
  8
_0-2_____1
  6
CONTINUOUS
 62
    4
 10
69.218963497072195
 20
79.350793954677499
 11
69.218963497072195
 21
85.259580954677489
  0
LINE
  8
_0-2_____1
  6
CONTINUOUS
 62
    4
 10
69.218963497072195
 20
85.259580954677489
 11
87.800029497072146
 21
88.975793954677513
  0
LINE
  8
_0-2_____1
  6
CONTINUOUS
 62
    4
 10
69.182191497072154
 20
85.44343995467753
 11
87.763258497072172
 21
89.159652954677512
  0
LINE
  8
_0-2_____1
  6
CONTINUOUS
 62
    4
 10
69.406463497072195
 20
79.350793954677499
 11
69.406463497072195
 21
80.413293954677513
  0
ARC
  8
_0-2_____1
  6
CONTINUOUS
 62
    4
 10
87.800029497072146
 20
88.975793954677513
 40
0.1875
 50
90
 51
101.309932
  0
LINE
  8
_0-2_____1
  6
CONTINUOUS
 62
    4
 10
85.781463497072167
 20
85.347425954677519
 11
85.781463497072167
 21
85.159925954677533
  0
LINE
  8
_0-2_____1
  6
CONTINUOUS
 62
    4
 10
83.779836497072168
 20
87.980544954677498
 11
81.512244497072174
 21
87.527023954677531
  0
LINE
  8
_0-2_____1
  6
CONTINUOUS
 62
    4
 10
81.47547249707219
 20
87.71088295467753
 11
81.512244497072174
 21
87.527023954677531
  0
ARC
  8
_0-2_____1
  6
CONTINUOUS
 62
    4
 10
84.497676497072177
 20
85.347425954677519
 40
0.1875000000002475
 50
191.30996200000001
 51
269.99999800000001
  0
LINE
  8
_0-2_____1
  6
CONTINUOUS
 62
    4
 10
175.26289749707217
 20
89.163293954677528
 11
169.21896349707217
 21
89.163293954677528
  0
LINE
  8
_0-2_____1
  6
CONTINUOUS
 62
    4
 10
175.26289749707217
 20
88.975793954677513
 11
169.21896349707217
 21
88.975793954677513
  0
LINE
  8
_0-2_____1
  6
CONTINUOUS
 62
    4
 10
88.718963497072195
 20
85.347425954677519
 11
88.718963497072195
 21
85.159925954677533
  0
LINE
  8
_0-2_____1
  6
CONTINUOUS
 62
    4
 10
87.281463497072195
 20
85.347425954677519
 11
87.281463497072195
 21
85.159925954677533
  0
LINE
  8
_0-2_____1
  6
CONTINUOUS
 62
    4
 10
88.718963497072195
 20
85.347425954677519
 11
84.497676497072177
 21
85.347425954677519
  0
LINE
  8
_0-2_____1
  6
CONTINUOUS
 62
    4
 10
83.963695497072166
 20
88.017316954677511
 11
84.497676497072177
 21
85.347425954677519
  0
LINE
  8
_0-2_____1
  6
CONTINUOUS
 62
    4
 10
83.779836497072168
 20
87.980544954677498
 11
84.313817497072137
 21
85.31065395467752
  0
LINE
  8
_0-2_____1
  6
CONTINUOUS
 62
    4
 10
88.718963497072195
 20
85.159925954677533
 11
84.497676497072177
 21
85.159925954677533
  0
LINE
  8
_0-2_____1
  6
CONTINUOUS
 62
    4
 10
177.28146349707217
 20
85.347425954677519
 11
177.28146349707217
 21
85.159925954677533
  0
LINE
  8
_0-2_____1
  6
CONTINUOUS
 62
    4
 10
91.906463497072167
 20
91.373401954677533
 11
91.718963497072167
 21
91.373401954677533
  0
LINE
  8
_0-2_____1
  6
CONTINUOUS
 62
    4
 10
170.03146349707217
 20
95.413293954677528
 11
169.21896349707217
 21
95.413293954677528
  0
LINE
  8
_0-2_____1
  6
CONTINUOUS
 62
    4
 10
169.21896349707217
 20
89.163293954677528
 11
169.21896349707217
 21
90.123401954677533
  0
LINE
  8
_0-2_____1
  6
CONTINUOUS
 62
    4
 10
170.03146349707217
 20
95.225793954677513
 11
169.21896349707217
 21
95.225793954677513
  0
LINE
  8
_0-2_____1
  6
CONTINUOUS
 62
    4
 10
169.21896349707217
 20
90.123401954677533
 11
169.21896349707217
 21
95.225793954677513
  0
ARC
  8
_0-2_____1
  6
CONTINUOUS
 62
    4
 10
193.84396349707217
 20
79.350793954677499
 40
0.1875
 50
270
 51
0
  0
ARC
  8
_0-2_____1
  6
CONTINUOUS
 62
    4
 10
93.843963497072167
 20
89.163293954677528
 40
0.1875
 50
270
 51
0
  0
LINE
  8
_0-2_____1
  6
CONTINUOUS
 62
    4
 10
93.843963497072167
 20
89.163293954677528
 11
93.843963497072167
 21
95.225793954677513
  0
ARC
  8
_0-2_____1
  6
CONTINUOUS
 62
    4
 10
93.843963497072167
 20
95.225793954677513
 40
0.1875
 50
0
 51
90
  0
LINE
  8
_0-2_____1
  6
CONTINUOUS
 62
    4
 10
94.031463497072167
 20
89.163293954677528
 11
94.031463497072167
 21
95.225793954677513
  0
LINE
  8
_0-2_____1
  6
CONTINUOUS
 62
    4
 10
93.031463497072195
 20
95.225793954677513
 11
93.843963497072167
 21
95.225793954677513
  0
LINE
  8
_0-2_____1
  6
CONTINUOUS
 62
    4
 10
93.031463497072195
 20
95.225793954677513
 11
93.031463497072195
 21
95.413293954677528
  0
LINE
  8
_0-2_____1
  6
CONTINUOUS
 62
    4
 10
93.031463497072195
 20
95.413293954677528
 11
93.843963497072167
 21
95.413293954677528
  0
LINE
  8
_0-2_____1
  6
CONTINUOUS
 62
    4
 10
193.88073549707218
 20
85.44343995467753
 11
175.29966949707216
 21
89.159652954677512
  0
ARC
  8
_0-2_____1
  6
CONTINUOUS
 62
    4
 10
193.84396349707217
 20
79.350793954677499
 40
0.1875
 50
180
 51
270
  0
LINE
  8
_0-2_____1
  6
CONTINUOUS
 62
    4
 10
194.03146349707217
 20
79.350793954677499
 11
194.03146349707217
 21
85.259580954677489
  0
ARC
  8
_0-2_____1
  6
CONTINUOUS
 62
    4
 10
193.84396349707217
 20
85.259580954677489
 40
0.1874999999996881
 50
0
 51
78.690068000000025
  0
LINE
  8
_0-2_____1
  6
CONTINUOUS
 62
    4
 10
193.84396349707217
 20
80.413293954677513
 11
193.65646349707217
 21
80.413293954677513
  0
LINE
  8
_0-2_____1
  6
CONTINUOUS
 62
    4
 10
193.65646349707217
 20
79.350793954677499
 11
193.65646349707217
 21
80.413293954677513
  0
LINE
  8
_0-2_____1
  6
CONTINUOUS
 62
    4
 10
170.03146349707217
 20
95.225793954677513
 11
170.03146349707217
 21
95.413293954677528
  0
ARC
  8
_0-2_____1
  6
CONTINUOUS
 62
    4
 10
169.21896349707217
 20
89.163293954677528
 40
0.1875
 50
180
 51
270
  0
ARC
  8
_0-2_____1
  6
CONTINUOUS
 62
    4
 10
169.21896349707217
 20
95.225793954677513
 40
0.1875
 50
90
 51
180
  0
LINE
  8
_0-2_____1
  6
CONTINUOUS
 62
    4
 10
193.84396349707217
 20
79.350793954677499
 11
193.84396349707217
 21
85.259580954677489
  0
LINE
  8
_0-2_____1
  6
CONTINUOUS
 62
    4
 10
193.84396349707217
 20
85.259580954677489
 11
175.26289749707217
 21
88.975793954677513
  0
ARC
  8
_0-2_____1
  6
CONTINUOUS
 62
    4
 10
175.26289749707217
 20
88.975793954677513
 40
0.1875
 50
78.690068000000025
 51
90
  0
ARC
  8
_0-2_____1
  6
CONTINUOUS
 62
    4
 10
91.718963497072167
 20
90.310901954677519
 40
0.1875
 50
270
 51
359.99998900000003
  0
LINE
  8
_0-2_____1
  6
CONTINUOUS
 62
    4
 10
91.531463497072167
 20
95.62916895467751
 11
91.531463497072167
 21
90.310901954677519
  0
ARC
  8
_0-2_____1
  6
CONTINUOUS
 62
    4
 10
91.718963497072167
 20
95.62916895467751
 40
0.1874999999999497
 50
91.789911000000004
 51
180
  0
LINE
  8
_0-2_____1
  6
CONTINUOUS
 62
    4
 10
93.031463497072195
 20
95.225793954677513
 11
93.031463497072195
 21
95.413293954677528
  0
LINE
  8
_0-2_____1
  6
CONTINUOUS
 62
    4
 10
91.713107497072158
 20
95.816577954677513
 11
131.53146349707217
 21
97.060901954677519
  0
LINE
  8
_0-2_____1
  6
CONTINUOUS
 62
    4
 10
91.718963497072167
 20
95.62916895467751
 11
131.53146349707217
 21
96.873309954677509
  0
LINE
  8
_0-2_____1
  6
CONTINUOUS
 62
    4
 10
93.843963497072167
 20
89.163293954677528
 11
93.843963497072167
 21
90.123401954677533
  0
LINE
  8
_0-2_____1
  6
CONTINUOUS
 62
    4
 10
175.78146349707217
 20
85.347425954677519
 11
175.78146349707217
 21
85.159925954677533
  0
LINE
  8
_0-2_____1
  6
CONTINUOUS
 62
    4
 10
174.34396349707217
 20
85.347425954677519
 11
178.56525049707218
 21
85.347425954677519
  0
LINE
  8
_0-2_____1
  6
CONTINUOUS
 62
    4
 10
179.09923249707217
 20
88.017316954677511
 11
178.56525049707218
 21
85.347425954677519
  0
LINE
  8
_0-2_____1
  6
一点鎖線
 62
    3
 10
176.53146349707217
 20
85.972425954677519
 11
176.53146349707217
 21
84.534925954677533
  0
LINE
  8
_0-2_____1
  6
CONTINUOUS
 62
    4
 10
170.03146349707217
 20
95.225793954677513
 11
170.03146349707217
 21
95.413293954677528
  0
ARC
  8
_0-2_____1
  6
CONTINUOUS
 62
    4
 10
171.34396349707217
 20
90.310901954677519
 40
0.1875
 50
180.00003699999999
 51
0
  0
LINE
  8
_0-2_____1
  6
CONTINUOUS
 62
    4
 10
171.15646349707217
 20
91.373401954677533
 11
171.15646349707217
 21
90.310900954677507
  0
LINE
  8
_0-2_____1
  6
CONTINUOUS
 62
    4
 10
91.906463497072167
 20
91.373401954677533
 11
91.906463497072167
 21
90.310901954677519
  0
LINE
  8
_0-2_____1
  6
CONTINUOUS
 62
    4
 10
193.84396349707217
 20
79.350793954677499
 11
193.84396349707217
 21
85.259580954677489
  0
LINE
  8
_0-2_____1
  6
CONTINUOUS
 62
    4
 10
179.28309149707218
 20
87.980544954677498
 11
178.74910949707217
 21
85.31065395467752
  0
LINE
  8
_0-2_____1
  6
CONTINUOUS
 62
    4
 10
174.34396349707217
 20
85.159925954677533
 11
178.56525049707218
 21
85.159925954677533
  0
LINE
  8
_0-2_____1
  6
CONTINUOUS
 62
    4
 10
91.718963497072167
 20
95.62916895467751
 11
91.718963497072167
 21
90.310901954677519
  0
ARC
  8
_0-2_____1
  6
CONTINUOUS
 62
    4
 10
91.718963497072167
 20
90.310901954677519
 40
0.1875
 50
180
 51
270
  0
LINE
  8
_0-2_____1
  6
CONTINUOUS
 62
    4
 10
179.28309149707218
 20
87.980544954677498
 11
181.55068349707216
 21
87.527023954677531
  0
LINE
  8
_0-2_____1
  6
CONTINUOUS
 62
    4
 10
181.58745549707217
 20
87.71088295467753
 11
181.55068349707216
 21
87.527023954677531
  0
ARC
  8
_0-2_____1
  6
CONTINUOUS
 62
    4
 10
178.56525049707218
 20
85.347425954677519
 40
0.1875000000002475
 50
270.00000199999999
 51
348.69003800000002
  0
LINE
  8
_0-2_____1
  6
CONTINUOUS
 62
    4
 10
179.31986249707217
 20
88.164403954677539
 11
181.58745549707217
 21
87.71088295467753
  0
LINE
  8
_0-2_____1
  6
CONTINUOUS
 62
    4
 10
171.34982049707216
 20
95.816577954677513
 11
131.53146349707217
 21
97.060901954677519
  0
LINE
  8
_0-2_____1
  6
CONTINUOUS
 62
    4
 10
171.34396349707217
 20
95.62916895467751
 11
131.53146349707217
 21
96.873309954677509
  0
LINE
  8
_0-2_____1
  6
CONTINUOUS
 62
    4
 10
93.031463497072195
 20
95.225793954677513
 11
93.031463497072195
 21
95.413293954677528
  0
LINE
  8
_0-2_____1
  6
CONTINUOUS
 62
    4
 10
174.34396349707217
 20
85.347425954677519
 11
174.34396349707217
 21
85.159925954677533
  0
ARC
  8
_0-2_____1
  6
CONTINUOUS
 62
    4
 10
171.34396349707217
 20
95.62916895467751
 40
0.1875
 50
0
 51
88.210088999999996
  0
LINE
  8
_0-2_____1
  6
CONTINUOUS
 62
    4
 10
171.34396349707217
 20
95.62916895467751
 11
171.34396349707217
 21
90.310901954677519
  0
LINE
  8
_0-2_____1
  6
CONTINUOUS
 62
    4
 10
171.53146349707217
 20
95.62916895467751
 11
171.53146349707217
 21
90.310901954677519
  0
LINE
  8
_0-2_____1
  6
CONTINUOUS
 62
    4
 10
171.15646349707217
 20
91.373401954677533
 11
171.34396349707217
 21
91.373401954677533
  0
ARC
  8
_0-2_____1
  6
CONTINUOUS
 62
    4
 10
179.28309149707218
 20
87.980544954677498
 40
0.1875000000001429
 50
78.690043000000003
 51
168.689941
  0
TEXT
  8
_0-2_____1
 62
    7
 10
112.71102349707218
 20
13.538400954677513
 40
4
 41
0.8579999999999999
 50
0
  1
Ａ部断面図　Ｓ１：８
  0
LINE
  8
_0-2_____1
  6
CONTINUOUS
 62
    2
 10
111.32279149707217
 20
18.455215954677499
 11
148.66488449707217
 21
18.455215954677499
  0
LINE
  8
_0-2_____1
  6
CONTINUOUS
 62
    2
 10
148.66488449707217
 20
18.455215954677499
 11
148.66488449707217
 21
12.557301954677513
  0
LINE
  8
_0-2_____1
  6
CONTINUOUS
 62
    2
 10
148.66488449707217
 20
12.557301954677513
 11
111.32279149707217
 21
12.557301954677513
  0
LINE
  8
_0-2_____1
  6
CONTINUOUS
 62
    2
 10
111.32279149707217
 20
12.557301954677513
 11
111.32279149707217
 21
18.455215954677499
  0
TEXT
  8
_0-2_____1
 62
    7
 10
299.03203849707216
 20
43.103610954677521
 40
4
 41
0.8579999999999999
 50
0
  1
平面図　Ｓ１：８
  0
LINE
  8
_0-2_____1
  6
CONTINUOUS
 62
    2
 10
297.64380649707215
 20
48.020425954677506
 11
327.44673849707215
 21
48.020425954677506
  0
LINE
  8
_0-2_____1
  6
CONTINUOUS
 62
    2
 10
327.44673849707215
 20
48.020425954677506
 11
327.44673849707215
 21
42.12251195467752
  0
LINE
  8
_0-2_____1
  6
CONTINUOUS
 62
    2
 10
327.44673849707215
 20
42.12251195467752
 11
297.64380649707215
 21
42.12251195467752
  0
LINE
  8
_0-2_____1
  6
CONTINUOUS
 62
    2
 10
297.64380649707215
 20
42.12251195467752
 11
297.64380649707215
 21
48.020425954677506
  0
LINE
  8
_0-2_____1
  6
一点鎖線
 62
    3
 10
310.25583149707217
 20
212.29536795467752
 11
310.25583149707217
 21
77.302851954677536
  0
INSERT
  2
-004-D3
  8
_0-2_____1
 10
364.00583149707217
 20
219.15670095467752
 41
1
 42
1
 50
0
  0
INSERT
  2
-005-D4
  8
_0-2_____1
 10
1.2577204970721709
 20
1.719697954677514
 41
1
 42
1
 50
0
  0
LINE
  8
_0-2_____1
  6
一点鎖線
 62
    3
 10
332.75585249707217
 20
181.56208395467752
 11
332.75585249707217
 21
182.9996359546775
  0
LINE
  8
_0-2_____1
  6
一点鎖線
 62
    3
 10
335.50585249707217
 20
181.56208395467752
 11
335.50585249707217
 21
182.9996359546775
  0
LINE
  8
_0-2_____1
  6
一点鎖線
 62
    3
 10
338.25585249707217
 20
181.56208395467752
 11
338.25585249707217
 21
182.9996359546775
  0
LINE
  8
_0-2_____1
  6
破線
 62
    3
 10
339.50585249707217
 20
182.62458395467752
 11
331.50585249707217
 21
182.62458395467752
  0
LINE
  8
_0-2_____1
  6
破線
 62
    3
 10
339.50585249707217
 20
183.37458395467752
 11
331.50585249707217
 21
183.37458395467752
  0
LINE
  8
_0-2_____1
  6
破線
 62
    3
 10
334.70585249707216
 20
182.62458395467752
 11
334.70585249707216
 21
183.37458395467752
  0
LINE
  8
_0-2_____1
  6
破線
 62
    3
 10
333.10585249707219
 20
182.62458395467752
 11
333.10585249707219
 21
183.37458395467752
  0
LINE
  8
_0-2_____1
  6
破線
 62
    3
 10
339.50585249707217
 20
183.74958395467752
 11
339.50585249707217
 21
182.24958395467752
  0
LINE
  8
_0-2_____1
  6
破線
 62
    3
 10
331.50585249707217
 20
183.74958395467752
 11
331.50585249707217
 21
182.24958395467752
  0
ARC
  8
_0-2_____1
  6
破線
 62
    3
 10
332.63559549707219
 20
182.99958395467752
 40
1.250000000083332
 50
154.66145900000001
 51
205.33854100000002
  0
ARC
  8
_0-2_____1
  6
破線
 62
    3
 10
338.37610849707215
 20
182.99958395467752
 40
1.2500000000579801
 50
334.66145899999998
 51
25.338541000000035
  0
LINE
  8
_0-2_____1
  6
破線
 62
    3
 10
337.90585249707215
 20
182.62458395467752
 11
337.90585249707215
 21
183.37458395467752
  0
LINE
  8
_0-2_____1
  6
破線
 62
    3
 10
336.30585249707218
 20
182.62458395467752
 11
336.30585249707218
 21
183.37458395467752
  0
LINE
  8
_0-2_____1
  6
破線
 62
    3
 10
343.25581049707216
 20
168.21658995467752
 11
342.48664649707217
 21
168.21658995467752
  0
LINE
  8
_0-2_____1
  6
破線
 62
    3
 10
342.48664649707217
 20
169.38759695467752
 11
343.25581049707216
 21
169.38759695467752
  0
LINE
  8
_0-2_____1
  6
破線
 62
    3
 10
343.25581049707216
 20
167.6302189546775
 11
342.48664649707217
 21
167.6302189546775
  0
LINE
  8
_0-2_____1
  6
破線
 62
    3
 10
342.39643549707216
 20
167.7864689546775
 11
342.48664649707217
 21
167.6302189546775
  0
LINE
  8
_0-2_____1
  6
破線
 62
    3
 10
342.39643549707216
 20
169.8177189546775
 11
342.39643549707216
 21
167.7864689546775
  0
LINE
  8
_0-2_____1
  6
破線
 62
    3
 10
342.39643549707216
 20
169.8177189546775
 11
342.48664649707217
 21
169.9739689546775
  0
LINE
  8
_0-2_____1
  6
破線
 62
    3
 10
342.48664649707217
 20
169.9739689546775
 11
343.25581049707216
 21
169.9739689546775
  0
LINE
  8
_0-2_____1
  6
破線
 62
    3
 10
343.25581049707216
 20
169.9739689546775
 11
343.25581049707216
 21
167.6302189546775
  0
LINE
  8
_0-2_____1
  6
破線
 62
    3
 10
342.48664649707217
 20
168.21658995467752
 11
342.43790849707216
 21
167.99514195467751
  0
LINE
  8
_0-2_____1
  6
破線
 62
    3
 10
342.43790849707216
 20
167.99514195467751
 11
342.41811449707217
 21
167.8844179546775
  0
LINE
  8
_0-2_____1
  6
破線
 62
    3
 10
342.41811449707217
 20
167.8844179546775
 11
342.40381149707218
 21
167.77369395467753
  0
LINE
  8
_0-2_____1
  6
破線
 62
    3
 10
342.48664649707217
 20
169.38759695467752
 11
342.43790849707216
 21
169.6090449546775
  0
LINE
  8
_0-2_____1
  6
破線
 62
    3
 10
342.43790849707216
 20
169.6090449546775
 11
342.41811449707217
 21
169.71976895467751
  0
LINE
  8
_0-2_____1
  6
破線
 62
    3
 10
342.41811449707217
 20
169.71976895467751
 11
342.40381149707218
 21
169.83049395467751
  0
LINE
  8
_0-2_____1
  6
破線
 62
    3
 10
342.48664649707217
 20
169.38759695467752
 11
342.45352249707219
 21
169.24122095467752
  0
LINE
  8
_0-2_____1
  6
破線
 62
    3
 10
342.45352249707219
 20
169.24122095467752
 11
342.42462649707215
 21
169.09484495467751
  0
LINE
  8
_0-2_____1
  6
破線
 62
    3
 10
342.42462649707215
 20
169.09484495467751
 11
342.4041884970722
 21
168.94846895467751
  0
LINE
  8
_0-2_____1
  6
破線
 62
    3
 10
342.4041884970722
 20
168.94846895467751
 11
342.39643549707216
 21
168.8020939546775
  0
LINE
  8
_0-2_____1
  6
破線
 62
    3
 10
342.39643549707216
 20
168.8020939546775
 11
342.4041884970722
 21
168.65571795467753
  0
LINE
  8
_0-2_____1
  6
破線
 62
    3
 10
342.4041884970722
 20
168.65571795467753
 11
342.42462649707215
 21
168.50934195467741
  0
LINE
  8
_0-2_____1
  6
破線
 62
    3
 10
342.42462649707215
 20
168.50934195467741
 11
342.45352249707219
 21
168.36296595467752
  0
LINE
  8
_0-2_____1
  6
破線
 62
    3
 10
342.45352249707219
 20
168.36296595467752
 11
342.48664649707217
 21
168.21658995467752
  0
LINE
  8
_0-2_____1
  6
破線
 62
    3
 10
342.44158149707215
 20
169.34321895467741
 11
342.53533149707215
 21
169.43696895467741
  0
LINE
  8
_0-2_____1
  6
破線
 62
    3
 10
342.53533149707215
 20
168.18696895467752
 11
342.44158149707215
 21
168.28071895467752
  0
LINE
  8
_0-2_____1
  6
破線
 62
    3
 10
342.53533149707215
 20
168.18696895467752
 11
342.53533149707215
 21
169.43696895467741
  0
LINE
  8
_0-2_____1
  6
破線
 62
    3
 10
342.44158149707215
 20
168.28071895467752
 11
342.44158149707215
 21
169.34321895467741
  0
LINE
  8
_0-2_____1
  6
破線
 62
    3
 10
344.94158149707215
 20
168.18696895467752
 11
342.53533149707215
 21
168.18696895467752
  0
LINE
  8
_0-2_____1
  6
破線
 62
    3
 10
344.94158149707215
 20
168.28071895467752
 11
342.44158149707215
 21
168.28071895467752
  0
LINE
  8
_0-2_____1
  6
破線
 62
    3
 10
344.94158149707215
 20
169.34321895467741
 11
342.44158149707215
 21
169.34321895467741
  0
LINE
  8
_0-2_____1
  6
破線
 62
    3
 10
344.94158149707215
 20
169.43696895467741
 11
342.53533149707215
 21
169.43696895467741
  0
LINE
  8
_0-2_____1
  6
破線
 62
    3
 10
345.7107454970722
 20
168.22646495467751
 11
345.74386949707218
 21
168.37284095467751
  0
LINE
  8
_0-2_____1
  6
破線
 62
    3
 10
345.74386949707218
 20
168.37284095467751
 11
345.77276549707216
 21
168.51921695467752
  0
LINE
  8
_0-2_____1
  6
破線
 62
    3
 10
345.77276549707216
 20
168.51921695467752
 11
345.79320449707217
 21
168.66559295467752
  0
LINE
  8
_0-2_____1
  6
破線
 62
    3
 10
345.79320449707217
 20
168.66559295467752
 11
345.80095649707215
 21
168.81196895467752
  0
LINE
  8
_0-2_____1
  6
破線
 62
    3
 10
345.80095649707215
 20
168.81196895467752
 11
345.79320449707217
 21
168.9583439546775
  0
LINE
  8
_0-2_____1
  6
破線
 62
    3
 10
345.79320449707217
 20
168.9583439546775
 11
345.77276549707216
 21
169.10471995467751
  0
LINE
  8
_0-2_____1
  6
破線
 62
    3
 10
345.77276549707216
 20
169.10471995467751
 11
345.74386949707218
 21
169.25109595467751
  0
LINE
  8
_0-2_____1
  6
破線
 62
    3
 10
345.74386949707218
 20
169.25109595467751
 11
345.7107454970722
 21
169.39747195467751
  0
LINE
  8
_0-2_____1
  6
破線
 62
    3
 10
345.7107454970722
 20
168.22646495467751
 11
345.75948449707215
 21
168.0050169546775
  0
LINE
  8
_0-2_____1
  6
破線
 62
    3
 10
345.75948449707215
 20
168.0050169546775
 11
345.7792784970722
 21
167.89429295467752
  0
LINE
  8
_0-2_____1
  6
破線
 62
    3
 10
345.7792784970722
 20
167.89429295467752
 11
345.79358049707218
 21
167.78356895467752
  0
LINE
  8
_0-2_____1
  6
破線
 62
    3
 10
345.7107454970722
 20
169.39747195467751
 11
345.75948449707215
 21
169.61891995467752
  0
LINE
  8
_0-2_____1
  6
破線
 62
    3
 10
345.75948449707215
 20
169.61891995467752
 11
345.7792784970722
 21
169.72964395467753
  0
LINE
  8
_0-2_____1
  6
破線
 62
    3
 10
345.7792784970722
 20
169.72964395467753
 11
345.79358049707218
 21
169.8403689546775
  0
LINE
  8
_0-2_____1
  6
破線
 62
    3
 10
344.94158149707215
 20
167.64009395467752
 11
344.94158149707215
 21
169.98384395467752
  0
LINE
  8
_0-2_____1
  6
破線
 62
    3
 10
345.7107454970722
 20
167.64009395467752
 11
344.94158149707215
 21
167.64009395467752
  0
LINE
  8
_0-2_____1
  6
破線
 62
    3
 10
345.80095649707215
 20
167.79634395467752
 11
345.7107454970722
 21
167.64009395467752
  0
LINE
  8
_0-2_____1
  6
破線
 62
    3
 10
345.80095649707215
 20
167.79634395467752
 11
345.80095649707215
 21
169.82759395467741
  0
LINE
  8
_0-2_____1
  6
破線
 62
    3
 10
345.80095649707215
 20
169.82759395467741
 11
345.7107454970722
 21
169.98384395467752
  0
LINE
  8
_0-2_____1
  6
破線
 62
    3
 10
344.94158149707215
 20
169.98384395467752
 11
345.7107454970722
 21
169.98384395467752
  0
LINE
  8
_0-2_____1
  6
破線
 62
    3
 10
345.7107454970722
 20
168.22646495467751
 11
344.94158149707215
 21
168.22646495467751
  0
LINE
  8
_0-2_____1
  6
破線
 62
    3
 10
344.94158149707215
 20
169.39747195467751
 11
345.7107454970722
 21
169.39747195467751
  0
LINE
  8
_0-2_____1
  6
破線
 62
    3
 10
344.68083149707218
 20
168.06196895467752
 11
344.68083149707218
 21
169.56196895467741
  0
LINE
  8
_0-2_____1
  6
破線
 62
    3
 10
344.68083149707218
 20
168.06196895467752
 11
344.60583149707219
 21
168.06196895467752
  0
LINE
  8
_0-2_____1
  6
破線
 62
    3
 10
344.68083149707218
 20
169.56196895467741
 11
344.60583149707219
 21
169.56196895467741
  0
LINE
  8
_0-2_____1
  6
破線
 62
    3
 10
344.82770649707214
 20
170.06196895467752
 11
344.87989149707215
 21
169.90436995467752
  0
LINE
  8
_0-2_____1
  6
破線
 62
    3
 10
344.87989149707215
 20
169.90436995467752
 11
344.92151549707216
 21
169.74731095467752
  0
LINE
  8
_0-2_____1
  6
破線
 62
    3
 10
344.92151549707216
 20
169.74731095467752
 11
344.94201549707219
 21
169.59133095467752
  0
LINE
  8
_0-2_____1
  6
破線
 62
    3
 10
344.94201549707219
 20
169.59133095467752
 11
344.9410444970722
 21
169.51391395467752
  0
LINE
  8
_0-2_____1
  6
破線
 62
    3
 10
344.9410444970722
 20
169.51391395467752
 11
344.93083149707218
 21
169.43696895467741
  0
LINE
  8
_0-2_____1
  6
破線
 62
    3
 10
344.93083149707218
 20
169.43696895467741
 11
344.90981949707219
 21
169.3575699546775
  0
LINE
  8
_0-2_____1
  6
破線
 62
    3
 10
344.90981949707219
 20
169.3575699546775
 11
344.88075249707219
 21
169.27868095467753
  0
LINE
  8
_0-2_____1
  6
破線
 62
    3
 10
344.88075249707219
 20
169.27868095467753
 11
344.81183749707219
 21
169.12213995467752
  0
LINE
  8
_0-2_____1
  6
破線
 62
    3
 10
344.81183749707219
 20
169.12213995467752
 11
344.75085749707216
 21
168.96676295467751
  0
LINE
  8
_0-2_____1
  6
破線
 62
    3
 10
344.75085749707216
 20
168.96676295467751
 11
344.73170849707208
 21
168.88932895467752
  0
LINE
  8
_0-2_____1
  6
破線
 62
    3
 10
344.73170849707208
 20
168.88932895467752
 11
344.72458149707217
 21
168.81196895467752
  0
LINE
  8
_0-2_____1
  6
破線
 62
    3
 10
344.72458149707217
 20
168.81196895467752
 11
344.73170849707208
 21
168.7346079546775
  0
LINE
  8
_0-2_____1
  6
破線
 62
    3
 10
344.73170849707208
 20
168.7346079546775
 11
344.75085749707216
 21
168.65717395467752
  0
LINE
  8
_0-2_____1
  6
破線
 62
    3
 10
344.75085749707216
 20
168.65717395467752
 11
344.81183749707219
 21
168.5017969546775
  0
LINE
  8
_0-2_____1
  6
破線
 62
    3
 10
344.81183749707219
 20
168.5017969546775
 11
344.88075249707219
 21
168.34525595467753
  0
LINE
  8
_0-2_____1
  6
破線
 62
    3
 10
344.88075249707219
 20
168.34525595467753
 11
344.90981949707219
 21
168.26636695467752
  0
LINE
  8
_0-2_____1
  6
破線
 62
    3
 10
344.90981949707219
 20
168.26636695467752
 11
344.93083149707218
 21
168.18696895467752
  0
LINE
  8
_0-2_____1
  6
破線
 62
    3
 10
344.93083149707218
 20
168.18696895467752
 11
344.9410444970722
 21
168.1100229546775
  0
LINE
  8
_0-2_____1
  6
破線
 62
    3
 10
344.9410444970722
 20
168.1100229546775
 11
344.94201549707219
 21
168.03260595467751
  0
LINE
  8
_0-2_____1
  6
破線
 62
    3
 10
344.94201549707219
 20
168.03260595467751
 11
344.92151549707216
 21
167.87662595467751
  0
LINE
  8
_0-2_____1
  6
破線
 62
    3
 10
344.92151549707216
 20
167.87662595467751
 11
344.87989149707215
 21
167.7195669546775
  0
LINE
  8
_0-2_____1
  6
破線
 62
    3
 10
344.87989149707215
 20
167.7195669546775
 11
344.82770649707214
 21
167.56196895467752
  0
LINE
  8
_0-2_____1
  6
破線
 62
    3
 10
344.78395649707215
 20
170.06196895467752
 11
344.83614149707216
 21
169.90436995467752
  0
LINE
  8
_0-2_____1
  6
破線
 62
    3
 10
344.83614149707216
 20
169.90436995467752
 11
344.87776549707218
 21
169.74731095467752
  0
LINE
  8
_0-2_____1
  6
破線
 62
    3
 10
344.87776549707218
 20
169.74731095467752
 11
344.89826549707215
 21
169.59133095467752
  0
LINE
  8
_0-2_____1
  6
破線
 62
    3
 10
344.89826549707215
 20
169.59133095467752
 11
344.89729449707215
 21
169.51391395467752
  0
LINE
  8
_0-2_____1
  6
破線
 62
    3
 10
344.89729449707215
 20
169.51391395467752
 11
344.88708149707219
 21
169.43696895467741
  0
LINE
  8
_0-2_____1
  6
破線
 62
    3
 10
344.88708149707219
 20
169.43696895467741
 11
344.86606949707226
 21
169.3575699546775
  0
LINE
  8
_0-2_____1
  6
破線
 62
    3
 10
344.86606949707226
 20
169.3575699546775
 11
344.83700249707215
 21
169.27868095467753
  0
LINE
  8
_0-2_____1
  6
破線
 62
    3
 10
344.83700249707215
 20
169.27868095467753
 11
344.76808749707214
 21
169.12213995467752
  0
LINE
  8
_0-2_____1
  6
破線
 62
    3
 10
344.76808749707214
 20
169.12213995467752
 11
344.70710749707217
 21
168.96676295467751
  0
LINE
  8
_0-2_____1
  6
破線
 62
    3
 10
344.70710749707217
 20
168.96676295467751
 11
344.68795849707215
 21
168.88932895467752
  0
LINE
  8
_0-2_____1
  6
破線
 62
    3
 10
344.68795849707215
 20
168.88932895467752
 11
344.68083149707218
 21
168.81196895467752
  0
LINE
  8
_0-2_____1
  6
破線
 62
    3
 10
344.68083149707218
 20
168.81196895467752
 11
344.68795849707215
 21
168.7346079546775
  0
LINE
  8
_0-2_____1
  6
破線
 62
    3
 10
344.68795849707215
 20
168.7346079546775
 11
344.70710749707217
 21
168.65717395467752
  0
LINE
  8
_0-2_____1
  6
破線
 62
    3
 10
344.70710749707217
 20
168.65717395467752
 11
344.76808749707214
 21
168.5017969546775
  0
LINE
  8
_0-2_____1
  6
破線
 62
    3
 10
344.76808749707214
 20
168.5017969546775
 11
344.83700249707215
 21
168.34525595467753
  0
LINE
  8
_0-2_____1
  6
破線
 62
    3
 10
344.83700249707215
 20
168.34525595467753
 11
344.86606949707226
 21
168.26636695467752
  0
LINE
  8
_0-2_____1
  6
破線
 62
    3
 10
344.86606949707226
 20
168.26636695467752
 11
344.88708149707219
 21
168.18696895467752
  0
LINE
  8
_0-2_____1
  6
破線
 62
    3
 10
344.88708149707219
 20
168.18696895467752
 11
344.89729449707215
 21
168.1100229546775
  0
LINE
  8
_0-2_____1
  6
破線
 62
    3
 10
344.89729449707215
 20
168.1100229546775
 11
344.89826549707215
 21
168.03260595467751
  0
LINE
  8
_0-2_____1
  6
破線
 62
    3
 10
344.89826549707215
 20
168.03260595467751
 11
344.87776549707218
 21
167.87662595467751
  0
LINE
  8
_0-2_____1
  6
破線
 62
    3
 10
344.87776549707218
 20
167.87662595467751
 11
344.83614149707216
 21
167.7195669546775
  0
LINE
  8
_0-2_____1
  6
破線
 62
    3
 10
344.83614149707216
 20
167.7195669546775
 11
344.78395649707215
 21
167.56196895467752
  0
LINE
  8
_0-2_____1
  6
破線
 62
    3
 10
344.82770649707214
 20
170.06196895467752
 11
344.78395649707215
 21
170.06196895467752
  0
LINE
  8
_0-2_____1
  6
破線
 62
    3
 10
344.82770649707214
 20
167.56196895467752
 11
344.78395649707215
 21
167.56196895467752
  0
LINE
  8
_0-2_____1
  6
破線
 62
    3
 10
344.13083149707217
 20
168.06196895467752
 11
344.13083149707217
 21
169.56196895467741
  0
LINE
  8
_0-2_____1
  6
破線
 62
    3
 10
344.13083149707217
 20
168.06196895467752
 11
344.20583149707215
 21
168.06196895467752
  0
LINE
  8
_0-2_____1
  6
破線
 62
    3
 10
344.13083149707217
 20
169.56196895467741
 11
344.20583149707215
 21
169.56196895467741
  0
LINE
  8
_0-2_____1
  6
破線
 62
    3
 10
343.98395649707214
 20
170.06196895467752
 11
343.93177149707219
 21
169.90436995467752
  0
LINE
  8
_0-2_____1
  6
破線
 62
    3
 10
343.93177149707219
 20
169.90436995467752
 11
343.89014749707218
 21
169.74731095467752
  0
LINE
  8
_0-2_____1
  6
破線
 62
    3
 10
343.89014749707218
 20
169.74731095467752
 11
343.86964749707215
 21
169.59133095467752
  0
LINE
  8
_0-2_____1
  6
破線
 62
    3
 10
343.86964749707215
 20
169.59133095467752
 11
343.87061849707214
 21
169.51391395467752
  0
LINE
  8
_0-2_____1
  6
破線
 62
    3
 10
343.87061849707214
 20
169.51391395467752
 11
343.88083149707217
 21
169.43696895467741
  0
LINE
  8
_0-2_____1
  6
破線
 62
    3
 10
343.88083149707217
 20
169.43696895467741
 11
343.90184349707215
 21
169.3575699546775
  0
LINE
  8
_0-2_____1
  6
破線
 62
    3
 10
343.90184349707215
 20
169.3575699546775
 11
343.93091049707215
 21
169.27868095467753
  0
LINE
  8
_0-2_____1
  6
破線
 62
    3
 10
343.93091049707215
 20
169.27868095467753
 11
343.99982549707215
 21
169.12213995467752
  0
LINE
  8
_0-2_____1
  6
破線
 62
    3
 10
343.99982549707215
 20
169.12213995467752
 11
344.06080549707218
 21
168.96676295467751
  0
LINE
  8
_0-2_____1
  6
破線
 62
    3
 10
344.06080549707218
 20
168.96676295467751
 11
344.07995449707215
 21
168.88932895467752
  0
LINE
  8
_0-2_____1
  6
破線
 62
    3
 10
344.07995449707215
 20
168.88932895467752
 11
344.08708149707218
 21
168.81196895467752
  0
LINE
  8
_0-2_____1
  6
破線
 62
    3
 10
344.08708149707218
 20
168.81196895467752
 11
344.07995449707215
 21
168.7346079546775
  0
LINE
  8
_0-2_____1
  6
破線
 62
    3
 10
344.07995449707215
 20
168.7346079546775
 11
344.06080549707218
 21
168.65717395467752
  0
LINE
  8
_0-2_____1
  6
破線
 62
    3
 10
344.06080549707218
 20
168.65717395467752
 11
343.99982549707215
 21
168.5017969546775
  0
LINE
  8
_0-2_____1
  6
破線
 62
    3
 10
343.99982549707215
 20
168.5017969546775
 11
343.93091049707215
 21
168.34525595467753
  0
LINE
  8
_0-2_____1
  6
破線
 62
    3
 10
343.93091049707215
 20
168.34525595467753
 11
343.90184349707215
 21
168.26636695467752
  0
LINE
  8
_0-2_____1
  6
破線
 62
    3
 10
343.90184349707215
 20
168.26636695467752
 11
343.88083149707217
 21
168.18696895467752
  0
LINE
  8
_0-2_____1
  6
破線
 62
    3
 10
343.88083149707217
 20
168.18696895467752
 11
343.87061849707214
 21
168.1100229546775
  0
LINE
  8
_0-2_____1
  6
破線
 62
    3
 10
343.87061849707214
 20
168.1100229546775
 11
343.86964749707215
 21
168.03260595467751
  0
LINE
  8
_0-2_____1
  6
破線
 62
    3
 10
343.86964749707215
 20
168.03260595467751
 11
343.89014749707218
 21
167.87662595467751
  0
LINE
  8
_0-2_____1
  6
破線
 62
    3
 10
343.89014749707218
 20
167.87662595467751
 11
343.93177149707219
 21
167.7195669546775
  0
LINE
  8
_0-2_____1
  6
破線
 62
    3
 10
343.93177149707219
 20
167.7195669546775
 11
343.98395649707214
 21
167.56196895467752
  0
LINE
  8
_0-2_____1
  6
破線
 62
    3
 10
344.02770649707219
 20
170.06196895467752
 11
343.97552149707207
 21
169.90436995467752
  0
LINE
  8
_0-2_____1
  6
破線
 62
    3
 10
343.97552149707207
 20
169.90436995467752
 11
343.93389749707217
 21
169.74731095467752
  0
LINE
  8
_0-2_____1
  6
破線
 62
    3
 10
343.93389749707217
 20
169.74731095467752
 11
343.9133974970722
 21
169.59133095467752
  0
LINE
  8
_0-2_____1
  6
破線
 62
    3
 10
343.9133974970722
 20
169.59133095467752
 11
343.91436849707219
 21
169.51391395467752
  0
LINE
  8
_0-2_____1
  6
破線
 62
    3
 10
343.91436849707219
 20
169.51391395467752
 11
343.92458149707215
 21
169.43696895467741
  0
LINE
  8
_0-2_____1
  6
破線
 62
    3
 10
343.92458149707215
 20
169.43696895467741
 11
343.9455934970722
 21
169.3575699546775
  0
LINE
  8
_0-2_____1
  6
破線
 62
    3
 10
343.9455934970722
 20
169.3575699546775
 11
343.97466049707219
 21
169.27868095467753
  0
LINE
  8
_0-2_____1
  6
破線
 62
    3
 10
343.97466049707219
 20
169.27868095467753
 11
344.0435754970722
 21
169.12213995467752
  0
LINE
  8
_0-2_____1
  6
破線
 62
    3
 10
344.0435754970722
 20
169.12213995467752
 11
344.10455549707217
 21
168.96676295467751
  0
LINE
  8
_0-2_____1
  6
破線
 62
    3
 10
344.10455549707217
 20
168.96676295467751
 11
344.1237044970722
 21
168.88932895467752
  0
LINE
  8
_0-2_____1
  6
破線
 62
    3
 10
344.1237044970722
 20
168.88932895467752
 11
344.13083149707217
 21
168.81196895467752
  0
LINE
  8
_0-2_____1
  6
破線
 62
    3
 10
344.13083149707217
 20
168.81196895467752
 11
344.1237044970722
 21
168.7346079546775
  0
LINE
  8
_0-2_____1
  6
破線
 62
    3
 10
344.1237044970722
 20
168.7346079546775
 11
344.10455549707217
 21
168.65717395467752
  0
LINE
  8
_0-2_____1
  6
破線
 62
    3
 10
344.10455549707217
 20
168.65717395467752
 11
344.0435754970722
 21
168.5017969546775
  0
LINE
  8
_0-2_____1
  6
破線
 62
    3
 10
344.0435754970722
 20
168.5017969546775
 11
343.97466049707219
 21
168.34525595467753
  0
LINE
  8
_0-2_____1
  6
破線
 62
    3
 10
343.97466049707219
 20
168.34525595467753
 11
343.9455934970722
 21
168.26636695467752
  0
LINE
  8
_0-2_____1
  6
破線
 62
    3
 10
343.9455934970722
 20
168.26636695467752
 11
343.92458149707215
 21
168.18696895467752
  0
LINE
  8
_0-2_____1
  6
破線
 62
    3
 10
343.92458149707215
 20
168.18696895467752
 11
343.91436849707219
 21
168.1100229546775
  0
LINE
  8
_0-2_____1
  6
破線
 62
    3
 10
343.91436849707219
 20
168.1100229546775
 11
343.9133974970722
 21
168.03260595467751
  0
LINE
  8
_0-2_____1
  6
破線
 62
    3
 10
343.9133974970722
 20
168.03260595467751
 11
343.93389749707217
 21
167.87662595467751
  0
LINE
  8
_0-2_____1
  6
破線
 62
    3
 10
343.93389749707217
 20
167.87662595467751
 11
343.97552149707207
 21
167.7195669546775
  0
LINE
  8
_0-2_____1
  6
破線
 62
    3
 10
343.97552149707207
 20
167.7195669546775
 11
344.02770649707219
 21
167.56196895467752
  0
LINE
  8
_0-2_____1
  6
破線
 62
    3
 10
343.98395649707214
 20
170.06196895467752
 11
344.02770649707219
 21
170.06196895467752
  0
LINE
  8
_0-2_____1
  6
破線
 62
    3
 10
343.98395649707214
 20
167.56196895467752
 11
344.02770649707219
 21
167.56196895467752
  0
LINE
  8
_0-2_____1
  6
破線
 62
    3
 10
347.56833149707217
 20
121.43708395467752
 11
347.56833149707217
 21
124.12458395467752
  0
LINE
  8
_0-2_____1
  6
破線
 62
    3
 10
347.56833149707217
 20
128.24958395467752
 11
347.56833149707217
 21
130.93708395467752
  0
LINE
  8
_0-2_____1
  6
破線
 62
    3
 10
346.00583149707217
 20
127.87458395467752
 11
347.56833149707217
 21
127.87458395467752
  0
ARC
  8
_0-2_____1
  6
破線
 62
    3
 10
347.56833149707217
 20
127.68708395467752
 40
0.1874999999311385
 50
0
 51
90
  0
ARC
  8
_0-2_____1
  6
破線
 62
    3
 10
346.19333149707217
 20
124.49958395467752
 40
0.1875000001810067
 50
180
 51
270
  0
LINE
  8
_0-2_____1
  6
破線
 62
    3
 10
346.56833149707217
 20
126.79958395467752
 11
346.19333149707217
 21
126.79958395467752
  0
LINE
  8
_0-2_____1
  6
破線
 62
    3
 10
346.00583149707217
 20
124.49958395467752
 11
346.00583149707217
 21
127.87458395467752
  0
LINE
  8
_0-2_____1
  6
破線
 62
    3
 10
346.56833149707217
 20
125.57458395467751
 11
346.19333149707217
 21
125.57458395467751
  0
LINE
  8
_0-2_____1
  6
破線
 62
    3
 10
346.56833149707217
 20
125.57458395467751
 11
346.56833149707217
 21
126.79958395467752
  0
LINE
  8
_0-2_____1
  6
破線
 62
    3
 10
346.19333149707217
 20
124.49958395467752
 11
346.19333149707217
 21
127.87458395467752
  0
ARC
  8
_0-2_____1
  6
破線
 62
    3
 10
346.25583149707217
 20
126.86208395467752
 40
0.2500000000974029
 50
180
 51
270
  0
ARC
  8
_0-2_____1
  6
破線
 62
    3
 10
346.25583149707217
 20
125.51208395467751
 40
0.2500000000726432
 50
90
 51
180
  0
LINE
  8
_0-2_____1
  6
破線
 62
    3
 10
347.56833149707217
 20
130.93708395467752
 11
347.75583149707217
 21
130.93708395467752
  0
LINE
  8
_0-2_____1
  6
破線
 62
    3
 10
347.56833149707217
 20
121.43708395467752
 11
347.75583149707217
 21
121.43708395467752
  0
ARC
  8
_0-2_____1
  6
破線
 62
    3
 10
346.19333149707217
 20
127.87458395467752
 40
0.1875000000306799
 50
90
 51
180
  0
ARC
  8
_0-2_____1
  6
破線
 62
    3
 10
347.38083149707217
 20
128.24958395467752
 40
0.1874999999439979
 50
270.15634899999998
 51
0
  0
ARC
  8
_0-2_____1
  6
破線
 62
    3
 10
347.38083149707217
 20
128.24958395467752
 40
0.3750000000160607
 50
270
 51
0
  0
LINE
  8
_0-2_____1
  6
破線
 62
    3
 10
346.19333149707217
 20
128.06208395467752
 11
347.38134349707218
 21
128.06208395467752
  0
LINE
  8
_0-2_____1
  6
破線
 62
    3
 10
346.00583149707217
 20
124.49958395467752
 11
347.56833149707217
 21
124.49958395467752
  0
ARC
  8
_0-2_____1
  6
破線
 62
    3
 10
347.56833149707217
 20
124.68708395467752
 40
0.1874999999431264
 50
270
 51
0
  0
ARC
  8
_0-2_____1
  6
破線
 62
    3
 10
347.38083149707217
 20
124.12458395467752
 40
0.3750000000601337
 50
0
 51
90
  0
LINE
  8
_0-2_____1
  6
破線
 62
    3
 10
346.19333149707217
 20
124.31208395467752
 11
347.38083149707217
 21
124.31208395467752
  0
ARC
  8
_0-2_____1
  6
破線
 62
    3
 10
347.38083149707217
 20
124.12458395467752
 40
0.1875000000130059
 50
0
 51
90
  0
LINE
  8
_0-2_____1
  6
破線
 62
    3
 10
346.00583149707217
 20
125.64221895467752
 11
345.50583149707217
 21
125.64221895467752
  0
LINE
  8
_0-2_____1
  6
破線
 62
    3
 10
345.50583149707217
 20
125.54221895467751
 11
346.00583149707217
 21
125.54221895467751
  0
LINE
  8
_0-2_____1
  6
破線
 62
    3
 10
345.50583149707217
 20
126.79221895467751
 11
346.00583149707217
 21
126.79221895467751
  0
LINE
  8
_0-2_____1
  6
破線
 62
    3
 10
345.50583149707217
 20
127.56208395467752
 11
345.50583149707217
 21
124.81208395467752
  0
LINE
  8
_0-2_____1
  6
破線
 62
    3
 10
345.50583149707217
 20
127.56208395467752
 11
345.31833149707217
 21
127.56208395467752
  0
LINE
  8
_0-2_____1
  6
破線
 62
    3
 10
345.50583149707217
 20
124.81208395467752
 11
345.31833149707217
 21
124.81208395467752
  0
LINE
  8
_0-2_____1
  6
破線
 62
    3
 10
345.31833149707217
 20
127.56208395467752
 11
345.31833149707217
 21
124.81208395467752
  0
LINE
  8
_0-2_____1
  6
破線
 62
    3
 10
345.31833149707217
 20
126.68708395467752
 11
347.11833149707218
 21
126.68708395467752
  0
LINE
  8
_0-2_____1
  6
破線
 62
    3
 10
345.31833149707217
 20
126.61208395467752
 11
347.19333149707217
 21
126.61208395467752
  0
LINE
  8
_0-2_____1
  6
破線
 62
    3
 10
345.31833149707217
 20
125.76208395467751
 11
347.19333149707217
 21
125.76208395467751
  0
LINE
  8
_0-2_____1
  6
破線
 62
    3
 10
345.31833149707217
 20
125.68708395467752
 11
347.11833149707218
 21
125.68708395467752
  0
LINE
  8
_0-2_____1
  6
破線
 62
    3
 10
347.19333149707217
 20
125.76208395467751
 11
347.11833149707218
 21
125.68708395467752
  0
LINE
  8
_0-2_____1
  6
破線
 62
    3
 10
347.11833149707218
 20
126.68708395467752
 11
347.19333149707217
 21
126.61208395467752
  0
LINE
  8
_0-2_____1
  6
破線
 62
    3
 10
347.11833149707218
 20
126.68708395467752
 11
347.11833149707218
 21
125.68708395467752
  0
LINE
  8
_0-2_____1
  6
破線
 62
    3
 10
347.19333149707217
 20
126.61208395467752
 11
347.19333149707217
 21
125.76208395467751
  0
LINE
  8
_0-2_____1
  6
破線
 62
    3
 10
345.31833149707217
 20
125.71868095467751
 11
344.7030004970722
 21
125.71868095467751
  0
LINE
  8
_0-2_____1
  6
破線
 62
    3
 10
344.7030004970722
 20
125.71868095467751
 11
344.66400949707219
 21
125.54152195467752
  0
LINE
  8
_0-2_____1
  6
破線
 62
    3
 10
344.66400949707219
 20
125.54152195467752
 11
344.64817449707215
 21
125.45294295467751
  0
LINE
  8
_0-2_____1
  6
破線
 62
    3
 10
344.64817449707215
 20
125.45294295467751
 11
344.63673249707216
 21
125.36436395467751
  0
LINE
  8
_0-2_____1
  6
破線
 62
    3
 10
344.7030004970722
 20
126.65548695467751
 11
345.31833149707217
 21
126.65548695467751
  0
LINE
  8
_0-2_____1
  6
破線
 62
    3
 10
344.7030004970722
 20
126.65548695467751
 11
344.66400949707219
 21
126.83264495467752
  0
LINE
  8
_0-2_____1
  6
破線
 62
    3
 10
344.66400949707219
 20
126.83264495467752
 11
344.64817449707215
 21
126.92122495467751
  0
LINE
  8
_0-2_____1
  6
破線
 62
    3
 10
344.64817449707215
 20
126.92122495467751
 11
344.63673249707216
 21
127.00980395467751
  0
LINE
  8
_0-2_____1
  6
破線
 62
    3
 10
344.7030004970722
 20
126.65548695467751
 11
344.6765004970722
 21
126.53838595467751
  0
LINE
  8
_0-2_____1
  6
破線
 62
    3
 10
344.6765004970722
 20
126.53838595467751
 11
344.65338449707218
 21
126.42128495467752
  0
LINE
  8
_0-2_____1
  6
破線
 62
    3
 10
344.65338449707218
 20
126.42128495467752
 11
344.6370334970722
 21
126.30418495467751
  0
LINE
  8
_0-2_____1
  6
破線
 62
    3
 10
344.6370334970722
 20
126.30418495467751
 11
344.63083149707217
 21
126.18708395467752
  0
LINE
  8
_0-2_____1
  6
破線
 62
    3
 10
344.63083149707217
 20
126.18708395467752
 11
344.6370334970722
 21
126.06998295467751
  0
LINE
  8
_0-2_____1
  6
破線
 62
    3
 10
344.6370334970722
 20
126.06998295467751
 11
344.65338449707218
 21
125.95288195467751
  0
LINE
  8
_0-2_____1
  6
破線
 62
    3
 10
344.65338449707218
 20
125.95288195467751
 11
344.6765004970722
 21
125.83578195467751
  0
LINE
  8
_0-2_____1
  6
破線
 62
    3
 10
344.6765004970722
 20
125.83578195467751
 11
344.7030004970722
 21
125.71868095467751
  0
LINE
  8
_0-2_____1
  6
破線
 62
    3
 10
345.31833149707217
 20
125.24958395467752
 11
344.7030004970722
 21
125.24958395467752
  0
LINE
  8
_0-2_____1
  6
破線
 62
    3
 10
344.63083149707217
 20
125.37458395467752
 11
344.7030004970722
 21
125.24958395467752
  0
LINE
  8
_0-2_____1
  6
破線
 62
    3
 10
344.63083149707217
 20
126.99958395467752
 11
344.63083149707217
 21
125.37458395467752
  0
LINE
  8
_0-2_____1
  6
破線
 62
    3
 10
344.63083149707217
 20
126.99958395467752
 11
344.7030004970722
 21
127.12458395467752
  0
LINE
  8
_0-2_____1
  6
破線
 62
    3
 10
344.7030004970722
 20
127.12458395467752
 11
345.31833149707217
 21
127.12458395467752
  0
LINE
  8
_0-2_____1
  6
破線
 62
    3
 10
345.95578649707215
 20
127.29221895467751
 11
345.55578649707218
 21
127.29221895467751
  0
LINE
  8
_0-2_____1
  6
破線
 62
    3
 10
345.95583149707215
 20
129.16721895467751
 11
344.14333149707215
 21
129.16721895467751
  0
LINE
  8
_0-2_____1
  6
破線
 62
    3
 10
344.14333149707215
 20
128.7672189546775
 11
344.14333149707215
 21
129.16721895467751
  0
LINE
  8
_0-2_____1
  6
破線
 62
    3
 10
343.70583149707215
 20
163.5797189546775
 11
346.45583149707215
 21
163.5797189546775
  0
LINE
  8
_0-2_____1
  6
破線
 62
    3
 10
343.70583149707215
 20
129.60471895467751
 11
346.45583149707215
 21
129.60471895467751
  0
LINE
  8
_0-2_____1
  6
破線
 62
    3
 10
344.33083149707215
 20
129.16721895467751
 11
343.70583149707215
 21
129.60471895467751
  0
LINE
  8
_0-2_____1
  6
破線
 62
    3
 10
345.70583149707215
 20
164.54221895467751
 11
345.70583149707215
 21
165.81196895467752
  0
LINE
  8
_0-2_____1
  6
破線
 62
    3
 10
344.45583149707215
 20
164.54221895467751
 11
344.45583149707215
 21
165.81196895467752
  0
LINE
  8
_0-2_____1
  6
破線
 62
    3
 10
344.60587649707219
 20
166.81196895467752
 11
345.20587649707215
 21
166.2119689546775
  0
LINE
  8
_0-2_____1
  6
破線
 62
    3
 10
344.20587649707215
 20
167.68696895467752
 11
344.60587649707219
 21
167.68696895467752
  0
LINE
  8
_0-2_____1
  6
破線
 62
    3
 10
346.01833149707215
 20
165.81196895467752
 11
346.01833149707215
 21
166.2119689546775
  0
LINE
  8
_0-2_____1
  6
破線
 62
    3
 10
344.20583149707215
 20
165.81196895467752
 11
344.20583149707215
 21
169.93696895467752
  0
LINE
  8
_0-2_____1
  6
破線
 62
    3
 10
344.20583149707215
 20
165.81196895467752
 11
346.01833149707215
 21
165.81196895467752
  0
LINE
  8
_0-2_____1
  6
破線
 62
    3
 10
344.20583149707215
 20
169.93696895467752
 11
344.60583149707219
 21
169.93696895467752
  0
LINE
  8
_0-2_____1
  6
破線
 62
    3
 10
344.60583149707219
 20
166.2119689546775
 11
344.60583149707219
 21
169.93696895467752
  0
LINE
  8
_0-2_____1
  6
破線
 62
    3
 10
346.01833149707215
 20
166.2119689546775
 11
344.60583149707219
 21
166.2119689546775
  0
LINE
  8
_0-2_____1
  6
一点鎖線
 62
    3
 10
346.2901314970722
 20
168.81196895467752
 11
341.8291024970722
 21
168.81196895467752
  0
LINE
  8
_0-2_____1
  6
破線
 62
    3
 10
345.83083149707215
 20
129.16721895467751
 11
346.45583149707215
 21
129.60471895467751
  0
LINE
  8
_0-2_____1
  6
破線
 62
    3
 10
343.70583149707215
 20
129.60471895467751
 11
343.70583149707215
 21
161.8297189546775
  0
LINE
  8
_0-2_____1
  6
破線
 62
    3
 10
346.33083149707215
 20
164.54221895467751
 11
343.83083149707215
 21
164.54221895467751
  0
LINE
  8
_0-2_____1
  6
破線
 62
    3
 10
343.83083149707215
 20
164.35471895467751
 11
343.83083149707215
 21
164.54221895467751
  0
LINE
  8
_0-2_____1
  6
破線
 62
    3
 10
346.45583149707215
 20
164.35471895467751
 11
343.70583149707215
 21
164.35471895467751
  0
LINE
  8
_0-2_____1
  6
破線
 62
    3
 10
346.33083149707215
 20
164.35471895467751
 11
346.33083149707215
 21
164.54221895467751
  0
LINE
  8
_0-2_____1
  6
破線
 62
    3
 10
345.55578649707218
 20
128.16721895467751
 11
344.95578649707227
 21
128.7672189546775
  0
LINE
  8
_0-2_____1
  6
破線
 62
    3
 10
346.45583149707215
 20
129.60471895467751
 11
346.45583149707215
 21
161.8297189546775
  0
LINE
  8
_0-2_____1
  6
破線
 62
    3
 10
343.70583149707215
 20
161.8297189546775
 11
346.45583149707215
 21
161.8297189546775
  0
LINE
  8
_0-2_____1
  6
破線
 62
    3
 10
343.70583149707215
 20
162.0172189546775
 11
346.45583149707215
 21
162.0172189546775
  0
ARC
  8
_0-2_____1
  6
破線
 62
    3
 10
343.73708149707215
 20
163.6734689546775
 40
0.0937499999422471
 50
270
 51
90
  0
LINE
  8
_0-2_____1
  6
破線
 62
    3
 10
343.70583149707215
 20
163.7672189546775
 11
346.45583149707215
 21
163.7672189546775
  0
LINE
  8
_0-2_____1
  6
破線
 62
    3
 10
343.70583149707215
 20
163.7672189546775
 11
343.70583149707215
 21
164.35471895467751
  0
ARC
  8
_0-2_____1
  6
破線
 62
    3
 10
346.42458149707215
 20
163.6734689546775
 40
0.0937499999025134
 50
90
 51
270
  0
LINE
  8
_0-2_____1
  6
破線
 62
    3
 10
346.45583149707215
 20
163.7672189546775
 11
346.45583149707215
 21
164.35471895467751
  0
ARC
  8
_0-2_____1
  6
破線
 62
    3
 10
346.42458149707215
 20
161.9234689546775
 40
0.0937499999801048
 50
90
 51
270
  0
LINE
  8
_0-2_____1
  6
破線
 62
    3
 10
346.45583149707215
 20
162.0172189546775
 11
346.45583149707215
 21
163.5797189546775
  0
LINE
  8
_0-2_____1
  6
一点鎖線
 62
    3
 10
347.47896849707217
 20
126.16721895467751
 11
344.24542149707219
 21
126.16721895467751
  0
ARC
  8
_0-2_____1
  6
破線
 62
    3
 10
343.73708149707215
 20
161.9234689546775
 40
0.0937499998646558
 50
270
 51
90
  0
LINE
  8
_0-2_____1
  6
破線
 62
    3
 10
343.70583149707215
 20
162.0172189546775
 11
343.70583149707215
 21
163.5797189546775
  0
LINE
  8
_0-2_____1
  6
破線
 62
    3
 10
345.95583149707215
 20
125.04221895467751
 11
345.95583149707215
 21
129.16721895467751
  0
LINE
  8
_0-2_____1
  6
破線
 62
    3
 10
344.14333149707215
 20
128.7672189546775
 11
345.55583149707218
 21
128.7672189546775
  0
LINE
  8
_0-2_____1
  6
破線
 62
    3
 10
345.55583149707218
 20
125.04221895467751
 11
345.55583149707218
 21
128.7672189546775
  0
LINE
  8
_0-2_____1
  6
破線
 62
    3
 10
345.95583149707215
 20
125.04221895467751
 11
345.55583149707218
 21
125.04221895467751
  0
LINE
  8
_0-2_____1
  6
破線
 62
    3
 10
343.69331049707216
 20
166.4270939546775
 11
339.50581049707216
 21
166.4270939546775
  0
LINE
  8
_0-2_____1
  6
破線
 62
    3
 10
343.38081049707216
 20
166.6145939546775
 11
339.50581049707216
 21
166.6145939546775
  0
LINE
  8
_0-2_____1
  6
破線
 62
    3
 10
339.50581049707216
 20
171.1770939546775
 11
343.69331049707216
 21
171.1770939546775
  0
LINE
  8
_0-2_____1
  6
破線
 62
    3
 10
339.50581049707216
 20
170.9895939546775
 11
343.38081049707216
 21
170.9895939546775
  0
LINE
  8
_0-2_____1
  6
破線
 62
    3
 10
339.50581049707216
 20
166.4270939546775
 11
339.50581049707216
 21
171.1770939546775
  0
LINE
  8
_0-2_____1
  6
破線
 62
    3
 10
343.25581049707216
 20
169.6145939546775
 11
343.38081049707216
 21
169.6145939546775
  0
LINE
  8
_0-2_____1
  6
破線
 62
    3
 10
343.69331049707216
 20
166.6145939546775
 11
343.69331049707216
 21
170.9895939546775
  0
LINE
  8
_0-2_____1
  6
破線
 62
    3
 10
343.25581049707216
 20
167.9895939546775
 11
343.25581049707216
 21
169.6145939546775
  0
ARC
  8
_0-2_____1
  6
破線
 62
    3
 10
343.63081049707216
 20
167.9270939546775
 40
0.0625000000653465
 50
0
 51
90
  0
ARC
  8
_0-2_____1
  6
破線
 62
    3
 10
343.69331049707216
 20
169.6145939546775
 40
0.187499999903726
 50
270
 51
0
  0
LINE
  8
_0-2_____1
  6
破線
 62
    3
 10
343.25581049707216
 20
168.1770939546775
 11
343.69331049707216
 21
168.1770939546775
  0
ARC
  8
_0-2_____1
  6
破線
 62
    3
 10
343.63081049707216
 20
169.6770939546775
 40
0.0625000002202556
 50
270
 51
0
  0
LINE
  8
_0-2_____1
  6
破線
 62
    3
 10
343.25581049707216
 20
167.9895939546775
 11
343.38081049707216
 21
167.9895939546775
  0
LINE
  8
_0-2_____1
  6
破線
 62
    3
 10
343.38081049707216
 20
167.9895939546775
 11
343.63081049707216
 21
167.9895939546775
  0
LINE
  8
_0-2_____1
  6
破線
 62
    3
 10
343.38081049707216
 20
169.6145939546775
 11
343.63081049707216
 21
169.6145939546775
  0
LINE
  8
_0-2_____1
  6
破線
 62
    3
 10
343.88081049707216
 20
166.6145939546775
 11
343.88081049707216
 21
170.9895939546775
  0
LINE
  8
_0-2_____1
  6
破線
 62
    3
 10
343.38081049707216
 20
166.4270939546775
 11
343.38081049707216
 21
171.1770939546775
  0
LINE
  8
_0-2_____1
  6
破線
 62
    3
 10
343.69331049707216
 20
166.6145939546775
 11
343.38081049707216
 21
166.6145939546775
  0
ARC
  8
_0-2_____1
  6
破線
 62
    3
 10
343.69331049707216
 20
166.6145939546775
 40
0.1874999999788893
 50
270
 51
0
  0
ARC
  8
_0-2_____1
  6
破線
 62
    3
 10
343.69331049707216
 20
167.9895939546775
 40
0.1875000001129577
 50
0
 51
90
  0
LINE
  8
_0-2_____1
  6
破線
 62
    3
 10
343.25581049707216
 20
169.4270939546775
 11
343.69331049707216
 21
169.4270939546775
  0
LINE
  8
_0-2_____1
  6
破線
 62
    3
 10
343.38081049707216
 20
170.9895939546775
 11
343.69331049707216
 21
170.9895939546775
  0
ARC
  8
_0-2_____1
  6
破線
 62
    3
 10
343.69331049707216
 20
170.9895939546775
 40
0.1875000000554596
 50
0
 51
90
  0
INSERT
  2
-006-D5
  8
_0-2_____1
 10
1.2577204970721709
 20
1.719697954677514
 41
1
 42
1
 50
0
  0
LINE
  8
_0-2_____1
  6
CONTINUOUS
 62
    2
 10
94.031463497072167
 20
85.159925954677533
 11
94.031463497072167
 21
32.824150954677521
  0
LINE
  8
_0-2_____1
  6
CONTINUOUS
 62
    2
 10
79.031463497072195
 20
72.659925954677533
 11
79.031463497072195
 21
51.574150954677521
  0
LINE
  8
_0-2_____1
  6
CONTINUOUS
 62
    2
 10
70.906463497072195
 20
72.659925954677533
 11
70.906463497072195
 21
83.909925954677533
  0
INSERT
  2
-007-D6
  8
_0-2_____1
 10
1.2577204970721709
 20
1.719697954677514
 41
1
 42
1
 50
0
  0
LINE
  8
_0-2_____1
  6
CONTINUOUS
 62
    2
 10
94.031463497072167
 20
85.159925954677533
 11
72.156463497072195
 21
85.159925954677533
  0
LINE
  8
_0-2_____1
  6
CONTINUOUS
 62
    2
 10
70.906463497072195
 20
72.659925954677533
 11
79.031463497072195
 21
72.659925954677533
  0
LINE
  8
_0-2_____1
  6
CONTINUOUS
 62
    3
 10
85.510058497072166
 20
78.904918954677512
 11
85.483899497072173
 21
78.530832954677493
  0
LINE
  8
_0-2_____1
  6
CONTINUOUS
 62
    3
 10
85.660912497072189
 20
79.270285954677519
 11
85.510058497072166
 21
78.904918954677512
  0
LINE
  8
_0-2_____1
  6
CONTINUOUS
 62
    3
 10
86.284389497072155
 20
79.226688954677513
 11
85.536216497072175
 21
79.279005954677515
  0
LINE
  8
_0-2_____1
  6
CONTINUOUS
 62
    3
 10
85.540576497072166
 20
79.341353954677516
 11
86.288749497072175
 21
79.289035954677516
  0
LINE
  8
_0-2_____1
  6
CONTINUOUS
 62
    3
 10
85.540576497072166
 20
79.341353954677516
 11
85.536216497072175
 21
79.279005954677515
  0
LINE
  8
_0-2_____1
  6
CONTINUOUS
 62
    3
 10
85.687071497072139
 20
79.644372954677493
 11
85.540576497072166
 21
79.341353954677516
  0
LINE
  8
_0-2_____1
  6
CONTINUOUS
 62
    3
 10
85.713229497072149
 20
80.018458954677499
 11
85.566735497072173
 21
79.715439954677535
  0
LINE
  8
_0-2_____1
  6
CONTINUOUS
 62
    3
 10
85.73938849707217
 20
80.392545954677516
 11
85.592893497072168
 21
80.089526954677538
  0
LINE
  8
_0-2_____1
  6
CONTINUOUS
 62
    3
 10
85.614692497072156
 20
80.401265954677513
 11
86.362865497072136
 21
80.348947954677513
  0
LINE
  8
_0-2_____1
  6
CONTINUOUS
 62
    3
 10
86.341067497072174
 20
80.037208954677496
 11
85.592893497072168
 21
80.089526954677538
  0
LINE
  8
_0-2_____1
  6
CONTINUOUS
 62
    3
 10
85.592893497072168
 20
80.089526954677538
 11
85.588534497072175
 21
80.02717895467751
  0
LINE
  8
_0-2_____1
  6
CONTINUOUS
 62
    3
 10
85.588534497072175
 20
80.02717895467751
 11
86.336707497072169
 21
79.974861954677536
  0
LINE
  8
_0-2_____1
  6
CONTINUOUS
 62
    3
 10
86.314908497072167
 20
79.663122954677519
 11
85.566735497072173
 21
79.715439954677535
  0
LINE
  8
_0-2_____1
  6
CONTINUOUS
 62
    3
 10
85.566735497072173
 20
79.715439954677535
 11
85.562375497072196
 21
79.653091954677492
  0
LINE
  8
_0-2_____1
  6
CONTINUOUS
 62
    3
 10
85.562375497072196
 20
79.653091954677492
 11
86.310548497072176
 21
79.600774954677533
  0
LINE
  8
_0-2_____1
  6
CONTINUOUS
 62
    3
 10
85.510058497072166
 20
78.904918954677512
 11
86.258231497072174
 21
78.852601954677539
  0
LINE
  8
_0-2_____1
  6
CONTINUOUS
 62
    3
 10
85.614692497072156
 20
80.401265954677513
 11
85.656463497072195
 21
80.972425954677519
  0
LINE
  8
_0-2_____1
  6
破線
 62
    3
 10
87.281463497072195
 20
78.472425954677519
 11
87.281463497072195
 21
78.597425954677533
  0
LINE
  8
_0-2_____1
  6
破線
 62
    3
 10
87.156463497072195
 20
80.347425954677519
 11
87.281463497072195
 21
78.597425954677533
  0
LINE
  8
_0-2_____1
  6
CONTINUOUS
 62
    3
 10
85.781463497072167
 20
78.472425954677519
 11
87.281463497072195
 21
78.472425954677519
  0
LINE
  8
_0-2_____1
  6
破線
 62
    3
 10
85.906463497072195
 20
85.347425954677519
 11
85.906463497072195
 21
81.597425954677519
  0
LINE
  8
_0-2_____1
  6
破線
 62
    3
 10
87.156463497072195
 20
81.597425954677519
 11
87.156463497072195
 21
85.347425954677519
  0
LINE
  8
_0-2_____1
  6
CONTINUOUS
 62
    3
 10
87.031463497072167
 20
87.659925954677533
 11
87.156463497072195
 21
87.534925954677519
  0
LINE
  8
_0-2_____1
  6
CONTINUOUS
 62
    3
 10
87.156463497072195
 20
87.534925954677519
 11
87.156463497072195
 21
86.597425954677519
  0
LINE
  8
_0-2_____1
  6
CONTINUOUS
 62
    3
 10
87.031463497072167
 20
87.659925954677533
 11
86.031463497072195
 21
87.659925954677533
  0
LINE
  8
_0-2_____1
  6
CONTINUOUS
 62
    3
 10
86.031463497072195
 20
87.659925954677533
 11
85.906463497072195
 21
87.534925954677519
  0
LINE
  8
_0-2_____1
  6
CONTINUOUS
 62
    3
 10
85.906463497072195
 20
87.534925954677519
 11
85.906463497072195
 21
86.597425954677519
  0
LINE
  8
_0-2_____1
  6
CONTINUOUS
 62
    3
 10
85.906463497072195
 20
87.534925954677519
 11
87.156463497072195
 21
87.534925954677519
  0
LINE
  8
_0-2_____1
  6
CONTINUOUS
 62
    3
 10
86.031463497072195
 20
87.659925954677533
 11
86.031463497072195
 21
86.597425954677519
  0
LINE
  8
_0-2_____1
  6
CONTINUOUS
 62
    3
 10
87.031463497072167
 20
87.659925954677533
 11
87.031463497072167
 21
86.597425954677519
  0
LINE
  8
_0-2_____1
  6
CONTINUOUS
 62
    3
 10
85.656463497072195
 20
80.972425954677519
 11
85.656463497072195
 21
85.159925954677533
  0
LINE
  8
_0-2_____1
  6
破線
 62
    3
 10
85.906463497072195
 20
80.347425954677519
 11
85.906463497072195
 21
81.597425954677519
  0
LINE
  8
_0-2_____1
  6
破線
 62
    3
 10
85.906463497072195
 20
81.597425954677519
 11
87.156463497072195
 21
81.597425954677519
  0
LINE
  8
_0-2_____1
  6
破線
 62
    3
 10
87.156463497072195
 20
81.597425954677519
 11
87.156463497072195
 21
80.347425954677519
  0
LINE
  8
_0-2_____1
  6
破線
 62
    3
 10
87.281463497072195
 20
78.597425954677533
 11
85.781463497072167
 21
78.597425954677533
  0
LINE
  8
_0-2_____1
  6
破線
 62
    3
 10
85.781463497072167
 20
78.597425954677533
 11
85.781463497072167
 21
78.472425954677519
  0
LINE
  8
_0-2_____1
  6
破線
 62
    3
 10
85.781463497072167
 20
78.597425954677533
 11
85.906463497072195
 21
80.347425954677519
  0
LINE
  8
_0-2_____1
  6
一点鎖線
 62
    3
 10
86.531463497072195
 20
88.222425954677519
 11
86.531463497072195
 21
77.635603954677521
  0
LINE
  8
_0-2_____1
  6
CONTINUOUS
 62
    3
 10
86.531159497072153
 20
80.963705954677494
 11
86.406463497072167
 21
80.972425954677519
  0
LINE
  8
_0-2_____1
  6
CONTINUOUS
 62
    3
 10
86.406463497072167
 20
80.972425954677519
 11
86.232072497072153
 21
78.478515954677519
  0
LINE
  8
_0-2_____1
  6
CONTINUOUS
 62
    3
 10
86.232072497072153
 20
78.478515954677519
 11
85.483899497072173
 21
78.530832954677493
  0
LINE
  8
_0-2_____1
  6
CONTINUOUS
 62
    3
 10
85.406463497072195
 20
85.597425954677519
 11
87.656463497072167
 21
85.597425954677519
  0
LINE
  8
_0-2_____1
  6
CONTINUOUS
 62
    3
 10
87.781463497072195
 20
85.597425954677519
 11
87.781463497072195
 21
86.484523954677513
  0
LINE
  8
_0-2_____1
  6
CONTINUOUS
 62
    3
 10
87.781463497072195
 20
86.484523954677513
 11
87.585912497072172
 21
86.597425954677519
  0
LINE
  8
_0-2_____1
  6
CONTINUOUS
 62
    3
 10
87.585912497072172
 20
86.597425954677519
 11
86.531463497072195
 21
86.597425954677519
  0
LINE
  8
_0-2_____1
  6
CONTINUOUS
 62
    3
 10
87.156463497072195
 20
85.597425954677519
 11
87.156463497072195
 21
86.490192954677482
  0
ARC
  8
_0-2_____1
  6
CONTINUOUS
 62
    3
 10
86.531463497072195
 20
84.722425954677519
 40
1.8750000000009031
 50
70.528779
 51
90
  0
ARC
  8
_0-2_____1
  6
CONTINUOUS
 62
    3
 10
87.457974497072186
 20
86.119925954677498
 40
0.4775000000014926
 50
90
 51
129.15613200000004
  0
LINE
  8
_0-2_____1
  6
CONTINUOUS
 62
    3
 10
85.281463497072195
 20
85.597425954677519
 11
85.281463497072195
 21
86.484523954677513
  0
LINE
  8
_0-2_____1
  6
CONTINUOUS
 62
    3
 10
85.281463497072195
 20
86.484523954677513
 11
85.477014497072147
 21
86.597425954677519
  0
LINE
  8
_0-2_____1
  6
CONTINUOUS
 62
    3
 10
85.477014497072147
 20
86.597425954677519
 11
86.531463497072195
 21
86.597425954677519
  0
ARC
  8
_0-2_____1
  6
CONTINUOUS
 62
    3
 10
86.531463497072195
 20
84.722425954677519
 40
1.8750000000009031
 50
90
 51
109.471221
  0
ARC
  8
_0-2_____1
  6
CONTINUOUS
 62
    3
 10
85.604953497072145
 20
86.119925954677498
 40
0.4775000000014926
 50
50.843868000000008
 51
90
  0
LINE
  8
_0-2_____1
  6
CONTINUOUS
 62
    3
 10
85.906463497072195
 20
85.597425954677519
 11
85.906463497072195
 21
86.490192954677482
  0
LINE
  8
_0-2_____1
  6
CONTINUOUS
 62
    3
 10
84.968963497072195
 20
85.597425954677519
 11
88.093963497072195
 21
85.597425954677519
  0
LINE
  8
_0-2_____1
  6
CONTINUOUS
 62
    3
 10
87.552869497072166
 20
78.904918954677512
 11
87.579027497072147
 21
78.530832954677493
  0
LINE
  8
_0-2_____1
  6
CONTINUOUS
 62
    3
 10
87.402015497072156
 20
79.270285954677519
 11
87.552869497072166
 21
78.904918954677512
  0
LINE
  8
_0-2_____1
  6
CONTINUOUS
 62
    3
 10
86.778537497072165
 20
79.226688954677513
 11
87.526710497072145
 21
79.279005954677515
  0
LINE
  8
_0-2_____1
  6
CONTINUOUS
 62
    3
 10
87.522350497072196
 20
79.341353954677516
 11
86.774177497072145
 21
79.289035954677516
  0
LINE
  8
_0-2_____1
  6
CONTINUOUS
 62
    3
 10
87.522350497072196
 20
79.341353954677516
 11
87.526710497072145
 21
79.279005954677515
  0
LINE
  8
_0-2_____1
  6
CONTINUOUS
 62
    3
 10
87.375856497072135
 20
79.644372954677493
 11
87.522350497072196
 21
79.341353954677516
  0
LINE
  8
_0-2_____1
  6
CONTINUOUS
 62
    3
 10
87.349697497072185
 20
80.018458954677499
 11
87.496192497072173
 21
79.715439954677535
  0
LINE
  8
_0-2_____1
  6
CONTINUOUS
 62
    3
 10
87.323539497072176
 20
80.392545954677516
 11
87.470033497072151
 21
80.089526954677538
  0
LINE
  8
_0-2_____1
  6
CONTINUOUS
 62
    3
 10
87.448234497072178
 20
80.401265954677513
 11
86.70006149707217
 21
80.348947954677513
  0
LINE
  8
_0-2_____1
  6
CONTINUOUS
 62
    3
 10
86.721860497072171
 20
80.037208954677496
 11
87.470033497072151
 21
80.089526954677538
  0
LINE
  8
_0-2_____1
  6
CONTINUOUS
 62
    3
 10
87.470033497072151
 20
80.089526954677538
 11
87.474393497072171
 21
80.02717895467751
  0
LINE
  8
_0-2_____1
  6
CONTINUOUS
 62
    3
 10
87.474393497072171
 20
80.02717895467751
 11
86.726220497072177
 21
79.974861954677536
  0
LINE
  8
_0-2_____1
  6
CONTINUOUS
 62
    3
 10
86.74801949707215
 20
79.663122954677519
 11
87.496192497072173
 21
79.715439954677535
  0
LINE
  8
_0-2_____1
  6
CONTINUOUS
 62
    3
 10
87.496192497072173
 20
79.715439954677535
 11
87.500551497072195
 21
79.653091954677492
  0
LINE
  8
_0-2_____1
  6
CONTINUOUS
 62
    3
 10
87.500551497072195
 20
79.653091954677492
 11
86.752378497072172
 21
79.600774954677533
  0
LINE
  8
_0-2_____1
  6
CONTINUOUS
 62
    3
 10
87.552869497072166
 20
78.904918954677512
 11
86.804696497072172
 21
78.852601954677539
  0
LINE
  8
_0-2_____1
  6
CONTINUOUS
 62
    3
 10
87.448234497072178
 20
80.401265954677513
 11
87.406463497072195
 21
80.972425954677519
  0
LINE
  8
_0-2_____1
  6
CONTINUOUS
 62
    3
 10
87.406463497072195
 20
80.972425954677519
 11
87.406463497072195
 21
85.159925954677533
  0
LINE
  8
_0-2_____1
  6
CONTINUOUS
 62
    3
 10
86.531768497072136
 20
80.963705954677494
 11
86.656463497072195
 21
80.972425954677519
  0
LINE
  8
_0-2_____1
  6
CONTINUOUS
 62
    3
 10
86.656463497072195
 20
80.972425954677519
 11
86.830854497072153
 21
78.478515954677519
  0
LINE
  8
_0-2_____1
  6
CONTINUOUS
 62
    3
 10
86.830854497072153
 20
78.478515954677519
 11
87.579027497072147
 21
78.530832954677493
  0
LINE
  8
_0-2_____1
  6
CONTINUOUS
 62
    3
 10
84.968963497072195
 20
85.347425954677519
 11
84.968963497072195
 21
85.597425954677519
  0
LINE
  8
_0-2_____1
  6
CONTINUOUS
 62
    3
 10
88.093963497072195
 20
85.347425954677519
 11
88.093963497072195
 21
85.597425954677519
  0
INSERT
  2
-008-D7
  8
_0-2_____1
 10
1.2577204970721709
 20
1.719697954677514
 41
1
 42
1
 50
0
  0
LINE
  8
_0-2_____1
  6
CONTINUOUS
 62
    6
 10
79.031463497072195
 20
66.792062954677519
 11
94.031463497072167
 21
81.792062954677533
  0
LINE
  8
_0-2_____1
  6
CONTINUOUS
 62
    6
 10
79.031463497072195
 20
66.394960954677515
 11
94.031463497072167
 21
81.394960954677515
  0
LINE
  8
_0-2_____1
  6
CONTINUOUS
 62
    6
 10
79.031463497072195
 20
65.898612954677517
 11
94.031463497072167
 21
80.898612954677517
  0
INSERT
  2
-009-D8
  8
_0-2_____1
 10
1.2577204970721709
 20
1.719697954677514
 41
1
 42
1
 50
0
  0
LINE
  8
_0-2_____1
  6
CONTINUOUS
 62
    3
 10
77.781463497072195
 20
72.659925954677533
 11
77.781463497072195
 21
54.074150954677521
  0
INSERT
  2
-010-D9
  8
_0-2_____1
 10
1.2577204970721709
 20
1.719697954677514
 41
1
 42
1
 50
0
  0
INSERT
  2
-011-D10
  8
_0-2_____1
 10
1.2577204970721709
 20
1.719697954677514
 41
1
 42
1
 50
0
  0
LINE
  8
_0-2_____1
  6
CONTINUOUS
 62
    2
 10
54.095804497072152
 20
32.824150954677521
 11
94.031463497072167
 21
32.824150954677521
  0
LINE
  8
_0-2_____1
  6
CONTINUOUS
 62
    2
 10
54.095804497072152
 20
51.574150954677521
 11
79.031463497072195
 21
51.574150954677521
  0
LINE
  8
_0-2_____1
  6
CONTINUOUS
 62
    3
 10
54.095804497072152
 20
52.824150954677521
 11
76.531463497072195
 21
52.824150954677521
  0
LINE
  8
_0-2_____1
  6
CONTINUOUS
 62
    6
 10
63.81355249707218
 20
51.574150954677521
 11
54.095804497072152
 21
41.856403954677518
  0
LINE
  8
_0-2_____1
  6
CONTINUOUS
 62
    6
 10
64.210653497072144
 20
51.574150954677521
 11
54.095804497072152
 21
41.459301954677514
  0
LINE
  8
_0-2_____1
  6
CONTINUOUS
 62
    6
 10
54.095804497072152
 20
40.962953954677516
 11
64.707001497072156
 21
51.574150954677521
  0
LINE
  8
_0-2_____1
  6
CONTINUOUS
 62
    6
 10
94.031463497072167
 20
49.359570954677508
 11
77.496043497072151
 21
32.824150954677521
  0
LINE
  8
_0-2_____1
  6
CONTINUOUS
 62
    6
 10
94.031463497072167
 20
48.962468954677519
 11
77.893145497072169
 21
32.824150954677521
  0
LINE
  8
_0-2_____1
  6
CONTINUOUS
 62
    6
 10
78.389492497072183
 20
32.824150954677521
 11
94.031463497072167
 21
48.466121954677504
  0
LINE
  8
_0-2_____1
  6
CONTINUOUS
 62
    2
 10
169.03146349707217
 20
85.159925954677533
 11
169.03146349707217
 21
32.824150954677521
  0
LINE
  8
_0-2_____1
  6
CONTINUOUS
 62
    2
 10
184.03146349707217
 20
72.659925954677533
 11
184.03146349707217
 21
51.574150954677521
  0
LINE
  8
_0-2_____1
  6
CONTINUOUS
 62
    2
 10
192.15646349707217
 20
72.659925954677533
 11
192.15646349707217
 21
83.909925954677533
  0
LINE
  8
_0-2_____1
  6
CONTINUOUS
 62
    2
 10
169.03146349707217
 20
85.159925954677533
 11
190.90646349707217
 21
85.159925954677533
  0
LINE
  8
_0-2_____1
  6
CONTINUOUS
 62
    2
 10
192.15646349707217
 20
72.659925954677533
 11
184.03146349707217
 21
72.659925954677533
  0
LINE
  8
_0-2_____1
  6
CONTINUOUS
 62
    3
 10
177.55286949707218
 20
78.904918954677512
 11
177.57902749707216
 21
78.530832954677493
  0
LINE
  8
_0-2_____1
  6
CONTINUOUS
 62
    3
 10
177.40201549707217
 20
79.270285954677519
 11
177.55286949707218
 21
78.904918954677512
  0
LINE
  8
_0-2_____1
  6
CONTINUOUS
 62
    3
 10
176.77853749707216
 20
79.226688954677513
 11
177.52671049707217
 21
79.279005954677515
  0
LINE
  8
_0-2_____1
  6
CONTINUOUS
 62
    3
 10
177.52235049707218
 20
79.341353954677516
 11
176.77417749707217
 21
79.289035954677516
  0
LINE
  8
_0-2_____1
  6
CONTINUOUS
 62
    3
 10
177.52235049707218
 20
79.341353954677516
 11
177.52671049707217
 21
79.279005954677515
  0
LINE
  8
_0-2_____1
  6
CONTINUOUS
 62
    3
 10
177.37585649707216
 20
79.644372954677493
 11
177.52235049707218
 21
79.341353954677516
  0
LINE
  8
_0-2_____1
  6
CONTINUOUS
 62
    3
 10
177.34969749707219
 20
80.018458954677499
 11
177.49619249707217
 21
79.715439954677535
  0
LINE
  8
_0-2_____1
  6
CONTINUOUS
 62
    3
 10
177.32353949707218
 20
80.392545954677516
 11
177.47003349707217
 21
80.089526954677538
  0
LINE
  8
_0-2_____1
  6
CONTINUOUS
 62
    3
 10
177.44823449707218
 20
80.401265954677513
 11
176.70006149707217
 21
80.348947954677513
  0
LINE
  8
_0-2_____1
  6
CONTINUOUS
 62
    3
 10
176.72186049707216
 20
80.037208954677496
 11
177.47003349707217
 21
80.089526954677538
  0
LINE
  8
_0-2_____1
  6
CONTINUOUS
 62
    3
 10
177.47003349707217
 20
80.089526954677538
 11
177.47439349707216
 21
80.02717895467751
  0
LINE
  8
_0-2_____1
  6
CONTINUOUS
 62
    3
 10
177.47439349707216
 20
80.02717895467751
 11
176.72622049707218
 21
79.974861954677536
  0
LINE
  8
_0-2_____1
  6
CONTINUOUS
 62
    3
 10
176.74801949707216
 20
79.663122954677519
 11
177.49619249707217
 21
79.715439954677535
  0
LINE
  8
_0-2_____1
  6
CONTINUOUS
 62
    3
 10
177.49619249707217
 20
79.715439954677535
 11
177.50055149707217
 21
79.653091954677492
  0
LINE
  8
_0-2_____1
  6
CONTINUOUS
 62
    3
 10
177.50055149707217
 20
79.653091954677492
 11
176.75237849707216
 21
79.600774954677533
  0
LINE
  8
_0-2_____1
  6
CONTINUOUS
 62
    3
 10
177.55286949707218
 20
78.904918954677512
 11
176.80469649707217
 21
78.852601954677539
  0
LINE
  8
_0-2_____1
  6
CONTINUOUS
 62
    3
 10
177.44823449707218
 20
80.401265954677513
 11
177.40646349707217
 21
80.972425954677519
  0
LINE
  8
_0-2_____1
  6
破線
 62
    3
 10
175.78146349707217
 20
78.472425954677519
 11
175.78146349707217
 21
78.597425954677533
  0
LINE
  8
_0-2_____1
  6
破線
 62
    3
 10
175.90646349707217
 20
80.347425954677519
 11
175.78146349707217
 21
78.597425954677533
  0
LINE
  8
_0-2_____1
  6
CONTINUOUS
 62
    3
 10
177.28146349707217
 20
78.472425954677519
 11
175.78146349707217
 21
78.472425954677519
  0
LINE
  8
_0-2_____1
  6
破線
 62
    3
 10
177.15646349707217
 20
85.347425954677519
 11
177.15646349707217
 21
81.597425954677519
  0
LINE
  8
_0-2_____1
  6
破線
 62
    3
 10
175.90646349707217
 20
81.597425954677519
 11
175.90646349707217
 21
85.347425954677519
  0
LINE
  8
_0-2_____1
  6
CONTINUOUS
 62
    3
 10
176.03146349707217
 20
87.659925954677533
 11
175.90646349707217
 21
87.534925954677519
  0
LINE
  8
_0-2_____1
  6
CONTINUOUS
 62
    3
 10
175.90646349707217
 20
87.534925954677519
 11
175.90646349707217
 21
86.597425954677519
  0
LINE
  8
_0-2_____1
  6
CONTINUOUS
 62
    3
 10
176.03146349707217
 20
87.659925954677533
 11
177.03146349707217
 21
87.659925954677533
  0
LINE
  8
_0-2_____1
  6
CONTINUOUS
 62
    3
 10
177.03146349707217
 20
87.659925954677533
 11
177.15646349707217
 21
87.534925954677519
  0
LINE
  8
_0-2_____1
  6
CONTINUOUS
 62
    3
 10
177.15646349707217
 20
87.534925954677519
 11
177.15646349707217
 21
86.597425954677519
  0
LINE
  8
_0-2_____1
  6
CONTINUOUS
 62
    3
 10
177.15646349707217
 20
87.534925954677519
 11
175.90646349707217
 21
87.534925954677519
  0
LINE
  8
_0-2_____1
  6
CONTINUOUS
 62
    3
 10
177.03146349707217
 20
87.659925954677533
 11
177.03146349707217
 21
86.597425954677519
  0
LINE
  8
_0-2_____1
  6
CONTINUOUS
 62
    3
 10
176.03146349707217
 20
87.659925954677533
 11
176.03146349707217
 21
86.597425954677519
  0
LINE
  8
_0-2_____1
  6
CONTINUOUS
 62
    3
 10
177.40646349707217
 20
80.972425954677519
 11
177.40646349707217
 21
85.159925954677533
  0
LINE
  8
_0-2_____1
  6
破線
 62
    3
 10
177.15646349707217
 20
80.347425954677519
 11
177.15646349707217
 21
81.597425954677519
  0
LINE
  8
_0-2_____1
  6
破線
 62
    3
 10
177.15646349707217
 20
81.597425954677519
 11
175.90646349707217
 21
81.597425954677519
  0
LINE
  8
_0-2_____1
  6
破線
 62
    3
 10
175.90646349707217
 20
81.597425954677519
 11
175.90646349707217
 21
80.347425954677519
  0
LINE
  8
_0-2_____1
  6
破線
 62
    3
 10
175.78146349707217
 20
78.597425954677533
 11
177.28146349707217
 21
78.597425954677533
  0
LINE
  8
_0-2_____1
  6
破線
 62
    3
 10
177.28146349707217
 20
78.597425954677533
 11
177.28146349707217
 21
78.472425954677519
  0
LINE
  8
_0-2_____1
  6
破線
 62
    3
 10
177.28146349707217
 20
78.597425954677533
 11
177.15646349707217
 21
80.347425954677519
  0
LINE
  8
_0-2_____1
  6
一点鎖線
 62
    3
 10
176.53146349707217
 20
88.222425954677519
 11
176.53146349707217
 21
77.635603954677521
  0
LINE
  8
_0-2_____1
  6
CONTINUOUS
 62
    3
 10
176.53176849707216
 20
80.963705954677494
 11
176.65646349707217
 21
80.972425954677519
  0
LINE
  8
_0-2_____1
  6
CONTINUOUS
 62
    3
 10
176.65646349707217
 20
80.972425954677519
 11
176.83085449707218
 21
78.478515954677519
  0
LINE
  8
_0-2_____1
  6
CONTINUOUS
 62
    3
 10
176.83085449707218
 20
78.478515954677519
 11
177.57902749707216
 21
78.530832954677493
  0
LINE
  8
_0-2_____1
  6
CONTINUOUS
 62
    3
 10
177.65646349707217
 20
85.597425954677519
 11
175.40646349707217
 21
85.597425954677519
  0
LINE
  8
_0-2_____1
  6
CONTINUOUS
 62
    3
 10
175.28146349707217
 20
85.597425954677519
 11
175.28146349707217
 21
86.484523954677513
  0
LINE
  8
_0-2_____1
  6
CONTINUOUS
 62
    3
 10
175.28146349707217
 20
86.484523954677513
 11
175.47701449707216
 21
86.597425954677519
  0
LINE
  8
_0-2_____1
  6
CONTINUOUS
 62
    3
 10
175.47701449707216
 20
86.597425954677519
 11
176.53146349707217
 21
86.597425954677519
  0
LINE
  8
_0-2_____1
  6
CONTINUOUS
 62
    3
 10
175.90646349707217
 20
85.597425954677519
 11
175.90646349707217
 21
86.490192954677482
  0
ARC
  8
_0-2_____1
  6
CONTINUOUS
 62
    3
 10
176.53146349707217
 20
84.722425954677519
 40
1.8750000000009031
 50
90
 51
109.471221
  0
ARC
  8
_0-2_____1
  6
CONTINUOUS
 62
    3
 10
175.60495349707216
 20
86.119925954677498
 40
0.4775000000014926
 50
50.843868000000008
 51
90
  0
LINE
  8
_0-2_____1
  6
CONTINUOUS
 62
    3
 10
177.78146349707217
 20
85.597425954677519
 11
177.78146349707217
 21
86.484523954677513
  0
LINE
  8
_0-2_____1
  6
CONTINUOUS
 62
    3
 10
177.78146349707217
 20
86.484523954677513
 11
177.58591249707217
 21
86.597425954677519
  0
LINE
  8
_0-2_____1
  6
CONTINUOUS
 62
    3
 10
177.58591249707217
 20
86.597425954677519
 11
176.53146349707217
 21
86.597425954677519
  0
ARC
  8
_0-2_____1
  6
CONTINUOUS
 62
    3
 10
176.53146349707217
 20
84.722425954677519
 40
1.8750000000009031
 50
70.528779
 51
90
  0
ARC
  8
_0-2_____1
  6
CONTINUOUS
 62
    3
 10
177.45797449707217
 20
86.119925954677498
 40
0.4775000000014926
 50
90
 51
129.15613200000004
  0
LINE
  8
_0-2_____1
  6
CONTINUOUS
 62
    3
 10
177.15646349707217
 20
85.597425954677519
 11
177.15646349707217
 21
86.490192954677482
  0
LINE
  8
_0-2_____1
  6
CONTINUOUS
 62
    3
 10
178.09396349707217
 20
85.597425954677519
 11
174.96896349707217
 21
85.597425954677519
  0
LINE
  8
_0-2_____1
  6
CONTINUOUS
 62
    3
 10
175.51005849707207
 20
78.904918954677512
 11
175.48389949707217
 21
78.530832954677493
  0
LINE
  8
_0-2_____1
  6
CONTINUOUS
 62
    3
 10
175.66091249707216
 20
79.270285954677519
 11
175.51005849707207
 21
78.904918954677512
  0
LINE
  8
_0-2_____1
  6
CONTINUOUS
 62
    3
 10
176.28438949707217
 20
79.226688954677513
 11
175.53621649707216
 21
79.279005954677515
  0
LINE
  8
_0-2_____1
  6
CONTINUOUS
 62
    3
 10
175.54057649707218
 20
79.341353954677516
 11
176.28874949707216
 21
79.289035954677516
  0
LINE
  8
_0-2_____1
  6
CONTINUOUS
 62
    3
 10
175.54057649707218
 20
79.341353954677516
 11
175.53621649707216
 21
79.279005954677515
  0
LINE
  8
_0-2_____1
  6
CONTINUOUS
 62
    3
 10
175.68707149707217
 20
79.644372954677493
 11
175.54057649707218
 21
79.341353954677516
  0
LINE
  8
_0-2_____1
  6
CONTINUOUS
 62
    3
 10
175.71322949707218
 20
80.018458954677499
 11
175.56673549707216
 21
79.715439954677535
  0
LINE
  8
_0-2_____1
  6
CONTINUOUS
 62
    3
 10
175.73938849707218
 20
80.392545954677516
 11
175.59289349707217
 21
80.089526954677538
  0
LINE
  8
_0-2_____1
  6
CONTINUOUS
 62
    3
 10
175.61469249707218
 20
80.401265954677513
 11
176.36286549707216
 21
80.348947954677513
  0
LINE
  8
_0-2_____1
  6
CONTINUOUS
 62
    3
 10
176.34106749707217
 20
80.037208954677496
 11
175.59289349707217
 21
80.089526954677538
  0
LINE
  8
_0-2_____1
  6
CONTINUOUS
 62
    3
 10
175.59289349707217
 20
80.089526954677538
 11
175.58853449707217
 21
80.02717895467751
  0
LINE
  8
_0-2_____1
  6
CONTINUOUS
 62
    3
 10
175.58853449707217
 20
80.02717895467751
 11
176.33670749707218
 21
79.974861954677536
  0
LINE
  8
_0-2_____1
  6
CONTINUOUS
 62
    3
 10
176.31490849707217
 20
79.663122954677519
 11
175.56673549707216
 21
79.715439954677535
  0
LINE
  8
_0-2_____1
  6
CONTINUOUS
 62
    3
 10
175.56673549707216
 20
79.715439954677535
 11
175.56237549707217
 21
79.653091954677492
  0
LINE
  8
_0-2_____1
  6
CONTINUOUS
 62
    3
 10
175.56237549707217
 20
79.653091954677492
 11
176.31054849707218
 21
79.600774954677533
  0
LINE
  8
_0-2_____1
  6
CONTINUOUS
 62
    3
 10
175.51005849707207
 20
78.904918954677512
 11
176.25823149707216
 21
78.852601954677539
  0
LINE
  8
_0-2_____1
  6
CONTINUOUS
 62
    3
 10
175.61469249707218
 20
80.401265954677513
 11
175.65646349707217
 21
80.972425954677519
  0
LINE
  8
_0-2_____1
  6
CONTINUOUS
 62
    3
 10
175.65646349707217
 20
80.972425954677519
 11
175.65646349707217
 21
85.159925954677533
  0
LINE
  8
_0-2_____1
  6
CONTINUOUS
 62
    3
 10
176.53115949707217
 20
80.963705954677494
 11
176.40646349707217
 21
80.972425954677519
  0
LINE
  8
_0-2_____1
  6
CONTINUOUS
 62
    3
 10
176.40646349707217
 20
80.972425954677519
 11
176.23207249707218
 21
78.478515954677519
  0
LINE
  8
_0-2_____1
  6
CONTINUOUS
 62
    3
 10
176.23207249707218
 20
78.478515954677519
 11
175.48389949707217
 21
78.530832954677493
  0
LINE
  8
_0-2_____1
  6
CONTINUOUS
 62
    3
 10
178.09396349707217
 20
85.347425954677519
 11
178.09396349707217
 21
85.597425954677519
  0
LINE
  8
_0-2_____1
  6
CONTINUOUS
 62
    3
 10
174.96896349707217
 20
85.347425954677519
 11
174.96896349707217
 21
85.597425954677519
  0
LINE
  8
_0-2_____1
  6
CONTINUOUS
 62
    3
 10
185.28146349707217
 20
72.659925954677533
 11
185.28146349707217
 21
52.824150954677521
  0
LINE
  8
_0-2_____1
  6
CONTINUOUS
 62
    2
 10
208.96712249707218
 20
51.574150954677521
 11
184.03146349707217
 21
51.574150954677521
  0
LINE
  8
_0-2_____1
  6
CONTINUOUS
 62
    2
 10
208.96712249707218
 20
32.824150954677521
 11
169.03146349707217
 21
32.824150954677521
  0
LINE
  8
_0-2_____1
  6
CONTINUOUS
 62
    3
 10
208.96712249707218
 20
52.824150954677521
 11
185.28146349707217
 21
52.824150954677521
  0
LINE
  8
_0-2_____1
  6
CONTINUOUS
 62
    3
 10
85.210632497072169
 20
88.440978954677519
 11
86.643645497072171
 21
86.958928954677532
  0
LINE
  8
_0-2_____1
  6
CONTINUOUS
 62
    3
 10
86.643645497072171
 20
86.958928954677532
 11
66.498858497072177
 21
121.85072395467752
  0
LINE
  8
_0-2_____1
  6
CONTINUOUS
 62
    3
 10
66.498858497072177
 20
121.85072395467752
 11
40.750826497072183
 21
121.85072395467752
  0
TEXT
  8
_0-2_____1
 62
    7
 10
40.750826497072183
 20
122.35072395467752
 40
3
 41
0.8579999999999999
 50
0
  1
Ｍ１０アンカーボルト
  0
LINE
  8
_0-2_____1
  6
二点鎖線
 62
    3
 10
94.031463497072167
 20
85.159925954677533
 11
169.03146349707217
 21
85.159925954677533
  0
INSERT
  2
-012-D11
  8
_0-2_____1
 10
1.2577204970721709
 20
1.719697954677514
 41
1
 42
1
 50
0
  0
INSERT
  2
-013-D12
  8
_0-2_____1
 10
1.2577204970721709
 20
1.719697954677514
 41
1
 42
1
 50
0
  0
TEXT
  8
_0-2_____1
 62
    7
 10
40.289468497072164
 20
118.06535195467751
 40
3
 41
0.8579999999999999
 50
0
  1
４ヶ所　（別途）
  0
LINE
  8
_0-2_____1
  6
CONTINUOUS
 62
    3
 10
118.45038949707217
 20
118.63596695467751
 11
120.40046949707217
 21
118.63596695467751
  0
LINE
  8
_0-2_____1
  6
CONTINUOUS
 62
    3
 10
120.40046949707217
 20
118.63596695467751
 11
120.40046949707217
 21
116.52669695467752
  0
LINE
  8
_0-2_____1
  6
CONTINUOUS
 62
    3
 10
120.40046949707217
 20
116.52669695467752
 11
118.45038949707217
 21
116.52669695467752
  0
LINE
  8
_0-2_____1
  6
CONTINUOUS
 62
    3
 10
118.45038949707217
 20
116.52669695467752
 11
118.45038949707217
 21
118.63596695467751
  0
LINE
  8
_0-2_____1
  6
CONTINUOUS
 62
    3
 10
118.32534849707217
 20
27.576876954677516
 11
120.27542849707217
 21
27.576876954677516
  0
LINE
  8
_0-2_____1
  6
CONTINUOUS
 62
    3
 10
120.27542849707217
 20
27.576876954677516
 11
120.27542849707217
 21
25.467606954677507
  0
LINE
  8
_0-2_____1
  6
CONTINUOUS
 62
    3
 10
120.27542849707217
 20
25.467606954677507
 11
118.32534849707217
 21
25.467606954677507
  0
LINE
  8
_0-2_____1
  6
CONTINUOUS
 62
    3
 10
118.32534849707217
 20
25.467606954677507
 11
118.32534849707217
 21
27.576876954677516
  0
LINE
  8
_0-2_____1
  6
CONTINUOUS
 62
    2
 10
70.906463497072195
 20
83.909925954677533
 11
72.156463497072195
 21
85.159925954677533
  0
LINE
  8
_0-2_____1
  6
CONTINUOUS
 62
    2
 10
192.15646349707217
 20
83.909925954677533
 11
190.90646349707217
 21
85.159925954677533
  0
LINE
  8
_0-2_____1
  6
CONTINUOUS
 62
    3
 10
76.531463497072195
 20
52.824150954677521
 11
77.781463497072195
 21
54.074150954677521
  0
LINE
  8
_0-2_____1
  6
CONTINUOUS
 62
    6
 10
184.03146349707217
 20
66.792062954677519
 11
169.03146349707217
 21
81.792062954677533
  0
LINE
  8
_0-2_____1
  6
CONTINUOUS
 62
    6
 10
184.03146349707217
 20
65.898612954677517
 11
169.03146349707217
 21
80.898612954677517
  0
LINE
  8
_0-2_____1
  6
CONTINUOUS
 62
    6
 10
199.24937549707218
 20
51.574150954677521
 11
208.96712249707218
 21
41.856403954677518
  0
LINE
  8
_0-2_____1
  6
CONTINUOUS
 62
    6
 10
198.85227349707216
 20
51.574150954677521
 11
208.96712249707218
 21
41.459301954677514
  0
LINE
  8
_0-2_____1
  6
CONTINUOUS
 62
    6
 10
208.96712249707218
 20
40.962953954677516
 11
198.35592649707218
 21
51.574150954677521
  0
LINE
  8
_0-2_____1
  6
CONTINUOUS
 62
    6
 10
169.03146349707217
 20
49.359570954677508
 11
185.56688349707218
 21
32.824150954677521
  0
LINE
  8
_0-2_____1
  6
CONTINUOUS
 62
    6
 10
169.03146349707217
 20
48.962468954677519
 11
185.16978149707217
 21
32.824150954677521
  0
LINE
  8
_0-2_____1
  6
CONTINUOUS
 62
    6
 10
184.67343449707218
 20
32.824150954677521
 11
169.03146349707217
 21
48.466121954677504
  0
LINE
  8
_0-2_____1
  6
CONTINUOUS
 62
    3
 10
186.53146349707217
 20
52.824150954677521
 11
185.28146349707217
 21
54.074150954677521
  0
LINE
  8
_0-2_____1
  6
一点鎖線
 62
    3
 10
131.53146349707217
 20
100.72844395467753
 11
131.53146349707217
 21
72.898553954677539
  0
LINE
  8
_0-2_____1
  6
CONTINUOUS
 62
    6
 10
184.03146349707217
 20
66.394960954677515
 11
169.03146349707217
 21
81.394960954677515
  0
LINE
  8
_0-2_____1
  6
CONTINUOUS
 62
    6
 10
69.41996349707216
 20
79.163293954677513
 11
70.622685497072155
 21
80.366016954677491
  0
LINE
  8
_0-2_____1
  6
CONTINUOUS
 62
    6
 10
70.643596497072167
 20
79.163293954677513
 11
69.440874497072173
 21
80.366016954677491
  0
LINE
  8
_0-2_____1
  6
CONTINUOUS
 62
    6
 10
70.906463497072195
 20
79.421245954677516
 11
70.64851149707215
 21
79.163293954677513
  0
LINE
  8
_0-2_____1
  6
CONTINUOUS
 62
    6
 10
70.906463497072195
 20
79.581470954677513
 11
70.121918497072159
 21
80.366016954677491
  0
LINE
  8
_0-2_____1
  6
CONTINUOUS
 62
    6
 10
70.047591497072176
 20
79.163293954677513
 11
70.906463497072195
 21
80.022166954677488
  0
LINE
  8
_0-2_____1
  6
CONTINUOUS
 62
    6
 10
70.762900497072167
 20
80.366016954677491
 11
70.906463497072195
 21
80.222452954677536
  0
LINE
  8
_0-2_____1
  6
CONTINUOUS
 62
    6
 10
69.949199497072186
 20
79.163293954677513
 11
69.406463497072195
 21
79.70602995467749
  0
LINE
  8
_0-2_____1
  6
CONTINUOUS
 62
    6
 10
69.406463497072195
 20
79.83083795467752
 11
69.941641497072169
 21
80.366016954677491
  0
LINE
  8
_0-2_____1
  6
CONTINUOUS
 62
    6
 10
69.218963497072195
 20
79.163293954677513
 11
70.906463497072195
 21
79.163293954677513
  0
LINE
  8
_0-2_____1
  6
CONTINUOUS
 62
    6
 10
193.64296449707217
 20
79.163293954677513
 11
192.44024249707218
 21
80.366016954677491
  0
LINE
  8
_0-2_____1
  6
CONTINUOUS
 62
    6
 10
192.41933049707217
 20
79.163293954677513
 11
193.62205249707216
 21
80.366016954677491
  0
LINE
  8
_0-2_____1
  6
CONTINUOUS
 62
    6
 10
192.15646349707217
 20
79.421245954677516
 11
192.41441549707218
 21
79.163293954677513
  0
LINE
  8
_0-2_____1
  6
CONTINUOUS
 62
    6
 10
192.15646349707217
 20
79.581470954677513
 11
192.94100949707217
 21
80.366016954677491
  0
LINE
  8
_0-2_____1
  6
CONTINUOUS
 62
    6
 10
193.01533649707218
 20
79.163293954677513
 11
192.15646349707217
 21
80.022166954677488
  0
LINE
  8
_0-2_____1
  6
CONTINUOUS
 62
    6
 10
192.30002749707216
 20
80.366016954677491
 11
192.15646349707217
 21
80.222452954677536
  0
LINE
  8
_0-2_____1
  6
CONTINUOUS
 62
    6
 10
193.11372749707218
 20
79.163293954677513
 11
193.65646349707217
 21
79.70602995467749
  0
LINE
  8
_0-2_____1
  6
CONTINUOUS
 62
    6
 10
193.65646349707217
 20
79.83083795467752
 11
193.12128549707217
 21
80.366016954677491
  0
LINE
  8
_0-2_____1
  6
CONTINUOUS
 62
    6
 10
193.84396349707217
 20
79.163293954677513
 11
192.15646349707217
 21
79.163293954677513
  0
LINE
  8
_0-2_____1
  6
CONTINUOUS
 62
    3
 10
69.711454497072168
 20
77.421701954677516
 11
70.278441497072151
 21
79.403752954677515
  0
LINE
  8
_0-2_____1
  6
CONTINUOUS
 62
    3
 10
70.278441497072151
 20
79.403752954677515
 11
65.386847497072154
 21
70.931262954677521
  0
LINE
  8
_0-2_____1
  6
CONTINUOUS
 62
    3
 10
65.386847497072154
 20
70.931262954677521
 11
37.064012497072156
 21
70.931262954677521
  0
TEXT
  8
_0-2_____1
 62
    7
 10
37.064012497072156
 20
71.431262954677536
 40
3
 41
0.8579999999999999
 50
0
  1
シーリング処理（別途）
  0
LINE
  8
_0-2_____1
  6
破線
 62
    3
 10
331.50585249707217
 20
182.24958395467752
 11
339.50585249707217
 21
182.24958395467752
  0
LINE
  8
_0-2_____1
  6
破線
 62
    3
 10
331.50585249707217
 20
183.74958395467752
 11
339.50585249707217
 21
183.74958395467752
  0
LINE
  8
_0-2_____1
  6
CONTINUOUS
 62
    2
 10
310.25583149707217
 20
182.06208395467752
 11
272.75583149707217
 21
182.06208395467752
  0
LINE
  8
_0-2_____1
  6
CONTINUOUS
 62
    2
 10
272.75583149707217
 20
182.06208395467752
 11
272.75583149707217
 21
107.06208395467752
  0
LINE
  8
_0-2_____1
  6
CONTINUOUS
 62
    2
 10
272.75583149707217
 20
107.06208395467752
 11
310.25583149707217
 21
107.06208395467752
  0
LINE
  8
_0-2_____1
  6
CONTINUOUS
 62
    2
 10
310.25583149707217
 20
205.18708395467752
 11
249.63083149707217
 21
205.18708395467752
  0
LINE
  8
_0-2_____1
  6
CONTINUOUS
 62
    2
 10
249.63083149707217
 20
205.18708395467752
 11
249.63083149707217
 21
83.937083954677519
  0
LINE
  8
_0-2_____1
  6
CONTINUOUS
 62
    2
 10
249.63083149707217
 20
83.937083954677519
 11
310.25583149707217
 21
83.937083954677519
  0
LINE
  8
_0-2_____1
  6
一点鎖線
 62
    3
 10
266.81833149707217
 20
113.31208395467752
 11
263.69333149707217
 21
113.31208395467752
  0
LINE
  8
_0-2_____1
  6
一点鎖線
 62
    3
 10
265.25583149707217
 20
114.87458395467752
 11
265.25583149707217
 21
111.74958395467752
  0
LINE
  8
_0-2_____1
  6
一点鎖線
 62
    3
 10
266.81833149707217
 20
175.81208395467752
 11
263.69333149707217
 21
175.81208395467752
  0
LINE
  8
_0-2_____1
  6
一点鎖線
 62
    3
 10
265.25583149707217
 20
177.37458395467752
 11
265.25583149707217
 21
174.24958395467752
  0
CIRCLE
  8
_0-2_____1
  6
CONTINUOUS
 62
    3
 10
265.25583149707217
 20
175.81208395467752
 40
0.625
  0
CIRCLE
  8
_0-2_____1
  6
CONTINUOUS
 62
    3
 10
265.25583149707217
 20
113.31208395467752
 40
0.625
  0
INSERT
  2
-014-D13
  8
_0-2_____1
 10
1.2577204970721709
 20
1.719697954677514
 41
1
 42
1
 50
0
  0
LINE
  8
_0-2_____1
  6
CONTINUOUS
 62
    3
 10
297.28773949707215
 20
75.769143954677517
 11
299.23781949707217
 21
75.769143954677517
  0
LINE
  8
_0-2_____1
  6
CONTINUOUS
 62
    3
 10
299.23781949707217
 20
75.769143954677517
 11
299.23781949707217
 21
73.659873954677494
  0
LINE
  8
_0-2_____1
  6
CONTINUOUS
 62
    3
 10
299.23781949707217
 20
73.659873954677494
 11
297.28773949707215
 21
73.659873954677494
  0
LINE
  8
_0-2_____1
  6
CONTINUOUS
 62
    3
 10
297.28773949707215
 20
73.659873954677494
 11
297.28773949707215
 21
75.769143954677517
  0
LINE
  8
_0-2_____1
  6
一点鎖線
 62
    3
 10
244.24608049707217
 20
144.56208395467752
 11
378.1798324970722
 21
144.56208395467752
  0
LINE
  8
_0-2_____1
  6
CONTINUOUS
 62
    6
 10
249.63083149707217
 20
172.17425995467752
 11
282.64365549707219
 21
205.18708395467752
  0
LINE
  8
_0-2_____1
  6
CONTINUOUS
 62
    6
 10
249.63083149707217
 20
171.77715795467751
 11
283.04075749707215
 21
205.18708395467752
  0
LINE
  8
_0-2_____1
  6
CONTINUOUS
 62
    6
 10
283.53710549707216
 20
205.18708395467752
 11
249.63083149707217
 21
171.28080995467752
  0
LINE
  8
_0-2_____1
  6
CONTINUOUS
 62
    6
 10
249.63083149707217
 20
125.85245595467751
 11
272.75583149707217
 21
148.97745595467751
  0
LINE
  8
_0-2_____1
  6
CONTINUOUS
 62
    6
 10
249.63083149707217
 20
125.45535395467752
 11
272.75583149707217
 21
148.58035395467752
  0
LINE
  8
_0-2_____1
  6
CONTINUOUS
 62
    6
 10
249.63083149707217
 20
124.95900595467751
 11
272.75583149707217
 21
148.08400595467751
  0
LINE
  8
_0-2_____1
  6
CONTINUOUS
 62
    6
 10
264.95597449707219
 20
83.937083954677519
 11
288.08097449707219
 21
107.06208395467752
  0
LINE
  8
_0-2_____1
  6
CONTINUOUS
 62
    6
 10
265.35307649707215
 20
83.937083954677519
 11
288.47807649707215
 21
107.06208395467752
  0
LINE
  8
_0-2_____1
  6
CONTINUOUS
 62
    6
 10
265.84942349707217
 20
83.937083954677519
 11
288.97442349707217
 21
107.06208395467752
  0
INSERT
  2
-015-D14
  8
_0-2_____1
 10
1.2577204970721709
 20
1.719697954677514
 41
1
 42
1
 50
0
  0
INSERT
  2
-016-D15
  8
_0-2_____1
 10
1.2577204970721709
 20
1.719697954677514
 41
1
 42
1
 50
0
  0
LINE
  8
_0-2_____1
  6
CONTINUOUS
 62
    3
 10
81.056741497072153
 20
89.296346954677489
 11
82.489754497072155
 21
87.814295954677519
  0
LINE
  8
_0-2_____1
  6
CONTINUOUS
 62
    3
 10
82.489754497072155
 20
87.814295954677519
 11
68.822655497072162
 21
111.48640595467751
  0
LINE
  8
_0-2_____1
  6
CONTINUOUS
 62
    3
 10
68.822655497072162
 20
111.48640595467751
 11
50.799033497072173
 21
111.48640595467751
  0
TEXT
  8
_0-2_____1
 62
    7
 10
50.799033497072173
 20
111.98640595467751
 40
3
 41
0.8579999999999999
 50
0
  1
ブラケット－４
  0
LINE
  8
_0-2_____1
  6
CONTINUOUS
 62
    3
 10
360.73572549707217
 20
111.79944595467751
 11
359.30271249707215
 21
113.28149695467751
  0
LINE
  8
_0-2_____1
  6
CONTINUOUS
 62
    3
 10
359.30271249707215
 20
113.28149695467751
 11
381.63010049707219
 21
74.609326954677513
  0
LINE
  8
_0-2_____1
  6
CONTINUOUS
 62
    3
 10
381.63010049707219
 20
74.609326954677513
 11
399.65372249707218
 21
74.609326954677513
  0
TEXT
  8
_0-2_____1
 62
    7
 10
381.63010049707219
 20
75.109326954677513
 40
3
 41
0.8579999999999999
 50
0
  1
ブラケット－４
  0
LINE
  8
_0-2_____1
  6
CONTINUOUS
 62
    2
 10
94.031463497072167
 20
148.7702699546775
 11
94.031463497072167
 21
201.10604495467751
  0
LINE
  8
_0-2_____1
  6
CONTINUOUS
 62
    2
 10
79.031463497072195
 20
188.60604495467751
 11
79.031463497072195
 21
167.5202699546775
  0
LINE
  8
_0-2_____1
  6
CONTINUOUS
 62
    2
 10
70.906463497072195
 20
188.60604495467751
 11
70.906463497072195
 21
199.85604495467751
  0
LINE
  8
_0-2_____1
  6
CONTINUOUS
 62
    2
 10
94.031463497072167
 20
201.10604495467751
 11
72.156463497072195
 21
201.10604495467751
  0
LINE
  8
_0-2_____1
  6
CONTINUOUS
 62
    2
 10
70.906463497072195
 20
188.60604495467751
 11
79.031463497072195
 21
188.60604495467751
  0
LINE
  8
_0-2_____1
  6
CONTINUOUS
 62
    6
 10
79.031463497072195
 20
182.73818195467751
 11
94.031463497072167
 21
197.73818195467751
  0
LINE
  8
_0-2_____1
  6
CONTINUOUS
 62
    6
 10
79.031463497072195
 20
182.34107995467753
 11
94.031463497072167
 21
197.34107995467753
  0
LINE
  8
_0-2_____1
  6
CONTINUOUS
 62
    6
 10
79.031463497072195
 20
181.84473195467751
 11
94.031463497072167
 21
196.84473195467751
  0
LINE
  8
_0-2_____1
  6
CONTINUOUS
 62
    3
 10
77.781463497072195
 20
188.60604495467751
 11
77.781463497072195
 21
170.0202699546775
  0
LINE
  8
_0-2_____1
  6
CONTINUOUS
 62
    2
 10
54.095804497072152
 20
148.7702699546775
 11
94.031463497072167
 21
148.7702699546775
  0
LINE
  8
_0-2_____1
  6
CONTINUOUS
 62
    2
 10
54.095804497072152
 20
167.5202699546775
 11
79.031463497072195
 21
167.5202699546775
  0
LINE
  8
_0-2_____1
  6
CONTINUOUS
 62
    3
 10
54.095804497072152
 20
168.7702699546775
 11
76.531463497072195
 21
168.7702699546775
  0
LINE
  8
_0-2_____1
  6
CONTINUOUS
 62
    6
 10
63.81355249707218
 20
167.5202699546775
 11
54.095804497072152
 21
157.8025219546775
  0
LINE
  8
_0-2_____1
  6
CONTINUOUS
 62
    6
 10
64.210653497072144
 20
167.5202699546775
 11
54.095804497072152
 21
157.40541995467751
  0
LINE
  8
_0-2_____1
  6
CONTINUOUS
 62
    6
 10
54.095804497072152
 20
156.90907295467753
 11
64.707001497072156
 21
167.5202699546775
  0
LINE
  8
_0-2_____1
  6
CONTINUOUS
 62
    6
 10
94.031463497072167
 20
165.30568995467752
 11
77.496043497072151
 21
148.7702699546775
  0
LINE
  8
_0-2_____1
  6
CONTINUOUS
 62
    6
 10
94.031463497072167
 20
164.9085879546775
 11
77.893145497072169
 21
148.7702699546775
  0
LINE
  8
_0-2_____1
  6
CONTINUOUS
 62
    6
 10
78.389492497072183
 20
148.7702699546775
 11
94.031463497072167
 21
164.41224095467751
  0
LINE
  8
_0-2_____1
  6
CONTINUOUS
 62
    2
 10
70.906463497072195
 20
199.85604495467751
 11
72.156463497072195
 21
201.10604495467751
  0
LINE
  8
_0-2_____1
  6
CONTINUOUS
 62
    3
 10
76.531463497072195
 20
168.7702699546775
 11
77.781463497072195
 21
170.0202699546775
  0
LINE
  8
_0-2_____1
  6
CONTINUOUS
 62
    2
 10
169.03146349707217
 20
148.7702699546775
 11
169.03146349707217
 21
201.10604495467751
  0
LINE
  8
_0-2_____1
  6
CONTINUOUS
 62
    2
 10
184.03146349707217
 20
188.60604495467751
 11
184.03146349707217
 21
167.5202699546775
  0
LINE
  8
_0-2_____1
  6
CONTINUOUS
 62
    2
 10
192.15646349707217
 20
188.60604495467751
 11
192.15646349707217
 21
199.85604495467751
  0
LINE
  8
_0-2_____1
  6
CONTINUOUS
 62
    2
 10
190.90646349707217
 20
201.10604495467751
 11
94.031463497072167
 21
201.10604495467751
  0
LINE
  8
_0-2_____1
  6
CONTINUOUS
 62
    2
 10
192.15646349707217
 20
188.60604495467751
 11
184.03146349707217
 21
188.60604495467751
  0
LINE
  8
_0-2_____1
  6
CONTINUOUS
 62
    6
 10
184.03146349707217
 20
182.73818195467751
 11
169.03146349707217
 21
197.73818195467751
  0
LINE
  8
_0-2_____1
  6
CONTINUOUS
 62
    6
 10
184.03146349707217
 20
182.34107995467753
 11
169.03146349707217
 21
197.34107995467753
  0
LINE
  8
_0-2_____1
  6
CONTINUOUS
 62
    6
 10
184.03146349707217
 20
181.84473195467751
 11
169.03146349707217
 21
196.84473195467751
  0
LINE
  8
_0-2_____1
  6
CONTINUOUS
 62
    3
 10
185.28146349707217
 20
188.60604495467751
 11
185.28146349707217
 21
170.0202699546775
  0
LINE
  8
_0-2_____1
  6
CONTINUOUS
 62
    2
 10
208.96712249707218
 20
148.7702699546775
 11
169.03146349707217
 21
148.7702699546775
  0
LINE
  8
_0-2_____1
  6
CONTINUOUS
 62
    2
 10
208.96712249707218
 20
167.5202699546775
 11
184.03146349707217
 21
167.5202699546775
  0
LINE
  8
_0-2_____1
  6
CONTINUOUS
 62
    3
 10
208.96712249707218
 20
168.7702699546775
 11
186.53146349707217
 21
168.7702699546775
  0
LINE
  8
_0-2_____1
  6
CONTINUOUS
 62
    6
 10
199.24937549707218
 20
167.5202699546775
 11
208.96712249707218
 21
157.8025219546775
  0
LINE
  8
_0-2_____1
  6
CONTINUOUS
 62
    6
 10
198.85227349707216
 20
167.5202699546775
 11
208.96712249707218
 21
157.40541995467751
  0
LINE
  8
_0-2_____1
  6
CONTINUOUS
 62
    6
 10
208.96712249707218
 20
156.90907295467753
 11
198.35592649707218
 21
167.5202699546775
  0
LINE
  8
_0-2_____1
  6
CONTINUOUS
 62
    6
 10
169.03146349707217
 20
165.30568995467752
 11
185.56688349707218
 21
148.7702699546775
  0
LINE
  8
_0-2_____1
  6
CONTINUOUS
 62
    6
 10
169.03146349707217
 20
164.9085879546775
 11
185.16978149707217
 21
148.7702699546775
  0
LINE
  8
_0-2_____1
  6
CONTINUOUS
 62
    6
 10
184.67343449707218
 20
148.7702699546775
 11
169.03146349707217
 21
164.41224095467751
  0
LINE
  8
_0-2_____1
  6
CONTINUOUS
 62
    2
 10
192.15646349707217
 20
199.85604495467751
 11
190.90646349707217
 21
201.10604495467751
  0
LINE
  8
_0-2_____1
  6
CONTINUOUS
 62
    3
 10
186.53146349707217
 20
168.7702699546775
 11
185.28146349707217
 21
170.0202699546775
  0
LINE
  8
_0-2_____1
  6
CONTINUOUS
 62
    4
 10
162.78146349707217
 20
202.15516695467753
 11
162.78146349707217
 21
199.93474595467751
  0
LINE
  8
_0-2_____1
  6
CONTINUOUS
 62
    4
 10
100.28146349707217
 20
202.13101095467752
 11
100.28146349707217
 21
199.95499895467751
  0
INSERT
  2
-017-D16
  8
_0-2_____1
 10
1.2577204970721709
 20
1.719697954677514
 41
1
 42
1
 50
0
  0
INSERT
  2
-018-D17
  8
_0-2_____1
 10
1.2577204970721709
 20
1.719697954677514
 41
1
 42
1
 50
0
  0
LINE
  8
_0-2_____1
  6
CONTINUOUS
 62
    3
 10
121.21964849707217
 20
162.99623095467751
 11
123.20952649707218
 21
162.99623095467751
  0
LINE
  8
_0-2_____1
  6
CONTINUOUS
 62
    3
 10
123.20952649707218
 20
162.99623095467751
 11
123.20952649707218
 21
161.1058469546775
  0
LINE
  8
_0-2_____1
  6
CONTINUOUS
 62
    3
 10
123.20952649707218
 20
161.1058469546775
 11
121.21964849707217
 21
161.1058469546775
  0
LINE
  8
_0-2_____1
  6
CONTINUOUS
 62
    3
 10
121.21964849707217
 20
161.1058469546775
 11
121.21964849707217
 21
162.99623095467751
  0
LINE
  8
_0-2_____1
  6
一点鎖線
 62
    3
 10
131.53146349707217
 20
218.87170195467752
 11
131.53146349707217
 21
195.10941295467751
  0
LINE
  8
_0-2_____1
  6
CONTINUOUS
 62
    3
 10
356.57100549707218
 20
111.33320295467752
 11
355.13799249707216
 21
112.81525395467752
  0
LINE
  8
_0-2_____1
  6
CONTINUOUS
 62
    3
 10
355.13799249707216
 20
112.81525395467752
 11
380.32593849707217
 21
69.188451954677518
  0
LINE
  8
_0-2_____1
  6
CONTINUOUS
 62
    3
 10
380.32593849707217
 20
69.188451954677518
 11
403.49916649707217
 21
69.188451954677518
  0
LINE
  8
_0-2_____1
  6
CONTINUOUS
 62
    6
 10
94.031463497072167
 20
85.159925954677533
 11
94.031463497072167
 21
89.163293954677528
  0
LINE
  8
_0-2_____1
  6
CONTINUOUS
 62
    6
 10
169.03146349707217
 20
85.159925954677533
 11
169.03146349707217
 21
89.163293954677528
  0
LINE
  8
_0-2_____1
  6
CONTINUOUS
 62
    3
 10
95.257013497072165
 20
85.255307954677491
 11
93.824000497072177
 21
86.737358954677532
  0
LINE
  8
_0-2_____1
  6
CONTINUOUS
 62
    3
 10
93.824000497072177
 20
86.737358954677532
 11
103.20030449707217
 21
70.497123954677519
  0
LINE
  8
_0-2_____1
  6
CONTINUOUS
 62
    3
 10
103.20030449707217
 20
70.497123954677519
 11
131.52313949707218
 21
70.497123954677519
  0
TEXT
  8
_0-2_____1
 62
    7
 10
105.77510749707217
 20
70.997123954677519
 40
3
 41
0.8579999999999999
 50
0
  1
モルタル充填（別途）
  0
CIRCLE
  8
_0-2_____1
  6
CONTINUOUS
 62
    6
 10
93.241948497072187
 20
88.008545954677501
 40
0.125
  0
CIRCLE
  8
_0-2_____1
  6
CONTINUOUS
 62
    6
 10
93.241948497072187
 20
86.587461954677522
 40
0.125
  0
CIRCLE
  8
_0-2_____1
  6
CONTINUOUS
 62
    6
 10
91.565068497072176
 20
87.468533954677483
 40
0.125
  0
CIRCLE
  8
_0-2_____1
  6
CONTINUOUS
 62
    6
 10
90.769261497072179
 20
86.075870954677512
 40
0.125
  0
CIRCLE
  8
_0-2_____1
  6
CONTINUOUS
 62
    6
 10
90.229249497072175
 20
88.122232954677514
 40
0.125
  0
CIRCLE
  8
_0-2_____1
  6
CONTINUOUS
 62
    6
 10
169.82097949707216
 20
88.008545954677501
 40
0.125
  0
CIRCLE
  8
_0-2_____1
  6
CONTINUOUS
 62
    6
 10
169.82097949707216
 20
86.587461954677522
 40
0.125
  0
CIRCLE
  8
_0-2_____1
  6
CONTINUOUS
 62
    6
 10
171.49785849707217
 20
87.468533954677483
 40
0.125
  0
CIRCLE
  8
_0-2_____1
  6
CONTINUOUS
 62
    6
 10
172.29366549707217
 20
86.075870954677512
 40
0.125
  0
CIRCLE
  8
_0-2_____1
  6
CONTINUOUS
 62
    6
 10
172.83367749707216
 20
88.122232954677514
 40
0.125
  0
TEXT
  8
_0-2_____1
 62
    7
 10
194.98414249707218
 20
19.420423954677517
 40
3
 41
0.8579999999999999
 50
0
  1
＊　図は参考です、現場と打合せを行い施工して下さい。
  0
TEXT
  8
_0-2_____1
 62
    7
 10
194.82794049707218
 20
14.859129954677513
 40
3
 41
0.8579999999999999
 50
0
  1
＊　ガスステー、多段ステー、３段ステー方式が有りますが、
  0
TEXT
  8
_0-2_____1
 62
    7
 10
199.68605549707218
 20
10.684185954677503
 40
3
 41
0.8579999999999999
 50
0
  1
施工方法は、各機種共通です。
  0
LINE
  8
_0-2_____1
  6
一点鎖線
 62
    3
 10
112.88811149707217
 20
208.90783895467752
 11
113.44880849707216
 21
206.19489995467751
  0
LINE
  8
_0-2_____1
  6
一点鎖線
 62
    3
 10
170.38792249707217
 20
220.96449295467752
 11
170.98908449707218
 21
218.0557639546775
  0
LINE
  8
_0-2_____1
  6
一点鎖線
 62
    3
 10
113.15413649707217
 20
207.62067395467753
 11
159.02978549707217
 21
207.79015595467752
  0
LINE
  8
_0-2_____1
  6
一点鎖線
 62
    3
 10
156.83695449707218
 20
209.22720295467752
 11
156.84731549707217
 21
206.42283195467752
  0
ARC
  8
_0-2_____1
  6
CONTINUOUS
 62
    4
 10
87.800029497072146
 20
204.92191295467751
 40
0.187500001332429
 50
90
 51
101.309932
  0
ARC
  8
_0-2_____1
  6
CONTINUOUS
 62
    4
 10
175.26289749707217
 20
204.92191295467751
 40
0.1874999949642066
 50
78.690066999999985
 51
90
  0
LINE
  8
_0-2_____1
  6
CONTINUOUS
 62
    4
 10
173.43185549707218
 20
262.56860095467755
 11
173.70980149707216
 21
258.82891595467754
  0
INSERT
  2
-019-D18
  8
_0-2_____1
 10
1.2577204970721709
 20
1.719697954677514
 41
1
 42
1
 50
0
  0
INSERT
  2
-020-D19
  8
_0-2_____1
 10
1.2577204970721709
 20
1.719697954677514
 41
1
 42
1
 50
0
  0
LINE
  8
_0-2_____1
  6
CONTINUOUS
 62
    3
 10
62.549150497072162
 20
201.35941295467751
 11
68.489248497072168
 21
201.35941295467751
  0
LINE
  8
_0-2_____1
  6
CONTINUOUS
 62
    2
 10
341.26650449707216
 20
277.39286495467752
 11
245.67405149707218
 21
277.39286495467752
  0
LINE
  8
_0-2_____1
  6
CONTINUOUS
 62
    2
 10
341.26650449707216
 20
272.37512295467752
 11
234.49438249707217
 21
272.37512295467752
  0
LINE
  8
_0-2_____1
  6
CONTINUOUS
 62
    2
 10
341.26650449707216
 20
267.10104395467749
 11
234.49438249707217
 21
267.10104395467749
  0
LINE
  8
_0-2_____1
  6
CONTINUOUS
 62
    2
 10
341.26650449707216
 20
261.65812295467754
 11
234.49438249707217
 21
261.65812295467754
  0
LINE
  8
_0-2_____1
  6
CONTINUOUS
 62
    2
 10
341.26650449707216
 20
256.61212295467749
 11
234.49438249707217
 21
256.61212295467749
  0
TEXT
  8
_0-2_____1
 62
    7
 10
330.12798349707208
 20
262.87875095467746
 40
3
 41
0.8579999999999999
 50
0
  1
１４２
  0
TEXT
  8
_0-2_____1
 62
    7
 10
330.19477249707217
 20
257.62432595467749
 40
3
 41
0.8579999999999999
 50
0
  1
１４２
  0
TEXT
  8
_0-2_____1
 62
    7
 10
330.02167549707218
 20
267.9757669546774
 40
3
 41
0.8579999999999999
 50
0
  1
１４２
  0
TEXT
  8
_0-2_____1
 62
    7
 10
332.51753149707218
 20
273.42370395467753
 40
3
 41
0.8579999999999999
 50
0
  1
Ｈ
  0
LINE
  8
_0-2_____1
  6
CONTINUOUS
 62
    2
 10
245.72148449707217
 20
277.39286495467752
 11
234.49438249707217
 21
277.39286495467752
  0
LINE
  8
_0-2_____1
  6
CONTINUOUS
 62
    2
 10
234.49438249707217
 20
277.39286495467752
 11
234.49438249707217
 21
277.1607489546775
  0
TEXT
  8
_0-2_____1
 62
    7
 10
317.22738549707219
 20
273.31958595467756
 40
3
 41
0.8579999999999999
 50
0
  1
Ｊ
  0
TEXT
  8
_0-2_____1
 62
    7
 10
314.98811949707215
 20
262.98977095467751
 40
3
 41
0.8579999999999999
 50
0
  1
６００
  0
TEXT
  8
_0-2_____1
 62
    7
 10
315.10349549707217
 20
257.73534595467754
 40
3
 41
0.8579999999999999
 50
0
  1
５００
  0
TEXT
  8
_0-2_____1
 62
    7
 10
237.28553949707216
 20
268.36556795467754
 40
3
 41
0.8579999999999999
 50
0
  1
ＯＭＫ－６１５０１ＢＫ
  0
TEXT
  8
_0-2_____1
 62
    7
 10
251.58250949707218
 20
273.2214939546775
 40
3
 41
0.8579999999999999
 50
0
  1
型
  0
TEXT
  8
_0-2_____1
 62
    7
 10
284.66057149707217
 20
268.26262695467756
 40
3
 41
0.8579999999999999
 50
0
  1
５００
  0
TEXT
  8
_0-2_____1
 62
    7
 10
284.5505554970722
 20
252.5044189546775
 40
3
 41
0.8579999999999999
 50
0
  1
６００
  0
TEXT
  8
_0-2_____1
 62
    7
 10
284.62908949707219
 20
257.23695795467756
 40
3
 41
0.8579999999999999
 50
0
  1
５００
  0
TEXT
  8
_0-2_____1
 62
    7
 10
300.94311749707219
 20
268.5734839546775
 40
3
 41
0.8579999999999999
 50
0
  1
９００
  0
TEXT
  8
_0-2_____1
 62
    7
 10
298.45214149707215
 20
252.54284495467752
 40
3
 41
0.8579999999999999
 50
0
  1
１０００
  0
TEXT
  8
_0-2_____1
 62
    7
 10
300.82981349707217
 20
257.71819795467752
 40
3
 41
0.8579999999999999
 50
0
  1
９００
  0
TEXT
  8
_0-2_____1
 62
    7
 10
314.88181949707217
 20
268.08678695467756
 40
3
 41
0.8579999999999999
 50
0
  1
５００
  0
TEXT
  8
_0-2_____1
 62
    7
 10
263.02274149707216
 20
273.2214939546775
 40
3
 41
0.8579999999999999
 50
0
  1
式
  0
TEXT
  8
_0-2_____1
 62
    7
 10
335.7529814970722
 20
277.84821995467746
 40
3
 41
0.8579999999999999
 50
0
  1
ｍｍ
  0
TEXT
  8
_0-2_____1
 62
    7
 10
327.84183349707217
 20
277.83909495467753
 40
3
 41
0.8579999999999999
 50
0
  1
単位
  0
TEXT
  8
_0-2_____1
 62
    7
 10
284.19288449707216
 20
273.41357195467754
 40
3
 41
0.8579999999999999
 50
0
  1
　Ａ
  0
TEXT
  8
_0-2_____1
 62
    7
 10
302.26315549707215
 20
273.32979595467748
 40
3
 41
0.8579999999999999
 50
0
  1
Ｗ
  0
LINE
  8
_0-2_____1
  6
CONTINUOUS
 62
    2
 10
234.49438249707217
 20
277.39286495467752
 11
234.49438249707217
 21
251.56612295467752
  0
LINE
  8
_0-2_____1
  6
CONTINUOUS
 62
    2
 10
280.7145044970722
 20
277.39286495467752
 11
280.7145044970722
 21
251.56612295467752
  0
LINE
  8
_0-2_____1
  6
CONTINUOUS
 62
    2
 10
295.85250449707218
 20
277.39286495467752
 11
295.85250449707218
 21
251.56612295467752
  0
LINE
  8
_0-2_____1
  6
CONTINUOUS
 62
    2
 10
310.99050449707215
 20
277.39286495467752
 11
310.99050449707215
 21
251.56612295467752
  0
LINE
  8
_0-2_____1
  6
CONTINUOUS
 62
    2
 10
326.12850449707219
 20
277.39286495467752
 11
326.12850449707219
 21
251.56612295467752
  0
LINE
  8
_0-2_____1
  6
CONTINUOUS
 62
    2
 10
341.26650449707216
 20
277.39286495467752
 11
341.26650449707216
 21
251.56612295467752
  0
TEXT
  8
_0-2_____1
 62
    7
 10
237.28553949707216
 20
263.02270795467746
 40
3
 41
0.8579999999999999
 50
0
  1
ＯＭＫ－６１６０１ＢＫ
  0
TEXT
  8
_0-2_____1
 62
    7
 10
237.28553949707216
 20
257.66806495467756
 40
3
 41
0.8579999999999999
 50
0
  1
ＯＭＫ－６１５０３ＢＫ
  0
TEXT
  8
_0-2_____1
 62
    7
 10
237.28553949707216
 20
252.3252049546775
 40
3
 41
0.8579999999999999
 50
0
  1
ＯＭＫ－６１６０３ＢＫ
  0
LINE
  8
_0-2_____1
  6
CONTINUOUS
 62
    2
 10
341.26650449707216
 20
251.56612295467752
 11
234.49438249707217
 21
251.56612295467752
  0
TEXT
  8
_0-2_____1
 62
    7
 10
284.5505554970722
 20
262.98247595467751
 40
3
 41
0.8579999999999999
 50
0
  1
６００
  0
TEXT
  8
_0-2_____1
 62
    7
 10
298.45214149707215
 20
263.02090195467747
 40
3
 41
0.8579999999999999
 50
0
  1
１０００
  0
TEXT
  8
_0-2_____1
 62
    7
 10
315.26811549707219
 20
252.38167995467751
 40
3
 41
0.8579999999999999
 50
0
  1
６００
  0
TEXT
  8
_0-2_____1
 62
    7
 10
330.37937249707215
 20
252.40769995467753
 40
3
 41
0.8579999999999999
 50
0
  1
１４２
  0
TEXT
  8
_0-2_____1
 62
    7
 10
236.93830149707216
 20
278.25230995467746
 40
3.5
 41
0.8579999999999999
 50
0
  1
点検ハッチ寸法表
  0
TEXT
  8
_0-2_____1
 62
    7
 10
266.58089649707216
 20
268.41382195467747
 40
3
 41
0.8579999999999999
 50
0
  1
多段ステー
  0
TEXT
  8
_0-2_____1
 62
    7
 10
266.71967149707217
 20
263.20975295467747
 40
3
 41
0.8579999999999999
 50
0
  1
多段ステー
  0
TEXT
  8
_0-2_____1
 62
    7
 10
266.65028349707217
 20
257.51945795467748
 40
3
 41
0.8579999999999999
 50
0
  1
ガスステー
  0
TEXT
  8
_0-2_____1
 62
    7
 10
266.71967149707217
 20
252.59293995467752
 40
3
 41
0.8579999999999999
 50
0
  1
ガスステー
  0
INSERT
  2
-021-D20
  8
_0-2_____1
 10
1.2577204970721709
 20
1.719697954677514
 41
1
 42
1
 50
0
  0
LINE
  8
_0-2_____1
  6
CONTINUOUS
 62
    2
 10
341.26650449707216
 20
261.82696495467746
 11
234.49438249707217
 21
261.82696495467746
  0
TEXT
  8
_0-3_______
 62
    7
 10
237.32909549707216
 20
244.88960995467752
 40
3.5
 41
0.8579999999999999
 50
0
  1
本体材質：ＳＵＳ３０４　　４００　ｔ＝１．５
  0
LINE
  8
_0-3_______
  6
CONTINUOUS
 62
    3
 10
272.61492849707219
 20
246.21058195467751
 11
275.94149249707215
 21
246.21058195467751
  0
LINE
  8
_0-3_______
  6
CONTINUOUS
 62
    3
 10
272.53756649707219
 20
247.29368195467751
 11
275.94149249707215
 21
247.29368195467751
  0
LINE
  8
_0-3_______
  6
CONTINUOUS
 62
    3
 10
273.62063349707216
 20
248.22199395467752
 11
273.62063349707216
 21
245.51432495467751
  0
LINE
  8
_0-3_______
  6
CONTINUOUS
 62
    3
 10
274.93578649707217
 20
248.29935595467751
 11
274.93578649707217
 21
245.35960095467752
  0
TEXT
  8
_0-2_____1
 62
    7
 10
380.32593849707217
 20
69.688451954677518
 40
3
 41
0.8579999999999999
 50
0
  1
長穴１２×２５－４
  0
ENDSEC
  0
EOF
