  0
SECTION
  2
HEADER
  9
$ACADVER
  1
AC1009
  9
$INSBASE
 10
0
 20
0
 30
0
  9
$EXTMIN
 10
0
 20
0
  9
$EXTMAX
 10
841
 20
594
  9
$LIMMIN
 10
0
 20
0
  9
$LIMMAX
 10
841
 20
594
  9
$LTSCALE
 40
1
  0
ENDSEC
  0
SECTION
  2
TABLES
  0
TABLE
  2
LTYPE
 70
     9
  0
LTYPE
  2
CONTINUOUS
 70
    64
  3
実線
 72
    65
 73
     0
 40
0.0
  0
LTYPE
  2
DASHED1
 70
    64
  3
--  --  --  --  --  --  --  --  
 72
    65
 73
     2
 40
2.5
 49
1.25
 49
-1.25
  0
LTYPE
  2
DASHED2
 70
    64
  3
----    ----    ----    ----    
 72
    65
 73
     2
 40
5.0
 49
2.5
 49
-2.5
  0
LTYPE
  2
DASHED3
 70
    64
  3
------  ------  ------  ------  
 72
    65
 73
     2
 40
5.0
 49
3.75
 49
-1.25
  0
LTYPE
  2
CENTER1
 70
    64
  3
----- - ----- - ----- - ----- - 
 72
    65
 73
     4
 40
10.0
 49
6.25
 49
-1.25
 49
1.25
 49
-1.25
  0
LTYPE
  2
CENTER2
 70
    64
  3
----------  --  ----------  --  
 72
    65
 73
     4
 40
20.0
 49
12.5
 49
-2.5
 49
2.5
 49
-2.5
  0
LTYPE
  2
PHANTOM1
 70
    64
  3
--- - - --- - - --- - - --- - - 
 72
    65
 73
     6
 40
10.0
 49
3.25
 49
-1.25
 49
1.25
 49
-1.25
 49
1.25
 49
-1.25
  0
LTYPE
  2
PHANTOM2
 70
    64
  3
--------  -  -  --------  -  -  
 72
    65
 73
     6
 40
20.0
 49
10.0
 49
-2.5
 49
1.25
 49
-2.5
 49
1.25
 49
-2.5
  0
LTYPE
  2
DOT
 70
    64
  3
-   -   -   -   -   -   -   -   
 72
    65
 73
     2
 40
2.5
 49
0.625
 49
-1.875
  0
LTYPE
  2
DUMMY
 70
    64
  3
ダミー
 72
    65
 73
     0
 40
0.0
  0
LTYPE
  2
RAND1
 70
    64
  3
ランダム線1
 72
    65
 73
     4
 40
10.0
 49
1.0
 49
-2.0
 49
3.0
 49
-4.0
  0
LTYPE
  2
RAND2
 70
    64
  3
ランダム線2
 72
    65
 73
     4
 40
14.0
 49
2.0
 49
-3.0
 49
4.0
 49
-5.0
  0
LTYPE
  2
RAND3
 70
    64
  3
ランダム線3
 72
    65
 73
     4
 40
18.0
 49
3.0
 49
-4.0
 49
5.0
 49
-6.0
  0
LTYPE
  2
RAND4
 70
    64
  3
ランダム線4
 72
    65
 73
     4
 40
22.0
 49
4.0
 49
-5.0
 49
6.0
 49
-7.0
  0
LTYPE
  2
RAND5
 70
    64
  3
ランダム線5
 72
    65
 73
     4
 40
26.0
 49
5.0
 49
-6.0
 49
7.0
 49
-8.0
  0
LTYPE
  2
LONG1
 70
    64
  3
----------  --  ----------  --  
 72
    65
 73
     4
 40
40.0
 49
32.5
 49
-2.5
 49
2.5
 49
-2.5
  0
LTYPE
  2
LONG2
 70
    64
  3
--------  -  -  --------  -  -  
 72
    65
 73
     6
 40
40.0
 49
30.0
 49
-2.5
 49
1.25
 49
-2.5
 49
1.25
 49
-2.5
  0
LTYPE
  2
LONG3
 70
    64
  3
+++++++++++++++..+++++++++++++++
 72
    65
 73
     2
 40
40.0
 49
37.5
 49
-2.5
  0
LTYPE
  2
LONG4
 70
    64
  3
+++++++++++++++..+++++++++++++++
 72
    65
 73
     2
 40
80.0
 49
75.0
 49
-5.0
  0
LTYPE
  2
LONG5
 70
    64
  3
----------  --  ----------  --  
 72
    65
 73
     4
 40
60.0
 49
37.5
 49
-7.5
 49
7.5
 49
-7.5
  0
LTYPE
  2
dashed
 70
   64
  3
-------   -------------   ------
 72
   65
 73
    2
 40
7.5
 49
6
 49
-1.5
  0
LTYPE
  2
dashed_spaced
 70
   64
  3
----        --------        ----
 72
   65
 73
    2
 40
12
 49
6
 49
-6
  0
LTYPE
  2
long_dashed_dotted
 70
   64
  3
------------- --- --------------
 72
   65
 73
    4
 40
15.25
 49
12
 49
-1.5
 49
0.25
 49
-1.5
  0
LTYPE
  2
long_dashed_double-dotted
 70
   64
  3
----------- --- --- ------------
 72
   65
 73
    6
 40
17
 49
12
 49
-1.5
 49
0.25
 49
-1.5
 49
0.25
 49
-1.5
  0
LTYPE
  2
long_dashed_triplicate-dotted
 70
   64
  3
--------- --- --- --- ----------
 72
   65
 73
    8
 40
18.75
 49
12
 49
-1.5
 49
0.25
 49
-1.5
 49
0.25
 49
-1.5
 49
0.25
 49
-1.5
  0
LTYPE
  2
dotted
 70
   64
  3
   -       -       -       -    
 72
   65
 73
    2
 40
1.75
 49
0.25
 49
-1.5
  0
LTYPE
  2
chain
 70
   64
  3
-------------- -- --------------
 72
   65
 73
    4
 40
18.5
 49
12
 49
-1.5
 49
3.5
 49
-1.5
  0
LTYPE
  2
chain_double_dash
 70
   64
  3
------------ -- -- -------------
 72
   65
 73
    6
 40
23.5
 49
12
 49
-1.5
 49
3.5
 49
-1.5
 49
3.5
 49
-1.5
  0
LTYPE
  2
dashed_dotted
 70
   64
  3
-----------     -     ----------
 72
   65
 73
    4
 40
9.25
 49
6
 49
-1.5
 49
0.25
 49
-1.5
  0
LTYPE
  2
double-dashed_dotted
 70
   64
  3
------   -----------   -   -----
 72
   65
 73
    6
 40
16.75
 49
6
 49
-1.5
 49
6
 49
-1.5
 49
0.25
 49
-1.5
  0
LTYPE
  2
dashed_double-dotted
 70
   64
  3
---------    -    -    ---------
 72
   65
 73
    6
 40
11
 49
6
 49
-1.5
 49
0.25
 49
-1.5
 49
0.25
 49
-1.5
  0
LTYPE
  2
double-dashed_double-dotted
 70
   64
  3
-----   ---------   -   -   ----
 72
   65
 73
    8
 40
18.5
 49
6
 49
-1.5
 49
6
 49
-1.5
 49
0.25
 49
-1.5
 49
0.25
 49
-1.5
  0
LTYPE
  2
dashed_triplicate-dotted
 70
   64
  3
-------    -    -    -    ------
 72
   65
 73
    8
 40
12.75
 49
6
 49
-1.5
 49
0.25
 49
-1.5
 49
0.25
 49
-1.5
 49
0.25
 49
-1.5
  0
LTYPE
  2
double-dashed_triplicate-dotted
 70
   64
  3
-----  ---------  -  -  -  -----
 72
   65
 73
   10
 40
20.25
 49
6
 49
-1.5
 49
6
 49
-1.5
 49
0.25
 49
-1.5
 49
0.25
 49
-1.5
 49
0.25
 49
-1.5
  0
LTYPE
  2
undefined
 70
   64
  3
--------------------------------
 72
   65
 73
    0
 40
0
  0
LTYPE
  2
PLine1
 70
   64
  3
------     -----------     -----
 72
   65
 73
    2
 40
6
 49
4.2000000000000002
 49
-1.8
  0
LTYPE
  2
PLine2
 70
   64
  3
------------   ---   -----------
 72
   65
 73
    4
 40
20
 49
14
 49
-2
 49
2
 49
-2
  0
LTYPE
  2
PLine3
 70
   64
  3
---------   ---   ---   --------
 72
   65
 73
    6
 40
20
 49
10
 49
-2
 49
2
 49
-2
 49
2
 49
-2
  0
LTYPE
  2
PLine4
 70
   64
  3
------     -----------     -----
 72
   65
 73
    2
 40
10
 49
7
 49
-3
  0
LTYPE
  2
PLine5
 70
   64
  3
------------   ---   -----------
 72
   65
 73
    4
 40
30
 49
21
 49
-3
 49
3
 49
-3
  0
LTYPE
  2
PLine6
 70
   64
  3
---------   ---   ---   --------
 72
   65
 73
    6
 40
30
 49
15
 49
-3
 49
3
 49
-3
 49
3
 49
-3
  0
LTYPE
  2
PLine7
 70
   64
  3
------     -----------     -----
 72
   65
 73
    2
 40
14
 49
9.8000000000000007
 49
-4.2000000000000002
  0
LTYPE
  2
PLine8
 70
   64
  3
------------   ---   -----------
 72
   65
 73
    4
 40
40
 49
28
 49
-4
 49
4
 49
-4
  0
LTYPE
  2
PLine9
 70
   64
  3
---------   ---   ---   --------
 72
   65
 73
    6
 40
40
 49
20
 49
-4
 49
4
 49
-4
 49
4
 49
-4
  0
LTYPE
  2
PLine10
 70
   64
  3
------     -----------     -----
 72
   65
 73
    2
 40
18
 49
12.6
 49
-5.4000000000000004
  0
LTYPE
  2
PLine11
 70
   64
  3
------------   ---   -----------
 72
   65
 73
    4
 40
50
 49
35
 49
-5
 49
5
 49
-5
  0
LTYPE
  2
PLine12
 70
   64
  3
---------   ---   ---   --------
 72
   65
 73
    6
 40
50
 49
25
 49
-5
 49
5
 49
-5
 49
5
 49
-5
  0
LTYPE
  2
PLine13
 70
   64
  3
------     -----------     -----
 72
   65
 73
    2
 40
22
 49
15.4
 49
-6.5999999999999988
  0
LTYPE
  2
PLine14
 70
   64
  3
------------   ---   -----------
 72
   65
 73
    4
 40
60
 49
42
 49
-6
 49
6
 49
-6
  0
LTYPE
  2
PLine15
 70
   64
  3
---------   ---   ---   --------
 72
   65
 73
    6
 40
60
 49
30
 49
-6
 49
6
 49
-6
 49
6
 49
-6
  0
LTYPE
  2
_
 70
   64
  3
                                
 72
   65
 73
    0
 40
0
  0
ENDTAB
  0
TABLE
  2
STYLE
  5
3
100
AcDbSymbolTable
 70
     1
  0
STYLE
  5
10
100
AcDbSymbolTableRecord
100
AcDbTextStyleTableRecord
  2
STANDARD
 70
     0
 40
0.0
 41
1.0
 50
0.0
 71
     0
 42
0.2
  3
txt
  4
bigfont.shx
  0
STYLE
  5
26
100
AcDbSymbolTableRecord
100
AcDbTextStyleTableRecord
  2
TATEGAKI
 70
    68
 40
0.0
 41
1.0
 50
0.0
 71
     0
 42
1.0
  3
txt
  4
bigfont.shx
  0
ENDTAB
  0
TABLE
  2
LAYER
 70
    2
  0
LAYER
  2
_0-1_dxfile
 70
   64
 62
    7
  6
CONTINUOUS
  0
LAYER
  2
ADD_LINE
 70
   64
 62
    7
  6
CONTINUOUS
  0
ENDTAB
  0
ENDSEC
  0
SECTION
  2
BLOCKS
  0
BLOCK
  2
-000-DIM_0
 70
   64
 10
0
 20
0
 30
0
  0
CIRCLE
  8
_0-1_dxfile
  6
CONTINUOUS
 62
    3
 10
0
 20
1.5823259999999948
 40
0.8
  0
CIRCLE
  8
_0-1_dxfile
  6
CONTINUOUS
 62
    3
 10
5
 20
1.5823259999999948
 40
0.8
  0
LINE
  8
_0-1_dxfile
  6
CONTINUOUS
 62
    3
 10
0
 20
1.5823259999999948
 11
5
 21
1.5823259999999948
  0
LINE
  8
_0-1_dxfile
  6
CONTINUOUS
 62
    3
 10
0
 20
0
 11
0
 21
3.5823259999999948
  0
LINE
  8
_0-1_dxfile
  6
CONTINUOUS
 62
    3
 10
5
 20
-0.4365569999999934
 11
5
 21
3.5823259999999948
  0
TEXT
  8
_0-1_dxfile
 62
    7
 10
4.3338919333333337
 20
-1.5853810000000124
 40
7
 41
0.8582679999999999
 50
0
  1
２５
  0
ENDBLK
  0
BLOCK
  2
-001-DIM_1
 70
   64
 10
0
 20
0
 30
0
  0
CIRCLE
  8
_0-1_dxfile
  6
CONTINUOUS
 62
    3
 10
0
 20
68.92451299999999
 40
1
  0
CIRCLE
  8
_0-1_dxfile
  6
CONTINUOUS
 62
    3
 10
180
 20
68.92451299999999
 40
1
  0
LINE
  8
_0-1_dxfile
  6
CONTINUOUS
 62
    3
 10
0
 20
68.92451299999999
 11
180
 21
68.92451299999999
  0
LINE
  8
_0-1_dxfile
  6
CONTINUOUS
 62
    3
 10
0
 20
0
 11
0
 21
70.92451299999999
  0
LINE
  8
_0-1_dxfile
  6
CONTINUOUS
 62
    3
 10
180
 20
-0.9108970000000056
 11
180
 21
70.92451299999999
  0
TEXT
  8
_0-1_dxfile
 62
    7
 10
65.367708400000012
 20
69.92451299999999
 40
7
 41
0.8582679999999999
 50
0
  1
Ａ　ドーム寸法
  0
ENDBLK
  0
BLOCK
  2
-002-DIM_2
 70
   64
 10
0
 20
0
 30
0
  0
CIRCLE
  8
_0-1_dxfile
  6
CONTINUOUS
 62
    3
 10
0
 20
9.826344000000006
 40
1
  0
CIRCLE
  8
_0-1_dxfile
  6
CONTINUOUS
 62
    3
 10
7
 20
9.826344000000006
 40
1
  0
LINE
  8
_0-1_dxfile
  6
CONTINUOUS
 62
    3
 10
0
 20
9.826344000000006
 11
7
 21
9.826344000000006
  0
LINE
  8
_0-1_dxfile
  6
CONTINUOUS
 62
    3
 10
0
 20
0
 11
0
 21
11.826344000000006
  0
LINE
  8
_0-1_dxfile
  6
CONTINUOUS
 62
    3
 10
7
 20
21.337089999999989
 11
7
 21
7.826344000000006
  0
TEXT
  8
_0-1_dxfile
 62
    7
 10
-6.1058420666666535
 20
10.468452999999982
 40
7
 41
0.8582679999999999
 50
0
  1
３５
  0
ENDBLK
  0
BLOCK
  2
-003-DIM_3
 70
   64
 10
0
 20
0
 30
0
  0
CIRCLE
  8
_0-1_dxfile
  6
CONTINUOUS
 62
    3
 10
0
 20
-24.198452000000003
 40
1
  0
CIRCLE
  8
_0-1_dxfile
  6
CONTINUOUS
 62
    3
 10
186
 20
-24.198452000000003
 40
1
  0
LINE
  8
_0-1_dxfile
  6
CONTINUOUS
 62
    3
 10
0
 20
-24.198452000000003
 11
186
 21
-24.198452000000003
  0
LINE
  8
_0-1_dxfile
  6
CONTINUOUS
 62
    3
 10
0
 20
0
 11
0
 21
-26.198452000000003
  0
LINE
  8
_0-1_dxfile
  6
CONTINUOUS
 62
    3
 10
186
 20
0
 11
186
 21
-26.198452000000003
  0
TEXT
  8
_0-1_dxfile
 62
    7
 10
64.362457733333301
 20
-23.198452000000003
 40
7
 41
0.8582679999999999
 50
0
  1
Ｊ　躯体開口寸法
  0
ENDBLK
  0
BLOCK
  2
-004-DIM_4
 70
   64
 10
0
 20
0
 30
0
  0
CIRCLE
  8
_0-1_dxfile
  6
CONTINUOUS
 62
    3
 10
0
 20
-91.864215999999985
 40
1
  0
CIRCLE
  8
_0-1_dxfile
  6
CONTINUOUS
 62
    3
 10
226
 20
-91.864215999999985
 40
1
  0
LINE
  8
_0-1_dxfile
  6
CONTINUOUS
 62
    3
 10
0
 20
-91.864215999999985
 11
226
 21
-91.864215999999985
  0
LINE
  8
_0-1_dxfile
  6
CONTINUOUS
 62
    3
 10
0
 20
0
 11
0
 21
-93.864215999999985
  0
LINE
  8
_0-1_dxfile
  6
CONTINUOUS
 62
    3
 10
226
 20
0
 11
226
 21
-93.864215999999985
  0
TEXT
  8
_0-1_dxfile
 62
    7
 10
84.963245333333319
 20
-90.864215999999985
 40
7
 41
0.8582679999999999
 50
0
  1
Ｗ　フレーム寸法
  0
ENDBLK
  0
BLOCK
  2
-005-DIM_5
 70
   64
 10
0
 20
0
 30
0
  0
CIRCLE
  8
_0-1_dxfile
  6
CONTINUOUS
 62
    3
 10
0
 20
-13.835908000000003
 40
1
  0
CIRCLE
  8
_0-1_dxfile
  6
CONTINUOUS
 62
    3
 10
30
 20
-13.835908000000003
 40
1
  0
LINE
  8
_0-1_dxfile
  6
CONTINUOUS
 62
    3
 10
0
 20
-13.835908000000003
 11
30
 21
-13.835908000000003
  0
LINE
  8
_0-1_dxfile
  6
CONTINUOUS
 62
    3
 10
0
 20
0
 11
0
 21
-15.835908000000003
  0
LINE
  8
_0-1_dxfile
  6
CONTINUOUS
 62
    3
 10
30
 20
-11.34855300000001
 11
30
 21
-15.835908000000003
  0
TEXT
  8
_0-1_dxfile
 62
    7
 10
7.8510002666666665
 20
-13.335908000000003
 40
7
 41
0.8582679999999999
 50
0
  1
１５０
  0
ENDBLK
  0
BLOCK
  2
-006-DIM_6
 70
   64
 10
0
 20
0
 30
0
  0
CIRCLE
  8
_0-1_dxfile
  6
CONTINUOUS
 62
    3
 10
0
 20
-4.972329000000002
 40
1
  0
CIRCLE
  8
_0-1_dxfile
  6
CONTINUOUS
 62
    3
 10
37.11099999999999
 20
-4.972329000000002
 40
1
  0
LINE
  8
_0-1_dxfile
  6
CONTINUOUS
 62
    3
 10
0
 20
-4.972329000000002
 11
37.11099999999999
 21
-4.972329000000002
  0
LINE
  8
_0-1_dxfile
  6
CONTINUOUS
 62
    3
 10
0
 20
0
 11
0
 21
-6.972329000000002
  0
LINE
  8
_0-1_dxfile
  6
CONTINUOUS
 62
    3
 10
37.11099999999999
 20
1.6347049999999967
 11
37.11099999999999
 21
-6.972329000000002
  0
TEXT
  8
_0-1_dxfile
 62
    7
 10
12.347361466666598
 20
-3.972329000000002
 40
7
 41
0.8582679999999999
 50
0
  1
４０
  0
ENDBLK
  0
BLOCK
  2
-007-DIM_7
 70
   64
 10
0
 20
0
 30
0
  0
CIRCLE
  8
_0-1_dxfile
  6
CONTINUOUS
 62
    3
 10
0
 20
20.40407399999998
 40
1
  0
CIRCLE
  8
_0-1_dxfile
  6
CONTINUOUS
 62
    3
 10
34.999999999999886
 20
20.40407399999998
 40
1
  0
LINE
  8
_0-1_dxfile
  6
CONTINUOUS
 62
    3
 10
0
 20
20.40407399999998
 11
34.999999999999886
 21
20.40407399999998
  0
LINE
  8
_0-1_dxfile
  6
CONTINUOUS
 62
    3
 10
0
 20
0
 11
0
 21
22.404073999999923
  0
LINE
  8
_0-1_dxfile
  6
CONTINUOUS
 62
    3
 10
34.999999999999886
 20
-15.060151000000076
 11
34.999999999999886
 21
22.404073999999923
  0
TEXT
  8
_0-1_dxfile
 62
    7
 10
11.09159893333333
 20
21.404073999999923
 40
7
 41
0.8582679999999999
 50
0
  1
３５
  0
ENDBLK
  0
BLOCK
  2
-008-DIM_8
 70
   64
 10
0
 20
0
 30
0
  0
CIRCLE
  8
_0-1_dxfile
  6
CONTINUOUS
 62
    3
 10
0
 20
13.602710999999999
 40
1
  0
CIRCLE
  8
_0-1_dxfile
  6
CONTINUOUS
 62
    3
 10
12
 20
13.602710999999999
 40
1
  0
LINE
  8
_0-1_dxfile
  6
CONTINUOUS
 62
    3
 10
0
 20
13.602710999999999
 11
12
 21
13.602710999999999
  0
LINE
  8
_0-1_dxfile
  6
CONTINUOUS
 62
    3
 10
0
 20
0
 11
0
 21
15.602710999999999
  0
LINE
  8
_0-1_dxfile
  6
CONTINUOUS
 62
    3
 10
12
 20
3.2528609999999958
 11
12
 21
15.602710999999999
  0
TEXT
  8
_0-1_dxfile
 62
    7
 10
-1.0091886666666596
 20
14.602710999999999
 40
7
 41
0.8582679999999999
 50
0
  1
１２
  0
ENDBLK
  0
BLOCK
  2
-009-DIM_9
 70
   64
 10
0
 20
0
 30
0
  0
CIRCLE
  8
_0-1_dxfile
  6
CONTINUOUS
 62
    3
 10
0
 20
-1.5181589999999971
 40
1
  0
CIRCLE
  8
_0-1_dxfile
  6
CONTINUOUS
 62
    3
 10
150
 20
-1.5181589999999971
 40
1
  0
LINE
  8
_0-1_dxfile
  6
CONTINUOUS
 62
    3
 10
0
 20
-1.5181589999999971
 11
150
 21
-1.5181589999999971
  0
LINE
  8
_0-1_dxfile
  6
CONTINUOUS
 62
    3
 10
0
 20
0
 11
0
 21
-3.5181589999999971
  0
LINE
  8
_0-1_dxfile
  6
CONTINUOUS
 62
    3
 10
150
 20
3.0363200000000035
 11
150
 21
-3.5181589999999971
  0
TEXT
  8
_0-1_dxfile
 62
    7
 10
84.701963266666553
 20
-0.6386190000000056
 40
7
 41
0.8582679999999999
 50
0
  1
１５０
  0
ENDBLK
  0
BLOCK
  2
-010-DIM_10
 70
   64
 10
0
 20
0
 30
0
  0
CIRCLE
  8
_0-1_dxfile
  6
CONTINUOUS
 62
    3
 10
0
 20
-2.3497900000000129
 40
1
  0
CIRCLE
  8
_0-1_dxfile
  6
CONTINUOUS
 62
    3
 10
25
 20
-2.3497900000000129
 40
1
  0
LINE
  8
_0-1_dxfile
  6
CONTINUOUS
 62
    3
 10
0
 20
-2.3497900000000129
 11
25
 21
-2.3497900000000129
  0
LINE
  8
_0-1_dxfile
  6
CONTINUOUS
 62
    3
 10
0
 20
0
 11
0
 21
-4.3497900000000129
  0
LINE
  8
_0-1_dxfile
  6
CONTINUOUS
 62
    3
 10
25
 20
0.1943239999999946
 11
25
 21
-4.3497900000000129
  0
TEXT
  8
_0-1_dxfile
 62
    7
 10
6.09159893333333
 20
-1.3497900000000129
 40
7
 41
0.8582679999999999
 50
0
  1
２５
  0
ENDBLK
  0
BLOCK
  2
-011-DIM_11
 70
   64
 10
0
 20
0
 30
0
  0
CIRCLE
  8
_0-1_dxfile
  6
CONTINUOUS
 62
    3
 10
0
 20
-14.720175000000012
 40
1
  0
CIRCLE
  8
_0-1_dxfile
  6
CONTINUOUS
 62
    3
 10
8
 20
-14.720175000000012
 40
1
  0
LINE
  8
_0-1_dxfile
  6
CONTINUOUS
 62
    3
 10
0
 20
-14.720175000000012
 11
8
 21
-14.720175000000012
  0
LINE
  8
_0-1_dxfile
  6
CONTINUOUS
 62
    3
 10
0
 20
0
 11
0
 21
-16.720175000000012
  0
LINE
  8
_0-1_dxfile
  6
CONTINUOUS
 62
    3
 10
8
 20
-13.556083999999998
 11
8
 21
-16.720175000000012
  0
TEXT
  8
_0-1_dxfile
 62
    7
 10
-11.63676753333332
 20
-15.899139000000019
 40
7
 41
0.8582679999999999
 50
0
  1
４０
  0
ENDBLK
  0
BLOCK
  2
-012-DIM_12
 70
   64
 10
0
 20
0
 30
0
  0
CIRCLE
  8
_0-1_dxfile
  6
CONTINUOUS
 62
    3
 10
0
 20
9.0051919999999939
 40
1
  0
CIRCLE
  8
_0-1_dxfile
  6
CONTINUOUS
 62
    3
 10
20
 20
9.0051919999999939
 40
1
  0
LINE
  8
_0-1_dxfile
  6
CONTINUOUS
 62
    3
 10
0
 20
9.0051919999999939
 11
20
 21
9.0051919999999939
  0
LINE
  8
_0-1_dxfile
  6
CONTINUOUS
 62
    3
 10
0
 20
0
 11
0
 21
11.005191999999994
  0
LINE
  8
_0-1_dxfile
  6
CONTINUOUS
 62
    3
 10
20
 20
0
 11
20
 21
11.005191999999994
  0
TEXT
  8
_0-1_dxfile
 62
    7
 10
-0.413651733333296
 20
10.005191999999994
 40
7
 41
0.8582679999999999
 50
0
  1
１００
  0
ENDBLK
  0
BLOCK
  2
-013-DIM_13
 70
   64
 10
0
 20
0
 30
0
  0
CIRCLE
  8
_0-1_dxfile
  6
CONTINUOUS
 62
    3
 10
0
 20
-36.684808000000032
 40
1
  0
CIRCLE
  8
_0-1_dxfile
  6
CONTINUOUS
 62
    3
 10
124
 20
-36.684808000000032
 40
1
  0
LINE
  8
_0-1_dxfile
  6
CONTINUOUS
 62
    3
 10
0
 20
-36.684808000000032
 11
124
 21
-36.684808000000032
  0
LINE
  8
_0-1_dxfile
  6
CONTINUOUS
 62
    3
 10
0
 20
0
 11
0
 21
-38.684808000000032
  0
LINE
  8
_0-1_dxfile
  6
CONTINUOUS
 62
    3
 10
124
 20
0.0991999999999961
 11
124
 21
-38.684808000000032
  0
TEXT
  8
_0-1_dxfile
 62
    7
 10
40.571908933333305
 20
-35.684808000000032
 40
7
 41
0.8582679999999999
 50
0
  1
Ｊ　開口寸法
  0
ENDBLK
  0
BLOCK
  2
-014-DIM_14
 70
   64
 10
0
 20
0
 30
0
  0
CIRCLE
  8
_0-1_dxfile
  6
CONTINUOUS
 62
    3
 10
29.645060000000058
 20
0
 40
1
  0
CIRCLE
  8
_0-1_dxfile
  6
CONTINUOUS
 62
    3
 10
29.645060000000058
 20
150.66666599999996
 40
1
  0
LINE
  8
_0-1_dxfile
  6
CONTINUOUS
 62
    3
 10
29.645060000000058
 20
0
 11
29.645060000000058
 21
150.66666599999996
  0
LINE
  8
_0-1_dxfile
  6
CONTINUOUS
 62
    3
 10
0
 20
0
 11
31.645060000000058
 21
0
  0
LINE
  8
_0-1_dxfile
  6
CONTINUOUS
 62
    3
 10
0
 20
150.66666599999996
 11
31.645060000000058
 21
150.66666599999996
  0
TEXT
  8
_0-1_dxfile
 62
    7
 10
28.645060000000058
 20
47.296578333333287
 40
7
 41
0.8582679999999999
 50
90
  1
Ｗ　フレーム寸法
  0
ENDBLK
  0
BLOCK
  2
-015-DIM_15
 70
   64
 10
0
 20
0
 30
0
  0
CIRCLE
  8
_0-1_dxfile
  6
CONTINUOUS
 62
    3
 10
0
 20
22.73966699999994
 40
1
  0
CIRCLE
  8
_0-1_dxfile
  6
CONTINUOUS
 62
    3
 10
66.666667000000018
 20
22.73966699999994
 40
1
  0
LINE
  8
_0-1_dxfile
  6
CONTINUOUS
 62
    3
 10
0
 20
22.73966699999994
 11
66.666667000000018
 21
22.73966699999994
  0
LINE
  8
_0-1_dxfile
  6
CONTINUOUS
 62
    3
 10
0
 20
0
 11
0
 21
24.739667000000054
  0
LINE
  8
_0-1_dxfile
  6
CONTINUOUS
 62
    3
 10
66.666667000000018
 20
-0.5203979999999432
 11
66.666667000000018
 21
24.739667000000054
  0
TEXT
  8
_0-1_dxfile
 62
    7
 10
15.910493599999995
 20
23.73966699999994
 40
7
 41
0.8582679999999999
 50
0
  1
ボルト位置
  0
ENDBLK
  0
ENDSEC
  0
SECTION
  2
ENTITIES
  0
TEXT
  8
_0-1_dxfile
 62
    7
 10
424.56110742062918
 20
19.269479049101506
 40
6
 41
0.8582679999999999
 50
0
  1
注、図中数字で示す寸法は全種共通です。
  0
TEXT
  8
_0-1_dxfile
 62
    7
 10
655.48840542062931
 20
550.93045404910163
 40
9
 41
0.8582679999999999
 50
0
  1
サントップドームＢ型用落下防止ネット
  0
TEXT
  8
_0-1_dxfile
 62
    7
 10
731.93939442062924
 20
20.162879049101548
 40
8
 41
0.8582679999999999
 50
0
  1
Ｈ－１１－Ｂ－６９
  0
LINE
  8
_0-1_dxfile
  6
CONTINUOUS
 62
    1
 10
524.95789742062925
 20
55.012677049101512
 11
524.95789742062925
 21
15.012677049101512
  0
LINE
  8
_0-1_dxfile
  6
CONTINUOUS
 62
    1
 10
818.95789742062948
 20
15.012677049101512
 11
818.95789742062948
 21
55.012677049101512
  0
LINE
  8
_0-1_dxfile
  6
CONTINUOUS
 62
    1
 10
818.95789742062948
 20
55.012677049101512
 11
524.95789742062925
 21
55.012677049101512
  0
LINE
  8
_0-1_dxfile
  6
CONTINUOUS
 62
    3
 10
648.95789742062925
 20
55.012677049101512
 11
648.95789742062925
 21
15.012677049101512
  0
LINE
  8
_0-1_dxfile
  6
CONTINUOUS
 62
    3
 10
668.95789742062925
 20
55.012677049101512
 11
668.95789742062925
 21
15.012677049101512
  0
LINE
  8
_0-1_dxfile
  6
CONTINUOUS
 62
    3
 10
688.95789742062925
 20
55.012677049101512
 11
688.95789742062925
 21
15.012677049101512
  0
LINE
  8
_0-1_dxfile
  6
CONTINUOUS
 62
    3
 10
708.95789742062925
 20
55.012677049101512
 11
708.95789742062925
 21
15.012677049101512
  0
LINE
  8
_0-1_dxfile
  6
CONTINUOUS
 62
    3
 10
648.95789742062925
 20
35.012677049101512
 11
818.95789742062948
 21
35.012677049101512
  0
TEXT
  8
_0-1_dxfile
 62
    7
 10
658.64708042062921
 20
50.201443049101528
 40
6
 41
0.8582679999999999
 50
0
  1
単位
  7
TATEGAKI
  0
TEXT
  8
_0-1_dxfile
 62
    7
 10
658.64708042062921
 20
30.318713049101518
 40
6
 41
0.8582679999999999
 50
0
  1
製図
  7
TATEGAKI
  0
TEXT
  8
_0-1_dxfile
 62
    7
 10
697.68107642062932
 20
50.932911049101534
 40
6
 41
0.8582679999999999
 50
0
  1
形名
  7
TATEGAKI
  0
TEXT
  8
_0-1_dxfile
 62
    7
 10
697.68107642062932
 20
30.185719049101522
 40
6
 41
0.8582679999999999
 50
0
  1
図番
  7
TATEGAKI
  0
TEXT
  8
_0-1_dxfile
 62
    7
 10
674.2926134206291
 20
37.566931049101527
 40
6
 41
0.8582679999999999
 50
0
  1
ｍｍ
  0
TEXT
  8
_0-1_dxfile
 62
    7
 10
715.07483542062937
 20
45.493581049101522
 40
7
 41
0.8582679999999999
 50
0
  1
サントップドーム　落下防止網付き
  0
LINE
  8
_0-1_dxfile
  6
CONTINUOUS
 62
    1
 10
818.95789742062948
 20
15.012677049101512
 11
12.957897420629251
 21
15.012677049101512
  0
TEXT
  8
_0-1_dxfile
 62
    7
 10
551.49711342062915
 20
28.388235718495082
 40
14
 41
0.8582679999999999
 50
0
  1
三洋工業株式会社
  0
CIRCLE
  8
_0-1_dxfile
  6
CONTINUOUS
 62
    2
 10
538.94033642062936
 20
35.382915718495042
 40
7
  0
ARC
  8
_0-1_dxfile
  6
CONTINUOUS
 62
    2
 10
538.94033642062936
 20
35.382915718495042
 40
4.9999999999892557
 50
61.260204999999999
 51
118.73979500000002
  0
ARC
  8
_0-1_dxfile
  6
CONTINUOUS
 62
    2
 10
538.94033642062936
 20
35.382915718495042
 40
4.9999999999914451
 50
286.26020499999998
 51
28.739795000000012
  0
ARC
  8
_0-1_dxfile
  6
CONTINUOUS
 62
    2
 10
538.94033642062936
 20
35.382915718495042
 40
5.0000000000011076
 50
151.26020500000004
 51
253.73979500000002
  0
CIRCLE
  8
_0-1_dxfile
  6
CONTINUOUS
 62
    2
 10
538.94033642062936
 20
35.382915718495042
 40
7.3999999999999773
  0
CIRCLE
  8
_0-1_dxfile
  6
CONTINUOUS
 62
    2
 10
538.94033642062936
 20
35.382915718495042
 40
6.6000000000000218
  0
ARC
  8
_0-1_dxfile
  6
CONTINUOUS
 62
    2
 10
538.94033642062936
 20
35.382915718495042
 40
5.4000000000052921
 50
150.02611400000001
 51
254.97388600000002
  0
ARC
  8
_0-1_dxfile
  6
CONTINUOUS
 62
    2
 10
538.94033642062936
 20
35.382915718495042
 40
4.5999999999981753
 50
152.718932
 51
252.28106800000003
  0
ARC
  8
_0-1_dxfile
  6
CONTINUOUS
 62
    2
 10
538.94033642062936
 20
35.382915718495042
 40
4.599999999998432
 50
287.71893199999988
 51
27.281067999999944
  0
ARC
  8
_0-1_dxfile
  6
CONTINUOUS
 62
    2
 10
538.94033642062936
 20
35.382915718495042
 40
5.4000000000110902
 50
285.02611400000001
 51
29.973885999999965
  0
ARC
  8
_0-1_dxfile
  6
CONTINUOUS
 62
    2
 10
538.94033642062936
 20
35.382915718495042
 40
5.4000000000112607
 50
60.026114
 51
119.97388599999999
  0
ARC
  8
_0-1_dxfile
  6
CONTINUOUS
 62
    2
 10
538.94033642062936
 20
35.382915718495042
 40
4.5999999999891656
 50
62.718932000000002
 51
117.28106799999991
  0
LINE
  8
_0-1_dxfile
  6
CONTINUOUS
 62
    2
 10
535.12196042062919
 20
39.20129271849504
 11
538.94033642062936
 21
35.382915718495042
  0
LINE
  8
_0-1_dxfile
  6
CONTINUOUS
 62
    2
 10
538.94033642062936
 20
35.382915718495042
 11
538.94033642062936
 21
29.982915718495065
  0
LINE
  8
_0-1_dxfile
  6
CONTINUOUS
 62
    2
 10
538.94033642062936
 20
35.382915718495042
 11
542.75871342062919
 21
39.20129271849504
  0
LINE
  8
_0-1_dxfile
  6
CONTINUOUS
 62
    2
 10
542.46538042062934
 20
39.473644718495052
 11
538.94033642062936
 21
35.948600718495072
  0
LINE
  8
_0-1_dxfile
  6
CONTINUOUS
 62
    2
 10
538.94033642062936
 20
35.948600718495072
 11
535.41529342062927
 21
39.473644718495052
  0
LINE
  8
_0-1_dxfile
  6
CONTINUOUS
 62
    2
 10
538.94033642062936
 20
43.382915718495042
 11
538.94033642062936
 21
41.982915718495065
  0
LINE
  8
_0-1_dxfile
  6
CONTINUOUS
 62
    2
 10
538.94033642062936
 20
43.382915718495042
 11
538.54033642062927
 21
41.970783718495056
  0
LINE
  8
_0-1_dxfile
  6
CONTINUOUS
 62
    2
 10
538.94033642062936
 20
43.382915718495042
 11
539.34033642062923
 21
41.970783718495056
  0
LINE
  8
_0-1_dxfile
  6
CONTINUOUS
 62
    2
 10
530.94033642062936
 20
35.382915718495042
 11
532.35246942062918
 21
35.782915718495076
  0
LINE
  8
_0-1_dxfile
  6
CONTINUOUS
 62
    2
 10
530.94033642062936
 20
35.382915718495042
 11
532.34033642062923
 21
35.382915718495042
  0
LINE
  8
_0-1_dxfile
  6
CONTINUOUS
 62
    2
 10
530.94033642062936
 20
35.382915718495042
 11
532.35246942062918
 21
34.982915718495065
  0
LINE
  8
_0-1_dxfile
  6
CONTINUOUS
 62
    2
 10
538.94033642062936
 20
27.382915718495042
 11
538.54033642062927
 21
28.795047718495084
  0
LINE
  8
_0-1_dxfile
  6
CONTINUOUS
 62
    2
 10
538.94033642062936
 20
27.382915718495042
 11
539.34033642062923
 21
28.795047718495084
  0
LINE
  8
_0-1_dxfile
  6
CONTINUOUS
 62
    2
 10
538.94033642062936
 20
27.382915718495042
 11
538.94033642062936
 21
28.782915718495019
  0
LINE
  8
_0-1_dxfile
  6
CONTINUOUS
 62
    2
 10
545.52820442062921
 20
35.782915718495076
 11
546.94033642062936
 21
35.382915718495042
  0
LINE
  8
_0-1_dxfile
  6
CONTINUOUS
 62
    2
 10
546.94033642062936
 20
35.382915718495042
 11
545.54033642062927
 21
35.382915718495042
  0
LINE
  8
_0-1_dxfile
  6
CONTINUOUS
 62
    2
 10
546.94033642062936
 20
35.382915718495042
 11
545.52820442062921
 21
34.982915718495065
  0
LINE
  8
_0-1_dxfile
  6
CONTINUOUS
 62
    2
 10
534.84960742062935
 20
38.907959718495079
 11
538.54033642062927
 21
35.217230718495045
  0
LINE
  8
_0-1_dxfile
  6
CONTINUOUS
 62
    2
 10
538.54033642062927
 20
35.217230718495045
 11
538.54033642062927
 21
29.99775071849507
  0
LINE
  8
_0-1_dxfile
  6
CONTINUOUS
 62
    2
 10
539.34033642062923
 20
29.99775071849507
 11
539.34033642062923
 21
35.217230718495045
  0
LINE
  8
_0-1_dxfile
  6
CONTINUOUS
 62
    2
 10
539.34033642062923
 20
35.217230718495045
 11
543.03106642062926
 21
38.907959718495079
  0
LINE
  8
_0-1_dxfile
  6
CONTINUOUS
 62
    1
 10
12.957897420629251
 20
15.012677049101512
 11
12.957897420629251
 21
579.01267704910151
  0
TEXT
  8
_0-1_dxfile
 62
    7
 10
715.23029542062932
 20
36.321457049101525
 40
7
 41
0.8582679999999999
 50
0
  1
Ｂ型用　標準図
  0
LINE
  8
_0-1_dxfile
  6
CONTINUOUS
 62
    7
 10
818.95789742062948
 20
15.012677049101512
 11
818.95789742062948
 21
579.01267704910151
  0
LINE
  8
_0-1_dxfile
  6
CONTINUOUS
 62
    7
 10
12.957897420629251
 20
579.01267704910151
 11
818.95789742062948
 21
579.01267704910151
  0
LINE
  8
_0-1_dxfile
  6
CONTINUOUS
 62
    3
 10
262.03091142062925
 20
210.53677504910152
 11
260.32994942062925
 21
204.59062304910154
  0
LINE
  8
_0-1_dxfile
  6
CONTINUOUS
 62
    3
 10
260.32994942062925
 20
204.59062304910154
 11
291.14926342062927
 21
257.97124004910154
  0
LINE
  8
_0-1_dxfile
  6
CONTINUOUS
 62
    3
 10
291.14926342062927
 20
257.97124004910154
 11
369.2516254206293
 21
257.97124004910154
  0
TEXT
  8
_0-1_dxfile
 62
    7
 10
291.14926342062927
 20
258.97124004910154
 40
7
 41
0.8582679999999999
 50
0
  1
Ｍ８\U+00D7７０　Ｗ．Ｐ．Ｎ　ＳＵＳ
  0
LINE
  8
_0-1_dxfile
  6
CONTINUOUS
 62
    3
 10
275.93051242062927
 20
186.41045604910153
 11
274.79653842062925
 21
182.44635404910153
  0
LINE
  8
_0-1_dxfile
  6
CONTINUOUS
 62
    3
 10
274.79653842062925
 20
182.44635404910153
 11
290.58858042062928
 21
209.79897304910153
  0
LINE
  8
_0-1_dxfile
  6
CONTINUOUS
 62
    3
 10
290.58858042062928
 20
209.79897304910153
 11
374.69881642062927
 21
209.79897304910153
  0
TEXT
  8
_0-1_dxfile
 62
    7
 10
290.58858042062928
 20
210.79897304910153
 40
7
 41
0.8582679999999999
 50
0
  1
トップライトフレーム　アルミ
  0
INSERT
  2
-000-DIM_0
  8
_0-1_dxfile
 10
69.947881420629244
 20
146.37845004910153
 41
1
 42
1
 50
0
  0
LINE
  8
_0-1_dxfile
  6
CONTINUOUS
 62
    6
 10
64.639468420629271
 20
201.27421104910152
 11
63.461013420629286
 21
201.27421104910152
  0
LINE
  8
_0-1_dxfile
  6
CONTINUOUS
 62
    6
 10
63.461013420629286
 20
201.27421104910152
 11
68.44511642062929
 21
201.27421104910152
  0
LINE
  8
_0-1_dxfile
  6
CONTINUOUS
 62
    3
 10
90.870160420629247
 20
185.21451204910153
 11
88.004134420629271
 21
188.17861404910153
  0
LINE
  8
_0-1_dxfile
  6
CONTINUOUS
 62
    3
 10
88.004134420629271
 20
188.17861404910153
 11
98.919383420629288
 21
169.27284804910153
  0
LINE
  8
_0-1_dxfile
  6
CONTINUOUS
 62
    3
 10
98.919383420629288
 20
169.27284804910153
 11
165.00599742062926
 21
169.27284804910153
  0
TEXT
  8
_0-1_dxfile
 62
    7
 10
98.919383420629288
 20
170.27284804910153
 40
7
 41
0.8582679999999999
 50
0
  1
６．８網入り硝子（別途）
  0
LINE
  8
_0-1_dxfile
  6
CONTINUOUS
 62
    4
 10
35.954240420629276
 20
150.01907404910153
 11
37.947881420629244
 21
150.01907404910153
  0
LINE
  8
_0-1_dxfile
  6
CONTINUOUS
 62
    4
 10
37.947881420629244
 20
150.01907404910153
 11
37.947881420629244
 21
144.03815104910151
  0
LINE
  8
_0-1_dxfile
  6
CONTINUOUS
 62
    4
 10
37.549153420629295
 20
144.03815104910151
 11
37.947881420629244
 21
144.03815104910151
  0
LINE
  8
_0-1_dxfile
  6
CONTINUOUS
 62
    4
 10
35.954240420629276
 20
149.62034604910153
 11
37.549153420629295
 21
149.62034604910153
  0
LINE
  8
_0-1_dxfile
  6
CONTINUOUS
 62
    4
 10
37.549153420629295
 20
149.62034604910153
 11
37.549153420629295
 21
144.03815104910151
  0
LINE
  8
_0-1_dxfile
  6
CONTINUOUS
 62
    4
 10
35.954240420629276
 20
150.01907404910153
 11
35.954240420629276
 21
149.62034604910153
  0
LINE
  8
_0-1_dxfile
  6
CONTINUOUS
 62
    3
 10
50.21386442062925
 20
175.82336704910153
 11
26.383475420629281
 21
171.62165304910152
  0
LINE
  8
_0-1_dxfile
  6
CONTINUOUS
 62
    3
 10
36.130279420629279
 20
146.97777404910153
 11
41.290997420629253
 21
146.97777404910153
  0
LINE
  8
_0-1_dxfile
  6
CONTINUOUS
 62
    3
 10
26.383475420629281
 20
150.01907404910153
 11
26.383475420629281
 21
171.62165304910152
  0
LINE
  8
_0-1_dxfile
  6
CONTINUOUS
 62
    3
 10
34.358039420629268
 20
152.01271504910153
 11
34.358039420629268
 21
150.01907404910153
  0
LINE
  8
_0-1_dxfile
  6
CONTINUOUS
 62
    3
 10
34.358039420629268
 20
150.01907404910153
 11
26.383475420629281
 21
150.01907404910153
  0
CIRCLE
  8
_0-1_dxfile
  6
CONTINUOUS
 62
    6
 10
46.336033420629235
 20
172.05159704910153
 40
0.100878232576
  0
CIRCLE
  8
_0-1_dxfile
  6
CONTINUOUS
 62
    6
 10
27.452864420629282
 20
155.07315304910153
 40
0.189993983488
  0
CIRCLE
  8
_0-1_dxfile
  6
CONTINUOUS
 62
    6
 10
29.15144642062927
 20
161.35790704910153
 40
0.169858209792
  0
CIRCLE
  8
_0-1_dxfile
  6
CONTINUOUS
 62
    6
 10
28.641872420629284
 20
166.11393704910154
 40
0.120017185792
  0
CIRCLE
  8
_0-1_dxfile
  6
CONTINUOUS
 62
    6
 10
29.066517420629282
 20
152.94992504910152
 40
0.169858209792
  0
CIRCLE
  8
_0-1_dxfile
  6
CONTINUOUS
 62
    6
 10
27.962439420629266
 20
158.38538804910152
 40
0.2685434373119999
  0
CIRCLE
  8
_0-1_dxfile
  6
CONTINUOUS
 62
    6
 10
27.452864420629282
 20
163.39620504910152
 40
0.189993983488
  0
CIRCLE
  8
_0-1_dxfile
  6
CONTINUOUS
 62
    6
 10
44.804917420629238
 20
173.90169604910153
 40
0.0956947660799999
  0
CIRCLE
  8
_0-1_dxfile
  6
CONTINUOUS
 62
    6
 10
69.07949042062927
 20
179.29620304910154
 40
0.0956947660799999
  0
CIRCLE
  8
_0-1_dxfile
  6
CONTINUOUS
 62
    6
 10
66.559527420629252
 20
177.09152204910154
 40
0.115033083392
  0
CIRCLE
  8
_0-1_dxfile
  6
CONTINUOUS
 62
    6
 10
69.04759142062926
 20
176.67684404910153
 40
0.06379651072
  0
CIRCLE
  8
_0-1_dxfile
  6
CONTINUOUS
 62
    6
 10
65.219801420629267
 20
176.32596404910151
 40
0.0956947660799999
  0
CIRCLE
  8
_0-1_dxfile
  6
CONTINUOUS
 62
    6
 10
66.814713420629232
 20
180.12555804910153
 40
0.12759302144
  0
CIRCLE
  8
_0-1_dxfile
  6
CONTINUOUS
 62
    6
 10
68.856202420629302
 20
180.06176104910153
 40
0.100878232576
  0
CIRCLE
  8
_0-1_dxfile
  6
CONTINUOUS
 62
    6
 10
60.211775420629237
 20
177.41050404910152
 40
0.12759302144
  0
CIRCLE
  8
_0-1_dxfile
  6
CONTINUOUS
 62
    6
 10
59.828995420629269
 20
175.20952504910153
 40
0.06379651072
  0
CIRCLE
  8
_0-1_dxfile
  6
CONTINUOUS
 62
    6
 10
57.404728420629283
 20
175.30521904910154
 40
0.100878232576
  0
CIRCLE
  8
_0-1_dxfile
  6
CONTINUOUS
 62
    6
 10
58.010795420629279
 20
178.21166204910153
 40
0.100878232576
  0
CIRCLE
  8
_0-1_dxfile
  6
CONTINUOUS
 62
    6
 10
55.39513842062928
 20
174.41206804910152
 40
0.0903119354879999
  0
CIRCLE
  8
_0-1_dxfile
  6
CONTINUOUS
 62
    6
 10
53.098464420629284
 20
174.12498404910153
 40
0.0956947660799999
  0
CIRCLE
  8
_0-1_dxfile
  6
CONTINUOUS
 62
    6
 10
54.533885420629247
 20
177.05962404910153
 40
0.12759302144
  0
CIRCLE
  8
_0-1_dxfile
  6
CONTINUOUS
 62
    6
 10
37.851098420629285
 20
171.06275104910154
 40
0.1427446927359999
  0
CIRCLE
  8
_0-1_dxfile
  6
CONTINUOUS
 62
    6
 10
40.275365420629271
 20
171.89210604910153
 40
0.1427446927359999
  0
CIRCLE
  8
_0-1_dxfile
  6
CONTINUOUS
 62
    6
 10
52.109618420629261
 20
176.96392904910152
 40
0.1427446927359999
  0
CIRCLE
  8
_0-1_dxfile
  6
CONTINUOUS
 62
    6
 10
38.680452420629251
 20
172.72146104910152
 40
0.115033083392
  0
CIRCLE
  8
_0-1_dxfile
  6
CONTINUOUS
 62
    6
 10
50.897484420629269
 20
174.22067904910142
 40
0.0903119354879999
  0
CIRCLE
  8
_0-1_dxfile
  6
CONTINUOUS
 62
    6
 10
47.803353420629264
 20
174.53966104910154
 40
0.162681102336
  0
CIRCLE
  8
_0-1_dxfile
  6
CONTINUOUS
 62
    6
 10
28.302155420629276
 20
170.53025004910154
 40
0.2685434373119999
  0
CIRCLE
  8
_0-1_dxfile
  6
CONTINUOUS
 62
    6
 10
33.56776042062927
 20
171.46447004910152
 40
0.084929104896
  0
CIRCLE
  8
_0-1_dxfile
  6
CONTINUOUS
 62
    6
 10
43.879868420629236
 20
171.95590304910152
 40
0.045056285696
  0
LINE
  8
_0-1_dxfile
  6
CONTINUOUS
 62
    3
 10
137.66662842062931
 20
70.930323049101503
 11
138.01850542062925
 21
70.930323049101503
  0
TEXT
  8
_0-1_dxfile
 62
    7
 10
140.25856742062928
 20
62.482374049101537
 40
6.2301199999999994
 41
0.8582679999999999
 50
0
  1
正面図Ｓ１：１０
  0
LINE
  8
_0-1_dxfile
  6
CONTINUOUS
 62
    3
 10
137.93053642062927
 20
70.930323049101503
 11
183.09033142062927
 21
70.930323049101503
  0
LINE
  8
_0-1_dxfile
  6
CONTINUOUS
 62
    3
 10
183.09033142062927
 20
70.930323049101503
 11
183.09033142062927
 21
60.725872049101525
  0
LINE
  8
_0-1_dxfile
  6
CONTINUOUS
 62
    3
 10
183.09033142062927
 20
60.725872049101525
 11
137.66662842062931
 21
60.725872049101525
  0
LINE
  8
_0-1_dxfile
  6
CONTINUOUS
 62
    3
 10
137.66662842062931
 20
60.725872049101525
 11
137.66662842062931
 21
71.018293049101544
  0
LINE
  8
_0-1_dxfile
  6
CONTINUOUS
 62
    3
 10
62.962603420629307
 20
203.99578604910153
 11
68.943526420629269
 21
203.99578604910153
  0
LINE
  8
_0-1_dxfile
  6
CONTINUOUS
 62
    6
 10
68.943526420629269
 20
203.59578604910152
 11
62.96061042062928
 21
203.59578604910152
  0
LINE
  8
_0-1_dxfile
  6
CONTINUOUS
 62
    6
 10
68.44511642062929
 20
202.47421104910154
 11
68.44511642062929
 21
201.27421104910152
  0
LINE
  8
_0-1_dxfile
  6
CONTINUOUS
 62
    6
 10
63.461013420629286
 20
202.47421104910154
 11
63.461013420629286
 21
201.27421104910152
  0
LINE
  8
_0-1_dxfile
  6
CONTINUOUS
 62
    3
 10
68.943526420629269
 20
203.99578604910153
 11
68.943526420629269
 21
203.59578604910152
  0
LINE
  8
_0-1_dxfile
  6
CONTINUOUS
 62
    3
 10
62.962603420629307
 20
203.99578604910153
 11
62.962603420629307
 21
203.59578604910152
  0
LINE
  8
_0-1_dxfile
  6
CONTINUOUS
 62
    2
 10
39.947881420629244
 20
152.01271504910153
 11
39.947881420629244
 21
128.97557304910154
  0
LINE
  8
_0-1_dxfile
  6
CONTINUOUS
 62
    2
 10
37.947881420629244
 20
152.01271504910153
 11
37.947881420629244
 21
128.97557304910154
  0
LINE
  8
_0-1_dxfile
  6
CONTINUOUS
 62
    2
 10
69.947881420629244
 20
175.88426804910154
 11
69.947881420629244
 21
128.97557304910154
  0
LINE
  8
_0-1_dxfile
  6
CONTINUOUS
 62
    2
 10
39.947881420629244
 20
152.01271504910153
 11
30.370757420629275
 21
152.01271504910153
  0
LINE
  8
_0-1_dxfile
  6
CONTINUOUS
 62
    2
 10
30.370757420629275
 20
168.90603104910153
 11
30.370757420629275
 21
152.01271504910153
  0
LINE
  8
_0-1_dxfile
  6
CONTINUOUS
 62
    3
 10
31.101825420629268
 20
152.01271504910153
 11
51.767803420629264
 21
172.67869304910153
  0
LINE
  8
_0-1_dxfile
  6
CONTINUOUS
 62
    2
 10
69.947881420629244
 20
175.88426804910154
 11
30.370757420629275
 21
168.90589004910143
  0
LINE
  8
_0-1_dxfile
  6
PLine2
 62
    3
 10
74.947881420629244
 20
185.87421104910152
 11
74.947881420629244
 21
128.33109304910153
  0
LINE
  8
_0-1_dxfile
  6
CONTINUOUS
 62
    3
 10
49.086949420629253
 20
172.20599504910152
 11
30.370757420629275
 21
153.48980304910154
  0
LINE
  8
_0-1_dxfile
  6
CONTINUOUS
 62
    3
 10
50.324266420629272
 20
172.42416304910154
 11
30.370757420629275
 21
152.47065404910154
  0
LINE
  8
_0-1_dxfile
  6
CONTINUOUS
 62
    3
 10
69.947881420629244
 20
142.99362304910153
 11
55.621569420629271
 21
128.66731104910153
  0
LINE
  8
_0-1_dxfile
  6
CONTINUOUS
 62
    3
 10
69.947881420629244
 20
144.09770104910152
 11
54.517491420629256
 21
128.66731104910153
  0
LINE
  8
_0-1_dxfile
  6
CONTINUOUS
 62
    3
 10
69.947881420629244
 20
145.03192204910152
 11
53.583271420629274
 21
128.66731104910153
  0
LINE
  8
_0-1_dxfile
  6
PLine2
 62
    3
 10
162.9478814206293
 20
143.40641404910153
 11
162.9478814206293
 21
261.30409504910153
  0
INSERT
  2
-001-DIM_1
  8
_0-1_dxfile
 10
72.947881420629244
 20
207.39867504910154
 41
1
 42
1
 50
0
  0
LINE
  8
_0-1_dxfile
  6
CONTINUOUS
 62
    4
 10
54.403326420629242
 20
203.27421104910152
 11
71.733847420629274
 21
203.27421104910152
  0
LINE
  8
_0-1_dxfile
  6
CONTINUOUS
 62
    4
 10
54.403326420629242
 20
202.47421104910154
 11
71.733847420629274
 21
202.47421104910154
  0
LINE
  8
_0-1_dxfile
  6
CONTINUOUS
 62
    4
 10
49.547881420629267
 20
195.27421104910152
 11
52.37859842062926
 21
201.93472104910154
  0
LINE
  8
_0-1_dxfile
  6
CONTINUOUS
 62
    4
 10
50.417134420629282
 20
195.27421104910152
 11
53.114862420629265
 21
201.62180804910153
  0
LINE
  8
_0-1_dxfile
  6
CONTINUOUS
 62
    4
 10
49.547881420629267
 20
195.27421104910152
 11
50.417134420629282
 21
195.27421104910152
  0
ARC
  8
_0-1_dxfile
  6
CONTINUOUS
 62
    4
 10
162.9478814206293
 20
147.27421104910152
 40
106
 50
32.540304999999996
 51
147.45969299999999
  0
ARC
  8
_0-1_dxfile
  6
CONTINUOUS
 62
    4
 10
162.9478814206293
 20
147.27421104910152
 40
105.1999999999998
 50
32.540306999999999
 51
147.45969299999999
  0
LINE
  8
_0-1_dxfile
  6
PLine2
 62
    3
 10
65.947881420629244
 20
189.15372304910153
 11
65.947881420629244
 21
207.87421104910152
  0
LINE
  8
_0-1_dxfile
  6
CONTINUOUS
 62
    3
 10
65.147881420629233
 20
194.37548304910152
 11
65.147881420629233
 21
190.19578604910154
  0
LINE
  8
_0-1_dxfile
  6
CONTINUOUS
 62
    3
 10
65.147881420629233
 20
190.19578604910154
 11
65.347881420629278
 21
189.99578604910153
  0
LINE
  8
_0-1_dxfile
  6
CONTINUOUS
 62
    3
 10
66.747881420629255
 20
194.37548304910152
 11
66.747881420629255
 21
190.19578604910154
  0
LINE
  8
_0-1_dxfile
  6
CONTINUOUS
 62
    3
 10
66.547881420629267
 20
189.99578604910153
 11
65.347881420629278
 21
189.99578604910153
  0
LINE
  8
_0-1_dxfile
  6
CONTINUOUS
 62
    3
 10
66.747881420629255
 20
190.19578604910154
 11
66.547881420629267
 21
189.99578604910153
  0
LINE
  8
_0-1_dxfile
  6
CONTINUOUS
 62
    3
 10
64.347881420629278
 20
195.47421104910154
 11
64.347881420629278
 21
194.51872504910153
  0
LINE
  8
_0-1_dxfile
  6
CONTINUOUS
 62
    3
 10
67.547881420629267
 20
194.51872504910153
 11
67.547881420629267
 21
195.47421104910154
  0
LINE
  8
_0-1_dxfile
  6
CONTINUOUS
 62
    3
 10
67.547881420629267
 20
195.47421104910154
 11
64.347881420629278
 21
195.47421104910154
  0
LINE
  8
_0-1_dxfile
  6
CONTINUOUS
 62
    3
 10
67.547881420629267
 20
194.51872504910153
 11
67.297576420629298
 21
194.37421104910152
  0
LINE
  8
_0-1_dxfile
  6
CONTINUOUS
 62
    3
 10
67.297576420629298
 20
194.37421104910152
 11
65.947881420629244
 21
194.37421104910152
  0
LINE
  8
_0-1_dxfile
  6
CONTINUOUS
 62
    3
 10
66.747881420629255
 20
195.47421104910154
 11
66.747881420629255
 21
194.51147004910152
  0
ARC
  8
_0-1_dxfile
  6
CONTINUOUS
 62
    3
 10
65.947881420629244
 20
196.77421104910152
 40
2.3999999040012199
 50
270
 51
289.47122100000001
  0
ARC
  8
_0-1_dxfile
  6
CONTINUOUS
 62
    3
 10
67.133815420629276
 20
194.98541104910151
 40
0.611199975553916
 50
230.84386799999996
 51
270
  0
LINE
  8
_0-1_dxfile
  6
CONTINUOUS
 62
    3
 10
64.347881420629278
 20
194.51872504910153
 11
64.598187420629301
 21
194.37421104910152
  0
LINE
  8
_0-1_dxfile
  6
CONTINUOUS
 62
    3
 10
64.598187420629301
 20
194.37421104910152
 11
65.947881420629244
 21
194.37421104910152
  0
ARC
  8
_0-1_dxfile
  6
CONTINUOUS
 62
    3
 10
65.947881420629244
 20
196.77421104910152
 40
2.3999999040012199
 50
250.52877900000004
 51
270.00000000000006
  0
ARC
  8
_0-1_dxfile
  6
CONTINUOUS
 62
    3
 10
64.761948420629267
 20
194.98541104910151
 40
0.611199975553916
 50
270
 51
309.15613200000001
  0
LINE
  8
_0-1_dxfile
  6
CONTINUOUS
 62
    3
 10
65.147881420629233
 20
195.47421104910154
 11
65.147881420629233
 21
194.51147004910152
  0
LINE
  8
_0-1_dxfile
  6
CONTINUOUS
 62
    3
 10
67.547881420629267
 20
203.99578604910153
 11
67.547881420629267
 21
204.95127204910153
  0
LINE
  8
_0-1_dxfile
  6
CONTINUOUS
 62
    3
 10
67.547881420629267
 20
204.95127204910153
 11
67.297576420629298
 21
205.09578604910152
  0
LINE
  8
_0-1_dxfile
  6
CONTINUOUS
 62
    3
 10
67.297576420629298
 20
205.09578604910152
 11
65.947881420629244
 21
205.09578604910152
  0
LINE
  8
_0-1_dxfile
  6
CONTINUOUS
 62
    3
 10
66.747881420629255
 20
203.99578604910153
 11
66.747881420629255
 21
204.95852804910152
  0
ARC
  8
_0-1_dxfile
  6
CONTINUOUS
 62
    3
 10
65.947881420629244
 20
202.69578604910154
 40
2.3999999039705702
 50
70.528779
 51
90
  0
ARC
  8
_0-1_dxfile
  6
CONTINUOUS
 62
    3
 10
67.133815420629276
 20
204.48458604910152
 40
0.611199975542492
 50
90
 51
129.15613200000004
  0
LINE
  8
_0-1_dxfile
  6
CONTINUOUS
 62
    3
 10
64.347881420629278
 20
203.99578604910153
 11
64.347881420629278
 21
204.95127204910153
  0
LINE
  8
_0-1_dxfile
  6
CONTINUOUS
 62
    3
 10
64.347881420629278
 20
204.95127204910153
 11
64.598187420629301
 21
205.09578604910152
  0
LINE
  8
_0-1_dxfile
  6
CONTINUOUS
 62
    3
 10
64.598187420629301
 20
205.09578604910152
 11
65.947881420629244
 21
205.09578604910152
  0
ARC
  8
_0-1_dxfile
  6
CONTINUOUS
 62
    3
 10
65.947881420629244
 20
202.69578604910154
 40
2.3999999038940589
 50
90
 51
109.471221
  0
ARC
  8
_0-1_dxfile
  6
CONTINUOUS
 62
    3
 10
64.761948420629267
 20
204.48458604910152
 40
0.6111999757137177
 50
50.843868000000008
 51
90
  0
LINE
  8
_0-1_dxfile
  6
CONTINUOUS
 62
    3
 10
65.147881420629233
 20
203.99578604910153
 11
65.147881420629233
 21
204.95852804910152
  0
LINE
  8
_0-1_dxfile
  6
CONTINUOUS
 62
    3
 10
64.347881420629278
 20
203.99578604910153
 11
67.547881420629267
 21
203.99578604910153
  0
LINE
  8
_0-1_dxfile
  6
CONTINUOUS
 62
    6
 10
62.962603420629307
 20
203.59578604910152
 11
68.943526420629269
 21
203.59578604910152
  0
LINE
  8
_0-1_dxfile
  6
CONTINUOUS
 62
    6
 10
68.943526420629269
 20
203.59578604910152
 11
68.943526420629269
 21
203.27421104910152
  0
LINE
  8
_0-1_dxfile
  6
CONTINUOUS
 62
    6
 10
62.962603420629307
 20
203.27421104910152
 11
62.962603420629307
 21
203.59578604910152
  0
LINE
  8
_0-1_dxfile
  6
CONTINUOUS
 62
    6
 10
62.962603420629307
 20
203.49578604910153
 11
68.943526420629269
 21
203.49578604910153
  0
LINE
  8
_0-1_dxfile
  6
CONTINUOUS
 62
    6
 10
62.962603420629307
 20
203.39578604910153
 11
68.943526420629269
 21
203.39578604910153
  0
LINE
  8
_0-1_dxfile
  6
CONTINUOUS
 62
    6
 10
67.029431420629294
 20
201.27421104910152
 11
68.229431420629282
 21
202.47421104910154
  0
LINE
  8
_0-1_dxfile
  6
CONTINUOUS
 62
    6
 10
65.203901420629222
 20
201.27421104910152
 11
66.403901420629268
 21
202.47421104910154
  0
LINE
  8
_0-1_dxfile
  6
CONTINUOUS
 62
    6
 10
63.67237042062925
 20
201.27421104910152
 11
64.872370420629295
 21
202.47421104910154
  0
LINE
  8
_0-1_dxfile
  6
CONTINUOUS
 62
    6
 10
64.730029420629307
 20
201.27421104910152
 11
63.530029420629262
 21
202.47421104910154
  0
LINE
  8
_0-1_dxfile
  6
CONTINUOUS
 62
    6
 10
65.369233420629257
 20
202.47421104910154
 11
66.569233420629246
 21
201.27421104910152
  0
LINE
  8
_0-1_dxfile
  6
CONTINUOUS
 62
    6
 10
68.285368420629254
 20
201.27421104910152
 11
67.085368420629266
 21
202.47421104910154
  0
LINE
  8
_0-1_dxfile
  6
CONTINUOUS
 62
    3
 10
69.947881420629244
 20
186.37421104910152
 11
71.34128142062923
 21
186.37421104910152
  0
LINE
  8
_0-1_dxfile
  6
CONTINUOUS
 62
    6
 10
71.346081420629275
 20
186.16781104910152
 11
71.346081420629275
 21
190.47301104910153
  0
LINE
  8
_0-1_dxfile
  6
CONTINUOUS
 62
    3
 10
71.34128142062923
 20
186.16781104910152
 11
71.34128142062923
 21
186.37421104910152
  0
LINE
  8
_0-1_dxfile
  6
CONTINUOUS
 62
    6
 10
72.746081420629253
 20
190.47301104910153
 11
72.746081420629253
 21
189.87301104910154
  0
LINE
  8
_0-1_dxfile
  6
CONTINUOUS
 62
    6
 10
75.941281420629252
 20
188.46781104910153
 11
75.941281420629252
 21
187.86781104910153
  0
LINE
  8
_0-1_dxfile
  6
CONTINUOUS
 62
    6
 10
71.946081420629298
 20
189.87301104910154
 11
72.746081420629253
 21
189.87301104910154
  0
LINE
  8
_0-1_dxfile
  6
CONTINUOUS
 62
    6
 10
71.946081420629298
 20
189.87301104910154
 11
71.946081420629298
 21
188.46781104910153
  0
LINE
  8
_0-1_dxfile
  6
CONTINUOUS
 62
    6
 10
72.746081420629253
 20
190.07301104910152
 11
72.546081420629264
 21
189.87301104910154
  0
LINE
  8
_0-1_dxfile
  6
CONTINUOUS
 62
    6
 10
72.346081420629275
 20
187.47301104910153
 11
74.546081420629264
 21
187.47301104910153
  0
LINE
  8
_0-1_dxfile
  6
CONTINUOUS
 62
    6
 10
74.832081420629265
 20
186.15901104910154
 11
75.647081420629263
 21
186.97401104910153
  0
LINE
  8
_0-1_dxfile
  6
CONTINUOUS
 62
    6
 10
74.546081420629264
 20
187.47301104910153
 11
74.546081420629264
 21
186.15901104910154
  0
LINE
  8
_0-1_dxfile
  6
CONTINUOUS
 62
    6
 10
72.346081420629275
 20
187.47301104910153
 11
72.346081420629275
 21
186.16901104910153
  0
LINE
  8
_0-1_dxfile
  6
CONTINUOUS
 62
    6
 10
74.546081420629264
 20
187.27301104910143
 11
75.64608142062923
 21
186.17301104910152
  0
LINE
  8
_0-1_dxfile
  6
CONTINUOUS
 62
    6
 10
75.941281420629252
 20
188.46781104910153
 11
71.946081420629298
 21
188.46781104910153
  0
LINE
  8
_0-1_dxfile
  6
CONTINUOUS
 62
    3
 10
73.941281420629252
 20
186.16781104910152
 11
75.641281420629298
 21
186.16781104910152
  0
LINE
  8
_0-1_dxfile
  6
CONTINUOUS
 62
    3
 10
75.647881420629233
 20
187.57421104910154
 11
75.647881420629233
 21
186.17421104910153
  0
LINE
  8
_0-1_dxfile
  6
CONTINUOUS
 62
    6
 10
72.746081420629253
 20
190.47301104910153
 11
71.346081420629275
 21
190.47301104910153
  0
LINE
  8
_0-1_dxfile
  6
CONTINUOUS
 62
    6
 10
71.346081420629275
 20
189.87301104910154
 11
71.946081420629298
 21
190.47301104910153
  0
LINE
  8
_0-1_dxfile
  6
CONTINUOUS
 62
    6
 10
71.946081420629298
 20
189.27301104910154
 11
71.346081420629275
 21
188.67301104910152
  0
LINE
  8
_0-1_dxfile
  6
CONTINUOUS
 62
    6
 10
71.346081420629275
 20
186.27301104910154
 11
72.346081420629275
 21
187.27301104910143
  0
LINE
  8
_0-1_dxfile
  6
CONTINUOUS
 62
    6
 10
71.946081420629298
 20
188.67301104910152
 11
71.346081420629275
 21
189.27301104910154
  0
LINE
  8
_0-1_dxfile
  6
CONTINUOUS
 62
    6
 10
71.946081420629298
 20
189.87301104910154
 11
71.346081420629275
 21
190.47301104910153
  0
LINE
  8
_0-1_dxfile
  6
CONTINUOUS
 62
    6
 10
71.346081420629275
 20
188.07301104910152
 11
72.346081420629275
 21
187.07301104910152
  0
LINE
  8
_0-1_dxfile
  6
CONTINUOUS
 62
    6
 10
71.346081420629275
 20
186.87301104910154
 11
72.06108142062925
 21
186.15801104910153
  0
LINE
  8
_0-1_dxfile
  6
CONTINUOUS
 62
    3
 10
71.34128142062923
 20
186.16781104910152
 11
73.941281420629252
 21
186.16781104910152
  0
LINE
  8
_0-1_dxfile
  6
CONTINUOUS
 62
    3
 10
62.347881420629278
 20
195.47421104910154
 11
68.547881420629267
 21
195.47421104910154
  0
LINE
  8
_0-1_dxfile
  6
CONTINUOUS
 62
    3
 10
62.347881420629278
 20
195.47421104910154
 11
62.347881420629278
 21
194.27421104910152
  0
LINE
  8
_0-1_dxfile
  6
CONTINUOUS
 62
    3
 10
62.347881420629278
 20
194.27421104910152
 11
62.947881420629244
 21
194.27421104910152
  0
LINE
  8
_0-1_dxfile
  6
CONTINUOUS
 62
    3
 10
62.947881420629244
 20
194.27421104910152
 11
62.947881420629244
 21
194.07421104910154
  0
LINE
  8
_0-1_dxfile
  6
CONTINUOUS
 62
    3
 10
62.947881420629244
 20
194.07421104910154
 11
62.347881420629278
 21
194.07421104910154
  0
LINE
  8
_0-1_dxfile
  6
CONTINUOUS
 62
    3
 10
68.547881420629267
 20
195.47421104910154
 11
69.547881420629267
 21
195.47421104910154
  0
LINE
  8
_0-1_dxfile
  6
CONTINUOUS
 62
    3
 10
69.547881420629267
 20
194.07421104910154
 11
69.547881420629267
 21
192.07421104910154
  0
LINE
  8
_0-1_dxfile
  6
CONTINUOUS
 62
    3
 10
68.947881420629244
 20
194.07421104910154
 11
69.547881420629267
 21
194.07421104910154
  0
LINE
  8
_0-1_dxfile
  6
CONTINUOUS
 62
    3
 10
68.947881420629244
 20
194.27421104910152
 11
68.947881420629244
 21
194.07421104910154
  0
LINE
  8
_0-1_dxfile
  6
CONTINUOUS
 62
    3
 10
68.947881420629244
 20
194.27421104910152
 11
69.547881420629267
 21
194.27421104910152
  0
LINE
  8
_0-1_dxfile
  6
CONTINUOUS
 62
    3
 10
69.547881420629267
 20
194.27421104910152
 11
69.547881420629267
 21
195.47421104910154
  0
LINE
  8
_0-1_dxfile
  6
CONTINUOUS
 62
    3
 10
69.547881420629267
 20
192.07421104910154
 11
69.547881420629267
 21
185.87421104910152
  0
ARC
  8
_0-1_dxfile
  6
CONTINUOUS
 62
    3
 10
62.007881420629246
 20
195.81421104910143
 40
0.0599999999999999
 50
90
 51
180
  0
LINE
  8
_0-1_dxfile
  6
CONTINUOUS
 62
    3
 10
61.947881420629244
 20
195.81421104910143
 11
61.947881420629244
 21
193.93421104910152
  0
ARC
  8
_0-1_dxfile
  6
CONTINUOUS
 62
    3
 10
62.007881420629246
 20
193.93421104910152
 40
0.0599999999999999
 50
180
 51
270
  0
LINE
  8
_0-1_dxfile
  6
CONTINUOUS
 62
    3
 10
62.007881420629246
 20
193.87421104910152
 11
62.287881420629276
 21
193.87421104910152
  0
LINE
  8
_0-1_dxfile
  6
CONTINUOUS
 62
    3
 10
62.347881420629278
 20
194.07421104910154
 11
62.347881420629278
 21
193.93421104910152
  0
ARC
  8
_0-1_dxfile
  6
CONTINUOUS
 62
    3
 10
62.287881420629276
 20
193.93421104910152
 40
0.0599999999999999
 50
270
 51
0
  0
LINE
  8
_0-1_dxfile
  6
CONTINUOUS
 62
    3
 10
69.947881420629244
 20
186.37421104910152
 11
69.947881420629244
 21
195.81421104910143
  0
LINE
  8
_0-1_dxfile
  6
CONTINUOUS
 62
    3
 10
62.007881420629246
 20
195.87421104910152
 11
69.887881420629242
 21
195.87421104910152
  0
ARC
  8
_0-1_dxfile
  6
CONTINUOUS
 62
    3
 10
69.887881420629242
 20
195.81421104910143
 40
0.0599999999999999
 50
0
 51
90
  0
LINE
  8
_0-1_dxfile
  6
CONTINUOUS
 62
    3
 10
69.947881420629244
 20
185.87421104910152
 11
75.887881420629242
 21
185.87421104910152
  0
ARC
  8
_0-1_dxfile
  6
CONTINUOUS
 62
    3
 10
75.887881420629242
 20
185.93421104910152
 40
0.0599999999999999
 50
270
 51
0
  0
LINE
  8
_0-1_dxfile
  6
CONTINUOUS
 62
    3
 10
75.947881420629244
 20
185.93421104910152
 11
75.947881420629244
 21
187.81421104910152
  0
ARC
  8
_0-1_dxfile
  6
CONTINUOUS
 62
    3
 10
75.887881420629242
 20
187.81421104910152
 40
0.0599999999999999
 50
0
 51
90
  0
LINE
  8
_0-1_dxfile
  6
CONTINUOUS
 62
    3
 10
75.887881420629242
 20
187.87421104910152
 11
75.40788142062928
 21
187.87421104910152
  0
ARC
  8
_0-1_dxfile
  6
CONTINUOUS
 62
    3
 10
75.40788142062928
 20
187.81421104910152
 40
0.0599999999999999
 50
90
 51
180
  0
LINE
  8
_0-1_dxfile
  6
CONTINUOUS
 62
    3
 10
75.647881420629233
 20
187.57421104910154
 11
75.40788142062928
 21
187.57421104910154
  0
LINE
  8
_0-1_dxfile
  6
CONTINUOUS
 62
    3
 10
75.347881420629278
 20
187.81421104910152
 11
75.347881420629278
 21
187.63421104910154
  0
ARC
  8
_0-1_dxfile
  6
CONTINUOUS
 62
    3
 10
75.40788142062928
 20
187.63421104910154
 40
0.0599999999999999
 50
180
 51
270
  0
LINE
  8
_0-1_dxfile
  6
CONTINUOUS
 62
    3
 10
69.547881420629267
 20
192.07421104910154
 11
69.547881420629267
 21
185.87262404910152
  0
LINE
  8
_0-1_dxfile
  6
CONTINUOUS
 62
    6
 10
75.940881420629239
 20
188.46781104910153
 11
74.546081420629264
 21
187.07301104910152
  0
LINE
  8
_0-1_dxfile
  6
CONTINUOUS
 62
    6
 10
74.551281420629266
 20
188.46781104910153
 11
75.346081420629275
 21
187.67301104910152
  0
LINE
  8
_0-1_dxfile
  6
CONTINUOUS
 62
    6
 10
74.74088142062925
 20
188.46781104910153
 11
73.746081420629253
 21
187.47301104910153
  0
LINE
  8
_0-1_dxfile
  6
CONTINUOUS
 62
    6
 10
73.351281420629277
 20
188.46781104910153
 11
74.346081420629275
 21
187.47301104910153
  0
LINE
  8
_0-1_dxfile
  6
CONTINUOUS
 62
    6
 10
72.546081420629264
 20
187.47301104910153
 11
73.540881420629262
 21
188.46781104910153
  0
LINE
  8
_0-1_dxfile
  6
CONTINUOUS
 62
    6
 10
72.151281420629289
 20
188.46781104910153
 11
73.14608142062923
 21
187.47301104910153
  0
LINE
  8
_0-1_dxfile
  6
CONTINUOUS
 62
    6
 10
71.346081420629275
 20
187.47301104910153
 11
72.340881420629273
 21
188.46781104910153
  0
LINE
  8
_0-1_dxfile
  6
CONTINUOUS
 62
    6
 10
72.347881420629278
 20
189.82781104910154
 11
72.347881420629278
 21
188.46781104910153
  0
LINE
  8
_0-1_dxfile
  6
CONTINUOUS
 62
    3
 10
56.641081420629234
 20
181.07301104910152
 11
58.746081420629253
 21
181.07301104910152
  0
LINE
  8
_0-1_dxfile
  6
CONTINUOUS
 62
    3
 10
66.546081420629264
 20
181.07301104910152
 11
68.536681420629293
 21
181.07301104910152
  0
LINE
  8
_0-1_dxfile
  6
CONTINUOUS
 62
    3
 10
68.536681420629293
 20
181.47421104910154
 11
68.536681420629293
 21
181.07301104910152
  0
LINE
  8
_0-1_dxfile
  6
CONTINUOUS
 62
    3
 10
47.347881420629278
 20
181.53876804910152
 11
47.347881420629278
 21
179.17421104910153
  0
LINE
  8
_0-1_dxfile
  6
CONTINUOUS
 62
    3
 10
49.64788142062929
 20
178.87421104910152
 11
47.007881420629246
 21
178.87421104910152
  0
ARC
  8
_0-1_dxfile
  6
CONTINUOUS
 62
    3
 10
47.007881420629246
 20
178.93421104910152
 40
0.0599999999999999
 50
180
 51
270
  0
LINE
  8
_0-1_dxfile
  6
CONTINUOUS
 62
    3
 10
46.947881420629244
 20
178.93421104910152
 11
46.947881420629244
 21
181.82389504910154
  0
ARC
  8
_0-1_dxfile
  6
CONTINUOUS
 62
    3
 10
47.007881420629246
 20
181.82389504910154
 40
0.0599999999999999
 50
100.033
 51
180
  0
LINE
  8
_0-1_dxfile
  6
CONTINUOUS
 62
    3
 10
47.347881420629278
 20
179.17421104910153
 11
49.887881420629242
 21
179.17421104910153
  0
ARC
  8
_0-1_dxfile
  6
CONTINUOUS
 62
    3
 10
49.887881420629242
 20
179.11421104910153
 40
0.0599999999999999
 50
0
 51
90
  0
LINE
  8
_0-1_dxfile
  6
CONTINUOUS
 62
    3
 10
49.947881420629244
 20
179.11421104910153
 11
49.947881420629244
 21
175.93421104910152
  0
ARC
  8
_0-1_dxfile
  6
CONTINUOUS
 62
    3
 10
49.887881420629242
 20
175.93421104910152
 40
0.0599999999999999
 50
270
 51
0
  0
LINE
  8
_0-1_dxfile
  6
CONTINUOUS
 62
    3
 10
49.887881420629242
 20
175.87421104910152
 11
49.707881420629292
 21
175.87421104910152
  0
LINE
  8
_0-1_dxfile
  6
CONTINUOUS
 62
    3
 10
56.641081420629234
 20
181.07301104910152
 11
56.641081420629234
 21
181.47421104910154
  0
LINE
  8
_0-1_dxfile
  6
CONTINUOUS
 62
    3
 10
58.581481420629245
 20
181.47421104910154
 11
58.881481420629257
 21
181.77421104910152
  0
LINE
  8
_0-1_dxfile
  6
CONTINUOUS
 62
    3
 10
58.746081420629253
 20
181.07301104910152
 11
59.447281420629281
 21
181.77421104910152
  0
LINE
  8
_0-1_dxfile
  6
CONTINUOUS
 62
    3
 10
57.547881420629267
 20
181.47421104910154
 11
57.547881420629267
 21
181.57421104910154
  0
ARC
  8
_0-1_dxfile
  6
CONTINUOUS
 62
    3
 10
57.347881420629278
 20
181.57421104910154
 40
0.2
 50
0
 51
90
  0
LINE
  8
_0-1_dxfile
  6
CONTINUOUS
 62
    3
 10
69.647881420629233
 20
181.77421104910152
 11
69.647881420629233
 21
185.24561404910153
  0
LINE
  8
_0-1_dxfile
  6
CONTINUOUS
 62
    3
 10
56.429481420629259
 20
182.16041104910153
 11
68.738281420629278
 21
182.16041104910153
  0
LINE
  8
_0-1_dxfile
  6
CONTINUOUS
 62
    3
 10
68.738281420629278
 20
181.77421104910152
 11
68.738281420629278
 21
182.16041104910153
  0
LINE
  8
_0-1_dxfile
  6
CONTINUOUS
 62
    3
 10
57.341281420629286
 20
181.77421104910152
 11
67.74070142062925
 21
181.77421104910152
  0
LINE
  8
_0-1_dxfile
  6
CONTINUOUS
 62
    3
 10
69.647881420629233
 20
181.77421104910152
 11
67.747881420629255
 21
181.77421104910152
  0
ARC
  8
_0-1_dxfile
  6
CONTINUOUS
 62
    3
 10
67.747881420629255
 20
181.57421104910154
 40
0.2
 50
90
 51
180
  0
LINE
  8
_0-1_dxfile
  6
CONTINUOUS
 62
    3
 10
66.546081420629264
 20
181.07301104910152
 11
65.844881420629235
 21
181.77421104910152
  0
LINE
  8
_0-1_dxfile
  6
CONTINUOUS
 62
    3
 10
67.547881420629267
 20
181.47421104910154
 11
67.547881420629267
 21
181.57421104910154
  0
LINE
  8
_0-1_dxfile
  6
CONTINUOUS
 62
    3
 10
66.744882420629267
 20
181.47421104910154
 11
66.445086420629252
 21
181.77421104910152
  0
LINE
  8
_0-1_dxfile
  6
CONTINUOUS
 62
    3
 10
56.429481420629259
 20
181.77421104910152
 11
56.429481420629259
 21
182.16041104910153
  0
LINE
  8
_0-1_dxfile
  6
CONTINUOUS
 62
    3
 10
56.047881420629267
 20
181.77421104910152
 11
57.341281420629286
 21
181.77421104910152
  0
LINE
  8
_0-1_dxfile
  6
CONTINUOUS
 62
    3
 10
56.047881420629267
 20
181.77421104910152
 11
56.047881420629267
 21
183.07798004910154
  0
LINE
  8
_0-1_dxfile
  6
CONTINUOUS
 62
    3
 10
58.581481420629245
 20
181.47421104910154
 11
55.807881420629258
 21
181.47421104910154
  0
LINE
  8
_0-1_dxfile
  6
CONTINUOUS
 62
    3
 10
55.747881420629255
 20
183.02490304910154
 11
55.747881420629255
 21
181.53421104910151
  0
ARC
  8
_0-1_dxfile
  6
CONTINUOUS
 62
    3
 10
55.807881420629258
 20
181.53421104910151
 40
0.0599999999999999
 50
180
 51
270
  0
LINE
  8
_0-1_dxfile
  6
CONTINUOUS
 62
    3
 10
66.744882420629267
 20
181.47421104910154
 11
69.887881420629242
 21
181.47421104910154
  0
LINE
  8
_0-1_dxfile
  6
CONTINUOUS
 62
    3
 10
69.947881420629244
 20
185.87421104910152
 11
69.947881420629244
 21
181.53421104910151
  0
ARC
  8
_0-1_dxfile
  6
CONTINUOUS
 62
    3
 10
69.887881420629242
 20
181.53421104910151
 40
0.0599999999999999
 50
270
 51
0
  0
LINE
  8
_0-1_dxfile
  6
CONTINUOUS
 62
    3
 10
46.997428420629262
 20
181.88297704910153
 11
69.547881420629267
 21
185.87262404910152
  0
LINE
  8
_0-1_dxfile
  6
CONTINUOUS
 62
    3
 10
63.525681420629269
 20
177.94241104910154
 11
63.525681420629269
 21
181.77421104910152
  0
LINE
  8
_0-1_dxfile
  6
CONTINUOUS
 62
    3
 10
63.525681420629269
 20
177.94241104910154
 11
63.925681420629246
 21
177.94241104910154
  0
LINE
  8
_0-1_dxfile
  6
CONTINUOUS
 62
    3
 10
63.925681420629246
 20
177.94241104910154
 11
63.925681420629246
 21
181.77421104910152
  0
INSERT
  2
-002-DIM_2
  8
_0-1_dxfile
 10
65.947881420629244
 20
208.08778804910153
 41
1
 42
1
 50
0
  0
LINE
  8
_0-1_dxfile
  6
CONTINUOUS
 62
    3
 10
47.347881420629278
 20
181.53876804910152
 11
55.747881420629255
 21
183.02490304910154
  0
LINE
  8
_0-1_dxfile
  6
CONTINUOUS
 62
    3
 10
56.047881420629267
 20
183.07798004910154
 11
69.413038420629277
 21
185.44255504910151
  0
LINE
  8
_0-1_dxfile
  6
CONTINUOUS
 62
    3
 10
49.64788142062929
 20
178.87421104910152
 11
49.64788142062929
 21
175.93421104910152
  0
ARC
  8
_0-1_dxfile
  6
CONTINUOUS
 62
    3
 10
49.707881420629292
 20
175.93421104910152
 40
0.0599999999999999
 50
180
 51
270
  0
ARC
  8
_0-1_dxfile
  6
CONTINUOUS
 62
    3
 10
69.447881420629244
 20
185.24561404910153
 40
0.2
 50
0
 51
100.033
  0
LINE
  8
_0-1_dxfile
  6
CONTINUOUS
 62
    4
 10
60.947881420629244
 20
163.45360104910154
 11
60.947881420629244
 21
180.66384104910153
  0
LINE
  8
_0-1_dxfile
  6
CONTINUOUS
 62
    4
 10
60.947881420629244
 20
180.66384104910153
 11
62.947881420629244
 21
180.66384104910153
  0
LINE
  8
_0-1_dxfile
  6
CONTINUOUS
 62
    4
 10
62.947881420629244
 20
180.66384104910153
 11
62.947881420629244
 21
163.45360104910154
  0
LINE
  8
_0-1_dxfile
  6
CONTINUOUS
 62
    4
 10
289.94152242062927
 20
150.01907404910153
 11
287.94788142062924
 21
150.01907404910153
  0
LINE
  8
_0-1_dxfile
  6
CONTINUOUS
 62
    4
 10
287.94788142062924
 20
150.01907404910153
 11
287.94788142062924
 21
144.03815104910151
  0
LINE
  8
_0-1_dxfile
  6
CONTINUOUS
 62
    4
 10
288.34660942062925
 20
144.03815104910151
 11
287.94788142062924
 21
144.03815104910151
  0
LINE
  8
_0-1_dxfile
  6
CONTINUOUS
 62
    4
 10
289.94152242062927
 20
149.62034604910153
 11
288.34660942062925
 21
149.62034604910153
  0
LINE
  8
_0-1_dxfile
  6
CONTINUOUS
 62
    4
 10
288.34660942062925
 20
149.62034604910153
 11
288.34660942062925
 21
144.03815104910151
  0
LINE
  8
_0-1_dxfile
  6
CONTINUOUS
 62
    4
 10
289.94152242062927
 20
150.01907404910153
 11
289.94152242062927
 21
149.62034604910153
  0
LINE
  8
_0-1_dxfile
  6
CONTINUOUS
 62
    3
 10
275.6818984206293
 20
175.82336704910153
 11
299.51228742062926
 21
171.62165304910152
  0
LINE
  8
_0-1_dxfile
  6
CONTINUOUS
 62
    3
 10
289.76548442062926
 20
146.97777404910153
 11
284.60476542062929
 21
146.97777404910153
  0
LINE
  8
_0-1_dxfile
  6
CONTINUOUS
 62
    3
 10
299.51228742062926
 20
150.01907404910153
 11
299.51228742062926
 21
171.62165304910152
  0
LINE
  8
_0-1_dxfile
  6
CONTINUOUS
 62
    3
 10
291.53772342062928
 20
152.01271504910153
 11
291.53772342062928
 21
150.01907404910153
  0
LINE
  8
_0-1_dxfile
  6
CONTINUOUS
 62
    3
 10
291.53772342062928
 20
150.01907404910153
 11
299.51228742062926
 21
150.01907404910153
  0
CIRCLE
  8
_0-1_dxfile
  6
CONTINUOUS
 62
    6
 10
279.55972942062937
 20
172.05159704910153
 40
0.100878232576
  0
CIRCLE
  8
_0-1_dxfile
  6
CONTINUOUS
 62
    6
 10
298.44289842062926
 20
155.07315304910153
 40
0.189993983488
  0
CIRCLE
  8
_0-1_dxfile
  6
CONTINUOUS
 62
    6
 10
296.74431642062927
 20
161.35790704910153
 40
0.169858209792
  0
CIRCLE
  8
_0-1_dxfile
  6
CONTINUOUS
 62
    6
 10
297.25389042062926
 20
166.11393704910154
 40
0.120017185792
  0
CIRCLE
  8
_0-1_dxfile
  6
CONTINUOUS
 62
    6
 10
296.82924542062926
 20
152.94992504910152
 40
0.169858209792
  0
CIRCLE
  8
_0-1_dxfile
  6
CONTINUOUS
 62
    6
 10
297.93332342062928
 20
158.38538804910152
 40
0.2685434373119999
  0
CIRCLE
  8
_0-1_dxfile
  6
CONTINUOUS
 62
    6
 10
298.44289842062926
 20
163.39620504910152
 40
0.189993983488
  0
CIRCLE
  8
_0-1_dxfile
  6
CONTINUOUS
 62
    6
 10
281.09084542062925
 20
173.90169604910153
 40
0.0956947660799999
  0
CIRCLE
  8
_0-1_dxfile
  6
CONTINUOUS
 62
    6
 10
256.81627342062927
 20
179.29620304910154
 40
0.0956947660799999
  0
CIRCLE
  8
_0-1_dxfile
  6
CONTINUOUS
 62
    6
 10
259.33623542062929
 20
177.09152204910154
 40
0.115033083392
  0
CIRCLE
  8
_0-1_dxfile
  6
CONTINUOUS
 62
    6
 10
256.84817142062928
 20
176.67684404910153
 40
0.06379651072
  0
CIRCLE
  8
_0-1_dxfile
  6
CONTINUOUS
 62
    6
 10
260.67596242062916
 20
176.32596404910151
 40
0.0956947660799999
  0
CIRCLE
  8
_0-1_dxfile
  6
CONTINUOUS
 62
    6
 10
259.08104942062926
 20
180.12555804910153
 40
0.12759302144
  0
CIRCLE
  8
_0-1_dxfile
  6
CONTINUOUS
 62
    6
 10
257.03956142062924
 20
180.06176104910153
 40
0.100878232576
  0
CIRCLE
  8
_0-1_dxfile
  6
CONTINUOUS
 62
    6
 10
265.68398842062925
 20
177.41050404910152
 40
0.12759302144
  0
CIRCLE
  8
_0-1_dxfile
  6
CONTINUOUS
 62
    6
 10
266.06676742062928
 20
175.20952504910153
 40
0.06379651072
  0
CIRCLE
  8
_0-1_dxfile
  6
CONTINUOUS
 62
    6
 10
268.49103442062926
 20
175.30521904910154
 40
0.100878232576
  0
CIRCLE
  8
_0-1_dxfile
  6
CONTINUOUS
 62
    6
 10
267.88496742062927
 20
178.21166204910153
 40
0.100878232576
  0
CIRCLE
  8
_0-1_dxfile
  6
CONTINUOUS
 62
    6
 10
270.50062442062926
 20
174.41206804910152
 40
0.0903119354879999
  0
CIRCLE
  8
_0-1_dxfile
  6
CONTINUOUS
 62
    6
 10
272.79729942062926
 20
174.12498404910153
 40
0.0956947660799999
  0
CIRCLE
  8
_0-1_dxfile
  6
CONTINUOUS
 62
    6
 10
271.36187742062924
 20
177.05962404910153
 40
0.12759302144
  0
CIRCLE
  8
_0-1_dxfile
  6
CONTINUOUS
 62
    6
 10
288.04466542062926
 20
171.06275104910154
 40
0.1427446927359999
  0
CIRCLE
  8
_0-1_dxfile
  6
CONTINUOUS
 62
    6
 10
285.62039742062927
 20
171.89210604910153
 40
0.1427446927359999
  0
CIRCLE
  8
_0-1_dxfile
  6
CONTINUOUS
 62
    6
 10
273.78614542062917
 20
176.96392904910152
 40
0.1427446927359999
  0
CIRCLE
  8
_0-1_dxfile
  6
CONTINUOUS
 62
    6
 10
287.21531042062929
 20
172.72146104910152
 40
0.115033083392
  0
CIRCLE
  8
_0-1_dxfile
  6
CONTINUOUS
 62
    6
 10
274.99827842062928
 20
174.22067904910142
 40
0.0903119354879999
  0
CIRCLE
  8
_0-1_dxfile
  6
CONTINUOUS
 62
    6
 10
278.09240942062928
 20
174.53966104910154
 40
0.162681102336
  0
CIRCLE
  8
_0-1_dxfile
  6
CONTINUOUS
 62
    6
 10
297.59360742062927
 20
170.53025004910154
 40
0.2685434373119999
  0
CIRCLE
  8
_0-1_dxfile
  6
CONTINUOUS
 62
    6
 10
292.32800242062928
 20
171.46447004910152
 40
0.084929104896
  0
CIRCLE
  8
_0-1_dxfile
  6
CONTINUOUS
 62
    6
 10
282.01589442062925
 20
171.95590304910152
 40
0.045056285696
  0
LINE
  8
_0-1_dxfile
  6
CONTINUOUS
 62
    2
 10
285.94788142062924
 20
152.01271504910153
 11
285.94788142062924
 21
128.97557304910154
  0
LINE
  8
_0-1_dxfile
  6
CONTINUOUS
 62
    2
 10
287.94788142062924
 20
152.01271504910153
 11
287.94788142062924
 21
128.97557304910154
  0
LINE
  8
_0-1_dxfile
  6
CONTINUOUS
 62
    2
 10
255.94788142062924
 20
175.88426804910154
 11
255.94788142062924
 21
128.97557304910154
  0
LINE
  8
_0-1_dxfile
  6
CONTINUOUS
 62
    2
 10
285.94788142062924
 20
152.01271504910153
 11
295.52500542062927
 21
152.01271504910153
  0
LINE
  8
_0-1_dxfile
  6
CONTINUOUS
 62
    2
 10
295.52500542062927
 20
168.90603104910153
 11
295.52500542062927
 21
152.01271504910153
  0
LINE
  8
_0-1_dxfile
  6
CONTINUOUS
 62
    3
 10
294.79393742062928
 20
152.01271504910153
 11
274.12795942062928
 21
172.67869304910153
  0
LINE
  8
_0-1_dxfile
  6
CONTINUOUS
 62
    2
 10
255.94788142062924
 20
175.88426804910154
 11
295.52500542062927
 21
168.90589004910143
  0
LINE
  8
_0-1_dxfile
  6
PLine2
 62
    3
 10
250.94788142062927
 20
185.87421104910152
 11
250.94788142062927
 21
128.33109304910153
  0
LINE
  8
_0-1_dxfile
  6
CONTINUOUS
 62
    3
 10
275.57149642062927
 20
172.42416304910154
 11
295.52500542062927
 21
152.47065404910154
  0
LINE
  8
_0-1_dxfile
  6
CONTINUOUS
 62
    3
 10
276.80881342062929
 20
172.20599504910152
 11
295.52500542062927
 21
153.48980304910154
  0
LINE
  8
_0-1_dxfile
  6
CONTINUOUS
 62
    4
 10
271.49243742062924
 20
203.27421104910152
 11
254.16191542062927
 21
203.27421104910152
  0
LINE
  8
_0-1_dxfile
  6
CONTINUOUS
 62
    4
 10
254.16191542062927
 20
202.47421104910154
 11
271.49243742062924
 21
202.47421104910154
  0
LINE
  8
_0-1_dxfile
  6
CONTINUOUS
 62
    4
 10
276.34788142062928
 20
195.27421104910152
 11
273.51716542062928
 21
201.93472104910154
  0
LINE
  8
_0-1_dxfile
  6
CONTINUOUS
 62
    4
 10
275.47862942062926
 20
195.27421104910152
 11
272.78090042062928
 21
201.62180804910153
  0
LINE
  8
_0-1_dxfile
  6
CONTINUOUS
 62
    4
 10
276.34788142062928
 20
195.27421104910152
 11
275.47862942062926
 21
195.27421104910152
  0
LINE
  8
_0-1_dxfile
  6
CONTINUOUS
 62
    3
 10
255.94788142062924
 20
186.37421104910152
 11
254.55448142062926
 21
186.37421104910152
  0
LINE
  8
_0-1_dxfile
  6
CONTINUOUS
 62
    6
 10
254.54968142062927
 20
186.16781104910152
 11
254.54968142062927
 21
190.47301104910153
  0
LINE
  8
_0-1_dxfile
  6
CONTINUOUS
 62
    3
 10
254.55448142062926
 20
186.16781104910152
 11
254.55448142062926
 21
186.37421104910152
  0
LINE
  8
_0-1_dxfile
  6
CONTINUOUS
 62
    6
 10
253.14968142062926
 20
190.47301104910153
 11
253.14968142062926
 21
189.87301104910154
  0
LINE
  8
_0-1_dxfile
  6
CONTINUOUS
 62
    6
 10
249.95448142062926
 20
188.46781104910153
 11
249.95448142062926
 21
187.86781104910153
  0
LINE
  8
_0-1_dxfile
  6
CONTINUOUS
 62
    6
 10
253.94968142062928
 20
189.87301104910154
 11
253.14968142062926
 21
189.87301104910154
  0
LINE
  8
_0-1_dxfile
  6
CONTINUOUS
 62
    6
 10
253.94968142062928
 20
189.87301104910154
 11
253.94968142062928
 21
188.46781104910153
  0
LINE
  8
_0-1_dxfile
  6
CONTINUOUS
 62
    6
 10
253.14968142062926
 20
190.07301104910152
 11
253.34968142062928
 21
189.87301104910154
  0
LINE
  8
_0-1_dxfile
  6
CONTINUOUS
 62
    6
 10
253.54968142062927
 20
187.47301104910153
 11
251.34968142062928
 21
187.47301104910153
  0
LINE
  8
_0-1_dxfile
  6
CONTINUOUS
 62
    6
 10
251.06368142062928
 20
186.15901104910154
 11
250.24868142062925
 21
186.97401104910153
  0
LINE
  8
_0-1_dxfile
  6
CONTINUOUS
 62
    6
 10
251.34968142062928
 20
187.47301104910153
 11
251.34968142062928
 21
186.15901104910154
  0
LINE
  8
_0-1_dxfile
  6
CONTINUOUS
 62
    6
 10
253.54968142062927
 20
187.47301104910153
 11
253.54968142062927
 21
186.16901104910153
  0
LINE
  8
_0-1_dxfile
  6
CONTINUOUS
 62
    6
 10
251.34968142062928
 20
187.27301104910143
 11
250.24968142062926
 21
186.17301104910152
  0
LINE
  8
_0-1_dxfile
  6
CONTINUOUS
 62
    6
 10
249.95448142062926
 20
188.46781104910153
 11
253.94968142062928
 21
188.46781104910153
  0
LINE
  8
_0-1_dxfile
  6
CONTINUOUS
 62
    3
 10
251.95448142062926
 20
186.16781104910152
 11
250.25448142062928
 21
186.16781104910152
  0
LINE
  8
_0-1_dxfile
  6
CONTINUOUS
 62
    3
 10
250.24788142062926
 20
187.57421104910154
 11
250.24788142062926
 21
186.17421104910153
  0
LINE
  8
_0-1_dxfile
  6
CONTINUOUS
 62
    6
 10
253.14968142062926
 20
190.47301104910153
 11
254.54968142062927
 21
190.47301104910153
  0
LINE
  8
_0-1_dxfile
  6
CONTINUOUS
 62
    6
 10
254.54968142062927
 20
189.87301104910154
 11
253.94968142062928
 21
190.47301104910153
  0
LINE
  8
_0-1_dxfile
  6
CONTINUOUS
 62
    6
 10
253.94968142062928
 20
189.27301104910154
 11
254.54968142062927
 21
188.67301104910152
  0
LINE
  8
_0-1_dxfile
  6
CONTINUOUS
 62
    6
 10
254.54968142062927
 20
186.27301104910154
 11
253.54968142062927
 21
187.27301104910143
  0
LINE
  8
_0-1_dxfile
  6
CONTINUOUS
 62
    6
 10
253.94968142062928
 20
188.67301104910152
 11
254.54968142062927
 21
189.27301104910154
  0
LINE
  8
_0-1_dxfile
  6
CONTINUOUS
 62
    6
 10
253.94968142062928
 20
189.87301104910154
 11
254.54968142062927
 21
190.47301104910153
  0
LINE
  8
_0-1_dxfile
  6
CONTINUOUS
 62
    6
 10
254.54968142062927
 20
188.07301104910152
 11
253.54968142062927
 21
187.07301104910152
  0
LINE
  8
_0-1_dxfile
  6
CONTINUOUS
 62
    6
 10
254.54968142062927
 20
186.87301104910154
 11
253.83468142062927
 21
186.15801104910153
  0
LINE
  8
_0-1_dxfile
  6
CONTINUOUS
 62
    3
 10
254.55448142062926
 20
186.16781104910152
 11
251.95448142062926
 21
186.16781104910152
  0
LINE
  8
_0-1_dxfile
  6
CONTINUOUS
 62
    3
 10
256.34788142062928
 20
192.07421104910154
 11
256.34788142062928
 21
185.87421104910152
  0
LINE
  8
_0-1_dxfile
  6
CONTINUOUS
 62
    3
 10
255.94788142062924
 20
186.37421104910152
 11
255.94788142062924
 21
195.81421104910143
  0
LINE
  8
_0-1_dxfile
  6
CONTINUOUS
 62
    3
 10
255.94788142062924
 20
185.87421104910152
 11
250.00788142062927
 21
185.87421104910152
  0
ARC
  8
_0-1_dxfile
  6
CONTINUOUS
 62
    3
 10
250.00788142062927
 20
185.93421104910152
 40
0.0599999999999999
 50
180
 51
270
  0
LINE
  8
_0-1_dxfile
  6
CONTINUOUS
 62
    3
 10
249.94788142062927
 20
185.93421104910152
 11
249.94788142062927
 21
187.81421104910152
  0
ARC
  8
_0-1_dxfile
  6
CONTINUOUS
 62
    3
 10
250.00788142062927
 20
187.81421104910152
 40
0.0599999999999999
 50
90
 51
180
  0
LINE
  8
_0-1_dxfile
  6
CONTINUOUS
 62
    3
 10
250.00788142062927
 20
187.87421104910152
 11
250.48788142062926
 21
187.87421104910152
  0
ARC
  8
_0-1_dxfile
  6
CONTINUOUS
 62
    3
 10
250.48788142062926
 20
187.81421104910152
 40
0.0599999999999999
 50
0
 51
90
  0
LINE
  8
_0-1_dxfile
  6
CONTINUOUS
 62
    3
 10
250.24788142062926
 20
187.57421104910154
 11
250.48788142062926
 21
187.57421104910154
  0
LINE
  8
_0-1_dxfile
  6
CONTINUOUS
 62
    3
 10
250.54788142062927
 20
187.81421104910152
 11
250.54788142062927
 21
187.63421104910154
  0
ARC
  8
_0-1_dxfile
  6
CONTINUOUS
 62
    3
 10
250.48788142062926
 20
187.63421104910154
 40
0.0599999999999999
 50
270
 51
0
  0
LINE
  8
_0-1_dxfile
  6
CONTINUOUS
 62
    3
 10
256.34788142062928
 20
192.07421104910154
 11
256.34788142062928
 21
185.87262404910152
  0
LINE
  8
_0-1_dxfile
  6
CONTINUOUS
 62
    6
 10
249.95488142062928
 20
188.46781104910153
 11
251.34968142062928
 21
187.07301104910152
  0
LINE
  8
_0-1_dxfile
  6
CONTINUOUS
 62
    6
 10
251.34448142062928
 20
188.46781104910153
 11
250.54968142062927
 21
187.67301104910152
  0
LINE
  8
_0-1_dxfile
  6
CONTINUOUS
 62
    6
 10
251.15488142062927
 20
188.46781104910153
 11
252.14968142062926
 21
187.47301104910153
  0
LINE
  8
_0-1_dxfile
  6
CONTINUOUS
 62
    6
 10
252.54448142062927
 20
188.46781104910153
 11
251.54968142062927
 21
187.47301104910153
  0
LINE
  8
_0-1_dxfile
  6
CONTINUOUS
 62
    6
 10
253.34968142062928
 20
187.47301104910153
 11
252.35488142062925
 21
188.46781104910153
  0
LINE
  8
_0-1_dxfile
  6
CONTINUOUS
 62
    6
 10
253.74448142062926
 20
188.46781104910153
 11
252.74968142062926
 21
187.47301104910153
  0
LINE
  8
_0-1_dxfile
  6
CONTINUOUS
 62
    6
 10
254.54968142062927
 20
187.47301104910153
 11
253.55488142062927
 21
188.46781104910153
  0
LINE
  8
_0-1_dxfile
  6
CONTINUOUS
 62
    6
 10
253.54788142062927
 20
189.82781104910154
 11
253.54788142062927
 21
188.46781104910153
  0
LINE
  8
_0-1_dxfile
  6
CONTINUOUS
 62
    3
 10
269.25468142062925
 20
181.07301104910152
 11
267.14968142062929
 21
181.07301104910152
  0
LINE
  8
_0-1_dxfile
  6
CONTINUOUS
 62
    3
 10
259.34968142062928
 20
181.07301104910152
 11
257.35908142062925
 21
181.07301104910152
  0
LINE
  8
_0-1_dxfile
  6
CONTINUOUS
 62
    3
 10
257.35908142062925
 20
181.47421104910154
 11
257.35908142062925
 21
181.07301104910152
  0
LINE
  8
_0-1_dxfile
  6
CONTINUOUS
 62
    3
 10
278.54788142062927
 20
181.53876804910152
 11
278.54788142062927
 21
179.17421104910153
  0
LINE
  8
_0-1_dxfile
  6
CONTINUOUS
 62
    3
 10
276.24788142062926
 20
178.87421104910152
 11
278.88788142062924
 21
178.87421104910152
  0
ARC
  8
_0-1_dxfile
  6
CONTINUOUS
 62
    3
 10
278.88788142062924
 20
178.93421104910152
 40
0.0599999999999999
 50
270
 51
0
  0
LINE
  8
_0-1_dxfile
  6
CONTINUOUS
 62
    3
 10
278.94788142062924
 20
178.93421104910152
 11
278.94788142062924
 21
181.82389504910154
  0
ARC
  8
_0-1_dxfile
  6
CONTINUOUS
 62
    3
 10
278.88788142062924
 20
181.82389504910154
 40
0.0599999999999999
 50
0
 51
79.966999999999999
  0
LINE
  8
_0-1_dxfile
  6
CONTINUOUS
 62
    3
 10
278.54788142062927
 20
179.17421104910153
 11
276.00788142062925
 21
179.17421104910153
  0
ARC
  8
_0-1_dxfile
  6
CONTINUOUS
 62
    3
 10
276.00788142062925
 20
179.11421104910153
 40
0.0599999999999999
 50
90
 51
180
  0
LINE
  8
_0-1_dxfile
  6
CONTINUOUS
 62
    3
 10
275.94788142062924
 20
179.11421104910153
 11
275.94788142062924
 21
175.93421104910152
  0
ARC
  8
_0-1_dxfile
  6
CONTINUOUS
 62
    3
 10
276.00788142062925
 20
175.93421104910152
 40
0.0599999999999999
 50
180
 51
270
  0
LINE
  8
_0-1_dxfile
  6
CONTINUOUS
 62
    3
 10
276.00788142062925
 20
175.87421104910152
 11
276.18788142062937
 21
175.87421104910152
  0
LINE
  8
_0-1_dxfile
  6
CONTINUOUS
 62
    3
 10
269.25468142062925
 20
181.07301104910152
 11
269.25468142062925
 21
181.47421104910154
  0
LINE
  8
_0-1_dxfile
  6
CONTINUOUS
 62
    3
 10
267.31428142062924
 20
181.47421104910154
 11
267.01428142062929
 21
181.77421104910152
  0
LINE
  8
_0-1_dxfile
  6
CONTINUOUS
 62
    3
 10
267.14968142062929
 20
181.07301104910152
 11
266.44848142062926
 21
181.77421104910152
  0
LINE
  8
_0-1_dxfile
  6
CONTINUOUS
 62
    3
 10
268.34788142062928
 20
181.47421104910154
 11
268.34788142062928
 21
181.57421104910154
  0
ARC
  8
_0-1_dxfile
  6
CONTINUOUS
 62
    3
 10
268.54788142062927
 20
181.57421104910154
 40
0.2
 50
90
 51
180
  0
LINE
  8
_0-1_dxfile
  6
CONTINUOUS
 62
    3
 10
256.24788142062926
 20
181.77421104910152
 11
256.24788142062926
 21
185.24561404910153
  0
LINE
  8
_0-1_dxfile
  6
CONTINUOUS
 62
    3
 10
269.46628142062929
 20
182.16041104910153
 11
257.15748142062927
 21
182.16041104910153
  0
LINE
  8
_0-1_dxfile
  6
CONTINUOUS
 62
    3
 10
257.15748142062927
 20
181.77421104910152
 11
257.15748142062927
 21
182.16041104910153
  0
LINE
  8
_0-1_dxfile
  6
CONTINUOUS
 62
    3
 10
268.55448142062926
 20
181.77421104910152
 11
258.15506142062929
 21
181.77421104910152
  0
LINE
  8
_0-1_dxfile
  6
CONTINUOUS
 62
    3
 10
256.24788142062926
 20
181.77421104910152
 11
258.14788142062929
 21
181.77421104910152
  0
ARC
  8
_0-1_dxfile
  6
CONTINUOUS
 62
    3
 10
258.14788142062929
 20
181.57421104910154
 40
0.2
 50
0
 51
90
  0
LINE
  8
_0-1_dxfile
  6
CONTINUOUS
 62
    3
 10
259.34968142062928
 20
181.07301104910152
 11
260.05088142062925
 21
181.77421104910152
  0
LINE
  8
_0-1_dxfile
  6
CONTINUOUS
 62
    3
 10
258.34788142062928
 20
181.47421104910154
 11
258.34788142062928
 21
181.57421104910154
  0
LINE
  8
_0-1_dxfile
  6
CONTINUOUS
 62
    3
 10
259.15088042062928
 20
181.47421104910154
 11
259.45067642062929
 21
181.77421104910152
  0
LINE
  8
_0-1_dxfile
  6
CONTINUOUS
 62
    3
 10
269.46628142062929
 20
181.77421104910152
 11
269.46628142062929
 21
182.16041104910153
  0
LINE
  8
_0-1_dxfile
  6
CONTINUOUS
 62
    3
 10
269.84788142062928
 20
181.77421104910152
 11
268.55448142062926
 21
181.77421104910152
  0
LINE
  8
_0-1_dxfile
  6
CONTINUOUS
 62
    3
 10
269.84788142062928
 20
181.77421104910152
 11
269.84788142062928
 21
183.07798004910154
  0
LINE
  8
_0-1_dxfile
  6
CONTINUOUS
 62
    3
 10
267.31428142062924
 20
181.47421104910154
 11
270.08788142062929
 21
181.47421104910154
  0
LINE
  8
_0-1_dxfile
  6
CONTINUOUS
 62
    3
 10
270.14788142062929
 20
183.02490304910154
 11
270.14788142062929
 21
181.53421104910151
  0
ARC
  8
_0-1_dxfile
  6
CONTINUOUS
 62
    3
 10
270.08788142062929
 20
181.53421104910151
 40
0.0599999999999999
 50
270
 51
0
  0
LINE
  8
_0-1_dxfile
  6
CONTINUOUS
 62
    3
 10
259.15088042062928
 20
181.47421104910154
 11
256.00788142062936
 21
181.47421104910154
  0
LINE
  8
_0-1_dxfile
  6
CONTINUOUS
 62
    3
 10
255.94788142062924
 20
185.87421104910152
 11
255.94788142062924
 21
181.53421104910151
  0
ARC
  8
_0-1_dxfile
  6
CONTINUOUS
 62
    3
 10
256.00788142062936
 20
181.53421104910151
 40
0.0599999999999999
 50
180
 51
270
  0
LINE
  8
_0-1_dxfile
  6
CONTINUOUS
 62
    3
 10
278.89833442062928
 20
181.88297704910153
 11
256.34788142062928
 21
185.87262404910152
  0
LINE
  8
_0-1_dxfile
  6
CONTINUOUS
 62
    3
 10
262.37008142062928
 20
177.94241104910154
 11
262.37008142062928
 21
181.77421104910152
  0
LINE
  8
_0-1_dxfile
  6
CONTINUOUS
 62
    3
 10
262.37008142062928
 20
177.94241104910154
 11
261.97008142062924
 21
177.94241104910154
  0
LINE
  8
_0-1_dxfile
  6
CONTINUOUS
 62
    3
 10
261.97008142062924
 20
177.94241104910154
 11
261.97008142062924
 21
181.77421104910152
  0
LINE
  8
_0-1_dxfile
  6
CONTINUOUS
 62
    3
 10
278.54788142062927
 20
181.53876804910152
 11
270.14788142062929
 21
183.02490304910154
  0
LINE
  8
_0-1_dxfile
  6
CONTINUOUS
 62
    3
 10
269.84788142062928
 20
183.07798004910154
 11
256.48272442062927
 21
185.44255504910151
  0
LINE
  8
_0-1_dxfile
  6
CONTINUOUS
 62
    3
 10
276.24788142062926
 20
178.87421104910152
 11
276.24788142062926
 21
175.93421104910152
  0
ARC
  8
_0-1_dxfile
  6
CONTINUOUS
 62
    3
 10
276.18788142062937
 20
175.93421104910152
 40
0.0599999999999999
 50
270
 51
0
  0
ARC
  8
_0-1_dxfile
  6
CONTINUOUS
 62
    3
 10
256.44788142062924
 20
185.24561404910153
 40
0.2
 50
79.966999999999999
 51
180
  0
LINE
  8
_0-1_dxfile
  6
CONTINUOUS
 62
    4
 10
264.94788142062924
 20
163.45360104910154
 11
264.94788142062924
 21
180.66384104910153
  0
LINE
  8
_0-1_dxfile
  6
CONTINUOUS
 62
    4
 10
264.94788142062924
 20
180.66384104910153
 11
262.94788142062924
 21
180.66384104910153
  0
LINE
  8
_0-1_dxfile
  6
CONTINUOUS
 62
    4
 10
262.94788142062924
 20
180.66384104910153
 11
262.94788142062924
 21
163.45360104910154
  0
LINE
  8
_0-1_dxfile
  6
CONTINUOUS
 62
    6
 10
72.34128142062923
 20
188.46781104910153
 11
253.55448142062926
 21
188.46781104910153
  0
LINE
  8
_0-1_dxfile
  6
CONTINUOUS
 62
    6
 10
72.347881420629278
 20
189.82781104910154
 11
253.54788142062927
 21
189.82781104910154
  0
LINE
  8
_0-1_dxfile
  6
CONTINUOUS
 62
    6
 10
47.007881420629246
 20
178.87421104910152
 11
46.73958242062929
 21
175.21079004910152
  0
LINE
  8
_0-1_dxfile
  6
CONTINUOUS
 62
    6
 10
46.898790420629268
 20
177.38465504910153
 11
48.353161420629249
 21
178.83902604910153
  0
LINE
  8
_0-1_dxfile
  6
CONTINUOUS
 62
    6
 10
48.353161420629249
 20
177.71772704910154
 11
47.196677420629271
 21
178.87421104910152
  0
LINE
  8
_0-1_dxfile
  6
CONTINUOUS
 62
    6
 10
46.810720420629252
 20
176.18212304910153
 11
48.353161420629249
 21
177.72456404910153
  0
LINE
  8
_0-1_dxfile
  6
CONTINUOUS
 62
    6
 10
48.353161420629249
 20
176.70582304910153
 11
46.951712420629292
 21
178.10727204910154
  0
LINE
  8
_0-1_dxfile
  6
CONTINUOUS
 62
    6
 10
46.874729420629251
 20
177.05611904910154
 11
48.353161420629249
 21
175.57768704910143
  0
LINE
  8
_0-1_dxfile
  6
CONTINUOUS
 62
    6
 10
46.801944420629297
 20
176.06230204910153
 11
47.51647642062926
 21
175.34777004910154
  0
LINE
  8
_0-1_dxfile
  6
CONTINUOUS
 62
    6
 10
48.353161420629249
 20
176.48019604910152
 11
47.157429420629285
 21
175.28446404910153
  0
CIRCLE
  8
_0-1_dxfile
  6
CONTINUOUS
 62
    6
 10
278.09240942062928
 20
174.53966104910154
 40
0.162681102336
  0
LINE
  8
_0-1_dxfile
  6
CONTINUOUS
 62
    6
 10
278.88788142062924
 20
178.87421104910152
 11
279.15618042062925
 21
175.21079004910152
  0
LINE
  8
_0-1_dxfile
  6
CONTINUOUS
 62
    6
 10
278.99697242062928
 20
177.38465504910153
 11
277.54260142062924
 21
178.83902604910153
  0
LINE
  8
_0-1_dxfile
  6
CONTINUOUS
 62
    6
 10
277.54260142062924
 20
177.71772704910154
 11
278.69908542062927
 21
178.87421104910152
  0
LINE
  8
_0-1_dxfile
  6
CONTINUOUS
 62
    6
 10
279.08504342062929
 20
176.18212304910153
 11
277.54260142062924
 21
177.72456404910153
  0
LINE
  8
_0-1_dxfile
  6
CONTINUOUS
 62
    6
 10
277.54260142062924
 20
176.70582304910153
 11
278.94405042062925
 21
178.10727204910154
  0
LINE
  8
_0-1_dxfile
  6
CONTINUOUS
 62
    6
 10
279.02103342062929
 20
177.05611904910154
 11
277.54260142062924
 21
175.57768704910143
  0
LINE
  8
_0-1_dxfile
  6
CONTINUOUS
 62
    6
 10
279.09381842062925
 20
176.06230204910153
 11
278.37928642062928
 21
175.34777004910154
  0
LINE
  8
_0-1_dxfile
  6
CONTINUOUS
 62
    6
 10
277.54260142062924
 20
176.48019604910152
 11
278.73833342062926
 21
175.28446404910153
  0
INSERT
  2
-003-DIM_3
  8
_0-1_dxfile
 10
69.947881420629244
 20
126.03060404910153
 41
1
 42
1
 50
0
  0
INSERT
  2
-004-DIM_4
  8
_0-1_dxfile
 10
49.947881420629244
 20
174.71936804910152
 41
1
 42
1
 50
0
  0
LINE
  8
_0-1_dxfile
  6
CONTINUOUS
 62
    3
 10
138.32860342062929
 20
287.20488904910155
 11
142.30836642062923
 21
287.20488904910155
  0
LINE
  8
_0-1_dxfile
  6
CONTINUOUS
 62
    3
 10
142.30836642062923
 20
287.20488904910155
 11
142.30836642062923
 21
283.2251260491015
  0
LINE
  8
_0-1_dxfile
  6
CONTINUOUS
 62
    3
 10
142.30836642062923
 20
283.2251260491015
 11
138.32860342062929
 21
283.2251260491015
  0
LINE
  8
_0-1_dxfile
  6
CONTINUOUS
 62
    3
 10
138.32860342062929
 20
283.2251260491015
 11
138.32860342062929
 21
287.20488904910155
  0
LINE
  8
_0-1_dxfile
  6
CONTINUOUS
 62
    3
 10
136.64079342062928
 20
112.34925504910154
 11
140.62055642062927
 21
112.34925504910154
  0
LINE
  8
_0-1_dxfile
  6
CONTINUOUS
 62
    3
 10
140.62055642062927
 20
112.34925504910154
 11
140.62055642062927
 21
108.36949204910152
  0
LINE
  8
_0-1_dxfile
  6
CONTINUOUS
 62
    3
 10
140.62055642062927
 20
108.36949204910152
 11
136.64079342062928
 21
108.36949204910152
  0
LINE
  8
_0-1_dxfile
  6
CONTINUOUS
 62
    3
 10
136.64079342062928
 20
108.36949204910152
 11
136.64079342062928
 21
112.34925504910154
  0
LINE
  8
_0-1_dxfile
  6
CONTINUOUS
 62
    3
 10
134.77714542062927
 20
94.654232049101552
 11
138.75690842062926
 21
94.654232049101552
  0
LINE
  8
_0-1_dxfile
  6
CONTINUOUS
 62
    3
 10
138.75690842062926
 20
94.654232049101552
 11
138.75690842062926
 21
90.674469049101532
  0
LINE
  8
_0-1_dxfile
  6
CONTINUOUS
 62
    3
 10
138.75690842062926
 20
90.674469049101532
 11
134.77714542062927
 21
90.674469049101532
  0
LINE
  8
_0-1_dxfile
  6
CONTINUOUS
 62
    3
 10
134.77714542062927
 20
90.674469049101532
 11
134.77714542062927
 21
94.654232049101552
  0
LINE
  8
_0-1_dxfile
  6
CONTINUOUS
 62
    6
 10
69.947881420629244
 20
175.88426804910154
 11
69.947881420629244
 21
181.47421104910154
  0
LINE
  8
_0-1_dxfile
  6
CONTINUOUS
 62
    6
 10
255.94788142062924
 20
175.88426804910154
 11
255.94788142062924
 21
181.47421104910154
  0
INSERT
  2
-005-DIM_5
  8
_0-1_dxfile
 10
39.947881420629244
 20
127.82653004910154
 41
1
 42
1
 50
0
  0
LINE
  8
_0-1_dxfile
  6
CONTINUOUS
 62
    6
 10
659.36577442062935
 20
431.55467804910143
 11
653.47350342062919
 21
431.55467804910143
  0
LINE
  8
_0-1_dxfile
  6
CONTINUOUS
 62
    6
 10
653.47350342062919
 20
431.55467804910143
 11
678.39401542062933
 21
431.55467804910143
  0
LINE
  8
_0-1_dxfile
  6
CONTINUOUS
 62
    4
 10
515.9396374206292
 20
175.27898904910154
 11
525.90784142062921
 21
175.27898904910154
  0
LINE
  8
_0-1_dxfile
  6
CONTINUOUS
 62
    4
 10
525.90784142062921
 20
175.27898904910154
 11
525.90784142062921
 21
145.37437504910153
  0
LINE
  8
_0-1_dxfile
  6
CONTINUOUS
 62
    4
 10
523.91420042062919
 20
145.37437504910153
 11
525.90784142062921
 21
145.37437504910153
  0
LINE
  8
_0-1_dxfile
  6
CONTINUOUS
 62
    4
 10
515.9396374206292
 20
173.28534804910151
 11
523.91420042062919
 21
173.28534804910151
  0
LINE
  8
_0-1_dxfile
  6
CONTINUOUS
 62
    4
 10
523.91420042062919
 20
173.28534804910151
 11
523.91420042062919
 21
145.37437504910153
  0
LINE
  8
_0-1_dxfile
  6
CONTINUOUS
 62
    4
 10
515.9396374206292
 20
175.27898904910154
 11
515.9396374206292
 21
173.28534804910151
  0
LINE
  8
_0-1_dxfile
  6
CONTINUOUS
 62
    3
 10
516.81982942062928
 20
160.07249304910152
 11
542.62342142062926
 21
160.07249304910152
  0
LINE
  8
_0-1_dxfile
  6
CONTINUOUS
 62
    2
 10
468.08581342062917
 20
175.27898904910154
 11
468.08581342062917
 21
283.29188504910155
  0
LINE
  8
_0-1_dxfile
  6
CONTINUOUS
 62
    2
 10
507.95863242062927
 20
185.24719404910152
 11
507.95863242062927
 21
175.27898904910154
  0
LINE
  8
_0-1_dxfile
  6
CONTINUOUS
 62
    2
 10
507.95863242062927
 20
175.27898904910154
 11
468.08581342062917
 21
175.27898904910154
  0
CIRCLE
  8
_0-1_dxfile
  6
CONTINUOUS
 62
    6
 10
567.84860342062916
 20
285.44160804910155
 40
0.50439116288
  0
CIRCLE
  8
_0-1_dxfile
  6
CONTINUOUS
 62
    6
 10
473.43275842062917
 20
200.54938504910152
 40
0.9499699174399999
  0
CIRCLE
  8
_0-1_dxfile
  6
CONTINUOUS
 62
    6
 10
481.92566842062928
 20
231.97315404910154
 40
0.8492910489599998
  0
CIRCLE
  8
_0-1_dxfile
  6
CONTINUOUS
 62
    6
 10
479.37779542062918
 20
255.75330404910153
 40
0.6000859289600001
  0
CIRCLE
  8
_0-1_dxfile
  6
CONTINUOUS
 62
    6
 10
481.50102342062928
 20
189.93324704910154
 40
0.8492910489599998
  0
CIRCLE
  8
_0-1_dxfile
  6
CONTINUOUS
 62
    6
 10
475.98063142062915
 20
217.11056104910153
 40
1.3427171865600001
  0
CIRCLE
  8
_0-1_dxfile
  6
CONTINUOUS
 62
    6
 10
473.43275842062917
 20
242.16464704910152
 40
0.9499699174399999
  0
CIRCLE
  8
_0-1_dxfile
  6
CONTINUOUS
 62
    6
 10
560.19302242062918
 20
294.69210204910155
 40
0.4784738304
  0
CIRCLE
  8
_0-1_dxfile
  6
CONTINUOUS
 62
    6
 10
681.56588342062923
 20
321.66463704910154
 40
0.4784738304
  0
CIRCLE
  8
_0-1_dxfile
  6
CONTINUOUS
 62
    6
 10
668.96607342062907
 20
310.64123004910152
 40
0.57516541696
  0
CIRCLE
  8
_0-1_dxfile
  6
CONTINUOUS
 62
    6
 10
681.40639242062912
 20
308.56784304910155
 40
0.3189825536000001
  0
CIRCLE
  8
_0-1_dxfile
  6
CONTINUOUS
 62
    6
 10
662.26743942062922
 20
306.81343904910153
 40
0.4784738304
  0
CIRCLE
  8
_0-1_dxfile
  6
CONTINUOUS
 62
    6
 10
670.24200342062909
 20
325.81141004910154
 40
0.6379651072000002
  0
CIRCLE
  8
_0-1_dxfile
  6
CONTINUOUS
 62
    6
 10
680.44944542062922
 20
325.49242704910154
 40
0.50439116288
  0
CIRCLE
  8
_0-1_dxfile
  6
CONTINUOUS
 62
    6
 10
637.22730942062935
 20
312.23614204910155
 40
0.6379651072000002
  0
CIRCLE
  8
_0-1_dxfile
  6
CONTINUOUS
 62
    6
 10
635.3134134206291
 20
301.23124404910152
 40
0.3189825536000001
  0
CIRCLE
  8
_0-1_dxfile
  6
CONTINUOUS
 62
    6
 10
623.19207642062929
 20
301.70971804910153
 40
0.50439116288
  0
CIRCLE
  8
_0-1_dxfile
  6
CONTINUOUS
 62
    6
 10
626.2224104206291
 20
316.24193304910153
 40
0.50439116288
  0
CIRCLE
  8
_0-1_dxfile
  6
CONTINUOUS
 62
    6
 10
613.14412642062916
 20
297.24396204910153
 40
0.4515596774399999
  0
CIRCLE
  8
_0-1_dxfile
  6
CONTINUOUS
 62
    6
 10
601.66075442062925
 20
295.80854104910151
 40
0.4784738304
  0
CIRCLE
  8
_0-1_dxfile
  6
CONTINUOUS
 62
    6
 10
608.83786142062922
 20
310.48173804910152
 40
0.6379651072000002
  0
CIRCLE
  8
_0-1_dxfile
  6
CONTINUOUS
 62
    6
 10
525.42392342062931
 20
280.49737804910154
 40
0.7137234636799997
  0
CIRCLE
  8
_0-1_dxfile
  6
CONTINUOUS
 62
    6
 10
537.54526142062923
 20
284.64415204910154
 40
0.7137234636799997
  0
CIRCLE
  8
_0-1_dxfile
  6
CONTINUOUS
 62
    6
 10
596.71652442062918
 20
310.00326504910151
 40
0.7137234636799997
  0
CIRCLE
  8
_0-1_dxfile
  6
CONTINUOUS
 62
    6
 10
529.57069742062936
 20
288.79092504910153
 40
0.57516541696
  0
CIRCLE
  8
_0-1_dxfile
  6
CONTINUOUS
 62
    6
 10
590.65585642062933
 20
296.28701504910151
 40
0.4515596774399999
  0
CIRCLE
  8
_0-1_dxfile
  6
CONTINUOUS
 62
    6
 10
575.18520242062937
 20
297.88192804910153
 40
0.8134055116799999
  0
CIRCLE
  8
_0-1_dxfile
  6
CONTINUOUS
 62
    6
 10
477.67921342062914
 20
277.83487104910154
 40
1.3427171865600001
  0
CIRCLE
  8
_0-1_dxfile
  6
CONTINUOUS
 62
    6
 10
504.00723542062917
 20
282.5059720491015
 40
0.4246455244799999
  0
CIRCLE
  8
_0-1_dxfile
  6
CONTINUOUS
 62
    6
 10
555.56777542062923
 20
284.96313404910154
 40
0.2252814284799999
  0
LINE
  8
_0-1_dxfile
  6
CONTINUOUS
 62
    3
 10
650.98145242062924
 20
445.16254904910153
 11
680.88606642062928
 21
445.16254904910153
  0
LINE
  8
_0-1_dxfile
  6
CONTINUOUS
 62
    6
 10
680.88606642062928
 20
443.16254904910141
 11
650.97148342062906
 21
443.16254904910141
  0
LINE
  8
_0-1_dxfile
  6
CONTINUOUS
 62
    6
 10
678.39401542062933
 20
437.55467804910154
 11
678.39401542062933
 21
431.55467804910143
  0
LINE
  8
_0-1_dxfile
  6
CONTINUOUS
 62
    6
 10
653.47350342062919
 20
437.55467804910154
 11
653.47350342062919
 21
431.55467804910143
  0
LINE
  8
_0-1_dxfile
  6
CONTINUOUS
 62
    3
 10
680.88606642062928
 20
445.16254904910153
 11
680.88606642062928
 21
443.16254904910141
  0
LINE
  8
_0-1_dxfile
  6
CONTINUOUS
 62
    3
 10
650.98145242062924
 20
445.16254904910153
 11
650.98145242062924
 21
443.16254904910141
  0
LINE
  8
_0-1_dxfile
  6
CONTINUOUS
 62
    2
 10
535.90784142062921
 20
185.24719404910152
 11
488.02222242062925
 21
185.24719404910152
  0
LINE
  8
_0-1_dxfile
  6
CONTINUOUS
 62
    2
 10
488.02222242062925
 20
269.71377404910152
 11
488.02222242062925
 21
185.24719404910152
  0
LINE
  8
_0-1_dxfile
  6
CONTINUOUS
 62
    3
 10
491.67756342062916
 20
185.24719404910152
 11
595.00745342062919
 21
288.57708404910153
  0
LINE
  8
_0-1_dxfile
  6
CONTINUOUS
 62
    2
 10
535.90784142062921
 20
185.24719404910152
 11
535.90784142062921
 21
102.43363504910153
  0
LINE
  8
_0-1_dxfile
  6
CONTINUOUS
 62
    2
 10
525.90784142062921
 20
185.24719404910152
 11
525.90784142062921
 21
102.43363504910153
  0
LINE
  8
_0-1_dxfile
  6
CONTINUOUS
 62
    2
 10
685.90784142062921
 20
304.60496204910152
 11
685.90784142062921
 21
102.43363504910153
  0
LINE
  8
_0-1_dxfile
  6
CONTINUOUS
 62
    3
 10
685.90784142062921
 20
206.22209904910153
 11
582.11937842062935
 21
102.43363504910153
  0
LINE
  8
_0-1_dxfile
  6
CONTINUOUS
 62
    3
 10
685.90784142062921
 20
211.74249104910152
 11
576.59898642062922
 21
102.43363504910153
  0
LINE
  8
_0-1_dxfile
  6
CONTINUOUS
 62
    3
 10
685.90784142062921
 20
216.41359104910154
 11
571.92788542062931
 21
102.43363504910153
  0
LINE
  8
_0-1_dxfile
  6
PLine2
 62
    3
 10
710.90784142062921
 20
354.55467804910154
 11
710.90784142062921
 21
102.43363504910153
  0
LINE
  8
_0-1_dxfile
  6
CONTINUOUS
 62
    3
 10
587.78976842062934
 20
287.30443704910152
 11
488.02222242062925
 21
187.53689104910154
  0
LINE
  8
_0-1_dxfile
  6
CONTINUOUS
 62
    3
 10
581.6031814206292
 20
286.21359604910151
 11
488.02222242062925
 21
192.63263704910153
  0
LINE
  8
_0-1_dxfile
  6
CONTINUOUS
 62
    2
 10
584.40784142062921
 20
303.80149104910151
 11
468.08581342062917
 21
283.29188504910155
  0
LINE
  8
_0-1_dxfile
  6
CONTINUOUS
 62
    2
 10
685.90784142062921
 20
304.60496204910152
 11
653.79684142062933
 21
298.94303704910152
  0
LINE
  8
_0-1_dxfile
  6
CONTINUOUS
 62
    2
 10
488.02222242062925
 20
269.71307104910153
 11
643.79684142062933
 21
297.17980104910151
  0
LINE
  8
_0-1_dxfile
  6
CONTINUOUS
 62
    4
 10
608.18506442062926
 20
441.55467804910154
 11
694.83767142062925
 21
441.55467804910154
  0
LINE
  8
_0-1_dxfile
  6
CONTINUOUS
 62
    4
 10
608.18506442062926
 20
437.55467804910154
 11
694.83767142062925
 21
437.55467804910154
  0
LINE
  8
_0-1_dxfile
  6
CONTINUOUS
 62
    4
 10
583.90784142062921
 20
401.55467804910143
 11
598.06142442062924
 21
434.85722504910143
  0
LINE
  8
_0-1_dxfile
  6
CONTINUOUS
 62
    4
 10
588.25410442062935
 20
401.55467804910143
 11
601.74274842062937
 21
433.29266204910152
  0
LINE
  8
_0-1_dxfile
  6
CONTINUOUS
 62
    4
 10
583.90784142062921
 20
401.55467804910143
 11
588.25410442062935
 21
401.55467804910143
  0
ARC
  8
_0-1_dxfile
  6
CONTINUOUS
 62
    4
 10
1150.9078414206292
 20
161.55467804910154
 40
530.00000000000637
 50
140.870172
 51
147.45969299999996
  0
ARC
  8
_0-1_dxfile
  6
CONTINUOUS
 62
    4
 10
1150.9078414206292
 20
161.55467804910154
 40
525.99999999999216
 50
140.81717900000001
 51
147.45969299999999
  0
LINE
  8
_0-1_dxfile
  6
PLine2
 62
    3
 10
665.90784142062921
 20
373.95223704910154
 11
665.90784142062921
 21
457.1439120491014
  0
LINE
  8
_0-1_dxfile
  6
CONTINUOUS
 62
    3
 10
661.90784242062932
 20
379.16254904910153
 11
662.90784242062909
 21
378.16254904910153
  0
LINE
  8
_0-1_dxfile
  6
CONTINUOUS
 62
    3
 10
661.90784242062932
 20
397.06103704910151
 11
661.90784242062932
 21
392.24096904910152
  0
LINE
  8
_0-1_dxfile
  6
CONTINUOUS
 62
    3
 10
661.90784242062932
 20
391.55467804910154
 11
661.90784242062932
 21
379.16254904910153
  0
LINE
  8
_0-1_dxfile
  6
CONTINUOUS
 62
    3
 10
668.90784142062921
 20
378.16254904910153
 11
662.90784242062909
 21
378.16254904910153
  0
LINE
  8
_0-1_dxfile
  6
CONTINUOUS
 62
    3
 10
669.90784142062921
 20
379.16254904910153
 11
668.90784142062921
 21
378.16254904910153
  0
LINE
  8
_0-1_dxfile
  6
CONTINUOUS
 62
    3
 10
669.90784142062921
 20
397.06103704910151
 11
669.90784142062921
 21
392.24096904910152
  0
LINE
  8
_0-1_dxfile
  6
CONTINUOUS
 62
    3
 10
669.90784142062921
 20
391.55467804910154
 11
669.90784142062921
 21
379.16254904910153
  0
LINE
  8
_0-1_dxfile
  6
CONTINUOUS
 62
    3
 10
657.90784242062909
 20
402.55467804910143
 11
657.90784242062909
 21
397.7772470491015
  0
LINE
  8
_0-1_dxfile
  6
CONTINUOUS
 62
    3
 10
673.90784142062921
 20
397.7772470491015
 11
673.90784142062921
 21
402.55467804910143
  0
LINE
  8
_0-1_dxfile
  6
CONTINUOUS
 62
    3
 10
673.90784142062921
 20
402.55467804910143
 11
657.90784242062909
 21
402.55467804910143
  0
LINE
  8
_0-1_dxfile
  6
CONTINUOUS
 62
    3
 10
673.90784142062921
 20
397.7772470491015
 11
672.65631442062931
 21
397.05467804910154
  0
LINE
  8
_0-1_dxfile
  6
CONTINUOUS
 62
    3
 10
672.65631442062931
 20
397.05467804910154
 11
665.90784142062921
 21
397.05467804910154
  0
LINE
  8
_0-1_dxfile
  6
CONTINUOUS
 62
    3
 10
669.90784142062921
 20
402.55467804910143
 11
669.90784142062921
 21
397.74096904910152
  0
ARC
  8
_0-1_dxfile
  6
CONTINUOUS
 62
    3
 10
665.90784142062921
 20
409.05467704910154
 40
11.999999520006099
 50
270
 51
289.47122100000001
  0
ARC
  8
_0-1_dxfile
  6
CONTINUOUS
 62
    3
 10
671.8375094206292
 20
400.11067804910152
 40
3.05599987776958
 50
230.84386799999996
 51
270
  0
LINE
  8
_0-1_dxfile
  6
CONTINUOUS
 62
    3
 10
657.90784242062909
 20
397.7772470491015
 11
659.15936942062922
 21
397.05467804910154
  0
LINE
  8
_0-1_dxfile
  6
CONTINUOUS
 62
    3
 10
659.15936942062922
 20
397.05467804910154
 11
665.90784142062921
 21
397.05467804910154
  0
ARC
  8
_0-1_dxfile
  6
CONTINUOUS
 62
    3
 10
665.90784142062921
 20
409.05467704910154
 40
11.999999520006099
 50
250.52877900000004
 51
270.00000000000006
  0
ARC
  8
_0-1_dxfile
  6
CONTINUOUS
 62
    3
 10
659.9781744206291
 20
400.11067804910152
 40
3.05599987776958
 50
270
 51
309.15613200000001
  0
LINE
  8
_0-1_dxfile
  6
CONTINUOUS
 62
    3
 10
661.90784242062932
 20
402.55467804910143
 11
661.90784242062932
 21
397.74096904910152
  0
LINE
  8
_0-1_dxfile
  6
CONTINUOUS
 62
    3
 10
673.90784142062921
 20
445.16255204910152
 11
673.90784142062921
 21
449.9399820491015
  0
LINE
  8
_0-1_dxfile
  6
CONTINUOUS
 62
    3
 10
673.90784142062921
 20
449.9399820491015
 11
672.65631442062931
 21
450.66255104910141
  0
LINE
  8
_0-1_dxfile
  6
CONTINUOUS
 62
    3
 10
672.65631442062931
 20
450.66255104910141
 11
665.90784142062921
 21
450.66255104910141
  0
LINE
  8
_0-1_dxfile
  6
CONTINUOUS
 62
    3
 10
669.90784142062921
 20
445.16255204910152
 11
669.90784142062921
 21
449.97626004910165
  0
ARC
  8
_0-1_dxfile
  6
CONTINUOUS
 62
    3
 10
665.90784142062921
 20
438.66255204910152
 40
11.999999520137511
 50
70.528779
 51
90
  0
ARC
  8
_0-1_dxfile
  6
CONTINUOUS
 62
    3
 10
671.8375094206292
 20
447.60655104910143
 40
3.0559998775406281
 50
90
 51
129.15613200000004
  0
LINE
  8
_0-1_dxfile
  6
CONTINUOUS
 62
    3
 10
657.90784242062909
 20
445.16255204910152
 11
657.90784242062909
 21
449.9399820491015
  0
LINE
  8
_0-1_dxfile
  6
CONTINUOUS
 62
    3
 10
657.90784242062909
 20
449.9399820491015
 11
659.15936942062922
 21
450.66255104910141
  0
LINE
  8
_0-1_dxfile
  6
CONTINUOUS
 62
    3
 10
659.15936942062922
 20
450.66255104910141
 11
665.90784142062921
 21
450.66255104910141
  0
ARC
  8
_0-1_dxfile
  6
CONTINUOUS
 62
    3
 10
665.90784142062921
 20
438.66255204910152
 40
11.99999951979021
 50
90
 51
109.471221
  0
ARC
  8
_0-1_dxfile
  6
CONTINUOUS
 62
    3
 10
659.9781744206291
 20
447.60655104910143
 40
3.055999877784763
 50
50.843868000000008
 51
90
  0
LINE
  8
_0-1_dxfile
  6
CONTINUOUS
 62
    3
 10
661.90784242062932
 20
445.16255204910152
 11
661.90784242062932
 21
449.97626004910165
  0
LINE
  8
_0-1_dxfile
  6
CONTINUOUS
 62
    3
 10
657.90784242062909
 20
445.16254904910153
 11
673.90784142062921
 21
445.16254904910153
  0
LINE
  8
_0-1_dxfile
  6
CONTINUOUS
 62
    6
 10
650.98145242062924
 20
443.16254904910141
 11
680.88606642062928
 21
443.16254904910141
  0
LINE
  8
_0-1_dxfile
  6
CONTINUOUS
 62
    6
 10
680.88606642062928
 20
443.16254904910141
 11
680.88606642062928
 21
441.55467804910154
  0
LINE
  8
_0-1_dxfile
  6
CONTINUOUS
 62
    6
 10
650.98145242062924
 20
441.55467804910154
 11
650.98145242062924
 21
443.16254904910141
  0
LINE
  8
_0-1_dxfile
  6
CONTINUOUS
 62
    6
 10
650.98145242062924
 20
442.66254904910141
 11
680.88606642062928
 21
442.66254904910141
  0
LINE
  8
_0-1_dxfile
  6
CONTINUOUS
 62
    6
 10
650.98145242062924
 20
442.16254904910153
 11
680.88606642062928
 21
442.16254904910153
  0
LINE
  8
_0-1_dxfile
  6
CONTINUOUS
 62
    6
 10
671.31558942062929
 20
431.55467804910143
 11
677.31558942062907
 21
437.55467804910154
  0
LINE
  8
_0-1_dxfile
  6
CONTINUOUS
 62
    6
 10
662.18793942062916
 20
431.55467804910143
 11
668.18793942062916
 21
437.55467804910154
  0
LINE
  8
_0-1_dxfile
  6
CONTINUOUS
 62
    6
 10
654.53028642062918
 20
431.55467804910143
 11
660.53028642062918
 21
437.55467804910154
  0
LINE
  8
_0-1_dxfile
  6
CONTINUOUS
 62
    6
 10
659.81858142062924
 20
431.55467804910143
 11
653.81858142062924
 21
437.55467804910154
  0
LINE
  8
_0-1_dxfile
  6
CONTINUOUS
 62
    6
 10
663.01460242062922
 20
437.55467804910154
 11
669.01460242062922
 21
431.55467804910143
  0
LINE
  8
_0-1_dxfile
  6
CONTINUOUS
 62
    6
 10
677.59527642062926
 20
431.55467804910143
 11
671.59527642062926
 21
437.55467804910154
  0
LINE
  8
_0-1_dxfile
  6
CONTINUOUS
 62
    3
 10
685.90784142062921
 20
357.05467804910154
 11
692.87484142062908
 21
357.05467804910154
  0
LINE
  8
_0-1_dxfile
  6
CONTINUOUS
 62
    6
 10
692.8988414206292
 20
356.0226780491015
 11
692.8988414206292
 21
377.54867804910151
  0
LINE
  8
_0-1_dxfile
  6
CONTINUOUS
 62
    3
 10
692.87484142062908
 20
356.0226780491015
 11
692.87484142062908
 21
357.05467804910154
  0
LINE
  8
_0-1_dxfile
  6
CONTINUOUS
 62
    6
 10
699.8988414206292
 20
377.54867804910151
 11
699.8988414206292
 21
374.54867804910151
  0
LINE
  8
_0-1_dxfile
  6
CONTINUOUS
 62
    6
 10
715.87484142062931
 20
367.5226780491015
 11
715.87484142062931
 21
364.5226780491015
  0
LINE
  8
_0-1_dxfile
  6
CONTINUOUS
 62
    6
 10
695.8988414206292
 20
374.54867804910151
 11
699.8988414206292
 21
374.54867804910151
  0
LINE
  8
_0-1_dxfile
  6
CONTINUOUS
 62
    6
 10
695.8988414206292
 20
374.54867804910151
 11
695.8988414206292
 21
367.5226780491015
  0
LINE
  8
_0-1_dxfile
  6
CONTINUOUS
 62
    6
 10
699.8988414206292
 20
375.54867804910162
 11
698.8988414206292
 21
374.54867804910151
  0
LINE
  8
_0-1_dxfile
  6
CONTINUOUS
 62
    6
 10
697.8988414206292
 20
362.54867804910151
 11
708.8988414206292
 21
362.54867804910151
  0
LINE
  8
_0-1_dxfile
  6
CONTINUOUS
 62
    6
 10
710.32884142062926
 20
355.97867804910152
 11
714.40384142062931
 21
360.05367804910151
  0
LINE
  8
_0-1_dxfile
  6
CONTINUOUS
 62
    6
 10
708.8988414206292
 20
362.54867804910151
 11
708.8988414206292
 21
355.97867804910152
  0
LINE
  8
_0-1_dxfile
  6
CONTINUOUS
 62
    6
 10
697.8988414206292
 20
362.54867804910151
 11
697.8988414206292
 21
356.02867804910153
  0
LINE
  8
_0-1_dxfile
  6
CONTINUOUS
 62
    6
 10
708.8988414206292
 20
361.54867804910151
 11
714.3988414206292
 21
356.04867804910151
  0
LINE
  8
_0-1_dxfile
  6
CONTINUOUS
 62
    6
 10
715.87484142062931
 20
367.5226780491015
 11
695.8988414206292
 21
367.5226780491015
  0
LINE
  8
_0-1_dxfile
  6
CONTINUOUS
 62
    3
 10
705.87484142062908
 20
356.0226780491015
 11
714.37484142062908
 21
356.0226780491015
  0
LINE
  8
_0-1_dxfile
  6
CONTINUOUS
 62
    3
 10
714.40784142062921
 20
363.05467804910154
 11
714.40784142062921
 21
356.05467804910154
  0
LINE
  8
_0-1_dxfile
  6
CONTINUOUS
 62
    6
 10
699.8988414206292
 20
377.54867804910151
 11
692.8988414206292
 21
377.54867804910151
  0
LINE
  8
_0-1_dxfile
  6
CONTINUOUS
 62
    6
 10
692.8988414206292
 20
374.54867804910151
 11
695.8988414206292
 21
377.54867804910151
  0
LINE
  8
_0-1_dxfile
  6
CONTINUOUS
 62
    6
 10
695.8988414206292
 20
371.54867804910162
 11
692.8988414206292
 21
368.54867804910151
  0
LINE
  8
_0-1_dxfile
  6
CONTINUOUS
 62
    6
 10
692.8988414206292
 20
356.54867804910151
 11
697.8988414206292
 21
361.54867804910151
  0
LINE
  8
_0-1_dxfile
  6
CONTINUOUS
 62
    6
 10
695.8988414206292
 20
368.54867804910151
 11
692.8988414206292
 21
371.54867804910162
  0
LINE
  8
_0-1_dxfile
  6
CONTINUOUS
 62
    6
 10
695.8988414206292
 20
374.54867804910151
 11
692.8988414206292
 21
377.54867804910151
  0
LINE
  8
_0-1_dxfile
  6
CONTINUOUS
 62
    6
 10
692.8988414206292
 20
365.54867804910162
 11
697.8988414206292
 21
360.54867804910151
  0
LINE
  8
_0-1_dxfile
  6
CONTINUOUS
 62
    6
 10
692.8988414206292
 20
359.54867804910151
 11
696.47384142062924
 21
355.97367804910152
  0
LINE
  8
_0-1_dxfile
  6
CONTINUOUS
 62
    3
 10
692.87484142062908
 20
356.0226780491015
 11
705.87484142062908
 21
356.0226780491015
  0
LINE
  8
_0-1_dxfile
  6
CONTINUOUS
 62
    3
 10
647.90784142062921
 20
402.55467804910143
 11
678.90784142062921
 21
402.55467804910143
  0
LINE
  8
_0-1_dxfile
  6
CONTINUOUS
 62
    3
 10
647.90784142062921
 20
402.55467804910143
 11
647.90784142062921
 21
396.55467804910154
  0
LINE
  8
_0-1_dxfile
  6
CONTINUOUS
 62
    3
 10
647.90784142062921
 20
396.55467804910154
 11
650.90784142062921
 21
396.55467804910154
  0
LINE
  8
_0-1_dxfile
  6
CONTINUOUS
 62
    3
 10
650.90784142062921
 20
396.55467804910154
 11
650.90784142062921
 21
395.55467804910154
  0
LINE
  8
_0-1_dxfile
  6
CONTINUOUS
 62
    3
 10
650.90784142062921
 20
395.55467804910154
 11
647.90784142062921
 21
395.55467804910154
  0
LINE
  8
_0-1_dxfile
  6
CONTINUOUS
 62
    3
 10
678.90784142062921
 20
402.55467804910143
 11
683.90784142062921
 21
402.55467804910143
  0
LINE
  8
_0-1_dxfile
  6
CONTINUOUS
 62
    3
 10
683.90784142062921
 20
395.55467804910154
 11
683.90784142062921
 21
385.55467804910154
  0
LINE
  8
_0-1_dxfile
  6
CONTINUOUS
 62
    3
 10
680.90784142062921
 20
395.55467804910154
 11
683.90784142062921
 21
395.55467804910154
  0
LINE
  8
_0-1_dxfile
  6
CONTINUOUS
 62
    3
 10
680.90784142062921
 20
396.55467804910154
 11
680.90784142062921
 21
395.55467804910154
  0
LINE
  8
_0-1_dxfile
  6
CONTINUOUS
 62
    3
 10
680.90784142062921
 20
396.55467804910154
 11
683.90784142062921
 21
396.55467804910154
  0
LINE
  8
_0-1_dxfile
  6
CONTINUOUS
 62
    3
 10
683.90784142062921
 20
396.55467804910154
 11
683.90784142062921
 21
402.55467804910143
  0
LINE
  8
_0-1_dxfile
  6
CONTINUOUS
 62
    3
 10
683.90784142062921
 20
385.55467804910154
 11
683.90784142062921
 21
354.55467804910154
  0
ARC
  8
_0-1_dxfile
  6
CONTINUOUS
 62
    3
 10
646.20784142062917
 20
404.25467804910153
 40
0.2999999999999999
 50
90
 51
180
  0
LINE
  8
_0-1_dxfile
  6
CONTINUOUS
 62
    3
 10
645.90784142062921
 20
404.25467804910153
 11
645.90784142062921
 21
394.85467804910155
  0
ARC
  8
_0-1_dxfile
  6
CONTINUOUS
 62
    3
 10
646.20784142062917
 20
394.85467804910155
 40
0.2999999999999999
 50
180
 51
270
  0
LINE
  8
_0-1_dxfile
  6
CONTINUOUS
 62
    3
 10
646.20784142062917
 20
394.55467804910154
 11
647.60784142062926
 21
394.55467804910154
  0
LINE
  8
_0-1_dxfile
  6
CONTINUOUS
 62
    3
 10
647.90784142062921
 20
395.55467804910154
 11
647.90784142062921
 21
394.85467804910155
  0
ARC
  8
_0-1_dxfile
  6
CONTINUOUS
 62
    3
 10
647.60784142062926
 20
394.85467804910155
 40
0.2999999999999999
 50
270
 51
0
  0
LINE
  8
_0-1_dxfile
  6
CONTINUOUS
 62
    3
 10
685.90784142062921
 20
357.05467804910154
 11
685.90784142062921
 21
404.25467804910153
  0
LINE
  8
_0-1_dxfile
  6
CONTINUOUS
 62
    3
 10
646.20784142062917
 20
404.55467804910154
 11
685.60784142062926
 21
404.55467804910154
  0
ARC
  8
_0-1_dxfile
  6
CONTINUOUS
 62
    3
 10
685.60784142062926
 20
404.25467804910153
 40
0.2999999999999999
 50
0
 51
90
  0
LINE
  8
_0-1_dxfile
  6
CONTINUOUS
 62
    3
 10
685.90784142062921
 20
354.55467804910154
 11
715.60784142062926
 21
354.55467804910154
  0
ARC
  8
_0-1_dxfile
  6
CONTINUOUS
 62
    3
 10
715.60784142062926
 20
354.85467804910155
 40
0.2999999999999999
 50
270
 51
0
  0
LINE
  8
_0-1_dxfile
  6
CONTINUOUS
 62
    3
 10
715.90784142062921
 20
354.85467804910155
 11
715.90784142062921
 21
364.25467804910153
  0
ARC
  8
_0-1_dxfile
  6
CONTINUOUS
 62
    3
 10
715.60784142062926
 20
364.25467804910153
 40
0.2999999999999999
 50
0
 51
90
  0
LINE
  8
_0-1_dxfile
  6
CONTINUOUS
 62
    3
 10
715.60784142062926
 20
364.55467804910154
 11
713.20784142062917
 21
364.55467804910154
  0
ARC
  8
_0-1_dxfile
  6
CONTINUOUS
 62
    3
 10
713.20784142062917
 20
364.25467804910153
 40
0.2999999999999999
 50
90
 51
180
  0
LINE
  8
_0-1_dxfile
  6
CONTINUOUS
 62
    3
 10
714.40784142062921
 20
363.05467804910154
 11
713.20784142062917
 21
363.05467804910154
  0
LINE
  8
_0-1_dxfile
  6
CONTINUOUS
 62
    3
 10
712.90784142062921
 20
364.25467804910153
 11
712.90784142062921
 21
363.35467804910155
  0
ARC
  8
_0-1_dxfile
  6
CONTINUOUS
 62
    3
 10
713.20784142062917
 20
363.35467804910155
 40
0.2999999999999999
 50
180
 51
270
  0
LINE
  8
_0-1_dxfile
  6
CONTINUOUS
 62
    3
 10
683.90784142062921
 20
385.55467804910154
 11
683.90784142062921
 21
354.54673904910152
  0
LINE
  8
_0-1_dxfile
  6
CONTINUOUS
 62
    6
 10
715.87284142062936
 20
367.5226780491015
 11
708.8988414206292
 21
360.54867804910151
  0
LINE
  8
_0-1_dxfile
  6
CONTINUOUS
 62
    6
 10
708.92484142062926
 20
367.5226780491015
 11
712.8988414206292
 21
363.54867804910162
  0
LINE
  8
_0-1_dxfile
  6
CONTINUOUS
 62
    6
 10
709.87284142062936
 20
367.5226780491015
 11
704.8988414206292
 21
362.54867804910151
  0
LINE
  8
_0-1_dxfile
  6
CONTINUOUS
 62
    6
 10
702.92484142062926
 20
367.5226780491015
 11
707.8988414206292
 21
362.54867804910151
  0
LINE
  8
_0-1_dxfile
  6
CONTINUOUS
 62
    6
 10
698.8988414206292
 20
362.54867804910151
 11
703.87284142062936
 21
367.5226780491015
  0
LINE
  8
_0-1_dxfile
  6
CONTINUOUS
 62
    6
 10
696.92484142062926
 20
367.5226780491015
 11
701.8988414206292
 21
362.54867804910151
  0
LINE
  8
_0-1_dxfile
  6
CONTINUOUS
 62
    6
 10
692.8988414206292
 20
362.54867804910151
 11
697.87284142062936
 21
367.5226780491015
  0
LINE
  8
_0-1_dxfile
  6
CONTINUOUS
 62
    6
 10
697.90784142062921
 20
374.32267804910151
 11
697.90784142062921
 21
367.5226780491015
  0
LINE
  8
_0-1_dxfile
  6
CONTINUOUS
 62
    3
 10
619.37384142062911
 20
330.54867804910151
 11
629.8988414206292
 21
330.54867804910151
  0
LINE
  8
_0-1_dxfile
  6
CONTINUOUS
 62
    3
 10
668.8988414206292
 20
330.54867804910151
 11
678.85184142062917
 21
330.54867804910151
  0
LINE
  8
_0-1_dxfile
  6
CONTINUOUS
 62
    3
 10
678.85184142062917
 20
332.55467804910154
 11
678.85184142062917
 21
330.54867804910151
  0
LINE
  8
_0-1_dxfile
  6
CONTINUOUS
 62
    3
 10
572.90784142062921
 20
332.8774600491015
 11
572.90784142062921
 21
321.05467804910154
  0
LINE
  8
_0-1_dxfile
  6
CONTINUOUS
 62
    3
 10
584.40784142062921
 20
319.55467804910154
 11
571.20784142062917
 21
319.55467804910154
  0
ARC
  8
_0-1_dxfile
  6
CONTINUOUS
 62
    3
 10
571.20784142062917
 20
319.85467804910155
 40
0.2999999999999999
 50
180
 51
270
  0
LINE
  8
_0-1_dxfile
  6
CONTINUOUS
 62
    3
 10
570.90784142062921
 20
319.85467804910155
 11
570.90784142062921
 21
334.3030950491015
  0
ARC
  8
_0-1_dxfile
  6
CONTINUOUS
 62
    3
 10
571.20784142062917
 20
334.3030950491015
 40
0.2999999999999999
 50
100.033
 51
180
  0
LINE
  8
_0-1_dxfile
  6
CONTINUOUS
 62
    3
 10
572.90784142062921
 20
321.05467804910154
 11
585.60784142062926
 21
321.05467804910154
  0
ARC
  8
_0-1_dxfile
  6
CONTINUOUS
 62
    3
 10
585.60784142062926
 20
320.75467804910153
 40
0.2999999999999999
 50
0
 51
90
  0
LINE
  8
_0-1_dxfile
  6
CONTINUOUS
 62
    3
 10
585.90784142062921
 20
320.75467804910153
 11
585.90784142062921
 21
304.85467804910155
  0
ARC
  8
_0-1_dxfile
  6
CONTINUOUS
 62
    3
 10
585.60784142062926
 20
304.85467804910155
 40
0.2999999999999999
 50
270
 51
0
  0
LINE
  8
_0-1_dxfile
  6
CONTINUOUS
 62
    3
 10
585.60784142062926
 20
304.55467804910154
 11
584.70784142062917
 21
304.55467804910154
  0
LINE
  8
_0-1_dxfile
  6
CONTINUOUS
 62
    3
 10
619.37384142062911
 20
330.54867804910151
 11
619.37384142062911
 21
332.55467804910154
  0
LINE
  8
_0-1_dxfile
  6
CONTINUOUS
 62
    3
 10
629.07584142062933
 20
332.55467804910154
 11
630.57584142062933
 21
334.05467804910154
  0
LINE
  8
_0-1_dxfile
  6
CONTINUOUS
 62
    3
 10
629.8988414206292
 20
330.54867804910151
 11
633.40484142062905
 21
334.05467804910154
  0
LINE
  8
_0-1_dxfile
  6
CONTINUOUS
 62
    3
 10
623.90784142062921
 20
332.55467804910154
 11
623.90784142062921
 21
333.05467804910154
  0
ARC
  8
_0-1_dxfile
  6
CONTINUOUS
 62
    3
 10
622.90784142062921
 20
333.05467804910154
 40
1
 50
0
 51
90
  0
LINE
  8
_0-1_dxfile
  6
CONTINUOUS
 62
    3
 10
684.40784142062921
 20
334.05467804910154
 11
684.40784142062921
 21
351.41168904910154
  0
LINE
  8
_0-1_dxfile
  6
CONTINUOUS
 62
    3
 10
618.31584142062934
 20
335.98567804910152
 11
679.85984142062921
 21
335.98567804910152
  0
LINE
  8
_0-1_dxfile
  6
CONTINUOUS
 62
    3
 10
679.85984142062921
 20
334.05467804910154
 11
679.85984142062921
 21
335.98567804910152
  0
LINE
  8
_0-1_dxfile
  6
CONTINUOUS
 62
    3
 10
622.87484142062908
 20
334.05467804910154
 11
674.87194342062935
 21
334.05467804910154
  0
LINE
  8
_0-1_dxfile
  6
CONTINUOUS
 62
    3
 10
684.40784142062921
 20
334.05467804910154
 11
674.90784142062921
 21
334.05467804910154
  0
ARC
  8
_0-1_dxfile
  6
CONTINUOUS
 62
    3
 10
674.90784142062921
 20
333.05467804910154
 40
1
 50
90
 51
180
  0
LINE
  8
_0-1_dxfile
  6
CONTINUOUS
 62
    3
 10
668.8988414206292
 20
330.54867804910151
 11
665.39284142062934
 21
334.05467804910154
  0
LINE
  8
_0-1_dxfile
  6
CONTINUOUS
 62
    3
 10
673.90784142062921
 20
332.55467804910154
 11
673.90784142062921
 21
333.05467804910154
  0
LINE
  8
_0-1_dxfile
  6
CONTINUOUS
 62
    3
 10
669.89284642062921
 20
332.55467804910154
 11
668.39386542062925
 21
334.05467804910154
  0
LINE
  8
_0-1_dxfile
  6
CONTINUOUS
 62
    3
 10
655.79684142062911
 20
314.89567804910155
 11
655.79684142062911
 21
334.05467804910154
  0
LINE
  8
_0-1_dxfile
  6
CONTINUOUS
 62
    3
 10
618.31584142062934
 20
334.05467804910154
 11
618.31584142062934
 21
335.98567804910152
  0
LINE
  8
_0-1_dxfile
  6
CONTINUOUS
 62
    3
 10
616.40784142062921
 20
334.05467804910154
 11
622.87484142062908
 21
334.05467804910154
  0
LINE
  8
_0-1_dxfile
  6
CONTINUOUS
 62
    3
 10
616.40784142062921
 20
334.05467804910154
 11
616.40784142062921
 21
340.57351904910155
  0
LINE
  8
_0-1_dxfile
  6
CONTINUOUS
 62
    3
 10
629.07584142062933
 20
332.55467804910154
 11
615.20784142062917
 21
332.55467804910154
  0
LINE
  8
_0-1_dxfile
  6
CONTINUOUS
 62
    3
 10
614.90784142062921
 20
340.3081370491015
 11
614.90784142062921
 21
332.85467804910155
  0
ARC
  8
_0-1_dxfile
  6
CONTINUOUS
 62
    3
 10
615.20784142062917
 20
332.85467804910155
 40
0.2999999999999999
 50
180
 51
270
  0
LINE
  8
_0-1_dxfile
  6
CONTINUOUS
 62
    3
 10
669.89284642062921
 20
332.55467804910154
 11
685.60784142062926
 21
332.55467804910154
  0
LINE
  8
_0-1_dxfile
  6
CONTINUOUS
 62
    3
 10
685.90784142062921
 20
354.55467804910154
 11
685.90784142062921
 21
332.85467804910155
  0
ARC
  8
_0-1_dxfile
  6
CONTINUOUS
 62
    3
 10
685.60784142062926
 20
332.85467804910155
 40
0.2999999999999999
 50
270
 51
0
  0
LINE
  8
_0-1_dxfile
  6
CONTINUOUS
 62
    3
 10
571.15557742062924
 20
334.59850704910156
 11
683.90784142062921
 21
354.54673904910152
  0
LINE
  8
_0-1_dxfile
  6
CONTINUOUS
 62
    3
 10
653.79684142062933
 20
314.89567804910155
 11
655.79384142062918
 21
314.89567804910155
  0
LINE
  8
_0-1_dxfile
  6
CONTINUOUS
 62
    3
 10
653.79684142062933
 20
314.89567804910155
 11
653.79684142062933
 21
334.05467804910154
  0
LINE
  8
_0-1_dxfile
  6
CONTINUOUS
 62
    3
 10
572.90784142062921
 20
332.8774600491015
 11
614.90784142062921
 21
340.3081370491015
  0
LINE
  8
_0-1_dxfile
  6
CONTINUOUS
 62
    3
 10
616.40784142062921
 20
340.57351904910155
 11
683.23362642062921
 21
352.39639604910155
  0
LINE
  8
_0-1_dxfile
  6
CONTINUOUS
 62
    3
 10
584.40784142062921
 20
319.55467804910154
 11
584.40784142062921
 21
304.85467804910155
  0
ARC
  8
_0-1_dxfile
  6
CONTINUOUS
 62
    3
 10
584.70784142062917
 20
304.85467804910155
 40
0.2999999999999999
 50
180
 51
270
  0
ARC
  8
_0-1_dxfile
  6
CONTINUOUS
 62
    3
 10
683.40784142062921
 20
351.41168904910154
 40
1
 50
0
 51
100.033
  0
LINE
  8
_0-1_dxfile
  6
CONTINUOUS
 62
    4
 10
643.79684142062933
 20
242.45162704910152
 11
643.79684142062933
 21
328.50282504910155
  0
LINE
  8
_0-1_dxfile
  6
CONTINUOUS
 62
    4
 10
643.79684142062933
 20
328.50282504910155
 11
653.79684142062933
 21
328.50282504910155
  0
LINE
  8
_0-1_dxfile
  6
CONTINUOUS
 62
    4
 10
653.79684142062933
 20
328.50282504910155
 11
653.79684142062933
 21
242.45162704910152
  0
LINE
  8
_0-1_dxfile
  6
CONTINUOUS
 62
    6
 10
697.87484142062908
 20
367.5226780491015
 11
773.44202542062931
 21
367.5226780491015
  0
LINE
  8
_0-1_dxfile
  6
CONTINUOUS
 62
    6
 10
697.90784142062921
 20
374.32267804910151
 11
773.44202542062931
 21
374.32267804910151
  0
LINE
  8
_0-1_dxfile
  6
CONTINUOUS
 62
    6
 10
571.20784142062917
 20
319.55467804910154
 11
569.86634542062916
 21
301.23757104910152
  0
LINE
  8
_0-1_dxfile
  6
CONTINUOUS
 62
    6
 10
570.66238542062933
 20
312.10689504910152
 11
577.93424242062906
 21
319.37875204910154
  0
LINE
  8
_0-1_dxfile
  6
CONTINUOUS
 62
    6
 10
577.93424242062906
 20
313.77225704910154
 11
572.15182142062918
 21
319.55467804910154
  0
LINE
  8
_0-1_dxfile
  6
CONTINUOUS
 62
    6
 10
570.22203442062937
 20
306.09423404910154
 11
577.93424242062906
 21
313.80644304910152
  0
LINE
  8
_0-1_dxfile
  6
CONTINUOUS
 62
    6
 10
577.93424242062906
 20
308.71273604910152
 11
570.92699842062916
 21
315.71998004910154
  0
LINE
  8
_0-1_dxfile
  6
CONTINUOUS
 62
    6
 10
570.54208042062942
 20
310.46421704910153
 11
577.93424242062906
 21
303.07205504910155
  0
LINE
  8
_0-1_dxfile
  6
CONTINUOUS
 62
    6
 10
570.17815742062908
 20
305.49513204910153
 11
573.75081842062923
 21
301.92247104910155
  0
LINE
  8
_0-1_dxfile
  6
CONTINUOUS
 62
    6
 10
577.93424242062906
 20
307.58460004910154
 11
571.95558242062907
 21
301.60594004910155
  0
LINE
  8
_0-1_dxfile
  6
CONTINUOUS
 62
    6
 10
685.90784142062921
 20
304.60496204910152
 11
685.90784142062921
 21
332.55467804910154
  0
TEXT
  8
_0-1_dxfile
 62
    7
 10
613.12151642062918
 20
81.059467049101499
 40
6.7279999999999989
 41
0.8582679999999999
 50
0
  1
断面詳細図Ｓ１：２
  0
LINE
  8
_0-1_dxfile
  6
CONTINUOUS
 62
    3
 10
609.08448842062921
 20
78.322434049101531
 11
609.08448842062921
 21
90.944162049101521
  0
LINE
  8
_0-1_dxfile
  6
CONTINUOUS
 62
    3
 10
667.09297042062917
 20
78.322434049101531
 11
609.08448842062921
 21
78.322434049101531
  0
LINE
  8
_0-1_dxfile
  6
CONTINUOUS
 62
    3
 10
667.09297042062917
 20
90.944162049101521
 11
667.09297042062917
 21
78.322434049101531
  0
LINE
  8
_0-1_dxfile
  6
CONTINUOUS
 62
    3
 10
667.09297042062917
 20
90.944162049101521
 11
609.08448842062921
 21
90.944162049101521
  0
LINE
  8
_0-1_dxfile
  6
PLine3
 62
    3
 10
648.79684142062933
 20
332.3144420491015
 11
648.79684142062933
 21
228.77588604910153
  0
INSERT
  2
-006-DIM_6
  8
_0-1_dxfile
 10
648.79684142062933
 20
224.77588604910153
 41
1
 42
1
 50
0
  0
INSERT
  2
-007-DIM_7
  8
_0-1_dxfile
 10
665.90784142062921
 20
459.25841704910152
 41
1
 42
1
 50
0
  0
CIRCLE
  8
_0-1_dxfile
  6
CONTINUOUS
 62
    3
 10
700.90784142062921
 20
506.86792404910153
 40
1
  0
LINE
  8
_0-1_dxfile
  6
CONTINUOUS
 62
    3
 10
700.90784142062921
 20
506.86792404910153
 11
789.85672342062935
 21
506.86792404910153
  0
TEXT
  8
_0-1_dxfile
 62
    7
 10
720.74999082062914
 20
507.86792404910153
 40
7
 41
0.8582679999999999
 50
0
  1
Ａ　ドーム寸法
  0
CIRCLE
  8
_0-1_dxfile
  6
CONTINUOUS
 62
    3
 10
784.75570442062917
 20
506.86792404910153
 40
4.2421648006521764
  0
CIRCLE
  8
_0-1_dxfile
  6
CONTINUOUS
 62
    3
 10
788.64219542062915
 20
506.86792404910153
 40
4.6723834660731427
  0
INSERT
  2
-008-DIM_8
  8
_0-1_dxfile
 10
685.90784142062921
 20
375.69218604910151
 41
1
 42
1
 50
0
  0
CIRCLE
  8
_0-1_dxfile
  6
CONTINUOUS
 62
    3
 10
697.90784142062921
 20
389.29489704910151
 40
1
  0
LINE
  8
_0-1_dxfile
  6
CONTINUOUS
 62
    3
 10
697.90784142062921
 20
389.29489704910151
 11
779.77219842062937
 21
389.29489704910151
  0
TEXT
  8
_0-1_dxfile
 62
    7
 10
723.67511088729589
 20
389.6394370491015
 40
7
 41
0.8582679999999999
 50
0
  1
Ｇ　硝子寸法
  0
CIRCLE
  8
_0-1_dxfile
  6
CONTINUOUS
 62
    3
 10
776.61442642062934
 20
389.29489704910151
 40
4.372299873463021
  0
INSERT
  2
-009-DIM_9
  8
_0-1_dxfile
 10
535.90784142062921
 20
125.93723004910152
 41
1
 42
1
 50
0
  0
CIRCLE
  8
_0-1_dxfile
  6
CONTINUOUS
 62
    3
 10
585.90784142062921
 20
161.72665404910154
 40
1
  0
LINE
  8
_0-1_dxfile
  6
CONTINUOUS
 62
    3
 10
585.90784142062921
 20
161.72665404910154
 11
801.91384342062929
 21
161.72665404910154
  0
LINE
  8
_0-1_dxfile
  6
CONTINUOUS
 62
    3
 10
585.90784142062921
 20
295.51446204910155
 11
585.90784142062921
 21
159.72665404910154
  0
TEXT
  8
_0-1_dxfile
 62
    7
 10
721.99469175396257
 20
162.71246504910152
 40
7
 41
0.8582679999999999
 50
0
  1
Ｗ　フレーム寸法
  0
CIRCLE
  8
_0-1_dxfile
  6
CONTINUOUS
 62
    3
 10
685.90784142062921
 20
187.82002104910154
 40
1
  0
LINE
  8
_0-1_dxfile
  6
CONTINUOUS
 62
    3
 10
685.90784142062921
 20
187.82002104910154
 11
791.95092142062913
 21
187.82002104910154
  0
TEXT
  8
_0-1_dxfile
 62
    7
 10
720.5596531539627
 20
188.47548004910152
 40
7
 41
0.8582679999999999
 50
0
  1
Ｊ　躯体開口寸法
  0
CIRCLE
  8
_0-1_dxfile
  6
CONTINUOUS
 62
    3
 10
781.84849242062933
 20
187.82002104910154
 40
5.2401937435312087
  0
CIRCLE
  8
_0-1_dxfile
  6
CONTINUOUS
 62
    3
 10
787.54159042062929
 20
187.34559604910152
 40
6.6079735188374116
  0
CIRCLE
  8
_0-1_dxfile
  6
CONTINUOUS
 62
    3
 10
788.01601542062917
 20
161.72665404910154
 40
7.0528324352082716
  0
CIRCLE
  8
_0-1_dxfile
  6
CONTINUOUS
 62
    3
 10
794.65796342062913
 20
162.67550404910142
 40
6.7927301099558157
  0
LINE
  8
_0-1_dxfile
  6
CONTINUOUS
 62
    3
 10
721.98091042062924
 20
199.68854904910154
 11
726.59611442062919
 21
199.68854904910154
  0
LINE
  8
_0-1_dxfile
  6
CONTINUOUS
 62
    3
 10
726.59611442062919
 20
199.68854904910154
 11
726.59611442062919
 21
194.83043904910153
  0
LINE
  8
_0-1_dxfile
  6
CONTINUOUS
 62
    3
 10
726.59611442062919
 20
194.83043904910153
 11
721.98091042062924
 21
194.83043904910153
  0
LINE
  8
_0-1_dxfile
  6
CONTINUOUS
 62
    3
 10
721.98091042062924
 20
194.83043904910153
 11
721.98091042062924
 21
199.68854904910154
  0
LINE
  8
_0-1_dxfile
  6
CONTINUOUS
 62
    3
 10
722.49393442062933
 20
174.88833804910152
 11
727.10913942062916
 21
174.88833804910152
  0
LINE
  8
_0-1_dxfile
  6
CONTINUOUS
 62
    3
 10
727.10913942062916
 20
174.88833804910152
 11
727.10913942062916
 21
170.03022804910154
  0
LINE
  8
_0-1_dxfile
  6
CONTINUOUS
 62
    3
 10
727.10913942062916
 20
170.03022804910154
 11
722.49393442062933
 21
170.03022804910154
  0
LINE
  8
_0-1_dxfile
  6
CONTINUOUS
 62
    3
 10
722.49393442062933
 20
170.03022804910154
 11
722.49393442062933
 21
174.88833804910152
  0
LINE
  8
_0-1_dxfile
  6
CONTINUOUS
 62
    3
 10
721.58535042062908
 20
518.30547204910158
 11
725.7827574206292
 21
518.30547204910158
  0
LINE
  8
_0-1_dxfile
  6
CONTINUOUS
 62
    3
 10
725.7827574206292
 20
518.30547204910158
 11
725.7827574206292
 21
513.95260604910163
  0
LINE
  8
_0-1_dxfile
  6
CONTINUOUS
 62
    3
 10
725.7827574206292
 20
513.95260604910163
 11
721.58535042062908
 21
513.95260604910163
  0
LINE
  8
_0-1_dxfile
  6
CONTINUOUS
 62
    3
 10
721.58535042062908
 20
513.95260604910163
 11
721.58535042062908
 21
518.30547204910158
  0
LINE
  8
_0-1_dxfile
  6
CONTINUOUS
 62
    3
 10
722.19147142062911
 20
401.28081304910154
 11
726.59352742062924
 21
401.28081304910154
  0
LINE
  8
_0-1_dxfile
  6
CONTINUOUS
 62
    3
 10
726.59352742062924
 20
401.28081304910154
 11
726.59352742062924
 21
397.05231504910154
  0
LINE
  8
_0-1_dxfile
  6
CONTINUOUS
 62
    3
 10
726.59352742062924
 20
397.05231504910154
 11
722.19147142062911
 21
397.05231504910154
  0
LINE
  8
_0-1_dxfile
  6
CONTINUOUS
 62
    3
 10
722.19147142062911
 20
397.05231504910154
 11
722.19147142062911
 21
401.28081304910154
  0
LINE
  8
_0-1_dxfile
  6
CONTINUOUS
 62
    3
 10
543.33797242062928
 20
296.96069704910155
 11
546.20399742062932
 21
293.99659504910153
  0
LINE
  8
_0-1_dxfile
  6
CONTINUOUS
 62
    3
 10
546.20399742062932
 20
293.99659504910153
 11
536.78342642062921
 21
310.31350304910154
  0
LINE
  8
_0-1_dxfile
  6
CONTINUOUS
 62
    3
 10
536.78342642062921
 20
310.31350304910154
 11
485.28736342062916
 21
310.31350304910154
  0
TEXT
  8
_0-1_dxfile
 62
    7
 10
469.49521522062929
 20
311.31350304910154
 40
7
 41
0.8582679999999999
 50
-0.0000000000000135
  1
防水モルタル（別途）
  0
LINE
  8
_0-1_dxfile
  6
CONTINUOUS
 62
    3
 10
642.51490642062936
 20
264.95167504910154
 11
643.64888042062921
 21
268.91577604910151
  0
LINE
  8
_0-1_dxfile
  6
CONTINUOUS
 62
    3
 10
643.64888042062921
 20
268.91577604910151
 11
629.62472742062937
 21
244.62523004910153
  0
LINE
  8
_0-1_dxfile
  6
CONTINUOUS
 62
    3
 10
629.62472742062937
 20
244.62523004910153
 11
593.57748242062917
 21
244.62523004910153
  0
TEXT
  8
_0-1_dxfile
 62
    7
 10
591.17432102062935
 20
245.62523004910153
 40
7
 41
0.8582679999999999
 50
-0.0000000000000112
  1
差筋（別途）
  0
LINE
  8
_0-1_dxfile
  6
CONTINUOUS
 62
    3
 10
653.60880442062921
 20
451.34293904910152
 11
657.90784242062909
 21
446.89678704910142
  0
LINE
  8
_0-1_dxfile
  6
CONTINUOUS
 62
    3
 10
657.90784242062909
 20
446.89678704910142
 11
628.54211442062933
 21
497.75972004910142
  0
LINE
  8
_0-1_dxfile
  6
CONTINUOUS
 62
    3
 10
628.54211442062933
 20
497.75972004910142
 11
561.5972324206291
 21
497.75972004910142
  0
LINE
  8
_0-1_dxfile
  6
CONTINUOUS
 62
    3
 10
567.43644542062907
 20
311.97911804910154
 11
570.30247042062933
 21
309.01501604910152
  0
LINE
  8
_0-1_dxfile
  6
CONTINUOUS
 62
    3
 10
570.30247042062933
 20
309.01501604910152
 11
558.88482342062935
 21
328.79096204910155
  0
LINE
  8
_0-1_dxfile
  6
CONTINUOUS
 62
    3
 10
558.88482342062935
 20
328.79096204910155
 11
500.23915342062918
 21
328.79096204910155
  0
TEXT
  8
_0-1_dxfile
 62
    7
 10
500.23915342062918
 20
329.79096204910155
 40
7
 41
0.8582679999999999
 50
-0.0000000000000123
  1
シーリング処理（別途）
  0
LINE
  8
_0-1_dxfile
  6
CONTINUOUS
 62
    3
 10
597.46511942062921
 20
342.44654104910154
 11
600.33114442062924
 21
339.48243904910152
  0
LINE
  8
_0-1_dxfile
  6
CONTINUOUS
 62
    3
 10
600.33114442062924
 20
339.48243904910152
 11
592.19435542062911
 21
353.57577204910154
  0
LINE
  8
_0-1_dxfile
  6
CONTINUOUS
 62
    3
 10
592.19435542062911
 20
353.57577204910154
 11
508.0841184206293
 21
353.57577204910154
  0
TEXT
  8
_0-1_dxfile
 62
    7
 10
508.0841184206293
 20
354.57577204910154
 40
7
 41
0.8582679999999999
 50
-0.0000000000000145
  1
トップライトフレーム　アルミ
  0
LINE
  8
_0-1_dxfile
  6
CONTINUOUS
 62
    3
 10
725.81237742062922
 20
365.64626804910154
 11
722.9463514206293
 21
368.61036904910151
  0
LINE
  8
_0-1_dxfile
  6
CONTINUOUS
 62
    3
 10
722.9463514206293
 20
368.61036904910151
 11
737.7526774206292
 21
342.96506104910162
  0
LINE
  8
_0-1_dxfile
  6
CONTINUOUS
 62
    3
 10
737.7526774206292
 20
342.96506104910162
 11
794.3983464206292
 21
342.96506104910162
  0
TEXT
  8
_0-1_dxfile
 62
    7
 10
737.7526774206292
 20
343.96506104910151
 40
7
 41
0.8582679999999999
 50
0
  1
６．８網入り硝子（別途）
  0
LINE
  8
_0-1_dxfile
  6
CONTINUOUS
 62
    3
 10
714.20840642062922
 20
234.47042104910153
 11
711.34238142062918
 21
237.43452204910153
  0
LINE
  8
_0-1_dxfile
  6
CONTINUOUS
 62
    3
 10
711.34238142062918
 20
237.43452204910153
 11
721.98401042062937
 21
219.00267904910152
  0
LINE
  8
_0-1_dxfile
  6
CONTINUOUS
 62
    3
 10
721.98401042062937
 20
219.00267904910152
 11
758.03125442062924
 21
219.00267904910152
  0
TEXT
  8
_0-1_dxfile
 62
    7
 10
721.98401042062937
 20
220.00267904910152
 40
7
 41
0.8582679999999999
 50
0
  1
内装仕上げ面
  0
INSERT
  2
-010-DIM_10
  8
_0-1_dxfile
 10
685.90784142062921
 20
222.15334704910154
 41
1
 42
1
 50
0
  0
LINE
  8
_0-1_dxfile
  6
CONTINUOUS
 62
    3
 10
704.6737454206293
 20
361.62875904910152
 11
701.80771942062916
 21
364.59286004910155
  0
LINE
  8
_0-1_dxfile
  6
CONTINUOUS
 62
    3
 10
701.80771942062916
 20
364.59286004910155
 11
729.95559742062937
 21
315.83930604910154
  0
LINE
  8
_0-1_dxfile
  6
CONTINUOUS
 62
    3
 10
729.95559742062937
 20
315.83930604910154
 11
763.1693804206293
 21
315.83930604910154
  0
TEXT
  8
_0-1_dxfile
 62
    7
 10
732.27174242062915
 20
316.83930604910154
 40
7
 41
0.8582679999999999
 50
0
  1
硝子パッキン
  0
LINE
  8
_0-1_dxfile
  6
CONTINUOUS
 62
    3
 10
648.8980694206291
 20
445.12665104910144
 11
651.76409442062936
 21
442.16254904910153
  0
LINE
  8
_0-1_dxfile
  6
CONTINUOUS
 62
    3
 10
651.76409442062936
 20
442.16254904910153
 11
632.96669342062933
 21
474.72060304910156
  0
LINE
  8
_0-1_dxfile
  6
CONTINUOUS
 62
    3
 10
632.96669342062933
 20
474.72060304910156
 11
554.86433142062924
 21
474.72060304910156
  0
LINE
  8
_0-1_dxfile
  6
CONTINUOUS
 62
    3
 10
685.98571342062928
 20
323.49144004910153
 11
683.11968742062913
 21
326.45554204910144
  0
LINE
  8
_0-1_dxfile
  6
CONTINUOUS
 62
    3
 10
683.11968742062913
 20
326.45554204910144
 11
722.7972934206291
 21
257.73191304910154
  0
LINE
  8
_0-1_dxfile
  6
CONTINUOUS
 62
    3
 10
722.7972934206291
 20
257.73191304910154
 11
782.87603342062926
 21
257.73191304910154
  0
TEXT
  8
_0-1_dxfile
 62
    7
 10
722.7972934206291
 20
258.73191304910154
 40
7
 41
0.8582679999999999
 50
0
  1
モルタル充填（別途）
  0
INSERT
  2
-011-DIM_11
  8
_0-1_dxfile
 10
61.947881420629244
 20
162.68095104910154
 41
1
 42
1
 50
0
  0
LINE
  8
_0-1_dxfile
  6
PLine2
 62
    3
 10
61.947881420629244
 20
181.18335704910152
 11
61.947881420629244
 21
163.09928604910152
  0
LINE
  8
_0-1_dxfile
  6
PLine2
 62
    3
 10
263.94788142062924
 20
181.18335704910152
 11
263.94788142062924
 21
161.17646204910153
  0
LINE
  8
_0-1_dxfile
  6
CONTINUOUS
 62
    3
 10
255.94788142062924
 20
142.99362304910153
 11
270.27419342062927
 21
128.66731104910153
  0
LINE
  8
_0-1_dxfile
  6
CONTINUOUS
 62
    3
 10
255.94788142062924
 20
144.09770104910152
 11
271.37827142062929
 21
128.66731104910153
  0
LINE
  8
_0-1_dxfile
  6
CONTINUOUS
 62
    3
 10
255.94788142062924
 20
145.03192204910152
 11
272.31249242062927
 21
128.66731104910153
  0
LINE
  8
_0-1_dxfile
  6
CONTINUOUS
 62
    3
 10
64.347881420629278
 20
194.37421104910152
 11
64.347881420629278
 21
193.41872504910154
  0
LINE
  8
_0-1_dxfile
  6
CONTINUOUS
 62
    3
 10
67.547881420629267
 20
193.41872504910154
 11
67.547881420629267
 21
194.37421104910152
  0
LINE
  8
_0-1_dxfile
  6
CONTINUOUS
 62
    3
 10
67.547881420629267
 20
194.37421104910152
 11
64.347881420629278
 21
194.37421104910152
  0
LINE
  8
_0-1_dxfile
  6
CONTINUOUS
 62
    3
 10
67.547881420629267
 20
193.41872504910154
 11
67.297576420629298
 21
193.27421104910152
  0
LINE
  8
_0-1_dxfile
  6
CONTINUOUS
 62
    3
 10
67.297576420629298
 20
193.27421104910152
 11
65.947881420629244
 21
193.27421104910152
  0
LINE
  8
_0-1_dxfile
  6
CONTINUOUS
 62
    3
 10
66.747881420629255
 20
194.37421104910152
 11
66.747881420629255
 21
193.41147004910152
  0
ARC
  8
_0-1_dxfile
  6
CONTINUOUS
 62
    3
 10
65.947881420629244
 20
195.67421104910153
 40
2.3999999040482591
 50
270
 51
289.47122100000001
  0
ARC
  8
_0-1_dxfile
  6
CONTINUOUS
 62
    3
 10
67.133815420629276
 20
193.88541104910152
 40
0.6111999755628169
 50
230.84386799999996
 51
270
  0
LINE
  8
_0-1_dxfile
  6
CONTINUOUS
 62
    3
 10
64.347881420629278
 20
193.41872504910154
 11
64.598187420629301
 21
193.27421104910152
  0
LINE
  8
_0-1_dxfile
  6
CONTINUOUS
 62
    3
 10
64.598187420629301
 20
193.27421104910152
 11
65.947881420629244
 21
193.27421104910152
  0
ARC
  8
_0-1_dxfile
  6
CONTINUOUS
 62
    3
 10
65.947881420629244
 20
195.67421104910153
 40
2.399999903947768
 50
250.52877900000004
 51
270.00000000000006
  0
ARC
  8
_0-1_dxfile
  6
CONTINUOUS
 62
    3
 10
64.761948420629267
 20
193.88541104910152
 40
0.611199975538705
 50
270
 51
309.15613200000001
  0
LINE
  8
_0-1_dxfile
  6
CONTINUOUS
 62
    3
 10
65.147881420629233
 20
194.37421104910152
 11
65.147881420629233
 21
193.41147004910152
  0
ARC
  8
_0-1_dxfile
  6
CONTINUOUS
 62
    6
 10
62.147881420629233
 20
196.07421104910154
 40
0.2000000000000171
 50
90
 51
270
  0
ARC
  8
_0-1_dxfile
  6
CONTINUOUS
 62
    6
 10
69.747881420629255
 20
196.07421104910154
 40
0.2000000000080249
 50
270
 51
90
  0
LINE
  8
_0-1_dxfile
  6
CONTINUOUS
 62
    6
 10
62.147881420629233
 20
196.27421104910152
 11
69.747881420629255
 21
196.27421104910152
  0
LINE
  8
_0-1_dxfile
  6
CONTINUOUS
 62
    4
 10
61.947881420629244
 20
201.27421104910152
 11
69.947881420629244
 21
201.27421104910152
  0
LINE
  8
_0-1_dxfile
  6
CONTINUOUS
 62
    4
 10
69.947881420629244
 20
201.27421104910152
 11
69.947881420629244
 21
196.27421104910152
  0
LINE
  8
_0-1_dxfile
  6
CONTINUOUS
 62
    4
 10
69.947881420629244
 20
196.27421104910152
 11
61.947881420629244
 21
196.27421104910152
  0
LINE
  8
_0-1_dxfile
  6
CONTINUOUS
 62
    4
 10
61.947881420629244
 20
196.27421104910152
 11
61.947881420629244
 21
201.27421104910152
  0
LINE
  8
_0-1_dxfile
  6
CONTINUOUS
 62
    4
 10
62.247881420629255
 20
200.97421104910154
 11
69.647881420629233
 21
200.97421104910154
  0
LINE
  8
_0-1_dxfile
  6
CONTINUOUS
 62
    4
 10
69.647881420629233
 20
200.97421104910154
 11
69.647881420629233
 21
196.57421104910154
  0
LINE
  8
_0-1_dxfile
  6
CONTINUOUS
 62
    4
 10
69.647881420629233
 20
196.57421104910154
 11
62.247881420629255
 21
196.57421104910154
  0
LINE
  8
_0-1_dxfile
  6
CONTINUOUS
 62
    4
 10
62.247881420629255
 20
196.57421104910154
 11
62.247881420629255
 21
200.97421104910154
  0
LINE
  8
_0-1_dxfile
  6
PLine1
 62
    3
 10
65.147881420629233
 20
195.47421104910154
 11
65.147881420629233
 21
196.57421104910154
  0
LINE
  8
_0-1_dxfile
  6
CONTINUOUS
 62
    3
 10
65.147881420629233
 20
196.57421104910154
 11
65.147881420629233
 21
201.27421104910152
  0
LINE
  8
_0-1_dxfile
  6
PLine1
 62
    3
 10
65.147881420629233
 20
201.27421104910152
 11
65.147881420629233
 21
203.27421104910152
  0
LINE
  8
_0-1_dxfile
  6
PLine1
 62
    3
 10
66.747881420629255
 20
195.47421104910154
 11
66.747881420629255
 21
196.57421104910154
  0
LINE
  8
_0-1_dxfile
  6
CONTINUOUS
 62
    3
 10
66.747881420629255
 20
196.57421104910154
 11
66.747881420629255
 21
201.27421104910152
  0
LINE
  8
_0-1_dxfile
  6
PLine1
 62
    3
 10
66.747881420629255
 20
201.27421104910152
 11
66.747881420629255
 21
203.27421104910152
  0
LINE
  8
_0-1_dxfile
  6
CONTINUOUS
 62
    6
 10
261.25629542062927
 20
201.27421104910152
 11
262.43474942062926
 21
201.27421104910152
  0
LINE
  8
_0-1_dxfile
  6
CONTINUOUS
 62
    6
 10
262.43474942062926
 20
201.27421104910152
 11
257.45064642062925
 21
201.27421104910152
  0
LINE
  8
_0-1_dxfile
  6
CONTINUOUS
 62
    3
 10
262.93315942062929
 20
203.99578604910153
 11
256.95223642062928
 21
203.99578604910153
  0
LINE
  8
_0-1_dxfile
  6
CONTINUOUS
 62
    6
 10
256.95223642062928
 20
203.59578604910152
 11
262.93515342062926
 21
203.59578604910152
  0
LINE
  8
_0-1_dxfile
  6
CONTINUOUS
 62
    6
 10
257.45064642062925
 20
202.47421104910154
 11
257.45064642062925
 21
201.27421104910152
  0
LINE
  8
_0-1_dxfile
  6
CONTINUOUS
 62
    6
 10
262.43474942062926
 20
202.47421104910154
 11
262.43474942062926
 21
201.27421104910152
  0
LINE
  8
_0-1_dxfile
  6
CONTINUOUS
 62
    3
 10
256.95223642062928
 20
203.99578604910153
 11
256.95223642062928
 21
203.59578604910152
  0
LINE
  8
_0-1_dxfile
  6
CONTINUOUS
 62
    3
 10
262.93315942062929
 20
203.99578604910153
 11
262.93315942062929
 21
203.59578604910152
  0
LINE
  8
_0-1_dxfile
  6
PLine2
 62
    3
 10
259.94788142062924
 20
189.15372304910153
 11
259.94788142062924
 21
207.87421104910152
  0
LINE
  8
_0-1_dxfile
  6
CONTINUOUS
 62
    3
 10
260.74788142062937
 20
194.37548304910152
 11
260.74788142062937
 21
190.19578604910154
  0
LINE
  8
_0-1_dxfile
  6
CONTINUOUS
 62
    3
 10
260.74788142062937
 20
190.19578604910154
 11
260.54788142062927
 21
189.99578604910153
  0
LINE
  8
_0-1_dxfile
  6
CONTINUOUS
 62
    3
 10
259.14788142062929
 20
194.37548304910152
 11
259.14788142062929
 21
190.19578604910154
  0
LINE
  8
_0-1_dxfile
  6
CONTINUOUS
 62
    3
 10
259.34788142062928
 20
189.99578604910153
 11
260.54788142062927
 21
189.99578604910153
  0
LINE
  8
_0-1_dxfile
  6
CONTINUOUS
 62
    3
 10
259.14788142062929
 20
190.19578604910154
 11
259.34788142062928
 21
189.99578604910153
  0
LINE
  8
_0-1_dxfile
  6
CONTINUOUS
 62
    3
 10
261.54788142062927
 20
195.47421104910154
 11
261.54788142062927
 21
194.51872504910153
  0
LINE
  8
_0-1_dxfile
  6
CONTINUOUS
 62
    3
 10
258.34788142062928
 20
194.51872504910153
 11
258.34788142062928
 21
195.47421104910154
  0
LINE
  8
_0-1_dxfile
  6
CONTINUOUS
 62
    3
 10
258.34788142062928
 20
195.47421104910154
 11
261.54788142062927
 21
195.47421104910154
  0
LINE
  8
_0-1_dxfile
  6
CONTINUOUS
 62
    3
 10
258.34788142062928
 20
194.51872504910153
 11
258.59818742062924
 21
194.37421104910152
  0
LINE
  8
_0-1_dxfile
  6
CONTINUOUS
 62
    3
 10
258.59818742062924
 20
194.37421104910152
 11
259.94788142062924
 21
194.37421104910152
  0
LINE
  8
_0-1_dxfile
  6
CONTINUOUS
 62
    3
 10
259.14788142062929
 20
195.47421104910154
 11
259.14788142062929
 21
194.51147004910152
  0
ARC
  8
_0-1_dxfile
  6
CONTINUOUS
 62
    3
 10
259.94788142062924
 20
196.77421104910152
 40
2.399999904006465
 50
250.52877900000004
 51
270.00000000000006
  0
ARC
  8
_0-1_dxfile
  6
CONTINUOUS
 62
    3
 10
258.76194842062927
 20
194.98541104910151
 40
0.6111999756809254
 50
270
 51
309.15613200000001
  0
LINE
  8
_0-1_dxfile
  6
CONTINUOUS
 62
    3
 10
261.54788142062927
 20
194.51872504910153
 11
261.29757642062924
 21
194.37421104910152
  0
LINE
  8
_0-1_dxfile
  6
CONTINUOUS
 62
    3
 10
261.29757642062924
 20
194.37421104910152
 11
259.94788142062924
 21
194.37421104910152
  0
ARC
  8
_0-1_dxfile
  6
CONTINUOUS
 62
    3
 10
259.94788142062924
 20
196.77421104910152
 40
2.399999903943375
 50
270
 51
289.47122100000001
  0
ARC
  8
_0-1_dxfile
  6
CONTINUOUS
 62
    3
 10
261.13381542062928
 20
194.98541104910151
 40
0.611199975558667
 50
230.84386799999996
 51
270
  0
LINE
  8
_0-1_dxfile
  6
CONTINUOUS
 62
    3
 10
260.74788142062937
 20
195.47421104910154
 11
260.74788142062937
 21
194.51147004910152
  0
LINE
  8
_0-1_dxfile
  6
CONTINUOUS
 62
    3
 10
258.34788142062928
 20
203.99578604910153
 11
258.34788142062928
 21
204.95127204910153
  0
LINE
  8
_0-1_dxfile
  6
CONTINUOUS
 62
    3
 10
258.34788142062928
 20
204.95127204910153
 11
258.59818742062924
 21
205.09578604910152
  0
LINE
  8
_0-1_dxfile
  6
CONTINUOUS
 62
    3
 10
258.59818742062924
 20
205.09578604910152
 11
259.94788142062924
 21
205.09578604910152
  0
LINE
  8
_0-1_dxfile
  6
CONTINUOUS
 62
    3
 10
259.14788142062929
 20
203.99578604910153
 11
259.14788142062929
 21
204.95852804910152
  0
ARC
  8
_0-1_dxfile
  6
CONTINUOUS
 62
    3
 10
259.94788142062924
 20
202.69578604910154
 40
2.3999999039404112
 50
90
 51
109.471221
  0
ARC
  8
_0-1_dxfile
  6
CONTINUOUS
 62
    3
 10
258.76194842062927
 20
204.48458604910152
 40
0.6111999756443563
 50
50.843868000000008
 51
90
  0
LINE
  8
_0-1_dxfile
  6
CONTINUOUS
 62
    3
 10
261.54788142062927
 20
203.99578604910153
 11
261.54788142062927
 21
204.95127204910153
  0
LINE
  8
_0-1_dxfile
  6
CONTINUOUS
 62
    3
 10
261.54788142062927
 20
204.95127204910153
 11
261.29757642062924
 21
205.09578604910152
  0
LINE
  8
_0-1_dxfile
  6
CONTINUOUS
 62
    3
 10
261.29757642062924
 20
205.09578604910152
 11
259.94788142062924
 21
205.09578604910152
  0
ARC
  8
_0-1_dxfile
  6
CONTINUOUS
 62
    3
 10
259.94788142062924
 20
202.69578604910154
 40
2.39999990400882
 50
70.528779
 51
90
  0
ARC
  8
_0-1_dxfile
  6
CONTINUOUS
 62
    3
 10
261.13381542062928
 20
204.48458604910152
 40
0.6111999756233296
 50
90
 51
129.15613200000004
  0
LINE
  8
_0-1_dxfile
  6
CONTINUOUS
 62
    3
 10
260.74788142062937
 20
203.99578604910153
 11
260.74788142062937
 21
204.95852804910152
  0
LINE
  8
_0-1_dxfile
  6
CONTINUOUS
 62
    3
 10
261.54788142062927
 20
203.99578604910153
 11
258.34788142062928
 21
203.99578604910153
  0
LINE
  8
_0-1_dxfile
  6
CONTINUOUS
 62
    6
 10
262.93315942062929
 20
203.59578604910152
 11
256.95223642062928
 21
203.59578604910152
  0
LINE
  8
_0-1_dxfile
  6
CONTINUOUS
 62
    6
 10
256.95223642062928
 20
203.59578604910152
 11
256.95223642062928
 21
203.27421104910152
  0
LINE
  8
_0-1_dxfile
  6
CONTINUOUS
 62
    6
 10
262.93315942062929
 20
203.27421104910152
 11
262.93315942062929
 21
203.59578604910152
  0
LINE
  8
_0-1_dxfile
  6
CONTINUOUS
 62
    6
 10
262.93315942062929
 20
203.49578604910153
 11
256.95223642062928
 21
203.49578604910153
  0
LINE
  8
_0-1_dxfile
  6
CONTINUOUS
 62
    6
 10
262.93315942062929
 20
203.39578604910153
 11
256.95223642062928
 21
203.39578604910153
  0
LINE
  8
_0-1_dxfile
  6
CONTINUOUS
 62
    6
 10
258.86633242062925
 20
201.27421104910152
 11
257.66633242062926
 21
202.47421104910154
  0
LINE
  8
_0-1_dxfile
  6
CONTINUOUS
 62
    6
 10
260.69186242062926
 20
201.27421104910152
 11
259.49186242062916
 21
202.47421104910154
  0
LINE
  8
_0-1_dxfile
  6
CONTINUOUS
 62
    6
 10
262.2233924206293
 20
201.27421104910152
 11
261.02339242062925
 21
202.47421104910154
  0
LINE
  8
_0-1_dxfile
  6
CONTINUOUS
 62
    6
 10
261.16573342062929
 20
201.27421104910152
 11
262.36573342062928
 21
202.47421104910154
  0
LINE
  8
_0-1_dxfile
  6
CONTINUOUS
 62
    6
 10
260.52652942062929
 20
202.47421104910154
 11
259.32652942062924
 21
201.27421104910152
  0
LINE
  8
_0-1_dxfile
  6
CONTINUOUS
 62
    6
 10
257.61039442062929
 20
201.27421104910152
 11
258.81039442062928
 21
202.47421104910154
  0
LINE
  8
_0-1_dxfile
  6
CONTINUOUS
 62
    3
 10
263.54788142062927
 20
195.47421104910154
 11
257.34788142062928
 21
195.47421104910154
  0
LINE
  8
_0-1_dxfile
  6
CONTINUOUS
 62
    3
 10
263.54788142062927
 20
195.47421104910154
 11
263.54788142062927
 21
194.27421104910152
  0
LINE
  8
_0-1_dxfile
  6
CONTINUOUS
 62
    3
 10
263.54788142062927
 20
194.27421104910152
 11
262.94788142062924
 21
194.27421104910152
  0
LINE
  8
_0-1_dxfile
  6
CONTINUOUS
 62
    3
 10
262.94788142062924
 20
194.27421104910152
 11
262.94788142062924
 21
194.07421104910154
  0
LINE
  8
_0-1_dxfile
  6
CONTINUOUS
 62
    3
 10
262.94788142062924
 20
194.07421104910154
 11
263.54788142062927
 21
194.07421104910154
  0
LINE
  8
_0-1_dxfile
  6
CONTINUOUS
 62
    3
 10
257.34788142062928
 20
195.47421104910154
 11
256.34788142062928
 21
195.47421104910154
  0
LINE
  8
_0-1_dxfile
  6
CONTINUOUS
 62
    3
 10
256.34788142062928
 20
194.07421104910154
 11
256.34788142062928
 21
192.07421104910154
  0
LINE
  8
_0-1_dxfile
  6
CONTINUOUS
 62
    3
 10
256.94788142062924
 20
194.07421104910154
 11
256.34788142062928
 21
194.07421104910154
  0
LINE
  8
_0-1_dxfile
  6
CONTINUOUS
 62
    3
 10
256.94788142062924
 20
194.27421104910152
 11
256.94788142062924
 21
194.07421104910154
  0
LINE
  8
_0-1_dxfile
  6
CONTINUOUS
 62
    3
 10
256.94788142062924
 20
194.27421104910152
 11
256.34788142062928
 21
194.27421104910152
  0
LINE
  8
_0-1_dxfile
  6
CONTINUOUS
 62
    3
 10
256.34788142062928
 20
194.27421104910152
 11
256.34788142062928
 21
195.47421104910154
  0
ARC
  8
_0-1_dxfile
  6
CONTINUOUS
 62
    3
 10
263.88788142062924
 20
195.81421104910143
 40
0.0600000001037325
 50
0
 51
90
  0
LINE
  8
_0-1_dxfile
  6
CONTINUOUS
 62
    3
 10
263.94788142062924
 20
195.81421104910143
 11
263.94788142062924
 21
193.93421104910152
  0
ARC
  8
_0-1_dxfile
  6
CONTINUOUS
 62
    3
 10
263.88788142062924
 20
193.93421104910152
 40
0.0599999999227573
 50
270
 51
0
  0
LINE
  8
_0-1_dxfile
  6
CONTINUOUS
 62
    3
 10
263.88788142062924
 20
193.87421104910152
 11
263.60788142062927
 21
193.87421104910152
  0
LINE
  8
_0-1_dxfile
  6
CONTINUOUS
 62
    3
 10
263.54788142062927
 20
194.07421104910154
 11
263.54788142062927
 21
193.93421104910152
  0
ARC
  8
_0-1_dxfile
  6
CONTINUOUS
 62
    3
 10
263.60788142062927
 20
193.93421104910152
 40
0.0599999996945538
 50
180
 51
270
  0
LINE
  8
_0-1_dxfile
  6
CONTINUOUS
 62
    3
 10
263.88788142062924
 20
195.87421104910152
 11
256.00788142062936
 21
195.87421104910152
  0
ARC
  8
_0-1_dxfile
  6
CONTINUOUS
 62
    3
 10
256.00788142062936
 20
195.81421104910143
 40
0.059999999886502
 50
90
 51
180
  0
LINE
  8
_0-1_dxfile
  6
CONTINUOUS
 62
    3
 10
261.54788142062927
 20
194.37421104910152
 11
261.54788142062927
 21
193.41872504910154
  0
LINE
  8
_0-1_dxfile
  6
CONTINUOUS
 62
    3
 10
258.34788142062928
 20
193.41872504910154
 11
258.34788142062928
 21
194.37421104910152
  0
LINE
  8
_0-1_dxfile
  6
CONTINUOUS
 62
    3
 10
258.34788142062928
 20
194.37421104910152
 11
261.54788142062927
 21
194.37421104910152
  0
LINE
  8
_0-1_dxfile
  6
CONTINUOUS
 62
    3
 10
258.34788142062928
 20
193.41872504910154
 11
258.59818742062924
 21
193.27421104910152
  0
LINE
  8
_0-1_dxfile
  6
CONTINUOUS
 62
    3
 10
258.59818742062924
 20
193.27421104910152
 11
259.94788142062924
 21
193.27421104910152
  0
LINE
  8
_0-1_dxfile
  6
CONTINUOUS
 62
    3
 10
259.14788142062929
 20
194.37421104910152
 11
259.14788142062929
 21
193.41147004910152
  0
ARC
  8
_0-1_dxfile
  6
CONTINUOUS
 62
    3
 10
259.94788142062924
 20
195.67421104910153
 40
2.3999999040409841
 50
250.52877900000004
 51
270.00000000000006
  0
ARC
  8
_0-1_dxfile
  6
CONTINUOUS
 62
    3
 10
258.76194842062927
 20
193.88541104910152
 40
0.6111999754435202
 50
270
 51
309.15613200000001
  0
LINE
  8
_0-1_dxfile
  6
CONTINUOUS
 62
    3
 10
261.54788142062927
 20
193.41872504910154
 11
261.29757642062924
 21
193.27421104910152
  0
LINE
  8
_0-1_dxfile
  6
CONTINUOUS
 62
    3
 10
261.29757642062924
 20
193.27421104910152
 11
259.94788142062924
 21
193.27421104910152
  0
ARC
  8
_0-1_dxfile
  6
CONTINUOUS
 62
    3
 10
259.94788142062924
 20
195.67421104910153
 40
2.3999999039719628
 50
270
 51
289.47122100000001
  0
ARC
  8
_0-1_dxfile
  6
CONTINUOUS
 62
    3
 10
261.13381542062928
 20
193.88541104910152
 40
0.6111999756805073
 50
230.84386799999996
 51
270
  0
LINE
  8
_0-1_dxfile
  6
CONTINUOUS
 62
    3
 10
260.74788142062937
 20
194.37421104910152
 11
260.74788142062937
 21
193.41147004910152
  0
ARC
  8
_0-1_dxfile
  6
CONTINUOUS
 62
    6
 10
263.74788142062926
 20
196.07421104910154
 40
0.2000000000107604
 50
270
 51
90
  0
ARC
  8
_0-1_dxfile
  6
CONTINUOUS
 62
    6
 10
256.14788142062929
 20
196.07421104910154
 40
0.1999999999724763
 50
90
 51
270
  0
LINE
  8
_0-1_dxfile
  6
CONTINUOUS
 62
    6
 10
263.74788142062926
 20
196.27421104910152
 11
256.14788142062929
 21
196.27421104910152
  0
LINE
  8
_0-1_dxfile
  6
CONTINUOUS
 62
    4
 10
263.94788142062924
 20
201.27421104910152
 11
255.94788142062924
 21
201.27421104910152
  0
LINE
  8
_0-1_dxfile
  6
CONTINUOUS
 62
    4
 10
255.94788142062924
 20
201.27421104910152
 11
255.94788142062924
 21
196.27421104910152
  0
LINE
  8
_0-1_dxfile
  6
CONTINUOUS
 62
    4
 10
255.94788142062924
 20
196.27421104910152
 11
263.94788142062924
 21
196.27421104910152
  0
LINE
  8
_0-1_dxfile
  6
CONTINUOUS
 62
    4
 10
263.94788142062924
 20
196.27421104910152
 11
263.94788142062924
 21
201.27421104910152
  0
LINE
  8
_0-1_dxfile
  6
CONTINUOUS
 62
    4
 10
263.64788142062929
 20
200.97421104910154
 11
256.24788142062926
 21
200.97421104910154
  0
LINE
  8
_0-1_dxfile
  6
CONTINUOUS
 62
    4
 10
256.24788142062926
 20
200.97421104910154
 11
256.24788142062926
 21
196.57421104910154
  0
LINE
  8
_0-1_dxfile
  6
CONTINUOUS
 62
    4
 10
256.24788142062926
 20
196.57421104910154
 11
263.64788142062929
 21
196.57421104910154
  0
LINE
  8
_0-1_dxfile
  6
CONTINUOUS
 62
    4
 10
263.64788142062929
 20
196.57421104910154
 11
263.64788142062929
 21
200.97421104910154
  0
LINE
  8
_0-1_dxfile
  6
PLine1
 62
    3
 10
260.74788142062937
 20
195.47421104910154
 11
260.74788142062937
 21
196.57421104910154
  0
LINE
  8
_0-1_dxfile
  6
CONTINUOUS
 62
    3
 10
260.74788142062937
 20
196.57421104910154
 11
260.74788142062937
 21
201.27421104910152
  0
LINE
  8
_0-1_dxfile
  6
PLine1
 62
    3
 10
260.74788142062937
 20
201.27421104910152
 11
260.74788142062937
 21
203.27421104910152
  0
LINE
  8
_0-1_dxfile
  6
PLine1
 62
    3
 10
259.14788142062929
 20
195.47421104910154
 11
259.14788142062929
 21
196.57421104910154
  0
LINE
  8
_0-1_dxfile
  6
CONTINUOUS
 62
    3
 10
259.14788142062929
 20
196.57421104910154
 11
259.14788142062929
 21
201.27421104910152
  0
LINE
  8
_0-1_dxfile
  6
PLine1
 62
    3
 10
259.14788142062929
 20
201.27421104910152
 11
259.14788142062929
 21
203.27421104910152
  0
TEXT
  8
_0-1_dxfile
 62
    7
 10
561.89712442062932
 20
490.64875904910144
 40
7
 41
0.8582679999999999
 50
0
  1
Ｗナット止め
  0
LINE
  8
_0-1_dxfile
  6
CONTINUOUS
 62
    6
 10
61.974676420629294
 20
196.17421104910153
 11
69.921086420629251
 21
196.17421104910153
  0
LINE
  8
_0-1_dxfile
  6
CONTINUOUS
 62
    6
 10
69.947881420629244
 20
196.07421104910154
 11
61.947881420629244
 21
196.07421104910154
  0
LINE
  8
_0-1_dxfile
  6
CONTINUOUS
 62
    6
 10
61.974676420629294
 20
195.97421104910154
 11
69.921086420629251
 21
195.97421104910154
  0
LINE
  8
_0-1_dxfile
  6
CONTINUOUS
 62
    6
 10
263.92108642062925
 20
196.17421104910153
 11
255.97467642062929
 21
196.17421104910153
  0
LINE
  8
_0-1_dxfile
  6
CONTINUOUS
 62
    6
 10
255.94788142062924
 20
196.07421104910154
 11
263.94788142062924
 21
196.07421104910154
  0
LINE
  8
_0-1_dxfile
  6
CONTINUOUS
 62
    6
 10
263.92108642062925
 20
195.97421104910154
 11
255.97467642062929
 21
195.97421104910154
  0
LINE
  8
_0-1_dxfile
  6
CONTINUOUS
 62
    4
 10
69.947881420629244
 20
200.77421104910152
 11
70.347881420629278
 21
200.77421104910152
  0
LINE
  8
_0-1_dxfile
  6
CONTINUOUS
 62
    4
 10
70.347881420629278
 20
200.77421104910152
 11
70.347881420629278
 21
197.17421104910153
  0
LINE
  8
_0-1_dxfile
  6
CONTINUOUS
 62
    4
 10
70.347881420629278
 20
197.17421104910153
 11
75.947881420629244
 21
197.17421104910153
  0
LINE
  8
_0-1_dxfile
  6
CONTINUOUS
 62
    4
 10
75.947881420629244
 20
197.17421104910153
 11
75.947881420629244
 21
196.77421104910152
  0
LINE
  8
_0-1_dxfile
  6
CONTINUOUS
 62
    4
 10
75.947881420629244
 20
196.77421104910152
 11
70.147881420629233
 21
196.77421104910152
  0
ARC
  8
_0-1_dxfile
  6
CONTINUOUS
 62
    4
 10
70.147881420629233
 20
196.97421104910154
 40
0.2
 50
180
 51
270
  0
LINE
  8
_0-1_dxfile
  6
CONTINUOUS
 62
    4
 10
69.947881420629244
 20
196.97421104910154
 11
69.947881420629244
 21
200.77421104910152
  0
ARC
  8
_0-1_dxfile
  6
CONTINUOUS
 62
    4
 10
69.662463420629251
 20
200.37914804910153
 40
0.79199040308596
 50
29.980625000000007
 51
68.674669999999992
  0
ARC
  8
_0-1_dxfile
  6
CONTINUOUS
 62
    4
 10
69.662463420629251
 20
200.37914804910153
 40
0.69199040308596
 50
34.813617000000001
 51
65.640589000000006
  0
ARC
  8
_0-1_dxfile
  6
CONTINUOUS
 62
    4
 10
69.662463420629251
 20
197.16927504910151
 40
0.7919904030778044
 50
291.32533000000001
 51
330.01937500000003
  0
ARC
  8
_0-1_dxfile
  6
CONTINUOUS
 62
    4
 10
69.662463420629251
 20
197.16927504910151
 40
0.6919904030813978
 50
294.35941100000002
 51
325.18638299999998
  0
LINE
  8
_0-1_dxfile
  6
CONTINUOUS
 62
    4
 10
255.94788142062924
 20
200.77421104910152
 11
255.54788142062927
 21
200.77421104910152
  0
LINE
  8
_0-1_dxfile
  6
CONTINUOUS
 62
    4
 10
255.54788142062927
 20
200.77421104910152
 11
255.54788142062927
 21
197.17421104910153
  0
LINE
  8
_0-1_dxfile
  6
CONTINUOUS
 62
    4
 10
255.54788142062927
 20
197.17421104910153
 11
249.94788142062927
 21
197.17421104910153
  0
LINE
  8
_0-1_dxfile
  6
CONTINUOUS
 62
    4
 10
249.94788142062927
 20
197.17421104910153
 11
249.94788142062927
 21
196.77421104910152
  0
LINE
  8
_0-1_dxfile
  6
CONTINUOUS
 62
    4
 10
249.94788142062927
 20
196.77421104910152
 11
255.74788142062926
 21
196.77421104910152
  0
ARC
  8
_0-1_dxfile
  6
CONTINUOUS
 62
    4
 10
255.74788142062926
 20
196.97421104910154
 40
0.2000000000035669
 50
270
 51
0
  0
LINE
  8
_0-1_dxfile
  6
CONTINUOUS
 62
    4
 10
255.94788142062924
 20
196.97421104910154
 11
255.94788142062924
 21
200.77421104910152
  0
ARC
  8
_0-1_dxfile
  6
CONTINUOUS
 62
    4
 10
256.23329942062929
 20
200.37914804910153
 40
0.7919904031592565
 50
111.32533000000001
 51
150.019375
  0
ARC
  8
_0-1_dxfile
  6
CONTINUOUS
 62
    4
 10
256.23329942062929
 20
200.37914804910153
 40
0.6919904031924272
 50
114.35941099999999
 51
145.18638300000001
  0
ARC
  8
_0-1_dxfile
  6
CONTINUOUS
 62
    4
 10
256.23329942062929
 20
197.16927504910151
 40
0.7919904032136634
 50
209.980625
 51
248.67466999999999
  0
ARC
  8
_0-1_dxfile
  6
CONTINUOUS
 62
    4
 10
256.23329942062929
 20
197.16927504910151
 40
0.6919904030213257
 50
214.81361699999997
 51
245.64058899999998
  0
LINE
  8
_0-1_dxfile
  6
CONTINUOUS
 62
    3
 10
71.947881420629244
 20
197.17421104910153
 11
71.947881420629244
 21
198.37421104910152
  0
LINE
  8
_0-1_dxfile
  6
CONTINUOUS
 62
    3
 10
71.947881420629244
 20
198.37421104910152
 11
162.9478814206293
 21
198.37421104910152
  0
LINE
  8
_0-1_dxfile
  6
CONTINUOUS
 62
    3
 10
162.9478814206293
 20
197.17421104910153
 11
71.947881420629244
 21
197.17421104910153
  0
CIRCLE
  8
_0-1_dxfile
  6
CONTINUOUS
 62
    3
 10
152.9478814206293
 20
198.97421104910154
 40
0.5999999999999999
  0
CIRCLE
  8
_0-1_dxfile
  6
CONTINUOUS
 62
    3
 10
132.9478814206293
 20
198.97421104910154
 40
0.5999999999999999
  0
CIRCLE
  8
_0-1_dxfile
  6
CONTINUOUS
 62
    3
 10
112.9478814206293
 20
198.97421104910154
 40
0.5999999999999999
  0
CIRCLE
  8
_0-1_dxfile
  6
CONTINUOUS
 62
    3
 10
92.947881420629244
 20
198.97421104910154
 40
0.5999999999999999
  0
CIRCLE
  8
_0-1_dxfile
  6
CONTINUOUS
 62
    3
 10
72.947881420629244
 20
198.97421104910154
 40
0.5999999999999999
  0
ARC
  8
_0-1_dxfile
  6
CONTINUOUS
 62
    3
 10
72.447881420629244
 20
197.17421104910153
 40
0.5
 50
0
 51
180
  0
ARC
  8
_0-1_dxfile
  6
CONTINUOUS
 62
    3
 10
73.447881420629244
 20
197.17421104910153
 40
0.4999999999968737
 50
0
 51
180
  0
ARC
  8
_0-1_dxfile
  6
CONTINUOUS
 62
    3
 10
74.447881420629244
 20
197.17421104910153
 40
0.4999999999932355
 50
0
 51
180
  0
ARC
  8
_0-1_dxfile
  6
CONTINUOUS
 62
    3
 10
75.447881420629244
 20
197.17421104910153
 40
0.5000000000001706
 50
0
 51
180
  0
LINE
  8
_0-1_dxfile
  6
CONTINUOUS
 62
    3
 10
253.94788142062927
 20
197.17421104910153
 11
253.94788142062927
 21
198.37421104910152
  0
LINE
  8
_0-1_dxfile
  6
CONTINUOUS
 62
    3
 10
253.94788142062927
 20
198.37421104910152
 11
162.9478814206293
 21
198.37421104910152
  0
LINE
  8
_0-1_dxfile
  6
CONTINUOUS
 62
    3
 10
162.9478814206293
 20
197.17421104910153
 11
253.94788142062927
 21
197.17421104910153
  0
CIRCLE
  8
_0-1_dxfile
  6
CONTINUOUS
 62
    3
 10
172.94788142062927
 20
198.97421104910154
 40
0.5999999999999944
  0
CIRCLE
  8
_0-1_dxfile
  6
CONTINUOUS
 62
    3
 10
192.94788142062927
 20
198.97421104910154
 40
0.5999999999999944
  0
CIRCLE
  8
_0-1_dxfile
  6
CONTINUOUS
 62
    3
 10
212.94788142062927
 20
198.97421104910154
 40
0.5999999999999944
  0
CIRCLE
  8
_0-1_dxfile
  6
CONTINUOUS
 62
    3
 10
232.94788142062927
 20
198.97421104910154
 40
0.5999999999999944
  0
CIRCLE
  8
_0-1_dxfile
  6
CONTINUOUS
 62
    3
 10
252.94788142062927
 20
198.97421104910154
 40
0.5999999999999944
  0
ARC
  8
_0-1_dxfile
  6
CONTINUOUS
 62
    3
 10
253.44788142062927
 20
197.17421104910153
 40
0.5000000000041495
 50
0
 51
180
  0
ARC
  8
_0-1_dxfile
  6
CONTINUOUS
 62
    3
 10
252.44788142062927
 20
197.17421104910153
 40
0.5000000000074749
 50
0
 51
180
  0
ARC
  8
_0-1_dxfile
  6
CONTINUOUS
 62
    3
 10
251.44788142062927
 20
197.17421104910153
 40
0.4999999999844533
 50
0
 51
180
  0
ARC
  8
_0-1_dxfile
  6
CONTINUOUS
 62
    3
 10
250.44788142062927
 20
197.17421104910153
 40
0.5000000000007958
 50
0
 51
180
  0
LINE
  8
_0-1_dxfile
  6
CONTINUOUS
 62
    3
 10
228.22803242062926
 20
202.16751004910154
 11
227.09405842062927
 21
198.20340904910154
  0
LINE
  8
_0-1_dxfile
  6
CONTINUOUS
 62
    3
 10
227.09405842062927
 20
198.20340904910154
 11
272.72498942062924
 21
277.23849904910162
  0
LINE
  8
_0-1_dxfile
  6
CONTINUOUS
 62
    3
 10
272.72498942062924
 20
277.23849904910162
 11
334.52026442062925
 21
277.23849904910162
  0
LINE
  8
_0-1_dxfile
  6
CONTINUOUS
 62
    3
 10
264.94918842062924
 20
202.05697604910154
 11
263.81521342062928
 21
198.09287504910154
  0
LINE
  8
_0-1_dxfile
  6
CONTINUOUS
 62
    3
 10
263.81521342062928
 20
198.09287504910154
 11
286.16962442062925
 21
236.81185004910154
  0
LINE
  8
_0-1_dxfile
  6
CONTINUOUS
 62
    3
 10
286.16962442062925
 20
236.81185004910154
 11
346.24836442062929
 21
236.81185004910154
  0
TEXT
  8
_0-1_dxfile
 62
    7
 10
286.16962442062925
 20
237.81185004910154
 40
7
 41
0.8582679999999999
 50
0
  1
落下防止網枠　ＳＵＳ
  0
LINE
  8
_0-1_dxfile
  6
CONTINUOUS
 62
    6
 10
659.36577442062935
 20
431.55467804910143
 11
653.47350342062919
 21
431.55467804910143
  0
LINE
  8
_0-1_dxfile
  6
CONTINUOUS
 62
    6
 10
653.47350342062919
 20
431.55467804910143
 11
678.39401542062933
 21
431.55467804910143
  0
ARC
  8
_0-1_dxfile
  6
CONTINUOUS
 62
    3
 10
646.20784142062917
 20
404.25467804910153
 40
0.3000000007276731
 50
90
 51
180
  0
LINE
  8
_0-1_dxfile
  6
CONTINUOUS
 62
    3
 10
646.20784142062917
 20
404.55467804910154
 11
685.60784142062926
 21
404.55467804910154
  0
ARC
  8
_0-1_dxfile
  6
CONTINUOUS
 62
    3
 10
685.60784142062926
 20
404.25467804910153
 40
0.3000000001453371
 50
0
 51
90
  0
ARC
  8
_0-1_dxfile
  6
CONTINUOUS
 62
    6
 10
646.90784142062921
 20
405.55467804910154
 40
0.9999999999899954
 50
90
 51
270
  0
ARC
  8
_0-1_dxfile
  6
CONTINUOUS
 62
    6
 10
684.90784142062921
 20
405.55467804910154
 40
0.999999999967258
 50
270
 51
90
  0
LINE
  8
_0-1_dxfile
  6
CONTINUOUS
 62
    6
 10
646.90784142062921
 20
406.55467804910143
 11
684.90784142062921
 21
406.55467804910143
  0
LINE
  8
_0-1_dxfile
  6
CONTINUOUS
 62
    4
 10
645.90784142062921
 20
431.55467804910143
 11
685.90784142062921
 21
431.55467804910143
  0
LINE
  8
_0-1_dxfile
  6
CONTINUOUS
 62
    4
 10
685.90784142062921
 20
431.55467804910143
 11
685.90784142062921
 21
406.55467804910143
  0
LINE
  8
_0-1_dxfile
  6
CONTINUOUS
 62
    4
 10
685.90784142062921
 20
406.55467804910143
 11
645.90784142062921
 21
406.55467804910143
  0
LINE
  8
_0-1_dxfile
  6
CONTINUOUS
 62
    4
 10
645.90784142062921
 20
406.55467804910143
 11
645.90784142062921
 21
431.55467804910143
  0
LINE
  8
_0-1_dxfile
  6
CONTINUOUS
 62
    4
 10
647.40784142062921
 20
430.05467804910154
 11
684.40784142062921
 21
430.05467804910154
  0
LINE
  8
_0-1_dxfile
  6
CONTINUOUS
 62
    4
 10
684.40784142062921
 20
430.05467804910154
 11
684.40784142062921
 21
408.05467804910154
  0
LINE
  8
_0-1_dxfile
  6
CONTINUOUS
 62
    4
 10
684.40784142062921
 20
408.05467804910154
 11
647.40784142062921
 21
408.05467804910154
  0
LINE
  8
_0-1_dxfile
  6
CONTINUOUS
 62
    4
 10
647.40784142062921
 20
408.05467804910154
 11
647.40784142062921
 21
430.05467804910154
  0
LINE
  8
_0-1_dxfile
  6
PLine1
 62
    3
 10
661.90784142062921
 20
402.55467804910143
 11
661.90784142062921
 21
408.05467804910154
  0
LINE
  8
_0-1_dxfile
  6
CONTINUOUS
 62
    3
 10
661.90784142062921
 20
408.05467804910154
 11
661.90784142062921
 21
431.55467804910143
  0
LINE
  8
_0-1_dxfile
  6
PLine1
 62
    3
 10
661.90784142062921
 20
431.55467804910143
 11
661.90784142062921
 21
441.55467804910154
  0
LINE
  8
_0-1_dxfile
  6
PLine1
 62
    3
 10
669.90784142062921
 20
402.55467804910143
 11
669.90784142062921
 21
408.05467804910154
  0
LINE
  8
_0-1_dxfile
  6
CONTINUOUS
 62
    3
 10
669.90784142062921
 20
408.05467804910154
 11
669.90784142062921
 21
431.55467804910143
  0
LINE
  8
_0-1_dxfile
  6
PLine1
 62
    3
 10
669.90784142062921
 20
431.55467804910143
 11
669.90784142062921
 21
441.55467804910154
  0
LINE
  8
_0-1_dxfile
  6
CONTINUOUS
 62
    6
 10
646.04181642062917
 20
406.05467804910143
 11
685.77386742062913
 21
406.05467804910143
  0
LINE
  8
_0-1_dxfile
  6
CONTINUOUS
 62
    6
 10
685.90784142062921
 20
405.55467804910154
 11
645.90784142062921
 21
405.55467804910154
  0
LINE
  8
_0-1_dxfile
  6
CONTINUOUS
 62
    6
 10
646.04181642062917
 20
405.05467804910154
 11
685.77386742062913
 21
405.05467804910154
  0
LINE
  8
_0-1_dxfile
  6
CONTINUOUS
 62
    4
 10
685.90784142062921
 20
429.05467804910154
 11
687.90784142062921
 21
429.05467804910154
  0
LINE
  8
_0-1_dxfile
  6
CONTINUOUS
 62
    4
 10
687.90784142062921
 20
429.05467804910154
 11
687.90784142062921
 21
411.05467804910154
  0
LINE
  8
_0-1_dxfile
  6
CONTINUOUS
 62
    4
 10
687.90784142062921
 20
411.05467804910154
 11
715.90784142062921
 21
411.05467804910154
  0
LINE
  8
_0-1_dxfile
  6
CONTINUOUS
 62
    4
 10
715.90784142062921
 20
411.05467804910154
 11
715.90784142062921
 21
409.05467804910154
  0
LINE
  8
_0-1_dxfile
  6
CONTINUOUS
 62
    4
 10
715.90784142062921
 20
409.05467804910154
 11
686.90784142062921
 21
409.05467804910154
  0
ARC
  8
_0-1_dxfile
  6
CONTINUOUS
 62
    4
 10
686.90784142062921
 20
410.05467804910143
 40
1.000000000232492
 50
180
 51
270
  0
LINE
  8
_0-1_dxfile
  6
CONTINUOUS
 62
    4
 10
685.90784142062921
 20
410.05467804910143
 11
685.90784142062921
 21
429.05467804910154
  0
ARC
  8
_0-1_dxfile
  6
CONTINUOUS
 62
    4
 10
684.48075242062919
 20
427.07936104910141
 40
3.959952015690801
 50
29.980625000000007
 51
68.674669999999992
  0
ARC
  8
_0-1_dxfile
  6
CONTINUOUS
 62
    4
 10
684.48075242062919
 20
427.07936104910141
 40
3.459952015668299
 50
34.813617000000001
 51
65.640589000000006
  0
ARC
  8
_0-1_dxfile
  6
CONTINUOUS
 62
    4
 10
684.48075242062919
 20
411.02999404910145
 40
3.9599520151608649
 50
291.32533000000001
 51
330.01937500000003
  0
ARC
  8
_0-1_dxfile
  6
CONTINUOUS
 62
    4
 10
684.48075242062919
 20
411.02999404910145
 40
3.4599520158360759
 50
294.35941100000002
 51
325.18638299999998
  0
LINE
  8
_0-1_dxfile
  6
CONTINUOUS
 62
    3
 10
695.90784142062921
 20
411.05467804910154
 11
695.90784142062921
 21
417.05467804910154
  0
LINE
  8
_0-1_dxfile
  6
CONTINUOUS
 62
    3
 10
695.90784142062921
 20
417.05467804910154
 11
772.7469134206292
 21
417.05467804910154
  0
LINE
  8
_0-1_dxfile
  6
CONTINUOUS
 62
    3
 10
695.90784142062921
 20
411.05467804910154
 11
772.7469134206292
 21
411.05467804910154
  0
CIRCLE
  8
_0-1_dxfile
  6
CONTINUOUS
 62
    3
 10
700.90784142062921
 20
420.05467804910154
 40
3
  0
ARC
  8
_0-1_dxfile
  6
CONTINUOUS
 62
    4
 10
698.40784142062921
 20
411.05467804910154
 40
2.4999999999931788
 50
0
 51
180
  0
ARC
  8
_0-1_dxfile
  6
CONTINUOUS
 62
    4
 10
703.40784142062921
 20
411.05467804910154
 40
2.499999999976751
 50
0
 51
180
  0
ARC
  8
_0-1_dxfile
  6
CONTINUOUS
 62
    4
 10
708.40784142062921
 20
411.05467804910154
 40
2.4999999999825491
 50
0
 51
180
  0
ARC
  8
_0-1_dxfile
  6
CONTINUOUS
 62
    4
 10
713.40784142062921
 20
411.05467804910154
 40
2.5000000000356408
 50
0
 51
180
  0
TEXT
  8
_0-1_dxfile
 62
    7
 10
291.62625942062925
 20
251.05080304910152
 40
7
 41
0.8582679999999999
 50
0
  1
Ｗナット止め
  0
LINE
  8
_0-1_dxfile
  6
CONTINUOUS
 62
    3
 10
643.04181642062917
 20
418.32142604910155
 11
645.90784142062921
 21
415.35732504910141
  0
LINE
  8
_0-1_dxfile
  6
CONTINUOUS
 62
    3
 10
645.90784142062921
 20
415.35732504910141
 11
620.56969442062928
 21
459.24428404910151
  0
LINE
  8
_0-1_dxfile
  6
CONTINUOUS
 62
    3
 10
620.56969442062928
 20
459.24428404910151
 11
560.39821742062918
 21
459.24428404910151
  0
TEXT
  8
_0-1_dxfile
 62
    7
 10
555.63827462062932
 20
460.24428404910145
 40
7
 41
0.8582679999999999
 50
-0.0000000000000271
  1
落下防止網枠　ＳＵＳ
  0
LINE
  8
_0-1_dxfile
  6
CONTINUOUS
 62
    3
 10
648.91100342062919
 20
401.38249104910153
 11
650.04497742062927
 21
405.3465930491015
  0
LINE
  8
_0-1_dxfile
  6
CONTINUOUS
 62
    3
 10
650.04497742062927
 20
405.3465930491015
 11
636.64944142062927
 21
382.14484404910155
  0
LINE
  8
_0-1_dxfile
  6
CONTINUOUS
 62
    3
 10
636.64944142062927
 20
382.14484404910155
 11
576.57070142062935
 21
382.14484404910155
  0
LINE
  8
_0-1_dxfile
  6
CONTINUOUS
 62
    3
 10
721.89547342062906
 20
420.42609204910156
 11
720.76149942062921
 21
416.46199104910141
  0
LINE
  8
_0-1_dxfile
  6
CONTINUOUS
 62
    3
 10
720.76149942062921
 20
416.46199104910141
 11
730.98090542062937
 21
434.16252104910143
  0
LINE
  8
_0-1_dxfile
  6
CONTINUOUS
 62
    3
 10
730.98090542062937
 20
434.16252104910143
 11
803.0753934206291
 21
434.16252104910143
  0
LINE
  8
_0-1_dxfile
  6
CONTINUOUS
 62
    3
 10
701.99083442062943
 20
415.41692904910144
 11
700.85686042062935
 21
411.45282704910142
  0
LINE
  8
_0-1_dxfile
  6
CONTINUOUS
 62
    3
 10
700.85686042062935
 20
411.45282704910142
 11
728.86613542062923
 21
459.96631504910152
  0
LINE
  8
_0-1_dxfile
  6
CONTINUOUS
 62
    3
 10
728.86613542062923
 20
459.96631504910152
 11
806.96849742062932
 21
459.96631504910152
  0
TEXT
  8
_0-1_dxfile
 62
    7
 10
729.59112642062928
 20
452.81818704910143
 40
7
 41
0.8582679999999999
 50
0
  1
溶接止め
  0
INSERT
  2
-012-DIM_12
  8
_0-1_dxfile
 10
192.94788142062927
 20
200.15120904910154
 41
1
 42
1
 50
0
  0
LINE
  8
_0-1_dxfile
  6
CONTINUOUS
 62
    3
 10
280.28164742062927
 20
509.4173990491015
 11
434.94831342062929
 21
509.4173990491015
  0
LINE
  8
_0-1_dxfile
  6
CONTINUOUS
 62
    3
 10
290.28164742062927
 20
499.4173990491015
 11
424.94831342062918
 21
499.4173990491015
  0
LINE
  8
_0-1_dxfile
  6
CONTINUOUS
 62
    3
 10
295.61498042062925
 20
494.08406604910141
 11
419.61498042062925
 21
494.08406604910141
  0
CIRCLE
  8
_0-1_dxfile
  6
CONTINUOUS
 62
    3
 10
324.28164642062927
 20
496.75073304910143
 40
0.6666666659999691
  0
CIRCLE
  8
_0-1_dxfile
  6
CONTINUOUS
 62
    3
 10
292.94831342062929
 20
465.4173990491015
 40
0.6666666659999691
  0
CIRCLE
  8
_0-1_dxfile
  6
CONTINUOUS
 62
    3
 10
390.94831342062929
 20
496.75073304910143
 40
0.6666666659999691
  0
CIRCLE
  8
_0-1_dxfile
  6
CONTINUOUS
 62
    3
 10
422.28164642062916
 20
465.4173990491015
 40
0.6666666659999691
  0
LINE
  8
_0-1_dxfile
  6
CONTINUOUS
 62
    3
 10
324.28164642062927
 20
498.1807510491015
 11
324.28164642062927
 21
495.15421304910143
  0
LINE
  8
_0-1_dxfile
  6
CONTINUOUS
 62
    3
 10
322.90098442062924
 20
496.75073304910143
 11
325.99057542062928
 21
496.75073304910143
  0
LINE
  8
_0-1_dxfile
  6
CONTINUOUS
 62
    3
 10
291.22999542062928
 20
465.4173990491015
 11
294.63485042062928
 21
465.4173990491015
  0
LINE
  8
_0-1_dxfile
  6
CONTINUOUS
 62
    3
 10
292.94831342062929
 20
466.88807904910141
 11
292.94831342062929
 21
463.6093290491014
  0
LINE
  8
_0-1_dxfile
  6
CONTINUOUS
 62
    3
 10
390.94831342062929
 20
498.5306690491015
 11
390.94831342062929
 21
494.9997080491014
  0
LINE
  8
_0-1_dxfile
  6
CONTINUOUS
 62
    3
 10
389.36435342062924
 20
496.75073304910143
 11
392.76920842062924
 21
496.75073304910143
  0
LINE
  8
_0-1_dxfile
  6
CONTINUOUS
 62
    3
 10
422.28164642062916
 20
467.55326104910154
 11
422.28164642062916
 21
463.58093004910143
  0
LINE
  8
_0-1_dxfile
  6
CONTINUOUS
 62
    3
 10
420.65702542062917
 20
465.4173990491015
 11
423.99882742062925
 21
465.4173990491015
  0
LINE
  8
_0-1_dxfile
  6
PLine2
 62
    3
 10
267.72259842062925
 20
432.08406604910141
 11
450.80237542062918
 21
432.08406604910141
  0
LINE
  8
_0-1_dxfile
  6
PLine2
 62
    3
 10
357.61498042062925
 20
516.85618304910145
 11
357.61498042062925
 21
345.33282904910152
  0
LINE
  8
_0-1_dxfile
  6
CONTINUOUS
 62
    3
 10
280.28164742062927
 20
509.4173990491015
 11
297.21498042062927
 21
492.48406604910144
  0
LINE
  8
_0-1_dxfile
  6
CONTINUOUS
 62
    3
 10
298.01498042062929
 20
491.68406604910143
 11
299.61498042062925
 21
490.08406604910141
  0
LINE
  8
_0-1_dxfile
  6
CONTINUOUS
 62
    3
 10
434.94831342062929
 20
509.4173990491015
 11
418.01498042062929
 21
492.48406604910144
  0
LINE
  8
_0-1_dxfile
  6
CONTINUOUS
 62
    3
 10
417.21498042062927
 20
491.68406604910143
 11
415.61498042062919
 21
490.08406604910141
  0
LINE
  8
_0-1_dxfile
  6
CONTINUOUS
 62
    3
 10
299.61498042062925
 20
490.08406604910141
 11
310.54831342062926
 21
490.08406604910141
  0
LINE
  8
_0-1_dxfile
  6
CONTINUOUS
 62
    3
 10
311.34831342062927
 20
490.08406604910141
 11
323.88164642062935
 21
490.08406604910141
  0
LINE
  8
_0-1_dxfile
  6
CONTINUOUS
 62
    3
 10
324.68164642062925
 20
490.08406604910141
 11
337.21498042062927
 21
490.08406604910141
  0
LINE
  8
_0-1_dxfile
  6
CONTINUOUS
 62
    3
 10
338.01498042062929
 20
490.08406604910141
 11
350.54831342062926
 21
490.08406604910141
  0
LINE
  8
_0-1_dxfile
  6
CONTINUOUS
 62
    3
 10
351.34831342062927
 20
490.08406604910141
 11
363.88164642062929
 21
490.08406604910141
  0
LINE
  8
_0-1_dxfile
  6
CONTINUOUS
 62
    3
 10
364.68164642062925
 20
490.08406604910141
 11
377.21498042062927
 21
490.08406604910141
  0
LINE
  8
_0-1_dxfile
  6
CONTINUOUS
 62
    3
 10
378.01498042062929
 20
490.08406604910141
 11
390.54831342062926
 21
490.08406604910141
  0
LINE
  8
_0-1_dxfile
  6
CONTINUOUS
 62
    3
 10
391.34831342062927
 20
490.08406604910141
 11
403.88164642062929
 21
490.08406604910141
  0
LINE
  8
_0-1_dxfile
  6
CONTINUOUS
 62
    3
 10
404.68164642062919
 20
490.08406604910141
 11
415.61498042062919
 21
490.08406604910141
  0
LINE
  8
_0-1_dxfile
  6
PLine1
 62
    3
 10
432.94831342062918
 20
507.4173990491015
 11
282.28164742062927
 21
507.4173990491015
  0
LINE
  8
_0-1_dxfile
  6
CONTINUOUS
 62
    3
 10
280.28164742062927
 20
354.75073304910154
 11
434.94831342062929
 21
354.75073304910154
  0
LINE
  8
_0-1_dxfile
  6
CONTINUOUS
 62
    3
 10
290.28164742062927
 20
364.75073304910154
 11
424.94831342062918
 21
364.75073304910154
  0
LINE
  8
_0-1_dxfile
  6
CONTINUOUS
 62
    3
 10
295.61498042062925
 20
370.08406604910152
 11
419.61498042062925
 21
370.08406604910152
  0
CIRCLE
  8
_0-1_dxfile
  6
CONTINUOUS
 62
    3
 10
324.28164642062927
 20
367.4173990491015
 40
0.6666666659999691
  0
CIRCLE
  8
_0-1_dxfile
  6
CONTINUOUS
 62
    3
 10
292.94831342062929
 20
398.75073304910154
 40
0.6666666659999691
  0
CIRCLE
  8
_0-1_dxfile
  6
CONTINUOUS
 62
    3
 10
390.94831342062929
 20
367.4173990491015
 40
0.6666666659999691
  0
CIRCLE
  8
_0-1_dxfile
  6
CONTINUOUS
 62
    3
 10
422.28164642062916
 20
398.75073304910154
 40
0.6666666659999691
  0
LINE
  8
_0-1_dxfile
  6
CONTINUOUS
 62
    3
 10
324.28164642062927
 20
365.98738104910154
 11
324.28164642062927
 21
369.0139190491015
  0
LINE
  8
_0-1_dxfile
  6
CONTINUOUS
 62
    3
 10
322.90098442062924
 20
367.4173990491015
 11
325.99057542062928
 21
367.4173990491015
  0
LINE
  8
_0-1_dxfile
  6
CONTINUOUS
 62
    3
 10
291.22999542062928
 20
398.75073304910154
 11
294.63485042062928
 21
398.75073304910154
  0
LINE
  8
_0-1_dxfile
  6
CONTINUOUS
 62
    3
 10
292.94831342062929
 20
397.28005304910153
 11
292.94831342062929
 21
400.55880204910153
  0
LINE
  8
_0-1_dxfile
  6
CONTINUOUS
 62
    3
 10
390.94831342062929
 20
365.63746304910154
 11
390.94831342062929
 21
369.16842404910153
  0
LINE
  8
_0-1_dxfile
  6
CONTINUOUS
 62
    3
 10
389.36435342062924
 20
367.4173990491015
 11
392.76920842062924
 21
367.4173990491015
  0
LINE
  8
_0-1_dxfile
  6
CONTINUOUS
 62
    3
 10
422.28164642062916
 20
396.61487004910151
 11
422.28164642062916
 21
400.58720204910145
  0
LINE
  8
_0-1_dxfile
  6
CONTINUOUS
 62
    3
 10
420.65702542062917
 20
398.75073304910154
 11
423.99882742062925
 21
398.75073304910154
  0
LINE
  8
_0-1_dxfile
  6
CONTINUOUS
 62
    3
 10
280.28164742062927
 20
354.75073304910154
 11
297.21498042062927
 21
371.68406604910155
  0
LINE
  8
_0-1_dxfile
  6
CONTINUOUS
 62
    3
 10
298.01498042062929
 20
372.4840660491015
 11
299.61498042062925
 21
374.08406604910152
  0
LINE
  8
_0-1_dxfile
  6
CONTINUOUS
 62
    3
 10
434.94831342062929
 20
354.75073304910154
 11
418.01498042062929
 21
371.68406604910155
  0
LINE
  8
_0-1_dxfile
  6
CONTINUOUS
 62
    3
 10
417.21498042062927
 20
372.4840660491015
 11
415.61498042062919
 21
374.08406604910152
  0
LINE
  8
_0-1_dxfile
  6
CONTINUOUS
 62
    3
 10
299.61498042062925
 20
374.08406604910152
 11
310.54831342062926
 21
374.08406604910152
  0
LINE
  8
_0-1_dxfile
  6
CONTINUOUS
 62
    3
 10
311.34831342062927
 20
374.08406604910152
 11
323.88164642062935
 21
374.08406604910152
  0
LINE
  8
_0-1_dxfile
  6
CONTINUOUS
 62
    3
 10
324.68164642062925
 20
374.08406604910152
 11
337.21498042062927
 21
374.08406604910152
  0
LINE
  8
_0-1_dxfile
  6
CONTINUOUS
 62
    3
 10
338.01498042062929
 20
374.08406604910152
 11
350.54831342062926
 21
374.08406604910152
  0
LINE
  8
_0-1_dxfile
  6
CONTINUOUS
 62
    3
 10
351.34831342062927
 20
374.08406604910152
 11
363.88164642062929
 21
374.08406604910152
  0
LINE
  8
_0-1_dxfile
  6
CONTINUOUS
 62
    3
 10
364.68164642062925
 20
374.08406604910152
 11
377.21498042062927
 21
374.08406604910152
  0
LINE
  8
_0-1_dxfile
  6
CONTINUOUS
 62
    3
 10
378.01498042062929
 20
374.08406604910152
 11
390.54831342062926
 21
374.08406604910152
  0
LINE
  8
_0-1_dxfile
  6
CONTINUOUS
 62
    3
 10
391.34831342062927
 20
374.08406604910152
 11
403.88164642062929
 21
374.08406604910152
  0
LINE
  8
_0-1_dxfile
  6
CONTINUOUS
 62
    3
 10
404.68164642062919
 20
374.08406604910152
 11
415.61498042062919
 21
374.08406604910152
  0
LINE
  8
_0-1_dxfile
  6
PLine1
 62
    3
 10
432.94831342062918
 20
356.75073304910154
 11
282.28164742062927
 21
356.75073304910154
  0
LINE
  8
_0-1_dxfile
  6
CONTINUOUS
 62
    3
 10
280.28164742062927
 20
509.4173990491015
 11
280.28164742062927
 21
354.75073304910154
  0
LINE
  8
_0-1_dxfile
  6
CONTINUOUS
 62
    3
 10
290.28164742062927
 20
499.4173990491015
 11
290.28164742062927
 21
364.75073304910154
  0
LINE
  8
_0-1_dxfile
  6
CONTINUOUS
 62
    3
 10
295.61498042062925
 20
494.08406604910141
 11
295.61498042062925
 21
370.08406604910152
  0
LINE
  8
_0-1_dxfile
  6
CONTINUOUS
 62
    3
 10
299.61498042062925
 20
385.01739904910153
 11
299.61498042062925
 21
374.08406604910152
  0
LINE
  8
_0-1_dxfile
  6
CONTINUOUS
 62
    3
 10
299.61498042062925
 20
398.35073304910151
 11
299.61498042062925
 21
385.81739904910154
  0
LINE
  8
_0-1_dxfile
  6
CONTINUOUS
 62
    3
 10
299.61498042062925
 20
411.68406604910155
 11
299.61498042062925
 21
399.15073304910152
  0
LINE
  8
_0-1_dxfile
  6
CONTINUOUS
 62
    3
 10
299.61498042062925
 20
425.01739904910153
 11
299.61498042062925
 21
412.4840660491015
  0
LINE
  8
_0-1_dxfile
  6
CONTINUOUS
 62
    3
 10
299.61498042062925
 20
438.35073304910151
 11
299.61498042062925
 21
425.81739904910154
  0
LINE
  8
_0-1_dxfile
  6
CONTINUOUS
 62
    3
 10
299.61498042062925
 20
451.68406604910155
 11
299.61498042062925
 21
439.15073304910152
  0
LINE
  8
_0-1_dxfile
  6
CONTINUOUS
 62
    3
 10
299.61498042062925
 20
465.01739904910153
 11
299.61498042062925
 21
452.48406604910144
  0
LINE
  8
_0-1_dxfile
  6
CONTINUOUS
 62
    3
 10
299.61498042062925
 20
490.08406604910141
 11
299.61498042062925
 21
479.1507330491014
  0
LINE
  8
_0-1_dxfile
  6
CONTINUOUS
 62
    3
 10
299.61498042062925
 20
478.35073304910145
 11
299.61498042062925
 21
465.81739904910154
  0
LINE
  8
_0-1_dxfile
  6
PLine1
 62
    3
 10
282.28164742062927
 20
507.4173990491015
 11
282.28164742062927
 21
356.75073304910154
  0
LINE
  8
_0-1_dxfile
  6
CONTINUOUS
 62
    3
 10
434.94831342062929
 20
509.4173990491015
 11
434.94831342062929
 21
354.75073304910154
  0
LINE
  8
_0-1_dxfile
  6
CONTINUOUS
 62
    3
 10
424.94831342062918
 20
499.4173990491015
 11
424.94831342062918
 21
364.75073304910154
  0
LINE
  8
_0-1_dxfile
  6
CONTINUOUS
 62
    3
 10
419.61498042062925
 20
494.08406604910141
 11
419.61498042062925
 21
370.08406604910152
  0
LINE
  8
_0-1_dxfile
  6
CONTINUOUS
 62
    3
 10
415.61498042062919
 20
490.08406604910141
 11
415.61498042062919
 21
479.1507330491014
  0
LINE
  8
_0-1_dxfile
  6
CONTINUOUS
 62
    3
 10
415.61498042062919
 20
478.35073304910145
 11
415.61498042062919
 21
465.81739904910154
  0
LINE
  8
_0-1_dxfile
  6
CONTINUOUS
 62
    3
 10
415.61498042062919
 20
465.01739904910153
 11
415.61498042062919
 21
452.48406604910144
  0
LINE
  8
_0-1_dxfile
  6
CONTINUOUS
 62
    3
 10
415.61498042062919
 20
451.68406604910155
 11
415.61498042062919
 21
439.15073304910152
  0
LINE
  8
_0-1_dxfile
  6
CONTINUOUS
 62
    3
 10
415.61498042062919
 20
438.35073304910151
 11
415.61498042062919
 21
425.81739904910154
  0
LINE
  8
_0-1_dxfile
  6
CONTINUOUS
 62
    3
 10
415.61498042062919
 20
425.01739904910153
 11
415.61498042062919
 21
412.4840660491015
  0
LINE
  8
_0-1_dxfile
  6
CONTINUOUS
 62
    3
 10
415.61498042062919
 20
411.68406604910155
 11
415.61498042062919
 21
399.15073304910152
  0
LINE
  8
_0-1_dxfile
  6
CONTINUOUS
 62
    3
 10
415.61498042062919
 20
398.35073304910151
 11
415.61498042062919
 21
385.81739904910154
  0
LINE
  8
_0-1_dxfile
  6
CONTINUOUS
 62
    3
 10
415.61498042062919
 20
385.01739904910153
 11
415.61498042062919
 21
374.08406604910152
  0
LINE
  8
_0-1_dxfile
  6
PLine1
 62
    3
 10
432.94831342062918
 20
507.4173990491015
 11
432.94831342062918
 21
356.75073304910154
  0
LINE
  8
_0-1_dxfile
  6
PLine1
 62
    3
 10
290.48164742062926
 20
364.95073304910153
 11
424.74831342062919
 21
364.95073304910153
  0
LINE
  8
_0-1_dxfile
  6
PLine1
 62
    3
 10
424.74831342062919
 20
364.95073304910153
 11
424.74831342062919
 21
499.21739904910152
  0
LINE
  8
_0-1_dxfile
  6
PLine1
 62
    3
 10
424.74831342062919
 20
499.21739904910152
 11
290.48164742062926
 21
499.21739904910152
  0
LINE
  8
_0-1_dxfile
  6
PLine1
 62
    3
 10
290.48164742062926
 20
499.21739904910152
 11
290.48164742062926
 21
364.95073304910153
  0
LINE
  8
_0-1_dxfile
  6
PLine1
 62
    3
 10
295.41498042062926
 20
369.88406604910153
 11
419.81498042062924
 21
369.88406604910153
  0
LINE
  8
_0-1_dxfile
  6
PLine1
 62
    3
 10
419.81498042062924
 20
369.88406604910153
 11
419.81498042062924
 21
494.28406604910145
  0
LINE
  8
_0-1_dxfile
  6
PLine1
 62
    3
 10
419.81498042062924
 20
494.28406604910145
 11
295.41498042062926
 21
494.28406604910145
  0
LINE
  8
_0-1_dxfile
  6
PLine1
 62
    3
 10
295.41498042062926
 20
494.28406604910145
 11
295.41498042062926
 21
369.88406604910153
  0
LINE
  8
_0-1_dxfile
  6
CONTINUOUS
 62
    3
 10
295.88164742062929
 20
370.35073304910151
 11
419.34831342062915
 21
370.35073304910151
  0
LINE
  8
_0-1_dxfile
  6
CONTINUOUS
 62
    3
 10
419.34831342062915
 20
370.35073304910151
 11
419.34831342062915
 21
493.81739904910143
  0
LINE
  8
_0-1_dxfile
  6
CONTINUOUS
 62
    3
 10
419.34831342062915
 20
493.81739904910143
 11
295.88164742062929
 21
493.81739904910143
  0
LINE
  8
_0-1_dxfile
  6
CONTINUOUS
 62
    3
 10
295.88164742062929
 20
493.81739904910143
 11
295.88164742062929
 21
370.35073304910151
  0
LINE
  8
_0-1_dxfile
  6
CONTINUOUS
 62
    4
 10
296.94831342062929
 20
479.1507330491014
 11
297.21498042062927
 21
479.1507330491014
  0
LINE
  8
_0-1_dxfile
  6
CONTINUOUS
 62
    4
 10
296.94831342062929
 20
478.35073304910145
 11
297.21498042062927
 21
478.35073304910145
  0
LINE
  8
_0-1_dxfile
  6
CONTINUOUS
 62
    4
 10
418.01498042062929
 20
479.1507330491014
 11
418.28164642062916
 21
479.1507330491014
  0
LINE
  8
_0-1_dxfile
  6
CONTINUOUS
 62
    4
 10
418.01498042062929
 20
478.35073304910145
 11
418.28164642062916
 21
478.35073304910145
  0
LINE
  8
_0-1_dxfile
  6
CONTINUOUS
 62
    4
 10
298.01498042062929
 20
479.1507330491014
 11
310.54831342062926
 21
479.1507330491014
  0
LINE
  8
_0-1_dxfile
  6
CONTINUOUS
 62
    4
 10
298.01498042062929
 20
478.35073304910145
 11
310.54831342062926
 21
478.35073304910145
  0
LINE
  8
_0-1_dxfile
  6
CONTINUOUS
 62
    4
 10
311.34831342062927
 20
479.1507330491014
 11
323.88164642062935
 21
479.1507330491014
  0
LINE
  8
_0-1_dxfile
  6
CONTINUOUS
 62
    4
 10
311.34831342062927
 20
478.35073304910145
 11
323.88164642062935
 21
478.35073304910145
  0
LINE
  8
_0-1_dxfile
  6
CONTINUOUS
 62
    4
 10
324.68164642062925
 20
479.1507330491014
 11
337.21498042062927
 21
479.1507330491014
  0
LINE
  8
_0-1_dxfile
  6
CONTINUOUS
 62
    4
 10
324.68164642062925
 20
478.35073304910145
 11
337.21498042062927
 21
478.35073304910145
  0
LINE
  8
_0-1_dxfile
  6
CONTINUOUS
 62
    4
 10
338.01498042062929
 20
479.1507330491014
 11
350.54831342062926
 21
479.1507330491014
  0
LINE
  8
_0-1_dxfile
  6
CONTINUOUS
 62
    4
 10
338.01498042062929
 20
478.35073304910145
 11
350.54831342062926
 21
478.35073304910145
  0
LINE
  8
_0-1_dxfile
  6
CONTINUOUS
 62
    4
 10
351.34831342062927
 20
479.1507330491014
 11
363.88164642062929
 21
479.1507330491014
  0
LINE
  8
_0-1_dxfile
  6
CONTINUOUS
 62
    4
 10
351.34831342062927
 20
478.35073304910145
 11
363.88164642062929
 21
478.35073304910145
  0
LINE
  8
_0-1_dxfile
  6
CONTINUOUS
 62
    4
 10
364.68164642062925
 20
479.1507330491014
 11
377.21498042062927
 21
479.1507330491014
  0
LINE
  8
_0-1_dxfile
  6
CONTINUOUS
 62
    4
 10
364.68164642062925
 20
478.35073304910145
 11
377.21498042062927
 21
478.35073304910145
  0
LINE
  8
_0-1_dxfile
  6
CONTINUOUS
 62
    4
 10
378.01498042062929
 20
479.1507330491014
 11
390.54831342062926
 21
479.1507330491014
  0
LINE
  8
_0-1_dxfile
  6
CONTINUOUS
 62
    4
 10
378.01498042062929
 20
478.35073304910145
 11
390.54831342062926
 21
478.35073304910145
  0
LINE
  8
_0-1_dxfile
  6
CONTINUOUS
 62
    4
 10
391.34831342062927
 20
479.1507330491014
 11
403.88164642062929
 21
479.1507330491014
  0
LINE
  8
_0-1_dxfile
  6
CONTINUOUS
 62
    4
 10
404.68164642062919
 20
479.1507330491014
 11
417.21498042062927
 21
479.1507330491014
  0
LINE
  8
_0-1_dxfile
  6
CONTINUOUS
 62
    4
 10
391.34831342062927
 20
478.35073304910145
 11
403.88164642062929
 21
478.35073304910145
  0
LINE
  8
_0-1_dxfile
  6
CONTINUOUS
 62
    4
 10
404.68164642062919
 20
478.35073304910145
 11
417.21498042062927
 21
478.35073304910145
  0
LINE
  8
_0-1_dxfile
  6
CONTINUOUS
 62
    4
 10
296.94831342062929
 20
465.81739904910154
 11
297.21498042062927
 21
465.81739904910154
  0
LINE
  8
_0-1_dxfile
  6
CONTINUOUS
 62
    4
 10
296.94831342062929
 20
465.01739904910153
 11
297.21498042062927
 21
465.01739904910153
  0
LINE
  8
_0-1_dxfile
  6
CONTINUOUS
 62
    4
 10
418.01498042062929
 20
465.81739904910154
 11
418.28164642062916
 21
465.81739904910154
  0
LINE
  8
_0-1_dxfile
  6
CONTINUOUS
 62
    4
 10
418.01498042062929
 20
465.01739904910153
 11
418.28164642062916
 21
465.01739904910153
  0
LINE
  8
_0-1_dxfile
  6
CONTINUOUS
 62
    4
 10
298.01498042062929
 20
465.81739904910154
 11
310.54831342062926
 21
465.81739904910154
  0
LINE
  8
_0-1_dxfile
  6
CONTINUOUS
 62
    4
 10
298.01498042062929
 20
465.01739904910153
 11
310.54831342062926
 21
465.01739904910153
  0
LINE
  8
_0-1_dxfile
  6
CONTINUOUS
 62
    4
 10
311.34831342062927
 20
465.81739904910154
 11
323.88164642062935
 21
465.81739904910154
  0
LINE
  8
_0-1_dxfile
  6
CONTINUOUS
 62
    4
 10
311.34831342062927
 20
465.01739904910153
 11
323.88164642062935
 21
465.01739904910153
  0
LINE
  8
_0-1_dxfile
  6
CONTINUOUS
 62
    4
 10
324.68164642062925
 20
465.81739904910154
 11
337.21498042062927
 21
465.81739904910154
  0
LINE
  8
_0-1_dxfile
  6
CONTINUOUS
 62
    4
 10
324.68164642062925
 20
465.01739904910153
 11
337.21498042062927
 21
465.01739904910153
  0
LINE
  8
_0-1_dxfile
  6
CONTINUOUS
 62
    4
 10
338.01498042062929
 20
465.81739904910154
 11
350.54831342062926
 21
465.81739904910154
  0
LINE
  8
_0-1_dxfile
  6
CONTINUOUS
 62
    4
 10
338.01498042062929
 20
465.01739904910153
 11
350.54831342062926
 21
465.01739904910153
  0
LINE
  8
_0-1_dxfile
  6
CONTINUOUS
 62
    4
 10
351.34831342062927
 20
465.81739904910154
 11
363.88164642062929
 21
465.81739904910154
  0
LINE
  8
_0-1_dxfile
  6
CONTINUOUS
 62
    4
 10
351.34831342062927
 20
465.01739904910153
 11
363.88164642062929
 21
465.01739904910153
  0
LINE
  8
_0-1_dxfile
  6
CONTINUOUS
 62
    4
 10
364.68164642062925
 20
465.81739904910154
 11
377.21498042062927
 21
465.81739904910154
  0
LINE
  8
_0-1_dxfile
  6
CONTINUOUS
 62
    4
 10
378.01498042062929
 20
465.81739904910154
 11
390.54831342062926
 21
465.81739904910154
  0
LINE
  8
_0-1_dxfile
  6
CONTINUOUS
 62
    4
 10
364.68164642062925
 20
465.01739904910153
 11
377.21498042062927
 21
465.01739904910153
  0
LINE
  8
_0-1_dxfile
  6
CONTINUOUS
 62
    4
 10
378.01498042062929
 20
465.01739904910153
 11
390.54831342062926
 21
465.01739904910153
  0
LINE
  8
_0-1_dxfile
  6
CONTINUOUS
 62
    4
 10
391.34831342062927
 20
465.81739904910154
 11
403.88164642062929
 21
465.81739904910154
  0
LINE
  8
_0-1_dxfile
  6
CONTINUOUS
 62
    4
 10
404.68164642062919
 20
465.81739904910154
 11
417.21498042062927
 21
465.81739904910154
  0
LINE
  8
_0-1_dxfile
  6
CONTINUOUS
 62
    4
 10
391.34831342062927
 20
465.01739904910153
 11
403.88164642062929
 21
465.01739904910153
  0
LINE
  8
_0-1_dxfile
  6
CONTINUOUS
 62
    4
 10
404.68164642062919
 20
465.01739904910153
 11
417.21498042062927
 21
465.01739904910153
  0
LINE
  8
_0-1_dxfile
  6
CONTINUOUS
 62
    4
 10
296.94831342062929
 20
452.48406604910144
 11
297.21498042062927
 21
452.48406604910144
  0
LINE
  8
_0-1_dxfile
  6
CONTINUOUS
 62
    4
 10
296.94831342062929
 20
451.68406604910155
 11
297.21498042062927
 21
451.68406604910155
  0
LINE
  8
_0-1_dxfile
  6
CONTINUOUS
 62
    4
 10
418.01498042062929
 20
452.48406604910144
 11
418.28164642062916
 21
452.48406604910144
  0
LINE
  8
_0-1_dxfile
  6
CONTINUOUS
 62
    4
 10
418.01498042062929
 20
451.68406604910155
 11
418.28164642062916
 21
451.68406604910155
  0
LINE
  8
_0-1_dxfile
  6
CONTINUOUS
 62
    4
 10
298.01498042062929
 20
452.48406604910144
 11
310.54831342062926
 21
452.48406604910144
  0
LINE
  8
_0-1_dxfile
  6
CONTINUOUS
 62
    4
 10
298.01498042062929
 20
451.68406604910155
 11
310.54831342062926
 21
451.68406604910155
  0
LINE
  8
_0-1_dxfile
  6
CONTINUOUS
 62
    4
 10
311.34831342062927
 20
452.48406604910144
 11
323.88164642062935
 21
452.48406604910144
  0
LINE
  8
_0-1_dxfile
  6
CONTINUOUS
 62
    4
 10
311.34831342062927
 20
451.68406604910155
 11
323.88164642062935
 21
451.68406604910155
  0
LINE
  8
_0-1_dxfile
  6
CONTINUOUS
 62
    4
 10
324.68164642062925
 20
452.48406604910144
 11
337.21498042062927
 21
452.48406604910144
  0
LINE
  8
_0-1_dxfile
  6
CONTINUOUS
 62
    4
 10
324.68164642062925
 20
451.68406604910155
 11
337.21498042062927
 21
451.68406604910155
  0
LINE
  8
_0-1_dxfile
  6
CONTINUOUS
 62
    4
 10
338.01498042062929
 20
452.48406604910144
 11
350.54831342062926
 21
452.48406604910144
  0
LINE
  8
_0-1_dxfile
  6
CONTINUOUS
 62
    4
 10
338.01498042062929
 20
451.68406604910155
 11
350.54831342062926
 21
451.68406604910155
  0
LINE
  8
_0-1_dxfile
  6
CONTINUOUS
 62
    4
 10
351.34831342062927
 20
452.48406604910144
 11
363.88164642062929
 21
452.48406604910144
  0
LINE
  8
_0-1_dxfile
  6
CONTINUOUS
 62
    4
 10
351.34831342062927
 20
451.68406604910155
 11
363.88164642062929
 21
451.68406604910155
  0
LINE
  8
_0-1_dxfile
  6
CONTINUOUS
 62
    4
 10
364.68164642062925
 20
452.48406604910144
 11
377.21498042062927
 21
452.48406604910144
  0
LINE
  8
_0-1_dxfile
  6
CONTINUOUS
 62
    4
 10
364.68164642062925
 20
451.68406604910155
 11
377.21498042062927
 21
451.68406604910155
  0
LINE
  8
_0-1_dxfile
  6
CONTINUOUS
 62
    4
 10
378.01498042062929
 20
452.48406604910144
 11
390.54831342062926
 21
452.48406604910144
  0
LINE
  8
_0-1_dxfile
  6
CONTINUOUS
 62
    4
 10
378.01498042062929
 20
451.68406604910155
 11
390.54831342062926
 21
451.68406604910155
  0
LINE
  8
_0-1_dxfile
  6
CONTINUOUS
 62
    4
 10
391.34831342062927
 20
452.48406604910144
 11
403.88164642062929
 21
452.48406604910144
  0
LINE
  8
_0-1_dxfile
  6
CONTINUOUS
 62
    4
 10
404.68164642062919
 20
452.48406604910144
 11
417.21498042062927
 21
452.48406604910144
  0
LINE
  8
_0-1_dxfile
  6
CONTINUOUS
 62
    4
 10
391.34831342062927
 20
451.68406604910155
 11
403.88164642062929
 21
451.68406604910155
  0
LINE
  8
_0-1_dxfile
  6
CONTINUOUS
 62
    4
 10
404.68164642062919
 20
451.68406604910155
 11
417.21498042062927
 21
451.68406604910155
  0
LINE
  8
_0-1_dxfile
  6
CONTINUOUS
 62
    4
 10
296.94831342062929
 20
439.15073304910152
 11
297.21498042062927
 21
439.15073304910152
  0
LINE
  8
_0-1_dxfile
  6
CONTINUOUS
 62
    4
 10
296.94831342062929
 20
438.35073304910151
 11
297.21498042062927
 21
438.35073304910151
  0
LINE
  8
_0-1_dxfile
  6
CONTINUOUS
 62
    4
 10
418.01498042062929
 20
439.15073304910152
 11
418.28164642062916
 21
439.15073304910152
  0
LINE
  8
_0-1_dxfile
  6
CONTINUOUS
 62
    4
 10
418.01498042062929
 20
438.35073304910151
 11
418.28164642062916
 21
438.35073304910151
  0
LINE
  8
_0-1_dxfile
  6
CONTINUOUS
 62
    4
 10
298.01498042062929
 20
439.15073304910152
 11
310.54831342062926
 21
439.15073304910152
  0
LINE
  8
_0-1_dxfile
  6
CONTINUOUS
 62
    4
 10
298.01498042062929
 20
438.35073304910151
 11
310.54831342062926
 21
438.35073304910151
  0
LINE
  8
_0-1_dxfile
  6
CONTINUOUS
 62
    4
 10
311.34831342062927
 20
439.15073304910152
 11
323.88164642062935
 21
439.15073304910152
  0
LINE
  8
_0-1_dxfile
  6
CONTINUOUS
 62
    4
 10
311.34831342062927
 20
438.35073304910151
 11
323.88164642062935
 21
438.35073304910151
  0
LINE
  8
_0-1_dxfile
  6
CONTINUOUS
 62
    4
 10
324.68164642062925
 20
439.15073304910152
 11
337.21498042062927
 21
439.15073304910152
  0
LINE
  8
_0-1_dxfile
  6
CONTINUOUS
 62
    4
 10
324.68164642062925
 20
438.35073304910151
 11
337.21498042062927
 21
438.35073304910151
  0
LINE
  8
_0-1_dxfile
  6
CONTINUOUS
 62
    4
 10
338.01498042062929
 20
439.15073304910152
 11
350.54831342062926
 21
439.15073304910152
  0
LINE
  8
_0-1_dxfile
  6
CONTINUOUS
 62
    4
 10
338.01498042062929
 20
438.35073304910151
 11
350.54831342062926
 21
438.35073304910151
  0
LINE
  8
_0-1_dxfile
  6
CONTINUOUS
 62
    4
 10
351.34831342062927
 20
439.15073304910152
 11
363.88164642062929
 21
439.15073304910152
  0
LINE
  8
_0-1_dxfile
  6
CONTINUOUS
 62
    4
 10
351.34831342062927
 20
438.35073304910151
 11
363.88164642062929
 21
438.35073304910151
  0
LINE
  8
_0-1_dxfile
  6
CONTINUOUS
 62
    4
 10
364.68164642062925
 20
439.15073304910152
 11
377.21498042062927
 21
439.15073304910152
  0
LINE
  8
_0-1_dxfile
  6
CONTINUOUS
 62
    4
 10
364.68164642062925
 20
438.35073304910151
 11
377.21498042062927
 21
438.35073304910151
  0
LINE
  8
_0-1_dxfile
  6
CONTINUOUS
 62
    4
 10
378.01498042062929
 20
439.15073304910152
 11
390.54831342062926
 21
439.15073304910152
  0
LINE
  8
_0-1_dxfile
  6
CONTINUOUS
 62
    4
 10
378.01498042062929
 20
438.35073304910151
 11
390.54831342062926
 21
438.35073304910151
  0
LINE
  8
_0-1_dxfile
  6
CONTINUOUS
 62
    4
 10
391.34831342062927
 20
439.15073304910152
 11
403.88164642062929
 21
439.15073304910152
  0
LINE
  8
_0-1_dxfile
  6
CONTINUOUS
 62
    4
 10
404.68164642062919
 20
439.15073304910152
 11
417.21498042062927
 21
439.15073304910152
  0
LINE
  8
_0-1_dxfile
  6
CONTINUOUS
 62
    4
 10
391.34831342062927
 20
438.35073304910151
 11
403.88164642062929
 21
438.35073304910151
  0
LINE
  8
_0-1_dxfile
  6
CONTINUOUS
 62
    4
 10
404.68164642062919
 20
438.35073304910151
 11
417.21498042062927
 21
438.35073304910151
  0
LINE
  8
_0-1_dxfile
  6
CONTINUOUS
 62
    4
 10
296.94831342062929
 20
385.81739904910154
 11
297.21498042062927
 21
385.81739904910154
  0
LINE
  8
_0-1_dxfile
  6
CONTINUOUS
 62
    4
 10
296.94831342062929
 20
385.01739904910153
 11
297.21498042062927
 21
385.01739904910153
  0
LINE
  8
_0-1_dxfile
  6
CONTINUOUS
 62
    4
 10
418.01498042062929
 20
385.81739904910154
 11
418.28164642062916
 21
385.81739904910154
  0
LINE
  8
_0-1_dxfile
  6
CONTINUOUS
 62
    4
 10
418.01498042062929
 20
385.01739904910153
 11
418.28164642062916
 21
385.01739904910153
  0
LINE
  8
_0-1_dxfile
  6
CONTINUOUS
 62
    4
 10
298.01498042062929
 20
385.81739904910154
 11
310.54831342062926
 21
385.81739904910154
  0
LINE
  8
_0-1_dxfile
  6
CONTINUOUS
 62
    4
 10
298.01498042062929
 20
385.01739904910153
 11
310.54831342062926
 21
385.01739904910153
  0
LINE
  8
_0-1_dxfile
  6
CONTINUOUS
 62
    4
 10
311.34831342062927
 20
385.81739904910154
 11
323.88164642062935
 21
385.81739904910154
  0
LINE
  8
_0-1_dxfile
  6
CONTINUOUS
 62
    4
 10
311.34831342062927
 20
385.01739904910153
 11
323.88164642062935
 21
385.01739904910153
  0
LINE
  8
_0-1_dxfile
  6
CONTINUOUS
 62
    4
 10
324.68164642062925
 20
385.81739904910154
 11
337.21498042062927
 21
385.81739904910154
  0
LINE
  8
_0-1_dxfile
  6
CONTINUOUS
 62
    4
 10
324.68164642062925
 20
385.01739904910153
 11
337.21498042062927
 21
385.01739904910153
  0
LINE
  8
_0-1_dxfile
  6
CONTINUOUS
 62
    4
 10
338.01498042062929
 20
385.81739904910154
 11
350.54831342062926
 21
385.81739904910154
  0
LINE
  8
_0-1_dxfile
  6
CONTINUOUS
 62
    4
 10
338.01498042062929
 20
385.01739904910153
 11
350.54831342062926
 21
385.01739904910153
  0
LINE
  8
_0-1_dxfile
  6
CONTINUOUS
 62
    4
 10
351.34831342062927
 20
385.81739904910154
 11
363.88164642062929
 21
385.81739904910154
  0
LINE
  8
_0-1_dxfile
  6
CONTINUOUS
 62
    4
 10
351.34831342062927
 20
385.01739904910153
 11
363.88164642062929
 21
385.01739904910153
  0
LINE
  8
_0-1_dxfile
  6
CONTINUOUS
 62
    4
 10
364.68164642062925
 20
385.81739904910154
 11
377.21498042062927
 21
385.81739904910154
  0
LINE
  8
_0-1_dxfile
  6
CONTINUOUS
 62
    4
 10
364.68164642062925
 20
385.01739904910153
 11
377.21498042062927
 21
385.01739904910153
  0
LINE
  8
_0-1_dxfile
  6
CONTINUOUS
 62
    4
 10
378.01498042062929
 20
385.81739904910154
 11
390.54831342062926
 21
385.81739904910154
  0
LINE
  8
_0-1_dxfile
  6
CONTINUOUS
 62
    4
 10
378.01498042062929
 20
385.01739904910153
 11
390.54831342062926
 21
385.01739904910153
  0
LINE
  8
_0-1_dxfile
  6
CONTINUOUS
 62
    4
 10
391.34831342062927
 20
385.81739904910154
 11
403.88164642062929
 21
385.81739904910154
  0
LINE
  8
_0-1_dxfile
  6
CONTINUOUS
 62
    4
 10
404.68164642062919
 20
385.81739904910154
 11
417.21498042062927
 21
385.81739904910154
  0
LINE
  8
_0-1_dxfile
  6
CONTINUOUS
 62
    4
 10
391.34831342062927
 20
385.01739904910153
 11
403.88164642062929
 21
385.01739904910153
  0
LINE
  8
_0-1_dxfile
  6
CONTINUOUS
 62
    4
 10
404.68164642062919
 20
385.01739904910153
 11
417.21498042062927
 21
385.01739904910153
  0
LINE
  8
_0-1_dxfile
  6
CONTINUOUS
 62
    4
 10
296.94831342062929
 20
399.15073304910152
 11
297.21498042062927
 21
399.15073304910152
  0
LINE
  8
_0-1_dxfile
  6
CONTINUOUS
 62
    4
 10
296.94831342062929
 20
398.35073304910151
 11
297.21498042062927
 21
398.35073304910151
  0
LINE
  8
_0-1_dxfile
  6
CONTINUOUS
 62
    4
 10
418.01498042062929
 20
399.15073304910152
 11
418.28164642062916
 21
399.15073304910152
  0
LINE
  8
_0-1_dxfile
  6
CONTINUOUS
 62
    4
 10
418.01498042062929
 20
398.35073304910151
 11
418.28164642062916
 21
398.35073304910151
  0
LINE
  8
_0-1_dxfile
  6
CONTINUOUS
 62
    4
 10
298.01498042062929
 20
399.15073304910152
 11
310.54831342062926
 21
399.15073304910152
  0
LINE
  8
_0-1_dxfile
  6
CONTINUOUS
 62
    4
 10
298.01498042062929
 20
398.35073304910151
 11
310.54831342062926
 21
398.35073304910151
  0
LINE
  8
_0-1_dxfile
  6
CONTINUOUS
 62
    4
 10
311.34831342062927
 20
399.15073304910152
 11
323.88164642062935
 21
399.15073304910152
  0
LINE
  8
_0-1_dxfile
  6
CONTINUOUS
 62
    4
 10
311.34831342062927
 20
398.35073304910151
 11
323.88164642062935
 21
398.35073304910151
  0
LINE
  8
_0-1_dxfile
  6
CONTINUOUS
 62
    4
 10
324.68164642062925
 20
399.15073304910152
 11
337.21498042062927
 21
399.15073304910152
  0
LINE
  8
_0-1_dxfile
  6
CONTINUOUS
 62
    4
 10
324.68164642062925
 20
398.35073304910151
 11
337.21498042062927
 21
398.35073304910151
  0
LINE
  8
_0-1_dxfile
  6
CONTINUOUS
 62
    4
 10
338.01498042062929
 20
399.15073304910152
 11
350.54831342062926
 21
399.15073304910152
  0
LINE
  8
_0-1_dxfile
  6
CONTINUOUS
 62
    4
 10
338.01498042062929
 20
398.35073304910151
 11
350.54831342062926
 21
398.35073304910151
  0
LINE
  8
_0-1_dxfile
  6
CONTINUOUS
 62
    4
 10
351.34831342062927
 20
399.15073304910152
 11
363.88164642062929
 21
399.15073304910152
  0
LINE
  8
_0-1_dxfile
  6
CONTINUOUS
 62
    4
 10
351.34831342062927
 20
398.35073304910151
 11
363.88164642062929
 21
398.35073304910151
  0
LINE
  8
_0-1_dxfile
  6
CONTINUOUS
 62
    4
 10
364.68164642062925
 20
399.15073304910152
 11
377.21498042062927
 21
399.15073304910152
  0
LINE
  8
_0-1_dxfile
  6
CONTINUOUS
 62
    4
 10
364.68164642062925
 20
398.35073304910151
 11
377.21498042062927
 21
398.35073304910151
  0
LINE
  8
_0-1_dxfile
  6
CONTINUOUS
 62
    4
 10
378.01498042062929
 20
399.15073304910152
 11
390.54831342062926
 21
399.15073304910152
  0
LINE
  8
_0-1_dxfile
  6
CONTINUOUS
 62
    4
 10
378.01498042062929
 20
398.35073304910151
 11
390.54831342062926
 21
398.35073304910151
  0
LINE
  8
_0-1_dxfile
  6
CONTINUOUS
 62
    4
 10
391.34831342062927
 20
399.15073304910152
 11
403.88164642062929
 21
399.15073304910152
  0
LINE
  8
_0-1_dxfile
  6
CONTINUOUS
 62
    4
 10
404.68164642062919
 20
399.15073304910152
 11
417.21498042062927
 21
399.15073304910152
  0
LINE
  8
_0-1_dxfile
  6
CONTINUOUS
 62
    4
 10
391.34831342062927
 20
398.35073304910151
 11
403.88164642062929
 21
398.35073304910151
  0
LINE
  8
_0-1_dxfile
  6
CONTINUOUS
 62
    4
 10
404.68164642062919
 20
398.35073304910151
 11
417.21498042062927
 21
398.35073304910151
  0
LINE
  8
_0-1_dxfile
  6
CONTINUOUS
 62
    4
 10
296.94831342062929
 20
412.4840660491015
 11
297.21498042062927
 21
412.4840660491015
  0
LINE
  8
_0-1_dxfile
  6
CONTINUOUS
 62
    4
 10
296.94831342062929
 20
411.68406604910155
 11
297.21498042062927
 21
411.68406604910155
  0
LINE
  8
_0-1_dxfile
  6
CONTINUOUS
 62
    4
 10
418.01498042062929
 20
412.4840660491015
 11
418.28164642062916
 21
412.4840660491015
  0
LINE
  8
_0-1_dxfile
  6
CONTINUOUS
 62
    4
 10
418.01498042062929
 20
411.68406604910155
 11
418.28164642062916
 21
411.68406604910155
  0
LINE
  8
_0-1_dxfile
  6
CONTINUOUS
 62
    4
 10
298.01498042062929
 20
412.4840660491015
 11
310.54831342062926
 21
412.4840660491015
  0
LINE
  8
_0-1_dxfile
  6
CONTINUOUS
 62
    4
 10
298.01498042062929
 20
411.68406604910155
 11
310.54831342062926
 21
411.68406604910155
  0
LINE
  8
_0-1_dxfile
  6
CONTINUOUS
 62
    4
 10
311.34831342062927
 20
412.4840660491015
 11
323.88164642062935
 21
412.4840660491015
  0
LINE
  8
_0-1_dxfile
  6
CONTINUOUS
 62
    4
 10
311.34831342062927
 20
411.68406604910155
 11
323.88164642062935
 21
411.68406604910155
  0
LINE
  8
_0-1_dxfile
  6
CONTINUOUS
 62
    4
 10
324.68164642062925
 20
412.4840660491015
 11
337.21498042062927
 21
412.4840660491015
  0
LINE
  8
_0-1_dxfile
  6
CONTINUOUS
 62
    4
 10
324.68164642062925
 20
411.68406604910155
 11
337.21498042062927
 21
411.68406604910155
  0
LINE
  8
_0-1_dxfile
  6
CONTINUOUS
 62
    4
 10
338.01498042062929
 20
412.4840660491015
 11
350.54831342062926
 21
412.4840660491015
  0
LINE
  8
_0-1_dxfile
  6
CONTINUOUS
 62
    4
 10
338.01498042062929
 20
411.68406604910155
 11
350.54831342062926
 21
411.68406604910155
  0
LINE
  8
_0-1_dxfile
  6
CONTINUOUS
 62
    4
 10
351.34831342062927
 20
412.4840660491015
 11
363.88164642062929
 21
412.4840660491015
  0
LINE
  8
_0-1_dxfile
  6
CONTINUOUS
 62
    4
 10
351.34831342062927
 20
411.68406604910155
 11
363.88164642062929
 21
411.68406604910155
  0
LINE
  8
_0-1_dxfile
  6
CONTINUOUS
 62
    4
 10
364.68164642062925
 20
412.4840660491015
 11
377.21498042062927
 21
412.4840660491015
  0
LINE
  8
_0-1_dxfile
  6
CONTINUOUS
 62
    4
 10
364.68164642062925
 20
411.68406604910155
 11
377.21498042062927
 21
411.68406604910155
  0
LINE
  8
_0-1_dxfile
  6
CONTINUOUS
 62
    4
 10
378.01498042062929
 20
412.4840660491015
 11
390.54831342062926
 21
412.4840660491015
  0
LINE
  8
_0-1_dxfile
  6
CONTINUOUS
 62
    4
 10
378.01498042062929
 20
411.68406604910155
 11
390.54831342062926
 21
411.68406604910155
  0
LINE
  8
_0-1_dxfile
  6
CONTINUOUS
 62
    4
 10
391.34831342062927
 20
412.4840660491015
 11
403.88164642062929
 21
412.4840660491015
  0
LINE
  8
_0-1_dxfile
  6
CONTINUOUS
 62
    4
 10
404.68164642062919
 20
412.4840660491015
 11
417.21498042062927
 21
412.4840660491015
  0
LINE
  8
_0-1_dxfile
  6
CONTINUOUS
 62
    4
 10
391.34831342062927
 20
411.68406604910155
 11
403.88164642062929
 21
411.68406604910155
  0
LINE
  8
_0-1_dxfile
  6
CONTINUOUS
 62
    4
 10
404.68164642062919
 20
411.68406604910155
 11
417.21498042062927
 21
411.68406604910155
  0
LINE
  8
_0-1_dxfile
  6
CONTINUOUS
 62
    4
 10
296.94831342062929
 20
425.81739904910154
 11
297.21498042062927
 21
425.81739904910154
  0
LINE
  8
_0-1_dxfile
  6
CONTINUOUS
 62
    4
 10
296.94831342062929
 20
425.01739904910153
 11
297.21498042062927
 21
425.01739904910153
  0
LINE
  8
_0-1_dxfile
  6
CONTINUOUS
 62
    4
 10
418.01498042062929
 20
425.81739904910154
 11
418.28164642062916
 21
425.81739904910154
  0
LINE
  8
_0-1_dxfile
  6
CONTINUOUS
 62
    4
 10
418.01498042062929
 20
425.01739904910153
 11
418.28164642062916
 21
425.01739904910153
  0
LINE
  8
_0-1_dxfile
  6
CONTINUOUS
 62
    4
 10
298.01498042062929
 20
425.81739904910154
 11
310.54831342062926
 21
425.81739904910154
  0
LINE
  8
_0-1_dxfile
  6
CONTINUOUS
 62
    4
 10
298.01498042062929
 20
425.01739904910153
 11
310.54831342062926
 21
425.01739904910153
  0
LINE
  8
_0-1_dxfile
  6
CONTINUOUS
 62
    4
 10
311.34831342062927
 20
425.81739904910154
 11
323.88164642062935
 21
425.81739904910154
  0
LINE
  8
_0-1_dxfile
  6
CONTINUOUS
 62
    4
 10
311.34831342062927
 20
425.01739904910153
 11
323.88164642062935
 21
425.01739904910153
  0
LINE
  8
_0-1_dxfile
  6
CONTINUOUS
 62
    4
 10
324.68164642062925
 20
425.81739904910154
 11
337.21498042062927
 21
425.81739904910154
  0
LINE
  8
_0-1_dxfile
  6
CONTINUOUS
 62
    4
 10
324.68164642062925
 20
425.01739904910153
 11
337.21498042062927
 21
425.01739904910153
  0
LINE
  8
_0-1_dxfile
  6
CONTINUOUS
 62
    4
 10
338.01498042062929
 20
425.81739904910154
 11
350.54831342062926
 21
425.81739904910154
  0
LINE
  8
_0-1_dxfile
  6
CONTINUOUS
 62
    4
 10
338.01498042062929
 20
425.01739904910153
 11
350.54831342062926
 21
425.01739904910153
  0
LINE
  8
_0-1_dxfile
  6
CONTINUOUS
 62
    4
 10
351.34831342062927
 20
425.81739904910154
 11
363.88164642062929
 21
425.81739904910154
  0
LINE
  8
_0-1_dxfile
  6
CONTINUOUS
 62
    4
 10
351.34831342062927
 20
425.01739904910153
 11
363.88164642062929
 21
425.01739904910153
  0
LINE
  8
_0-1_dxfile
  6
CONTINUOUS
 62
    4
 10
364.68164642062925
 20
425.01739904910153
 11
377.21498042062927
 21
425.01739904910153
  0
LINE
  8
_0-1_dxfile
  6
CONTINUOUS
 62
    4
 10
378.01498042062929
 20
425.01739904910153
 11
390.54831342062926
 21
425.01739904910153
  0
LINE
  8
_0-1_dxfile
  6
CONTINUOUS
 62
    4
 10
364.68164642062925
 20
425.81739904910154
 11
377.21498042062927
 21
425.81739904910154
  0
LINE
  8
_0-1_dxfile
  6
CONTINUOUS
 62
    4
 10
378.01498042062929
 20
425.81739904910154
 11
390.54831342062926
 21
425.81739904910154
  0
LINE
  8
_0-1_dxfile
  6
CONTINUOUS
 62
    4
 10
391.34831342062927
 20
425.81739904910154
 11
403.88164642062929
 21
425.81739904910154
  0
LINE
  8
_0-1_dxfile
  6
CONTINUOUS
 62
    4
 10
404.68164642062919
 20
425.81739904910154
 11
417.21498042062927
 21
425.81739904910154
  0
LINE
  8
_0-1_dxfile
  6
CONTINUOUS
 62
    4
 10
391.34831342062927
 20
425.01739904910153
 11
403.88164642062929
 21
425.01739904910153
  0
LINE
  8
_0-1_dxfile
  6
CONTINUOUS
 62
    4
 10
404.68164642062919
 20
425.01739904910153
 11
417.21498042062927
 21
425.01739904910153
  0
LINE
  8
_0-1_dxfile
  6
CONTINUOUS
 62
    4
 10
296.94831342062929
 20
492.48406604910144
 11
297.21498042062927
 21
492.48406604910144
  0
LINE
  8
_0-1_dxfile
  6
CONTINUOUS
 62
    4
 10
296.94831342062929
 20
491.68406604910143
 11
297.21498042062927
 21
491.68406604910143
  0
LINE
  8
_0-1_dxfile
  6
CONTINUOUS
 62
    4
 10
418.01498042062929
 20
492.48406604910144
 11
418.28164642062916
 21
492.48406604910144
  0
LINE
  8
_0-1_dxfile
  6
CONTINUOUS
 62
    4
 10
418.01498042062929
 20
491.68406604910143
 11
418.28164642062916
 21
491.68406604910143
  0
LINE
  8
_0-1_dxfile
  6
CONTINUOUS
 62
    4
 10
298.01498042062929
 20
492.48406604910144
 11
310.54831342062926
 21
492.48406604910144
  0
LINE
  8
_0-1_dxfile
  6
CONTINUOUS
 62
    4
 10
298.01498042062929
 20
491.68406604910143
 11
310.54831342062926
 21
491.68406604910143
  0
LINE
  8
_0-1_dxfile
  6
CONTINUOUS
 62
    4
 10
311.34831342062927
 20
492.48406604910144
 11
323.88164642062935
 21
492.48406604910144
  0
LINE
  8
_0-1_dxfile
  6
CONTINUOUS
 62
    4
 10
311.34831342062927
 20
491.68406604910143
 11
323.88164642062935
 21
491.68406604910143
  0
LINE
  8
_0-1_dxfile
  6
CONTINUOUS
 62
    4
 10
324.68164642062925
 20
492.48406604910144
 11
337.21498042062927
 21
492.48406604910144
  0
LINE
  8
_0-1_dxfile
  6
CONTINUOUS
 62
    4
 10
324.68164642062925
 20
491.68406604910143
 11
337.21498042062927
 21
491.68406604910143
  0
LINE
  8
_0-1_dxfile
  6
CONTINUOUS
 62
    4
 10
338.01498042062929
 20
492.48406604910144
 11
350.54831342062926
 21
492.48406604910144
  0
LINE
  8
_0-1_dxfile
  6
CONTINUOUS
 62
    4
 10
338.01498042062929
 20
491.68406604910143
 11
350.54831342062926
 21
491.68406604910143
  0
LINE
  8
_0-1_dxfile
  6
CONTINUOUS
 62
    4
 10
351.34831342062927
 20
492.48406604910144
 11
363.88164642062929
 21
492.48406604910144
  0
LINE
  8
_0-1_dxfile
  6
CONTINUOUS
 62
    4
 10
351.34831342062927
 20
491.68406604910143
 11
363.88164642062929
 21
491.68406604910143
  0
LINE
  8
_0-1_dxfile
  6
CONTINUOUS
 62
    4
 10
364.68164642062925
 20
492.48406604910144
 11
377.21498042062927
 21
492.48406604910144
  0
LINE
  8
_0-1_dxfile
  6
CONTINUOUS
 62
    4
 10
364.68164642062925
 20
491.68406604910143
 11
377.21498042062927
 21
491.68406604910143
  0
LINE
  8
_0-1_dxfile
  6
CONTINUOUS
 62
    4
 10
378.01498042062929
 20
492.48406604910144
 11
390.54831342062926
 21
492.48406604910144
  0
LINE
  8
_0-1_dxfile
  6
CONTINUOUS
 62
    4
 10
378.01498042062929
 20
491.68406604910143
 11
390.54831342062926
 21
491.68406604910143
  0
LINE
  8
_0-1_dxfile
  6
CONTINUOUS
 62
    4
 10
391.34831342062927
 20
492.48406604910144
 11
403.88164642062929
 21
492.48406604910144
  0
LINE
  8
_0-1_dxfile
  6
CONTINUOUS
 62
    4
 10
404.68164642062919
 20
492.48406604910144
 11
417.21498042062927
 21
492.48406604910144
  0
LINE
  8
_0-1_dxfile
  6
CONTINUOUS
 62
    4
 10
391.34831342062927
 20
491.68406604910143
 11
403.88164642062929
 21
491.68406604910143
  0
LINE
  8
_0-1_dxfile
  6
CONTINUOUS
 62
    4
 10
404.68164642062919
 20
491.68406604910143
 11
417.21498042062927
 21
491.68406604910143
  0
LINE
  8
_0-1_dxfile
  6
CONTINUOUS
 62
    4
 10
296.94831342062929
 20
372.4840660491015
 11
297.21498042062927
 21
372.4840660491015
  0
LINE
  8
_0-1_dxfile
  6
CONTINUOUS
 62
    4
 10
296.94831342062929
 20
371.68406604910155
 11
297.21498042062927
 21
371.68406604910155
  0
LINE
  8
_0-1_dxfile
  6
CONTINUOUS
 62
    4
 10
418.01498042062929
 20
372.4840660491015
 11
418.28164642062916
 21
372.4840660491015
  0
LINE
  8
_0-1_dxfile
  6
CONTINUOUS
 62
    4
 10
418.01498042062929
 20
371.68406604910155
 11
418.28164642062916
 21
371.68406604910155
  0
LINE
  8
_0-1_dxfile
  6
CONTINUOUS
 62
    4
 10
298.01498042062929
 20
372.4840660491015
 11
310.54831342062926
 21
372.4840660491015
  0
LINE
  8
_0-1_dxfile
  6
CONTINUOUS
 62
    4
 10
298.01498042062929
 20
371.68406604910155
 11
310.54831342062926
 21
371.68406604910155
  0
LINE
  8
_0-1_dxfile
  6
CONTINUOUS
 62
    4
 10
311.34831342062927
 20
372.4840660491015
 11
323.88164642062935
 21
372.4840660491015
  0
LINE
  8
_0-1_dxfile
  6
CONTINUOUS
 62
    4
 10
311.34831342062927
 20
371.68406604910155
 11
323.88164642062935
 21
371.68406604910155
  0
LINE
  8
_0-1_dxfile
  6
CONTINUOUS
 62
    4
 10
324.68164642062925
 20
372.4840660491015
 11
337.21498042062927
 21
372.4840660491015
  0
LINE
  8
_0-1_dxfile
  6
CONTINUOUS
 62
    4
 10
324.68164642062925
 20
371.68406604910155
 11
337.21498042062927
 21
371.68406604910155
  0
LINE
  8
_0-1_dxfile
  6
CONTINUOUS
 62
    4
 10
338.01498042062929
 20
372.4840660491015
 11
350.54831342062926
 21
372.4840660491015
  0
LINE
  8
_0-1_dxfile
  6
CONTINUOUS
 62
    4
 10
338.01498042062929
 20
371.68406604910155
 11
350.54831342062926
 21
371.68406604910155
  0
LINE
  8
_0-1_dxfile
  6
CONTINUOUS
 62
    4
 10
351.34831342062927
 20
372.4840660491015
 11
363.88164642062929
 21
372.4840660491015
  0
LINE
  8
_0-1_dxfile
  6
CONTINUOUS
 62
    4
 10
351.34831342062927
 20
371.68406604910155
 11
363.88164642062929
 21
371.68406604910155
  0
LINE
  8
_0-1_dxfile
  6
CONTINUOUS
 62
    4
 10
364.68164642062925
 20
372.4840660491015
 11
377.21498042062927
 21
372.4840660491015
  0
LINE
  8
_0-1_dxfile
  6
CONTINUOUS
 62
    4
 10
364.68164642062925
 20
371.68406604910155
 11
377.21498042062927
 21
371.68406604910155
  0
LINE
  8
_0-1_dxfile
  6
CONTINUOUS
 62
    4
 10
378.01498042062929
 20
372.4840660491015
 11
390.54831342062926
 21
372.4840660491015
  0
LINE
  8
_0-1_dxfile
  6
CONTINUOUS
 62
    4
 10
378.01498042062929
 20
371.68406604910155
 11
390.54831342062926
 21
371.68406604910155
  0
LINE
  8
_0-1_dxfile
  6
CONTINUOUS
 62
    4
 10
391.34831342062927
 20
372.4840660491015
 11
403.88164642062929
 21
372.4840660491015
  0
LINE
  8
_0-1_dxfile
  6
CONTINUOUS
 62
    4
 10
404.68164642062919
 20
372.4840660491015
 11
417.21498042062927
 21
372.4840660491015
  0
LINE
  8
_0-1_dxfile
  6
CONTINUOUS
 62
    4
 10
391.34831342062927
 20
371.68406604910155
 11
403.88164642062929
 21
371.68406604910155
  0
LINE
  8
_0-1_dxfile
  6
CONTINUOUS
 62
    4
 10
404.68164642062919
 20
371.68406604910155
 11
417.21498042062927
 21
371.68406604910155
  0
LINE
  8
_0-1_dxfile
  6
CONTINUOUS
 62
    4
 10
418.01498042062929
 20
492.75073304910143
 11
418.01498042062929
 21
371.41739904910162
  0
LINE
  8
_0-1_dxfile
  6
CONTINUOUS
 62
    4
 10
417.21498042062927
 20
492.75073304910143
 11
417.21498042062927
 21
371.41739904910162
  0
LINE
  8
_0-1_dxfile
  6
CONTINUOUS
 62
    4
 10
404.68164642062919
 20
492.75073304910143
 11
404.68164642062919
 21
371.41739904910162
  0
LINE
  8
_0-1_dxfile
  6
CONTINUOUS
 62
    4
 10
403.88164642062929
 20
492.75073304910143
 11
403.88164642062929
 21
371.41739904910162
  0
LINE
  8
_0-1_dxfile
  6
CONTINUOUS
 62
    4
 10
391.34831342062927
 20
492.75073304910143
 11
391.34831342062927
 21
371.41739904910162
  0
LINE
  8
_0-1_dxfile
  6
CONTINUOUS
 62
    4
 10
390.54831342062926
 20
492.75073304910143
 11
390.54831342062926
 21
371.41739904910162
  0
LINE
  8
_0-1_dxfile
  6
CONTINUOUS
 62
    4
 10
378.01498042062929
 20
492.75073304910143
 11
378.01498042062929
 21
371.41739904910162
  0
LINE
  8
_0-1_dxfile
  6
CONTINUOUS
 62
    4
 10
377.21498042062927
 20
492.75073304910143
 11
377.21498042062927
 21
371.41739904910162
  0
LINE
  8
_0-1_dxfile
  6
CONTINUOUS
 62
    4
 10
364.68164642062925
 20
492.75073304910143
 11
364.68164642062925
 21
371.41739904910162
  0
LINE
  8
_0-1_dxfile
  6
CONTINUOUS
 62
    4
 10
363.88164642062929
 20
492.75073304910143
 11
363.88164642062929
 21
371.41739904910162
  0
LINE
  8
_0-1_dxfile
  6
CONTINUOUS
 62
    4
 10
298.01498042062929
 20
492.75073304910143
 11
298.01498042062929
 21
371.41739904910162
  0
LINE
  8
_0-1_dxfile
  6
CONTINUOUS
 62
    4
 10
297.21498042062927
 20
492.75073304910143
 11
297.21498042062927
 21
371.41739904910162
  0
LINE
  8
_0-1_dxfile
  6
CONTINUOUS
 62
    4
 10
311.34831342062927
 20
492.75073304910143
 11
311.34831342062927
 21
371.41739904910162
  0
LINE
  8
_0-1_dxfile
  6
CONTINUOUS
 62
    4
 10
310.54831342062926
 20
492.75073304910143
 11
310.54831342062926
 21
371.41739904910162
  0
LINE
  8
_0-1_dxfile
  6
CONTINUOUS
 62
    4
 10
324.68164642062925
 20
492.75073304910143
 11
324.68164642062925
 21
371.41739904910162
  0
LINE
  8
_0-1_dxfile
  6
CONTINUOUS
 62
    4
 10
323.88164642062935
 20
492.75073304910143
 11
323.88164642062935
 21
371.41739904910162
  0
LINE
  8
_0-1_dxfile
  6
CONTINUOUS
 62
    4
 10
338.01498042062929
 20
492.75073304910143
 11
338.01498042062929
 21
371.41739904910162
  0
LINE
  8
_0-1_dxfile
  6
CONTINUOUS
 62
    4
 10
337.21498042062927
 20
492.75073304910143
 11
337.21498042062927
 21
371.41739904910162
  0
LINE
  8
_0-1_dxfile
  6
CONTINUOUS
 62
    4
 10
351.34831342062927
 20
492.75073304910143
 11
351.34831342062927
 21
371.41739904910162
  0
LINE
  8
_0-1_dxfile
  6
CONTINUOUS
 62
    4
 10
350.54831342062926
 20
492.75073304910143
 11
350.54831342062926
 21
371.41739904910162
  0
LINE
  8
_0-1_dxfile
  6
CONTINUOUS
 62
    4
 10
296.94831342062929
 20
492.48406604910144
 11
296.94831342062929
 21
491.68406604910143
  0
LINE
  8
_0-1_dxfile
  6
CONTINUOUS
 62
    4
 10
296.94831342062929
 20
479.1507330491014
 11
296.94831342062929
 21
478.35073304910145
  0
LINE
  8
_0-1_dxfile
  6
CONTINUOUS
 62
    4
 10
296.94831342062929
 20
465.81739904910154
 11
296.94831342062929
 21
465.01739904910153
  0
LINE
  8
_0-1_dxfile
  6
CONTINUOUS
 62
    4
 10
296.94831342062929
 20
452.48406604910144
 11
296.94831342062929
 21
451.68406604910155
  0
LINE
  8
_0-1_dxfile
  6
CONTINUOUS
 62
    4
 10
296.94831342062929
 20
439.15073304910152
 11
296.94831342062929
 21
438.35073304910151
  0
LINE
  8
_0-1_dxfile
  6
CONTINUOUS
 62
    4
 10
296.94831342062929
 20
425.81739904910154
 11
296.94831342062929
 21
425.01739904910153
  0
LINE
  8
_0-1_dxfile
  6
CONTINUOUS
 62
    4
 10
296.94831342062929
 20
412.4840660491015
 11
296.94831342062929
 21
411.68406604910155
  0
LINE
  8
_0-1_dxfile
  6
CONTINUOUS
 62
    4
 10
296.94831342062929
 20
399.15073304910152
 11
296.94831342062929
 21
398.35073304910151
  0
LINE
  8
_0-1_dxfile
  6
CONTINUOUS
 62
    4
 10
296.94831342062929
 20
385.81739904910154
 11
296.94831342062929
 21
385.01739904910153
  0
LINE
  8
_0-1_dxfile
  6
CONTINUOUS
 62
    4
 10
296.94831342062929
 20
372.4840660491015
 11
296.94831342062929
 21
371.68406604910155
  0
LINE
  8
_0-1_dxfile
  6
CONTINUOUS
 62
    4
 10
297.21498042062927
 20
492.75073304910143
 11
298.01498042062929
 21
492.75073304910143
  0
LINE
  8
_0-1_dxfile
  6
CONTINUOUS
 62
    4
 10
310.54831342062926
 20
492.75073304910143
 11
311.34831342062927
 21
492.75073304910143
  0
LINE
  8
_0-1_dxfile
  6
CONTINUOUS
 62
    4
 10
323.88164642062935
 20
492.75073304910143
 11
324.68164642062925
 21
492.75073304910143
  0
LINE
  8
_0-1_dxfile
  6
CONTINUOUS
 62
    4
 10
337.21498042062927
 20
492.75073304910143
 11
338.01498042062929
 21
492.75073304910143
  0
LINE
  8
_0-1_dxfile
  6
CONTINUOUS
 62
    4
 10
350.54831342062926
 20
492.75073304910143
 11
351.34831342062927
 21
492.75073304910143
  0
LINE
  8
_0-1_dxfile
  6
CONTINUOUS
 62
    4
 10
363.88164642062929
 20
492.75073304910143
 11
364.68164642062925
 21
492.75073304910143
  0
LINE
  8
_0-1_dxfile
  6
CONTINUOUS
 62
    4
 10
377.21498042062927
 20
492.75073304910143
 11
378.01498042062929
 21
492.75073304910143
  0
LINE
  8
_0-1_dxfile
  6
CONTINUOUS
 62
    4
 10
390.54831342062926
 20
492.75073304910143
 11
391.34831342062927
 21
492.75073304910143
  0
LINE
  8
_0-1_dxfile
  6
CONTINUOUS
 62
    4
 10
403.88164642062929
 20
492.75073304910143
 11
404.68164642062919
 21
492.75073304910143
  0
LINE
  8
_0-1_dxfile
  6
CONTINUOUS
 62
    4
 10
417.21498042062927
 20
492.75073304910143
 11
418.01498042062929
 21
492.75073304910143
  0
LINE
  8
_0-1_dxfile
  6
CONTINUOUS
 62
    4
 10
418.28164642062916
 20
492.48406604910144
 11
418.28164642062916
 21
491.68406604910143
  0
LINE
  8
_0-1_dxfile
  6
CONTINUOUS
 62
    4
 10
418.28164642062916
 20
479.1507330491014
 11
418.28164642062916
 21
478.35073304910145
  0
LINE
  8
_0-1_dxfile
  6
CONTINUOUS
 62
    4
 10
418.28164642062916
 20
465.81739904910154
 11
418.28164642062916
 21
465.01739904910153
  0
LINE
  8
_0-1_dxfile
  6
CONTINUOUS
 62
    4
 10
418.28164642062916
 20
452.48406604910144
 11
418.28164642062916
 21
451.68406604910155
  0
LINE
  8
_0-1_dxfile
  6
CONTINUOUS
 62
    4
 10
418.28164642062916
 20
439.15073304910152
 11
418.28164642062916
 21
438.35073304910151
  0
LINE
  8
_0-1_dxfile
  6
CONTINUOUS
 62
    4
 10
418.28164642062916
 20
425.81739904910154
 11
418.28164642062916
 21
425.01739904910153
  0
LINE
  8
_0-1_dxfile
  6
CONTINUOUS
 62
    4
 10
418.28164642062916
 20
412.4840660491015
 11
418.28164642062916
 21
411.68406604910155
  0
LINE
  8
_0-1_dxfile
  6
CONTINUOUS
 62
    4
 10
418.28164642062916
 20
399.15073304910152
 11
418.28164642062916
 21
398.35073304910151
  0
LINE
  8
_0-1_dxfile
  6
CONTINUOUS
 62
    4
 10
418.28164642062916
 20
385.81739904910154
 11
418.28164642062916
 21
385.01739904910153
  0
LINE
  8
_0-1_dxfile
  6
CONTINUOUS
 62
    4
 10
418.28164642062916
 20
372.4840660491015
 11
418.28164642062916
 21
371.68406604910155
  0
LINE
  8
_0-1_dxfile
  6
CONTINUOUS
 62
    4
 10
297.21498042062927
 20
371.41739904910162
 11
298.01498042062929
 21
371.41739904910162
  0
LINE
  8
_0-1_dxfile
  6
CONTINUOUS
 62
    4
 10
310.54831342062926
 20
371.41739904910162
 11
311.34831342062927
 21
371.41739904910162
  0
LINE
  8
_0-1_dxfile
  6
CONTINUOUS
 62
    4
 10
323.88164642062935
 20
371.41739904910162
 11
324.68164642062925
 21
371.41739904910162
  0
LINE
  8
_0-1_dxfile
  6
CONTINUOUS
 62
    4
 10
337.21498042062927
 20
371.41739904910162
 11
338.01498042062929
 21
371.41739904910162
  0
LINE
  8
_0-1_dxfile
  6
CONTINUOUS
 62
    4
 10
350.54831342062926
 20
371.41739904910162
 11
351.34831342062927
 21
371.41739904910162
  0
LINE
  8
_0-1_dxfile
  6
CONTINUOUS
 62
    4
 10
363.88164642062929
 20
371.41739904910162
 11
364.68164642062925
 21
371.41739904910162
  0
LINE
  8
_0-1_dxfile
  6
CONTINUOUS
 62
    4
 10
377.21498042062927
 20
371.41739904910162
 11
378.01498042062929
 21
371.41739904910162
  0
LINE
  8
_0-1_dxfile
  6
CONTINUOUS
 62
    4
 10
390.54831342062926
 20
371.41739904910162
 11
391.34831342062927
 21
371.41739904910162
  0
LINE
  8
_0-1_dxfile
  6
CONTINUOUS
 62
    4
 10
403.88164642062929
 20
371.41739904910162
 11
404.68164642062919
 21
371.41739904910162
  0
LINE
  8
_0-1_dxfile
  6
CONTINUOUS
 62
    4
 10
417.21498042062927
 20
371.41739904910162
 11
418.01498042062929
 21
371.41739904910162
  0
INSERT
  2
-013-DIM_13
  8
_0-1_dxfile
 10
295.61498042062925
 20
366.59112404910155
 41
1
 42
1
 50
0
  0
INSERT
  2
-014-DIM_14
  8
_0-1_dxfile
 10
438.21728742062919
 20
356.75073304910154
 41
1
 42
1
 50
0
  0
LINE
  8
_0-1_dxfile
  6
CONTINUOUS
 62
    3
 10
335.60020342062927
 20
340.07258004910153
 11
339.57996642062926
 21
340.07258004910153
  0
LINE
  8
_0-1_dxfile
  6
CONTINUOUS
 62
    3
 10
339.57996642062926
 20
340.07258004910153
 11
339.57996642062926
 21
336.09281804910154
  0
LINE
  8
_0-1_dxfile
  6
CONTINUOUS
 62
    3
 10
339.57996642062926
 20
336.09281804910154
 11
335.60020342062927
 21
336.09281804910154
  0
LINE
  8
_0-1_dxfile
  6
CONTINUOUS
 62
    3
 10
335.60020342062927
 20
336.09281804910154
 11
335.60020342062927
 21
340.07258004910153
  0
LINE
  8
_0-1_dxfile
  6
CONTINUOUS
 62
    3
 10
457.25469742062938
 20
408.39850104910141
 11
461.23446042062926
 21
408.39850104910141
  0
LINE
  8
_0-1_dxfile
  6
CONTINUOUS
 62
    3
 10
461.23446042062926
 20
408.39850104910141
 11
461.23446042062926
 21
404.41873804910153
  0
LINE
  8
_0-1_dxfile
  6
CONTINUOUS
 62
    3
 10
461.23446042062926
 20
404.41873804910153
 11
457.25469742062938
 21
404.41873804910153
  0
LINE
  8
_0-1_dxfile
  6
CONTINUOUS
 62
    3
 10
457.25469742062938
 20
404.41873804910153
 11
457.25469742062938
 21
408.39850104910141
  0
LINE
  8
_0-1_dxfile
  6
CONTINUOUS
 62
    3
 10
335.83747842062928
 20
317.79855504910154
 11
336.18935642062928
 21
317.79855504910154
  0
TEXT
  8
_0-1_dxfile
 62
    7
 10
338.42941742062925
 20
309.35060604910154
 40
6.2301199999999994
 41
0.8582679999999999
 50
0
  1
平面図Ｓ１：１５
  0
LINE
  8
_0-1_dxfile
  6
CONTINUOUS
 62
    3
 10
336.10138642062924
 20
317.79855504910154
 11
381.26118142062927
 21
317.79855504910154
  0
LINE
  8
_0-1_dxfile
  6
CONTINUOUS
 62
    3
 10
381.26118142062927
 20
317.79855504910154
 11
381.26118142062927
 21
307.59410404910153
  0
LINE
  8
_0-1_dxfile
  6
CONTINUOUS
 62
    3
 10
381.26118142062927
 20
307.59410404910153
 11
335.83747842062928
 21
307.59410404910153
  0
LINE
  8
_0-1_dxfile
  6
CONTINUOUS
 62
    3
 10
335.83747842062928
 20
307.59410404910153
 11
335.83747842062928
 21
317.88652504910152
  0
INSERT
  2
-015-DIM_15
  8
_0-1_dxfile
 10
324.28164642062927
 20
501.57553804910145
 41
1
 42
1
 50
0
  0
ARC
  8
_0-1_dxfile
  6
CONTINUOUS
 62
    4
 10
705.9245504206292
 20
401.87548304910155
 40
15.935116170171939
 50
128.80277899999999
 51
144.77704200000002
  0
ARC
  8
_0-1_dxfile
  6
CONTINUOUS
 62
    4
 10
705.9245504206292
 20
401.87548304910155
 40
15.135116170171941
 50
131.43875199999999
 51
142.66435100000001
  0
TEXT
  8
_0-1_dxfile
 62
    7
 10
135.66268242062927
 20
52.721013049101543
 40
6
 41
0.8582679999999999
 50
0
  1
図は９００タイプです
  0
TEXT
  8
_0-1_dxfile
 62
    7
 10
334.86887242062926
 20
299.25998404910155
 40
6
 41
0.8582679999999999
 50
0
  1
図は９００タイプです
  0
LINE
  8
_0-1_dxfile
  6
CONTINUOUS
 62
    3
 10
392.09427542062929
 20
477.4601500491014
 11
390.96030142062926
 21
473.49604804910155
  0
LINE
  8
_0-1_dxfile
  6
CONTINUOUS
 62
    3
 10
390.96030142062926
 20
473.49604804910155
 11
430.35812242062929
 21
541.73507604910151
  0
LINE
  8
_0-1_dxfile
  6
CONTINUOUS
 62
    3
 10
430.35812242062929
 20
541.73507604910151
 11
502.45261042062918
 21
541.73507604910151
  0
LINE
  8
_0-1_dxfile
  6
CONTINUOUS
 62
    3
 10
289.62315342062925
 20
355.32358504910155
 11
290.75712742062927
 21
359.28768704910152
  0
LINE
  8
_0-1_dxfile
  6
CONTINUOUS
 62
    3
 10
290.75712742062927
 20
359.28768704910152
 11
277.73945842062926
 21
336.74042104910143
  0
LINE
  8
_0-1_dxfile
  6
CONTINUOUS
 62
    3
 10
277.73945842062926
 20
336.74042104910143
 11
205.64496942062928
 21
336.74042104910143
  0
TEXT
  8
_0-1_dxfile
 62
    7
 10
191.62658108729588
 20
337.24042104910154
 40
7
 41
0.8582679999999999
 50
0
  1
トップライトフレーム　アルミ
  0
LINE
  8
_0-1_dxfile
  6
CONTINUOUS
 62
    3
 10
423.48701642062917
 20
481.34094504910155
 11
422.35304242062915
 21
477.37684304910141
  0
LINE
  8
_0-1_dxfile
  6
CONTINUOUS
 62
    3
 10
422.35304242062915
 20
477.37684304910141
 11
447.58297342062917
 21
521.07636604910158
  0
LINE
  8
_0-1_dxfile
  6
CONTINUOUS
 62
    3
 10
447.58297342062917
 20
521.07636604910158
 11
507.66171342062916
 21
521.07636604910158
  0
TEXT
  8
_0-1_dxfile
 62
    7
 10
447.58297342062917
 20
522.07636604910158
 40
7
 41
0.8582679999999999
 50
0
  1
落下防止網枠　ＳＵＳ
  0
LINE
  8
_0-1_dxfile
  6
CONTINUOUS
 62
    3
 10
289.77140742062926
 20
468.30380604910152
 11
292.6374324206293
 21
465.33970504910144
  0
LINE
  8
_0-1_dxfile
  6
CONTINUOUS
 62
    3
 10
292.6374324206293
 20
465.33970504910144
 11
274.01356342062928
 21
497.59719204910141
  0
LINE
  8
_0-1_dxfile
  6
CONTINUOUS
 62
    3
 10
274.01356342062928
 20
497.59719204910141
 11
263.71435042062927
 21
497.59719204910141
  0
ARC
  8
_0-1_dxfile
  6
CONTINUOUS
 62
    4
 10
54.403326420629242
 20
201.07421104910154
 40
1.399999999999999
 50
90
 51
156.97450799999996
  0
ARC
  8
_0-1_dxfile
  6
CONTINUOUS
 62
    4
 10
54.403326420629242
 20
201.07421104910154
 40
2.2000000000000002
 50
90
 51
156.97450799999996
  0
ARC
  8
_0-1_dxfile
  6
CONTINUOUS
 62
    4
 10
71.733847420629274
 20
205.47421104910154
 40
3
 50
270
 51
327.45969300000002
  0
ARC
  8
_0-1_dxfile
  6
CONTINUOUS
 62
    4
 10
71.733847420629274
 20
205.47421104910154
 40
2.2000000000000002
 50
270
 51
327.45969300000002
  0
ARC
  8
_0-1_dxfile
  6
CONTINUOUS
 62
    4
 10
271.49243742062924
 20
201.07421104910154
 40
1.399999999994032
 50
23.025491999999996
 51
90
  0
ARC
  8
_0-1_dxfile
  6
CONTINUOUS
 62
    4
 10
271.49243742062924
 20
201.07421104910154
 40
2.199999999987337
 50
23.025491999999996
 51
90
  0
ARC
  8
_0-1_dxfile
  6
CONTINUOUS
 62
    4
 10
254.16191542062927
 20
205.47421104910154
 40
3.0000000000023128
 50
212.54030700000001
 51
270
  0
ARC
  8
_0-1_dxfile
  6
CONTINUOUS
 62
    4
 10
254.16191542062927
 20
205.47421104910154
 40
2.200000000014922
 50
212.54030700000001
 51
270
  0
ARC
  8
_0-1_dxfile
  6
CONTINUOUS
 62
    4
 10
608.18506442062926
 20
430.55467804910154
 40
11
 50
90
 51
156.97450799999996
  0
ARC
  8
_0-1_dxfile
  6
CONTINUOUS
 62
    4
 10
608.18506442062926
 20
430.55467804910154
 40
7
 50
90
 51
156.97450799999996
  0
ARC
  8
_0-1_dxfile
  6
CONTINUOUS
 62
    4
 10
694.83767142062925
 20
452.55467804910154
 40
11
 50
270
 51
327.45969300000002
  0
ARC
  8
_0-1_dxfile
  6
CONTINUOUS
 62
    4
 10
694.83767142062925
 20
452.55467804910154
 40
15
 50
270
 51
327.45969300000002
  0
LINE
  8
_0-1_dxfile
  6
CONTINUOUS
 62
    3
 10
700.90784142062921
 20
508.17226804910155
 11
700.90784142062921
 21
475.21485304910152
  0
LINE
  8
_0-1_dxfile
  6
CONTINUOUS
 62
    2
 10
205.73618142062926
 20
555.73632504910142
 11
37.898507420629301
 21
555.73632504910142
  0
LINE
  8
_0-1_dxfile
  6
CONTINUOUS
 62
    2
 10
205.73618142062926
 20
545.70084004910154
 11
37.898507420629301
 21
545.70084004910154
  0
LINE
  8
_0-1_dxfile
  6
CONTINUOUS
 62
    2
 10
205.73618142062926
 20
535.15268204910149
 11
37.898507420629301
 21
535.15268204910149
  0
LINE
  8
_0-1_dxfile
  6
CONTINUOUS
 62
    2
 10
205.73618142062926
 20
525.51684004910157
 11
37.898507420629301
 21
525.51684004910157
  0
LINE
  8
_0-1_dxfile
  6
CONTINUOUS
 62
    2
 10
205.73618142062926
 20
515.42484004910148
 11
37.898507420629301
 21
515.42484004910148
  0
LINE
  8
_0-1_dxfile
  6
CONTINUOUS
 62
    2
 10
175.46018142062925
 20
555.73632504910142
 11
175.46018142062925
 21
515.36832504910149
  0
TEXT
  8
_0-1_dxfile
 62
    7
 10
43.324184420629251
 20
557.74386804910137
 40
6
 41
0.8582679999999999
 50
0
  1
Ｂ型寸法表
  0
LINE
  8
_0-1_dxfile
  6
CONTINUOUS
 62
    2
 10
175.46018142062925
 20
555.73632504910142
 11
175.46018142062925
 21
515.36832504910149
  0
LINE
  8
_0-1_dxfile
  6
CONTINUOUS
 62
    2
 10
205.73618142062926
 20
555.73632504910142
 11
205.73618142062926
 21
515.36832504910149
  0
LINE
  8
_0-1_dxfile
  6
CONTINUOUS
 62
    2
 10
145.18418142062927
 20
555.73632504910142
 11
145.18418142062927
 21
515.36832504910149
  0
LINE
  8
_0-1_dxfile
  6
CONTINUOUS
 62
    2
 10
175.46018142062925
 20
515.36832504910149
 11
175.46018142062925
 21
555.73632504910142
  0
TEXT
  8
_0-1_dxfile
 62
    7
 10
158.39310742062924
 20
547.71840704910142
 40
6
 41
0.8582679999999999
 50
0
  1
Ｊ
  0
TEXT
  8
_0-1_dxfile
 62
    7
 10
184.65791742062927
 20
537.1611490491016
 40
6
 41
0.8582679999999999
 50
0
  1
６０６
  0
TEXT
  8
_0-1_dxfile
 62
    7
 10
154.73369542062926
 20
527.10607204910139
 40
6
 41
0.8582679999999999
 50
0
  1
９３０
  0
TEXT
  8
_0-1_dxfile
 62
    7
 10
149.76036742062928
 20
517.44924604910148
 40
6
 41
0.8582679999999999
 50
0
  1
１３３０
  0
TEXT
  8
_0-1_dxfile
 62
    7
 10
42.234012420629256
 20
537.68173004910159
 40
6
 41
0.8582679999999999
 50
0
  1
Ｂ－　６００用
  0
TEXT
  8
_0-1_dxfile
 62
    7
 10
42.930468420629268
 20
517.44924604910148
 40
6
 41
0.8582679999999999
 50
0
  1
Ｂ－１３００用
  0
TEXT
  8
_0-1_dxfile
 62
    7
 10
42.595318420629269
 20
527.56548804910153
 40
6
 41
0.8582679999999999
 50
0
  1
Ｂ－　９００用
  0
TEXT
  8
_0-1_dxfile
 62
    7
 10
52.195426420629246
 20
547.2692150491016
 40
6
 41
0.8582679999999999
 50
0
  1
型
  0
TEXT
  8
_0-1_dxfile
 62
    7
 10
95.912426420629288
 20
537.46080004910141
 40
6
 41
0.8582679999999999
 50
0
  1
６００
  0
TEXT
  8
_0-1_dxfile
 62
    7
 10
95.978933420629232
 20
527.40990904910132
 40
6
 41
0.8582679999999999
 50
0
  1
９００
  0
TEXT
  8
_0-1_dxfile
 62
    7
 10
90.931923420629232
 20
517.16887304910165
 40
6
 41
0.8582679999999999
 50
0
  1
１３００
  0
TEXT
  8
_0-1_dxfile
 62
    7
 10
184.54965542062928
 20
527.20501404910146
 40
6
 41
0.8582679999999999
 50
0
  1
９０６
  0
TEXT
  8
_0-1_dxfile
 62
    7
 10
179.69608442062926
 20
517.37942004910133
 40
6
 41
0.8582679999999999
 50
0
  1
１３０６
  0
TEXT
  8
_0-1_dxfile
 62
    7
 10
125.0894074206293
 20
537.1304790491015
 40
6
 41
0.8582679999999999
 50
0
  1
８３０
  0
TEXT
  8
_0-1_dxfile
 62
    7
 10
120.17152542062928
 20
527.2471030491015
 40
6
 41
0.8582679999999999
 50
0
  1
１１３０
  0
TEXT
  8
_0-1_dxfile
 62
    7
 10
120.18629542062928
 20
517.63699004910154
 40
6
 41
0.8582679999999999
 50
0
  1
１５３０
  0
TEXT
  8
_0-1_dxfile
 62
    7
 10
154.71212342062927
 20
537.02948004910149
 40
6
 41
0.8582679999999999
 50
0
  1
６３０
  0
TEXT
  8
_0-1_dxfile
 62
    7
 10
64.815569420629231
 20
547.2692150491016
 40
6
 41
0.8582679999999999
 50
0
  1
式
  0
TEXT
  8
_0-1_dxfile
 62
    7
 10
193.13693442062927
 20
556.64703404910142
 40
6
 41
0.8582679999999999
 50
0
  1
ｍｍ
  0
TEXT
  8
_0-1_dxfile
 62
    7
 10
177.31463842062928
 20
556.62878404910134
 40
6
 41
0.8582679999999999
 50
0
  1
単位
  0
TEXT
  8
_0-1_dxfile
 62
    7
 10
93.152868420629261
 20
547.77773804910134
 40
6
 41
0.8582679999999999
 50
0
  1
　Ａ
  0
TEXT
  8
_0-1_dxfile
 62
    7
 10
188.58434842062925
 20
547.55776804910147
 40
6
 41
0.8582679999999999
 50
0
  1
Ｇ
  0
TEXT
  8
_0-1_dxfile
 62
    7
 10
127.72948342062926
 20
547.61018704910134
 40
6
 41
0.8582679999999999
 50
0
  1
Ｗ
  0
LINE
  8
_0-1_dxfile
  6
CONTINUOUS
 62
    2
 10
84.641514420629278
 20
555.73632504910142
 11
84.641514420629278
 21
515.42484004910148
  0
LINE
  8
_0-1_dxfile
  6
CONTINUOUS
 62
    2
 10
37.898507420629301
 20
515.42484004910148
 11
37.898507420629301
 21
555.73632504910142
  0
LINE
  8
_0-1_dxfile
  6
CONTINUOUS
 62
    2
 10
114.90818142062926
 20
515.36832504910149
 11
114.90818142062926
 21
555.73632504910142
  0
LINE
  8
_0-1_dxfile
  6
CONTINUOUS
 62
    2
 10
114.90818142062926
 20
555.73632504910142
 11
114.90818142062926
 21
515.42484004910148
  0
LINE
  8
_0-1_dxfile
  6
CONTINUOUS
 62
    3
 10
657.90784242062909
 20
397.05467804910154
 11
657.90784242062909
 21
392.2772480491015
  0
LINE
  8
_0-1_dxfile
  6
CONTINUOUS
 62
    3
 10
673.90784142062921
 20
392.2772480491015
 11
673.90784142062921
 21
397.05467804910154
  0
LINE
  8
_0-1_dxfile
  6
CONTINUOUS
 62
    3
 10
673.90784142062921
 20
397.05467804910154
 11
657.90784242062909
 21
397.05467804910154
  0
LINE
  8
_0-1_dxfile
  6
CONTINUOUS
 62
    3
 10
673.90784142062921
 20
392.2772480491015
 11
672.65631442062931
 21
391.55467804910154
  0
LINE
  8
_0-1_dxfile
  6
CONTINUOUS
 62
    3
 10
672.65631442062931
 20
391.55467804910154
 11
665.90784142062921
 21
391.55467804910154
  0
LINE
  8
_0-1_dxfile
  6
CONTINUOUS
 62
    3
 10
669.90784142062921
 20
397.05467804910154
 11
669.90784142062921
 21
392.24096904910152
  0
ARC
  8
_0-1_dxfile
  6
CONTINUOUS
 62
    3
 10
665.90784142062921
 20
403.55467804910154
 40
11.99999951994582
 50
270
 51
289.47122100000001
  0
ARC
  8
_0-1_dxfile
  6
CONTINUOUS
 62
    3
 10
671.8375094206292
 20
394.61067804910152
 40
3.0559998779441191
 50
230.84386799999996
 51
270
  0
LINE
  8
_0-1_dxfile
  6
CONTINUOUS
 62
    3
 10
657.90784242062909
 20
392.2772480491015
 11
659.15936942062922
 21
391.55467804910154
  0
LINE
  8
_0-1_dxfile
  6
CONTINUOUS
 62
    3
 10
659.15936942062922
 20
391.55467804910154
 11
665.90784142062921
 21
391.55467804910154
  0
ARC
  8
_0-1_dxfile
  6
CONTINUOUS
 62
    3
 10
665.90784142062921
 20
403.55467804910154
 40
11.999999520028419
 50
250.52877900000004
 51
270.00000000000006
  0
ARC
  8
_0-1_dxfile
  6
CONTINUOUS
 62
    3
 10
659.9781744206291
 20
394.61067804910152
 40
3.0559998775734329
 50
270
 51
309.15613200000001
  0
LINE
  8
_0-1_dxfile
  6
CONTINUOUS
 62
    3
 10
661.90784242062932
 20
397.05467804910154
 11
661.90784242062932
 21
392.24096904910152
  0
LINE
  8
_0-1_dxfile
  6
CONTINUOUS
 62
    3
 10
654.72112142062906
 20
314.75657104910152
 11
651.85509642062925
 21
317.72067304910155
  0
LINE
  8
_0-1_dxfile
  6
CONTINUOUS
 62
    3
 10
651.85509642062925
 20
317.72067304910155
 11
670.3670064206292
 21
285.65710504910152
  0
LINE
  8
_0-1_dxfile
  6
CONTINUOUS
 62
    3
 10
670.3670064206292
 20
285.65710504910152
 11
680.66621842062909
 21
285.65710504910152
  0
TEXT
  8
_0-1_dxfile
 62
    7
 10
670.3670064206292
 20
286.65710504910152
 40
7
 41
0.8582679999999999
 50
0
  1
溶接
  0
LINE
  8
_0-1_dxfile
  6
CONTINUOUS
 62
    2
 10
584.40784142062921
 20
303.80149104910151
 11
584.40784142062921
 21
304.85467804910155
  0
TEXT
  8
_0-1_dxfile
 62
    7
 10
429.56319542062914
 20
534.51864304910146
 40
7
 41
0.8582679999999999
 50
0
  1
１００×１００
  0
TEXT
  8
_0-1_dxfile
 62
    7
 10
430.35812242062929
 20
542.73507604910151
 40
7
 41
0.8582679999999999
 50
0
  1
落下防止網　φ６　ＳＵＳ
  0
TEXT
  8
_0-1_dxfile
 62
    7
 10
448.20194642062916
 20
513.75545704910132
 40
7
 41
0.8582679999999999
 50
0
  1
□－４０×２５×１．５
  0
TEXT
  8
_0-1_dxfile
 62
    7
 10
261.99781142062926
 20
498.59719204910141
 40
7
 41
0.8582679999999999
 50
0
  1
φ９
  0
TEXT
  8
_0-1_dxfile
 62
    7
 10
561.5972324206291
 20
498.75972004910153
 40
7
 41
0.8582679999999999
 50
-0.000000000000018
  1
Ｍ８×７０　Ｗ．Ｐ．Ｎ　ＳＵＳ
  0
TEXT
  8
_0-1_dxfile
 62
    7
 10
555.21390640105665
 20
476.66053022153835
 40
7
 41
0.8582679999999999
 50
-0.0000000000000208
  1
コンプリフォーム１０×２０
  0
TEXT
  8
_0-1_dxfile
 62
    7
 10
556.71403575659383
 20
449.15815870335825
 40
7
 41
0.8582679999999999
 50
0
  1
□－４０×２５×１．５
  0
TEXT
  8
_0-1_dxfile
 62
    7
 10
728.86613542062923
 20
460.96631504910158
 40
7
 41
0.8582679999999999
 50
0
  1
Ｌ２０×３０×１．５　ＳＵＳ
  0
TEXT
  8
_0-1_dxfile
 62
    7
 10
730.98090542062937
 20
435.16252104910143
 40
7
 41
0.8582679999999999
 50
0
  1
落下防止網　φ６　ＳＵＳ
  0
TEXT
  8
_0-1_dxfile
 62
    7
 10
730.19549342062919
 20
426.96256904910149
 40
7
 41
0.8582679999999999
 50
0
  1
１００×１００
  0
TEXT
  8
_0-1_dxfile
 62
    7
 10
567.35860488729577
 20
383.14484404910155
 40
7
 41
0.8582679999999999
 50
-0.0000000000000271
  1
ブチルテープ２×４０
  0
TEXT
  8
_0-1_dxfile
 62
    7
 10
286.43814342062927
 20
227.58209304910153
 40
7
 41
0.8582679999999999
 50
0
  1
□－４０×２５×１．５
  0
TEXT
  8
_0-1_dxfile
 62
    7
 10
272.72498942062924
 20
278.23849904910151
 40
7
 41
0.8582679999999999
 50
0
  1
落下防止網　φ６　ＳＵＳ
  0
TEXT
  8
_0-1_dxfile
 62
    7
 10
272.22425142062929
 20
268.92413704910155
 40
7
 41
0.8582679999999999
 50
0
  1
１００×１００
  0
ENDSEC
  0
EOF
