  0
SECTION
  2
HEADER
  9
$ACADVER
  1
AC1015
  9
$ACADMAINTVER
 70
     6
  9
$DWGCODEPAGE
  3
ANSI_932
  9
$INSBASE
 10
0.0
 20
0.0
 30
0.0
  9
$EXTMIN
 10
0.0
 20
0.0
 30
0.0
  9
$EXTMAX
 10
2520.0
 20
1782.0
 30
0.0
  9
$LIMMIN
 10
0.0
 20
0.0
  9
$LIMMAX
 10
12.0
 20
9.0
  9
$ORTHOMODE
 70
     0
  9
$REGENMODE
 70
     1
  9
$FILLMODE
 70
     1
  9
$QTEXTMODE
 70
     0
  9
$MIRRTEXT
 70
     1
  9
$LTSCALE
 40
6.0
  9
$ATTMODE
 70
     1
  9
$TEXTSIZE
 40
0.2
  9
$TRACEWID
 40
0.05
  9
$TEXTSTYLE
  7
Standard
  9
$CLAYER
  8
0
  9
$CELTYPE
  6
ByLayer
  9
$CECOLOR
 62
   256
  9
$CELTSCALE
 40
1.0
  9
$DISPSILH
 70
     0
  9
$DIMSCALE
 40
1.0
  9
$DIMASZ
 40
0.18
  9
$DIMEXO
 40
0.0625
  9
$DIMDLI
 40
0.38
  9
$DIMRND
 40
0.0
  9
$DIMDLE
 40
0.0
  9
$DIMEXE
 40
0.18
  9
$DIMTP
 40
0.0
  9
$DIMTM
 40
0.0
  9
$DIMTXT
 40
0.18
  9
$DIMCEN
 40
0.09
  9
$DIMTSZ
 40
0.0
  9
$DIMTOL
 70
     0
  9
$DIMLIM
 70
     0
  9
$DIMTIH
 70
     1
  9
$DIMTOH
 70
     1
  9
$DIMSE1
 70
     0
  9
$DIMSE2
 70
     0
  9
$DIMTAD
 70
     0
  9
$DIMZIN
 70
     0
  9
$DIMBLK
  1

  9
$DIMASO
 70
     1
  9
$DIMSHO
 70
     1
  9
$DIMPOST
  1

  9
$DIMAPOST
  1

  9
$DIMALT
 70
     0
  9
$DIMALTD
 70
     2
  9
$DIMALTF
 40
25.4
  9
$DIMLFAC
 40
1.0
  9
$DIMTOFL
 70
     0
  9
$DIMTVP
 40
0.0
  9
$DIMTIX
 70
     0
  9
$DIMSOXD
 70
     0
  9
$DIMSAH
 70
     0
  9
$DIMBLK1
  1

  9
$DIMBLK2
  1

  9
$DIMSTYLE
  2
Standard
  9
$DIMCLRD
 70
     0
  9
$DIMCLRE
 70
     0
  9
$DIMCLRT
 70
     0
  9
$DIMTFAC
 40
1.0
  9
$DIMGAP
 40
0.09
  9
$DIMJUST
 70
     0
  9
$DIMSD1
 70
     0
  9
$DIMSD2
 70
     0
  9
$DIMTOLJ
 70
     1
  9
$DIMTZIN
 70
     0
  9
$DIMALTZ
 70
     0
  9
$DIMALTTZ
 70
     0
  9
$DIMUPT
 70
     0
  9
$DIMDEC
 70
     4
  9
$DIMTDEC
 70
     4
  9
$DIMALTU
 70
     2
  9
$DIMALTTD
 70
     2
  9
$DIMTXSTY
  7
Standard
  9
$DIMAUNIT
 70
     0
  9
$DIMADEC
 70
     0
  9
$DIMALTRND
 40
0.0
  9
$DIMAZIN
 70
     0
  9
$DIMDSEP
 70
    46
  9
$DIMATFIT
 70
     3
  9
$DIMFRAC
 70
     0
  9
$DIMLDRBLK
  1

  9
$DIMLUNIT
 70
     2
  9
$DIMLWD
 70
    -2
  9
$DIMLWE
 70
    -2
  9
$DIMTMOVE
 70
     0
  9
$LUNITS
 70
     2
  9
$LUPREC
 70
     4
  9
$SKETCHINC
 40
0.1
  9
$FILLETRAD
 40
0.5
  9
$AUNITS
 70
     0
  9
$AUPREC
 70
     0
  9
$MENU
  1
.
  9
$ELEVATION
 40
0.0
  9
$PELEVATION
 40
0.0
  9
$THICKNESS
 40
0.0
  9
$LIMCHECK
 70
     0
  9
$CHAMFERA
 40
0.5
  9
$CHAMFERB
 40
0.5
  9
$CHAMFERC
 40
1.0
  9
$CHAMFERD
 40
0.0
  9
$SKPOLY
 70
     0
  9
$TDCREATE
 40
2456819.745913588
  9
$TDUCREATE
 40
2456819.370913588
  9
$TDUPDATE
 40
2456819.7459136
  9
$TDUUPDATE
 40
2456819.3709136
  9
$TDINDWG
 40
0.0000000116
  9
$TDUSRTIMER
 40
0.0000000116
  9
$USRTIMER
 70
     1
  9
$ANGBASE
 50
0.0
  9
$ANGDIR
 70
     0
  9
$PDMODE
 70
     0
  9
$PDSIZE
 40
0.0
  9
$PLINEWID
 40
0.0
  9
$SPLFRAME
 70
     0
  9
$SPLINETYPE
 70
     6
  9
$SPLINESEGS
 70
     8
  9
$HANDSEED
  5
679
  9
$SURFTAB1
 70
     6
  9
$SURFTAB2
 70
     6
  9
$SURFTYPE
 70
     6
  9
$SURFU
 70
     6
  9
$SURFV
 70
     6
  9
$UCSBASE
  2

  9
$UCSNAME
  2

  9
$UCSORG
 10
0.0
 20
0.0
 30
0.0
  9
$UCSXDIR
 10
1.0
 20
0.0
 30
0.0
  9
$UCSYDIR
 10
0.0
 20
1.0
 30
0.0
  9
$UCSORTHOREF
  2

  9
$UCSORTHOVIEW
 70
     0
  9
$UCSORGTOP
 10
0.0
 20
0.0
 30
0.0
  9
$UCSORGBOTTOM
 10
0.0
 20
0.0
 30
0.0
  9
$UCSORGLEFT
 10
0.0
 20
0.0
 30
0.0
  9
$UCSORGRIGHT
 10
0.0
 20
0.0
 30
0.0
  9
$UCSORGFRONT
 10
0.0
 20
0.0
 30
0.0
  9
$UCSORGBACK
 10
0.0
 20
0.0
 30
0.0
  9
$PUCSBASE
  2

  9
$PUCSNAME
  2

  9
$PUCSORG
 10
0.0
 20
0.0
 30
0.0
  9
$PUCSXDIR
 10
1.0
 20
0.0
 30
0.0
  9
$PUCSYDIR
 10
0.0
 20
1.0
 30
0.0
  9
$PUCSORTHOREF
  2

  9
$PUCSORTHOVIEW
 70
     0
  9
$PUCSORGTOP
 10
0.0
 20
0.0
 30
0.0
  9
$PUCSORGBOTTOM
 10
0.0
 20
0.0
 30
0.0
  9
$PUCSORGLEFT
 10
0.0
 20
0.0
 30
0.0
  9
$PUCSORGRIGHT
 10
0.0
 20
0.0
 30
0.0
  9
$PUCSORGFRONT
 10
0.0
 20
0.0
 30
0.0
  9
$PUCSORGBACK
 10
0.0
 20
0.0
 30
0.0
  9
$USERI1
 70
     0
  9
$USERI2
 70
     0
  9
$USERI3
 70
     0
  9
$USERI4
 70
     0
  9
$USERI5
 70
     0
  9
$USERR1
 40
0.0
  9
$USERR2
 40
0.0
  9
$USERR3
 40
0.0
  9
$USERR4
 40
0.0
  9
$USERR5
 40
0.0
  9
$WORLDVIEW
 70
     1
  9
$SHADEDGE
 70
     3
  9
$SHADEDIF
 70
    70
  9
$TILEMODE
 70
     1
  9
$MAXACTVP
 70
    64
  9
$PINSBASE
 10
0.0
 20
0.0
 30
0.0
  9
$PLIMCHECK
 70
     0
  9
$PEXTMIN
 10
1.000000E+20
 20
1.000000E+20
 30
1.000000E+20
  9
$PEXTMAX
 10
-1.000000E+20
 20
-1.000000E+20
 30
-1.000000E+20
  9
$PLIMMIN
 10
0.0
 20
0.0
  9
$PLIMMAX
 10
12.0
 20
9.0
  9
$UNITMODE
 70
     0
  9
$VISRETAIN
 70
     1
  9
$PLINEGEN
 70
     0
  9
$PSLTSCALE
 70
     1
  9
$TREEDEPTH
 70
  3020
  9
$CMLSTYLE
  2
Standard
  9
$CMLJUST
 70
     0
  9
$CMLSCALE
 40
1.0
  9
$PROXYGRAPHICS
 70
     1
  9
$MEASUREMENT
 70
     0
  9
$CELWEIGHT
370
    -1
  9
$ENDCAPS
280
     0
  9
$JOINSTYLE
280
     0
  9
$LWDISPLAY
290
     0
  9
$INSUNITS
 70
     1
  9
$HYPERLINKBASE
  1

  9
$STYLESHEET
  1

  9
$XEDIT
290
     1
  9
$CEPSNTYPE
380
     0
  9
$PSTYLEMODE
290
     1
  9
$FINGERPRINTGUID
  2
{12C11FF4-CBC4-4A32-8D0E-D39270AE84A2}
  9
$VERSIONGUID
  2
{FAEB1C32-E019-11D5-929B-00C0DF256EC4}
  9
$EXTNAMES
290
     1
  9
$PSVPSCALE
 40
0.0
  9
$OLESTARTUP
290
     0
  0
ENDSEC
  0
SECTION
  2
CLASSES
  0
CLASS
  1
ACDBDICTIONARYWDFLT
  2
AcDbDictionaryWithDefault
  3
ObjectDBX Classes
 90
        0
280
     0
281
     0
  0
CLASS
  1
VISUALSTYLE
  2
AcDbVisualStyle
  3
ObjectDBX Classes
 90
     4095
280
     0
281
     0
  0
CLASS
  1
SCALE
  2
AcDbScale
  3
ObjectDBX Classes
 90
     1153
280
     0
281
     0
  0
CLASS
  1
DICTIONARYVAR
  2
AcDbDictionaryVar
  3
ObjectDBX Classes
 90
        0
280
     0
281
     0
  0
CLASS
  1
ACDBPLACEHOLDER
  2
AcDbPlaceHolder
  3
ObjectDBX Classes
 90
        0
280
     0
281
     0
  0
CLASS
  1
LAYOUT
  2
AcDbLayout
  3
ObjectDBX Classes
 90
        0
280
     0
281
     0
  0
ENDSEC
  0
SECTION
  2
TABLES
  0
TABLE
  2
VPORT
  5
8
330
0
100
AcDbSymbolTable
 70
     1
  0
VPORT
  5
29
330
8
100
AcDbSymbolTableRecord
100
AcDbViewportTableRecord
  2
*Active
 70
     0
 10
0.0
 20
0.0
 11
1.0
 21
1.0
 12
10.429907
 22
4.5
 13
0.0
 23
0.0
 14
0.5
 24
0.5
 15
0.5
 25
0.5
 16
0.0
 26
0.0
 36
1.0
 17
0.0
 27
0.0
 37
0.0
 40
9.0
 41
1.972973
 42
50.0
 43
0.0
 44
0.0
 50
0.0
 51
0.0
 71
     0
 72
   100
 73
     1
 74
     3
 75
     0
 76
     0
 77
     0
 78
     0
281
     0
 65
     1
110
0.0
120
0.0
130
0.0
111
1.0
121
0.0
131
0.0
112
0.0
122
1.0
132
0.0
 79
     0
146
0.0
  0
ENDTAB
  0
TABLE
  2
LTYPE
  5
5
330
0
100
AcDbSymbolTable
 70
    16
  0
LTYPE
  5
14
330
5
100
AcDbSymbolTableRecord
100
AcDbLinetypeTableRecord
  2
ByBlock
 70
     0
  3

 72
    65
 73
     0
 40
0.0
  0
LTYPE
  5
15
330
5
100
AcDbSymbolTableRecord
100
AcDbLinetypeTableRecord
  2
ByLayer
 70
     0
  3

 72
    65
 73
     0
 40
0.0
  0
LTYPE
  5
16
330
5
100
AcDbSymbolTableRecord
100
AcDbLinetypeTableRecord
  2
Continuous
 70
     0
  3
Solid line
 72
    65
 73
     0
 40
0.0
  0
LTYPE
  5
3B
330
5
100
AcDbSymbolTableRecord
100
AcDbLinetypeTableRecord
  2
PLine1
 70
     0
  3
破線
 72
    65
 73
     2
 40
18.0
 49
12.6
 74
     0
 49
-5.4
 74
     0
  0
LTYPE
  5
3C
330
5
100
AcDbSymbolTableRecord
100
AcDbLinetypeTableRecord
  2
PLine2
 70
     0
  3
一点鎖線
 72
    65
 73
     4
 40
60.0
 49
42.0
 74
     0
 49
-6.0
 74
     0
 49
6.0
 74
     0
 49
-6.0
 74
     0
  0
LTYPE
  5
3D
330
5
100
AcDbSymbolTableRecord
100
AcDbLinetypeTableRecord
  2
PLine3
 70
     0
  3
二点鎖線
 72
    65
 73
     6
 40
60.0
 49
30.0
 74
     0
 49
-6.0
 74
     0
 49
6.0
 74
     0
 49
-6.0
 74
     0
 49
6.0
 74
     0
 49
-6.0
 74
     0
  0
LTYPE
  5
3E
330
5
100
AcDbSymbolTableRecord
100
AcDbLinetypeTableRecord
  2
PLine4
 70
     0
  3
破線1
 72
    65
 73
     2
 40
30.0
 49
21.0
 74
     0
 49
-9.0
 74
     0
  0
LTYPE
  5
3F
330
5
100
AcDbSymbolTableRecord
100
AcDbLinetypeTableRecord
  2
PLine5
 70
     0
  3
一点鎖線1
 72
    65
 73
     4
 40
90.0
 49
63.0
 74
     0
 49
-9.0
 74
     0
 49
9.0
 74
     0
 49
-9.0
 74
     0
  0
LTYPE
  5
40
330
5
100
AcDbSymbolTableRecord
100
AcDbLinetypeTableRecord
  2
PLine6
 70
     0
  3
二点鎖線1
 72
    65
 73
     6
 40
90.0
 49
45.0
 74
     0
 49
-9.0
 74
     0
 49
9.0
 74
     0
 49
-9.0
 74
     0
 49
9.0
 74
     0
 49
-9.0
 74
     0
  0
LTYPE
  5
41
330
5
100
AcDbSymbolTableRecord
100
AcDbLinetypeTableRecord
  2
PLine7
 70
     0
  3
破線2
 72
    65
 73
     2
 40
42.0
 49
29.4
 74
     0
 49
-12.6
 74
     0
  0
LTYPE
  5
42
330
5
100
AcDbSymbolTableRecord
100
AcDbLinetypeTableRecord
  2
PLine8
 70
     0
  3
一点鎖線2
 72
    65
 73
     4
 40
120.0
 49
84.0
 74
     0
 49
-12.0
 74
     0
 49
12.0
 74
     0
 49
-12.0
 74
     0
  0
LTYPE
  5
43
330
5
100
AcDbSymbolTableRecord
100
AcDbLinetypeTableRecord
  2
PLine9
 70
     0
  3
二点鎖線2
 72
    65
 73
     6
 40
120.0
 49
60.0
 74
     0
 49
-12.0
 74
     0
 49
12.0
 74
     0
 49
-12.0
 74
     0
 49
12.0
 74
     0
 49
-12.0
 74
     0
  0
LTYPE
  5
44
330
5
100
AcDbSymbolTableRecord
100
AcDbLinetypeTableRecord
  2
PLine10
 70
     0
  3
破線3
 72
    65
 73
     2
 40
54.0
 49
37.8
 74
     0
 49
-16.2
 74
     0
  0
LTYPE
  5
45
330
5
100
AcDbSymbolTableRecord
100
AcDbLinetypeTableRecord
  2
PLine11
 70
     0
  3
一点鎖線3
 72
    65
 73
     4
 40
150.0
 49
105.0
 74
     0
 49
-15.0
 74
     0
 49
15.0
 74
     0
 49
-15.0
 74
     0
  0
LTYPE
  5
46
330
5
100
AcDbSymbolTableRecord
100
AcDbLinetypeTableRecord
  2
PLine12
 70
     0
  3
二点鎖線3
 72
    65
 73
     6
 40
150.0
 49
75.0
 74
     0
 49
-15.0
 74
     0
 49
15.0
 74
     0
 49
-15.0
 74
     0
 49
15.0
 74
     0
 49
-15.0
 74
     0
  0
LTYPE
  5
47
330
5
100
AcDbSymbolTableRecord
100
AcDbLinetypeTableRecord
  2
PLine13
 70
     0
  3
破線4
 72
    65
 73
     2
 40
66.0
 49
46.2
 74
     0
 49
-19.8
 74
     0
  0
LTYPE
  5
48
330
5
100
AcDbSymbolTableRecord
100
AcDbLinetypeTableRecord
  2
PLine14
 70
     0
  3
一点鎖線4
 72
    65
 73
     4
 40
180.0
 49
126.0
 74
     0
 49
-18.0
 74
     0
 49
18.0
 74
     0
 49
-18.0
 74
     0
  0
LTYPE
  5
49
330
5
100
AcDbSymbolTableRecord
100
AcDbLinetypeTableRecord
  2
PLine15
 70
     0
  3
二点鎖線4
 72
    65
 73
     6
 40
180.0
 49
90.0
 74
     0
 49
-18.0
 74
     0
 49
18.0
 74
     0
 49
-18.0
 74
     0
 49
18.0
 74
     0
 49
-18.0
 74
     0
  0
ENDTAB
  0
TABLE
  2
LAYER
  5
2
330
0
100
AcDbSymbolTable
 70
     2
  0
LAYER
  5
10
330
2
100
AcDbSymbolTableRecord
100
AcDbLayerTableRecord
  2
0
 70
     0
 62
     7
  6
Continuous
370
    -3
390
F
  0
LAYER
  5
4E
330
2
100
AcDbSymbolTableRecord
100
AcDbLayerTableRecord
  2
dxfile
 70
     0
 62
     7
  6
Continuous
370
    -3
390
F
  0
ENDTAB
  0
TABLE
  2
STYLE
  5
3
330
0
100
AcDbSymbolTable
 70
     5
  0
STYLE
  5
11
330
3
100
AcDbSymbolTableRecord
100
AcDbTextStyleTableRecord
  2
Standard
 70
     0
 40
0.0
 41
1.0
 50
0.0
 71
     0
 42
0.2
  3
txt
  4
bigfont
  0
STYLE
  5
4A
330
3
100
AcDbSymbolTableRecord
100
AcDbTextStyleTableRecord
  2
BIGFONT
 70
     0
 40
0.2
 41
1.0
 50
0.0
 71
     0
 42
3.5
  3
monotxt
  4
bigfont
  0
STYLE
  5
4B
330
3
100
AcDbSymbolTableRecord
100
AcDbTextStyleTableRecord
  2
BIG VER
 70
     4
 40
0.2
 41
1.0
 50
0.0
 71
     0
 42
3.5
  3
monotxt
  4
bigfont
  0
STYLE
  5
4C
330
3
100
AcDbSymbolTableRecord
100
AcDbTextStyleTableRecord
  2
EXTFONT
 70
     0
 40
0.2
 41
1.0
 50
0.0
 71
     0
 42
3.5
  3
monotxt
  4
extfont
  0
STYLE
  5
4D
330
3
100
AcDbSymbolTableRecord
100
AcDbTextStyleTableRecord
  2
EXT VER
 70
     4
 40
0.2
 41
1.0
 50
0.0
 71
     0
 42
3.5
  3
monotxt
  4
extfont
  0
ENDTAB
  0
TABLE
  2
VIEW
  5
6
330
0
100
AcDbSymbolTable
 70
     0
  0
ENDTAB
  0
TABLE
  2
UCS
  5
7
330
0
100
AcDbSymbolTable
 70
     0
  0
ENDTAB
  0
TABLE
  2
APPID
  5
9
330
0
100
AcDbSymbolTable
 70
     1
  0
APPID
  5
12
330
9
100
AcDbSymbolTableRecord
100
AcDbRegAppTableRecord
  2
ACAD
 70
     0
  0
ENDTAB
  0
TABLE
  2
DIMSTYLE
  5
A
330
0
100
AcDbSymbolTable
 70
     1
100
AcDbDimStyleTable
  0
DIMSTYLE
105
27
330
A
100
AcDbSymbolTableRecord
100
AcDbDimStyleTableRecord
  2
Standard
 70
     0
340
11
  0
ENDTAB
  0
TABLE
  2
BLOCK_RECORD
  5
1
330
0
100
AcDbSymbolTable
 70
    20
  0
BLOCK_RECORD
  5
1F
330
1
100
AcDbSymbolTableRecord
100
AcDbBlockTableRecord
  2
*Model_Space
340
22
  0
BLOCK_RECORD
  5
1B
330
1
100
AcDbSymbolTableRecord
100
AcDbBlockTableRecord
  2
*Paper_Space
340
1E
  0
BLOCK_RECORD
  5
23
330
1
100
AcDbSymbolTableRecord
100
AcDbBlockTableRecord
  2
*Paper_Space0
340
26
  0
BLOCK_RECORD
  5
182
330
1
100
AcDbSymbolTableRecord
100
AcDbBlockTableRecord
  2
DIM_0
340
0
102
{BLKREFS
331
18B
102
}
  0
BLOCK_RECORD
  5
209
330
1
100
AcDbSymbolTableRecord
100
AcDbBlockTableRecord
  2
DIM_1
340
0
102
{BLKREFS
331
212
102
}
  0
BLOCK_RECORD
  5
295
330
1
100
AcDbSymbolTableRecord
100
AcDbBlockTableRecord
  2
DIM_2
340
0
102
{BLKREFS
331
29E
102
}
  0
BLOCK_RECORD
  5
29F
330
1
100
AcDbSymbolTableRecord
100
AcDbBlockTableRecord
  2
DIM_3
340
0
102
{BLKREFS
331
2A8
102
}
  0
BLOCK_RECORD
  5
2B7
330
1
100
AcDbSymbolTableRecord
100
AcDbBlockTableRecord
  2
DIM_4
340
0
102
{BLKREFS
331
2C0
102
}
  0
BLOCK_RECORD
  5
2C1
330
1
100
AcDbSymbolTableRecord
100
AcDbBlockTableRecord
  2
DIM_5
340
0
102
{BLKREFS
331
2CA
102
}
  0
BLOCK_RECORD
  5
44E
330
1
100
AcDbSymbolTableRecord
100
AcDbBlockTableRecord
  2
DIM_6
340
0
102
{BLKREFS
331
454
102
}
  0
BLOCK_RECORD
  5
48E
330
1
100
AcDbSymbolTableRecord
100
AcDbBlockTableRecord
  2
DIM_7
340
0
102
{BLKREFS
331
495
102
}
  0
BLOCK_RECORD
  5
49F
330
1
100
AcDbSymbolTableRecord
100
AcDbBlockTableRecord
  2
DIM_8
340
0
102
{BLKREFS
331
4A7
102
}
  0
BLOCK_RECORD
  5
4AE
330
1
100
AcDbSymbolTableRecord
100
AcDbBlockTableRecord
  2
DIM_9
340
0
102
{BLKREFS
331
4B7
102
}
  0
BLOCK_RECORD
  5
4B8
330
1
100
AcDbSymbolTableRecord
100
AcDbBlockTableRecord
  2
DIM_10
340
0
102
{BLKREFS
331
4C1
102
}
  0
BLOCK_RECORD
  5
4C2
330
1
100
AcDbSymbolTableRecord
100
AcDbBlockTableRecord
  2
DIM_11
340
0
102
{BLKREFS
331
4CA
102
}
  0
BLOCK_RECORD
  5
4CB
330
1
100
AcDbSymbolTableRecord
100
AcDbBlockTableRecord
  2
DIM_12
340
0
102
{BLKREFS
331
4D3
102
}
  0
BLOCK_RECORD
  5
4D4
330
1
100
AcDbSymbolTableRecord
100
AcDbBlockTableRecord
  2
DIM_13
340
0
102
{BLKREFS
331
4DD
102
}
  0
BLOCK_RECORD
  5
533
330
1
100
AcDbSymbolTableRecord
100
AcDbBlockTableRecord
  2
DIM_14
340
0
102
{BLKREFS
331
53C
102
}
  0
BLOCK_RECORD
  5
53D
330
1
100
AcDbSymbolTableRecord
100
AcDbBlockTableRecord
  2
DIM_15
340
0
102
{BLKREFS
331
546
102
}
  0
BLOCK_RECORD
  5
550
330
1
100
AcDbSymbolTableRecord
100
AcDbBlockTableRecord
  2
DIM_16
340
0
102
{BLKREFS
331
559
102
}
  0
BLOCK_RECORD
  5
602
330
1
100
AcDbSymbolTableRecord
100
AcDbBlockTableRecord
  2
DIM_17
340
0
102
{BLKREFS
331
60B
102
}
  0
BLOCK_RECORD
  5
60C
330
1
100
AcDbSymbolTableRecord
100
AcDbBlockTableRecord
  2
DIM_18
340
0
102
{BLKREFS
331
615
102
}
  0
ENDTAB
  0
ENDSEC
  0
SECTION
  2
BLOCKS
  0
BLOCK
  5
20
330
1F
100
AcDbEntity
  8
0
100
AcDbBlockBegin
  2
*Model_Space
 70
     0
 10
0.0
 20
0.0
 30
0.0
  3
*Model_Space
  1

  0
ENDBLK
  5
21
330
1F
100
AcDbEntity
  8
0
100
AcDbBlockEnd
  0
BLOCK
  5
1C
330
1B
100
AcDbEntity
 67
     1
  8
0
100
AcDbBlockBegin
  2
*Paper_Space
 70
     0
 10
0.0
 20
0.0
 30
0.0
  3
*Paper_Space
  1

  0
ENDBLK
  5
1D
330
1B
100
AcDbEntity
 67
     1
  8
0
100
AcDbBlockEnd
  0
BLOCK
  5
24
330
23
100
AcDbEntity
  8
0
100
AcDbBlockBegin
  2
*Paper_Space0
 70
     0
 10
0.0
 20
0.0
 30
0.0
  3
*Paper_Space0
  1

  0
ENDBLK
  5
25
330
23
100
AcDbEntity
  8
0
100
AcDbBlockEnd
  0
BLOCK
  5
183
330
182
100
AcDbEntity
  8
0
100
AcDbBlockBegin
  2
DIM_0
 70
     0
 10
283.071098
 20
479.100514
 30
0.0
  3
DIM_0
  1

  0
CIRCLE
  5
185
330
182
100
AcDbEntity
  8
dxfile
  6
Continuous
 62
     3
100
AcDbCircle
 10
283.071098
 20
381.991421
 30
0.0
 40
2.4
  0
CIRCLE
  5
186
330
182
100
AcDbEntity
  8
dxfile
  6
Continuous
 62
     3
100
AcDbCircle
 10
448.071098
 20
381.991421
 30
0.0
 40
2.4
  0
LINE
  5
187
330
182
100
AcDbEntity
  8
dxfile
  6
Continuous
 62
     3
100
AcDbLine
 10
283.071098
 20
381.991421
 30
0.0
 11
448.071098
 21
381.991421
 31
0.0
  0
LINE
  5
188
330
182
100
AcDbEntity
  8
dxfile
  6
Continuous
 62
     3
100
AcDbLine
 10
283.071098
 20
479.100514
 30
0.0
 11
283.071098
 21
375.991421
 31
0.0
  0
LINE
  5
189
330
182
100
AcDbEntity
  8
dxfile
  6
Continuous
 62
     3
100
AcDbLine
 10
448.071098
 20
492.635969
 30
0.0
 11
448.071098
 21
375.991421
 31
0.0
  0
TEXT
  5
18A
330
182
100
AcDbEntity
  8
dxfile
  6
Continuous
 62
     3
100
AcDbText
 10
334.389062
 20
384.991416
 30
0.0
 40
18.0
  1
１６５
 41
0.743832
 51
0.0
  7
BIGFONT
 72
     1
 11
350.647105
 21
393.991416
 31
0.0
100
AcDbText
 73
     2
  0
ENDBLK
  5
184
330
182
100
AcDbEntity
  8
0
100
AcDbBlockEnd
  0
BLOCK
  5
20A
330
209
100
AcDbEntity
  8
0
100
AcDbBlockBegin
  2
DIM_1
 70
     0
 10
338.012491
 20
684.235587
 30
0.0
  3
DIM_1
  1

  0
CIRCLE
  5
20C
330
209
100
AcDbEntity
  8
dxfile
  6
Continuous
 62
     3
100
AcDbCircle
 10
205.170992
 20
684.235587
 30
0.0
 40
3.0
  0
CIRCLE
  5
20D
330
209
100
AcDbEntity
  8
dxfile
  6
Continuous
 62
     3
100
AcDbCircle
 10
205.170992
 20
484.235587
 30
0.0
 40
3.0
  0
LINE
  5
20E
330
209
100
AcDbEntity
  8
dxfile
  6
Continuous
 62
     3
100
AcDbLine
 10
205.170992
 20
684.235587
 30
0.0
 11
205.170992
 21
484.235587
 31
0.0
  0
LINE
  5
20F
330
209
100
AcDbEntity
  8
dxfile
  6
Continuous
 62
     3
100
AcDbLine
 10
338.012491
 20
684.235587
 30
0.0
 11
199.170992
 21
684.235587
 31
0.0
  0
LINE
  5
210
330
209
100
AcDbEntity
  8
dxfile
  6
Continuous
 62
     3
100
AcDbLine
 10
273.991674
 20
484.235587
 30
0.0
 11
199.170992
 21
484.235587
 31
0.0
  0
TEXT
  5
211
330
209
100
AcDbEntity
  8
dxfile
  6
Continuous
 62
     3
100
AcDbText
 10
202.170992
 20
567.977552
 30
0.0
 40
18.0
  1
２００
 50
90.000003
 41
0.743832
 51
0.0
  7
BIGFONT
 72
     1
 11
202.170991
 21
584.235594
 31
0.0
100
AcDbText
  0
ENDBLK
  5
20B
330
209
100
AcDbEntity
  8
0
100
AcDbBlockEnd
  0
BLOCK
  5
296
330
295
100
AcDbEntity
  8
0
100
AcDbBlockBegin
  2
DIM_2
 70
     0
 10
268.071098
 20
484.967577
 30
0.0
  3
DIM_2
  1

  0
CIRCLE
  5
298
330
295
100
AcDbEntity
  8
dxfile
  6
Continuous
 62
     3
100
AcDbCircle
 10
268.071098
 20
381.991421
 30
0.0
 40
2.4
  0
CIRCLE
  5
299
330
295
100
AcDbEntity
  8
dxfile
  6
Continuous
 62
     3
100
AcDbCircle
 10
283.071098
 20
381.991421
 30
0.0
 40
2.4
  0
LINE
  5
29A
330
295
100
AcDbEntity
  8
dxfile
  6
Continuous
 62
     3
100
AcDbLine
 10
268.071098
 20
381.991421
 30
0.0
 11
283.071098
 21
381.991421
 31
0.0
  0
LINE
  5
29B
330
295
100
AcDbEntity
  8
dxfile
  6
Continuous
 62
     3
100
AcDbLine
 10
268.071098
 20
484.967577
 30
0.0
 11
268.071098
 21
375.991421
 31
0.0
  0
LINE
  5
29C
330
295
100
AcDbEntity
  8
dxfile
  6
Continuous
 62
     3
100
AcDbLine
 10
283.071098
 20
291.185194
 30
0.0
 11
283.071098
 21
387.991421
 31
0.0
  0
TEXT
  5
29D
330
295
100
AcDbEntity
  8
dxfile
  6
Continuous
 62
     3
100
AcDbText
 10
241.848653
 20
383.437029
 30
0.0
 40
18.0
  1
１５
 41
0.772441
 51
0.0
  7
BIGFONT
 72
     1
 11
252.773175
 21
383.437029
 31
0.0
100
AcDbText
  0
ENDBLK
  5
297
330
295
100
AcDbEntity
  8
0
100
AcDbBlockEnd
  0
BLOCK
  5
2A0
330
29F
100
AcDbEntity
  8
0
100
AcDbBlockBegin
  2
DIM_3
 70
     0
 10
438.071098
 20
758.023373
 30
0.0
  3
DIM_3
  1

  0
CIRCLE
  5
2A2
330
29F
100
AcDbEntity
  8
dxfile
  6
Continuous
 62
     3
100
AcDbCircle
 10
438.071098
 20
855.819395
 30
0.0
 40
3.0
  0
CIRCLE
  5
2A3
330
29F
100
AcDbEntity
  8
dxfile
  6
Continuous
 62
     3
100
AcDbCircle
 10
1298.071098
 20
855.819395
 30
0.0
 40
3.0
  0
LINE
  5
2A4
330
29F
100
AcDbEntity
  8
dxfile
  6
Continuous
 62
     3
100
AcDbLine
 10
438.071098
 20
855.819395
 30
0.0
 11
1298.071098
 21
855.819395
 31
0.0
  0
LINE
  5
2A5
330
29F
100
AcDbEntity
  8
dxfile
  6
Continuous
 62
     3
100
AcDbLine
 10
438.071098
 20
758.023373
 30
0.0
 11
438.071098
 21
861.819395
 31
0.0
  0
LINE
  5
2A6
330
29F
100
AcDbEntity
  8
dxfile
  6
Continuous
 62
     3
100
AcDbLine
 10
1298.071098
 20
752.964351
 30
0.0
 11
1298.071098
 21
861.819395
 31
0.0
  0
TEXT
  5
2A7
330
29F
100
AcDbEntity
  8
dxfile
  6
Continuous
 62
     3
100
AcDbText
 10
853.231048
 20
858.819408
 30
0.0
 40
18.0
  1
硝子寸法
 41
0.858268
  7
BIGFONT
 72
     1
 11
878.611251
 21
867.819408
 31
0.0
100
AcDbText
 73
     2
  0
ENDBLK
  5
2A1
330
29F
100
AcDbEntity
  8
0
100
AcDbBlockEnd
  0
BLOCK
  5
2B8
330
2B7
100
AcDbEntity
  8
0
100
AcDbBlockBegin
  2
DIM_4
 70
     0
 10
1453.071098
 20
480.847243
 30
0.0
  3
DIM_4
  1

  0
CIRCLE
  5
2BA
330
2B7
100
AcDbEntity
  8
dxfile
  6
Continuous
 62
     3
100
AcDbCircle
 10
1453.071098
 20
381.991421
 30
0.0
 40
2.4
  0
CIRCLE
  5
2BB
330
2B7
100
AcDbEntity
  8
dxfile
  6
Continuous
 62
     3
100
AcDbCircle
 10
1288.071098
 20
381.991421
 30
0.0
 40
2.4
  0
LINE
  5
2BC
330
2B7
100
AcDbEntity
  8
dxfile
  6
Continuous
 62
     3
100
AcDbLine
 10
1453.071098
 20
381.991421
 30
0.0
 11
1288.071098
 21
381.991421
 31
0.0
  0
LINE
  5
2BD
330
2B7
100
AcDbEntity
  8
dxfile
  6
Continuous
 62
     3
100
AcDbLine
 10
1453.071098
 20
480.847243
 30
0.0
 11
1453.071098
 21
375.991421
 31
0.0
  0
LINE
  5
2BE
330
2B7
100
AcDbEntity
  8
dxfile
  6
Continuous
 62
     3
100
AcDbLine
 10
1288.071098
 20
492.635969
 30
0.0
 11
1288.071098
 21
375.991421
 31
0.0
  0
TEXT
  5
2BF
330
2B7
100
AcDbEntity
  8
dxfile
  6
Continuous
 62
     3
100
AcDbText
 10
1366.625371
 20
384.991416
 30
0.0
 40
18.0
  1
１６５
 41
0.743832
 51
0.0
  7
BIGFONT
 72
     1
 11
1382.883414
 21
393.991416
 31
0.0
100
AcDbText
 73
     2
  0
ENDBLK
  5
2B9
330
2B7
100
AcDbEntity
  8
0
100
AcDbBlockEnd
  0
BLOCK
  5
2C2
330
2C1
100
AcDbEntity
  8
0
100
AcDbBlockBegin
  2
DIM_5
 70
     0
 10
1468.071098
 20
484.967577
 30
0.0
  3
DIM_5
  1

  0
CIRCLE
  5
2C4
330
2C1
100
AcDbEntity
  8
dxfile
  6
Continuous
 62
     3
100
AcDbCircle
 10
1468.071098
 20
381.991421
 30
0.0
 40
2.4
  0
CIRCLE
  5
2C5
330
2C1
100
AcDbEntity
  8
dxfile
  6
Continuous
 62
     3
100
AcDbCircle
 10
1453.071098
 20
381.991421
 30
0.0
 40
2.4
  0
LINE
  5
2C6
330
2C1
100
AcDbEntity
  8
dxfile
  6
Continuous
 62
     3
100
AcDbLine
 10
1468.071098
 20
381.991421
 30
0.0
 11
1453.071098
 21
381.991421
 31
0.0
  0
LINE
  5
2C7
330
2C1
100
AcDbEntity
  8
dxfile
  6
Continuous
 62
     3
100
AcDbLine
 10
1468.071098
 20
484.967577
 30
0.0
 11
1468.071098
 21
375.991421
 31
0.0
  0
LINE
  5
2C8
330
2C1
100
AcDbEntity
  8
dxfile
  6
Continuous
 62
     3
100
AcDbLine
 10
1453.071098
 20
291.185194
 30
0.0
 11
1453.071098
 21
387.991421
 31
0.0
  0
TEXT
  5
2C9
330
2C1
100
AcDbEntity
  8
dxfile
  6
Continuous
 62
     3
100
AcDbText
 10
1472.444501
 20
383.437029
 30
0.0
 40
18.0
  1
１５
 41
0.772441
 51
0.0
  7
BIGFONT
 72
     1
 11
1483.369023
 21
383.437029
 31
0.0
100
AcDbText
  0
ENDBLK
  5
2C3
330
2C1
100
AcDbEntity
  8
0
100
AcDbBlockEnd
  0
BLOCK
  5
44F
330
44E
100
AcDbEntity
  8
0
100
AcDbBlockBegin
  2
DIM_6
 70
     0
 10
0.0
 20
0.0
 30
0.0
  3
DIM_6
  1

  0
CIRCLE
  5
451
330
44E
100
AcDbEntity
  8
dxfile
  6
Continuous
 62
     3
100
AcDbCircle
 10
2154.099573
 20
1280.587762
 30
0.0
 40
2.4
  0
LINE
  5
452
330
44E
100
AcDbEntity
  8
dxfile
  6
Continuous
 62
     3
100
AcDbLine
 10
2154.099573
 20
1280.587762
 30
0.0
 11
2081.849573
 21
1155.447091
 31
0.0
  0
TEXT
  5
453
330
44E
100
AcDbEntity
  8
dxfile
  6
Continuous
 62
     3
100
AcDbText
 10
2100.912368
 20
1193.4649
 30
0.0
 40
15.0
  1
Ｒ３００ 以上
 50
60.000002
 41
0.662092
  7
BIGFONT
 72
     1
 11
2115.809443
 21
1219.267392
 31
0.0
100
AcDbText
  0
ENDBLK
  5
450
330
44E
100
AcDbEntity
  8
0
100
AcDbBlockEnd
  0
BLOCK
  5
48F
330
48E
100
AcDbEntity
  8
0
100
AcDbBlockBegin
  2
DIM_7
 70
     0
 10
2023.799116
 20
1158.620481
 30
0.0
  3
DIM_7
  1

  0
CIRCLE
  5
491
330
48E
100
AcDbEntity
  8
dxfile
  6
Continuous
 62
     3
100
AcDbCircle
 10
1926.291828
 20
1158.620481
 30
0.0
 40
3.0
  0
CIRCLE
  5
492
330
48E
100
AcDbEntity
  8
dxfile
  6
Continuous
 62
     3
100
AcDbCircle
 10
1926.291828
 20
341.603995
 30
0.0
 40
3.0
  0
LINE
  5
493
330
48E
100
AcDbEntity
  8
dxfile
  6
Continuous
 62
     3
100
AcDbLine
 10
1926.291828
 20
1158.620481
 30
0.0
 11
1926.291828
 21
341.603995
 31
0.0
  0
TEXT
  5
494
330
48E
100
AcDbEntity
  8
dxfile
  6
Continuous
 62
     3
100
AcDbText
 10
1923.291743
 20
739.997049
 30
0.0
 40
15.0
  1
ＣＨ
 50
90.000003
 41
0.858268
  7
BIGFONT
 72
     1
 11
1923.291743
 21
750.112347
 31
0.0
100
AcDbText
  0
ENDBLK
  5
490
330
48E
100
AcDbEntity
  8
0
100
AcDbBlockEnd
  0
BLOCK
  5
4A0
330
49F
100
AcDbEntity
  8
0
100
AcDbBlockBegin
  2
DIM_8
 70
     0
 10
2137.181257
 20
719.748369
 30
0.0
  3
DIM_8
  1

  0
CIRCLE
  5
4A2
330
49F
100
AcDbEntity
  8
dxfile
  6
Continuous
 62
     3
100
AcDbCircle
 10
1987.189921
 20
719.748369
 30
0.0
 40
3.0
  0
CIRCLE
  5
4A3
330
49F
100
AcDbEntity
  8
dxfile
  6
Continuous
 62
     3
100
AcDbCircle
 10
1987.189921
 20
341.603995
 30
0.0
 40
3.0
  0
LINE
  5
4A4
330
49F
100
AcDbEntity
  8
dxfile
  6
Continuous
 62
     3
100
AcDbLine
 10
1987.189921
 20
719.748369
 30
0.0
 11
1987.189921
 21
341.603995
 31
0.0
  0
LINE
  5
4A5
330
49F
100
AcDbEntity
  8
dxfile
  6
Continuous
 62
     3
100
AcDbLine
 10
2137.181257
 20
719.748369
 30
0.0
 11
1977.189921
 21
719.748369
 31
0.0
  0
TEXT
  5
4A6
330
49F
100
AcDbEntity
  8
dxfile
  6
Continuous
 62
     3
100
AcDbText
 10
1984.189873
 20
504.008578
 30
0.0
 40
15.0
  1
約１２００
 50
90.0
 41
0.858268
  7
BIGFONT
 72
     1
 11
1984.189873
 21
530.676182
 31
0.0
100
AcDbText
  0
ENDBLK
  5
4A1
330
49F
100
AcDbEntity
  8
0
100
AcDbBlockEnd
  0
BLOCK
  5
4AF
330
4AE
100
AcDbEntity
  8
0
100
AcDbBlockBegin
  2
DIM_9
 70
     0
 10
2204.2352
 20
853.998369
 30
0.0
  3
DIM_9
  1

  0
CIRCLE
  5
4B1
330
4AE
100
AcDbEntity
  8
dxfile
  6
Continuous
 62
     3
100
AcDbCircle
 10
2113.8852
 20
853.998369
 30
0.0
 40
1.8
  0
CIRCLE
  5
4B2
330
4AE
100
AcDbEntity
  8
dxfile
  6
Continuous
 62
     3
100
AcDbCircle
 10
2113.8852
 20
693.998369
 30
0.0
 40
1.8
  0
LINE
  5
4B3
330
4AE
100
AcDbEntity
  8
dxfile
  6
Continuous
 62
     3
100
AcDbLine
 10
2113.8852
 20
853.998369
 30
0.0
 11
2113.8852
 21
693.998369
 31
0.0
  0
LINE
  5
4B4
330
4AE
100
AcDbEntity
  8
dxfile
  6
Continuous
 62
     3
100
AcDbLine
 10
2204.2352
 20
853.998369
 30
0.0
 11
2113.3852
 21
853.998369
 31
0.0
  0
LINE
  5
4B5
330
4AE
100
AcDbEntity
  8
dxfile
  6
Continuous
 62
     3
100
AcDbLine
 10
2204.2352
 20
693.998369
 30
0.0
 11
2113.3852
 21
693.998369
 31
0.0
  0
TEXT
  5
4B6
330
4AE
100
AcDbEntity
  8
dxfile
  6
Continuous
 62
     3
100
AcDbText
 10
2111.691502
 20
766.616177
 30
0.0
 40
15.0
  1
３２０
 50
90.000003
 41
0.750092
  7
BIGFONT
100
AcDbText
  0
ENDBLK
  5
4B0
330
4AE
100
AcDbEntity
  8
0
100
AcDbBlockEnd
  0
BLOCK
  5
4B9
330
4B8
100
AcDbEntity
  8
0
100
AcDbBlockBegin
  2
DIM_10
 70
     0
 10
2249.050706
 20
698.998369
 30
0.0
  3
DIM_10
  1

  0
CIRCLE
  5
4BB
330
4B8
100
AcDbEntity
  8
dxfile
  6
Continuous
 62
     3
100
AcDbCircle
 10
2305.768861
 20
698.998369
 30
0.0
 40
1.8
  0
CIRCLE
  5
4BC
330
4B8
100
AcDbEntity
  8
dxfile
  6
Continuous
 62
     3
100
AcDbCircle
 10
2305.768861
 20
848.998369
 30
0.0
 40
1.8
  0
LINE
  5
4BD
330
4B8
100
AcDbEntity
  8
dxfile
  6
Continuous
 62
     3
100
AcDbLine
 10
2305.768861
 20
698.998369
 30
0.0
 11
2305.768861
 21
848.998369
 31
0.0
  0
LINE
  5
4BE
330
4B8
100
AcDbEntity
  8
dxfile
  6
Continuous
 62
     3
100
AcDbLine
 10
2249.050706
 20
698.998369
 30
0.0
 11
2310.768861
 21
698.998369
 31
0.0
  0
LINE
  5
4BF
330
4B8
100
AcDbEntity
  8
dxfile
  6
Continuous
 62
     3
100
AcDbLine
 10
2249.050706
 20
848.998369
 30
0.0
 11
2310.768861
 21
848.998369
 31
0.0
  0
TEXT
  5
4C0
330
4B8
100
AcDbEntity
  8
dxfile
  6
Continuous
 62
     3
100
AcDbText
 10
2304.223729
 20
756.899607
 30
0.0
 40
15.0
  1
３００
 50
90.000003
 41
0.750092
  7
BIGFONT
100
AcDbText
  0
ENDBLK
  5
4BA
330
4B8
100
AcDbEntity
  8
0
100
AcDbBlockEnd
  0
BLOCK
  5
4C3
330
4C2
100
AcDbEntity
  8
0
100
AcDbBlockBegin
  2
DIM_11
 70
     0
 10
2208.621665
 20
688.154479
 30
0.0
  3
DIM_11
  1

  0
CIRCLE
  5
4C5
330
4C2
100
AcDbEntity
  8
dxfile
  6
Continuous
 62
     3
100
AcDbCircle
 10
2208.621665
 20
613.654479
 30
0.0
 40
1.8
  0
CIRCLE
  5
4C6
330
4C2
100
AcDbEntity
  8
dxfile
  6
Continuous
 62
     3
100
AcDbCircle
 10
2211.121665
 20
613.654479
 30
0.0
 40
1.8
  0
LINE
  5
4C7
330
4C2
100
AcDbEntity
  8
dxfile
  6
Continuous
 62
     3
100
AcDbLine
 10
2208.621665
 20
613.654479
 30
0.0
 11
2211.121665
 21
613.654479
 31
0.0
  0
LINE
  5
4C8
330
4C2
100
AcDbEntity
  8
dxfile
  6
Continuous
 62
     3
100
AcDbLine
 10
2208.621665
 20
688.154479
 30
0.0
 11
2208.621665
 21
613.154479
 31
0.0
  0
TEXT
  5
4C9
330
4C2
100
AcDbEntity
  8
dxfile
  6
Continuous
 62
     3
100
AcDbText
 10
2195.910106
 20
607.617321
 30
0.0
 40
15.0
  1
５
 41
0.858268
  7
BIGFONT
 72
     1
 11
2200.507969
 21
615.117321
 31
0.0
100
AcDbText
 73
     2
  0
ENDBLK
  5
4C4
330
4C2
100
AcDbEntity
  8
0
100
AcDbBlockEnd
  0
BLOCK
  5
4CC
330
4CB
100
AcDbEntity
  8
0
100
AcDbBlockBegin
  2
DIM_12
 70
     0
 10
2246.121665
 20
693.154479
 30
0.0
  3
DIM_12
  1

  0
CIRCLE
  5
4CE
330
4CB
100
AcDbEntity
  8
dxfile
  6
Continuous
 62
     3
100
AcDbCircle
 10
2246.121665
 20
613.654479
 30
0.0
 40
1.8
  0
CIRCLE
  5
4CF
330
4CB
100
AcDbEntity
  8
dxfile
  6
Continuous
 62
     3
100
AcDbCircle
 10
2211.121665
 20
613.654479
 30
0.0
 40
1.8
  0
LINE
  5
4D0
330
4CB
100
AcDbEntity
  8
dxfile
  6
Continuous
 62
     3
100
AcDbLine
 10
2246.121665
 20
613.654479
 30
0.0
 11
2211.121665
 21
613.654479
 31
0.0
  0
LINE
  5
4D1
330
4CB
100
AcDbEntity
  8
dxfile
  6
Continuous
 62
     3
100
AcDbLine
 10
2246.121665
 20
693.154479
 30
0.0
 11
2246.121665
 21
613.154479
 31
0.0
  0
TEXT
  5
4D2
330
4CB
100
AcDbEntity
  8
dxfile
  6
Continuous
 62
     3
100
AcDbText
 10
2220.200618
 20
616.495597
 30
0.0
 40
15.0
  1
７０
 41
0.777136
  7
BIGFONT
100
AcDbText
  0
ENDBLK
  5
4CD
330
4CB
100
AcDbEntity
  8
0
100
AcDbBlockEnd
  0
BLOCK
  5
4D5
330
4D4
100
AcDbEntity
  8
0
100
AcDbBlockBegin
  2
DIM_13
 70
     0
 10
2340.074718
 20
690.777824
 30
0.0
  3
DIM_13
  1

  0
CIRCLE
  5
4D7
330
4D4
100
AcDbEntity
  8
dxfile
  6
Continuous
 62
     3
100
AcDbCircle
 10
2340.074718
 20
618.998369
 30
0.0
 40
1.8
  0
CIRCLE
  5
4D8
330
4D4
100
AcDbEntity
  8
dxfile
  6
Continuous
 62
     3
100
AcDbCircle
 10
2405.074718
 20
618.998369
 30
0.0
 40
1.8
  0
LINE
  5
4D9
330
4D4
100
AcDbEntity
  8
dxfile
  6
Continuous
 62
     3
100
AcDbLine
 10
2340.074718
 20
618.998369
 30
0.0
 11
2405.074718
 21
618.998369
 31
0.0
  0
LINE
  5
4DA
330
4D4
100
AcDbEntity
  8
dxfile
  6
Continuous
 62
     3
100
AcDbLine
 10
2340.074718
 20
690.777824
 30
0.0
 11
2340.074718
 21
613.998369
 31
0.0
  0
LINE
  5
4DB
330
4D4
100
AcDbEntity
  8
dxfile
  6
Continuous
 62
     3
100
AcDbLine
 10
2405.074718
 20
690.777824
 30
0.0
 11
2405.074718
 21
613.998369
 31
0.0
  0
TEXT
  5
4DC
330
4D4
100
AcDbEntity
  8
dxfile
  6
Continuous
 62
     3
100
AcDbText
 10
2354.180244
 20
619.896167
 30
0.0
 40
15.0
  1
１３０
 41
0.750092
  7
BIGFONT
100
AcDbText
  0
ENDBLK
  5
4D6
330
4D4
100
AcDbEntity
  8
0
100
AcDbBlockEnd
  0
BLOCK
  5
534
330
533
100
AcDbEntity
  8
0
100
AcDbBlockBegin
  2
DIM_14
 70
     0
 10
2345.074718
 20
856.342833
 30
0.0
  3
DIM_14
  1

  0
CIRCLE
  5
536
330
533
100
AcDbEntity
  8
dxfile
  6
Continuous
 62
     3
100
AcDbCircle
 10
2345.074718
 20
930.574623
 30
0.0
 40
3.0
  0
CIRCLE
  5
537
330
533
100
AcDbEntity
  8
dxfile
  6
Continuous
 62
     3
100
AcDbCircle
 10
2400.074718
 20
930.574623
 30
0.0
 40
3.0
  0
LINE
  5
538
330
533
100
AcDbEntity
  8
dxfile
  6
Continuous
 62
     3
100
AcDbLine
 10
2345.074718
 20
930.574623
 30
0.0
 11
2400.074718
 21
930.574623
 31
0.0
  0
LINE
  5
539
330
533
100
AcDbEntity
  8
dxfile
  6
Continuous
 62
     3
100
AcDbLine
 10
2345.074718
 20
856.342833
 30
0.0
 11
2345.074718
 21
935.574623
 31
0.0
  0
LINE
  5
53A
330
533
100
AcDbEntity
  8
dxfile
  6
Continuous
 62
     3
100
AcDbLine
 10
2400.074718
 20
855.565537
 30
0.0
 11
2400.074718
 21
935.574623
 31
0.0
  0
TEXT
  5
53B
330
533
100
AcDbEntity
  8
dxfile
  6
Continuous
 62
     3
100
AcDbText
 10
2366.891376
 20
937.7384
 30
0.0
 40
15.0
  1
１１０
 41
0.858268
 51
0.0
  7
BIGFONT
 72
     1
 11
2382.524109
 21
945.2384
 31
0.0
100
AcDbText
 73
     2
  0
ENDBLK
  5
535
330
533
100
AcDbEntity
  8
0
100
AcDbBlockEnd
  0
BLOCK
  5
53E
330
53D
100
AcDbEntity
  8
0
100
AcDbBlockBegin
  2
DIM_15
 70
     0
 10
2345.074718
 20
892.09846
 30
0.0
  3
DIM_15
  1

  0
CIRCLE
  5
540
330
53D
100
AcDbEntity
  8
dxfile
  6
Continuous
 62
     3
100
AcDbCircle
 10
2345.074718
 20
891.321163
 30
0.0
 40
3.0
  0
CIRCLE
  5
541
330
53D
100
AcDbEntity
  8
dxfile
  6
Continuous
 62
     3
100
AcDbCircle
 10
2357.574718
 20
891.321163
 30
0.0
 40
3.0
  0
LINE
  5
542
330
53D
100
AcDbEntity
  8
dxfile
  6
Continuous
 62
     3
100
AcDbLine
 10
2345.074718
 20
891.321163
 30
0.0
 11
2357.574718
 21
891.321163
 31
0.0
  0
LINE
  5
543
330
53D
100
AcDbEntity
  8
dxfile
  6
Continuous
 62
     3
100
AcDbLine
 10
2345.074718
 20
892.09846
 30
0.0
 11
2345.074718
 21
886.321163
 31
0.0
  0
LINE
  5
544
330
53D
100
AcDbEntity
  8
dxfile
  6
Continuous
 62
     3
100
AcDbLine
 10
2357.574718
 20
892.09846
 30
0.0
 11
2357.574718
 21
886.321163
 31
0.0
  0
TEXT
  5
545
330
53D
100
AcDbEntity
  8
dxfile
  6
Continuous
 62
     3
100
AcDbText
 10
2320.999719
 20
886.35912
 30
0.0
 40
15.0
  1
２５
 41
0.858268
 51
0.0
  7
BIGFONT
 72
     1
 11
2331.115017
 21
893.85912
 31
0.0
100
AcDbText
 73
     2
  0
ENDBLK
  5
53F
330
53D
100
AcDbEntity
  8
0
100
AcDbBlockEnd
  0
BLOCK
  5
551
330
550
100
AcDbEntity
  8
0
100
AcDbBlockBegin
  2
DIM_16
 70
     0
 10
2232.121665
 20
910.402209
 30
0.0
  3
DIM_16
  1

  0
CIRCLE
  5
553
330
550
100
AcDbEntity
  8
dxfile
  6
Continuous
 62
     3
100
AcDbCircle
 10
2232.121665
 20
906.049354
 30
0.0
 40
3.0
  0
CIRCLE
  5
554
330
550
100
AcDbEntity
  8
dxfile
  6
Continuous
 62
     3
100
AcDbCircle
 10
2246.121665
 20
906.049354
 30
0.0
 40
3.0
  0
LINE
  5
555
330
550
100
AcDbEntity
  8
dxfile
  6
Continuous
 62
     3
100
AcDbLine
 10
2232.121665
 20
906.049354
 30
0.0
 11
2246.121665
 21
906.049354
 31
0.0
  0
LINE
  5
556
330
550
100
AcDbEntity
  8
dxfile
  6
Continuous
 62
     3
100
AcDbLine
 10
2232.121665
 20
910.402209
 30
0.0
 11
2232.121665
 21
901.049354
 31
0.0
  0
LINE
  5
557
330
550
100
AcDbEntity
  8
dxfile
  6
Continuous
 62
     3
100
AcDbLine
 10
2246.121665
 20
853.504178
 30
0.0
 11
2246.121665
 21
911.049354
 31
0.0
  0
TEXT
  5
558
330
550
100
AcDbEntity
  8
dxfile
  6
Continuous
 62
     3
100
AcDbText
 10
2239.888504
 20
911.269888
 30
0.0
 40
15.0
  1
２８
 41
0.858268
 51
0.0
  7
BIGFONT
 72
     1
 11
2250.003802
 21
918.769888
 31
0.0
100
AcDbText
 73
     2
  0
ENDBLK
  5
552
330
550
100
AcDbEntity
  8
0
100
AcDbBlockEnd
  0
BLOCK
  5
603
330
602
100
AcDbEntity
  8
0
100
AcDbBlockBegin
  2
DIM_17
 70
     0
 10
383.071098
 20
274.712722
 30
0.0
  3
DIM_17
  1

  0
CIRCLE
  5
605
330
602
100
AcDbEntity
  8
dxfile
  6
Continuous
 62
     3
100
AcDbCircle
 10
383.071098
 20
290.664701
 30
0.0
 40
3.0
  0
CIRCLE
  5
606
330
602
100
AcDbEntity
  8
dxfile
  6
Continuous
 62
     3
100
AcDbCircle
 10
1353.071098
 20
290.664701
 30
0.0
 40
3.0
  0
LINE
  5
607
330
602
100
AcDbEntity
  8
dxfile
  6
Continuous
 62
     3
100
AcDbLine
 10
383.071098
 20
290.664701
 30
0.0
 11
1353.071098
 21
290.664701
 31
0.0
  0
LINE
  5
608
330
602
100
AcDbEntity
  8
dxfile
  6
Continuous
 62
     3
100
AcDbLine
 10
383.071098
 20
274.712722
 30
0.0
 11
383.071098
 21
296.664701
 31
0.0
  0
LINE
  5
609
330
602
100
AcDbEntity
  8
dxfile
  6
Continuous
 62
     3
100
AcDbLine
 10
1353.071098
 20
276.989951
 30
0.0
 11
1353.071098
 21
296.664701
 31
0.0
  0
TEXT
  5
60A
330
602
100
AcDbEntity
  8
dxfile
  6
Continuous
 62
     3
100
AcDbText
 10
837.890397
 20
295.04051
 30
0.0
 40
18.0
  1
Ｊ　躯体内径
 41
0.858268
  7
BIGFONT
 72
     1
 11
876.512444
 21
304.04051
 31
0.0
100
AcDbText
 73
     2
  0
ENDBLK
  5
604
330
602
100
AcDbEntity
  8
0
100
AcDbBlockEnd
  0
BLOCK
  5
60D
330
60C
100
AcDbEntity
  8
0
100
AcDbBlockBegin
  2
DIM_18
 70
     0
 10
383.071098
 20
232.057921
 30
0.0
  3
DIM_18
  1

  0
CIRCLE
  5
60F
330
60C
100
AcDbEntity
  8
dxfile
  6
Continuous
 62
     3
100
AcDbCircle
 10
383.071098
 20
230.89198
 30
0.0
 40
3.0
  0
CIRCLE
  5
610
330
60C
100
AcDbEntity
  8
dxfile
  6
Continuous
 62
     3
100
AcDbCircle
 10
443.071098
 20
230.89198
 30
0.0
 40
3.0
  0
LINE
  5
611
330
60C
100
AcDbEntity
  8
dxfile
  6
Continuous
 62
     3
100
AcDbLine
 10
383.071098
 20
230.89198
 30
0.0
 11
443.071098
 21
230.89198
 31
0.0
  0
LINE
  5
612
330
60C
100
AcDbEntity
  8
dxfile
  6
Continuous
 62
     3
100
AcDbLine
 10
383.071098
 20
232.057921
 30
0.0
 11
383.071098
 21
224.89198
 31
0.0
  0
LINE
  5
613
330
60C
100
AcDbEntity
  8
dxfile
  6
Continuous
 62
     3
100
AcDbLine
 10
443.071098
 20
233.806832
 30
0.0
 11
443.071098
 21
224.89198
 31
0.0
  0
TEXT
  5
614
330
60C
100
AcDbEntity
  8
dxfile
  6
Continuous
 62
     3
100
AcDbText
 10
400.93274
 20
233.89198
 30
0.0
 40
18.0
  1
６０
 41
0.858268
 51
0.0
  7
BIGFONT
 72
     1
 11
413.071098
 21
233.89198
 31
0.0
100
AcDbText
  0
ENDBLK
  5
60E
330
60C
100
AcDbEntity
  8
0
100
AcDbBlockEnd
  0
ENDSEC
  0
SECTION
  2
ENTITIES
  0
LINE
  5
4F
330
1F
100
AcDbEntity
  8
dxfile
  6
PLine2
 62
     3
100
AcDbLine
 10
452.476264
 20
648.22495
 30
0.0
 11
452.476264
 21
584.937167
 31
0.0
  0
LINE
  5
50
330
1F
100
AcDbEntity
  8
dxfile
  6
Continuous
 62
     3
100
AcDbLine
 10
452.476264
 20
584.937167
 30
0.0
 11
452.476264
 21
580.342168
 31
0.0
  0
LINE
  5
51
330
1F
100
AcDbEntity
  8
dxfile
  6
PLine2
 62
     3
100
AcDbLine
 10
452.476264
 20
625.85715
 30
0.0
 11
452.476264
 21
647.123142
 31
0.0
  0
LINE
  5
52
330
1F
100
AcDbEntity
  8
dxfile
  6
PLine2
 62
     3
100
AcDbLine
 10
391.027288
 20
614.825155
 30
0.0
 11
496.026246
 21
614.826155
 31
0.0
  0
LINE
  5
53
330
1F
100
AcDbEntity
  8
dxfile
  6
PLine2
 62
     3
100
AcDbLine
 10
417.683278
 20
624.003151
 30
0.0
 11
417.683278
 21
636.463146
 31
0.0
  0
LINE
  5
54
330
1F
100
AcDbEntity
  8
dxfile
  6
PLine2
 62
     3
100
AcDbLine
 10
417.698278
 20
623.625151
 30
0.0
 11
417.698278
 21
591.385164
 31
0.0
  0
LINE
  5
55
330
1F
100
AcDbEntity
  8
dxfile
  6
PLine2
 62
     3
100
AcDbLine
 10
408.889281
 20
534.358187
 30
0.0
 11
463.889259
 21
534.358187
 31
0.0
  0
LINE
  5
56
330
1F
100
AcDbEntity
  8
dxfile
  6
Continuous
 62
     3
100
AcDbLine
 10
1325.989364
 20
302.563322
 30
0.0
 11
1325.989364
 21
203.18396
 31
0.0
  0
LINE
  5
57
330
1F
100
AcDbEntity
  8
dxfile
  6
Continuous
 62
     3
100
AcDbLine
 10
1325.989364
 20
581.689694
 30
0.0
 11
1325.989364
 21
535.735587
 31
0.0
  0
TEXT
  5
58
330
1F
100
AcDbEntity
  8
dxfile
  6
Continuous
 62
     3
100
AcDbText
 10
819.455283
 20
998.251476
 30
0.0
 40
18.0
  1
Ａ
 41
0.858268
  7
BIGFONT
100
AcDbText
  0
TEXT
  5
7B
330
1F
100
AcDbEntity
  8
dxfile
  6
Continuous
 62
     3
100
AcDbText
 10
844.203039
 20
385.549476
 30
0.0
 40
18.0
  1
Ｓ
 41
0.858268
  7
BIGFONT
100
AcDbText
  0
TEXT
  5
7C
330
1F
100
AcDbEntity
  8
dxfile
  6
Continuous
 62
     3
100
AcDbText
 10
828.11992
 20
159.498061
 30
0.0
 40
18.0
  1
Ｗ
 41
0.858268
  7
BIGFONT
100
AcDbText
  0
LINE
  5
7D
330
1F
100
AcDbEntity
  8
dxfile
  6
Continuous
 62
     2
100
AcDbLine
 10
820.975492
 20
1614.380663
 30
0.0
 11
119.389353
 21
1614.380663
 31
0.0
  0
LINE
  5
7E
330
1F
100
AcDbEntity
  8
dxfile
  6
Continuous
 62
     2
100
AcDbLine
 10
119.389353
 20
1640.483993
 30
0.0
 11
119.389353
 21
1536.070673
 31
0.0
  0
TEXT
  5
7F
330
1F
100
AcDbEntity
  8
dxfile
  6
Continuous
 62
     3
100
AcDbText
 10
118.557949
 20
1592.731559
 30
0.0
 40
16.779
  1
　ＬＭ－　６００ＡＬ－Ｎ・ＮＰ・ＮＦ
 41
0.704256
  7
BIGFONT
100
AcDbText
  0
LINE
  5
80
330
1F
100
AcDbEntity
  8
dxfile
  6
Continuous
 62
     3
100
AcDbLine
 10
820.975492
 20
1588.277333
 30
0.0
 11
119.389353
 21
1588.277333
 31
0.0
  0
LINE
  5
81
330
1F
100
AcDbEntity
  8
dxfile
  6
Continuous
 62
     3
100
AcDbLine
 10
820.975492
 20
1562.174003
 30
0.0
 11
119.389353
 21
1562.174003
 31
0.0
  0
LINE
  5
82
330
1F
100
AcDbEntity
  8
dxfile
  6
Continuous
 62
     2
100
AcDbLine
 10
820.975492
 20
1536.070673
 30
0.0
 11
119.389353
 21
1536.070673
 31
0.0
  0
TEXT
  5
83
330
1F
100
AcDbEntity
  8
dxfile
  6
Continuous
 62
     3
100
AcDbText
 10
844.393191
 20
998.173476
 30
0.0
 40
18.0
  1
ドア部外径
 41
0.858268
  7
BIGFONT
100
AcDbText
  0
TEXT
  5
84
330
1F
100
AcDbEntity
  8
dxfile
  6
Continuous
 62
     3
100
AcDbText
 10
877.159551
 20
385.549476
 30
0.0
 40
18.0
  1
有効開口
 41
0.858268
  7
BIGFONT
100
AcDbText
  0
TEXT
  5
85
330
1F
100
AcDbEntity
  8
dxfile
  6
Continuous
 62
     3
100
AcDbText
 10
857.157976
 20
157.537621
 30
0.0
 40
18.0
  1
ヘ゛ース外径
 41
0.858268
  7
BIGFONT
100
AcDbText
  0
LINE
  5
86
330
1F
100
AcDbEntity
  8
dxfile
  6
Continuous
 62
     2
100
AcDbLine
 10
340.279841
 20
1666.587323
 30
0.0
 11
340.279841
 21
1536.070673
 31
0.0
  0
LINE
  5
87
330
1F
100
AcDbEntity
  8
dxfile
  6
Continuous
 62
     3
100
AcDbLine
 10
416.983841
 20
1640.483993
 30
0.0
 11
416.983841
 21
1536.070673
 31
0.0
  0
LINE
  5
88
330
1F
100
AcDbEntity
  8
dxfile
  6
Continuous
 62
     3
100
AcDbLine
 10
493.687841
 20
1640.483993
 30
0.0
 11
493.687841
 21
1536.070673
 31
0.0
  0
LINE
  5
89
330
1F
100
AcDbEntity
  8
dxfile
  6
Continuous
 62
     3
100
AcDbLine
 10
570.391841
 20
1640.483993
 30
0.0
 11
570.391841
 21
1536.070673
 31
0.0
  0
TEXT
  5
8A
330
1F
100
AcDbEntity
  8
dxfile
  6
Continuous
 62
     3
100
AcDbText
 10
376.012584
 20
1618.792204
 30
0.0
 40
16.779
  1
Ａ
 41
0.858268
  7
BIGFONT
100
AcDbText
  0
TEXT
  5
8B
330
1F
100
AcDbEntity
  8
dxfile
  6
Continuous
 62
     3
100
AcDbText
 10
447.272863
 20
1617.592534
 30
0.0
 40
16.779
  1
Ｗ
 41
0.858268
  7
BIGFONT
100
AcDbText
  0
TEXT
  5
8C
330
1F
100
AcDbEntity
  8
dxfile
  6
Continuous
 62
     3
100
AcDbText
 10
524.829212
 20
1618.124999
 30
0.0
 40
16.779
  1
Ｓ
 41
0.858268
  7
BIGFONT
100
AcDbText
  0
TEXT
  5
8D
330
1F
100
AcDbEntity
  8
dxfile
  6
Continuous
 62
     3
100
AcDbText
 10
653.182932
 20
1631.340308
 30
0.0
 40
16.779
  1
排煙面積
 41
0.858268
  7
BIGFONT
100
AcDbText
  0
TEXT
  5
8E
330
1F
100
AcDbEntity
  8
dxfile
  6
Continuous
 62
     3
100
AcDbText
 10
367.093621
 20
1593.396866
 30
0.0
 40
16.779
  1
７３５
 41
0.858268
  7
BIGFONT
100
AcDbText
  0
TEXT
  5
8F
330
1F
100
AcDbEntity
  8
dxfile
  6
Continuous
 62
     3
100
AcDbText
 10
352.757705
 20
1566.952764
 30
0.0
 40
16.779
  1
１０３５
 41
0.858268
  7
BIGFONT
100
AcDbText
  0
TEXT
  5
90
330
1F
100
AcDbEntity
  8
dxfile
  6
Continuous
 62
     3
100
AcDbText
 10
352.347478
 20
1540.806974
 30
0.0
 40
16.779
  1
１４３５
 41
0.858268
  7
BIGFONT
100
AcDbText
  0
TEXT
  5
91
330
1F
100
AcDbEntity
  8
dxfile
  6
Continuous
 62
     3
100
AcDbText
 10
438.732232
 20
1592.642612
 30
0.0
 40
16.779
  1
８７０
 41
0.858268
  7
BIGFONT
100
AcDbText
  0
TEXT
  5
92
330
1F
100
AcDbEntity
  8
dxfile
  6
Continuous
 62
     3
100
AcDbText
 10
427.843174
 20
1566.324692
 30
0.0
 40
16.779
  1
１１７０
 41
0.858268
  7
BIGFONT
100
AcDbText
  0
TEXT
  5
93
330
1F
100
AcDbEntity
  8
dxfile
  6
Continuous
 62
     3
100
AcDbText
 10
427.809966
 20
1540.47194
 30
0.0
 40
16.779
  1
１５７０
 41
0.858268
  7
BIGFONT
100
AcDbText
  0
TEXT
  5
94
330
1F
100
AcDbEntity
  8
dxfile
  6
Continuous
 62
     3
100
AcDbText
 10
516.507159
 20
1592.642612
 30
0.0
 40
16.779
  1
５４０
 41
0.858268
  7
BIGFONT
100
AcDbText
  0
TEXT
  5
95
330
1F
100
AcDbEntity
  8
dxfile
  6
Continuous
 62
     3
100
AcDbText
 10
516.507159
 20
1567.351361
 30
0.0
 40
16.779
  1
８４０
 41
0.858268
  7
BIGFONT
100
AcDbText
  0
TEXT
  5
96
330
1F
100
AcDbEntity
  8
dxfile
  6
Continuous
 62
     3
100
AcDbText
 10
502.105259
 20
1540.51883
 30
0.0
 40
16.779
  1
１２４０
 41
0.858268
  7
BIGFONT
100
AcDbText
  0
TEXT
  5
97
330
1F
100
AcDbEntity
  8
dxfile
  6
Continuous
 62
     3
100
AcDbText
 10
659.34048
 20
1593.074052
 30
0.0
 40
16.779
  1
０．２９
 41
0.858268
  7
BIGFONT
100
AcDbText
  0
TEXT
  5
98
330
1F
100
AcDbEntity
  8
dxfile
  6
Continuous
 62
     3
100
AcDbText
 10
659.388463
 20
1567.117793
 30
0.0
 40
16.779
  1
０．７
 41
0.858268
  7
BIGFONT
100
AcDbText
  0
TEXT
  5
99
330
1F
100
AcDbEntity
  8
dxfile
  6
Continuous
 62
     3
100
AcDbText
 10
658.877289
 20
1540.986413
 30
0.0
 40
16.779
  1
１．５３７
 41
0.858268
  7
BIGFONT
100
AcDbText
  0
LINE
  5
9A
330
1F
100
AcDbEntity
  8
dxfile
  6
Continuous
 62
     3
100
AcDbLine
 10
647.095841
 20
1640.483993
 30
0.0
 11
340.279841
 21
1640.483993
 31
0.0
  0
TEXT
  5
9B
330
1F
100
AcDbEntity
  8
dxfile
  6
Continuous
 62
     3
100
AcDbText
 10
552.87312
 20
1640.666588
 30
0.0
 40
16.779
  1
ｍｍ
 41
0.858268
  7
BIGFONT
100
AcDbText
  0
TEXT
  5
9C
330
1F
100
AcDbEntity
  8
dxfile
  6
Continuous
 62
     2
100
AcDbText
 10
121.836195
 20
1672.922295
 30
0.0
 40
20.30259
  1
ＬＭ－ＡＬ－Ｎ・ＮＰ・ＮＦ型寸法表
 41
0.704789
  7
BIGFONT
100
AcDbText
  0
LINE
  5
9D
330
1F
100
AcDbEntity
  8
dxfile
  6
Continuous
 62
     3
100
AcDbLine
 10
373.771296
 20
688.437125
 30
0.0
 11
382.071292
 21
688.437125
 31
0.0
  0
LINE
  5
9E
330
1F
100
AcDbEntity
  8
dxfile
  6
Continuous
 62
     3
100
AcDbLine
 10
372.742096
 20
687.437126
 30
0.0
 11
372.742096
 21
669.437133
 31
0.0
  0
ARC
  5
9F
330
1F
100
AcDbEntity
  8
dxfile
  6
Continuous
 62
     3
100
AcDbCircle
 10
373.742096
 20
669.437133
 30
0.0
 40
0.9999996
100
AcDbArc
 50
180.0
 51
270.0
  0
LINE
  5
A0
330
1F
100
AcDbEntity
  8
dxfile
  6
Continuous
 62
     3
100
AcDbLine
 10
386.06929
 20
670.640867
 30
0.0
 11
386.06929
 21
666.273211
 31
0.0
  0
LINE
  5
A1
330
1F
100
AcDbEntity
  8
dxfile
  6
Continuous
 62
     3
100
AcDbLine
 10
382.840292
 20
676.19513
 30
0.0
 11
380.947292
 21
673.915131
 31
0.0
  0
LINE
  5
A2
330
1F
100
AcDbEntity
  8
dxfile
  6
Continuous
 62
     3
100
AcDbLine
 10
1328.070914
 20
695.362213
 30
0.0
 11
1328.070914
 21
686.437126
 31
0.0
  0
LINE
  5
A3
330
1F
100
AcDbEntity
  8
dxfile
  6
Continuous
 62
     3
100
AcDbLine
 10
1343.063908
 20
686.810126
 30
0.0
 11
1344.716907
 21
685.624126
 31
0.0
  0
LINE
  5
A4
330
1F
100
AcDbEntity
  8
dxfile
  6
Continuous
 62
     3
100
AcDbLine
 10
1344.223648
 20
682.505127
 30
0.0
 11
1350.000905
 21
682.505127
 31
0.0
  0
ARC
  5
A5
330
1F
100
AcDbEntity
  8
dxfile
  6
Continuous
 62
     3
100
AcDbCircle
 10
1336.894599
 20
683.236784
 30
0.0
 40
0.7329997068
100
AcDbArc
 50
268.0466
 51
320.864471
  0
LINE
  5
A6
330
1F
100
AcDbEntity
  8
dxfile
  6
Continuous
 62
     3
100
AcDbLine
 10
386.06929
 20
690.285124
 30
0.0
 11
386.06929
 21
698.682626
 31
0.0
  0
LINE
  5
A7
330
1F
100
AcDbEntity
  8
dxfile
  6
Continuous
 62
     3
100
AcDbLine
 10
392.26058
 20
682.505127
 30
0.0
 11
386.06929
 21
682.505127
 31
0.0
  0
LINE
  5
A8
330
1F
100
AcDbEntity
  8
dxfile
  6
Continuous
 62
     3
100
AcDbLine
 10
505.461243
 20
682.505127
 30
0.0
 11
398.692285
 21
682.505127
 31
0.0
  0
LINE
  5
A9
330
1F
100
AcDbEntity
  8
dxfile
  6
Continuous
 62
     3
100
AcDbLine
 10
638.71606
 20
682.505127
 30
0.0
 11
570.465217
 21
682.505127
 31
0.0
  0
LINE
  5
AA
330
1F
100
AcDbEntity
  8
dxfile
  6
Continuous
 62
     3
100
AcDbLine
 10
1247.237636
 20
682.505127
 30
0.0
 11
1325.000915
 21
682.505127
 31
0.0
  0
LINE
  5
AB
330
1F
100
AcDbEntity
  8
dxfile
  6
Continuous
 62
     3
100
AcDbLine
 10
1236.628981
 20
682.505127
 30
0.0
 11
670.571098
 21
682.505127
 31
0.0
  0
LINE
  5
AC
330
1F
100
AcDbEntity
  8
dxfile
  6
PLine2
 62
     3
100
AcDbLine
 10
1344.46233
 20
596.103576
 30
0.0
 11
1267.936938
 21
596.103576
 31
0.0
  0
LINE
  5
AD
330
1F
100
AcDbEntity
  8
dxfile
  6
Continuous
 62
     3
100
AcDbLine
 10
1336.938949
 20
682.505127
 30
0.0
 11
1326.000914
 21
682.505127
 31
0.0
  0
ARC
  5
AE
330
1F
100
AcDbEntity
  8
dxfile
  6
Continuous
 62
     3
100
AcDbCircle
 10
1326.000914
 20
683.505127
 30
0.0
 40
0.9999996
100
AcDbArc
 50
180.0
 51
270.0
  0
ARC
  5
AF
330
1F
100
AcDbEntity
  8
dxfile
  6
Continuous
 62
     3
100
AcDbCircle
 10
1329.070913
 20
686.437126
 30
0.0
 40
0.9999996
100
AcDbArc
 50
180.0
 51
270.0
  0
ARC
  5
B0
330
1F
100
AcDbEntity
  8
dxfile
  6
Continuous
 62
     3
100
AcDbCircle
 10
1329.070913
 20
695.362213
 30
0.0
 40
0.9999996
100
AcDbArc
 50
90.0
 51
180.0
  0
LINE
  5
B1
330
1F
100
AcDbEntity
  8
dxfile
  6
Continuous
 62
     3
100
AcDbLine
 10
1329.070913
 20
696.362212
 30
0.0
 11
1347.070906
 21
696.362212
 31
0.0
  0
ARC
  5
B2
330
1F
100
AcDbEntity
  8
dxfile
  6
Continuous
 62
     3
100
AcDbCircle
 10
1347.070906
 20
695.362213
 30
0.0
 40
0.9999996
100
AcDbArc
 50
0.0
 51
90.0
  0
ARC
  5
B3
330
1F
100
AcDbEntity
  8
dxfile
  6
Continuous
 62
     3
100
AcDbCircle
 10
1350.000905
 20
683.505127
 30
0.0
 40
0.9999996
100
AcDbArc
 50
270.0
 51
0.0
  0
LINE
  5
B4
330
1F
100
AcDbEntity
  8
dxfile
  6
Continuous
 62
     3
100
AcDbLine
 10
1348.070906
 20
695.362213
 30
0.0
 11
1348.070906
 21
686.437126
 31
0.0
  0
ARC
  5
B5
330
1F
100
AcDbEntity
  8
dxfile
  6
Continuous
 62
     3
100
AcDbCircle
 10
1347.070906
 20
686.437126
 30
0.0
 40
0.9999996
100
AcDbArc
 50
270.0
 51
0.0
  0
LINE
  5
B6
330
1F
100
AcDbEntity
  8
dxfile
  6
Continuous
 62
     3
100
AcDbLine
 10
1345.299907
 20
685.437126
 30
0.0
 11
1347.070906
 21
685.437126
 31
0.0
  0
ARC
  5
B7
330
1F
100
AcDbEntity
  8
dxfile
  6
Continuous
 62
     3
100
AcDbCircle
 10
1345.299907
 20
686.437126
 30
0.0
 40
0.9999996
100
AcDbArc
 50
234.355804
 51
270.0
  0
LINE
  5
B8
330
1F
100
AcDbEntity
  8
dxfile
  6
Continuous
 62
     3
100
AcDbLine
 10
1329.070913
 20
685.437126
 30
0.0
 11
1335.758911
 21
685.437126
 31
0.0
  0
ARC
  5
B9
330
1F
100
AcDbEntity
  8
dxfile
  6
Continuous
 62
     3
100
AcDbCircle
 10
1335.758911
 20
686.437126
 30
0.0
 40
0.9999996
100
AcDbArc
 50
270.0
 51
304.691528
  0
LINE
  5
BA
330
1F
100
AcDbEntity
  8
dxfile
  6
Continuous
 62
     3
100
AcDbLine
 10
1325.000915
 20
697.682212
 30
0.0
 11
1325.000915
 21
683.505127
 31
0.0
  0
ARC
  5
BB
330
1F
100
AcDbEntity
  8
dxfile
  6
Continuous
 62
     3
100
AcDbCircle
 10
1326.000914
 20
697.682212
 30
0.0
 40
0.9999996
100
AcDbArc
 50
90.0
 51
180.0
  0
LINE
  5
BC
330
1F
100
AcDbEntity
  8
dxfile
  6
Continuous
 62
     3
100
AcDbLine
 10
1351.000904
 20
683.505127
 30
0.0
 11
1351.000904
 21
697.681212
 31
0.0
  0
ARC
  5
BD
330
1F
100
AcDbEntity
  8
dxfile
  6
Continuous
 62
     3
100
AcDbCircle
 10
1350.000905
 20
697.681212
 30
0.0
 40
0.9999996
100
AcDbArc
 50
0.0
 51
90.0
  0
ARC
  5
BE
330
1F
100
AcDbEntity
  8
dxfile
  6
Continuous
 62
     3
100
AcDbCircle
 10
1340.572909
 20
683.813127
 30
0.0
 40
3.904998438
100
AcDbArc
 50
49.288895
 51
130.711105
  0
LINE
  5
BF
330
1F
100
AcDbEntity
  8
dxfile
  6
Continuous
 62
     3
100
AcDbLine
 10
1336.32791
 20
685.615126
 30
0.0
 11
1338.03691
 21
686.797126
 31
0.0
  0
ARC
  5
C0
330
1F
100
AcDbEntity
  8
dxfile
  6
Continuous
 62
     3
100
AcDbCircle
 10
1344.345086
 20
683.497726
 30
0.0
 40
0.9999996
100
AcDbArc
 50
220.744156
 51
276.975051
  0
ARC
  5
C1
330
1F
100
AcDbEntity
  8
dxfile
  6
Continuous
 62
     3
100
AcDbCircle
 10
382.071292
 20
687.437126
 30
0.0
 40
0.9999996
100
AcDbArc
 50
0.0
 51
90.0
  0
ARC
  5
C2
330
1F
100
AcDbEntity
  8
dxfile
  6
Continuous
 62
     3
100
AcDbCircle
 10
373.742096
 20
687.437126
 30
0.0
 40
0.9999996
100
AcDbArc
 50
90.0
 51
180.0
  0
ARC
  5
C3
330
1F
100
AcDbEntity
  8
dxfile
  6
Continuous
 62
     3
100
AcDbCircle
 10
370.671097
 20
690.365124
 30
0.0
 40
0.9999996
100
AcDbArc
 50
90.0
 51
180.0
  0
LINE
  5
C4
330
1F
100
AcDbEntity
  8
dxfile
  6
Continuous
 62
     3
100
AcDbLine
 10
370.700297
 20
691.365124
 30
0.0
 11
385.069291
 21
691.365124
 31
0.0
  0
ARC
  5
C5
330
1F
100
AcDbEntity
  8
dxfile
  6
Continuous
 62
     3
100
AcDbCircle
 10
385.069291
 20
690.365124
 30
0.0
 40
0.9999996
100
AcDbArc
 50
0.0
 51
90.0
  0
ARC
  5
C6
330
1F
100
AcDbEntity
  8
dxfile
  6
Continuous
 62
     3
100
AcDbCircle
 10
385.069291
 20
666.273211
 30
0.0
 40
0.9999996
100
AcDbArc
 50
270.0
 51
0.0
  0
LINE
  5
C7
330
1F
100
AcDbEntity
  8
dxfile
  6
Continuous
 62
     3
100
AcDbLine
 10
383.071292
 20
687.437126
 30
0.0
 11
383.071292
 21
676.83413
 31
0.0
  0
ARC
  5
C8
330
1F
100
AcDbEntity
  8
dxfile
  6
Continuous
 62
     3
100
AcDbCircle
 10
382.071292
 20
676.83413
 30
0.0
 40
0.9999996
100
AcDbArc
 50
320.275146
 51
0.0
  0
LINE
  5
C9
330
1F
100
AcDbEntity
  8
dxfile
  6
Continuous
 62
     3
100
AcDbLine
 10
373.771296
 20
668.437133
 30
0.0
 11
381.228292
 21
668.437133
 31
0.0
  0
ARC
  5
CA
330
1F
100
AcDbEntity
  8
dxfile
  6
Continuous
 62
     3
100
AcDbCircle
 10
381.228292
 20
668.937133
 30
0.0
 40
0.4999998
100
AcDbArc
 50
270.0
 51
38.83852
  0
LINE
  5
CB
330
1F
100
AcDbEntity
  8
dxfile
  6
Continuous
 62
     3
100
AcDbLine
 10
380.920292
 20
670.116132
 30
0.0
 11
381.618292
 21
669.251133
 31
0.0
  0
ARC
  5
CC
330
1F
100
AcDbEntity
  8
dxfile
  6
Continuous
 62
     3
100
AcDbCircle
 10
383.255292
 20
671.999132
 30
0.0
 40
2.9999988
100
AcDbArc
 50
140.302032
 51
218.88353
  0
LINE
  5
CD
330
1F
100
AcDbEntity
  8
dxfile
  6
Continuous
 62
     3
100
AcDbLine
 10
386.06929
 20
690.365124
 30
0.0
 11
386.06929
 21
675.776254
 31
0.0
  0
ARC
  5
CE
330
1F
100
AcDbEntity
  8
dxfile
  6
Continuous
 62
     3
100
AcDbCircle
 10
385.98929
 20
670.613868
 30
0.0
 40
0.0829999668
100
AcDbArc
 50
22.833654
 51
153.434952
  0
CIRCLE
  5
CF
330
1F
100
AcDbEntity
  8
dxfile
  6
Continuous
 62
     3
100
AcDbCircle
 10
508.371253
 20
736.337067
 30
0.0
 40
0.3959998416000001
  0
CIRCLE
  5
D0
330
1F
100
AcDbEntity
  8
dxfile
  6
Continuous
 62
     3
100
AcDbCircle
 10
558.371233
 20
736.337067
 30
0.0
 40
0.3959998416000001
  0
CIRCLE
  5
D1
330
1F
100
AcDbEntity
  8
dxfile
  6
Continuous
 62
     3
100
AcDbCircle
 10
608.371213
 20
736.337067
 30
0.0
 40
0.3959998416000001
  0
CIRCLE
  5
D2
330
1F
100
AcDbEntity
  8
dxfile
  6
Continuous
 62
     3
100
AcDbCircle
 10
658.371193
 20
736.337067
 30
0.0
 40
0.3959998416000001
  0
CIRCLE
  5
D3
330
1F
100
AcDbEntity
  8
dxfile
  6
Continuous
 62
     3
100
AcDbCircle
 10
708.371173
 20
736.337067
 30
0.0
 40
0.3959998416000001
  0
CIRCLE
  5
D4
330
1F
100
AcDbEntity
  8
dxfile
  6
Continuous
 62
     3
100
AcDbCircle
 10
758.371153
 20
736.337067
 30
0.0
 40
0.3959998416000001
  0
CIRCLE
  5
D5
330
1F
100
AcDbEntity
  8
dxfile
  6
Continuous
 62
     3
100
AcDbCircle
 10
808.370133
 20
736.337067
 30
0.0
 40
0.3959998416000001
  0
CIRCLE
  5
D6
330
1F
100
AcDbEntity
  8
dxfile
  6
Continuous
 62
     3
100
AcDbCircle
 10
858.371113
 20
736.337067
 30
0.0
 40
0.3959998416000001
  0
CIRCLE
  5
D7
330
1F
100
AcDbEntity
  8
dxfile
  6
Continuous
 62
     3
100
AcDbCircle
 10
908.268132
 20
736.410413
 30
0.0
 40
0.3959998416000001
  0
CIRCLE
  5
D8
330
1F
100
AcDbEntity
  8
dxfile
  6
Continuous
 62
     3
100
AcDbCircle
 10
958.268112
 20
736.410413
 30
0.0
 40
0.3959998416000001
  0
CIRCLE
  5
D9
330
1F
100
AcDbEntity
  8
dxfile
  6
Continuous
 62
     3
100
AcDbCircle
 10
1008.268092
 20
736.410413
 30
0.0
 40
0.3959998416000001
  0
CIRCLE
  5
DA
330
1F
100
AcDbEntity
  8
dxfile
  6
Continuous
 62
     3
100
AcDbCircle
 10
1058.268072
 20
736.410413
 30
0.0
 40
0.3959998416000001
  0
CIRCLE
  5
DB
330
1F
100
AcDbEntity
  8
dxfile
  6
Continuous
 62
     3
100
AcDbCircle
 10
1108.268052
 20
736.410413
 30
0.0
 40
0.3959998416000001
  0
CIRCLE
  5
DC
330
1F
100
AcDbEntity
  8
dxfile
  6
Continuous
 62
     3
100
AcDbCircle
 10
1158.268032
 20
736.410413
 30
0.0
 40
0.3959998416000001
  0
CIRCLE
  5
DD
330
1F
100
AcDbEntity
  8
dxfile
  6
Continuous
 62
     3
100
AcDbCircle
 10
1208.268012
 20
736.410413
 30
0.0
 40
0.3959998416000001
  0
CIRCLE
  5
DE
330
1F
100
AcDbEntity
  8
dxfile
  6
Continuous
 62
     3
100
AcDbCircle
 10
1258.399992
 20
736.344413
 30
0.0
 40
0.3959998416000001
  0
LINE
  5
DF
330
1F
100
AcDbEntity
  8
dxfile
  6
Continuous
 62
     3
100
AcDbLine
 10
435.071098
 20
549.411762
 30
0.0
 11
436.671098
 21
549.411762
 31
0.0
  0
LINE
  5
E0
330
1F
100
AcDbEntity
  8
dxfile
  6
Continuous
 62
     3
100
AcDbLine
 10
436.671098
 20
562.947175
 30
0.0
 11
436.671098
 21
549.411762
 31
0.0
  0
LINE
  5
E1
330
1F
100
AcDbEntity
  8
dxfile
  6
Continuous
 62
     3
100
AcDbLine
 10
504.817243
 20
653.063139
 30
0.0
 11
401.171098
 21
653.063139
 31
0.0
  0
ARC
  5
E2
330
1F
100
AcDbEntity
  8
dxfile
  6
Continuous
 62
     3
100
AcDbCircle
 10
504.817243
 20
652.06314
 30
0.0
 40
0.9999996
100
AcDbArc
 50
0.0
 51
90.0
  0
ARC
  5
E3
330
1F
100
AcDbEntity
  8
dxfile
  6
Continuous
 62
     3
100
AcDbCircle
 10
505.017243
 20
563.747175
 30
0.0
 40
0.8
100
AcDbArc
 50
270.0
 51
0.0
  0
LINE
  5
E4
330
1F
100
AcDbEntity
  8
dxfile
  6
Continuous
 62
     3
100
AcDbLine
 10
436.671098
 20
562.947175
 30
0.0
 11
505.017243
 21
562.947175
 31
0.0
  0
LINE
  5
E5
330
1F
100
AcDbEntity
  8
dxfile
  6
Continuous
 62
     3
100
AcDbLine
 10
435.871098
 20
564.547175
 30
0.0
 11
504.217243
 21
564.547175
 31
0.0
  0
LINE
  5
E6
330
1F
100
AcDbEntity
  8
dxfile
  6
Continuous
 62
     3
100
AcDbLine
 10
385.071098
 20
568.427173
 30
0.0
 11
385.071098
 21
519.235587
 31
0.0
  0
ARC
  5
E7
330
1F
100
AcDbEntity
  8
dxfile
  6
Continuous
 62
     3
100
AcDbCircle
 10
386.071097
 20
568.235587
 30
0.0
 40
0.9999996
100
AcDbArc
 50
90.0
 51
180.0
  0
ARC
  5
E8
330
1F
100
AcDbEntity
  8
dxfile
  6
Continuous
 62
     3
100
AcDbCircle
 10
435.871098
 20
563.747175
 30
0.0
 40
0.8
100
AcDbArc
 50
90.0
 51
180.0
  0
LINE
  5
E9
330
1F
100
AcDbEntity
  8
dxfile
  6
Continuous
 62
     3
100
AcDbLine
 10
435.071098
 20
563.747175
 30
0.0
 11
435.071098
 21
503.557586
 31
0.0
  0
LINE
  5
EA
330
1F
100
AcDbEntity
  8
dxfile
  6
Continuous
 62
     3
100
AcDbLine
 10
379.071098
 20
545.726308
 30
0.0
 11
379.071098
 21
523.635587
 31
0.0
  0
ARC
  5
EB
330
1F
100
AcDbEntity
  8
dxfile
  6
Continuous
 62
     3
100
AcDbCircle
 10
269.071098
 20
497.235587
 30
0.0
 40
1.0
100
AcDbArc
 50
180.0
 51
270.0
  0
LINE
  5
EC
330
1F
100
AcDbEntity
  8
dxfile
  6
Continuous
 62
     3
100
AcDbLine
 10
269.071098
 20
496.235587
 30
0.0
 11
275.454334
 21
496.235587
 31
0.0
  0
ARC
  5
ED
330
1F
100
AcDbEntity
  8
dxfile
  6
Continuous
 62
     3
100
AcDbCircle
 10
275.454334
 20
494.235587
 30
0.0
 40
2.0
100
AcDbArc
 50
0.0
 51
90.0
  0
LINE
  5
EE
330
1F
100
AcDbEntity
  8
dxfile
  6
Continuous
 62
     3
100
AcDbLine
 10
280.571098
 20
495.229202
 30
0.0
 11
280.571098
 21
487.235587
 31
0.0
  0
ARC
  5
EF
330
1F
100
AcDbEntity
  8
dxfile
  6
Continuous
 62
     3
100
AcDbCircle
 10
381.071098
 20
643.088493
 30
0.0
 40
2.0
100
AcDbArc
 50
119.709379
 51
180.0
  0
LINE
  5
F0
330
1F
100
AcDbEntity
  8
dxfile
  6
Continuous
 62
     3
100
AcDbLine
 10
379.071098
 20
643.088493
 30
0.0
 11
379.071098
 21
552.63919
 31
0.0
  0
LINE
  5
F1
330
1F
100
AcDbEntity
  8
dxfile
  6
Continuous
 62
     3
100
AcDbLine
 10
390.321098
 20
572.735587
 30
0.0
 11
382.071098
 21
572.735587
 31
0.0
  0
ARC
  5
F2
330
1F
100
AcDbEntity
  8
dxfile
  6
Continuous
 62
     3
100
AcDbCircle
 10
299.813159
 20
532.938534
 30
0.0
 40
0.4
100
AcDbArc
 50
99.211027
 51
195.001399
  0
LINE
  5
F3
330
1F
100
AcDbEntity
  8
dxfile
  6
Continuous
 62
     3
100
AcDbLine
 10
302.936162
 20
519.739124
 30
0.0
 11
299.426791
 21
532.834997
 31
0.0
  0
ARC
  5
F4
330
1F
100
AcDbEntity
  8
dxfile
  6
Continuous
 62
     3
100
AcDbCircle
 10
298.372167
 20
523.635587
 30
0.0
 40
0.4
100
AcDbArc
 50
270.0
 51
15.002741
  0
LINE
  5
F5
330
1F
100
AcDbEntity
  8
dxfile
  6
Continuous
 62
     3
100
AcDbLine
 10
287.056868
 20
523.235587
 30
0.0
 11
298.372167
 21
523.235587
 31
0.0
  0
ARC
  5
F6
330
1F
100
AcDbEntity
  8
dxfile
  6
Continuous
 62
     3
100
AcDbCircle
 10
302.549794
 20
519.635587
 30
0.0
 40
0.4
100
AcDbArc
 50
270.0
 51
15.001399
  0
LINE
  5
F7
330
1F
100
AcDbEntity
  8
dxfile
  6
Continuous
 62
     3
100
AcDbLine
 10
287.062868
 20
519.235587
 30
0.0
 11
302.549794
 21
519.235587
 31
0.0
  0
ARC
  5
F8
330
1F
100
AcDbEntity
  8
dxfile
  6
Continuous
 62
     3
100
AcDbCircle
 10
378.671098
 20
523.635587
 30
0.0
 40
0.4
100
AcDbArc
 50
270.0
 51
0.0
  0
LINE
  5
F9
330
1F
100
AcDbEntity
  8
dxfile
  6
Continuous
 62
     3
100
AcDbLine
 10
366.071098
 20
523.235587
 30
0.0
 11
378.671098
 21
523.235587
 31
0.0
  0
LINE
  5
FA
330
1F
100
AcDbEntity
  8
dxfile
  6
Continuous
 62
     3
100
AcDbLine
 10
363.995299
 20
521.223586
 30
0.0
 11
363.995299
 21
521.235586
 31
0.0
  0
ARC
  5
FB
330
1F
100
AcDbEntity
  8
dxfile
  6
Continuous
 62
     3
100
AcDbCircle
 10
381.671098
 20
519.635587
 30
0.0
 40
0.4
100
AcDbArc
 50
270.0
 51
0.0
  0
LINE
  5
FC
330
1F
100
AcDbEntity
  8
dxfile
  6
Continuous
 62
     3
100
AcDbLine
 10
366.071098
 20
519.235587
 30
0.0
 11
381.671098
 21
519.235587
 31
0.0
  0
LINE
  5
FD
330
1F
100
AcDbEntity
  8
dxfile
  6
Continuous
 62
     3
100
AcDbLine
 10
298.758532
 20
523.739133
 30
0.0
 11
296.429195
 21
532.430675
 31
0.0
  0
ARC
  5
FE
330
1F
100
AcDbEntity
  8
dxfile
  6
Continuous
 62
     3
100
AcDbCircle
 10
287.068868
 20
521.244586
 30
0.0
 40
1.9999992
100
AcDbArc
 50
90.0
 51
180.0
  0
ARC
  5
FF
330
1F
100
AcDbEntity
  8
dxfile
  6
Continuous
 62
     3
100
AcDbCircle
 10
287.068868
 20
521.244586
 30
0.0
 40
1.9999992
100
AcDbArc
 50
180.0
 51
270.0
  0
ARC
  5
100
330
1F
100
AcDbEntity
  8
dxfile
  6
Continuous
 62
     3
100
AcDbCircle
 10
277.754334
 20
484.541812
 30
0.0
 40
0.3
100
AcDbArc
 50
180.0
 51
273.891385
  0
ARC
  5
101
330
1F
100
AcDbEntity
  8
dxfile
  6
Continuous
 62
     3
100
AcDbCircle
 10
277.571098
 20
487.235587
 30
0.0
 40
3.0
100
AcDbArc
 50
273.891385
 51
0.0
  0
LINE
  5
102
330
1F
100
AcDbEntity
  8
dxfile
  6
Continuous
 62
     3
100
AcDbLine
 10
275.061335
 20
499.229201
 30
0.0
 11
276.545334
 21
499.229201
 31
0.0
  0
ARC
  5
103
330
1F
100
AcDbEntity
  8
dxfile
  6
Continuous
 62
     3
100
AcDbCircle
 10
268.471098
 20
530.895226
 30
0.0
 40
0.4
100
AcDbArc
 50
99.211027
 51
180.0
  0
LINE
  5
104
330
1F
100
AcDbEntity
  8
dxfile
  6
Continuous
 62
     3
100
AcDbLine
 10
268.071098
 20
530.895226
 30
0.0
 11
268.071098
 21
519.535587
 31
0.0
  0
ARC
  5
105
330
1F
100
AcDbEntity
  8
dxfile
  6
Continuous
 62
     3
100
AcDbCircle
 10
375.071098
 20
552.63919
 30
0.0
 40
4.0
100
AcDbArc
 50
279.211027
 51
0.0
  0
LINE
  5
106
330
1F
100
AcDbEntity
  8
dxfile
  6
Continuous
 62
     3
100
AcDbLine
 10
375.711382
 20
548.690768
 30
0.0
 11
268.407069
 21
531.290069
 31
0.0
  0
ARC
  5
107
330
1F
100
AcDbEntity
  8
dxfile
  6
Continuous
 62
     3
100
AcDbCircle
 10
276.545334
 20
495.229202
 30
0.0
 40
3.9999984
100
AcDbArc
 50
0.0
 51
90.0
  0
ARC
  5
108
330
1F
100
AcDbEntity
  8
dxfile
  6
Continuous
 62
     3
100
AcDbCircle
 10
275.061335
 20
503.229199
 30
0.0
 40
3.9999984
100
AcDbArc
 50
180.0
 51
270.0
  0
LINE
  5
109
330
1F
100
AcDbEntity
  8
dxfile
  6
Continuous
 62
     3
100
AcDbLine
 10
268.371098
 20
519.235587
 30
0.0
 11
268.071098
 21
519.535587
 31
0.0
  0
LINE
  5
10A
330
1F
100
AcDbEntity
  8
dxfile
  6
Continuous
 62
     3
100
AcDbLine
 10
268.371098
 20
519.235587
 30
0.0
 11
268.071098
 21
518.935587
 31
0.0
  0
LINE
  5
10B
330
1F
100
AcDbEntity
  8
dxfile
  6
Continuous
 62
     3
100
AcDbLine
 10
268.071098
 20
497.235587
 30
0.0
 11
268.071098
 21
518.935587
 31
0.0
  0
LINE
  5
10C
330
1F
100
AcDbEntity
  8
dxfile
  6
Continuous
 62
     3
100
AcDbLine
 10
396.571098
 20
654.235587
 30
0.0
 11
380.079896
 21
644.825593
 31
0.0
  0
ARC
  5
10D
330
1F
100
AcDbEntity
  8
dxfile
  6
Continuous
 62
     3
100
AcDbCircle
 10
434.071098
 20
568.235587
 30
0.0
 40
1.0
100
AcDbArc
 50
0.0
 51
90.0
  0
LINE
  5
10E
330
1F
100
AcDbEntity
  8
dxfile
  6
Continuous
 62
     3
100
AcDbLine
 10
435.071098
 20
563.599756
 30
0.0
 11
435.071098
 21
568.235587
 31
0.0
  0
LINE
  5
10F
330
1F
100
AcDbEntity
  8
dxfile
  6
Continuous
 62
     3
100
AcDbLine
 10
445.803099
 20
516.257581
 30
0.0
 11
448.076098
 21
516.257581
 31
0.0
  0
LINE
  5
110
330
1F
100
AcDbEntity
  8
dxfile
  6
Continuous
 62
     3
100
AcDbLine
 10
445.761099
 20
503.557586
 30
0.0
 11
435.071098
 21
503.557586
 31
0.0
  0
LINE
  5
111
330
1F
100
AcDbEntity
  8
dxfile
  6
Continuous
 62
     3
100
AcDbLine
 10
387.371097
 20
517.935587
 30
0.0
 11
387.371097
 21
566.935587
 31
0.0
  0
LINE
  5
112
330
1F
100
AcDbEntity
  8
dxfile
  6
Continuous
 62
     3
100
AcDbLine
 10
283.071098
 20
484.235587
 30
0.0
 11
285.371098
 21
484.235587
 31
0.0
  0
ARC
  5
113
330
1F
100
AcDbEntity
  8
dxfile
  6
Continuous
 62
     3
100
AcDbCircle
 10
394.571098
 20
677.546337
 30
0.0
 40
2.0
100
AcDbArc
 50
0.0
 51
138.923433
  0
LINE
  5
114
330
1F
100
AcDbEntity
  8
dxfile
  6
Continuous
 62
     3
100
AcDbLine
 10
396.571098
 20
654.235587
 30
0.0
 11
396.571098
 21
677.546337
 31
0.0
  0
LINE
  5
115
330
1F
100
AcDbEntity
  8
dxfile
  6
Continuous
 62
     3
100
AcDbLine
 10
399.571098
 20
680.576721
 30
0.0
 11
399.571098
 21
652.263139
 31
0.0
  0
ARC
  5
116
330
1F
100
AcDbEntity
  8
dxfile
  6
Continuous
 62
     3
100
AcDbCircle
 10
385.069291
 20
675.776254
 30
0.0
 40
0.9999996
100
AcDbArc
 50
317.32153
 51
0.0
  0
LINE
  5
117
330
1F
100
AcDbEntity
  8
dxfile
  6
Continuous
 62
     3
100
AcDbLine
 10
382.071098
 20
519.635587
 30
0.0
 11
382.071098
 21
569.235587
 31
0.0
  0
LINE
  5
118
330
1F
100
AcDbEntity
  8
dxfile
  6
Continuous
 62
     3
100
AcDbLine
 10
432.771098
 20
502.235587
 30
0.0
 11
432.771098
 21
566.935587
 31
0.0
  0
LINE
  5
119
330
1F
100
AcDbEntity
  8
dxfile
  6
Continuous
 62
     3
100
AcDbLine
 10
387.371097
 20
566.935587
 30
0.0
 11
432.771098
 21
566.935587
 31
0.0
  0
LINE
  5
11A
330
1F
100
AcDbEntity
  8
dxfile
  6
Continuous
 62
     3
100
AcDbLine
 10
435.042098
 20
568.368169
 30
0.0
 11
435.042098
 21
568.00017
 31
0.0
  0
LINE
  5
11B
330
1F
100
AcDbEntity
  8
dxfile
  6
Continuous
 62
     3
100
AcDbLine
 10
390.321098
 20
569.235587
 30
0.0
 11
382.071098
 21
569.235587
 31
0.0
  0
LINE
  5
11C
330
1F
100
AcDbEntity
  8
dxfile
  6
Continuous
 62
     3
100
AcDbLine
 10
434.071098
 20
569.235587
 30
0.0
 11
1302.243318
 21
569.235587
 31
0.0
  0
LINE
  5
11D
330
1F
100
AcDbEntity
  8
dxfile
  6
Continuous
 62
     3
100
AcDbLine
 10
480.787551
 20
501.235587
 30
0.0
 11
1289.55408
 21
501.235587
 31
0.0
  0
LINE
  5
11E
330
1F
100
AcDbEntity
  8
dxfile
  6
Continuous
 62
     3
100
AcDbLine
 10
401.171098
 20
677.887129
 30
0.0
 11
401.171098
 21
653.063139
 31
0.0
  0
LINE
  5
11F
330
1F
100
AcDbEntity
  8
dxfile
  6
Continuous
 62
     3
100
AcDbLine
 10
399.571098
 20
677.887129
 30
0.0
 11
401.171098
 21
677.887129
 31
0.0
  0
LINE
  5
120
330
1F
100
AcDbEntity
  8
dxfile
  6
Continuous
 62
     3
100
AcDbLine
 10
504.217243
 20
651.463139
 30
0.0
 11
504.217243
 21
564.547175
 31
0.0
  0
ARC
  5
121
330
1F
100
AcDbEntity
  8
dxfile
  6
Continuous
 62
     3
100
AcDbCircle
 10
400.371098
 20
652.263139
 30
0.0
 40
0.8
100
AcDbArc
 50
180.0
 51
270.0
  0
LINE
  5
122
330
1F
100
AcDbEntity
  8
dxfile
  6
Continuous
 62
     3
100
AcDbLine
 10
400.371098
 20
651.463139
 30
0.0
 11
504.217243
 21
651.463139
 31
0.0
  0
LINE
  5
123
330
1F
100
AcDbEntity
  8
dxfile
  6
Continuous
 62
     3
100
AcDbLine
 10
505.817243
 20
652.06314
 30
0.0
 11
505.817243
 21
563.747175
 31
0.0
  0
ARC
  5
124
330
1F
100
AcDbEntity
  8
dxfile
  6
Continuous
 62
     3
100
AcDbCircle
 10
492.123248
 20
634.826147
 30
0.0
 40
4.999998
100
AcDbArc
 50
0.0
 51
90.0
  0
LINE
  5
125
330
1F
100
AcDbEntity
  8
dxfile
  6
Continuous
 62
     3
100
AcDbLine
 10
445.852267
 20
545.136182
 30
0.0
 11
455.434263
 21
545.136182
 31
0.0
  0
LINE
  5
126
330
1F
100
AcDbEntity
  8
dxfile
  6
Continuous
 62
     3
100
AcDbLine
 10
445.462267
 20
539.662185
 30
0.0
 11
454.846263
 21
539.662185
 31
0.0
  0
LINE
  5
127
330
1F
100
AcDbEntity
  8
dxfile
  6
Continuous
 62
     3
100
AcDbLine
 10
454.846263
 20
539.662185
 30
0.0
 11
455.434263
 21
539.662185
 31
0.0
  0
LINE
  5
128
330
1F
100
AcDbEntity
  8
dxfile
  6
Continuous
 62
     3
100
AcDbLine
 10
445.461267
 20
529.105189
 30
0.0
 11
455.434263
 21
529.105189
 31
0.0
  0
LINE
  5
129
330
1F
100
AcDbEntity
  8
dxfile
  6
Continuous
 62
     3
100
AcDbLine
 10
415.746279
 20
539.662185
 30
0.0
 11
445.462267
 21
539.662185
 31
0.0
  0
LINE
  5
12A
330
1F
100
AcDbEntity
  8
dxfile
  6
Continuous
 62
     3
100
AcDbLine
 10
497.123246
 20
634.826147
 30
0.0
 11
497.123246
 21
569.431173
 31
0.0
  0
CIRCLE
  5
12B
330
1F
100
AcDbEntity
  8
dxfile
  6
Continuous
 62
     3
100
AcDbCircle
 10
452.412264
 20
614.697155
 30
0.0
 40
29.999988
  0
ARC
  5
12C
330
1F
100
AcDbEntity
  8
dxfile
  6
Continuous
 62
     3
100
AcDbCircle
 10
453.867263
 20
526.75819
 30
0.0
 40
2.9329988268
100
AcDbArc
 50
306.90506
 51
308.299835
  0
LINE
  5
12D
330
1F
100
AcDbEntity
  8
dxfile
  6
Continuous
 62
     3
100
AcDbLine
 10
445.461267
 20
529.105189
 30
0.0
 11
415.355279
 21
529.105189
 31
0.0
  0
LINE
  5
12E
330
1F
100
AcDbEntity
  8
dxfile
  6
Continuous
 62
     3
100
AcDbLine
 10
445.867267
 20
524.413191
 30
0.0
 11
455.237263
 21
524.412191
 31
0.0
  0
LINE
  5
12F
330
1F
100
AcDbEntity
  8
dxfile
  6
Continuous
 62
     3
100
AcDbLine
 10
445.867267
 20
545.119182
 30
0.0
 11
445.867267
 21
524.374191
 31
0.0
  0
ARC
  5
130
330
1F
100
AcDbEntity
  8
dxfile
  6
Continuous
 62
     3
100
AcDbCircle
 10
454.541263
 20
542.374184
 30
0.0
 40
2.8919988432
100
AcDbArc
 50
288.359772
 51
71.640228
  0
CIRCLE
  5
131
330
1F
100
AcDbEntity
  8
dxfile
  6
Continuous
 62
     3
100
AcDbCircle
 10
417.692278
 20
614.697155
 30
0.0
 40
9.504996198
  0
ARC
  5
132
330
1F
100
AcDbEntity
  8
dxfile
  6
Continuous
 62
     3
100
AcDbCircle
 10
386.371097
 20
517.935587
 30
0.0
 40
1.0
100
AcDbArc
 50
270.0
 51
0.0
  0
LINE
  5
133
330
1F
100
AcDbEntity
  8
dxfile
  6
Continuous
 62
     3
100
AcDbLine
 10
445.761099
 20
516.252581
 30
0.0
 11
445.761099
 21
503.557586
 31
0.0
  0
LINE
  5
134
330
1F
100
AcDbEntity
  8
dxfile
  6
Continuous
 62
     3
100
AcDbLine
 10
592.763435
 20
528.181299
 30
0.0
 11
472.890266
 21
636.620902
 31
0.0
  0
ARC
  5
135
330
1F
100
AcDbEntity
  8
dxfile
  6
Continuous
 62
     3
100
AcDbCircle
 10
453.673263
 20
542.204184
 30
0.0
 40
3.5239985904
100
AcDbArc
 50
56.106998
 51
56.296402
  0
ARC
  5
136
330
1F
100
AcDbEntity
  8
dxfile
  6
Continuous
 62
     3
100
AcDbCircle
 10
449.442265
 20
534.364187
 30
0.0
 40
7.989996804
100
AcDbArc
 50
318.780334
 51
41.219654
  0
ARC
  5
137
330
1F
100
AcDbEntity
  8
dxfile
  6
Continuous
 62
     3
100
AcDbCircle
 10
455.079263
 20
526.73719
 30
0.0
 40
2.3909990436
100
AcDbArc
 50
278.970123
 51
81.026131
  0
LINE
  5
138
330
1F
100
AcDbEntity
  8
dxfile
  6
Continuous
 62
     3
100
AcDbLine
 10
457.387262
 20
542.059184
 30
0.0
 11
457.387262
 21
527.07419
 31
0.0
  0
ARC
  5
139
330
1F
100
AcDbEntity
  8
dxfile
  6
Continuous
 62
     3
100
AcDbCircle
 10
492.123248
 20
634.826147
 30
0.0
 40
4.999998
100
AcDbArc
 50
0.0
 51
90.011459
  0
CIRCLE
  5
13A
330
1F
100
AcDbEntity
  8
dxfile
  6
Continuous
 62
     3
100
AcDbCircle
 10
532.655232
 20
609.650157
 30
0.0
 40
24.99999
  0
CIRCLE
  5
13B
330
1F
100
AcDbEntity
  8
dxfile
  6
Continuous
 62
     3
100
AcDbCircle
 10
532.655232
 20
609.650157
 30
0.0
 40
7.499997
  0
CIRCLE
  5
13C
330
1F
100
AcDbEntity
  8
dxfile
  6
Continuous
 62
     3
100
AcDbCircle
 10
532.655232
 20
609.650157
 30
0.0
 40
19.999992
  0
LINE
  5
13D
330
1F
100
AcDbEntity
  8
dxfile
  6
Continuous
 62
     3
100
AcDbLine
 10
448.071098
 20
516.252581
 30
0.0
 11
448.071098
 21
516.168581
 31
0.0
  0
LINE
  5
13E
330
1F
100
AcDbEntity
  8
dxfile
  6
Continuous
 62
     3
100
AcDbLine
 10
532.330232
 20
569.825173
 30
0.0
 11
532.389232
 21
569.826173
 31
0.0
  0
ARC
  5
13F
330
1F
100
AcDbEntity
  8
dxfile
  6
Continuous
 62
     3
100
AcDbCircle
 10
530.651233
 20
597.420162
 30
0.0
 40
19.999992
100
AcDbArc
 50
261.274323
 51
347.200562
  0
ARC
  5
140
330
1F
100
AcDbEntity
  8
dxfile
  6
Continuous
 62
     3
100
AcDbCircle
 10
491.364248
 20
638.525145
 30
0.0
 40
9.999996
100
AcDbArc
 50
265.7854
 51
354.727234
  0
LINE
  5
141
330
1F
100
AcDbEntity
  8
dxfile
  6
Continuous
 62
     3
100
AcDbLine
 10
417.683278
 20
635.036737
 30
0.0
 11
490.629325
 21
628.552191
 31
0.0
  0
ARC
  5
142
330
1F
100
AcDbEntity
  8
dxfile
  6
Continuous
 62
     3
100
AcDbCircle
 10
417.555278
 20
615.037154
 30
0.0
 40
19.999992
100
AcDbArc
 50
88.896973
 51
259.863251
  0
LINE
  5
143
330
1F
100
AcDbEntity
  8
dxfile
  6
Continuous
 62
     3
100
AcDbLine
 10
574.178967
 20
698.698922
 30
0.0
 11
550.155225
 21
592.989163
 31
0.0
  0
LINE
  5
144
330
1F
100
AcDbEntity
  8
dxfile
  6
Continuous
 62
     3
100
AcDbLine
 10
527.617234
 20
577.652169
 30
0.0
 11
414.035316
 21
595.349352
 31
0.0
  0
LINE
  5
145
330
1F
100
AcDbEntity
  8
dxfile
  6
Continuous
 62
     3
100
AcDbLine
 10
506.961388
 20
698.691453
 30
0.0
 11
501.322244
 21
637.606145
 31
0.0
  0
LINE
  5
146
330
1F
100
AcDbEntity
  8
dxfile
  6
Continuous
 62
     3
100
AcDbLine
 10
285.371098
 20
516.935587
 30
0.0
 11
386.371097
 21
516.935587
 31
0.0
  0
LINE
  5
147
330
1F
100
AcDbEntity
  8
dxfile
  6
Continuous
 62
     3
100
AcDbLine
 10
285.371098
 20
484.235587
 30
0.0
 11
285.371098
 21
516.935587
 31
0.0
  0
ARC
  5
148
330
1F
100
AcDbEntity
  8
dxfile
  6
Continuous
 62
     3
100
AcDbCircle
 10
284.071098
 20
518.235587
 30
0.0
 40
1.0
100
AcDbArc
 50
90.0
 51
180.0
  0
LINE
  5
149
330
1F
100
AcDbEntity
  8
dxfile
  6
Continuous
 62
     3
100
AcDbLine
 10
283.071098
 20
484.235587
 30
0.0
 11
283.071098
 21
518.235587
 31
0.0
  0
LINE
  5
14A
330
1F
100
AcDbEntity
  8
dxfile
  6
Continuous
 62
     3
100
AcDbLine
 10
448.071098
 20
516.252581
 30
0.0
 11
448.071098
 21
502.235587
 31
0.0
  0
ARC
  5
14B
330
1F
100
AcDbEntity
  8
dxfile
  6
Continuous
 62
     3
100
AcDbCircle
 10
433.771098
 20
502.235587
 30
0.0
 40
1.0
100
AcDbArc
 50
180.0
 51
270.0
  0
LINE
  5
14C
330
1F
100
AcDbEntity
  8
dxfile
  6
Continuous
 62
     3
100
AcDbLine
 10
433.771098
 20
501.235587
 30
0.0
 11
447.071098
 21
501.235587
 31
0.0
  0
ARC
  5
14D
330
1F
100
AcDbEntity
  8
dxfile
  6
Continuous
 62
     3
100
AcDbCircle
 10
447.071098
 20
502.235586
 30
0.0
 40
0.9999996
100
AcDbArc
 50
270.0
 51
0.0
  0
LINE
  5
14E
330
1F
100
AcDbEntity
  8
dxfile
  6
Continuous
 62
     3
100
AcDbLine
 10
284.071098
 20
519.235587
 30
0.0
 11
385.071098
 21
519.235587
 31
0.0
  0
LINE
  5
14F
330
1F
100
AcDbEntity
  8
dxfile
  6
Continuous
 62
     3
100
AcDbLine
 10
454.871098
 20
727.072478
 30
0.0
 11
369.671098
 21
727.072478
 31
0.0
  0
ARC
  5
150
330
1F
100
AcDbEntity
  8
dxfile
  6
Continuous
 62
     3
100
AcDbCircle
 10
370.471098
 20
666.082211
 30
0.0
 40
0.8
100
AcDbArc
 50
180.0
 51
270.0
  0
LINE
  5
151
330
1F
100
AcDbEntity
  8
dxfile
  6
Continuous
 62
     3
100
AcDbLine
 10
385.203153
 20
665.282211
 30
0.0
 11
369.700298
 21
665.282211
 31
0.0
  0
ARC
  5
152
330
1F
100
AcDbEntity
  8
dxfile
  6
Continuous
 62
     3
100
AcDbCircle
 10
368.871098
 20
727.882211
 30
0.0
 40
0.8
100
AcDbArc
 50
90.0
 51
180.0
  0
LINE
  5
153
330
1F
100
AcDbEntity
  8
dxfile
  6
Continuous
 62
     3
100
AcDbLine
 10
368.071098
 20
727.882211
 30
0.0
 11
368.071098
 21
664.482211
 31
0.0
  0
LINE
  5
154
330
1F
100
AcDbEntity
  8
dxfile
  6
Continuous
 62
     3
100
AcDbLine
 10
390.321098
 20
569.235587
 30
0.0
 11
434.071098
 21
569.235587
 31
0.0
  0
LINE
  5
155
330
1F
100
AcDbEntity
  8
dxfile
  6
Continuous
 62
     3
100
AcDbLine
 10
476.351254
 20
489.223205
 30
0.0
 11
425.124695
 21
602.231687
 31
0.0
  0
LINE
  5
156
330
1F
100
AcDbEntity
  8
dxfile
  6
Continuous
 62
     3
100
AcDbLine
 10
412.25128
 20
624.369151
 30
0.0
 11
406.810282
 21
614.945155
 31
0.0
  0
LINE
  5
157
330
1F
100
AcDbEntity
  8
dxfile
  6
Continuous
 62
     3
100
AcDbLine
 10
406.810282
 20
614.945155
 30
0.0
 11
412.25128
 21
605.521158
 31
0.0
  0
LINE
  5
158
330
1F
100
AcDbEntity
  8
dxfile
  6
Continuous
 62
     3
100
AcDbLine
 10
412.25128
 20
605.521158
 30
0.0
 11
423.133276
 21
605.521158
 31
0.0
  0
LINE
  5
159
330
1F
100
AcDbEntity
  8
dxfile
  6
Continuous
 62
     3
100
AcDbLine
 10
423.133276
 20
605.521158
 30
0.0
 11
428.574273
 21
614.945155
 31
0.0
  0
LINE
  5
15A
330
1F
100
AcDbEntity
  8
dxfile
  6
Continuous
 62
     3
100
AcDbLine
 10
428.574273
 20
614.945155
 30
0.0
 11
423.133276
 21
624.369151
 31
0.0
  0
LINE
  5
15B
330
1F
100
AcDbEntity
  8
dxfile
  6
Continuous
 62
     3
100
AcDbLine
 10
423.133276
 20
624.369151
 30
0.0
 11
412.25128
 21
624.369151
 31
0.0
  0
LINE
  5
15C
330
1F
100
AcDbEntity
  8
dxfile
  6
Continuous
 62
     3
100
AcDbLine
 10
382.853292
 20
639.826145
 30
0.0
 11
492.123248
 21
639.826145
 31
0.0
  0
LINE
  5
15D
330
1F
100
AcDbEntity
  8
dxfile
  6
Continuous
 62
     3
100
AcDbLine
 10
1288.518929
 20
569.235587
 30
0.0
 11
1338.546909
 21
569.235587
 31
0.0
  0
ARC
  5
15E
330
1F
100
AcDbEntity
  8
dxfile
  6
Continuous
 62
     3
100
AcDbCircle
 10
1288.518929
 20
579.236583
 30
0.0
 40
9.999996
100
AcDbArc
 50
180.0
 51
270.0
  0
LINE
  5
15F
330
1F
100
AcDbEntity
  8
dxfile
  6
Continuous
 62
     3
100
AcDbLine
 10
1278.518933
 20
613.923569
 30
0.0
 11
1278.517933
 21
579.236583
 31
0.0
  0
CIRCLE
  5
160
330
1F
100
AcDbEntity
  8
dxfile
  6
Continuous
 62
     3
100
AcDbCircle
 10
1305.740923
 20
596.352576
 30
0.0
 40
24.99999
  0
CIRCLE
  5
161
330
1F
100
AcDbEntity
  8
dxfile
  6
Continuous
 62
     3
100
AcDbCircle
 10
1305.740923
 20
596.352576
 30
0.0
 40
19.999992
  0
LINE
  5
162
330
1F
100
AcDbEntity
  8
dxfile
  6
Continuous
 62
     3
100
AcDbLine
 10
1338.546909
 20
569.235587
 30
0.0
 11
1338.546909
 21
623.923565
 31
0.0
  0
LINE
  5
163
330
1F
100
AcDbEntity
  8
dxfile
  6
Continuous
 62
     3
100
AcDbLine
 10
1335.405911
 20
569.235587
 30
0.0
 11
1335.405911
 21
623.922565
 31
0.0
  0
LINE
  5
164
330
1F
100
AcDbEntity
  8
dxfile
  6
Continuous
 62
     3
100
AcDbLine
 10
1288.518929
 20
623.923565
 30
0.0
 11
1338.546909
 21
623.923565
 31
0.0
  0
CIRCLE
  5
165
330
1F
100
AcDbEntity
  8
dxfile
  6
Continuous
 62
     3
100
AcDbCircle
 10
1305.740923
 20
596.352576
 30
0.0
 40
3.7589984964
  0
ARC
  5
166
330
1F
100
AcDbEntity
  8
dxfile
  6
Continuous
 62
     3
100
AcDbCircle
 10
1288.518929
 20
613.923569
 30
0.0
 40
9.999996
100
AcDbArc
 50
90.0
 51
180.0
  0
LINE
  5
167
330
1F
100
AcDbEntity
  8
dxfile
  6
PLine2
 62
     3
100
AcDbLine
 10
868.071098
 20
812.883299
 30
0.0
 11
868.071098
 21
461.442688
 31
0.0
  0
LINE
  5
168
330
1F
100
AcDbEntity
  8
dxfile
  6
Continuous
 62
     3
100
AcDbLine
 10
829.330745
 20
401.111342
 30
0.0
 11
838.89924
 21
401.111342
 31
0.0
  0
LINE
  5
169
330
1F
100
AcDbEntity
  8
dxfile
  6
Continuous
 62
     3
100
AcDbLine
 10
838.89924
 20
401.111342
 30
0.0
 11
838.89924
 21
411.021569
 31
0.0
  0
LINE
  5
16A
330
1F
100
AcDbEntity
  8
dxfile
  6
Continuous
 62
     3
100
AcDbLine
 10
838.89924
 20
411.021569
 30
0.0
 11
829.330745
 21
411.021569
 31
0.0
  0
LINE
  5
16B
330
1F
100
AcDbEntity
  8
dxfile
  6
Continuous
 62
     3
100
AcDbLine
 10
829.330745
 20
411.021569
 30
0.0
 11
829.330745
 21
401.111342
 31
0.0
  0
LINE
  5
16C
330
1F
100
AcDbEntity
  8
dxfile
  6
Continuous
 62
     3
100
AcDbLine
 10
818.65948
 20
311.036175
 30
0.0
 11
828.227975
 21
311.036175
 31
0.0
  0
LINE
  5
16D
330
1F
100
AcDbEntity
  8
dxfile
  6
Continuous
 62
     3
100
AcDbLine
 10
828.227975
 20
311.036175
 30
0.0
 11
828.227975
 21
320.60467
 31
0.0
  0
LINE
  5
16E
330
1F
100
AcDbEntity
  8
dxfile
  6
Continuous
 62
     3
100
AcDbLine
 10
828.227975
 20
320.60467
 30
0.0
 11
818.65948
 21
320.60467
 31
0.0
  0
LINE
  5
16F
330
1F
100
AcDbEntity
  8
dxfile
  6
Continuous
 62
     3
100
AcDbLine
 10
818.65948
 20
320.60467
 30
0.0
 11
818.65948
 21
311.036175
 31
0.0
  0
TEXT
  5
170
330
1F
100
AcDbEntity
  8
dxfile
  6
Continuous
 62
     3
100
AcDbText
 10
1273.615485
 20
69.698892
 30
0.0
 40
18.0
  1
注、図中数字で示す寸法は全種共通です
 41
0.858268
  7
BIGFONT
100
AcDbText
  0
LINE
  5
171
330
1F
100
AcDbEntity
  8
dxfile
  6
PLine2
 62
     3
100
AcDbLine
 10
1305.715923
 20
630.384082
 30
0.0
 11
1305.715923
 21
569.88303
 31
0.0
  0
ARC
  5
172
330
1F
100
AcDbEntity
  8
dxfile
  6
Continuous
 62
     3
100
AcDbCircle
 10
378.671098
 20
545.726308
 30
0.0
 40
0.4
100
AcDbArc
 50
0.0
 51
99.211027
  0
LINE
  5
173
330
1F
100
AcDbEntity
  8
dxfile
  6
Continuous
 62
     3
100
AcDbLine
 10
378.607069
 20
546.12115
 30
0.0
 11
299.74913
 21
533.333376
 31
0.0
  0
ARC
  5
174
330
1F
100
AcDbEntity
  8
dxfile
  6
Continuous
 62
     3
100
AcDbCircle
 10
296.04283
 20
532.327129
 30
0.0
 40
0.4
100
AcDbArc
 50
15.002741
 51
99.211027
  0
LINE
  5
175
330
1F
100
AcDbEntity
  8
dxfile
  6
Continuous
 62
     3
100
AcDbLine
 10
271.071098
 20
528.682884
 30
0.0
 11
295.978801
 21
532.721971
 31
0.0
  0
LINE
  5
176
330
1F
100
AcDbEntity
  8
dxfile
  6
Continuous
 62
     3
100
AcDbLine
 10
271.071098
 20
528.682884
 30
0.0
 11
271.071098
 21
519.835587
 31
0.0
  0
LINE
  5
177
330
1F
100
AcDbEntity
  8
dxfile
  6
Continuous
 62
     3
100
AcDbLine
 10
271.071098
 20
502.949925
 30
0.0
 11
271.071098
 21
518.635587
 31
0.0
  0
LINE
  5
178
330
1F
100
AcDbEntity
  8
dxfile
  6
Continuous
 62
     3
100
AcDbLine
 10
270.471098
 20
519.235587
 30
0.0
 11
271.071098
 21
519.835587
 31
0.0
  0
ARC
  5
179
330
1F
100
AcDbEntity
  8
dxfile
  6
Continuous
 62
     3
100
AcDbCircle
 10
366.071098
 20
521.235587
 30
0.0
 40
2.000000000000014
100
AcDbArc
 50
90.0
 51
270.0
  0
ARC
  5
17A
330
1F
100
AcDbEntity
  8
dxfile
  6
Continuous
 62
     3
100
AcDbCircle
 10
390.321098
 20
570.985587
 30
0.0
 40
1.749999999999986
100
AcDbArc
 50
270.0
 51
90.0
  0
LINE
  5
17B
330
1F
100
AcDbEntity
  8
dxfile
  6
Continuous
 62
     4
100
AcDbLine
 10
354.071098
 20
516.935587
 30
0.0
 11
368.071098
 21
516.935587
 31
0.0
  0
LINE
  5
17C
330
1F
100
AcDbEntity
  8
dxfile
  6
Continuous
 62
     4
100
AcDbLine
 10
368.071098
 20
516.935587
 30
0.0
 11
368.071098
 21
514.635587
 31
0.0
  0
LINE
  5
17D
330
1F
100
AcDbEntity
  8
dxfile
  6
Continuous
 62
     4
100
AcDbLine
 10
368.071098
 20
514.635587
 30
0.0
 11
355.371098
 21
514.635587
 31
0.0
  0
LINE
  5
17E
330
1F
100
AcDbEntity
  8
dxfile
  6
Continuous
 62
     4
100
AcDbLine
 10
355.371098
 20
514.635587
 30
0.0
 11
355.371098
 21
491.972597
 31
0.0
  0
LINE
  5
17F
330
1F
100
AcDbEntity
  8
dxfile
  6
Continuous
 62
     4
100
AcDbLine
 10
355.371098
 20
491.972597
 30
0.0
 11
353.071098
 21
491.972597
 31
0.0
  0
LINE
  5
180
330
1F
100
AcDbEntity
  8
dxfile
  6
Continuous
 62
     4
100
AcDbLine
 10
353.071098
 20
491.972597
 30
0.0
 11
353.071098
 21
515.935587
 31
0.0
  0
ARC
  5
181
330
1F
100
AcDbEntity
  8
dxfile
  6
Continuous
 62
     4
100
AcDbCircle
 10
354.071098
 20
515.935587
 30
0.0
 40
1.0
100
AcDbArc
 50
90.0
 51
180.0
  0
INSERT
  5
18B
330
1F
100
AcDbEntity
  8
dxfile
  6
Continuous
 62
     3
100
AcDbBlockReference
  2
DIM_0
 10
283.071098
 20
479.100514
 30
0.0
  0
LINE
  5
18C
330
1F
100
AcDbEntity
  8
dxfile
  6
PLine2
 62
     3
100
AcDbLine
 10
506.289226
 20
615.033687
 30
0.0
 11
561.359353
 21
602.517974
 31
0.0
  0
LINE
  5
18D
330
1F
100
AcDbEntity
  8
dxfile
  6
PLine2
 62
     3
100
AcDbLine
 10
539.288414
 20
637.443006
 30
0.0
 11
526.674302
 21
581.855206
 31
0.0
  0
LINE
  5
18E
330
1F
100
AcDbEntity
  8
dxfile
  6
PLine4
 62
     3
100
AcDbLine
 10
506.407803
 20
692.694807
 30
0.0
 11
572.814463
 21
692.694807
 31
0.0
  0
CIRCLE
  5
18F
330
1F
100
AcDbEntity
  8
dxfile
  6
Continuous
 62
     3
100
AcDbCircle
 10
452.412264
 20
614.697155
 30
0.0
 40
20.99998800000003
  0
LINE
  5
190
330
1F
100
AcDbEntity
  8
dxfile
  6
Continuous
 62
     3
100
AcDbLine
 10
586.725738
 20
521.507004
 30
0.0
 11
466.852569
 21
629.946607
 31
0.0
  0
LINE
  5
191
330
1F
100
AcDbEntity
  8
dxfile
  6
Continuous
 62
     3
100
AcDbLine
 10
484.548399
 20
492.938957
 30
0.0
 11
433.32184
 21
605.94744
 31
0.0
  0
LINE
  5
192
330
1F
100
AcDbEntity
  8
dxfile
  6
Continuous
 62
     3
100
AcDbLine
 10
586.725738
 20
521.507004
 30
0.0
 11
592.763435
 21
528.181299
 31
0.0
  0
LINE
  5
193
330
1F
100
AcDbEntity
  8
dxfile
  6
Continuous
 62
     3
100
AcDbLine
 10
476.351254
 20
489.223205
 30
0.0
 11
484.548399
 21
492.938957
 31
0.0
  0
LINE
  5
194
330
1F
100
AcDbEntity
  8
dxfile
  6
Continuous
 62
     3
100
AcDbLine
 10
369.671098
 20
727.072478
 30
0.0
 11
369.671098
 21
665.282211
 31
0.0
  0
LINE
  5
195
330
1F
100
AcDbEntity
  8
dxfile
  6
Continuous
 62
     3
100
AcDbLine
 10
371.271098
 20
727.072478
 30
0.0
 11
371.271098
 21
700.285255
 31
0.0
  0
ARC
  5
196
330
1F
100
AcDbEntity
  8
dxfile
  6
Continuous
 62
     3
100
AcDbCircle
 10
370.471098
 20
699.476291
 30
0.0
 40
0.8
100
AcDbArc
 50
180.0
 51
270.006366
  0
ARC
  5
197
330
1F
100
AcDbEntity
  8
dxfile
  6
Continuous
 62
     3
100
AcDbCircle
 10
457.271098
 20
699.485935
 30
0.0
 40
0.8
100
AcDbArc
 50
270.006366
 51
0.0
  0
LINE
  5
198
330
1F
100
AcDbEntity
  8
dxfile
  6
Continuous
 62
     3
100
AcDbLine
 10
458.071098
 20
728.686024
 30
0.0
 11
458.071098
 21
699.485935
 31
0.0
  0
ARC
  5
199
330
1F
100
AcDbEntity
  8
dxfile
  6
Continuous
 62
     3
100
AcDbCircle
 10
455.671098
 20
727.882211
 30
0.0
 40
0.8
100
AcDbArc
 50
0.0
 51
90.0
  0
LINE
  5
19A
330
1F
100
AcDbEntity
  8
dxfile
  6
Continuous
 62
     3
100
AcDbLine
 10
456.471098
 20
728.682211
 30
0.0
 11
456.471098
 21
700.284237
 31
0.0
  0
LINE
  5
19B
330
1F
100
AcDbEntity
  8
dxfile
  6
Continuous
 62
     3
100
AcDbLine
 10
454.871098
 20
700.285669
 30
0.0
 11
454.871098
 21
727.072478
 31
0.0
  0
LINE
  5
19C
330
1F
100
AcDbEntity
  8
dxfile
  6
Continuous
 62
     3
100
AcDbLine
 10
1278.041898
 20
698.682211
 30
0.0
 11
370.403148
 21
698.682211
 31
0.0
  0
LINE
  5
19D
330
1F
100
AcDbEntity
  8
dxfile
  6
Continuous
 62
     3
100
AcDbLine
 10
456.471098
 20
700.282211
 30
0.0
 11
371.271098
 21
700.282211
 31
0.0
  0
LINE
  5
19E
330
1F
100
AcDbEntity
  8
dxfile
  6
Continuous
 62
     3
100
AcDbLine
 10
1339.571098
 20
663.682211
 30
0.0
 11
1368.041898
 21
663.682211
 31
0.0
  0
ARC
  5
19F
330
1F
100
AcDbEntity
  8
dxfile
  6
Continuous
 62
     3
100
AcDbCircle
 10
368.871098
 20
664.482211
 30
0.0
 40
0.8
100
AcDbArc
 50
180.0
 51
270.0
  0
LINE
  5
1A0
330
1F
100
AcDbEntity
  8
dxfile
  6
Continuous
 62
     3
100
AcDbLine
 10
378.071098
 20
663.682211
 30
0.0
 11
368.871098
 21
663.682211
 31
0.0
  0
LINE
  5
1A1
330
1F
100
AcDbEntity
  8
dxfile
  6
Continuous
 62
     3
100
AcDbLine
 10
378.071098
 20
665.282211
 30
0.0
 11
378.071098
 21
663.682211
 31
0.0
  0
LINE
  5
1A2
330
1F
100
AcDbEntity
  8
dxfile
  6
Continuous
 62
     6
100
AcDbLine
 10
1299.697272
 20
732.682211
 30
0.0
 11
438.071098
 21
732.682211
 31
0.0
  0
LINE
  5
1A3
330
1F
100
AcDbEntity
  8
dxfile
  6
Continuous
 62
     6
100
AcDbLine
 10
1298.071098
 20
750.482211
 30
0.0
 11
438.071098
 21
750.482211
 31
0.0
  0
LINE
  5
1A4
330
1F
100
AcDbEntity
  8
dxfile
  6
Continuous
 62
     4
100
AcDbLine
 10
1278.071098
 20
698.682211
 30
0.0
 11
1278.071098
 21
723.682212
 31
0.0
  0
LINE
  5
1A5
330
1F
100
AcDbEntity
  8
dxfile
  6
Continuous
 62
     6
100
AcDbLine
 10
1298.071098
 20
750.482211
 30
0.0
 11
1298.071098
 21
732.682211
 31
0.0
  0
TEXT
  5
1A6
330
1F
100
AcDbEntity
  8
dxfile
  6
Continuous
 62
     3
100
AcDbText
 10
581.676618
 20
1618.848313
 30
0.0
 40
16.779
  1
硝子寸法
 41
0.858268
  7
BIGFONT
100
AcDbText
  0
TEXT
  5
1A7
330
1F
100
AcDbEntity
  8
dxfile
  6
Continuous
 62
     3
100
AcDbText
 10
592.804882
 20
1592.819707
 30
0.0
 40
16.779
  1
５６０
 41
0.858268
  7
BIGFONT
100
AcDbText
  0
TEXT
  5
1A8
330
1F
100
AcDbEntity
  8
dxfile
  6
Continuous
 62
     3
100
AcDbText
 10
593.592129
 20
1566.006635
 30
0.0
 40
16.779
  1
８６０
 41
0.858268
  7
BIGFONT
100
AcDbText
  0
TEXT
  5
1A9
330
1F
100
AcDbEntity
  8
dxfile
  6
Continuous
 62
     3
100
AcDbText
 10
579.337409
 20
1540.470406
 30
0.0
 40
16.779
  1
１２６０
 41
0.858268
  7
BIGFONT
100
AcDbText
  0
TEXT
  5
1AA
330
1F
100
AcDbEntity
  8
dxfile
  6
Continuous
 62
     3
100
AcDbText
 10
457.770271
 20
1645.241205
 30
0.0
 40
16.779
  1
寸      法
 41
0.536417
  7
BIGFONT
100
AcDbText
  0
LINE
  5
1AB
330
1F
100
AcDbEntity
  8
dxfile
  6
Continuous
 62
     3
100
AcDbLine
 10
352.571098
 20
728.682211
 30
0.0
 11
1383.571098
 21
728.682211
 31
0.0
  0
CIRCLE
  5
1AC
330
1F
100
AcDbEntity
  8
dxfile
  6
Continuous
 62
     3
100
AcDbCircle
 10
350.571098
 20
989.993691
 30
0.0
 40
3.0
  0
CIRCLE
  5
1AD
330
1F
100
AcDbEntity
  8
dxfile
  6
Continuous
 62
     3
100
AcDbCircle
 10
1385.571098
 20
989.993691
 30
0.0
 40
3.0
  0
LINE
  5
1AE
330
1F
100
AcDbEntity
  8
dxfile
  6
Continuous
 62
     3
100
AcDbLine
 10
350.571098
 20
989.993691
 30
0.0
 11
1385.571098
 21
989.993691
 31
0.0
  0
LINE
  5
1AF
330
1F
100
AcDbEntity
  8
dxfile
  6
Continuous
 62
     3
100
AcDbLine
 10
350.571098
 20
737.224242
 30
0.0
 11
350.571098
 21
995.993691
 31
0.0
  0
LINE
  5
1B0
330
1F
100
AcDbEntity
  8
dxfile
  6
Continuous
 62
     3
100
AcDbLine
 10
1385.571098
 20
735.935654
 30
0.0
 11
1385.571098
 21
995.993691
 31
0.0
  0
TEXT
  5
1B1
330
1F
100
AcDbEntity
  8
dxfile
  6
Continuous
 62
     3
100
AcDbText
 10
541.469733
 20
806.97003
 30
0.0
 40
18.0
  1
開閉角度 ６０°
 41
0.804626
  7
BIGFONT
100
AcDbText
  0
LINE
  5
1B2
330
1F
100
AcDbEntity
  8
dxfile
  6
Continuous
 62
     4
100
AcDbLine
 10
1321.489364
 20
304.684642
 30
0.0
 11
1321.489364
 21
480.735587
 31
0.0
  0
LINE
  5
1B3
330
1F
100
AcDbEntity
  8
dxfile
  6
Continuous
 62
     4
100
AcDbLine
 10
1332.489364
 20
304.684642
 30
0.0
 11
1332.489364
 21
480.735587
 31
0.0
  0
LINE
  5
1B4
330
1F
100
AcDbEntity
  8
dxfile
  6
Continuous
 62
     4
100
AcDbLine
 10
1305.671098
 20
566.935587
 30
0.0
 11
1305.671098
 21
521.535587
 31
0.0
  0
LINE
  5
1B5
330
1F
100
AcDbEntity
  8
dxfile
  6
Continuous
 62
     4
100
AcDbLine
 10
1346.471099
 20
566.935587
 30
0.0
 11
1346.471099
 21
521.535587
 31
0.0
  0
ARC
  5
1B6
330
1F
100
AcDbEntity
  8
dxfile
  6
Continuous
 62
     4
100
AcDbCircle
 10
1304.371098
 20
520.235587
 30
0.0
 40
1.0
100
AcDbArc
 50
180.0
 51
270.0
  0
ARC
  5
1B7
330
1F
100
AcDbEntity
  8
dxfile
  6
Continuous
 62
     4
100
AcDbCircle
 10
1347.771099
 20
520.235587
 30
0.0
 40
1.0
100
AcDbArc
 50
270.0
 51
0.0
  0
LINE
  5
1B8
330
1F
100
AcDbEntity
  8
dxfile
  6
Continuous
 62
     4
100
AcDbLine
 10
1304.371098
 20
519.235587
 30
0.0
 11
1347.771099
 21
519.235587
 31
0.0
  0
LINE
  5
1B9
330
1F
100
AcDbEntity
  8
dxfile
  6
Continuous
 62
     4
100
AcDbLine
 10
1305.671098
 20
521.535587
 30
0.0
 11
1346.471099
 21
521.535587
 31
0.0
  0
ARC
  5
1BA
330
1F
100
AcDbEntity
  8
dxfile
  6
Continuous
 62
     4
100
AcDbCircle
 10
1324.239364
 20
304.684642
 30
0.0
 40
2.749999999999972
100
AcDbArc
 50
180.0
 51
0.0
  0
ARC
  5
1BB
330
1F
100
AcDbEntity
  8
dxfile
  6
Continuous
 62
     4
100
AcDbCircle
 10
1329.739364
 20
304.684642
 30
0.0
 40
2.749999999999972
100
AcDbArc
 50
0.0
 51
180.0
  0
TEXT
  5
1BC
330
1F
100
AcDbEntity
  8
dxfile
  6
Continuous
 62
     3
100
AcDbText
 10
741.069142
 20
1630.90412
 30
0.0
 40
16.779
  1
概算重量
 41
0.858268
  7
BIGFONT
100
AcDbText
  0
TEXT
  5
1BD
330
1F
100
AcDbEntity
  8
dxfile
  6
Continuous
 62
     3
100
AcDbText
 10
800.825312
 20
1619.730217
 30
0.0
 40
16.779
  1

 41
0.858268
  7
BIGFONT
100
AcDbText
  0
TEXT
  5
1BE
330
1F
100
AcDbEntity
  8
dxfile
  6
Continuous
 62
     3
100
AcDbText
 10
764.210142
 20
1591.740827
 30
0.0
 40
16.779
  1
６０
 41
0.858268
  7
BIGFONT
100
AcDbText
  0
TEXT
  5
1BF
330
1F
100
AcDbEntity
  8
dxfile
  6
Continuous
 62
     3
100
AcDbText
 10
764.675756
 20
1565.506304
 30
0.0
 40
16.779
  1
８９
 41
0.858268
  7
BIGFONT
100
AcDbText
  0
TEXT
  5
1C0
330
1F
100
AcDbEntity
  8
dxfile
  6
Continuous
 62
     3
100
AcDbText
 10
751.327582
 20
1540.243511
 30
0.0
 40
16.779
  1
１４３
 41
0.858268
  7
BIGFONT
100
AcDbText
  0
TEXT
  5
1C1
330
1F
100
AcDbEntity
  8
dxfile
  6
Continuous
 62
     3
100
AcDbText
 10
711.226661
 20
1619.065716
 30
0.0
 40
16.779
  1

 41
0.858268
  7
BIGFONT
100
AcDbText
  0
LINE
  5
1C2
330
1F
100
AcDbEntity
  8
dxfile
  6
PLine1
 62
     3
100
AcDbLine
 10
740.397006
 20
1445.081282
 30
0.0
 11
755.812281
 21
1436.181269
 31
0.0
  0
LINE
  5
1C3
330
1F
100
AcDbEntity
  8
dxfile
  6
Continuous
 62
     3
100
AcDbLine
 10
470.906061
 20
501.235587
 30
0.0
 11
447.071098
 21
501.235587
 31
0.0
  0
LINE
  5
1C4
330
1F
100
AcDbEntity
  8
dxfile
  6
Continuous
 62
     3
100
AcDbLine
 10
1288.071098
 20
516.257581
 30
0.0
 11
473.978106
 21
516.257581
 31
0.0
  0
LINE
  5
1C5
330
1F
100
AcDbEntity
  8
dxfile
  6
Continuous
 62
     3
100
AcDbLine
 10
464.096616
 20
516.257581
 30
0.0
 11
448.071098
 21
516.257581
 31
0.0
  0
LINE
  5
1C6
330
1F
100
AcDbEntity
  8
dxfile
  6
Continuous
 62
     3
100
AcDbLine
 10
277.454334
 20
494.235587
 30
0.0
 11
277.454334
 21
480.043837
 31
0.0
  0
LINE
  5
1C7
330
1F
100
AcDbEntity
  8
dxfile
  6
Continuous
 62
     2
100
AcDbLine
 10
119.389353
 20
1640.483993
 30
0.0
 11
119.389353
 21
1666.587323
 31
0.0
  0
LINE
  5
1C8
330
1F
100
AcDbEntity
  8
dxfile
  6
Continuous
 62
     2
100
AcDbLine
 10
820.975492
 20
1666.587323
 30
0.0
 11
119.389353
 21
1666.587323
 31
0.0
  0
LINE
  5
1C9
330
1F
100
AcDbEntity
  8
dxfile
  6
Continuous
 62
     2
100
AcDbLine
 10
647.095841
 20
1536.070673
 30
0.0
 11
647.095841
 21
1666.587323
 31
0.0
  0
LINE
  5
1CA
330
1F
100
AcDbEntity
  8
dxfile
  6
Continuous
 62
     3
100
AcDbLine
 10
806.39161
 20
1015.810832
 30
0.0
 11
815.960106
 21
1015.810832
 31
0.0
  0
LINE
  5
1CB
330
1F
100
AcDbEntity
  8
dxfile
  6
Continuous
 62
     3
100
AcDbLine
 10
815.960106
 20
1015.810832
 30
0.0
 11
815.960106
 21
1025.379328
 31
0.0
  0
LINE
  5
1CC
330
1F
100
AcDbEntity
  8
dxfile
  6
Continuous
 62
     3
100
AcDbLine
 10
815.960106
 20
1025.379328
 30
0.0
 11
806.39161
 21
1025.379328
 31
0.0
  0
LINE
  5
1CD
330
1F
100
AcDbEntity
  8
dxfile
  6
Continuous
 62
     3
100
AcDbLine
 10
806.39161
 20
1025.379328
 30
0.0
 11
806.39161
 21
1015.810832
 31
0.0
  0
LINE
  5
1CE
330
1F
100
AcDbEntity
  8
dxfile
  6
Continuous
 62
     1
100
AcDbLine
 10
1581.028034
 20
52.300062
 30
0.0
 11
1941.028034
 21
52.300062
 31
0.0
  0
LINE
  5
1CF
330
1F
100
AcDbEntity
  8
dxfile
  6
Continuous
 62
     3
100
AcDbLine
 10
2120.972256
 20
172.300062
 30
0.0
 11
2120.972256
 21
52.300062
 31
0.0
  0
LINE
  5
1D0
330
1F
100
AcDbEntity
  8
dxfile
  6
Continuous
 62
     3
100
AcDbLine
 10
2060.972256
 20
172.300062
 30
0.0
 11
2060.972256
 21
52.300062
 31
0.0
  0
LINE
  5
1D1
330
1F
100
AcDbEntity
  8
dxfile
  6
Continuous
 62
     3
100
AcDbLine
 10
2000.972256
 20
172.300062
 30
0.0
 11
2000.972256
 21
52.300062
 31
0.0
  0
LINE
  5
1D2
330
1F
100
AcDbEntity
  8
dxfile
  6
Continuous
 62
     3
100
AcDbLine
 10
1940.972256
 20
172.300062
 30
0.0
 11
1940.972256
 21
52.300062
 31
0.0
  0
LINE
  5
1D3
330
1F
100
AcDbEntity
  8
dxfile
  6
Continuous
 62
     1
100
AcDbLine
 10
1568.972256
 20
172.300062
 30
0.0
 11
1568.972256
 21
52.300062
 31
0.0
  0
LINE
  5
1D4
330
1F
100
AcDbEntity
  8
dxfile
  6
Continuous
 62
     1
100
AcDbLine
 10
1568.972256
 20
52.300062
 30
0.0
 11
2462.760075
 21
52.300062
 31
0.0
  0
LINE
  5
1D5
330
1F
100
AcDbEntity
  8
dxfile
  6
Continuous
 62
     1
100
AcDbLine
 10
2462.760075
 20
52.300062
 30
0.0
 11
2462.760075
 21
172.300062
 31
0.0
  0
LINE
  5
1D6
330
1F
100
AcDbEntity
  8
dxfile
  6
Continuous
 62
     1
100
AcDbLine
 10
2462.760075
 20
172.300062
 30
0.0
 11
1568.972256
 21
172.300062
 31
0.0
  0
LINE
  5
1D7
330
1F
100
AcDbEntity
  8
dxfile
  6
Continuous
 62
     2
100
AcDbLine
 10
1612.119574
 20
138.803006
 30
0.0
 11
1623.191762
 21
149.875194
 31
0.0
  0
LINE
  5
1D8
330
1F
100
AcDbEntity
  8
dxfile
  6
Continuous
 62
     2
100
AcDbLine
 10
1612.119574
 20
123.144568
 30
0.0
 11
1612.119574
 21
138.803006
 31
0.0
  0
LINE
  5
1D9
330
1F
100
AcDbEntity
  8
dxfile
  6
Continuous
 62
     2
100
AcDbLine
 10
1609.719574
 20
138.803006
 30
0.0
 11
1609.719574
 21
123.144568
 31
0.0
  0
LINE
  5
1DA
330
1F
100
AcDbEntity
  8
dxfile
  6
Continuous
 62
     2
100
AcDbLine
 10
1598.647386
 20
149.875194
 30
0.0
 11
1609.719574
 21
138.803006
 31
0.0
  0
LINE
  5
1DB
330
1F
100
AcDbEntity
  8
dxfile
  6
Continuous
 62
     2
100
AcDbLine
 10
1634.919574
 20
139.300062
 30
0.0
 11
1630.683177
 21
138.100062
 31
0.0
  0
LINE
  5
1DC
330
1F
100
AcDbEntity
  8
dxfile
  6
Continuous
 62
     2
100
AcDbLine
 10
1634.919574
 20
139.300062
 30
0.0
 11
1630.719574
 21
139.300062
 31
0.0
  0
LINE
  5
1DD
330
1F
100
AcDbEntity
  8
dxfile
  6
Continuous
 62
     2
100
AcDbLine
 10
1630.683177
 20
140.500062
 30
0.0
 11
1634.919574
 21
139.300062
 31
0.0
  0
LINE
  5
1DE
330
1F
100
AcDbEntity
  8
dxfile
  6
Continuous
 62
     2
100
AcDbLine
 10
1610.919574
 20
115.300062
 30
0.0
 11
1610.919574
 21
119.500062
 31
0.0
  0
LINE
  5
1DF
330
1F
100
AcDbEntity
  8
dxfile
  6
Continuous
 62
     2
100
AcDbLine
 10
1610.919574
 20
115.300062
 30
0.0
 11
1612.119574
 21
119.536459
 31
0.0
  0
LINE
  5
1E0
330
1F
100
AcDbEntity
  8
dxfile
  6
Continuous
 62
     2
100
AcDbLine
 10
1610.919574
 20
115.300062
 30
0.0
 11
1609.719574
 21
119.536459
 31
0.0
  0
LINE
  5
1E1
330
1F
100
AcDbEntity
  8
dxfile
  6
Continuous
 62
     2
100
AcDbLine
 10
1586.919574
 20
139.300062
 30
0.0
 11
1591.155971
 21
138.100062
 31
0.0
  0
LINE
  5
1E2
330
1F
100
AcDbEntity
  8
dxfile
  6
Continuous
 62
     2
100
AcDbLine
 10
1586.919574
 20
139.300062
 30
0.0
 11
1591.119574
 21
139.300062
 31
0.0
  0
LINE
  5
1E3
330
1F
100
AcDbEntity
  8
dxfile
  6
Continuous
 62
     2
100
AcDbLine
 10
1586.919574
 20
139.300062
 30
0.0
 11
1591.155971
 21
140.500062
 31
0.0
  0
LINE
  5
1E4
330
1F
100
AcDbEntity
  8
dxfile
  6
Continuous
 62
     2
100
AcDbLine
 10
1610.919574
 20
163.300062
 30
0.0
 11
1612.119574
 21
159.063665
 31
0.0
  0
LINE
  5
1E5
330
1F
100
AcDbEntity
  8
dxfile
  6
Continuous
 62
     2
100
AcDbLine
 10
1610.919574
 20
163.300062
 30
0.0
 11
1609.719574
 21
159.063665
 31
0.0
  0
LINE
  5
1E6
330
1F
100
AcDbEntity
  8
dxfile
  6
Continuous
 62
     2
100
AcDbLine
 10
1610.919574
 20
163.300062
 30
0.0
 11
1610.919574
 21
159.100062
 31
0.0
  0
LINE
  5
1E7
330
1F
100
AcDbEntity
  8
dxfile
  6
Continuous
 62
     2
100
AcDbLine
 10
1610.919574
 20
140.997119
 30
0.0
 11
1600.344442
 21
151.57225
 31
0.0
  0
LINE
  5
1E8
330
1F
100
AcDbEntity
  8
dxfile
  6
Continuous
 62
     2
100
AcDbLine
 10
1621.494705
 20
151.57225
 30
0.0
 11
1610.919574
 21
140.997119
 31
0.0
  0
LINE
  5
1E9
330
1F
100
AcDbEntity
  8
dxfile
  6
Continuous
 62
     2
100
AcDbLine
 10
1610.919574
 20
139.300062
 30
0.0
 11
1622.374704
 21
150.755192
 31
0.0
  0
LINE
  5
1EA
330
1F
100
AcDbEntity
  8
dxfile
  6
Continuous
 62
     2
100
AcDbLine
 10
1610.919574
 20
139.300062
 30
0.0
 11
1610.919574
 21
123.100062
 31
0.0
  0
LINE
  5
1EB
330
1F
100
AcDbEntity
  8
dxfile
  6
Continuous
 62
     2
100
AcDbLine
 10
1599.464444
 20
150.755192
 30
0.0
 11
1610.919574
 21
139.300062
 31
0.0
  0
ARC
  5
1EC
330
1F
100
AcDbEntity
  8
dxfile
  6
Continuous
 62
     2
100
AcDbCircle
 10
1610.919574
 20
139.300062
 30
0.0
 40
13.7999999999675
100
AcDbArc
 50
62.718932
 51
117.281068
  0
ARC
  5
1ED
330
1F
100
AcDbEntity
  8
dxfile
  6
Continuous
 62
     2
100
AcDbCircle
 10
1610.919574
 20
139.300062
 30
0.0
 40
16.20000000003378
100
AcDbArc
 50
60.026114
 51
119.973886
  0
ARC
  5
1EE
330
1F
100
AcDbEntity
  8
dxfile
  6
Continuous
 62
     2
100
AcDbCircle
 10
1610.919574
 20
139.300062
 30
0.0
 40
16.20000000003327
100
AcDbArc
 50
285.026114
 51
29.973886
  0
ARC
  5
1EF
330
1F
100
AcDbEntity
  8
dxfile
  6
Continuous
 62
     2
100
AcDbCircle
 10
1610.919574
 20
139.300062
 30
0.0
 40
13.79999999999529
100
AcDbArc
 50
287.718932
 51
27.281068
  0
ARC
  5
1F0
330
1F
100
AcDbEntity
  8
dxfile
  6
Continuous
 62
     2
100
AcDbCircle
 10
1610.919574
 20
139.300062
 30
0.0
 40
13.79999999999453
100
AcDbArc
 50
152.718932
 51
252.281068
  0
ARC
  5
1F1
330
1F
100
AcDbEntity
  8
dxfile
  6
Continuous
 62
     2
100
AcDbCircle
 10
1610.919574
 20
139.300062
 30
0.0
 40
16.20000000001588
100
AcDbArc
 50
150.026114
 51
254.973886
  0
CIRCLE
  5
1F2
330
1F
100
AcDbEntity
  8
dxfile
  6
Continuous
 62
     2
100
AcDbCircle
 10
1610.919574
 20
139.300062
 30
0.0
 40
19.80000000000007
  0
CIRCLE
  5
1F3
330
1F
100
AcDbEntity
  8
dxfile
  6
Continuous
 62
     2
100
AcDbCircle
 10
1610.919574
 20
139.300062
 30
0.0
 40
22.19999999999993
  0
TEXT
  5
1F4
330
1F
100
AcDbEntity
  8
dxfile
  6
Continuous
 62
     3
100
AcDbText
 10
1651.341189
 20
64.105044
 30
0.0
 40
18.0
  1
電話　０３－３６８５－３４５１（代）
 41
0.858268
  7
BIGFONT
100
AcDbText
  0
TEXT
  5
1F5
330
1F
100
AcDbEntity
  8
dxfile
  6
Continuous
 62
     3
100
AcDbText
 10
1652.124333
 20
88.70655
 30
0.0
 40
18.0
  1
本社　東京都江東区亀戸６－２０－７
 41
0.858268
  7
BIGFONT
100
AcDbText
  0
ARC
  5
1F6
330
1F
100
AcDbEntity
  8
dxfile
  6
Continuous
 62
     2
100
AcDbCircle
 10
1610.919574
 20
139.300062
 30
0.0
 40
15.00000000000333
100
AcDbArc
 50
151.260205
 51
253.739795
  0
ARC
  5
1F7
330
1F
100
AcDbEntity
  8
dxfile
  6
Continuous
 62
     2
100
AcDbCircle
 10
1610.919574
 20
139.300062
 30
0.0
 40
14.99999999997434
100
AcDbArc
 50
286.260205
 51
28.739795
  0
ARC
  5
1F8
330
1F
100
AcDbEntity
  8
dxfile
  6
Continuous
 62
     2
100
AcDbCircle
 10
1610.919574
 20
139.300062
 30
0.0
 40
14.99999999996777
100
AcDbArc
 50
61.260205
 51
118.739795
  0
CIRCLE
  5
1F9
330
1F
100
AcDbEntity
  8
dxfile
  6
Continuous
 62
     2
100
AcDbCircle
 10
1610.919574
 20
139.300062
 30
0.0
 40
21.0
  0
TEXT
  5
1FA
330
1F
100
AcDbEntity
  8
dxfile
  6
Continuous
 62
     1
100
AcDbText
 10
1648.590033
 20
118.315986
 30
0.0
 40
42.0
  1
三洋工業株式会社
 41
0.858268
  7
BIGFONT
100
AcDbText
  0
TEXT
  5
1FB
330
1F
100
AcDbEntity
  8
dxfile
  6
Continuous
 62
     2
100
AcDbText
 10
2016.976629
 20
119.962836
 30
0.0
 40
18.0
  1
ｍｍ
 41
0.858268
  7
BIGFONT
100
AcDbText
  0
TEXT
  5
1FC
330
1F
100
AcDbEntity
  8
dxfile
  6
Continuous
 62
     2
100
AcDbText
 10
2091.667197
 20
97.819158
 30
0.0
 40
18.0
  1
図番
 41
0.858268
  7
BIG VER
100
AcDbText
  0
TEXT
  5
1FD
330
1F
100
AcDbEntity
  8
dxfile
  6
Continuous
 62
     2
100
AcDbText
 10
2091.667197
 20
160.060734
 30
0.0
 40
18.0
  1
形名
 41
0.858268
  7
BIG VER
100
AcDbText
  0
TEXT
  5
1FE
330
1F
100
AcDbEntity
  8
dxfile
  6
Continuous
 62
     2
100
AcDbText
 10
1971.900706
 20
100.450965
 30
0.0
 40
18.0
  1
製図
 41
0.858268
  7
BIG VER
100
AcDbText
  0
TEXT
  5
1FF
330
1F
100
AcDbEntity
  8
dxfile
  6
Continuous
 62
     2
100
AcDbText
 10
1971.900706
 20
160.099215
 30
0.0
 40
18.0
  1
単位
 41
0.858268
  7
BIG VER
100
AcDbText
  0
LINE
  5
200
330
1F
100
AcDbEntity
  8
dxfile
  6
Continuous
 62
     3
100
AcDbLine
 10
1940.972256
 20
112.300062
 30
0.0
 11
2462.760075
 21
112.300062
 31
0.0
  0
TEXT
  5
201
330
1F
100
AcDbEntity
  8
dxfile
  6
Continuous
 62
     2
100
AcDbText
 10
2184.14596
 20
143.724084
 30
0.0
 40
24.0
  1
ライトモニック
 41
0.858268
  7
BIGFONT
100
AcDbText
  0
TEXT
  5
202
330
1F
100
AcDbEntity
  8
dxfile
  6
Continuous
 62
     2
100
AcDbText
 10
2184.555222
 20
70.781613
 30
0.0
 40
24.0
  1
Ｈ－１２－ＬＭ－７１
 41
0.858268
  7
BIGFONT
100
AcDbText
  0
LINE
  5
203
330
1F
100
AcDbEntity
  8
dxfile
  6
Continuous
 62
     3
100
AcDbLine
 10
399.571098
 20
652.493376
 30
0.0
 11
382.070498
 21
642.507414
 31
0.0
  0
LINE
  5
204
330
1F
100
AcDbEntity
  8
dxfile
  6
Continuous
 62
     3
100
AcDbLine
 10
382.071098
 20
642.507756
 30
0.0
 11
382.071098
 21
572.735587
 31
0.0
  0
LINE
  5
205
330
1F
100
AcDbEntity
  8
dxfile
  6
Continuous
 62
     3
100
AcDbLine
 10
383.409668
 20
672.350756
 30
0.0
 11
392.65915
 21
682.962394
 31
0.0
  0
ARC
  5
206
330
1F
100
AcDbEntity
  8
dxfile
  6
Continuous
 62
     3
100
AcDbCircle
 10
384.547968
 20
671.373886
 30
0.0
 40
1.499999999999999
100
AcDbArc
 50
139.364342
 51
319.364342
  0
LINE
  5
207
330
1F
100
AcDbEntity
  8
dxfile
  6
Continuous
 62
     3
100
AcDbLine
 10
385.671165
 20
670.379555
 30
0.0
 11
393.063433
 21
678.860471
 31
0.0
  0
ARC
  5
208
330
1F
100
AcDbEntity
  8
dxfile
  6
Continuous
 62
     3
100
AcDbCircle
 10
395.585671
 20
680.235587
 30
0.0
 40
4.0
100
AcDbArc
 50
4.892331
 51
140.823642
  0
INSERT
  5
212
330
1F
100
AcDbEntity
  8
dxfile
  6
Continuous
 62
     3
100
AcDbBlockReference
  2
DIM_1
 10
338.012491
 20
684.235587
 30
0.0
  0
LINE
  5
213
330
1F
100
AcDbEntity
  8
dxfile
  6
Continuous
 62
     3
100
AcDbLine
 10
270.471098
 20
519.235587
 30
0.0
 11
271.071098
 21
518.635587
 31
0.0
  0
LINE
  5
214
330
1F
100
AcDbEntity
  8
dxfile
  6
Continuous
 62
     3
100
AcDbLine
 10
1351.071098
 20
568.235587
 30
0.0
 11
1351.071098
 21
519.235587
 31
0.0
  0
ARC
  5
215
330
1F
100
AcDbEntity
  8
dxfile
  6
Continuous
 62
     3
100
AcDbCircle
 10
1350.071098
 20
568.235587
 30
0.0
 40
0.9999996
100
AcDbArc
 50
0.0
 51
90.0
  0
LINE
  5
216
330
1F
100
AcDbEntity
  8
dxfile
  6
Continuous
 62
     3
100
AcDbLine
 10
1301.071098
 20
568.235587
 30
0.0
 11
1301.071098
 21
503.557586
 31
0.0
  0
LINE
  5
217
330
1F
100
AcDbEntity
  8
dxfile
  6
Continuous
 62
     3
100
AcDbLine
 10
1357.071098
 20
545.726308
 30
0.0
 11
1357.071098
 21
523.635587
 31
0.0
  0
ARC
  5
218
330
1F
100
AcDbEntity
  8
dxfile
  6
Continuous
 62
     3
100
AcDbCircle
 10
1467.071098
 20
497.235587
 30
0.0
 40
1.0
100
AcDbArc
 50
270.0
 51
0.0
  0
LINE
  5
219
330
1F
100
AcDbEntity
  8
dxfile
  6
Continuous
 62
     3
100
AcDbLine
 10
1467.071098
 20
496.235587
 30
0.0
 11
1460.687861
 21
496.235587
 31
0.0
  0
ARC
  5
21A
330
1F
100
AcDbEntity
  8
dxfile
  6
Continuous
 62
     3
100
AcDbCircle
 10
1460.687861
 20
494.235587
 30
0.0
 40
2.0
100
AcDbArc
 50
90.0
 51
180.0
  0
LINE
  5
21B
330
1F
100
AcDbEntity
  8
dxfile
  6
Continuous
 62
     3
100
AcDbLine
 10
1455.571098
 20
495.229202
 30
0.0
 11
1455.571098
 21
487.235587
 31
0.0
  0
ARC
  5
21C
330
1F
100
AcDbEntity
  8
dxfile
  6
Continuous
 62
     3
100
AcDbCircle
 10
1355.071098
 20
643.088493
 30
0.0
 40
2.0
100
AcDbArc
 50
0.0
 51
60.290621
  0
LINE
  5
21D
330
1F
100
AcDbEntity
  8
dxfile
  6
Continuous
 62
     3
100
AcDbLine
 10
1357.071098
 20
643.088493
 30
0.0
 11
1357.071098
 21
552.63919
 31
0.0
  0
LINE
  5
21E
330
1F
100
AcDbEntity
  8
dxfile
  6
Continuous
 62
     3
100
AcDbLine
 10
1345.821098
 20
572.735587
 30
0.0
 11
1354.071098
 21
572.735587
 31
0.0
  0
ARC
  5
21F
330
1F
100
AcDbEntity
  8
dxfile
  6
Continuous
 62
     3
100
AcDbCircle
 10
1436.329037
 20
532.938534
 30
0.0
 40
0.4
100
AcDbArc
 50
344.998601
 51
80.788973
  0
LINE
  5
220
330
1F
100
AcDbEntity
  8
dxfile
  6
Continuous
 62
     3
100
AcDbLine
 10
1433.206033
 20
519.739124
 30
0.0
 11
1436.715405
 21
532.834997
 31
0.0
  0
ARC
  5
221
330
1F
100
AcDbEntity
  8
dxfile
  6
Continuous
 62
     3
100
AcDbCircle
 10
1437.770028
 20
523.635587
 30
0.0
 40
0.4
100
AcDbArc
 50
164.997259
 51
270.0
  0
LINE
  5
222
330
1F
100
AcDbEntity
  8
dxfile
  6
Continuous
 62
     3
100
AcDbLine
 10
1449.085327
 20
523.235587
 30
0.0
 11
1437.770028
 21
523.235587
 31
0.0
  0
ARC
  5
223
330
1F
100
AcDbEntity
  8
dxfile
  6
Continuous
 62
     3
100
AcDbCircle
 10
1433.592401
 20
519.635587
 30
0.0
 40
0.4
100
AcDbArc
 50
164.998601
 51
270.0
  0
LINE
  5
224
330
1F
100
AcDbEntity
  8
dxfile
  6
Continuous
 62
     3
100
AcDbLine
 10
1449.079327
 20
519.235587
 30
0.0
 11
1433.592401
 21
519.235587
 31
0.0
  0
ARC
  5
225
330
1F
100
AcDbEntity
  8
dxfile
  6
Continuous
 62
     3
100
AcDbCircle
 10
1357.471098
 20
523.635587
 30
0.0
 40
0.4
100
AcDbArc
 50
180.0
 51
270.0
  0
LINE
  5
226
330
1F
100
AcDbEntity
  8
dxfile
  6
Continuous
 62
     3
100
AcDbLine
 10
1370.071098
 20
523.235587
 30
0.0
 11
1357.471098
 21
523.235587
 31
0.0
  0
ARC
  5
227
330
1F
100
AcDbEntity
  8
dxfile
  6
Continuous
 62
     3
100
AcDbCircle
 10
1354.471098
 20
519.635587
 30
0.0
 40
0.4
100
AcDbArc
 50
180.0
 51
270.0
  0
LINE
  5
228
330
1F
100
AcDbEntity
  8
dxfile
  6
Continuous
 62
     3
100
AcDbLine
 10
1370.071098
 20
519.235587
 30
0.0
 11
1354.471098
 21
519.235587
 31
0.0
  0
LINE
  5
229
330
1F
100
AcDbEntity
  8
dxfile
  6
Continuous
 62
     3
100
AcDbLine
 10
1437.383663
 20
523.739133
 30
0.0
 11
1439.713
 21
532.430675
 31
0.0
  0
ARC
  5
22A
330
1F
100
AcDbEntity
  8
dxfile
  6
Continuous
 62
     3
100
AcDbCircle
 10
1449.073327
 20
521.244586
 30
0.0
 40
1.9999992
100
AcDbArc
 50
0.0
 51
90.0
  0
ARC
  5
22B
330
1F
100
AcDbEntity
  8
dxfile
  6
Continuous
 62
     3
100
AcDbCircle
 10
1449.073327
 20
521.244586
 30
0.0
 40
1.9999992
100
AcDbArc
 50
270.0
 51
0.0
  0
ARC
  5
22C
330
1F
100
AcDbEntity
  8
dxfile
  6
Continuous
 62
     3
100
AcDbCircle
 10
1458.387861
 20
484.541812
 30
0.0
 40
0.3
100
AcDbArc
 50
266.108615
 51
0.0
  0
ARC
  5
22D
330
1F
100
AcDbEntity
  8
dxfile
  6
Continuous
 62
     3
100
AcDbCircle
 10
1458.571098
 20
487.235587
 30
0.0
 40
3.0
100
AcDbArc
 50
180.0
 51
266.108615
  0
LINE
  5
22E
330
1F
100
AcDbEntity
  8
dxfile
  6
Continuous
 62
     3
100
AcDbLine
 10
1461.08086
 20
499.229201
 30
0.0
 11
1459.596861
 21
499.229201
 31
0.0
  0
ARC
  5
22F
330
1F
100
AcDbEntity
  8
dxfile
  6
Continuous
 62
     3
100
AcDbCircle
 10
1467.671098
 20
530.895226
 30
0.0
 40
0.4
100
AcDbArc
 50
0.0
 51
80.788973
  0
LINE
  5
230
330
1F
100
AcDbEntity
  8
dxfile
  6
Continuous
 62
     3
100
AcDbLine
 10
1468.071098
 20
530.895226
 30
0.0
 11
1468.071098
 21
519.535587
 31
0.0
  0
ARC
  5
231
330
1F
100
AcDbEntity
  8
dxfile
  6
Continuous
 62
     3
100
AcDbCircle
 10
1361.071098
 20
552.63919
 30
0.0
 40
4.0
100
AcDbArc
 50
180.0
 51
260.788973
  0
LINE
  5
232
330
1F
100
AcDbEntity
  8
dxfile
  6
Continuous
 62
     3
100
AcDbLine
 10
1360.430813
 20
548.690768
 30
0.0
 11
1467.735126
 21
531.290069
 31
0.0
  0
ARC
  5
233
330
1F
100
AcDbEntity
  8
dxfile
  6
Continuous
 62
     3
100
AcDbCircle
 10
1459.596861
 20
495.229202
 30
0.0
 40
3.9999984
100
AcDbArc
 50
90.0
 51
180.0
  0
ARC
  5
234
330
1F
100
AcDbEntity
  8
dxfile
  6
Continuous
 62
     3
100
AcDbCircle
 10
1461.08086
 20
503.229199
 30
0.0
 40
3.9999984
100
AcDbArc
 50
270.0
 51
0.0
  0
LINE
  5
235
330
1F
100
AcDbEntity
  8
dxfile
  6
Continuous
 62
     3
100
AcDbLine
 10
1467.771098
 20
519.235587
 30
0.0
 11
1468.071098
 21
519.535587
 31
0.0
  0
LINE
  5
236
330
1F
100
AcDbEntity
  8
dxfile
  6
Continuous
 62
     3
100
AcDbLine
 10
1467.771098
 20
519.235587
 30
0.0
 11
1468.071098
 21
518.935587
 31
0.0
  0
LINE
  5
237
330
1F
100
AcDbEntity
  8
dxfile
  6
Continuous
 62
     3
100
AcDbLine
 10
1468.071098
 20
497.235587
 30
0.0
 11
1468.071098
 21
518.935587
 31
0.0
  0
LINE
  5
238
330
1F
100
AcDbEntity
  8
dxfile
  6
Continuous
 62
     3
100
AcDbLine
 10
1339.571098
 20
654.235587
 30
0.0
 11
1356.062299
 21
644.825593
 31
0.0
  0
ARC
  5
239
330
1F
100
AcDbEntity
  8
dxfile
  6
Continuous
 62
     3
100
AcDbCircle
 10
1302.071098
 20
568.235587
 30
0.0
 40
1.0
100
AcDbArc
 50
90.0
 51
180.0
  0
LINE
  5
23A
330
1F
100
AcDbEntity
  8
dxfile
  6
Continuous
 62
     3
100
AcDbLine
 10
1290.339097
 20
516.257581
 30
0.0
 11
1288.066098
 21
516.257581
 31
0.0
  0
LINE
  5
23B
330
1F
100
AcDbEntity
  8
dxfile
  6
Continuous
 62
     3
100
AcDbLine
 10
1290.381097
 20
503.557586
 30
0.0
 11
1301.071098
 21
503.557586
 31
0.0
  0
LINE
  5
23C
330
1F
100
AcDbEntity
  8
dxfile
  6
Continuous
 62
     3
100
AcDbLine
 10
1348.771099
 20
517.935587
 30
0.0
 11
1348.771099
 21
566.935587
 31
0.0
  0
LINE
  5
23D
330
1F
100
AcDbEntity
  8
dxfile
  6
Continuous
 62
     3
100
AcDbLine
 10
1453.071098
 20
484.235587
 30
0.0
 11
1450.771098
 21
484.235587
 31
0.0
  0
ARC
  5
23E
330
1F
100
AcDbEntity
  8
dxfile
  6
Continuous
 62
     3
100
AcDbCircle
 10
1341.571098
 20
677.546337
 30
0.0
 40
2.0
100
AcDbArc
 50
41.076567
 51
180.0
  0
LINE
  5
23F
330
1F
100
AcDbEntity
  8
dxfile
  6
Continuous
 62
     3
100
AcDbLine
 10
1339.571098
 20
654.235587
 30
0.0
 11
1339.571098
 21
677.546337
 31
0.0
  0
LINE
  5
240
330
1F
100
AcDbEntity
  8
dxfile
  6
Continuous
 62
     3
100
AcDbLine
 10
1336.571098
 20
680.576721
 30
0.0
 11
1336.571098
 21
652.263139
 31
0.0
  0
LINE
  5
241
330
1F
100
AcDbEntity
  8
dxfile
  6
Continuous
 62
     3
100
AcDbLine
 10
1354.071098
 20
519.635587
 30
0.0
 11
1354.071098
 21
569.235587
 31
0.0
  0
LINE
  5
242
330
1F
100
AcDbEntity
  8
dxfile
  6
Continuous
 62
     3
100
AcDbLine
 10
1303.371098
 20
502.235587
 30
0.0
 11
1303.371098
 21
566.935587
 31
0.0
  0
LINE
  5
243
330
1F
100
AcDbEntity
  8
dxfile
  6
Continuous
 62
     3
100
AcDbLine
 10
1348.771099
 20
566.935587
 30
0.0
 11
1303.371098
 21
566.935587
 31
0.0
  0
LINE
  5
244
330
1F
100
AcDbEntity
  8
dxfile
  6
Continuous
 62
     3
100
AcDbLine
 10
1345.821098
 20
569.235587
 30
0.0
 11
1354.071098
 21
569.235587
 31
0.0
  0
ARC
  5
245
330
1F
100
AcDbEntity
  8
dxfile
  6
Continuous
 62
     3
100
AcDbCircle
 10
1349.771099
 20
517.935587
 30
0.0
 40
1.0
100
AcDbArc
 50
180.0
 51
270.0
  0
LINE
  5
246
330
1F
100
AcDbEntity
  8
dxfile
  6
Continuous
 62
     3
100
AcDbLine
 10
1290.381097
 20
516.252581
 30
0.0
 11
1290.381097
 21
503.557586
 31
0.0
  0
LINE
  5
247
330
1F
100
AcDbEntity
  8
dxfile
  6
Continuous
 62
     3
100
AcDbLine
 10
1288.071098
 20
516.252581
 30
0.0
 11
1288.071098
 21
516.168581
 31
0.0
  0
LINE
  5
248
330
1F
100
AcDbEntity
  8
dxfile
  6
Continuous
 62
     3
100
AcDbLine
 10
1450.771098
 20
516.935587
 30
0.0
 11
1349.771099
 21
516.935587
 31
0.0
  0
LINE
  5
249
330
1F
100
AcDbEntity
  8
dxfile
  6
Continuous
 62
     3
100
AcDbLine
 10
1450.771098
 20
484.235587
 30
0.0
 11
1450.771098
 21
516.935587
 31
0.0
  0
ARC
  5
24A
330
1F
100
AcDbEntity
  8
dxfile
  6
Continuous
 62
     3
100
AcDbCircle
 10
1452.071098
 20
518.235587
 30
0.0
 40
1.0
100
AcDbArc
 50
0.0
 51
90.0
  0
LINE
  5
24B
330
1F
100
AcDbEntity
  8
dxfile
  6
Continuous
 62
     3
100
AcDbLine
 10
1453.071098
 20
484.235587
 30
0.0
 11
1453.071098
 21
518.235587
 31
0.0
  0
LINE
  5
24C
330
1F
100
AcDbEntity
  8
dxfile
  6
Continuous
 62
     3
100
AcDbLine
 10
1288.071098
 20
516.252581
 30
0.0
 11
1288.071098
 21
502.235587
 31
0.0
  0
ARC
  5
24D
330
1F
100
AcDbEntity
  8
dxfile
  6
Continuous
 62
     3
100
AcDbCircle
 10
1302.371098
 20
502.235587
 30
0.0
 40
1.0
100
AcDbArc
 50
270.0
 51
0.0
  0
LINE
  5
24E
330
1F
100
AcDbEntity
  8
dxfile
  6
Continuous
 62
     3
100
AcDbLine
 10
1302.371098
 20
501.235587
 30
0.0
 11
1289.071098
 21
501.235587
 31
0.0
  0
ARC
  5
24F
330
1F
100
AcDbEntity
  8
dxfile
  6
Continuous
 62
     3
100
AcDbCircle
 10
1289.071097
 20
502.235586
 30
0.0
 40
0.9999996
100
AcDbArc
 50
180.0
 51
270.0
  0
LINE
  5
250
330
1F
100
AcDbEntity
  8
dxfile
  6
Continuous
 62
     3
100
AcDbLine
 10
1452.071098
 20
519.235587
 30
0.0
 11
1351.071098
 21
519.235587
 31
0.0
  0
LINE
  5
251
330
1F
100
AcDbEntity
  8
dxfile
  6
Continuous
 62
     3
100
AcDbLine
 10
1345.821098
 20
569.235587
 30
0.0
 11
1302.071098
 21
569.235587
 31
0.0
  0
ARC
  5
252
330
1F
100
AcDbEntity
  8
dxfile
  6
Continuous
 62
     3
100
AcDbCircle
 10
1357.471098
 20
545.726308
 30
0.0
 40
0.4
100
AcDbArc
 50
80.788973
 51
180.0
  0
LINE
  5
253
330
1F
100
AcDbEntity
  8
dxfile
  6
Continuous
 62
     3
100
AcDbLine
 10
1357.535126
 20
546.12115
 30
0.0
 11
1436.393065
 21
533.333376
 31
0.0
  0
ARC
  5
254
330
1F
100
AcDbEntity
  8
dxfile
  6
Continuous
 62
     3
100
AcDbCircle
 10
1440.099366
 20
532.327129
 30
0.0
 40
0.4
100
AcDbArc
 50
80.788973
 51
164.997259
  0
LINE
  5
255
330
1F
100
AcDbEntity
  8
dxfile
  6
Continuous
 62
     3
100
AcDbLine
 10
1465.071098
 20
528.682884
 30
0.0
 11
1440.163394
 21
532.721971
 31
0.0
  0
LINE
  5
256
330
1F
100
AcDbEntity
  8
dxfile
  6
Continuous
 62
     3
100
AcDbLine
 10
1465.071098
 20
528.682884
 30
0.0
 11
1465.071098
 21
519.835587
 31
0.0
  0
LINE
  5
257
330
1F
100
AcDbEntity
  8
dxfile
  6
Continuous
 62
     3
100
AcDbLine
 10
1465.071098
 20
502.949925
 30
0.0
 11
1465.071098
 21
518.635587
 31
0.0
  0
LINE
  5
258
330
1F
100
AcDbEntity
  8
dxfile
  6
Continuous
 62
     3
100
AcDbLine
 10
1465.671098
 20
519.235587
 30
0.0
 11
1465.071098
 21
519.835587
 31
0.0
  0
ARC
  5
259
330
1F
100
AcDbEntity
  8
dxfile
  6
Continuous
 62
     3
100
AcDbCircle
 10
1370.071098
 20
521.235587
 30
0.0
 40
2.000000000000014
100
AcDbArc
 50
270.0
 51
90.0
  0
ARC
  5
25A
330
1F
100
AcDbEntity
  8
dxfile
  6
Continuous
 62
     3
100
AcDbCircle
 10
1345.821098
 20
570.985587
 30
0.0
 40
1.749999999999986
100
AcDbArc
 50
90.0
 51
270.0
  0
LINE
  5
25B
330
1F
100
AcDbEntity
  8
dxfile
  6
Continuous
 62
     4
100
AcDbLine
 10
1382.071098
 20
516.935587
 30
0.0
 11
1368.071098
 21
516.935587
 31
0.0
  0
LINE
  5
25C
330
1F
100
AcDbEntity
  8
dxfile
  6
Continuous
 62
     4
100
AcDbLine
 10
1368.071098
 20
516.935587
 30
0.0
 11
1368.071098
 21
514.635587
 31
0.0
  0
LINE
  5
25D
330
1F
100
AcDbEntity
  8
dxfile
  6
Continuous
 62
     4
100
AcDbLine
 10
1368.071098
 20
514.635587
 30
0.0
 11
1380.771098
 21
514.635587
 31
0.0
  0
LINE
  5
25E
330
1F
100
AcDbEntity
  8
dxfile
  6
Continuous
 62
     4
100
AcDbLine
 10
1380.771098
 20
514.635587
 30
0.0
 11
1380.771098
 21
491.972597
 31
0.0
  0
LINE
  5
25F
330
1F
100
AcDbEntity
  8
dxfile
  6
Continuous
 62
     4
100
AcDbLine
 10
1380.771098
 20
491.972597
 30
0.0
 11
1383.071098
 21
491.972597
 31
0.0
  0
LINE
  5
260
330
1F
100
AcDbEntity
  8
dxfile
  6
Continuous
 62
     4
100
AcDbLine
 10
1383.071098
 20
491.972597
 30
0.0
 11
1383.071098
 21
515.935587
 31
0.0
  0
ARC
  5
261
330
1F
100
AcDbEntity
  8
dxfile
  6
Continuous
 62
     4
100
AcDbCircle
 10
1382.071098
 20
515.935587
 30
0.0
 40
1.0
100
AcDbArc
 50
0.0
 51
90.0
  0
LINE
  5
262
330
1F
100
AcDbEntity
  8
dxfile
  6
Continuous
 62
     3
100
AcDbLine
 10
1458.687861
 20
494.235587
 30
0.0
 11
1458.687861
 21
480.043837
 31
0.0
  0
LINE
  5
263
330
1F
100
AcDbEntity
  8
dxfile
  6
Continuous
 62
     3
100
AcDbLine
 10
1336.571098
 20
652.493376
 30
0.0
 11
1354.071697
 21
642.507414
 31
0.0
  0
LINE
  5
264
330
1F
100
AcDbEntity
  8
dxfile
  6
Continuous
 62
     3
100
AcDbLine
 10
1354.071098
 20
642.507756
 30
0.0
 11
1354.071098
 21
572.735587
 31
0.0
  0
LINE
  5
265
330
1F
100
AcDbEntity
  8
dxfile
  6
Continuous
 62
     3
100
AcDbLine
 10
1352.732527
 20
672.350756
 30
0.0
 11
1343.483045
 21
682.962394
 31
0.0
  0
ARC
  5
266
330
1F
100
AcDbEntity
  8
dxfile
  6
Continuous
 62
     3
100
AcDbCircle
 10
1351.594228
 20
671.373886
 30
0.0
 40
1.499999999999999
100
AcDbArc
 50
220.635658
 51
40.635658
  0
LINE
  5
267
330
1F
100
AcDbEntity
  8
dxfile
  6
Continuous
 62
     3
100
AcDbLine
 10
1350.47103
 20
670.379555
 30
0.0
 11
1343.078762
 21
678.860471
 31
0.0
  0
ARC
  5
268
330
1F
100
AcDbEntity
  8
dxfile
  6
Continuous
 62
     3
100
AcDbCircle
 10
1340.556525
 20
680.235587
 30
0.0
 40
4.0
100
AcDbArc
 50
39.176358
 51
175.107669
  0
LINE
  5
269
330
1F
100
AcDbEntity
  8
dxfile
  6
Continuous
 62
     3
100
AcDbLine
 10
1465.671098
 20
519.235587
 30
0.0
 11
1465.071098
 21
518.635587
 31
0.0
  0
LINE
  5
26A
330
1F
100
AcDbEntity
  8
dxfile
  6
Continuous
 62
     3
100
AcDbLine
 10
1281.271098
 20
727.072478
 30
0.0
 11
1366.471098
 21
727.072478
 31
0.0
  0
ARC
  5
26B
330
1F
100
AcDbEntity
  8
dxfile
  6
Continuous
 62
     3
100
AcDbCircle
 10
1367.271098
 20
727.882211
 30
0.0
 40
0.8
100
AcDbArc
 50
0.0
 51
90.0
  0
LINE
  5
26C
330
1F
100
AcDbEntity
  8
dxfile
  6
Continuous
 62
     3
100
AcDbLine
 10
1368.071098
 20
663.682211
 30
0.0
 11
1368.071098
 21
727.882211
 31
0.0
  0
LINE
  5
26D
330
1F
100
AcDbEntity
  8
dxfile
  6
Continuous
 62
     3
100
AcDbLine
 10
1366.471098
 20
663.682211
 30
0.0
 11
1366.471098
 21
727.072478
 31
0.0
  0
LINE
  5
26E
330
1F
100
AcDbEntity
  8
dxfile
  6
Continuous
 62
     3
100
AcDbLine
 10
1364.871098
 20
727.072478
 30
0.0
 11
1364.871098
 21
700.285255
 31
0.0
  0
ARC
  5
26F
330
1F
100
AcDbEntity
  8
dxfile
  6
Continuous
 62
     3
100
AcDbCircle
 10
1365.671098
 20
699.476291
 30
0.0
 40
0.8
100
AcDbArc
 50
269.993634
 51
0.0
  0
ARC
  5
270
330
1F
100
AcDbEntity
  8
dxfile
  6
Continuous
 62
     3
100
AcDbCircle
 10
1278.871098
 20
699.485935
 30
0.0
 40
0.8
100
AcDbArc
 50
180.0
 51
269.993634
  0
LINE
  5
271
330
1F
100
AcDbEntity
  8
dxfile
  6
Continuous
 62
     3
100
AcDbLine
 10
1278.071098
 20
728.686024
 30
0.0
 11
1278.071098
 21
699.485935
 31
0.0
  0
ARC
  5
272
330
1F
100
AcDbEntity
  8
dxfile
  6
Continuous
 62
     3
100
AcDbCircle
 10
1280.471098
 20
727.882211
 30
0.0
 40
0.8
100
AcDbArc
 50
90.0
 51
180.0
  0
LINE
  5
273
330
1F
100
AcDbEntity
  8
dxfile
  6
Continuous
 62
     3
100
AcDbLine
 10
1279.671098
 20
728.682211
 30
0.0
 11
1279.671098
 21
700.284237
 31
0.0
  0
LINE
  5
274
330
1F
100
AcDbEntity
  8
dxfile
  6
Continuous
 62
     3
100
AcDbLine
 10
1281.271098
 20
700.285669
 30
0.0
 11
1281.271098
 21
727.072478
 31
0.0
  0
ARC
  5
275
330
1F
100
AcDbEntity
  8
dxfile
  6
Continuous
 62
     3
100
AcDbCircle
 10
1302.071098
 20
729.682211
 30
0.0
 40
1.0
100
AcDbArc
 50
180.0
 51
270.0
  0
LINE
  5
276
330
1F
100
AcDbEntity
  8
dxfile
  6
Continuous
 62
     3
100
AcDbLine
 10
1278.071098
 20
698.682211
 30
0.0
 11
1365.739047
 21
698.682211
 31
0.0
  0
LINE
  5
277
330
1F
100
AcDbEntity
  8
dxfile
  6
Continuous
 62
     3
100
AcDbLine
 10
1364.871098
 20
700.282211
 30
0.0
 11
1279.671098
 21
700.282211
 31
0.0
  0
LINE
  5
278
330
1F
100
AcDbEntity
  8
dxfile
  6
Continuous
 62
     6
100
AcDbLine
 10
1299.697272
 20
729.726304
 30
0.0
 11
1296.755099
 21
732.668476
 31
0.0
  0
LINE
  5
279
330
1F
100
AcDbEntity
  8
dxfile
  6
Continuous
 62
     6
100
AcDbLine
 10
1296.745366
 20
728.682211
 30
0.0
 11
1292.759101
 21
732.668476
 31
0.0
  0
LINE
  5
27A
330
1F
100
AcDbEntity
  8
dxfile
  6
Continuous
 62
     6
100
AcDbLine
 10
1292.533367
 20
728.682211
 30
0.0
 11
1288.547103
 21
732.668476
 31
0.0
  0
LINE
  5
27B
330
1F
100
AcDbEntity
  8
dxfile
  6
Continuous
 62
     6
100
AcDbLine
 10
1288.285369
 20
728.682211
 30
0.0
 11
1284.299104
 21
732.668476
 31
0.0
  0
LINE
  5
27C
330
1F
100
AcDbEntity
  8
dxfile
  6
Continuous
 62
     6
100
AcDbLine
 10
1281.071098
 20
731.144485
 30
0.0
 11
1283.533371
 21
728.682211
 31
0.0
  0
LINE
  5
27D
330
1F
100
AcDbEntity
  8
dxfile
  6
Continuous
 62
     6
100
AcDbLine
 10
1299.697272
 20
732.682211
 30
0.0
 11
1281.071098
 21
732.682211
 31
0.0
  0
LINE
  5
27E
330
1F
100
AcDbEntity
  8
dxfile
  6
Continuous
 62
     6
100
AcDbLine
 10
1281.071098
 20
732.682211
 30
0.0
 11
1281.071098
 21
728.682211
 31
0.0
  0
LINE
  5
27F
330
1F
100
AcDbEntity
  8
dxfile
  6
Continuous
 62
     6
100
AcDbLine
 10
1299.697272
 20
728.682211
 30
0.0
 11
1299.697272
 21
732.682211
 31
0.0
  0
LINE
  5
280
330
1F
100
AcDbEntity
  8
dxfile
  6
Continuous
 62
     2
100
AcDbLine
 10
731.877152
 20
1536.070673
 30
0.0
 11
731.877152
 21
1666.587323
 31
0.0
  0
ARC
  5
281
330
1F
100
AcDbEntity
  8
dxfile
  6
Continuous
 62
     3
100
AcDbCircle
 10
1302.071098
 20
753.682211
 30
0.0
 40
1.0
100
AcDbArc
 50
0.0
 51
90.0
  0
LINE
  5
282
330
1F
100
AcDbEntity
  8
dxfile
  6
Continuous
 62
     3
100
AcDbLine
 10
1303.071098
 20
730.682211
 30
0.0
 11
1303.071098
 21
753.682211
 31
0.0
  0
LINE
  5
283
330
1F
100
AcDbEntity
  8
dxfile
  6
Continuous
 62
     3
100
AcDbLine
 10
1273.071098
 20
754.682211
 30
0.0
 11
1302.071098
 21
754.682211
 31
0.0
  0
LINE
  5
284
330
1F
100
AcDbEntity
  8
dxfile
  6
Continuous
 62
     3
100
AcDbLine
 10
1273.071098
 20
754.682211
 30
0.0
 11
1273.071098
 21
752.682211
 31
0.0
  0
LINE
  5
285
330
1F
100
AcDbEntity
  8
dxfile
  6
Continuous
 62
     3
100
AcDbLine
 10
394.061261
 20
666.463139
 30
0.0
 11
403.016485
 21
666.463139
 31
0.0
  0
LINE
  5
286
330
1F
100
AcDbEntity
  8
dxfile
  6
Continuous
 62
     3
100
AcDbLine
 10
430.748791
 20
557.047175
 30
0.0
 11
438.548502
 21
557.047175
 31
0.0
  0
LINE
  5
287
330
1F
100
AcDbEntity
  8
dxfile
  6
Continuous
 62
     3
100
AcDbLine
 10
1327.989364
 20
306.805963
 30
0.0
 11
1327.989364
 21
203.18396
 31
0.0
  0
LINE
  5
288
330
1F
100
AcDbEntity
  8
dxfile
  6
Continuous
 62
     3
100
AcDbLine
 10
1327.989364
 20
584.950544
 30
0.0
 11
1327.989364
 21
535.735587
 31
0.0
  0
LINE
  5
289
330
1F
100
AcDbEntity
  8
dxfile
  6
Continuous
 62
     3
100
AcDbLine
 10
1318.571098
 20
569.235587
 30
0.0
 11
1318.571098
 21
566.935587
 31
0.0
  0
LINE
  5
28A
330
1F
100
AcDbEntity
  8
dxfile
  6
Continuous
 62
     3
100
AcDbLine
 10
1333.571098
 20
569.235587
 30
0.0
 11
1333.571098
 21
566.935587
 31
0.0
  0
CIRCLE
  5
28B
330
1F
100
AcDbEntity
  8
dxfile
  6
Continuous
 62
     3
100
AcDbCircle
 10
448.071098
 20
381.991421
 30
0.0
 40
3.0
  0
CIRCLE
  5
28C
330
1F
100
AcDbEntity
  8
dxfile
  6
Continuous
 62
     3
100
AcDbCircle
 10
1288.071098
 20
381.991421
 30
0.0
 40
3.0
  0
LINE
  5
28D
330
1F
100
AcDbEntity
  8
dxfile
  6
Continuous
 62
     3
100
AcDbLine
 10
448.071098
 20
381.991421
 30
0.0
 11
1288.071098
 21
381.991421
 31
0.0
  0
LINE
  5
28E
330
1F
100
AcDbEntity
  8
dxfile
  6
Continuous
 62
     3
100
AcDbLine
 10
448.071098
 20
426.761416
 30
0.0
 11
448.071098
 21
375.991421
 31
0.0
  0
LINE
  5
28F
330
1F
100
AcDbEntity
  8
dxfile
  6
Continuous
 62
     3
100
AcDbLine
 10
1288.071098
 20
486.731727
 30
0.0
 11
1288.071098
 21
375.991421
 31
0.0
  0
CIRCLE
  5
290
330
1F
100
AcDbEntity
  8
dxfile
  6
Continuous
 62
     3
100
AcDbCircle
 10
283.071098
 20
150.580191
 30
0.0
 40
3.0
  0
CIRCLE
  5
291
330
1F
100
AcDbEntity
  8
dxfile
  6
Continuous
 62
     3
100
AcDbCircle
 10
1453.071098
 20
150.580191
 30
0.0
 40
3.0
  0
LINE
  5
292
330
1F
100
AcDbEntity
  8
dxfile
  6
Continuous
 62
     3
100
AcDbLine
 10
283.071098
 20
150.580191
 30
0.0
 11
1453.071098
 21
150.580191
 31
0.0
  0
LINE
  5
293
330
1F
100
AcDbEntity
  8
dxfile
  6
Continuous
 62
     3
100
AcDbLine
 10
283.071098
 20
385.321764
 30
0.0
 11
283.071098
 21
144.580191
 31
0.0
  0
LINE
  5
294
330
1F
100
AcDbEntity
  8
dxfile
  6
Continuous
 62
     3
100
AcDbLine
 10
1453.071098
 20
392.961344
 30
0.0
 11
1453.071098
 21
144.580191
 31
0.0
  0
INSERT
  5
29E
330
1F
100
AcDbEntity
  8
dxfile
  6
Continuous
 62
     3
100
AcDbBlockReference
  2
DIM_2
 10
268.071098
 20
484.967577
 30
0.0
  0
INSERT
  5
2A8
330
1F
100
AcDbEntity
  8
dxfile
  6
Continuous
 62
     3
100
AcDbBlockReference
  2
DIM_3
 10
438.071098
 20
758.023373
 30
0.0
  0
LINE
  5
2A9
330
1F
100
AcDbEntity
  8
dxfile
  6
Continuous
 62
     4
100
AcDbLine
 10
1320.239364
 20
509.235587
 30
0.0
 11
1333.739364
 21
509.235587
 31
0.0
  0
LINE
  5
2AA
330
1F
100
AcDbEntity
  8
dxfile
  6
Continuous
 62
     4
100
AcDbLine
 10
1333.739364
 20
509.235587
 30
0.0
 11
1333.739364
 21
480.735587
 31
0.0
  0
LINE
  5
2AB
330
1F
100
AcDbEntity
  8
dxfile
  6
Continuous
 62
     4
100
AcDbLine
 10
1333.739364
 20
480.735587
 30
0.0
 11
1320.239364
 21
480.735587
 31
0.0
  0
LINE
  5
2AC
330
1F
100
AcDbEntity
  8
dxfile
  6
Continuous
 62
     4
100
AcDbLine
 10
1320.239364
 20
480.735587
 30
0.0
 11
1320.239364
 21
509.235587
 31
0.0
  0
LINE
  5
2AD
330
1F
100
AcDbEntity
  8
dxfile
  6
Continuous
 62
     4
100
AcDbLine
 10
1320.239364
 20
509.235587
 30
0.0
 11
1322.989364
 21
513.735587
 31
0.0
  0
LINE
  5
2AE
330
1F
100
AcDbEntity
  8
dxfile
  6
Continuous
 62
     4
100
AcDbLine
 10
1322.989364
 20
513.735587
 30
0.0
 11
1330.989364
 21
513.735587
 31
0.0
  0
LINE
  5
2AF
330
1F
100
AcDbEntity
  8
dxfile
  6
Continuous
 62
     4
100
AcDbLine
 10
1330.989364
 20
513.735587
 30
0.0
 11
1333.739364
 21
509.235587
 31
0.0
  0
LINE
  5
2B0
330
1F
100
AcDbEntity
  8
dxfile
  6
Continuous
 62
     4
100
AcDbLine
 10
1321.989364
 20
519.235587
 30
0.0
 11
1321.989364
 21
521.535587
 31
0.0
  0
LINE
  5
2B1
330
1F
100
AcDbEntity
  8
dxfile
  6
Continuous
 62
     4
100
AcDbLine
 10
1322.989364
 20
527.035587
 30
0.0
 11
1322.989364
 21
534.735587
 31
0.0
  0
LINE
  5
2B2
330
1F
100
AcDbEntity
  8
dxfile
  6
Continuous
 62
     4
100
AcDbLine
 10
1322.989364
 20
534.735587
 30
0.0
 11
1323.989364
 21
535.735587
 31
0.0
  0
LINE
  5
2B3
330
1F
100
AcDbEntity
  8
dxfile
  6
Continuous
 62
     4
100
AcDbLine
 10
1323.989364
 20
535.735587
 30
0.0
 11
1329.989364
 21
535.735587
 31
0.0
  0
LINE
  5
2B4
330
1F
100
AcDbEntity
  8
dxfile
  6
Continuous
 62
     4
100
AcDbLine
 10
1329.989364
 20
535.735587
 30
0.0
 11
1330.989364
 21
534.735587
 31
0.0
  0
LINE
  5
2B5
330
1F
100
AcDbEntity
  8
dxfile
  6
Continuous
 62
     4
100
AcDbLine
 10
1330.989364
 20
534.735587
 30
0.0
 11
1330.989364
 21
527.035587
 31
0.0
  0
LINE
  5
2B6
330
1F
100
AcDbEntity
  8
dxfile
  6
Continuous
 62
     4
100
AcDbLine
 10
1331.989364
 20
521.535587
 30
0.0
 11
1331.989364
 21
519.235587
 31
0.0
  0
INSERT
  5
2C0
330
1F
100
AcDbEntity
  8
dxfile
  6
Continuous
 62
     3
100
AcDbBlockReference
  2
DIM_4
 10
1453.071098
 20
480.847243
 30
0.0
  0
INSERT
  5
2CA
330
1F
100
AcDbEntity
  8
dxfile
  6
Continuous
 62
     3
100
AcDbBlockReference
  2
DIM_5
 10
1468.071098
 20
484.967577
 30
0.0
  0
LINE
  5
2CB
330
1F
100
AcDbEntity
  8
dxfile
  6
Continuous
 62
     3
100
AcDbLine
 10
830.567971
 20
880.438112
 30
0.0
 11
840.136466
 21
880.438112
 31
0.0
  0
LINE
  5
2CC
330
1F
100
AcDbEntity
  8
dxfile
  6
Continuous
 62
     3
100
AcDbLine
 10
840.136466
 20
880.438112
 30
0.0
 11
840.136466
 21
890.006607
 31
0.0
  0
LINE
  5
2CD
330
1F
100
AcDbEntity
  8
dxfile
  6
Continuous
 62
     3
100
AcDbLine
 10
840.136466
 20
890.006607
 30
0.0
 11
830.567971
 21
890.006607
 31
0.0
  0
LINE
  5
2CE
330
1F
100
AcDbEntity
  8
dxfile
  6
Continuous
 62
     3
100
AcDbLine
 10
830.567971
 20
890.006607
 30
0.0
 11
830.567971
 21
880.438112
 31
0.0
  0
ARC
  5
2CF
330
1F
100
AcDbEntity
  8
dxfile
  6
Continuous
 62
     3
100
AcDbCircle
 10
1326.989364
 20
517.281171
 30
0.0
 40
9.754415587707356
100
AcDbArc
 50
65.790724
 51
114.209276
  0
ARC
  5
2D0
330
1F
100
AcDbEntity
  8
dxfile
  6
Continuous
 62
     3
100
AcDbCircle
 10
1332.561481
 20
525.174239
 30
0.0
 40
1.865081654395928
100
AcDbArc
 50
93.62604
 51
147.449869
  0
LINE
  5
2D1
330
1F
100
AcDbEntity
  8
dxfile
  6
Continuous
 62
     3
100
AcDbLine
 10
1319.483811
 20
521.535587
 30
0.0
 11
1334.494918
 21
521.535587
 31
0.0
  0
LINE
  5
2D2
330
1F
100
AcDbEntity
  8
dxfile
  6
Continuous
 62
     3
100
AcDbLine
 10
1322.989364
 20
521.535587
 30
0.0
 11
1322.989364
 21
526.177722
 31
0.0
  0
LINE
  5
2D3
330
1F
100
AcDbEntity
  8
dxfile
  6
Continuous
 62
     3
100
AcDbLine
 10
1320.489364
 20
527.035587
 30
0.0
 11
1326.989364
 21
527.035587
 31
0.0
  0
LINE
  5
2D4
330
1F
100
AcDbEntity
  8
dxfile
  6
Continuous
 62
     3
100
AcDbLine
 10
1334.494918
 20
521.535587
 30
0.0
 11
1334.494918
 21
526.45503
 31
0.0
  0
LINE
  5
2D5
330
1F
100
AcDbEntity
  8
dxfile
  6
Continuous
 62
     3
100
AcDbLine
 10
1330.989364
 20
521.535587
 30
0.0
 11
1330.989364
 21
526.177722
 31
0.0
  0
LINE
  5
2D6
330
1F
100
AcDbEntity
  8
dxfile
  6
Continuous
 62
     3
100
AcDbLine
 10
1333.489364
 20
527.035587
 30
0.0
 11
1326.989364
 21
527.035587
 31
0.0
  0
LINE
  5
2D7
330
1F
100
AcDbEntity
  8
dxfile
  6
Continuous
 62
     3
100
AcDbLine
 10
1319.483811
 20
521.535587
 30
0.0
 11
1319.483811
 21
526.45503
 31
0.0
  0
LINE
  5
2D8
330
1F
100
AcDbEntity
  8
dxfile
  6
Continuous
 62
     3
100
AcDbLine
 10
1319.483811
 20
526.45503
 30
0.0
 11
1320.489364
 21
527.035587
 31
0.0
  0
LINE
  5
2D9
330
1F
100
AcDbEntity
  8
dxfile
  6
Continuous
 62
     3
100
AcDbLine
 10
1334.494918
 20
526.45503
 30
0.0
 11
1333.489364
 21
527.035587
 31
0.0
  0
ARC
  5
2DA
330
1F
100
AcDbEntity
  8
dxfile
  6
Continuous
 62
     3
100
AcDbCircle
 10
1321.417248
 20
525.174239
 30
0.0
 40
1.865081654395928
100
AcDbArc
 50
32.550131
 51
86.37396
  0
ARC
  5
2DB
330
1F
100
AcDbEntity
  8
dxfile
  6
Continuous
 62
     3
100
AcDbCircle
 10
1326.989364
 20
523.490002
 30
0.0
 40
9.754415587707356
100
AcDbArc
 50
245.790724
 51
294.209276
  0
ARC
  5
2DC
330
1F
100
AcDbEntity
  8
dxfile
  6
Continuous
 62
     3
100
AcDbCircle
 10
1332.561481
 20
515.596935
 30
0.0
 40
1.865081654395928
100
AcDbArc
 50
212.550131
 51
266.37396
  0
LINE
  5
2DD
330
1F
100
AcDbEntity
  8
dxfile
  6
Continuous
 62
     3
100
AcDbLine
 10
1322.989364
 20
519.235587
 30
0.0
 11
1322.989364
 21
514.593451
 31
0.0
  0
LINE
  5
2DE
330
1F
100
AcDbEntity
  8
dxfile
  6
Continuous
 62
     3
100
AcDbLine
 10
1320.489364
 20
513.735587
 30
0.0
 11
1326.989364
 21
513.735587
 31
0.0
  0
LINE
  5
2DF
330
1F
100
AcDbEntity
  8
dxfile
  6
Continuous
 62
     3
100
AcDbLine
 10
1334.494918
 20
518.65503
 30
0.0
 11
1334.494918
 21
514.316143
 31
0.0
  0
LINE
  5
2E0
330
1F
100
AcDbEntity
  8
dxfile
  6
Continuous
 62
     3
100
AcDbLine
 10
1330.989364
 20
519.235587
 30
0.0
 11
1330.989364
 21
514.593451
 31
0.0
  0
LINE
  5
2E1
330
1F
100
AcDbEntity
  8
dxfile
  6
Continuous
 62
     3
100
AcDbLine
 10
1333.489364
 20
513.735587
 30
0.0
 11
1326.989364
 21
513.735587
 31
0.0
  0
LINE
  5
2E2
330
1F
100
AcDbEntity
  8
dxfile
  6
Continuous
 62
     3
100
AcDbLine
 10
1319.483811
 20
518.65503
 30
0.0
 11
1319.483811
 21
514.316143
 31
0.0
  0
LINE
  5
2E3
330
1F
100
AcDbEntity
  8
dxfile
  6
Continuous
 62
     3
100
AcDbLine
 10
1319.483811
 20
514.316143
 30
0.0
 11
1320.489364
 21
513.735587
 31
0.0
  0
LINE
  5
2E4
330
1F
100
AcDbEntity
  8
dxfile
  6
Continuous
 62
     3
100
AcDbLine
 10
1334.494918
 20
514.316143
 30
0.0
 11
1333.489364
 21
513.735587
 31
0.0
  0
ARC
  5
2E5
330
1F
100
AcDbEntity
  8
dxfile
  6
Continuous
 62
     3
100
AcDbCircle
 10
1321.417248
 20
515.596935
 30
0.0
 40
1.865081654395928
100
AcDbArc
 50
273.62604
 51
327.449869
  0
LINE
  5
2E6
330
1F
100
AcDbEntity
  8
dxfile
  6
Continuous
 62
     4
100
AcDbLine
 10
1322.989364
 20
519.235587
 30
0.0
 11
1330.989364
 21
519.235587
 31
0.0
  0
ARC
  5
2E7
330
1F
100
AcDbEntity
  8
dxfile
  6
Continuous
 62
     3
100
AcDbCircle
 10
1326.989364
 20
509.481171
 30
0.0
 40
9.754415587707356
100
AcDbArc
 50
65.790724
 51
114.209276
  0
ARC
  5
2E8
330
1F
100
AcDbEntity
  8
dxfile
  6
Continuous
 62
     3
100
AcDbCircle
 10
1332.561481
 20
517.374239
 30
0.0
 40
1.865081654395928
100
AcDbArc
 50
93.62604
 51
147.449869
  0
LINE
  5
2E9
330
1F
100
AcDbEntity
  8
dxfile
  6
Continuous
 62
     3
100
AcDbLine
 10
1320.489364
 20
519.235587
 30
0.0
 11
1326.989364
 21
519.235587
 31
0.0
  0
LINE
  5
2EA
330
1F
100
AcDbEntity
  8
dxfile
  6
Continuous
 62
     3
100
AcDbLine
 10
1333.489364
 20
519.235587
 30
0.0
 11
1326.989364
 21
519.235587
 31
0.0
  0
LINE
  5
2EB
330
1F
100
AcDbEntity
  8
dxfile
  6
Continuous
 62
     3
100
AcDbLine
 10
1319.483811
 20
518.65503
 30
0.0
 11
1320.489364
 21
519.235587
 31
0.0
  0
LINE
  5
2EC
330
1F
100
AcDbEntity
  8
dxfile
  6
Continuous
 62
     3
100
AcDbLine
 10
1334.494918
 20
518.65503
 30
0.0
 11
1333.489364
 21
519.235587
 31
0.0
  0
ARC
  5
2ED
330
1F
100
AcDbEntity
  8
dxfile
  6
Continuous
 62
     3
100
AcDbCircle
 10
1321.417248
 20
517.374239
 30
0.0
 40
1.865081654395928
100
AcDbArc
 50
32.550131
 51
86.37396
  0
LINE
  5
2EE
330
1F
100
AcDbEntity
  8
dxfile
  6
Continuous
 62
     2
100
AcDbLine
 10
820.975492
 20
1536.070673
 30
0.0
 11
820.975492
 21
1666.587323
 31
0.0
  0
LINE
  5
2EF
330
1F
100
AcDbEntity
  8
dxfile
  6
Continuous
 62
     3
100
AcDbLine
 10
850.553261
 20
1462.278384
 30
0.0
 11
849.75327
 21
1460.892738
 31
0.0
  0
LINE
  5
2F0
330
1F
100
AcDbEntity
  8
dxfile
  6
PLine1
 62
     3
100
AcDbLine
 10
472.994032
 20
878.317447
 30
0.0
 11
775.242771
 21
1401.835601
 31
0.0
  0
LINE
  5
2F1
330
1F
100
AcDbEntity
  8
dxfile
  6
PLine1
 62
     3
100
AcDbLine
 10
433.734363
 20
878.317447
 30
0.0
 11
755.812281
 21
1436.181269
 31
0.0
  0
LINE
  5
2F2
330
1F
100
AcDbEntity
  8
dxfile
  6
PLine1
 62
     3
100
AcDbLine
 10
425.882429
 20
878.317447
 30
0.0
 11
749.923286
 21
1439.58123
 31
0.0
  0
LINE
  5
2F3
330
1F
100
AcDbEntity
  8
dxfile
  6
PLine1
 62
     3
100
AcDbLine
 10
438.353148
 20
878.317447
 30
0.0
 11
749.26191
 21
1416.835429
 31
0.0
  0
LINE
  5
2F4
330
1F
100
AcDbEntity
  8
dxfile
  6
PLine1
 62
     3
100
AcDbLine
 10
794.85548
 20
1492.58751
 30
0.0
 11
752.255967
 21
1418.801864
 31
0.0
  0
ARC
  5
2F5
330
1F
100
AcDbEntity
  8
dxfile
  6
PLine1
 62
     3
100
AcDbCircle
 10
794.554223
 20
1493.685194
 30
0.0
 40
0.8
100
AcDbArc
 50
60.000378
 51
150.000378
  0
LINE
  5
2F6
330
1F
100
AcDbEntity
  8
dxfile
  6
PLine1
 62
     3
100
AcDbLine
 10
850.553261
 20
1462.278384
 30
0.0
 11
794.954218
 21
1494.378017
 31
0.0
  0
LINE
  5
2F7
330
1F
100
AcDbEntity
  8
dxfile
  6
PLine1
 62
     3
100
AcDbLine
 10
849.75327
 20
1460.892738
 30
0.0
 11
794.85548
 21
1492.58751
 31
0.0
  0
LINE
  5
2F8
330
1F
100
AcDbEntity
  8
dxfile
  6
PLine1
 62
     3
100
AcDbLine
 10
794.055489
 20
1491.201864
 30
0.0
 11
817.253993
 21
1477.808405
 31
0.0
  0
ARC
  5
2F9
330
1F
100
AcDbEntity
  8
dxfile
  6
PLine1
 62
     3
100
AcDbCircle
 10
818.354575
 20
1478.096751
 30
0.0
 40
0.8
100
AcDbArc
 50
329.994012
 51
60.000378
  0
ARC
  5
2FA
330
1F
100
AcDbEntity
  8
dxfile
  6
PLine1
 62
     3
100
AcDbCircle
 10
774.946719
 20
1402.930281
 30
0.0
 40
0.8
100
AcDbArc
 50
240.000378
 51
329.994012
  0
LINE
  5
2FB
330
1F
100
AcDbEntity
  8
dxfile
  6
PLine1
 62
     3
100
AcDbLine
 10
749.258608
 20
1416.837336
 30
0.0
 11
774.546723
 21
1402.237458
 31
0.0
  0
ARC
  5
2FC
330
1F
100
AcDbEntity
  8
dxfile
  6
PLine1
 62
     3
100
AcDbCircle
 10
751.154719
 20
1418.513903
 30
0.0
 40
0.8
100
AcDbArc
 50
150.000378
 51
240.000378
  0
LINE
  5
2FD
330
1F
100
AcDbEntity
  8
dxfile
  6
PLine1
 62
     3
100
AcDbLine
 10
750.061901
 20
1418.221075
 30
0.0
 11
774.655362
 21
1404.02225
 31
0.0
  0
LINE
  5
2FE
330
1F
100
AcDbEntity
  8
dxfile
  6
PLine1
 62
     3
100
AcDbLine
 10
775.454113
 20
1405.408612
 30
0.0
 11
752.255967
 21
1418.801864
 31
0.0
  0
LINE
  5
2FF
330
1F
100
AcDbEntity
  8
dxfile
  6
PLine1
 62
     3
100
AcDbLine
 10
819.090845
 20
1477.78385
 30
0.0
 11
775.242771
 21
1401.835601
 31
0.0
  0
LINE
  5
300
330
1F
100
AcDbEntity
  8
dxfile
  6
PLine1
 62
     3
100
AcDbLine
 10
774.657116
 20
1404.021238
 30
0.0
 11
817.256629
 21
1477.806883
 31
0.0
  0
LINE
  5
301
330
1F
100
AcDbEntity
  8
dxfile
  6
PLine4
 62
     3
100
AcDbLine
 10
773.691663
 20
1354.443205
 30
0.0
 11
1204.784149
 21
769.646586
 31
0.0
  0
LINE
  5
302
330
1F
100
AcDbEntity
  8
dxfile
  6
Continuous
 62
     3
100
AcDbLine
 10
1273.071098
 20
752.682211
 30
0.0
 11
1301.071098
 21
752.682211
 31
0.0
  0
LINE
  5
303
330
1F
100
AcDbEntity
  8
dxfile
  6
Continuous
 62
     3
100
AcDbLine
 10
1301.071098
 20
752.682211
 30
0.0
 11
1301.071098
 21
729.682211
 31
0.0
  0
LINE
  5
304
330
1F
100
AcDbEntity
  8
dxfile
  6
Continuous
 62
     3
100
AcDbLine
 10
1303.071098
 20
730.682211
 30
0.0
 11
1384.571098
 21
730.682211
 31
0.0
  0
ARC
  5
305
330
1F
100
AcDbEntity
  8
dxfile
  6
Continuous
 62
     3
100
AcDbCircle
 10
1384.571098
 20
729.682211
 30
0.0
 40
1.0
100
AcDbArc
 50
0.0
 51
90.0
  0
LINE
  5
306
330
1F
100
AcDbEntity
  8
dxfile
  6
Continuous
 62
     3
100
AcDbLine
 10
1385.571098
 20
655.682211
 30
0.0
 11
1385.571098
 21
729.682211
 31
0.0
  0
LINE
  5
307
330
1F
100
AcDbEntity
  8
dxfile
  6
Continuous
 62
     3
100
AcDbLine
 10
1383.571098
 20
655.682211
 30
0.0
 11
1383.571098
 21
728.682211
 31
0.0
  0
LINE
  5
308
330
1F
100
AcDbEntity
  8
dxfile
  6
Continuous
 62
     3
100
AcDbLine
 10
1339.571098
 20
655.682211
 30
0.0
 11
1385.571098
 21
655.682211
 31
0.0
  0
LINE
  5
309
330
1F
100
AcDbEntity
  8
dxfile
  6
Continuous
 62
     6
100
AcDbLine
 10
1278.071098
 20
750.482211
 30
0.0
 11
1278.071098
 21
752.682211
 31
0.0
  0
LINE
  5
30A
330
1F
100
AcDbEntity
  8
dxfile
  6
Continuous
 62
     6
100
AcDbLine
 10
1298.071098
 20
748.482211
 30
0.0
 11
1301.071098
 21
748.482211
 31
0.0
  0
LINE
  5
30B
330
1F
100
AcDbEntity
  8
dxfile
  6
Continuous
 62
     6
100
AcDbLine
 10
1265.796484
 20
750.482211
 30
0.0
 11
1273.071098
 21
754.682211
 31
0.0
  0
LINE
  5
30C
330
1F
100
AcDbEntity
  8
dxfile
  6
Continuous
 62
     6
100
AcDbLine
 10
478.745711
 20
750.482211
 30
0.0
 11
463.071098
 21
754.682211
 31
0.0
  0
ARC
  5
30D
330
1F
100
AcDbEntity
  8
dxfile
  6
Continuous
 62
     3
100
AcDbCircle
 10
351.571098
 20
729.682211
 30
0.0
 40
1.0
100
AcDbArc
 50
90.0
 51
180.0
  0
LINE
  5
30E
330
1F
100
AcDbEntity
  8
dxfile
  6
Continuous
 62
     3
100
AcDbLine
 10
350.571098
 20
655.682211
 30
0.0
 11
350.571098
 21
729.682211
 31
0.0
  0
LINE
  5
30F
330
1F
100
AcDbEntity
  8
dxfile
  6
Continuous
 62
     3
100
AcDbLine
 10
352.571098
 20
655.682211
 30
0.0
 11
352.571098
 21
728.682211
 31
0.0
  0
LINE
  5
310
330
1F
100
AcDbEntity
  8
dxfile
  6
Continuous
 62
     3
100
AcDbLine
 10
396.571098
 20
655.682211
 30
0.0
 11
350.571098
 21
655.682211
 31
0.0
  0
LINE
  5
311
330
1F
100
AcDbEntity
  8
dxfile
  6
Continuous
 62
     6
100
AcDbLine
 10
438.071098
 20
750.482211
 30
0.0
 11
438.071098
 21
732.682211
 31
0.0
  0
ARC
  5
312
330
1F
100
AcDbEntity
  8
dxfile
  6
Continuous
 62
     3
100
AcDbCircle
 10
434.071098
 20
729.682211
 30
0.0
 40
1.0
100
AcDbArc
 50
270.0
 51
0.0
  0
LINE
  5
313
330
1F
100
AcDbEntity
  8
dxfile
  6
Continuous
 62
     6
100
AcDbLine
 10
436.444924
 20
729.726304
 30
0.0
 11
439.387096
 21
732.668476
 31
0.0
  0
LINE
  5
314
330
1F
100
AcDbEntity
  8
dxfile
  6
Continuous
 62
     6
100
AcDbLine
 10
439.39683
 20
728.682211
 30
0.0
 11
443.383094
 21
732.668476
 31
0.0
  0
LINE
  5
315
330
1F
100
AcDbEntity
  8
dxfile
  6
Continuous
 62
     6
100
AcDbLine
 10
443.608828
 20
728.682211
 30
0.0
 11
447.595093
 21
732.668476
 31
0.0
  0
LINE
  5
316
330
1F
100
AcDbEntity
  8
dxfile
  6
Continuous
 62
     6
100
AcDbLine
 10
447.856826
 20
728.682211
 30
0.0
 11
451.843091
 21
732.668476
 31
0.0
  0
LINE
  5
317
330
1F
100
AcDbEntity
  8
dxfile
  6
Continuous
 62
     6
100
AcDbLine
 10
455.071098
 20
731.144485
 30
0.0
 11
452.608824
 21
728.682211
 31
0.0
  0
LINE
  5
318
330
1F
100
AcDbEntity
  8
dxfile
  6
Continuous
 62
     6
100
AcDbLine
 10
436.444924
 20
732.682211
 30
0.0
 11
455.071098
 21
732.682211
 31
0.0
  0
LINE
  5
319
330
1F
100
AcDbEntity
  8
dxfile
  6
Continuous
 62
     6
100
AcDbLine
 10
455.071098
 20
732.682211
 30
0.0
 11
455.071098
 21
728.682211
 31
0.0
  0
LINE
  5
31A
330
1F
100
AcDbEntity
  8
dxfile
  6
Continuous
 62
     6
100
AcDbLine
 10
436.444924
 20
728.682211
 30
0.0
 11
436.444924
 21
732.682211
 31
0.0
  0
ARC
  5
31B
330
1F
100
AcDbEntity
  8
dxfile
  6
Continuous
 62
     3
100
AcDbCircle
 10
434.071098
 20
753.682211
 30
0.0
 40
1.0
100
AcDbArc
 50
90.0
 51
180.0
  0
LINE
  5
31C
330
1F
100
AcDbEntity
  8
dxfile
  6
Continuous
 62
     3
100
AcDbLine
 10
433.071098
 20
730.682211
 30
0.0
 11
433.071098
 21
753.682211
 31
0.0
  0
LINE
  5
31D
330
1F
100
AcDbEntity
  8
dxfile
  6
Continuous
 62
     3
100
AcDbLine
 10
463.071098
 20
754.682211
 30
0.0
 11
434.071098
 21
754.682211
 31
0.0
  0
LINE
  5
31E
330
1F
100
AcDbEntity
  8
dxfile
  6
Continuous
 62
     3
100
AcDbLine
 10
463.071098
 20
754.682211
 30
0.0
 11
463.071098
 21
752.682211
 31
0.0
  0
LINE
  5
31F
330
1F
100
AcDbEntity
  8
dxfile
  6
Continuous
 62
     3
100
AcDbLine
 10
463.071098
 20
752.682211
 30
0.0
 11
435.071098
 21
752.682211
 31
0.0
  0
LINE
  5
320
330
1F
100
AcDbEntity
  8
dxfile
  6
Continuous
 62
     3
100
AcDbLine
 10
435.071098
 20
752.682211
 30
0.0
 11
435.071098
 21
729.682211
 31
0.0
  0
LINE
  5
321
330
1F
100
AcDbEntity
  8
dxfile
  6
Continuous
 62
     3
100
AcDbLine
 10
433.071098
 20
730.682211
 30
0.0
 11
351.571098
 21
730.682211
 31
0.0
  0
LINE
  5
322
330
1F
100
AcDbEntity
  8
dxfile
  6
Continuous
 62
     6
100
AcDbLine
 10
458.071098
 20
750.482211
 30
0.0
 11
458.071098
 21
752.682211
 31
0.0
  0
LINE
  5
323
330
1F
100
AcDbEntity
  8
dxfile
  6
Continuous
 62
     6
100
AcDbLine
 10
438.071098
 20
748.482211
 30
0.0
 11
435.071098
 21
748.482211
 31
0.0
  0
CIRCLE
  5
324
330
1F
100
AcDbEntity
  8
dxfile
  6
Continuous
 62
     3
100
AcDbCircle
 10
478.774017
 20
736.344413
 30
0.0
 40
0.3959998416000001
  0
LINE
  5
325
330
1F
100
AcDbEntity
  8
dxfile
  6
Continuous
 62
     6
100
AcDbLine
 10
1318.071098
 20
732.982211
 30
0.0
 11
1318.071098
 21
730.682211
 31
0.0
  0
LINE
  5
326
330
1F
100
AcDbEntity
  8
dxfile
  6
Continuous
 62
     6
100
AcDbLine
 10
1328.071098
 20
730.682211
 30
0.0
 11
1328.071098
 21
732.982211
 31
0.0
  0
LINE
  5
327
330
1F
100
AcDbEntity
  8
dxfile
  6
Continuous
 62
     3
100
AcDbLine
 10
1317.071098
 20
732.982211
 30
0.0
 11
1317.071098
 21
733.482211
 31
0.0
  0
ARC
  5
328
330
1F
100
AcDbEntity
  8
dxfile
  6
Continuous
 62
     3
100
AcDbCircle
 10
1317.571098
 20
733.482211
 30
0.0
 40
0.5
100
AcDbArc
 50
90.0
 51
180.0
  0
LINE
  5
329
330
1F
100
AcDbEntity
  8
dxfile
  6
Continuous
 62
     3
100
AcDbLine
 10
1317.571098
 20
733.982211
 30
0.0
 11
1328.571098
 21
733.982211
 31
0.0
  0
ARC
  5
32A
330
1F
100
AcDbEntity
  8
dxfile
  6
Continuous
 62
     3
100
AcDbCircle
 10
1328.571098
 20
733.482211
 30
0.0
 40
0.5
100
AcDbArc
 50
0.0
 51
90.0
  0
LINE
  5
32B
330
1F
100
AcDbEntity
  8
dxfile
  6
Continuous
 62
     3
100
AcDbLine
 10
1329.071098
 20
733.482211
 30
0.0
 11
1329.071098
 21
732.982211
 31
0.0
  0
LINE
  5
32C
330
1F
100
AcDbEntity
  8
dxfile
  6
Continuous
 62
     3
100
AcDbLine
 10
1329.071098
 20
732.982211
 30
0.0
 11
1317.071098
 21
732.982211
 31
0.0
  0
LINE
  5
32D
330
1F
100
AcDbEntity
  8
dxfile
  6
Continuous
 62
     3
100
AcDbLine
 10
1324.571098
 20
722.982211
 30
0.0
 11
1323.071098
 21
717.982211
 31
0.0
  0
LINE
  5
32E
330
1F
100
AcDbEntity
  8
dxfile
  6
PLine2
 62
     3
100
AcDbLine
 10
1323.071098
 20
739.982211
 30
0.0
 11
1323.071098
 21
716.031656
 31
0.0
  0
LINE
  5
32F
330
1F
100
AcDbEntity
  8
dxfile
  6
Continuous
 62
     3
100
AcDbLine
 10
1321.571098
 20
724.849311
 30
0.0
 11
1321.571098
 21
723.990112
 31
0.0
  0
LINE
  5
330
330
1F
100
AcDbEntity
  8
dxfile
  6
Continuous
 62
     3
100
AcDbLine
 10
1321.571098
 20
723.349311
 30
0.0
 11
1321.571098
 21
719.482211
 31
0.0
  0
LINE
  5
331
330
1F
100
AcDbEntity
  8
dxfile
  6
Continuous
 62
     3
100
AcDbLine
 10
1321.571098
 20
719.482211
 30
0.0
 11
1323.071098
 21
717.982211
 31
0.0
  0
LINE
  5
332
330
1F
100
AcDbEntity
  8
dxfile
  6
Continuous
 62
     3
100
AcDbLine
 10
1323.071098
 20
717.982211
 30
0.0
 11
1324.571098
 21
719.482211
 31
0.0
  0
LINE
  5
333
330
1F
100
AcDbEntity
  8
dxfile
  6
Continuous
 62
     3
100
AcDbLine
 10
1324.571098
 20
719.482211
 30
0.0
 11
1324.571098
 21
724.474311
 31
0.0
  0
LINE
  5
334
330
1F
100
AcDbEntity
  8
dxfile
  6
Continuous
 62
     3
100
AcDbLine
 10
1321.571098
 20
726.990112
 30
0.0
 11
1324.571098
 21
728.115112
 31
0.0
  0
LINE
  5
335
330
1F
100
AcDbEntity
  8
dxfile
  6
Continuous
 62
     3
100
AcDbLine
 10
1324.571098
 20
728.115112
 30
0.0
 11
1325.071098
 21
727.982211
 31
0.0
  0
LINE
  5
336
330
1F
100
AcDbEntity
  8
dxfile
  6
Continuous
 62
     3
100
AcDbLine
 10
1325.071098
 20
727.982211
 30
0.0
 11
1324.571098
 21
727.474311
 31
0.0
  0
LINE
  5
337
330
1F
100
AcDbEntity
  8
dxfile
  6
Continuous
 62
     3
100
AcDbLine
 10
1324.571098
 20
727.474311
 30
0.0
 11
1321.571098
 21
726.349311
 31
0.0
  0
LINE
  5
338
330
1F
100
AcDbEntity
  8
dxfile
  6
Continuous
 62
     3
100
AcDbLine
 10
1321.571098
 20
726.349311
 30
0.0
 11
1321.071098
 21
726.482211
 31
0.0
  0
LINE
  5
339
330
1F
100
AcDbEntity
  8
dxfile
  6
Continuous
 62
     3
100
AcDbLine
 10
1321.071098
 20
726.482211
 30
0.0
 11
1321.571098
 21
726.990112
 31
0.0
  0
LINE
  5
33A
330
1F
100
AcDbEntity
  8
dxfile
  6
Continuous
 62
     3
100
AcDbLine
 10
1325.071098
 20
727.982211
 30
0.0
 11
1321.071098
 21
726.482211
 31
0.0
  0
LINE
  5
33B
330
1F
100
AcDbEntity
  8
dxfile
  6
Continuous
 62
     3
100
AcDbLine
 10
1324.571098
 20
727.474311
 30
0.0
 11
1324.571098
 21
726.615112
 31
0.0
  0
LINE
  5
33C
330
1F
100
AcDbEntity
  8
dxfile
  6
Continuous
 62
     3
100
AcDbLine
 10
1327.071098
 20
734.782211
 30
0.0
 11
1326.609217
 21
733.982211
 31
0.0
  0
ARC
  5
33D
330
1F
100
AcDbEntity
  8
dxfile
  6
Continuous
 62
     3
100
AcDbCircle
 10
1323.071098
 20
730.982211
 30
0.0
 40
6.000000000001985
100
AcDbArc
 50
52.533782
 51
90.0
  0
LINE
  5
33E
330
1F
100
AcDbEntity
  8
dxfile
  6
Continuous
 62
     3
100
AcDbLine
 10
1326.720859
 20
735.744484
 30
0.0
 11
1327.071098
 21
734.782211
 31
0.0
  0
ARC
  5
33F
330
1F
100
AcDbEntity
  8
dxfile
  6
Continuous
 62
     3
100
AcDbCircle
 10
1323.071098
 20
730.982211
 30
0.0
 40
6.000000000001985
100
AcDbArc
 50
90.0
 51
127.466218
  0
LINE
  5
340
330
1F
100
AcDbEntity
  8
dxfile
  6
Continuous
 62
     3
100
AcDbLine
 10
1319.421336
 20
735.744484
 30
0.0
 11
1319.071098
 21
734.782211
 31
0.0
  0
LINE
  5
341
330
1F
100
AcDbEntity
  8
dxfile
  6
Continuous
 62
     3
100
AcDbLine
 10
1319.071098
 20
734.782211
 30
0.0
 11
1319.532978
 21
733.982211
 31
0.0
  0
LINE
  5
342
330
1F
100
AcDbEntity
  8
dxfile
  6
Continuous
 62
     3
100
AcDbLine
 10
1321.571098
 20
730.682211
 30
0.0
 11
1321.571098
 21
729.990112
 31
0.0
  0
LINE
  5
343
330
1F
100
AcDbEntity
  8
dxfile
  6
Continuous
 62
     3
100
AcDbLine
 10
1324.571098
 20
730.474311
 30
0.0
 11
1324.571098
 21
729.615112
 31
0.0
  0
LINE
  5
344
330
1F
100
AcDbEntity
  8
dxfile
  6
Continuous
 62
     3
100
AcDbLine
 10
1321.571098
 20
729.294711
 30
0.0
 11
1321.571098
 21
728.490112
 31
0.0
  0
LINE
  5
345
330
1F
100
AcDbEntity
  8
dxfile
  6
Continuous
 62
     3
100
AcDbLine
 10
1324.571098
 20
728.974311
 30
0.0
 11
1324.571098
 21
728.115112
 31
0.0
  0
LINE
  5
346
330
1F
100
AcDbEntity
  8
dxfile
  6
Continuous
 62
     3
100
AcDbLine
 10
1321.571098
 20
727.849311
 30
0.0
 11
1321.571098
 21
726.990112
 31
0.0
  0
LINE
  5
347
330
1F
100
AcDbEntity
  8
dxfile
  6
Continuous
 62
     3
100
AcDbLine
 10
1319.071098
 20
734.782211
 30
0.0
 11
1327.071098
 21
734.782211
 31
0.0
  0
LINE
  5
348
330
1F
100
AcDbEntity
  8
dxfile
  6
Continuous
 62
     3
100
AcDbLine
 10
1321.571098
 20
719.482211
 30
0.0
 11
1323.521098
 21
719.482211
 31
0.0
  0
LINE
  5
349
330
1F
100
AcDbEntity
  8
dxfile
  6
Continuous
 62
     3
100
AcDbLine
 10
1321.571098
 20
726.349311
 30
0.0
 11
1321.571098
 21
725.490112
 31
0.0
  0
LINE
  5
34A
330
1F
100
AcDbEntity
  8
dxfile
  6
Continuous
 62
     3
100
AcDbLine
 10
1324.571098
 20
725.974311
 30
0.0
 11
1324.571098
 21
725.115112
 31
0.0
  0
LINE
  5
34B
330
1F
100
AcDbEntity
  8
dxfile
  6
Continuous
 62
     3
100
AcDbLine
 10
1324.271098
 20
730.682211
 30
0.0
 11
1321.071098
 21
729.482211
 31
0.0
  0
LINE
  5
34C
330
1F
100
AcDbEntity
  8
dxfile
  6
Continuous
 62
     3
100
AcDbLine
 10
1321.571098
 20
728.490112
 30
0.0
 11
1324.571098
 21
729.615112
 31
0.0
  0
LINE
  5
34D
330
1F
100
AcDbEntity
  8
dxfile
  6
Continuous
 62
     3
100
AcDbLine
 10
1324.571098
 20
729.615112
 30
0.0
 11
1325.071098
 21
729.482211
 31
0.0
  0
LINE
  5
34E
330
1F
100
AcDbEntity
  8
dxfile
  6
Continuous
 62
     3
100
AcDbLine
 10
1325.071098
 20
729.482211
 30
0.0
 11
1324.571098
 21
728.974311
 31
0.0
  0
LINE
  5
34F
330
1F
100
AcDbEntity
  8
dxfile
  6
Continuous
 62
     3
100
AcDbLine
 10
1324.571098
 20
728.974311
 30
0.0
 11
1321.571098
 21
727.849311
 31
0.0
  0
LINE
  5
350
330
1F
100
AcDbEntity
  8
dxfile
  6
Continuous
 62
     3
100
AcDbLine
 10
1321.571098
 20
727.849311
 30
0.0
 11
1321.071098
 21
727.982211
 31
0.0
  0
LINE
  5
351
330
1F
100
AcDbEntity
  8
dxfile
  6
Continuous
 62
     3
100
AcDbLine
 10
1321.071098
 20
727.982211
 30
0.0
 11
1321.571098
 21
728.490112
 31
0.0
  0
LINE
  5
352
330
1F
100
AcDbEntity
  8
dxfile
  6
Continuous
 62
     3
100
AcDbLine
 10
1325.071098
 20
729.482211
 30
0.0
 11
1321.071098
 21
727.982211
 31
0.0
  0
LINE
  5
353
330
1F
100
AcDbEntity
  8
dxfile
  6
Continuous
 62
     3
100
AcDbLine
 10
1321.571098
 20
725.490112
 30
0.0
 11
1324.571098
 21
726.615112
 31
0.0
  0
LINE
  5
354
330
1F
100
AcDbEntity
  8
dxfile
  6
Continuous
 62
     3
100
AcDbLine
 10
1324.571098
 20
726.615112
 30
0.0
 11
1325.071098
 21
726.482211
 31
0.0
  0
LINE
  5
355
330
1F
100
AcDbEntity
  8
dxfile
  6
Continuous
 62
     3
100
AcDbLine
 10
1325.071098
 20
726.482211
 30
0.0
 11
1324.571098
 21
725.974311
 31
0.0
  0
LINE
  5
356
330
1F
100
AcDbEntity
  8
dxfile
  6
Continuous
 62
     3
100
AcDbLine
 10
1324.571098
 20
725.974311
 30
0.0
 11
1321.571098
 21
724.849311
 31
0.0
  0
LINE
  5
357
330
1F
100
AcDbEntity
  8
dxfile
  6
Continuous
 62
     3
100
AcDbLine
 10
1321.571098
 20
724.849311
 30
0.0
 11
1321.071098
 21
724.982211
 31
0.0
  0
LINE
  5
358
330
1F
100
AcDbEntity
  8
dxfile
  6
Continuous
 62
     3
100
AcDbLine
 10
1321.071098
 20
724.982211
 30
0.0
 11
1321.571098
 21
725.490112
 31
0.0
  0
LINE
  5
359
330
1F
100
AcDbEntity
  8
dxfile
  6
Continuous
 62
     3
100
AcDbLine
 10
1325.071098
 20
726.482211
 30
0.0
 11
1321.071098
 21
724.982211
 31
0.0
  0
LINE
  5
35A
330
1F
100
AcDbEntity
  8
dxfile
  6
Continuous
 62
     3
100
AcDbLine
 10
1321.571098
 20
729.990112
 30
0.0
 11
1323.416697
 21
730.682211
 31
0.0
  0
LINE
  5
35B
330
1F
100
AcDbEntity
  8
dxfile
  6
Continuous
 62
     3
100
AcDbLine
 10
1324.775764
 20
730.682211
 30
0.0
 11
1324.571098
 21
730.474311
 31
0.0
  0
LINE
  5
35C
330
1F
100
AcDbEntity
  8
dxfile
  6
Continuous
 62
     3
100
AcDbLine
 10
1324.571098
 20
730.474311
 30
0.0
 11
1321.571098
 21
729.349311
 31
0.0
  0
LINE
  5
35D
330
1F
100
AcDbEntity
  8
dxfile
  6
Continuous
 62
     3
100
AcDbLine
 10
1321.571098
 20
729.349311
 30
0.0
 11
1321.071098
 21
729.482211
 31
0.0
  0
LINE
  5
35E
330
1F
100
AcDbEntity
  8
dxfile
  6
Continuous
 62
     3
100
AcDbLine
 10
1321.071098
 20
729.482211
 30
0.0
 11
1321.571098
 21
729.990112
 31
0.0
  0
LINE
  5
35F
330
1F
100
AcDbEntity
  8
dxfile
  6
Continuous
 62
     3
100
AcDbLine
 10
1324.571098
 20
723.482211
 30
0.0
 11
1321.925498
 21
723.482211
 31
0.0
  0
LINE
  5
360
330
1F
100
AcDbEntity
  8
dxfile
  6
Continuous
 62
     3
100
AcDbLine
 10
1321.571098
 20
723.990112
 30
0.0
 11
1324.571098
 21
725.115112
 31
0.0
  0
LINE
  5
361
330
1F
100
AcDbEntity
  8
dxfile
  6
Continuous
 62
     3
100
AcDbLine
 10
1324.571098
 20
725.115112
 30
0.0
 11
1325.071098
 21
724.982211
 31
0.0
  0
LINE
  5
362
330
1F
100
AcDbEntity
  8
dxfile
  6
Continuous
 62
     3
100
AcDbLine
 10
1325.071098
 20
724.982211
 30
0.0
 11
1324.571098
 21
724.474311
 31
0.0
  0
LINE
  5
363
330
1F
100
AcDbEntity
  8
dxfile
  6
Continuous
 62
     3
100
AcDbLine
 10
1324.571098
 20
724.474311
 30
0.0
 11
1321.571098
 21
723.349311
 31
0.0
  0
LINE
  5
364
330
1F
100
AcDbEntity
  8
dxfile
  6
Continuous
 62
     3
100
AcDbLine
 10
1321.571098
 20
723.349311
 30
0.0
 11
1321.071098
 21
723.482211
 31
0.0
  0
LINE
  5
365
330
1F
100
AcDbEntity
  8
dxfile
  6
Continuous
 62
     3
100
AcDbLine
 10
1321.071098
 20
723.482211
 30
0.0
 11
1321.571098
 21
723.990112
 31
0.0
  0
LINE
  5
366
330
1F
100
AcDbEntity
  8
dxfile
  6
Continuous
 62
     3
100
AcDbLine
 10
1325.071098
 20
724.982211
 30
0.0
 11
1321.071098
 21
723.482211
 31
0.0
  0
LINE
  5
367
330
1F
100
AcDbEntity
  8
dxfile
  6
Continuous
 62
     6
100
AcDbLine
 10
418.071098
 20
732.982211
 30
0.0
 11
418.071098
 21
730.682211
 31
0.0
  0
LINE
  5
368
330
1F
100
AcDbEntity
  8
dxfile
  6
Continuous
 62
     6
100
AcDbLine
 10
408.071098
 20
730.682211
 30
0.0
 11
408.071098
 21
732.982211
 31
0.0
  0
LINE
  5
369
330
1F
100
AcDbEntity
  8
dxfile
  6
Continuous
 62
     3
100
AcDbLine
 10
419.071098
 20
732.982211
 30
0.0
 11
419.071098
 21
733.482211
 31
0.0
  0
ARC
  5
36A
330
1F
100
AcDbEntity
  8
dxfile
  6
Continuous
 62
     3
100
AcDbCircle
 10
418.571098
 20
733.482211
 30
0.0
 40
0.5
100
AcDbArc
 50
0.0
 51
90.0
  0
LINE
  5
36B
330
1F
100
AcDbEntity
  8
dxfile
  6
Continuous
 62
     3
100
AcDbLine
 10
418.571098
 20
733.982211
 30
0.0
 11
407.571098
 21
733.982211
 31
0.0
  0
ARC
  5
36C
330
1F
100
AcDbEntity
  8
dxfile
  6
Continuous
 62
     3
100
AcDbCircle
 10
407.571098
 20
733.482211
 30
0.0
 40
0.5
100
AcDbArc
 50
90.0
 51
180.0
  0
LINE
  5
36D
330
1F
100
AcDbEntity
  8
dxfile
  6
Continuous
 62
     3
100
AcDbLine
 10
407.071098
 20
733.482211
 30
0.0
 11
407.071098
 21
732.982211
 31
0.0
  0
LINE
  5
36E
330
1F
100
AcDbEntity
  8
dxfile
  6
Continuous
 62
     3
100
AcDbLine
 10
407.071098
 20
732.982211
 30
0.0
 11
419.071098
 21
732.982211
 31
0.0
  0
LINE
  5
36F
330
1F
100
AcDbEntity
  8
dxfile
  6
Continuous
 62
     3
100
AcDbLine
 10
411.571098
 20
722.982211
 30
0.0
 11
413.071098
 21
717.982211
 31
0.0
  0
LINE
  5
370
330
1F
100
AcDbEntity
  8
dxfile
  6
PLine2
 62
     3
100
AcDbLine
 10
413.071098
 20
739.982211
 30
0.0
 11
413.071098
 21
716.031656
 31
0.0
  0
LINE
  5
371
330
1F
100
AcDbEntity
  8
dxfile
  6
Continuous
 62
     3
100
AcDbLine
 10
414.571098
 20
724.849311
 30
0.0
 11
414.571098
 21
723.990112
 31
0.0
  0
LINE
  5
372
330
1F
100
AcDbEntity
  8
dxfile
  6
Continuous
 62
     3
100
AcDbLine
 10
414.571098
 20
723.349311
 30
0.0
 11
414.571098
 21
719.482211
 31
0.0
  0
LINE
  5
373
330
1F
100
AcDbEntity
  8
dxfile
  6
Continuous
 62
     3
100
AcDbLine
 10
414.571098
 20
719.482211
 30
0.0
 11
413.071098
 21
717.982211
 31
0.0
  0
LINE
  5
374
330
1F
100
AcDbEntity
  8
dxfile
  6
Continuous
 62
     3
100
AcDbLine
 10
413.071098
 20
717.982211
 30
0.0
 11
411.571098
 21
719.482211
 31
0.0
  0
LINE
  5
375
330
1F
100
AcDbEntity
  8
dxfile
  6
Continuous
 62
     3
100
AcDbLine
 10
411.571098
 20
719.482211
 30
0.0
 11
411.571098
 21
724.474311
 31
0.0
  0
LINE
  5
376
330
1F
100
AcDbEntity
  8
dxfile
  6
Continuous
 62
     3
100
AcDbLine
 10
414.571098
 20
726.990112
 30
0.0
 11
411.571098
 21
728.115112
 31
0.0
  0
LINE
  5
377
330
1F
100
AcDbEntity
  8
dxfile
  6
Continuous
 62
     3
100
AcDbLine
 10
411.571098
 20
728.115112
 30
0.0
 11
411.071098
 21
727.982211
 31
0.0
  0
LINE
  5
378
330
1F
100
AcDbEntity
  8
dxfile
  6
Continuous
 62
     3
100
AcDbLine
 10
411.071098
 20
727.982211
 30
0.0
 11
411.571098
 21
727.474311
 31
0.0
  0
LINE
  5
379
330
1F
100
AcDbEntity
  8
dxfile
  6
Continuous
 62
     3
100
AcDbLine
 10
411.571098
 20
727.474311
 30
0.0
 11
414.571098
 21
726.349311
 31
0.0
  0
LINE
  5
37A
330
1F
100
AcDbEntity
  8
dxfile
  6
Continuous
 62
     3
100
AcDbLine
 10
414.571098
 20
726.349311
 30
0.0
 11
415.071098
 21
726.482211
 31
0.0
  0
LINE
  5
37B
330
1F
100
AcDbEntity
  8
dxfile
  6
Continuous
 62
     3
100
AcDbLine
 10
415.071098
 20
726.482211
 30
0.0
 11
414.571098
 21
726.990112
 31
0.0
  0
LINE
  5
37C
330
1F
100
AcDbEntity
  8
dxfile
  6
Continuous
 62
     3
100
AcDbLine
 10
411.071098
 20
727.982211
 30
0.0
 11
415.071098
 21
726.482211
 31
0.0
  0
LINE
  5
37D
330
1F
100
AcDbEntity
  8
dxfile
  6
Continuous
 62
     3
100
AcDbLine
 10
411.571098
 20
727.474311
 30
0.0
 11
411.571098
 21
726.615112
 31
0.0
  0
LINE
  5
37E
330
1F
100
AcDbEntity
  8
dxfile
  6
Continuous
 62
     3
100
AcDbLine
 10
409.071098
 20
734.782211
 30
0.0
 11
409.532978
 21
733.982211
 31
0.0
  0
ARC
  5
37F
330
1F
100
AcDbEntity
  8
dxfile
  6
Continuous
 62
     3
100
AcDbCircle
 10
413.071098
 20
730.982211
 30
0.0
 40
6.000000000001985
100
AcDbArc
 50
90.0
 51
127.466218
  0
LINE
  5
380
330
1F
100
AcDbEntity
  8
dxfile
  6
Continuous
 62
     3
100
AcDbLine
 10
409.421336
 20
735.744484
 30
0.0
 11
409.071098
 21
734.782211
 31
0.0
  0
ARC
  5
381
330
1F
100
AcDbEntity
  8
dxfile
  6
Continuous
 62
     3
100
AcDbCircle
 10
413.071098
 20
730.982211
 30
0.0
 40
6.000000000001985
100
AcDbArc
 50
52.533782
 51
90.0
  0
LINE
  5
382
330
1F
100
AcDbEntity
  8
dxfile
  6
Continuous
 62
     3
100
AcDbLine
 10
416.720859
 20
735.744484
 30
0.0
 11
417.071098
 21
734.782211
 31
0.0
  0
LINE
  5
383
330
1F
100
AcDbEntity
  8
dxfile
  6
Continuous
 62
     3
100
AcDbLine
 10
417.071098
 20
734.782211
 30
0.0
 11
416.609217
 21
733.982211
 31
0.0
  0
LINE
  5
384
330
1F
100
AcDbEntity
  8
dxfile
  6
Continuous
 62
     3
100
AcDbLine
 10
414.571098
 20
730.682211
 30
0.0
 11
414.571098
 21
729.990112
 31
0.0
  0
LINE
  5
385
330
1F
100
AcDbEntity
  8
dxfile
  6
Continuous
 62
     3
100
AcDbLine
 10
411.571098
 20
730.474311
 30
0.0
 11
411.571098
 21
729.615112
 31
0.0
  0
LINE
  5
386
330
1F
100
AcDbEntity
  8
dxfile
  6
Continuous
 62
     3
100
AcDbLine
 10
414.571098
 20
729.294711
 30
0.0
 11
414.571098
 21
728.490112
 31
0.0
  0
LINE
  5
387
330
1F
100
AcDbEntity
  8
dxfile
  6
Continuous
 62
     3
100
AcDbLine
 10
411.571098
 20
728.974311
 30
0.0
 11
411.571098
 21
728.115112
 31
0.0
  0
LINE
  5
388
330
1F
100
AcDbEntity
  8
dxfile
  6
Continuous
 62
     3
100
AcDbLine
 10
414.571098
 20
727.849311
 30
0.0
 11
414.571098
 21
726.990112
 31
0.0
  0
LINE
  5
389
330
1F
100
AcDbEntity
  8
dxfile
  6
Continuous
 62
     3
100
AcDbLine
 10
417.071098
 20
734.782211
 30
0.0
 11
409.071098
 21
734.782211
 31
0.0
  0
LINE
  5
38A
330
1F
100
AcDbEntity
  8
dxfile
  6
Continuous
 62
     3
100
AcDbLine
 10
414.571098
 20
719.482211
 30
0.0
 11
412.621098
 21
719.482211
 31
0.0
  0
LINE
  5
38B
330
1F
100
AcDbEntity
  8
dxfile
  6
Continuous
 62
     3
100
AcDbLine
 10
414.571098
 20
726.349311
 30
0.0
 11
414.571098
 21
725.490112
 31
0.0
  0
LINE
  5
38C
330
1F
100
AcDbEntity
  8
dxfile
  6
Continuous
 62
     3
100
AcDbLine
 10
411.571098
 20
725.974311
 30
0.0
 11
411.571098
 21
725.115112
 31
0.0
  0
LINE
  5
38D
330
1F
100
AcDbEntity
  8
dxfile
  6
Continuous
 62
     3
100
AcDbLine
 10
411.871098
 20
730.682211
 30
0.0
 11
415.071098
 21
729.482211
 31
0.0
  0
LINE
  5
38E
330
1F
100
AcDbEntity
  8
dxfile
  6
Continuous
 62
     3
100
AcDbLine
 10
414.571098
 20
728.490112
 30
0.0
 11
411.571098
 21
729.615112
 31
0.0
  0
LINE
  5
38F
330
1F
100
AcDbEntity
  8
dxfile
  6
Continuous
 62
     3
100
AcDbLine
 10
411.571098
 20
729.615112
 30
0.0
 11
411.071098
 21
729.482211
 31
0.0
  0
LINE
  5
390
330
1F
100
AcDbEntity
  8
dxfile
  6
Continuous
 62
     3
100
AcDbLine
 10
411.071098
 20
729.482211
 30
0.0
 11
411.571098
 21
728.974311
 31
0.0
  0
LINE
  5
391
330
1F
100
AcDbEntity
  8
dxfile
  6
Continuous
 62
     3
100
AcDbLine
 10
411.571098
 20
728.974311
 30
0.0
 11
414.571098
 21
727.849311
 31
0.0
  0
LINE
  5
392
330
1F
100
AcDbEntity
  8
dxfile
  6
Continuous
 62
     3
100
AcDbLine
 10
414.571098
 20
727.849311
 30
0.0
 11
415.071098
 21
727.982211
 31
0.0
  0
LINE
  5
393
330
1F
100
AcDbEntity
  8
dxfile
  6
Continuous
 62
     3
100
AcDbLine
 10
415.071098
 20
727.982211
 30
0.0
 11
414.571098
 21
728.490112
 31
0.0
  0
LINE
  5
394
330
1F
100
AcDbEntity
  8
dxfile
  6
Continuous
 62
     3
100
AcDbLine
 10
411.071098
 20
729.482211
 30
0.0
 11
415.071098
 21
727.982211
 31
0.0
  0
LINE
  5
395
330
1F
100
AcDbEntity
  8
dxfile
  6
Continuous
 62
     3
100
AcDbLine
 10
414.571098
 20
725.490112
 30
0.0
 11
411.571098
 21
726.615112
 31
0.0
  0
LINE
  5
396
330
1F
100
AcDbEntity
  8
dxfile
  6
Continuous
 62
     3
100
AcDbLine
 10
411.571098
 20
726.615112
 30
0.0
 11
411.071098
 21
726.482211
 31
0.0
  0
LINE
  5
397
330
1F
100
AcDbEntity
  8
dxfile
  6
Continuous
 62
     3
100
AcDbLine
 10
411.071098
 20
726.482211
 30
0.0
 11
411.571098
 21
725.974311
 31
0.0
  0
LINE
  5
398
330
1F
100
AcDbEntity
  8
dxfile
  6
Continuous
 62
     3
100
AcDbLine
 10
411.571098
 20
725.974311
 30
0.0
 11
414.571098
 21
724.849311
 31
0.0
  0
LINE
  5
399
330
1F
100
AcDbEntity
  8
dxfile
  6
Continuous
 62
     3
100
AcDbLine
 10
414.571098
 20
724.849311
 30
0.0
 11
415.071098
 21
724.982211
 31
0.0
  0
LINE
  5
39A
330
1F
100
AcDbEntity
  8
dxfile
  6
Continuous
 62
     3
100
AcDbLine
 10
415.071098
 20
724.982211
 30
0.0
 11
414.571098
 21
725.490112
 31
0.0
  0
LINE
  5
39B
330
1F
100
AcDbEntity
  8
dxfile
  6
Continuous
 62
     3
100
AcDbLine
 10
411.071098
 20
726.482211
 30
0.0
 11
415.071098
 21
724.982211
 31
0.0
  0
LINE
  5
39C
330
1F
100
AcDbEntity
  8
dxfile
  6
Continuous
 62
     3
100
AcDbLine
 10
414.571098
 20
729.990112
 30
0.0
 11
412.725498
 21
730.682211
 31
0.0
  0
LINE
  5
39D
330
1F
100
AcDbEntity
  8
dxfile
  6
Continuous
 62
     3
100
AcDbLine
 10
411.366431
 20
730.682211
 30
0.0
 11
411.571098
 21
730.474311
 31
0.0
  0
LINE
  5
39E
330
1F
100
AcDbEntity
  8
dxfile
  6
Continuous
 62
     3
100
AcDbLine
 10
411.571098
 20
730.474311
 30
0.0
 11
414.571098
 21
729.349311
 31
0.0
  0
LINE
  5
39F
330
1F
100
AcDbEntity
  8
dxfile
  6
Continuous
 62
     3
100
AcDbLine
 10
414.571098
 20
729.349311
 30
0.0
 11
415.071098
 21
729.482211
 31
0.0
  0
LINE
  5
3A0
330
1F
100
AcDbEntity
  8
dxfile
  6
Continuous
 62
     3
100
AcDbLine
 10
415.071098
 20
729.482211
 30
0.0
 11
414.571098
 21
729.990112
 31
0.0
  0
LINE
  5
3A1
330
1F
100
AcDbEntity
  8
dxfile
  6
Continuous
 62
     3
100
AcDbLine
 10
411.571098
 20
723.482211
 30
0.0
 11
414.216697
 21
723.482211
 31
0.0
  0
LINE
  5
3A2
330
1F
100
AcDbEntity
  8
dxfile
  6
Continuous
 62
     3
100
AcDbLine
 10
414.571098
 20
723.990112
 30
0.0
 11
411.571098
 21
725.115112
 31
0.0
  0
LINE
  5
3A3
330
1F
100
AcDbEntity
  8
dxfile
  6
Continuous
 62
     3
100
AcDbLine
 10
411.571098
 20
725.115112
 30
0.0
 11
411.071098
 21
724.982211
 31
0.0
  0
LINE
  5
3A4
330
1F
100
AcDbEntity
  8
dxfile
  6
Continuous
 62
     3
100
AcDbLine
 10
411.071098
 20
724.982211
 30
0.0
 11
411.571098
 21
724.474311
 31
0.0
  0
LINE
  5
3A5
330
1F
100
AcDbEntity
  8
dxfile
  6
Continuous
 62
     3
100
AcDbLine
 10
411.571098
 20
724.474311
 30
0.0
 11
414.571098
 21
723.349311
 31
0.0
  0
LINE
  5
3A6
330
1F
100
AcDbEntity
  8
dxfile
  6
Continuous
 62
     3
100
AcDbLine
 10
414.571098
 20
723.349311
 30
0.0
 11
415.071098
 21
723.482211
 31
0.0
  0
LINE
  5
3A7
330
1F
100
AcDbEntity
  8
dxfile
  6
Continuous
 62
     3
100
AcDbLine
 10
415.071098
 20
723.482211
 30
0.0
 11
414.571098
 21
723.990112
 31
0.0
  0
LINE
  5
3A8
330
1F
100
AcDbEntity
  8
dxfile
  6
Continuous
 62
     3
100
AcDbLine
 10
411.071098
 20
724.982211
 30
0.0
 11
415.071098
 21
723.482211
 31
0.0
  0
ARC
  5
3A9
330
1F
100
AcDbEntity
  8
dxfile
  6
Continuous
 62
     3
100
AcDbCircle
 10
760.415503
 20
1438.143138
 30
0.0
 40
1.0
100
AcDbArc
 50
240.0
 51
330.0
  0
LINE
  5
3AA
330
1F
100
AcDbEntity
  8
dxfile
  6
PLine1
 62
     3
100
AcDbLine
 10
749.266929
 20
1416.833241
 30
0.0
 11
802.031529
 21
1508.224209
 31
0.0
  0
ARC
  5
3AB
330
1F
100
AcDbEntity
  8
dxfile
  6
Continuous
 62
     3
100
AcDbCircle
 10
739.630894
 20
1450.143138
 30
0.0
 40
1.0
100
AcDbArc
 50
60.0
 51
150.0
  0
LINE
  5
3AC
330
1F
100
AcDbEntity
  8
dxfile
  6
PLine1
 62
     3
100
AcDbLine
 10
740.130894
 20
1451.009164
 30
0.0
 11
760.049478
 21
1439.509164
 31
0.0
  0
LINE
  5
3AD
330
1F
100
AcDbEntity
  8
dxfile
  6
PLine1
 62
     3
100
AcDbLine
 10
724.264868
 20
1425.528402
 30
0.0
 11
738.764868
 21
1450.643138
 31
0.0
  0
LINE
  5
3AE
330
1F
100
AcDbEntity
  8
dxfile
  6
Continuous
 62
     3
100
AcDbLine
 10
724.264868
 20
1425.528402
 30
0.0
 11
725.996919
 21
1424.528402
 31
0.0
  0
LINE
  5
3AF
330
1F
100
AcDbEntity
  8
dxfile
  6
PLine1
 62
     3
100
AcDbLine
 10
725.996919
 20
1424.528402
 30
0.0
 11
739.996919
 21
1448.777113
 31
0.0
  0
LINE
  5
3B0
330
1F
100
AcDbEntity
  8
dxfile
  6
PLine1
 62
     3
100
AcDbLine
 10
739.996919
 20
1448.777113
 30
0.0
 11
759.915503
 21
1437.277113
 31
0.0
  0
LINE
  5
3B1
330
1F
100
AcDbEntity
  8
dxfile
  6
PLine1
 62
     3
100
AcDbLine
 10
760.049478
 20
1439.509164
 30
0.0
 11
800.799478
 21
1510.090234
 31
0.0
  0
ARC
  5
3B2
330
1F
100
AcDbEntity
  8
dxfile
  6
Continuous
 62
     3
100
AcDbCircle
 10
801.665503
 20
1509.590234
 30
0.0
 40
1.0
100
AcDbArc
 50
60.0
 51
150.0
  0
LINE
  5
3B3
330
1F
100
AcDbEntity
  8
dxfile
  6
PLine1
 62
     3
100
AcDbLine
 10
866.251383
 20
1473.45626
 30
0.0
 11
802.165503
 21
1510.45626
 31
0.0
  0
LINE
  5
3B4
330
1F
100
AcDbEntity
  8
dxfile
  6
PLine1
 62
     3
100
AcDbLine
 10
865.251383
 20
1471.724209
 30
0.0
 11
802.031529
 21
1508.224209
 31
0.0
  0
LINE
  5
3B5
330
1F
100
AcDbEntity
  8
dxfile
  6
Continuous
 62
     3
100
AcDbLine
 10
866.251383
 20
1473.45626
 30
0.0
 11
865.251383
 21
1471.724209
 31
0.0
  0
LINE
  5
3B6
330
1F
100
AcDbEntity
  8
dxfile
  6
Continuous
 62
     6
100
AcDbLine
 10
730.402175
 20
1427.758529
 30
0.0
 11
728.496919
 21
1428.858529
 31
0.0
  0
LINE
  5
3B7
330
1F
100
AcDbEntity
  8
dxfile
  6
Continuous
 62
     6
100
AcDbLine
 10
742.134226
 20
1444.079037
 30
0.0
 11
743.634226
 21
1446.677113
 31
0.0
  0
LINE
  5
3B8
330
1F
100
AcDbEntity
  8
dxfile
  6
PLine1
 62
     3
100
AcDbLine
 10
354.202805
 20
605.761179
 30
0.0
 11
350.002805
 21
598.486565
 31
0.0
  0
LINE
  5
3B9
330
1F
100
AcDbEntity
  8
dxfile
  6
PLine1
 62
     3
100
AcDbLine
 10
296.490864
 20
629.381699
 30
0.0
 11
339.090864
 21
703.167063
 31
0.0
  0
ARC
  5
3BA
330
1F
100
AcDbEntity
  8
dxfile
  6
Continuous
 62
     3
100
AcDbCircle
 10
295.389615
 20
629.093745
 30
0.0
 40
0.8
100
AcDbArc
 50
150.0
 51
240.0
  0
LINE
  5
3BB
330
1F
100
AcDbEntity
  8
dxfile
  6
PLine1
 62
     3
100
AcDbLine
 10
294.989615
 20
628.400925
 30
0.0
 11
349.895625
 21
596.700925
 31
0.0
  0
LINE
  5
3BC
330
1F
100
AcDbEntity
  8
dxfile
  6
PLine1
 62
     3
100
AcDbLine
 10
296.490864
 20
629.381699
 30
0.0
 11
350.002805
 21
598.486565
 31
0.0
  0
LINE
  5
3BD
330
1F
100
AcDbEntity
  8
dxfile
  6
PLine1
 62
     3
100
AcDbLine
 10
297.290864
 20
630.767339
 30
0.0
 11
320.48928
 21
617.373728
 31
0.0
  0
ARC
  5
3BE
330
1F
100
AcDbEntity
  8
dxfile
  6
Continuous
 62
     3
100
AcDbCircle
 10
320.789864
 20
616.276425
 30
0.0
 40
0.8
100
AcDbArc
 50
240.0
 51
330.006366
  0
LINE
  5
3BF
330
1F
100
AcDbEntity
  8
dxfile
  6
PLine1
 62
     3
100
AcDbLine
 10
342.023281
 20
651.465625
 30
0.0
 11
321.428982
 21
615.795252
 31
0.0
  0
LINE
  5
3C0
330
1F
100
AcDbEntity
  8
dxfile
  6
PLine1
 62
     3
100
AcDbLine
 10
342.023281
 20
654.665625
 30
0.0
 11
320.491916
 21
617.372206
 31
0.0
  0
ARC
  5
3C1
330
1F
100
AcDbEntity
  8
dxfile
  6
Continuous
 62
     3
100
AcDbCircle
 10
350.295625
 20
597.393745
 30
0.0
 40
0.8
100
AcDbArc
 50
240.0
 51
330.0
  0
LINE
  5
3C2
330
1F
100
AcDbEntity
  8
dxfile
  6
PLine1
 62
     3
100
AcDbLine
 10
355.588446
 20
604.961179
 30
0.0
 11
350.988446
 21
596.993745
 31
0.0
  0
LINE
  5
3C3
330
1F
100
AcDbEntity
  8
dxfile
  6
Continuous
 62
     3
100
AcDbLine
 10
354.202805
 20
605.761179
 30
0.0
 11
355.588446
 21
604.961179
 31
0.0
  0
LINE
  5
3C4
330
1F
100
AcDbEntity
  8
dxfile
  6
PLine1
 62
     3
100
AcDbLine
 10
411.096474
 20
839.103905
 30
0.0
 11
325.818093
 21
691.397415
 31
0.0
  0
LINE
  5
3C5
330
1F
100
AcDbEntity
  8
dxfile
  6
PLine1
 62
     3
100
AcDbLine
 10
403.244511
 20
839.103905
 30
0.0
 11
319.92912
 21
694.797415
 31
0.0
  0
ARC
  5
3C6
330
1F
100
AcDbEntity
  8
dxfile
  6
Continuous
 62
     3
100
AcDbCircle
 10
285.166169
 20
614.986218
 30
0.0
 40
1.0
100
AcDbArc
 50
150.0
 51
240.0
  0
LINE
  5
3C7
330
1F
100
AcDbEntity
  8
dxfile
  6
PLine1
 62
     3
100
AcDbLine
 10
348.752049
 20
577.120192
 30
0.0
 11
284.666169
 21
614.120192
 31
0.0
  0
LINE
  5
3C8
330
1F
100
AcDbEntity
  8
dxfile
  6
PLine1
 62
     3
100
AcDbLine
 10
349.752049
 20
578.852243
 30
0.0
 11
286.532195
 21
615.352243
 31
0.0
  0
LINE
  5
3C9
330
1F
100
AcDbEntity
  8
dxfile
  6
Continuous
 62
     3
100
AcDbLine
 10
348.752049
 20
577.120192
 30
0.0
 11
349.752049
 21
578.852243
 31
0.0
  0
LINE
  5
3CA
330
1F
100
AcDbEntity
  8
dxfile
  6
PLine1
 62
     3
100
AcDbLine
 10
310.402439
 20
700.297647
 30
0.0
 11
325.818093
 21
691.397415
 31
0.0
  0
ARC
  5
3CB
330
1F
100
AcDbEntity
  8
dxfile
  6
Continuous
 62
     3
100
AcDbCircle
 10
305.631158
 20
698.433545
 30
0.0
 40
1.0
100
AcDbArc
 50
150.0
 51
240.0
  0
LINE
  5
3CC
330
1F
100
AcDbEntity
  8
dxfile
  6
PLine1
 62
     3
100
AcDbLine
 10
305.131158
 20
697.56752
 30
0.0
 11
325.050144
 21
686.067288
 31
0.0
  0
LINE
  5
3CD
330
1F
100
AcDbEntity
  8
dxfile
  6
PLine1
 62
     3
100
AcDbLine
 10
319.265132
 20
724.048282
 30
0.0
 11
304.765132
 21
698.933545
 31
0.0
  0
LINE
  5
3CE
330
1F
100
AcDbEntity
  8
dxfile
  6
Continuous
 62
     3
100
AcDbLine
 10
319.265132
 20
724.048282
 30
0.0
 11
320.997183
 21
723.048282
 31
0.0
  0
LINE
  5
3CF
330
1F
100
AcDbEntity
  8
dxfile
  6
PLine1
 62
     3
100
AcDbLine
 10
320.997183
 20
723.048282
 30
0.0
 11
306.997183
 21
698.799571
 31
0.0
  0
LINE
  5
3D0
330
1F
100
AcDbEntity
  8
dxfile
  6
PLine1
 62
     3
100
AcDbLine
 10
326.916169
 20
687.299339
 30
0.0
 11
306.997183
 21
698.799571
 31
0.0
  0
LINE
  5
3D1
330
1F
100
AcDbEntity
  8
dxfile
  6
PLine1
 62
     3
100
AcDbLine
 10
339.296795
 20
706.743211
 30
0.0
 11
286.532195
 21
615.352243
 31
0.0
  0
LINE
  5
3D2
330
1F
100
AcDbEntity
  8
dxfile
  6
PLine1
 62
     3
100
AcDbLine
 10
325.050144
 20
686.067288
 30
0.0
 11
284.300144
 21
615.486218
 31
0.0
  0
LINE
  5
3D3
330
1F
100
AcDbEntity
  8
dxfile
  6
Continuous
 62
     6
100
AcDbLine
 10
320.402439
 20
717.618155
 30
0.0
 11
318.497183
 21
718.718155
 31
0.0
  0
LINE
  5
3D4
330
1F
100
AcDbEntity
  8
dxfile
  6
Continuous
 62
     6
100
AcDbLine
 10
312.13449
 20
699.297647
 30
0.0
 11
310.63449
 21
696.699571
 31
0.0
  0
LINE
  5
3D5
330
1F
100
AcDbEntity
  8
dxfile
  6
Continuous
 62
     6
100
AcDbLine
 10
1298.071098
 20
739.482211
 30
0.0
 11
438.071098
 21
739.482211
 31
0.0
  0
LINE
  5
3D6
330
1F
100
AcDbEntity
  8
dxfile
  6
Continuous
 62
     6
100
AcDbLine
 10
1298.071098
 20
745.482211
 30
0.0
 11
438.071098
 21
745.482211
 31
0.0
  0
LINE
  5
3D7
330
1F
100
AcDbEntity
  8
dxfile
  6
Continuous
 62
     6
100
AcDbLine
 10
453.071098
 20
745.482211
 30
0.0
 11
453.071098
 21
739.482211
 31
0.0
  0
LINE
  5
3D8
330
1F
100
AcDbEntity
  8
dxfile
  6
Continuous
 62
     6
100
AcDbLine
 10
453.071098
 20
739.482211
 30
0.0
 11
438.071098
 21
745.482211
 31
0.0
  0
LINE
  5
3D9
330
1F
100
AcDbEntity
  8
dxfile
  6
Continuous
 62
     6
100
AcDbLine
 10
453.071098
 20
745.482211
 30
0.0
 11
438.071098
 21
739.482211
 31
0.0
  0
CIRCLE
  5
3DA
330
1F
100
AcDbEntity
  8
dxfile
  6
Continuous
 62
     3
100
AcDbCircle
 10
666.531104
 20
750.482211
 30
0.0
 40
2.4
  0
CIRCLE
  5
3DB
330
1F
100
AcDbEntity
  8
dxfile
  6
Continuous
 62
     3
100
AcDbCircle
 10
532.858748
 20
982.007758
 30
0.0
 40
2.4
  0
ARC
  5
3DC
330
1F
100
AcDbEntity
  8
dxfile
  6
Continuous
 62
     3
100
AcDbCircle
 10
399.189449
 20
750.482211
 30
0.0
 40
267.3416548518122
100
AcDbArc
 50
0.0
 51
60.000378
  0
LINE
  5
3DD
330
1F
100
AcDbEntity
  8
dxfile
  6
PLine1
 62
     3
100
AcDbLine
 10
420.686257
 20
881.317413
 30
0.0
 11
744.727113
 21
1442.581196
 31
0.0
  0
LINE
  5
3DE
330
1F
100
AcDbEntity
  8
dxfile
  6
PLine1
 62
     3
100
AcDbLine
 10
416.356113
 20
883.817384
 30
0.0
 11
740.39697
 21
1445.081167
 31
0.0
  0
LINE
  5
3DF
330
1F
100
AcDbEntity
  8
dxfile
  6
PLine1
 62
     3
100
AcDbLine
 10
737.227241
 20
1429.590838
 30
0.0
 11
742.423394
 21
1426.590838
 31
0.0
  0
LINE
  5
3E0
330
1F
100
AcDbEntity
  8
dxfile
  6
PLine1
 62
     3
100
AcDbLine
 10
744.727156
 20
1442.581269
 30
0.0
 11
742.423394
 21
1426.590838
 31
0.0
  0
LINE
  5
3E1
330
1F
100
AcDbEntity
  8
dxfile
  6
PLine1
 62
     3
100
AcDbLine
 10
749.923308
 20
1439.581269
 30
0.0
 11
737.227241
 21
1429.590838
 31
0.0
  0
LINE
  5
3E2
330
1F
100
AcDbEntity
  8
dxfile
  6
PLine1
 62
     3
100
AcDbLine
 10
398.048358
 20
842.103905
 30
0.0
 11
314.732968
 21
697.797415
 31
0.0
  0
LINE
  5
3E3
330
1F
100
AcDbEntity
  8
dxfile
  6
PLine1
 62
     3
100
AcDbLine
 10
393.718231
 20
844.603905
 30
0.0
 11
310.402841
 21
700.297415
 31
0.0
  0
LINE
  5
3E4
330
1F
100
AcDbEntity
  8
dxfile
  6
PLine1
 62
     3
100
AcDbLine
 10
322.232968
 20
710.787796
 30
0.0
 11
327.42912
 21
707.787796
 31
0.0
  0
LINE
  5
3E5
330
1F
100
AcDbEntity
  8
dxfile
  6
PLine1
 62
     3
100
AcDbLine
 10
322.232968
 20
710.787796
 30
0.0
 11
319.92912
 21
694.797415
 31
0.0
  0
LINE
  5
3E6
330
1F
100
AcDbEntity
  8
dxfile
  6
PLine1
 62
     3
100
AcDbLine
 10
327.42912
 20
707.787796
 30
0.0
 11
314.732968
 21
697.797415
 31
0.0
  0
LINE
  5
3E7
330
1F
100
AcDbEntity
  8
dxfile
  6
Continuous
 62
     6
100
AcDbLine
 10
1283.071098
 20
745.482211
 30
0.0
 11
1283.071098
 21
739.482211
 31
0.0
  0
LINE
  5
3E8
330
1F
100
AcDbEntity
  8
dxfile
  6
Continuous
 62
     6
100
AcDbLine
 10
1283.071098
 20
739.482211
 30
0.0
 11
1298.071098
 21
745.482211
 31
0.0
  0
LINE
  5
3E9
330
1F
100
AcDbEntity
  8
dxfile
  6
Continuous
 62
     6
100
AcDbLine
 10
1283.071098
 20
745.482211
 30
0.0
 11
1298.071098
 21
739.482211
 31
0.0
  0
TEXT
  5
3EA
330
1F
100
AcDbEntity
  8
dxfile
  6
Continuous
 62
     3
100
AcDbText
 10
187.297819
 20
1630.702358
 30
0.0
 40
14.382
  1
型　　　　　式
 41
0.858268
  7
BIGFONT
100
AcDbText
  0
LINE
  5
3EB
330
1F
100
AcDbEntity
  8
dxfile
  6
Continuous
 62
     3
100
AcDbLine
 10
1145.071098
 20
571.535587
 30
0.0
 11
1105.071098
 21
571.535587
 31
0.0
  0
LINE
  5
3EC
330
1F
100
AcDbEntity
  8
dxfile
  6
Continuous
 62
     3
100
AcDbLine
 10
1145.071098
 20
573.835587
 30
0.0
 11
1122.462148
 21
605.971489
 31
0.0
  0
LINE
  5
3ED
330
1F
100
AcDbEntity
  8
dxfile
  6
Continuous
 62
     3
100
AcDbLine
 10
1105.071098
 20
599.235587
 30
0.0
 11
1105.071098
 21
569.235587
 31
0.0
  0
CIRCLE
  5
3EE
330
1F
100
AcDbEntity
  8
dxfile
  6
Continuous
 62
     3
100
AcDbCircle
 10
1115.376094
 20
599.201161
 30
0.0
 40
4.764998093999999
  0
LINE
  5
3EF
330
1F
100
AcDbEntity
  8
dxfile
  6
PLine2
 62
     3
100
AcDbLine
 10
640.699295
 20
671.71858
 30
0.0
 11
1135.178715
 21
596.163186
 31
0.0
  0
LINE
  5
3F0
330
1F
100
AcDbEntity
  8
dxfile
  6
Continuous
 62
     3
100
AcDbLine
 10
1145.071098
 20
573.835587
 30
0.0
 11
1145.071098
 21
569.235587
 31
0.0
  0
LINE
  5
3F1
330
1F
100
AcDbEntity
  8
dxfile
  6
Continuous
 62
     3
100
AcDbLine
 10
1105.071098
 20
573.835587
 30
0.0
 11
1145.071098
 21
573.835587
 31
0.0
  0
LINE
  5
3F2
330
1F
100
AcDbEntity
  8
dxfile
  6
PLine2
 62
     3
100
AcDbLine
 10
1115.071098
 20
611.2338
 30
0.0
 11
1115.071098
 21
587.306587
 31
0.0
  0
ARC
  5
3F3
330
1F
100
AcDbEntity
  8
dxfile
  6
Continuous
 62
     3
100
AcDbCircle
 10
1115.071098
 20
599.235587
 30
0.0
 40
10.0
100
AcDbArc
 50
42.344768
 51
180.0
  0
LINE
  5
3F4
330
1F
100
AcDbEntity
  8
dxfile
  6
Continuous
 62
     4
100
AcDbLine
 10
670.642358
 20
679.788423
 30
0.0
 11
687.172331
 21
677.262678
 31
0.0
  0
LINE
  5
3F5
330
1F
100
AcDbEntity
  8
dxfile
  6
Continuous
 62
     4
100
AcDbLine
 10
1088.814884
 20
615.892558
 30
0.0
 11
692.114965
 21
676.507454
 31
0.0
  0
LINE
  5
3F6
330
1F
100
AcDbEntity
  8
dxfile
  6
Continuous
 62
     4
100
AcDbLine
 10
658.683038
 20
656.325625
 30
0.0
 11
683.396211
 21
652.549505
 31
0.0
  0
LINE
  5
3F7
330
1F
100
AcDbEntity
  8
dxfile
  6
Continuous
 62
     4
100
AcDbLine
 10
1085.038765
 20
591.179385
 30
0.0
 11
688.338845
 21
651.794281
 31
0.0
  0
LINE
  5
3F8
330
1F
100
AcDbEntity
  8
dxfile
  6
Continuous
 62
     4
100
AcDbLine
 10
1088.814884
 20
615.892558
 30
0.0
 11
1085.038765
 21
591.179385
 31
0.0
  0
ARC
  5
3F9
330
1F
100
AcDbEntity
  8
dxfile
  6
Continuous
 62
     4
100
AcDbCircle
 10
1087.312774
 20
611.123526
 30
0.0
 40
5.0
100
AcDbArc
 50
351.312521
 51
72.517047
  0
ARC
  5
3FA
330
1F
100
AcDbEntity
  8
dxfile
  6
Continuous
 62
     4
100
AcDbCircle
 10
1085.02934
 20
596.179376
 30
0.0
 40
5.0
100
AcDbArc
 50
270.107995
 51
351.312521
  0
LINE
  5
3FB
330
1F
100
AcDbEntity
  8
dxfile
  6
Continuous
 62
     4
100
AcDbLine
 10
1089.225632
 20
590.53964
 30
0.0
 11
1093.001752
 21
615.252813
 31
0.0
  0
LINE
  5
3FC
330
1F
100
AcDbEntity
  8
dxfile
  6
Continuous
 62
     4
100
AcDbLine
 10
1093.001752
 20
615.252813
 30
0.0
 11
1116.959158
 21
611.592173
 31
0.0
  0
LINE
  5
3FD
330
1F
100
AcDbEntity
  8
dxfile
  6
Continuous
 62
     4
100
AcDbLine
 10
1104.999837
 20
588.129376
 30
0.0
 11
1089.225632
 21
590.53964
 31
0.0
  0
ARC
  5
3FE
330
1F
100
AcDbEntity
  8
dxfile
  6
Continuous
 62
     4
100
AcDbCircle
 10
1114.167479
 20
599.373658
 30
0.0
 40
12.53337906706985
100
AcDbArc
 50
2.379584
 51
85.495032
  0
LINE
  5
3FF
330
1F
100
AcDbEntity
  8
dxfile
  6
Continuous
 62
     4
100
AcDbLine
 10
687.172331
 20
677.262678
 30
0.0
 11
683.396211
 21
652.549505
 31
0.0
  0
ARC
  5
400
330
1F
100
AcDbEntity
  8
dxfile
  6
Continuous
 62
     4
100
AcDbCircle
 10
660.571098
 20
668.682211
 30
0.0
 40
12.49999999999996
100
AcDbArc
 50
177.657082
 51
261.312521
  0
LINE
  5
401
330
1F
100
AcDbEntity
  8
dxfile
  6
Continuous
 62
     4
100
AcDbLine
 10
692.114965
 20
676.507454
 30
0.0
 11
688.338845
 21
651.794281
 31
0.0
  0
LINE
  5
402
330
1F
100
AcDbEntity
  8
dxfile
  6
Continuous
 62
     4
100
AcDbLine
 10
686.190539
 20
670.837253
 30
0.0
 11
691.133174
 21
670.082029
 31
0.0
  0
LINE
  5
403
330
1F
100
AcDbEntity
  8
dxfile
  6
Continuous
 62
     4
100
AcDbLine
 10
684.378002
 20
658.97493
 30
0.0
 11
689.320636
 21
658.219706
 31
0.0
  0
LINE
  5
404
330
1F
100
AcDbEntity
  8
dxfile
  6
PLine2
 62
     3
100
AcDbLine
 10
660.571098
 20
678.703937
 30
0.0
 11
660.571098
 21
655.491447
 31
0.0
  0
CIRCLE
  5
405
330
1F
100
AcDbEntity
  8
dxfile
  6
Continuous
 62
     3
100
AcDbCircle
 10
660.571098
 20
668.682211
 30
0.0
 40
4.5
  0
LINE
  5
406
330
1F
100
AcDbEntity
  8
dxfile
  6
Continuous
 62
     3
100
AcDbLine
 10
630.571098
 20
696.382211
 30
0.0
 11
670.571098
 21
696.382211
 31
0.0
  0
LINE
  5
407
330
1F
100
AcDbEntity
  8
dxfile
  6
Continuous
 62
     3
100
AcDbLine
 10
630.571098
 20
694.082211
 30
0.0
 11
653.180048
 21
661.946309
 31
0.0
  0
LINE
  5
408
330
1F
100
AcDbEntity
  8
dxfile
  6
Continuous
 62
     3
100
AcDbLine
 10
670.571098
 20
668.682211
 30
0.0
 11
670.571098
 21
698.682211
 31
0.0
  0
LINE
  5
409
330
1F
100
AcDbEntity
  8
dxfile
  6
Continuous
 62
     3
100
AcDbLine
 10
630.571098
 20
694.082211
 30
0.0
 11
630.571098
 21
698.682211
 31
0.0
  0
LINE
  5
40A
330
1F
100
AcDbEntity
  8
dxfile
  6
Continuous
 62
     3
100
AcDbLine
 10
670.571098
 20
694.082211
 30
0.0
 11
630.571098
 21
694.082211
 31
0.0
  0
ARC
  5
40B
330
1F
100
AcDbEntity
  8
dxfile
  6
Continuous
 62
     3
100
AcDbCircle
 10
660.571098
 20
668.682211
 30
0.0
 40
10.0
100
AcDbArc
 50
222.344768
 51
0.0
  0
LINE
  5
40C
330
1F
100
AcDbEntity
  8
dxfile
  6
Continuous
 62
     4
100
AcDbLine
 10
1278.071098
 20
698.682211
 30
0.0
 11
1228.071098
 21
698.682211
 31
0.0
  0
LINE
  5
40D
330
1F
100
AcDbEntity
  8
dxfile
  6
PLine5
 62
     3
100
AcDbLine
 10
1255.650332
 20
660.747887
 30
0.0
 11
1265.581321
 21
672.715498
 31
0.0
  0
LINE
  5
40E
330
1F
100
AcDbEntity
  8
dxfile
  6
Continuous
 62
     4
100
AcDbLine
 10
1272.071098
 20
723.681984
 30
0.0
 11
1278.071098
 21
723.682212
 31
0.0
  0
LINE
  5
40F
330
1F
100
AcDbEntity
  8
dxfile
  6
Continuous
 62
     4
100
AcDbLine
 10
1272.071098
 20
723.681984
 30
0.0
 11
1272.071098
 21
707.682211
 31
0.0
  0
ARC
  5
410
330
1F
100
AcDbEntity
  8
dxfile
  6
Continuous
 62
     4
100
AcDbCircle
 10
1269.071098
 20
707.682211
 30
0.0
 40
3.0
100
AcDbArc
 50
270.0
 51
0.0
  0
ARC
  5
411
330
1F
100
AcDbEntity
  8
dxfile
  6
Continuous
 62
     4
100
AcDbCircle
 10
1269.071098
 20
707.682211
 30
0.0
 40
3.0
100
AcDbArc
 50
270.0
 51
0.0
  0
LINE
  5
412
330
1F
100
AcDbEntity
  8
dxfile
  6
Continuous
 62
     4
100
AcDbLine
 10
1231.071098
 20
704.682211
 30
0.0
 11
1269.071098
 21
704.682211
 31
0.0
  0
LINE
  5
413
330
1F
100
AcDbEntity
  8
dxfile
  6
Continuous
 62
     3
100
AcDbLine
 10
1244.609344
 20
681.437484
 30
0.0
 11
1314.139218
 21
623.923565
 31
0.0
  0
ARC
  5
414
330
1F
100
AcDbEntity
  8
dxfile
  6
Continuous
 62
     3
100
AcDbCircle
 10
1279.145826
 20
651.478883
 30
0.0
 40
2.499999999999906
100
AcDbArc
 50
162.204141
 51
230.313361
  0
ARC
  5
415
330
1F
100
AcDbEntity
  8
dxfile
  6
Continuous
 62
     3
100
AcDbCircle
 10
1279.145826
 20
651.478883
 30
0.0
 40
2.499999999999906
100
AcDbArc
 50
50.313361
 51
118.137898
  0
LINE
  5
416
330
1F
100
AcDbEntity
  8
dxfile
  6
Continuous
 62
     3
100
AcDbLine
 10
1311.001388
 20
623.923565
 30
0.0
 11
1243.332167
 21
679.898387
 31
0.0
  0
LINE
  5
417
330
1F
100
AcDbEntity
  8
dxfile
  6
Continuous
 62
     3
100
AcDbLine
 10
1276.910767
 20
648.785464
 30
0.0
 11
1277.549355
 21
649.555012
 31
0.0
  0
LINE
  5
418
330
1F
100
AcDbEntity
  8
dxfile
  6
Continuous
 62
     3
100
AcDbLine
 10
1281.380886
 20
654.172303
 30
0.0
 11
1280.742297
 21
653.402754
 31
0.0
  0
LINE
  5
419
330
1F
100
AcDbEntity
  8
dxfile
  6
Continuous
 62
     3
100
AcDbLine
 10
1237.436038
 20
681.542467
 30
0.0
 11
1276.910767
 21
648.785464
 31
0.0
  0
LINE
  5
41A
330
1F
100
AcDbEntity
  8
dxfile
  6
Continuous
 62
     3
100
AcDbLine
 10
1239.959628
 20
680.7478
 30
0.0
 11
1277.549355
 21
649.555012
 31
0.0
  0
LINE
  5
41B
330
1F
100
AcDbEntity
  8
dxfile
  6
Continuous
 62
     3
100
AcDbLine
 10
1243.154317
 20
684.578207
 30
0.0
 11
1280.742297
 21
653.402754
 31
0.0
  0
LINE
  5
41C
330
1F
100
AcDbEntity
  8
dxfile
  6
Continuous
 62
     3
100
AcDbLine
 10
1241.906157
 20
686.929307
 30
0.0
 11
1281.380886
 21
654.172303
 31
0.0
  0
LINE
  5
41D
330
1F
100
AcDbEntity
  8
dxfile
  6
Continuous
 62
     3
100
AcDbLine
 10
1234.556072
 20
688.480449
 30
0.0
 11
1244.566805
 21
680.17332
 31
0.0
  0
LINE
  5
41E
330
1F
100
AcDbEntity
  8
dxfile
  6
Continuous
 62
     3
100
AcDbLine
 10
1235.849394
 20
679.630438
 30
0.0
 11
1244.227761
 21
689.72702
 31
0.0
  0
LINE
  5
41F
330
1F
100
AcDbEntity
  8
dxfile
  6
Continuous
 62
     4
100
AcDbLine
 10
1238.071098
 20
687.348763
 30
0.0
 11
1238.071098
 21
696.931199
 31
0.0
  0
LINE
  5
420
330
1F
100
AcDbEntity
  8
dxfile
  6
Continuous
 62
     4
100
AcDbLine
 10
1239.671098
 20
687.735887
 30
0.0
 11
1239.671098
 21
698.531199
 31
0.0
  0
LINE
  5
421
330
1F
100
AcDbEntity
  8
dxfile
  6
Continuous
 62
     4
100
AcDbLine
 10
1241.271098
 20
687.348763
 30
0.0
 11
1241.271098
 21
696.931199
 31
0.0
  0
LINE
  5
422
330
1F
100
AcDbEntity
  8
dxfile
  6
Continuous
 62
     4
100
AcDbLine
 10
1249.671098
 20
696.931199
 30
0.0
 11
1241.271098
 21
696.931199
 31
0.0
  0
LINE
  5
423
330
1F
100
AcDbEntity
  8
dxfile
  6
Continuous
 62
     4
100
AcDbLine
 10
1249.671098
 20
698.531199
 30
0.0
 11
1249.671098
 21
696.931199
 31
0.0
  0
LINE
  5
424
330
1F
100
AcDbEntity
  8
dxfile
  6
Continuous
 62
     4
100
AcDbLine
 10
1228.071098
 20
696.931199
 30
0.0
 11
1238.071098
 21
696.931199
 31
0.0
  0
ARC
  5
425
330
1F
100
AcDbEntity
  8
dxfile
  6
Continuous
 62
     4
100
AcDbCircle
 10
1231.071098
 20
701.682211
 30
0.0
 40
3.0
100
AcDbArc
 50
90.0
 51
180.0
  0
LINE
  5
426
330
1F
100
AcDbEntity
  8
dxfile
  6
Continuous
 62
     4
100
AcDbLine
 10
1228.071098
 20
696.931199
 30
0.0
 11
1228.071098
 21
701.682211
 31
0.0
  0
CIRCLE
  5
427
330
1F
100
AcDbEntity
  8
dxfile
  6
Continuous
 62
     3
100
AcDbCircle
 10
1239.671098
 20
684.235887
 30
0.0
 40
3.49999999999999
  0
ARC
  5
428
330
1F
100
AcDbEntity
  8
dxfile
  6
Continuous
 62
     3
100
AcDbCircle
 10
1242.207499
 20
682.131125
 30
0.0
 40
2.499999999999906
100
AcDbArc
 50
230.313361
 51
296.735183
  0
ARC
  5
429
330
1F
100
AcDbEntity
  8
dxfile
  6
Continuous
 62
     3
100
AcDbCircle
 10
1242.207499
 20
682.131125
 30
0.0
 40
2.499999999999906
100
AcDbArc
 50
343.89154
 51
50.313361
  0
ARC
  5
42A
330
1F
100
AcDbEntity
  8
dxfile
  6
Continuous
 62
     3
100
AcDbCircle
 10
1243.970756
 20
680.667936
 30
0.0
 40
0.9999999999999428
100
AcDbArc
 50
50.313361
 51
230.313361
  0
LINE
  5
42B
330
1F
100
AcDbEntity
  8
dxfile
  6
PLine1
 62
     3
100
AcDbLine
 10
778.441502
 20
1334.734879
 30
0.0
 11
790.959365
 21
1343.962628
 31
0.0
  0
LINE
  5
42C
330
1F
100
AcDbEntity
  8
dxfile
  6
PLine1
 62
     3
100
AcDbLine
 10
750.619693
 20
1409.159092
 30
0.0
 11
753.619546
 21
1414.35533
 31
0.0
  0
LINE
  5
42D
330
1F
100
AcDbEntity
  8
dxfile
  6
PLine1
 62
     3
100
AcDbLine
 10
750.619693
 20
1409.159092
 30
0.0
 11
764.475826
 21
1401.159074
 31
0.0
  0
ARC
  5
42E
330
1F
100
AcDbEntity
  8
dxfile
  6
PLine1
 62
     3
100
AcDbCircle
 10
762.975802
 20
1398.561012
 30
0.0
 40
3.0
100
AcDbArc
 50
329.999454
 51
59.999454
  0
ARC
  5
42F
330
1F
100
AcDbEntity
  8
dxfile
  6
PLine1
 62
     3
100
AcDbCircle
 10
762.975802
 20
1398.561012
 30
0.0
 40
3.0
100
AcDbArc
 50
329.999454
 51
59.999454
  0
LINE
  5
430
330
1F
100
AcDbEntity
  8
dxfile
  6
PLine1
 62
     3
100
AcDbLine
 10
746.57355
 20
1364.152203
 30
0.0
 11
765.573864
 21
1397.060987
 31
0.0
  0
ARC
  5
431
330
1F
100
AcDbEntity
  8
dxfile
  6
PLine1
 62
     3
100
AcDbCircle
 10
799.017955
 20
1320.086935
 30
0.0
 40
2.499999999999906
100
AcDbArc
 50
126.396397
 51
216.396397
  0
ARC
  5
432
330
1F
100
AcDbEntity
  8
dxfile
  6
PLine1
 62
     3
100
AcDbCircle
 10
799.017955
 20
1320.086935
 30
0.0
 40
2.499999999999906
100
AcDbArc
 50
36.396397
 51
126.396397
  0
LINE
  5
433
330
1F
100
AcDbEntity
  8
dxfile
  6
PLine1
 62
     3
100
AcDbLine
 10
796.200696
 20
1318.010146
 30
0.0
 11
797.005627
 21
1318.603514
 31
0.0
  0
LINE
  5
434
330
1F
100
AcDbEntity
  8
dxfile
  6
PLine1
 62
     3
100
AcDbLine
 10
801.835214
 20
1322.163724
 30
0.0
 11
801.030283
 21
1321.570356
 31
0.0
  0
LINE
  5
435
330
1F
100
AcDbEntity
  8
dxfile
  6
PLine1
 62
     3
100
AcDbLine
 10
765.763301
 20
1359.29986
 30
0.0
 11
796.200696
 21
1318.010146
 31
0.0
  0
LINE
  5
436
330
1F
100
AcDbEntity
  8
dxfile
  6
PLine1
 62
     3
100
AcDbLine
 10
768.021682
 20
1357.921558
 30
0.0
 11
797.005627
 21
1318.603514
 31
0.0
  0
LINE
  5
437
330
1F
100
AcDbEntity
  8
dxfile
  6
PLine1
 62
     3
100
AcDbLine
 10
772.043864
 20
1360.871153
 30
0.0
 11
801.030283
 21
1321.570356
 31
0.0
  0
LINE
  5
438
330
1F
100
AcDbEntity
  8
dxfile
  6
PLine1
 62
     3
100
AcDbLine
 10
771.397819
 20
1363.453438
 30
0.0
 11
801.835214
 21
1322.163724
 31
0.0
  0
LINE
  5
439
330
1F
100
AcDbEntity
  8
dxfile
  6
PLine1
 62
     3
100
AcDbLine
 10
764.636567
 20
1366.726856
 30
0.0
 11
772.355446
 21
1356.255845
 31
0.0
  0
LINE
  5
43A
330
1F
100
AcDbEntity
  8
dxfile
  6
PLine1
 62
     3
100
AcDbLine
 10
763.76336
 20
1357.825571
 30
0.0
 11
774.324167
 21
1365.610644
 31
0.0
  0
LINE
  5
43B
330
1F
100
AcDbEntity
  8
dxfile
  6
PLine1
 62
     3
100
AcDbLine
 10
765.084732
 20
1361.54748
 30
0.0
 11
756.786144
 21
1366.338777
 31
0.0
  0
LINE
  5
43C
330
1F
100
AcDbEntity
  8
dxfile
  6
PLine1
 62
     3
100
AcDbLine
 10
765.549488
 20
1363.126678
 30
0.0
 11
756.200525
 21
1368.524423
 31
0.0
  0
LINE
  5
43D
330
1F
100
AcDbEntity
  8
dxfile
  6
PLine1
 62
     3
100
AcDbLine
 10
766.684758
 20
1364.318746
 30
0.0
 11
758.386171
 21
1369.110043
 31
0.0
  0
LINE
  5
43E
330
1F
100
AcDbEntity
  8
dxfile
  6
PLine1
 62
     3
100
AcDbLine
 10
762.58624
 20
1376.384617
 30
0.0
 11
758.386171
 21
1369.110043
 31
0.0
  0
LINE
  5
43F
330
1F
100
AcDbEntity
  8
dxfile
  6
PLine1
 62
     3
100
AcDbLine
 10
761.200607
 20
1377.18463
 30
0.0
 11
762.58624
 21
1376.384617
 31
0.0
  0
LINE
  5
440
330
1F
100
AcDbEntity
  8
dxfile
  6
PLine1
 62
     3
100
AcDbLine
 10
751.786062
 20
1357.678571
 30
0.0
 11
756.786144
 21
1366.338777
 31
0.0
  0
ARC
  5
441
330
1F
100
AcDbEntity
  8
dxfile
  6
PLine1
 62
     3
100
AcDbCircle
 10
749.171612
 20
1362.652178
 30
0.0
 40
3.0
100
AcDbArc
 50
149.999454
 51
239.999454
  0
LINE
  5
442
330
1F
100
AcDbEntity
  8
dxfile
  6
PLine1
 62
     3
100
AcDbLine
 10
751.786062
 20
1357.678571
 30
0.0
 11
747.671587
 21
1360.054116
 31
0.0
  0
CIRCLE
  5
443
330
1F
100
AcDbEntity
  8
dxfile
  6
PLine1
 62
     3
100
AcDbCircle
 10
768.58056
 20
1361.376649
 30
0.0
 40
3.49999999999999
  0
ARC
  5
444
330
1F
100
AcDbEntity
  8
dxfile
  6
PLine1
 62
     3
100
AcDbCircle
 10
770.536278
 20
1358.723629
 30
0.0
 40
2.499999999999906
100
AcDbArc
 50
216.396397
 51
306.396397
  0
ARC
  5
445
330
1F
100
AcDbEntity
  8
dxfile
  6
PLine1
 62
     3
100
AcDbCircle
 10
770.536278
 20
1358.723629
 30
0.0
 40
2.499999999999906
100
AcDbArc
 50
306.396397
 51
36.396397
  0
TEXT
  5
446
330
1F
100
AcDbEntity
  8
dxfile
  6
Continuous
 62
     2
100
AcDbText
 10
2183.680789
 20
117.209369
 30
0.0
 40
24.0
  1
ＬＭ－ＡＬ－ＮＰ型
 41
0.858268
  7
BIGFONT
100
AcDbText
  0
LINE
  5
447
330
1F
100
AcDbEntity
  8
dxfile
  6
Continuous
 62
     1
100
AcDbLine
 10
62.760075
 20
52.300062
 30
0.0
 11
62.760075
 21
1732.300062
 31
0.0
  0
LINE
  5
448
330
1F
100
AcDbEntity
  8
dxfile
  6
Continuous
 62
     1
100
AcDbLine
 10
62.760075
 20
52.300062
 30
0.0
 11
2462.760075
 21
52.300062
 31
0.0
  0
LINE
  5
449
330
1F
100
AcDbEntity
  8
dxfile
  6
Continuous
 62
     1
100
AcDbLine
 10
2462.760075
 20
1732.300062
 30
0.0
 11
62.760075
 21
1732.300062
 31
0.0
  0
LINE
  5
44A
330
1F
100
AcDbEntity
  8
dxfile
  6
Continuous
 62
     1
100
AcDbLine
 10
2462.760075
 20
52.300062
 30
0.0
 11
2462.760075
 21
1732.300062
 31
0.0
  0
TEXT
  5
44B
330
1F
100
AcDbEntity
  8
dxfile
  6
Continuous
 62
     3
100
AcDbText
 10
2086.86956
 20
249.494072
 30
0.0
 40
21.0
  1
ボックス施工例
 41
0.858268
  7
BIGFONT
100
AcDbText
  0
LINE
  5
44C
330
1F
100
AcDbEntity
  8
dxfile
  6
Continuous
 62
     3
100
AcDbLine
 10
2270.621665
 20
1304.289494
 30
0.0
 11
2270.621665
 21
341.429475
 31
0.0
  0
LINE
  5
44D
330
1F
100
AcDbEntity
  8
dxfile
  6
Continuous
 62
     3
100
AcDbLine
 10
2211.121665
 20
1157.520481
 30
0.0
 11
2211.121665
 21
1164.170481
 31
0.0
  0
INSERT
  5
454
330
1F
100
AcDbEntity
  8
dxfile
  6
Continuous
 62
     3
100
AcDbBlockReference
  2
DIM_6
 10
0.0
 20
0.0
 30
0.0
  0
LINE
  5
455
330
1F
100
AcDbEntity
  8
dxfile
  6
Continuous
 62
     4
100
AcDbLine
 10
2189.091418
 20
1248.026476
 30
0.0
 11
2196.400744
 21
1254.104258
 31
0.0
  0
ARC
  5
456
330
1F
100
AcDbEntity
  8
dxfile
  6
Continuous
 62
     4
100
AcDbCircle
 10
2081.849573
 20
1155.447091
 30
0.0
 40
144.5000000000913
100
AcDbArc
 50
40.782563
 51
89.215646
  0
ARC
  5
457
330
1F
100
AcDbEntity
  8
dxfile
  6
Continuous
 62
     4
100
AcDbCircle
 10
2081.849573
 20
1155.447091
 30
0.0
 40
149.9999999997634
100
AcDbArc
 50
40.744474
 51
89.215646
  0
LINE
  5
458
330
1F
100
AcDbEntity
  8
dxfile
  6
Continuous
 62
     3
100
AcDbLine
 10
1974.43827
 20
1287.426808
 30
0.0
 11
1977.840194
 21
1299.319113
 31
0.0
  0
LINE
  5
459
330
1F
100
AcDbEntity
  8
dxfile
  6
Continuous
 62
     3
100
AcDbLine
 10
1977.840194
 20
1299.319113
 30
0.0
 11
1930.333195
 21
1217.034577
 31
0.0
  0
LINE
  5
45A
330
1F
100
AcDbEntity
  8
dxfile
  6
Continuous
 62
     3
100
AcDbLine
 10
1930.333195
 20
1217.034577
 30
0.0
 11
1788.433195
 21
1217.034577
 31
0.0
  0
TEXT
  5
45B
330
1F
100
AcDbEntity
  8
dxfile
  6
Continuous
 62
     3
100
AcDbText
 10
1810.788476
 20
1222.034647
 30
0.0
 40
15.0
  1
アウターケーブルφ１１
 41
0.858268
 51
0.0
  7
BIGFONT
 72
     2
 11
1930.332908
 21
1222.034647
 31
0.0
100
AcDbText
  0
TEXT
  5
45C
330
1F
100
AcDbEntity
  8
dxfile
  6
Continuous
 62
     3
100
AcDbText
 10
1861.567043
 20
1278.443572
 30
0.0
 40
15.0
  1
←本体へ
 41
0.729528
 51
0.0
  7
BIGFONT
100
AcDbText
  0
LINE
  5
45D
330
1F
100
AcDbEntity
  8
dxfile
  6
Continuous
 62
     6
100
AcDbLine
 10
2320.60519
 20
1364.95994
 30
0.0
 11
2261.078285
 21
1305.433036
 31
0.0
  0
LINE
  5
45E
330
1F
100
AcDbEntity
  8
dxfile
  6
Continuous
 62
     6
100
AcDbLine
 10
2265.009711
 20
1305.433036
 30
0.0
 11
2324.536615
 21
1364.95994
 31
0.0
  0
LINE
  5
45F
330
1F
100
AcDbEntity
  8
dxfile
  6
Continuous
 62
     6
100
AcDbLine
 10
2316.051334
 20
1364.95994
 30
0.0
 11
2256.52443
 21
1305.433036
 31
0.0
  0
LINE
  5
460
330
1F
100
AcDbEntity
  8
dxfile
  6
Continuous
 62
     6
100
AcDbLine
 10
1997.02139
 20
1305.433036
 30
0.0
 11
2056.548294
 21
1364.95994
 31
0.0
  0
LINE
  5
461
330
1F
100
AcDbEntity
  8
dxfile
  6
Continuous
 62
     6
100
AcDbLine
 10
1988.536109
 20
1305.433036
 30
0.0
 11
2048.063013
 21
1364.95994
 31
0.0
  0
LINE
  5
462
330
1F
100
AcDbEntity
  8
dxfile
  6
Continuous
 62
     3
100
AcDbLine
 10
1870.473118
 20
1158.620481
 30
0.0
 11
2209.721665
 21
1158.620481
 31
0.0
  0
LINE
  5
463
330
1F
100
AcDbEntity
  8
dxfile
  6
Continuous
 62
     3
100
AcDbLine
 10
1870.473118
 20
1163.370481
 30
0.0
 11
2209.721665
 21
1163.370481
 31
0.0
  0
LINE
  5
464
330
1F
100
AcDbEntity
  8
dxfile
  6
Continuous
 62
     3
100
AcDbLine
 10
2209.721665
 20
1163.370481
 30
0.0
 11
2209.721665
 21
1158.620481
 31
0.0
  0
LINE
  5
465
330
1F
100
AcDbEntity
  8
dxfile
  6
Continuous
 62
     3
100
AcDbLine
 10
2203.421665
 20
1163.670481
 30
0.0
 11
2203.421665
 21
1164.170481
 31
0.0
  0
LINE
  5
466
330
1F
100
AcDbEntity
  8
dxfile
  6
Continuous
 62
     3
100
AcDbLine
 10
2210.621665
 20
1163.670481
 30
0.0
 11
2203.421665
 21
1163.670481
 31
0.0
  0
LINE
  5
467
330
1F
100
AcDbEntity
  8
dxfile
  6
Continuous
 62
     3
100
AcDbLine
 10
2210.621665
 20
1158.020481
 30
0.0
 11
2210.621665
 21
1163.670481
 31
0.0
  0
LINE
  5
468
330
1F
100
AcDbEntity
  8
dxfile
  6
Continuous
 62
     3
100
AcDbLine
 10
2208.221665
 20
1158.020481
 30
0.0
 11
2210.621665
 21
1158.020481
 31
0.0
  0
LINE
  5
469
330
1F
100
AcDbEntity
  8
dxfile
  6
Continuous
 62
     3
100
AcDbLine
 10
2208.221665
 20
1158.620481
 30
0.0
 11
2208.221665
 21
1158.020481
 31
0.0
  0
LINE
  5
46A
330
1F
100
AcDbEntity
  8
dxfile
  6
Continuous
 62
     3
100
AcDbLine
 10
2207.721665
 20
1158.620481
 30
0.0
 11
2208.221665
 21
1158.620481
 31
0.0
  0
LINE
  5
46B
330
1F
100
AcDbEntity
  8
dxfile
  6
Continuous
 62
     3
100
AcDbLine
 10
2207.721665
 20
1157.520481
 30
0.0
 11
2207.721665
 21
1158.620481
 31
0.0
  0
LINE
  5
46C
330
1F
100
AcDbEntity
  8
dxfile
  6
Continuous
 62
     3
100
AcDbLine
 10
2207.721665
 20
1157.520481
 30
0.0
 11
2211.121665
 21
1157.520481
 31
0.0
  0
LINE
  5
46D
330
1F
100
AcDbEntity
  8
dxfile
  6
Continuous
 62
     3
100
AcDbLine
 10
2203.421665
 20
1164.170481
 30
0.0
 11
2211.121665
 21
1164.170481
 31
0.0
  0
TEXT
  5
46E
330
1F
100
AcDbEntity
  8
dxfile
  6
Continuous
 62
     3
100
AcDbText
 10
1986.303218
 20
1141.806532
 30
0.0
 40
15.0
  1
ＣＬ
 41
0.858268
 51
0.0
  7
BIGFONT
100
AcDbText
  0
TEXT
  5
46F
330
1F
100
AcDbEntity
  8
dxfile
  6
Continuous
 62
     3
100
AcDbText
 10
1973.895378
 20
1142.369732
 30
0.0
 40
15.0
  1
△
 41
0.858268
 51
0.0
  7
BIGFONT
100
AcDbText
  0
TEXT
  5
470
330
1F
100
AcDbEntity
  8
dxfile
  6
Continuous
 62
     3
100
AcDbText
 10
2085.582389
 20
1048.940434
 30
0.0
 40
15.0
  1
φ１９　電線管
 41
0.858268
  7
BIGFONT
100
AcDbText
  0
LINE
  5
471
330
1F
100
AcDbEntity
  8
dxfile
  6
Continuous
 62
     3
100
AcDbLine
 10
2222.842765
 20
1005.48477
 30
0.0
 11
2231.440842
 21
996.592465
 31
0.0
  0
LINE
  5
472
330
1F
100
AcDbEntity
  8
dxfile
  6
Continuous
 62
     3
100
AcDbLine
 10
2231.440842
 20
996.592465
 30
0.0
 11
2191.116638
 21
1066.436034
 31
0.0
  0
LINE
  5
473
330
1F
100
AcDbEntity
  8
dxfile
  6
Continuous
 62
     3
100
AcDbLine
 10
2191.116638
 20
1066.436034
 30
0.0
 11
2083.425398
 21
1066.436034
 31
0.0
  0
TEXT
  5
474
330
1F
100
AcDbEntity
  8
dxfile
  6
Continuous
 62
     3
100
AcDbText
 10
2101.29944
 20
1068.936009
 30
0.0
 40
15.0
  1
ワイヤー通路
 41
0.858268
 51
0.0
  7
BIGFONT
 72
     2
 11
2165.669519
 21
1068.936009
 31
0.0
100
AcDbText
  0
TEXT
  5
475
330
1F
100
AcDbEntity
  8
dxfile
  6
Continuous
 62
     3
100
AcDbText
 10
2011.604562
 20
938.229324
 30
0.0
 40
15.0
  1
（ＨＭ１型－埋込）
 41
0.858268
  7
BIGFONT
100
AcDbText
  0
LINE
  5
476
330
1F
100
AcDbEntity
  8
dxfile
  6
Continuous
 62
     2
100
AcDbLine
 10
1912.044818
 20
1364.95994
 30
0.0
 11
2355.682302
 21
1364.95994
 31
0.0
  0
LINE
  5
477
330
1F
100
AcDbEntity
  8
dxfile
  6
Continuous
 62
     3
100
AcDbLine
 10
2063.422729
 20
1309.945495
 30
0.0
 11
2063.422729
 21
1300.51603
 31
0.0
  0
LINE
  5
478
330
1F
100
AcDbEntity
  8
dxfile
  6
Continuous
 62
     3
100
AcDbLine
 10
2055.922729
 20
1304.683036
 30
0.0
 11
2070.922729
 21
1304.683036
 31
0.0
  0
LINE
  5
479
330
1F
100
AcDbEntity
  8
dxfile
  6
Continuous
 62
     3
100
AcDbLine
 10
2055.922729
 20
1297.860803
 30
0.0
 11
2070.922729
 21
1297.860803
 31
0.0
  0
LINE
  5
47A
330
1F
100
AcDbEntity
  8
dxfile
  6
Continuous
 62
     3
100
AcDbLine
 10
2070.922729
 20
1305.433036
 30
0.0
 11
2070.922729
 21
1297.860803
 31
0.0
  0
LINE
  5
47B
330
1F
100
AcDbEntity
  8
dxfile
  6
Continuous
 62
     3
100
AcDbLine
 10
2055.922729
 20
1305.433036
 30
0.0
 11
2055.922729
 21
1297.860803
 31
0.0
  0
LINE
  5
47C
330
1F
100
AcDbEntity
  8
dxfile
  6
Continuous
 62
     2
100
AcDbLine
 10
2083.902942
 20
1305.433036
 30
0.0
 11
2355.682302
 21
1305.433036
 31
0.0
  0
LINE
  5
47D
330
1F
100
AcDbEntity
  8
dxfile
  6
PLine3
 62
     3
100
AcDbLine
 10
1870.473118
 20
1303.183036
 30
0.0
 11
1911.887149
 21
1303.183036
 31
0.0
  0
LINE
  5
47E
330
1F
100
AcDbEntity
  8
dxfile
  6
PLine2
 62
     3
100
AcDbLine
 10
1870.473118
 20
1302.183036
 30
0.0
 11
1912.113163
 21
1302.183036
 31
0.0
  0
LINE
  5
47F
330
1F
100
AcDbEntity
  8
dxfile
  6
Continuous
 62
     4
100
AcDbLine
 10
2083.864944
 20
1299.933036
 30
0.0
 11
2070.922729
 21
1299.933036
 31
0.0
  0
LINE
  5
480
330
1F
100
AcDbEntity
  8
dxfile
  6
Continuous
 62
     4
100
AcDbLine
 10
2083.902942
 20
1305.433036
 30
0.0
 11
1912.044818
 21
1305.433036
 31
0.0
  0
LINE
  5
481
330
1F
100
AcDbEntity
  8
dxfile
  6
Continuous
 62
     3
100
AcDbLine
 10
2088.345528
 20
1275.576194
 30
0.0
 11
2097.747452
 21
1297.860803
 31
0.0
  0
LINE
  5
482
330
1F
100
AcDbEntity
  8
dxfile
  6
Continuous
 62
     3
100
AcDbLine
 10
2097.747452
 20
1297.860803
 30
0.0
 11
2062.134713
 21
1236.17773
 31
0.0
  0
LINE
  5
483
330
1F
100
AcDbEntity
  8
dxfile
  6
Continuous
 62
     3
100
AcDbLine
 10
2062.134713
 20
1236.17773
 30
0.0
 11
1984.734713
 21
1236.17773
 31
0.0
  0
TEXT
  5
484
330
1F
100
AcDbEntity
  8
dxfile
  6
Continuous
 62
     3
100
AcDbText
 10
1997.764589
 20
1241.177717
 30
0.0
 40
15.0
  1
クリップ止め
 41
0.858268
 51
0.0
  7
BIGFONT
 72
     2
 11
2062.134668
 21
1241.177717
 31
0.0
100
AcDbText
  0
LINE
  5
485
330
1F
100
AcDbEntity
  8
dxfile
  6
Continuous
 62
     4
100
AcDbLine
 10
2055.922729
 20
1299.933036
 30
0.0
 11
1911.960062
 21
1299.933036
 31
0.0
  0
LINE
  5
486
330
1F
100
AcDbEntity
  8
dxfile
  6
Continuous
 62
     6
100
AcDbLine
 10
2103.304108
 20
341.603995
 30
0.0
 11
2070.035609
 21
308.335496
 31
0.0
  0
LINE
  5
487
330
1F
100
AcDbEntity
  8
dxfile
  6
Continuous
 62
     6
100
AcDbLine
 10
2067.80985
 20
308.335496
 30
0.0
 11
2101.078349
 21
341.603995
 31
0.0
  0
LINE
  5
488
330
1F
100
AcDbEntity
  8
dxfile
  6
Continuous
 62
     6
100
AcDbLine
 10
2295.744318
 20
308.335496
 30
0.0
 11
2329.012818
 21
341.603995
 31
0.0
  0
LINE
  5
489
330
1F
100
AcDbEntity
  8
dxfile
  6
Continuous
 62
     6
100
AcDbLine
 10
2331.432455
 20
341.603995
 30
0.0
 11
2298.163955
 21
308.335496
 31
0.0
  0
LINE
  5
48A
330
1F
100
AcDbEntity
  8
dxfile
  6
Continuous
 62
     3
100
AcDbLine
 10
2199.919827
 20
834.932381
 30
0.0
 11
2208.517903
 21
826.040076
 31
0.0
  0
LINE
  5
48B
330
1F
100
AcDbEntity
  8
dxfile
  6
Continuous
 62
     3
100
AcDbLine
 10
2208.517903
 20
826.040076
 30
0.0
 11
2132.88646
 21
957.037578
 31
0.0
  0
LINE
  5
48C
330
1F
100
AcDbEntity
  8
dxfile
  6
Continuous
 62
     3
100
AcDbLine
 10
2132.88646
 20
957.037578
 30
0.0
 11
2019.599928
 21
957.037578
 31
0.0
  0
TEXT
  5
48D
330
1F
100
AcDbEntity
  8
dxfile
  6
Continuous
 62
     3
100
AcDbText
 10
2039.313083
 20
959.537614
 30
0.0
 40
15.0
  1
ハンドルＢＯＸ
 41
0.858268
 51
0.0
  7
BIGFONT
 72
     2
 11
2114.718033
 21
959.537614
 31
0.0
100
AcDbText
  0
INSERT
  5
495
330
1F
100
AcDbEntity
  8
dxfile
  6
Continuous
 62
     3
100
AcDbBlockReference
  2
DIM_7
 10
2023.799116
 20
1158.620481
 30
0.0
  0
LINE
  5
496
330
1F
100
AcDbEntity
  8
dxfile
  6
Continuous
 62
     3
100
AcDbLine
 10
2265.871665
 20
1304.289494
 30
0.0
 11
2265.871665
 21
341.429475
 31
0.0
  0
TEXT
  5
497
330
1F
100
AcDbEntity
  8
dxfile
  6
Continuous
 62
     3
100
AcDbText
 10
2044.779778
 20
344.987912
 30
0.0
 40
15.0
  1
ＦＬ
 41
0.858268
 51
0.0
  7
BIGFONT
100
AcDbText
  0
TEXT
  5
498
330
1F
100
AcDbEntity
  8
dxfile
  6
Continuous
 62
     3
100
AcDbText
 10
2032.004513
 20
344.291502
 30
0.0
 40
15.0
  1
▽
 41
0.858268
 51
0.0
  7
BIGFONT
100
AcDbText
  0
LINE
  5
499
330
1F
100
AcDbEntity
  8
dxfile
  6
Continuous
 62
     3
100
AcDbLine
 10
2204.573589
 20
521.891903
 30
0.0
 11
2213.171665
 21
512.999598
 31
0.0
  0
LINE
  5
49A
330
1F
100
AcDbEntity
  8
dxfile
  6
Continuous
 62
     3
100
AcDbLine
 10
2213.171665
 20
512.999598
 30
0.0
 11
2176.582442
 21
576.373991
 31
0.0
  0
LINE
  5
49B
330
1F
100
AcDbEntity
  8
dxfile
  6
Continuous
 62
     3
100
AcDbLine
 10
2176.582442
 20
576.373991
 30
0.0
 11
2068.045517
 21
576.373991
 31
0.0
  0
TEXT
  5
49C
330
1F
100
AcDbEntity
  8
dxfile
  6
Continuous
 62
     3
100
AcDbText
 10
2091.436862
 20
578.873982
 30
0.0
 40
15.0
  1
内装ボード（別途）
 41
0.858268
 51
0.0
  7
BIGFONT
 72
     2
 11
2188.911553
 21
578.873982
 31
0.0
100
AcDbText
  0
LINE
  5
49D
330
1F
100
AcDbEntity
  8
dxfile
  6
Continuous
 62
     3
100
AcDbLine
 10
2215.871665
 20
698.998369
 30
0.0
 11
2215.871665
 21
341.603995
 31
0.0
  0
LINE
  5
49E
330
1F
100
AcDbEntity
  8
dxfile
  6
Continuous
 62
     3
100
AcDbLine
 10
2211.121665
 20
698.998369
 30
0.0
 11
2211.121665
 21
341.603995
 31
0.0
  0
INSERT
  5
4A7
330
1F
100
AcDbEntity
  8
dxfile
  6
Continuous
 62
     3
100
AcDbBlockReference
  2
DIM_8
 10
2137.181257
 20
719.748369
 30
0.0
  0
LINE
  5
4A8
330
1F
100
AcDbEntity
  8
dxfile
  6
Continuous
 62
     2
100
AcDbLine
 10
1892.852712
 20
341.603995
 30
0.0
 11
2355.682302
 21
341.603995
 31
0.0
  0
LINE
  5
4A9
330
1F
100
AcDbEntity
  8
dxfile
  6
Continuous
 62
     3
100
AcDbLine
 10
2215.871665
 20
848.998369
 30
0.0
 11
2215.871665
 21
1305.433036
 31
0.0
  0
LINE
  5
4AA
330
1F
100
AcDbEntity
  8
dxfile
  6
Continuous
 62
     3
100
AcDbLine
 10
2211.121665
 20
1305.433036
 30
0.0
 11
2211.121665
 21
801.498369
 31
0.0
  0
LINE
  5
4AB
330
1F
100
AcDbEntity
  8
dxfile
  6
Continuous
 62
     4
100
AcDbLine
 10
2208.621665
 20
693.998369
 30
0.0
 11
2211.121665
 21
693.998369
 31
0.0
  0
LINE
  5
4AC
330
1F
100
AcDbEntity
  8
dxfile
  6
Continuous
 62
     4
100
AcDbLine
 10
2211.121665
 20
693.998369
 30
0.0
 11
2211.121665
 21
853.998369
 31
0.0
  0
LINE
  5
4AD
330
1F
100
AcDbEntity
  8
dxfile
  6
Continuous
 62
     4
100
AcDbLine
 10
2211.121665
 20
853.998369
 30
0.0
 11
2208.621665
 21
853.998369
 31
0.0
  0
INSERT
  5
4B7
330
1F
100
AcDbEntity
  8
dxfile
  6
Continuous
 62
     3
100
AcDbBlockReference
  2
DIM_9
 10
2204.2352
 20
853.998369
 30
0.0
  0
INSERT
  5
4C1
330
1F
100
AcDbEntity
  8
dxfile
  6
Continuous
 62
     3
100
AcDbBlockReference
  2
DIM_10
 10
2249.050706
 20
698.998369
 30
0.0
  0
INSERT
  5
4CA
330
1F
100
AcDbEntity
  8
dxfile
  6
Continuous
 62
     3
100
AcDbBlockReference
  2
DIM_11
 10
2208.621665
 20
688.154479
 30
0.0
  0
INSERT
  5
4D3
330
1F
100
AcDbEntity
  8
dxfile
  6
Continuous
 62
     3
100
AcDbBlockReference
  2
DIM_12
 10
2246.121665
 20
693.154479
 30
0.0
  0
INSERT
  5
4DD
330
1F
100
AcDbEntity
  8
dxfile
  6
Continuous
 62
     3
100
AcDbBlockReference
  2
DIM_13
 10
2340.074718
 20
690.777824
 30
0.0
  0
LINE
  5
4DE
330
1F
100
AcDbEntity
  8
dxfile
  6
Continuous
 62
     4
100
AcDbLine
 10
2340.074718
 20
853.998369
 30
0.0
 11
2340.074718
 21
693.998369
 31
0.0
  0
LINE
  5
4DF
330
1F
100
AcDbEntity
  8
dxfile
  6
Continuous
 62
     4
100
AcDbLine
 10
2405.074718
 20
853.998369
 30
0.0
 11
2405.074718
 21
693.998369
 31
0.0
  0
LINE
  5
4E0
330
1F
100
AcDbEntity
  8
dxfile
  6
Continuous
 62
     4
100
AcDbLine
 10
2340.074718
 20
853.998369
 30
0.0
 11
2405.074718
 21
853.998369
 31
0.0
  0
LINE
  5
4E1
330
1F
100
AcDbEntity
  8
dxfile
  6
Continuous
 62
     4
100
AcDbLine
 10
2340.074718
 20
693.998369
 30
0.0
 11
2405.074718
 21
693.998369
 31
0.0
  0
LINE
  5
4E2
330
1F
100
AcDbEntity
  8
dxfile
  6
Continuous
 62
     4
100
AcDbLine
 10
2380.074718
 20
719.748369
 30
0.0
 11
2380.074718
 21
841.590902
 31
0.0
  0
ARC
  5
4E3
330
1F
100
AcDbEntity
  8
dxfile
  6
Continuous
 62
     4
100
AcDbCircle
 10
2367.224718
 20
806.826496
 30
0.0
 40
0.8499999942060532
100
AcDbArc
 50
90.0
 51
180.0
  0
ARC
  5
4E4
330
1F
100
AcDbEntity
  8
dxfile
  6
Continuous
 62
     4
100
AcDbCircle
 10
2377.924718
 20
806.826496
 30
0.0
 40
0.8500000007648695
100
AcDbArc
 50
0.0
 51
90.0
  0
ARC
  5
4E5
330
1F
100
AcDbEntity
  8
dxfile
  6
Continuous
 62
     4
100
AcDbCircle
 10
2367.224718
 20
796.126497
 30
0.0
 40
0.8499999993686982
100
AcDbArc
 50
180.0
 51
270.0
  0
ARC
  5
4E6
330
1F
100
AcDbEntity
  8
dxfile
  6
Continuous
 62
     4
100
AcDbCircle
 10
2377.924718
 20
796.126497
 30
0.0
 40
0.8499999898821844
100
AcDbArc
 50
270.0
 51
0.0
  0
LINE
  5
4E7
330
1F
100
AcDbEntity
  8
dxfile
  6
Continuous
 62
     4
100
AcDbLine
 10
2366.374718
 20
806.826496
 30
0.0
 11
2366.374718
 21
796.126497
 31
0.0
  0
LINE
  5
4E8
330
1F
100
AcDbEntity
  8
dxfile
  6
Continuous
 62
     4
100
AcDbLine
 10
2378.774718
 20
806.826496
 30
0.0
 11
2378.774718
 21
796.126497
 31
0.0
  0
LINE
  5
4E9
330
1F
100
AcDbEntity
  8
dxfile
  6
Continuous
 62
     4
100
AcDbLine
 10
2367.224718
 20
795.276497
 30
0.0
 11
2377.924718
 21
795.276497
 31
0.0
  0
LINE
  5
4EA
330
1F
100
AcDbEntity
  8
dxfile
  6
Continuous
 62
     4
100
AcDbLine
 10
2367.224718
 20
807.676496
 30
0.0
 11
2377.924718
 21
807.676496
 31
0.0
  0
LINE
  5
4EB
330
1F
100
AcDbEntity
  8
dxfile
  6
Continuous
 62
     4
100
AcDbLine
 10
2365.074718
 20
719.748369
 30
0.0
 11
2365.074718
 21
841.590902
 31
0.0
  0
LINE
  5
4EC
330
1F
100
AcDbEntity
  8
dxfile
  6
Continuous
 62
     4
100
AcDbLine
 10
2247.721656
 20
834.748369
 30
0.0
 11
2246.121665
 21
834.748369
 31
0.0
  0
LINE
  5
4ED
330
1F
100
AcDbEntity
  8
dxfile
  6
Continuous
 62
     4
100
AcDbLine
 10
2247.721656
 20
842.748369
 30
0.0
 11
2246.121665
 21
842.748369
 31
0.0
  0
LINE
  5
4EE
330
1F
100
AcDbEntity
  8
dxfile
  6
Continuous
 62
     4
100
AcDbLine
 10
2247.721656
 20
834.748369
 30
0.0
 11
2247.721656
 21
842.748369
 31
0.0
  0
LINE
  5
4EF
330
1F
100
AcDbEntity
  8
dxfile
  6
Continuous
 62
     4
100
AcDbLine
 10
2247.721656
 20
812.248369
 30
0.0
 11
2246.121665
 21
812.248369
 31
0.0
  0
LINE
  5
4F0
330
1F
100
AcDbEntity
  8
dxfile
  6
Continuous
 62
     4
100
AcDbLine
 10
2247.721656
 20
804.248369
 30
0.0
 11
2246.121665
 21
804.248369
 31
0.0
  0
LINE
  5
4F1
330
1F
100
AcDbEntity
  8
dxfile
  6
Continuous
 62
     4
100
AcDbLine
 10
2247.721656
 20
719.748369
 30
0.0
 11
2246.121665
 21
719.748369
 31
0.0
  0
LINE
  5
4F2
330
1F
100
AcDbEntity
  8
dxfile
  6
Continuous
 62
     4
100
AcDbLine
 10
2247.721656
 20
804.248369
 30
0.0
 11
2247.721656
 21
812.248369
 31
0.0
  0
LINE
  5
4F3
330
1F
100
AcDbEntity
  8
dxfile
  6
Continuous
 62
     4
100
AcDbLine
 10
2247.721656
 20
700.498369
 30
0.0
 11
2246.121665
 21
700.498369
 31
0.0
  0
LINE
  5
4F4
330
1F
100
AcDbEntity
  8
dxfile
  6
Continuous
 62
     4
100
AcDbLine
 10
2247.721656
 20
700.498369
 30
0.0
 11
2247.721656
 21
719.748369
 31
0.0
  0
ARC
  5
4F5
330
1F
100
AcDbEntity
  8
dxfile
  6
Continuous
 62
     4
100
AcDbCircle
 10
2245.521659
 20
848.398371
 30
0.0
 40
0.6000000026456221
100
AcDbArc
 50
0.0
 51
90.0
  0
ARC
  5
4F6
330
1F
100
AcDbEntity
  8
dxfile
  6
Continuous
 62
     4
100
AcDbCircle
 10
2245.521659
 20
699.598368
 30
0.0
 40
0.5999999984023632
100
AcDbArc
 50
270.0
 51
0.0
  0
ARC
  5
4F7
330
1F
100
AcDbEntity
  8
dxfile
  6
Continuous
 62
     4
100
AcDbCircle
 10
2211.721656
 20
842.57337
 30
0.0
 40
0.6000000061645989
100
AcDbArc
 50
90.0
 51
180.0
  0
ARC
  5
4F8
330
1F
100
AcDbEntity
  8
dxfile
  6
Continuous
 62
     4
100
AcDbCircle
 10
2211.971656
 20
845.673369
 30
0.0
 40
0.250000007182454
100
AcDbArc
 50
180.0
 51
270.0
  0
ARC
  5
4F9
330
1F
100
AcDbEntity
  8
dxfile
  6
Continuous
 62
     4
100
AcDbCircle
 10
2211.971656
 20
842.32337
 30
0.0
 40
0.2500000141650597
100
AcDbArc
 50
90.0
 51
180.0
  0
ARC
  5
4FA
330
1F
100
AcDbEntity
  8
dxfile
  6
Continuous
 62
     4
100
AcDbCircle
 10
2211.971656
 20
702.323366
 30
0.0
 40
0.2499999969835957
100
AcDbArc
 50
90.0
 51
180.0
  0
ARC
  5
4FB
330
1F
100
AcDbEntity
  8
dxfile
  6
Continuous
 62
     4
100
AcDbCircle
 10
2211.971656
 20
705.673373
 30
0.0
 40
0.249999991348265
100
AcDbArc
 50
180.0
 51
270.0
  0
ARC
  5
4FC
330
1F
100
AcDbEntity
  8
dxfile
  6
Continuous
 62
     4
100
AcDbCircle
 10
2211.721656
 20
845.423369
 30
0.0
 40
0.5999999961002509
100
AcDbArc
 50
180.0
 51
270.0
  0
LINE
  5
4FD
330
1F
100
AcDbEntity
  8
dxfile
  6
Continuous
 62
     4
100
AcDbLine
 10
2212.721656
 20
702.573366
 30
0.0
 11
2211.971656
 21
702.573366
 31
0.0
  0
LINE
  5
4FE
330
1F
100
AcDbEntity
  8
dxfile
  6
Continuous
 62
     4
100
AcDbLine
 10
2211.721656
 20
840.998369
 30
0.0
 11
2211.721656
 21
842.32337
 31
0.0
  0
LINE
  5
4FF
330
1F
100
AcDbEntity
  8
dxfile
  6
Continuous
 62
     4
100
AcDbLine
 10
2211.721656
 20
840.998369
 30
0.0
 11
2211.121665
 21
840.998369
 31
0.0
  0
LINE
  5
500
330
1F
100
AcDbEntity
  8
dxfile
  6
Continuous
 62
     4
100
AcDbLine
 10
2211.721656
 20
706.998369
 30
0.0
 11
2211.721656
 21
699.598368
 31
0.0
  0
LINE
  5
501
330
1F
100
AcDbEntity
  8
dxfile
  6
Continuous
 62
     4
100
AcDbLine
 10
2245.521659
 20
699.598368
 30
0.0
 11
2245.521659
 21
848.398371
 31
0.0
  0
LINE
  5
502
330
1F
100
AcDbEntity
  8
dxfile
  6
Continuous
 62
     4
100
AcDbLine
 10
2245.521659
 20
848.398371
 30
0.0
 11
2211.721656
 21
848.398371
 31
0.0
  0
LINE
  5
503
330
1F
100
AcDbEntity
  8
dxfile
  6
Continuous
 62
     4
100
AcDbLine
 10
2212.721656
 20
843.173369
 30
0.0
 11
2211.721656
 21
843.173369
 31
0.0
  0
LINE
  5
504
330
1F
100
AcDbEntity
  8
dxfile
  6
Continuous
 62
     4
100
AcDbLine
 10
2245.521659
 20
699.598368
 30
0.0
 11
2211.121665
 21
699.598368
 31
0.0
  0
LINE
  5
505
330
1F
100
AcDbEntity
  8
dxfile
  6
Continuous
 62
     4
100
AcDbLine
 10
2246.121665
 20
699.598368
 30
0.0
 11
2246.121665
 21
848.398371
 31
0.0
  0
LINE
  5
506
330
1F
100
AcDbEntity
  8
dxfile
  6
Continuous
 62
     4
100
AcDbLine
 10
2245.521659
 20
848.998369
 30
0.0
 11
2211.121665
 21
848.998369
 31
0.0
  0
LINE
  5
507
330
1F
100
AcDbEntity
  8
dxfile
  6
Continuous
 62
     4
100
AcDbLine
 10
2245.521659
 20
698.998369
 30
0.0
 11
2211.121665
 21
698.998369
 31
0.0
  0
LINE
  5
508
330
1F
100
AcDbEntity
  8
dxfile
  6
Continuous
 62
     4
100
AcDbLine
 10
2211.721656
 20
706.998369
 30
0.0
 11
2211.121665
 21
706.998369
 31
0.0
  0
LINE
  5
509
330
1F
100
AcDbEntity
  8
dxfile
  6
Continuous
 62
     4
100
AcDbLine
 10
2212.721656
 20
842.57337
 30
0.0
 11
2212.721656
 21
845.423369
 31
0.0
  0
LINE
  5
50A
330
1F
100
AcDbEntity
  8
dxfile
  6
Continuous
 62
     4
100
AcDbLine
 10
2211.721656
 20
845.673369
 30
0.0
 11
2211.721656
 21
848.398371
 31
0.0
  0
LINE
  5
50B
330
1F
100
AcDbEntity
  8
dxfile
  6
Continuous
 62
     4
100
AcDbLine
 10
2212.721656
 20
705.423373
 30
0.0
 11
2211.971656
 21
705.423373
 31
0.0
  0
LINE
  5
50C
330
1F
100
AcDbEntity
  8
dxfile
  6
Continuous
 62
     4
100
AcDbLine
 10
2212.721656
 20
842.57337
 30
0.0
 11
2211.971656
 21
842.57337
 31
0.0
  0
LINE
  5
50D
330
1F
100
AcDbEntity
  8
dxfile
  6
Continuous
 62
     4
100
AcDbLine
 10
2212.721656
 20
844.82337
 30
0.0
 11
2211.721656
 21
844.82337
 31
0.0
  0
LINE
  5
50E
330
1F
100
AcDbEntity
  8
dxfile
  6
Continuous
 62
     4
100
AcDbLine
 10
2212.721656
 20
705.423373
 30
0.0
 11
2212.721656
 21
702.573366
 31
0.0
  0
LINE
  5
50F
330
1F
100
AcDbEntity
  8
dxfile
  6
Continuous
 62
     4
100
AcDbLine
 10
2212.721656
 20
845.423369
 30
0.0
 11
2211.971656
 21
845.423369
 31
0.0
  0
LINE
  5
510
330
1F
100
AcDbEntity
  8
dxfile
  6
Continuous
 62
     4
100
AcDbLine
 10
2211.121665
 20
813.698369
 30
0.0
 11
2211.121665
 21
853.998369
 31
0.0
  0
LINE
  5
511
330
1F
100
AcDbEntity
  8
dxfile
  6
Continuous
 62
     4
100
AcDbLine
 10
2211.121665
 20
693.998369
 30
0.0
 11
2211.121665
 21
813.698369
 31
0.0
  0
LINE
  5
512
330
1F
100
AcDbEntity
  8
dxfile
  6
Continuous
 62
     4
100
AcDbLine
 10
2208.621665
 20
693.998369
 30
0.0
 11
2208.621665
 21
853.998369
 31
0.0
  0
LINE
  5
513
330
1F
100
AcDbEntity
  8
dxfile
  6
Continuous
 62
     4
100
AcDbLine
 10
2203.621665
 20
715.748369
 30
0.0
 11
2221.121665
 21
715.748369
 31
0.0
  0
LINE
  5
514
330
1F
100
AcDbEntity
  8
dxfile
  6
Continuous
 62
     4
100
AcDbLine
 10
2221.121665
 20
723.748369
 30
0.0
 11
2203.621665
 21
723.748369
 31
0.0
  0
LINE
  5
515
330
1F
100
AcDbEntity
  8
dxfile
  6
Continuous
 62
     4
100
AcDbLine
 10
2205.121665
 20
814.998369
 30
0.0
 11
2205.121665
 21
803.998369
 31
0.0
  0
LINE
  5
516
330
1F
100
AcDbEntity
  8
dxfile
  6
Continuous
 62
     4
100
AcDbLine
 10
2205.121665
 20
803.998369
 30
0.0
 11
2203.621665
 21
803.998369
 31
0.0
  0
LINE
  5
517
330
1F
100
AcDbEntity
  8
dxfile
  6
Continuous
 62
     4
100
AcDbLine
 10
2203.621665
 20
803.998369
 30
0.0
 11
2203.621665
 21
714.248369
 31
0.0
  0
LINE
  5
518
330
1F
100
AcDbEntity
  8
dxfile
  6
Continuous
 62
     4
100
AcDbLine
 10
2199.621665
 20
801.998369
 30
0.0
 11
2198.121665
 21
803.498369
 31
0.0
  0
LINE
  5
519
330
1F
100
AcDbEntity
  8
dxfile
  6
Continuous
 62
     4
100
AcDbLine
 10
2198.121665
 20
803.498369
 30
0.0
 11
2198.121665
 21
814.998369
 31
0.0
  0
LINE
  5
51A
330
1F
100
AcDbEntity
  8
dxfile
  6
Continuous
 62
     4
100
AcDbLine
 10
2198.121665
 20
814.998369
 30
0.0
 11
2205.121665
 21
814.998369
 31
0.0
  0
LINE
  5
51B
330
1F
100
AcDbEntity
  8
dxfile
  6
Continuous
 62
     4
100
AcDbLine
 10
2200.621665
 20
714.248369
 30
0.0
 11
2203.621665
 21
714.248369
 31
0.0
  0
LINE
  5
51C
330
1F
100
AcDbEntity
  8
dxfile
  6
Continuous
 62
     4
100
AcDbLine
 10
2185.621665
 20
803.998369
 30
0.0
 11
2197.621665
 21
804.498369
 31
0.0
  0
LINE
  5
51D
330
1F
100
AcDbEntity
  8
dxfile
  6
Continuous
 62
     4
100
AcDbLine
 10
2197.621665
 20
804.498369
 30
0.0
 11
2197.621665
 21
814.498369
 31
0.0
  0
LINE
  5
51E
330
1F
100
AcDbEntity
  8
dxfile
  6
Continuous
 62
     4
100
AcDbLine
 10
2197.621665
 20
814.498369
 30
0.0
 11
2185.621665
 21
814.998369
 31
0.0
  0
LINE
  5
51F
330
1F
100
AcDbEntity
  8
dxfile
  6
Continuous
 62
     4
100
AcDbLine
 10
2185.621665
 20
814.998369
 30
0.0
 11
2185.621665
 21
803.998369
 31
0.0
  0
LINE
  5
520
330
1F
100
AcDbEntity
  8
dxfile
  6
Continuous
 62
     4
100
AcDbLine
 10
2197.621665
 20
804.998369
 30
0.0
 11
2198.121665
 21
804.998369
 31
0.0
  0
LINE
  5
521
330
1F
100
AcDbEntity
  8
dxfile
  6
Continuous
 62
     4
100
AcDbLine
 10
2198.121665
 20
813.998369
 30
0.0
 11
2197.621665
 21
813.998369
 31
0.0
  0
LINE
  5
522
330
1F
100
AcDbEntity
  8
dxfile
  6
PLine2
 62
     4
100
AcDbLine
 10
2244.501411
 20
719.748369
 30
0.0
 11
2166.751411
 21
719.748369
 31
0.0
  0
LINE
  5
523
330
1F
100
AcDbEntity
  8
dxfile
  6
Continuous
 62
     4
100
AcDbLine
 10
2221.121665
 20
715.748369
 30
0.0
 11
2221.121665
 21
723.748369
 31
0.0
  0
LINE
  5
524
330
1F
100
AcDbEntity
  8
dxfile
  6
Continuous
 62
     4
100
AcDbLine
 10
2200.621665
 20
714.248369
 30
0.0
 11
2198.586132
 21
716.283903
 31
0.0
  0
LINE
  5
525
330
1F
100
AcDbEntity
  8
dxfile
  6
Continuous
 62
     4
100
AcDbLine
 10
2199.621665
 20
801.998369
 30
0.0
 11
2199.621665
 21
726.248369
 31
0.0
  0
TEXT
  5
526
330
1F
100
AcDbEntity
  8
dxfile
  6
Continuous
 62
     1
100
AcDbText
 10
2367.981859
 20
795.045883
 30
0.0
 40
12.5
  1
押
 41
0.858268
  7
BIGFONT
100
AcDbText
  0
ARC
  5
527
330
1F
100
AcDbEntity
  8
dxfile
  6
Continuous
 62
     4
100
AcDbCircle
 10
2372.574718
 20
719.748369
 30
0.0
 40
7.500000000039307
100
AcDbArc
 50
138.189685
 51
41.810315
  0
LINE
  5
528
330
1F
100
AcDbEntity
  8
dxfile
  6
Continuous
 62
     4
100
AcDbLine
 10
2365.074718
 20
724.748369
 30
0.0
 11
2380.074718
 21
724.748369
 31
0.0
  0
ARC
  5
529
330
1F
100
AcDbEntity
  8
dxfile
  6
Continuous
 62
     4
100
AcDbCircle
 10
2372.574718
 20
823.590902
 30
0.0
 40
19.50000000022288
100
AcDbArc
 50
67.380135
 51
112.619865
  0
LINE
  5
52A
330
1F
100
AcDbEntity
  8
dxfile
  6
PLine1
 62
     4
100
AcDbLine
 10
2345.074718
 20
818.439438
 30
0.0
 11
2345.074718
 21
848.998369
 31
0.0
  0
LINE
  5
52B
330
1F
100
AcDbEntity
  8
dxfile
  6
PLine1
 62
     4
100
AcDbLine
 10
2345.074718
 20
848.998369
 30
0.0
 11
2400.074718
 21
848.998369
 31
0.0
  0
LINE
  5
52C
330
1F
100
AcDbEntity
  8
dxfile
  6
PLine1
 62
     4
100
AcDbLine
 10
2400.074718
 20
848.998369
 30
0.0
 11
2400.074718
 21
815.653606
 31
0.0
  0
LINE
  5
52D
330
1F
100
AcDbEntity
  8
dxfile
  6
Continuous
 62
     4
100
AcDbLine
 10
2352.074718
 20
853.998369
 30
0.0
 11
2352.074718
 21
858.998369
 31
0.0
  0
LINE
  5
52E
330
1F
100
AcDbEntity
  8
dxfile
  6
Continuous
 62
     4
100
AcDbLine
 10
2352.074718
 20
858.998369
 30
0.0
 11
2363.074718
 21
858.998369
 31
0.0
  0
LINE
  5
52F
330
1F
100
AcDbEntity
  8
dxfile
  6
Continuous
 62
     4
100
AcDbLine
 10
2363.074718
 20
858.998369
 30
0.0
 11
2363.074718
 21
853.998369
 31
0.0
  0
LINE
  5
530
330
1F
100
AcDbEntity
  8
dxfile
  6
Continuous
 62
     4
100
AcDbLine
 10
2352.824718
 20
858.998369
 30
0.0
 11
2352.824718
 21
963.608756
 31
0.0
  0
LINE
  5
531
330
1F
100
AcDbEntity
  8
dxfile
  6
Continuous
 62
     4
100
AcDbLine
 10
2362.324718
 20
858.998369
 30
0.0
 11
2362.324718
 21
963.608756
 31
0.0
  0
LINE
  5
532
330
1F
100
AcDbEntity
  8
dxfile
  6
PLine2
 62
     4
100
AcDbLine
 10
2357.574718
 20
988.109136
 30
0.0
 11
2357.574718
 21
838.868234
 31
0.0
  0
INSERT
  5
53C
330
1F
100
AcDbEntity
  8
dxfile
  6
Continuous
 62
     3
100
AcDbBlockReference
  2
DIM_14
 10
2345.074718
 20
856.342833
 30
0.0
  0
INSERT
  5
546
330
1F
100
AcDbEntity
  8
dxfile
  6
Continuous
 62
     3
100
AcDbBlockReference
  2
DIM_15
 10
2345.074718
 20
892.09846
 30
0.0
  0
LINE
  5
547
330
1F
100
AcDbEntity
  8
dxfile
  6
Continuous
 62
     4
100
AcDbLine
 10
2226.621665
 20
858.998369
 30
0.0
 11
2237.621665
 21
858.998369
 31
0.0
  0
LINE
  5
548
330
1F
100
AcDbEntity
  8
dxfile
  6
Continuous
 62
     4
100
AcDbLine
 10
2237.621665
 20
858.998369
 30
0.0
 11
2237.621665
 21
849.998369
 31
0.0
  0
LINE
  5
549
330
1F
100
AcDbEntity
  8
dxfile
  6
Continuous
 62
     4
100
AcDbLine
 10
2226.621665
 20
849.998369
 30
0.0
 11
2226.621665
 21
858.998369
 31
0.0
  0
LINE
  5
54A
330
1F
100
AcDbEntity
  8
dxfile
  6
Continuous
 62
     4
100
AcDbLine
 10
2226.621665
 20
849.998369
 30
0.0
 11
2237.621665
 21
849.998369
 31
0.0
  0
LINE
  5
54B
330
1F
100
AcDbEntity
  8
dxfile
  6
Continuous
 62
     4
100
AcDbLine
 10
2237.621665
 20
849.998369
 30
0.0
 11
2238.374482
 21
848.998369
 31
0.0
  0
LINE
  5
54C
330
1F
100
AcDbEntity
  8
dxfile
  6
Continuous
 62
     4
100
AcDbLine
 10
2226.621665
 20
849.998369
 30
0.0
 11
2225.868849
 21
848.998369
 31
0.0
  0
LINE
  5
54D
330
1F
100
AcDbEntity
  8
dxfile
  6
Continuous
 62
     4
100
AcDbLine
 10
2227.371665
 20
858.998369
 30
0.0
 11
2227.371665
 21
1147.933036
 31
0.0
  0
LINE
  5
54E
330
1F
100
AcDbEntity
  8
dxfile
  6
Continuous
 62
     4
100
AcDbLine
 10
2236.871665
 20
858.998369
 30
0.0
 11
2236.871665
 21
1147.933036
 31
0.0
  0
LINE
  5
54F
330
1F
100
AcDbEntity
  8
dxfile
  6
PLine2
 62
     4
100
AcDbLine
 10
2232.121665
 20
988.109136
 30
0.0
 11
2232.121665
 21
838.868234
 31
0.0
  0
INSERT
  5
559
330
1F
100
AcDbEntity
  8
dxfile
  6
Continuous
 62
     3
100
AcDbBlockReference
  2
DIM_16
 10
2232.121665
 20
910.402209
 30
0.0
  0
LINE
  5
55A
330
1F
100
AcDbEntity
  8
dxfile
  6
Continuous
 62
     4
100
AcDbLine
 10
2197.121665
 20
719.819437
 30
0.0
 11
2197.121665
 21
724.248369
 31
0.0
  0
ARC
  5
55B
330
1F
100
AcDbEntity
  8
dxfile
  6
Continuous
 62
     4
100
AcDbCircle
 10
2202.121665
 20
719.819437
 30
0.0
 40
5.000000001001227
100
AcDbArc
 50
180.0
 51
225.0
  0
LINE
  5
55C
330
1F
100
AcDbEntity
  8
dxfile
  6
Continuous
 62
     4
100
AcDbLine
 10
2197.621665
 20
724.748369
 30
0.0
 11
2198.121665
 21
724.748369
 31
0.0
  0
ARC
  5
55D
330
1F
100
AcDbEntity
  8
dxfile
  6
Continuous
 62
     4
100
AcDbCircle
 10
2197.621665
 20
724.248369
 30
0.0
 40
0.4999999881772732
100
AcDbArc
 50
90.0
 51
180.0
  0
ARC
  5
55E
330
1F
100
AcDbEntity
  8
dxfile
  6
Continuous
 62
     4
100
AcDbCircle
 10
2198.121665
 20
726.248369
 30
0.0
 40
1.499999998612764
100
AcDbArc
 50
270.0
 51
0.0
  0
ARC
  5
55F
330
1F
100
AcDbEntity
  8
dxfile
  6
Continuous
 62
     4
100
AcDbCircle
 10
2077.371665
 20
1147.933036
 30
0.0
 40
150.0000000001551
100
AcDbArc
 50
0.0
 51
41.858218
  0
ARC
  5
560
330
1F
100
AcDbEntity
  8
dxfile
  6
Continuous
 62
     4
100
AcDbCircle
 10
2077.371665
 20
1147.933036
 30
0.0
 40
159.4999999999
100
AcDbArc
 50
0.0
 51
41.732234
  0
LINE
  5
561
330
1F
100
AcDbEntity
  8
dxfile
  6
Continuous
 62
     6
100
AcDbLine
 10
1993.041676
 20
1305.433036
 30
0.0
 11
2052.56858
 21
1364.95994
 31
0.0
  0
LINE
  5
562
330
1F
100
AcDbEntity
  8
dxfile
  6
Continuous
 62
     6
100
AcDbLine
 10
2065.778758
 20
308.335496
 30
0.0
 11
2099.047257
 21
341.603995
 31
0.0
  0
LINE
  5
563
330
1F
100
AcDbEntity
  8
dxfile
  6
Continuous
 62
     6
100
AcDbLine
 10
2300.743974
 20
308.335496
 30
0.0
 11
2334.012473
 21
341.603995
 31
0.0
  0
LINE
  5
564
330
1F
100
AcDbEntity
  8
dxfile
  6
Continuous
 62
     2
100
AcDbLine
 10
2079.283427
 20
274.896026
 30
0.0
 11
2216.86218
 21
274.896026
 31
0.0
  0
LINE
  5
565
330
1F
100
AcDbEntity
  8
dxfile
  6
Continuous
 62
     2
100
AcDbLine
 10
2216.86218
 20
274.896026
 30
0.0
 11
2216.86218
 21
243.999103
 31
0.0
  0
LINE
  5
566
330
1F
100
AcDbEntity
  8
dxfile
  6
Continuous
 62
     2
100
AcDbLine
 10
2216.86218
 20
243.999103
 30
0.0
 11
2079.283427
 21
243.999103
 31
0.0
  0
LINE
  5
567
330
1F
100
AcDbEntity
  8
dxfile
  6
Continuous
 62
     2
100
AcDbLine
 10
2079.283427
 20
243.999103
 30
0.0
 11
2079.283427
 21
274.896026
 31
0.0
  0
LINE
  5
568
330
1F
100
AcDbEntity
  8
dxfile
  6
Continuous
 62
     3
100
AcDbLine
 10
812.420006
 20
181.372161
 30
0.0
 11
821.988501
 21
181.372161
 31
0.0
  0
LINE
  5
569
330
1F
100
AcDbEntity
  8
dxfile
  6
Continuous
 62
     3
100
AcDbLine
 10
821.988501
 20
181.372161
 30
0.0
 11
821.988501
 21
191.282388
 31
0.0
  0
LINE
  5
56A
330
1F
100
AcDbEntity
  8
dxfile
  6
Continuous
 62
     3
100
AcDbLine
 10
821.988501
 20
191.282388
 30
0.0
 11
812.420006
 21
191.282388
 31
0.0
  0
LINE
  5
56B
330
1F
100
AcDbEntity
  8
dxfile
  6
Continuous
 62
     3
100
AcDbLine
 10
812.420006
 20
191.282388
 30
0.0
 11
812.420006
 21
181.372161
 31
0.0
  0
LINE
  5
56C
330
1F
100
AcDbEntity
  8
dxfile
  6
Continuous
 62
     4
100
AcDbLine
 10
243.102893
 20
355.513521
 30
0.0
 11
253.071098
 21
355.513521
 31
0.0
  0
LINE
  5
56D
330
1F
100
AcDbEntity
  8
dxfile
  6
Continuous
 62
     4
100
AcDbLine
 10
253.071098
 20
355.513521
 30
0.0
 11
253.071098
 21
325.608906
 31
0.0
  0
LINE
  5
56E
330
1F
100
AcDbEntity
  8
dxfile
  6
Continuous
 62
     4
100
AcDbLine
 10
251.077457
 20
325.608906
 30
0.0
 11
253.071098
 21
325.608906
 31
0.0
  0
LINE
  5
56F
330
1F
100
AcDbEntity
  8
dxfile
  6
Continuous
 62
     4
100
AcDbLine
 10
243.102893
 20
353.51988
 30
0.0
 11
251.077457
 21
353.51988
 31
0.0
  0
LINE
  5
570
330
1F
100
AcDbEntity
  8
dxfile
  6
Continuous
 62
     4
100
AcDbLine
 10
251.077457
 20
353.51988
 30
0.0
 11
251.077457
 21
325.608906
 31
0.0
  0
LINE
  5
571
330
1F
100
AcDbEntity
  8
dxfile
  6
Continuous
 62
     4
100
AcDbLine
 10
243.102893
 20
355.513521
 30
0.0
 11
243.102893
 21
353.51988
 31
0.0
  0
LINE
  5
572
330
1F
100
AcDbEntity
  8
dxfile
  6
Continuous
 62
     2
100
AcDbLine
 10
263.071098
 20
365.481726
 30
0.0
 11
215.185478
 21
365.481726
 31
0.0
  0
LINE
  5
573
330
1F
100
AcDbEntity
  8
dxfile
  6
Continuous
 62
     2
100
AcDbLine
 10
215.185478
 20
449.947602
 30
0.0
 11
215.185478
 21
365.481726
 31
0.0
  0
LINE
  5
574
330
1F
100
AcDbEntity
  8
dxfile
  6
Continuous
 62
     2
100
AcDbLine
 10
383.071098
 20
479.549787
 30
0.0
 11
215.185478
 21
449.947602
 31
0.0
  0
LINE
  5
575
330
1F
100
AcDbEntity
  8
dxfile
  6
Continuous
 62
     2
100
AcDbLine
 10
383.071098
 20
479.549787
 30
0.0
 11
383.071098
 21
212.524727
 31
0.0
  0
LINE
  5
576
330
1F
100
AcDbEntity
  8
dxfile
  6
Continuous
 62
     2
100
AcDbLine
 10
263.071098
 20
365.481726
 30
0.0
 11
263.071098
 21
212.524727
 31
0.0
  0
LINE
  5
577
330
1F
100
AcDbEntity
  8
dxfile
  6
Continuous
 62
     3
100
AcDbLine
 10
253.071098
 20
365.481726
 30
0.0
 11
253.071098
 21
212.524727
 31
0.0
  0
LINE
  5
578
330
1F
100
AcDbEntity
  8
dxfile
  6
Continuous
 62
     6
100
AcDbLine
 10
383.071098
 20
348.617226
 30
0.0
 11
263.071098
 21
228.617226
 31
0.0
  0
LINE
  5
579
330
1F
100
AcDbEntity
  8
dxfile
  6
Continuous
 62
     6
100
AcDbLine
 10
383.071098
 20
358.808718
 30
0.0
 11
263.071098
 21
238.808718
 31
0.0
  0
LINE
  5
57A
330
1F
100
AcDbEntity
  8
dxfile
  6
Continuous
 62
     6
100
AcDbLine
 10
383.071098
 20
354.137618
 30
0.0
 11
263.071098
 21
234.137618
 31
0.0
  0
LINE
  5
57B
330
1F
100
AcDbEntity
  8
dxfile
  6
Continuous
 62
     4
100
AcDbLine
 10
338.071098
 20
422.082252
 30
0.0
 11
338.071098
 21
508.13345
 31
0.0
  0
LINE
  5
57C
330
1F
100
AcDbEntity
  8
dxfile
  6
Continuous
 62
     4
100
AcDbLine
 10
338.071098
 20
508.13345
 30
0.0
 11
348.071098
 21
508.13345
 31
0.0
  0
LINE
  5
57D
330
1F
100
AcDbEntity
  8
dxfile
  6
Continuous
 62
     4
100
AcDbLine
 10
348.071098
 20
508.13345
 30
0.0
 11
348.071098
 21
422.082252
 31
0.0
  0
LINE
  5
57E
330
1F
100
AcDbEntity
  8
dxfile
  6
PLine2
 62
     3
100
AcDbLine
 10
343.071098
 20
510.731032
 30
0.0
 11
343.071098
 21
420.310676
 31
0.0
  0
LINE
  5
57F
330
1F
100
AcDbEntity
  8
dxfile
  6
Continuous
 62
     4
100
AcDbLine
 10
195.185478
 20
406.729652
 30
0.0
 11
195.185478
 21
465.890549
 31
0.0
  0
LINE
  5
580
330
1F
100
AcDbEntity
  8
dxfile
  6
Continuous
 62
     4
100
AcDbLine
 10
275.454334
 20
480.88294
 30
0.0
 11
196.011834
 21
466.875358
 31
0.0
  0
ARC
  5
581
330
1F
100
AcDbEntity
  8
dxfile
  6
Continuous
 62
     4
100
AcDbCircle
 10
196.185478
 20
465.890549
 30
0.0
 40
1.000000000681795
100
AcDbArc
 50
99.999808
 51
180.0
  0
LINE
  5
582
330
1F
100
AcDbEntity
  8
dxfile
  6
Continuous
 62
     4
100
AcDbLine
 10
197.185478
 20
406.729652
 30
0.0
 11
197.185478
 21
465.051447
 31
0.0
  0
LINE
  5
583
330
1F
100
AcDbEntity
  8
dxfile
  6
Continuous
 62
     4
100
AcDbLine
 10
197.185478
 20
465.051447
 30
0.0
 11
276.627979
 21
479.059029
 31
0.0
  0
LINE
  5
584
330
1F
100
AcDbEntity
  8
dxfile
  6
Continuous
 62
     4
100
AcDbLine
 10
275.454334
 20
494.235587
 30
0.0
 11
275.454334
 21
480.88294
 31
0.0
  0
ARC
  5
585
330
1F
100
AcDbEntity
  8
dxfile
  6
Continuous
 62
     4
100
AcDbCircle
 10
276.454334
 20
480.043837
 30
0.0
 40
0.9999999996694293
100
AcDbArc
 50
279.999808
 51
0.0
  0
LINE
  5
586
330
1F
100
AcDbEntity
  8
dxfile
  6
Continuous
 62
     4
100
AcDbLine
 10
195.185478
 20
406.729652
 30
0.0
 11
197.185478
 21
406.729652
 31
0.0
  0
LINE
  5
587
330
1F
100
AcDbEntity
  8
dxfile
  6
Continuous
 62
     4
100
AcDbLine
 10
277.454334
 20
494.235587
 30
0.0
 11
275.454334
 21
494.235587
 31
0.0
  0
LINE
  5
588
330
1F
100
AcDbEntity
  8
dxfile
  6
PLine2
 62
     3
100
AcDbLine
 10
273.150839
 20
489.235587
 30
0.0
 11
282.102057
 21
489.235587
 31
0.0
  0
LINE
  5
589
330
1F
100
AcDbEntity
  8
dxfile
  6
Continuous
 62
     4
100
AcDbLine
 10
210.185478
 20
421.729652
 30
0.0
 11
210.185478
 21
454.143115
 31
0.0
  0
LINE
  5
58A
330
1F
100
AcDbEntity
  8
dxfile
  6
Continuous
 62
     4
100
AcDbLine
 10
210.185478
 20
454.143115
 30
0.0
 11
279.711717
 21
466.402226
 31
0.0
  0
LINE
  5
58B
330
1F
100
AcDbEntity
  8
dxfile
  6
PLine1
 62
     4
100
AcDbLine
 10
208.185478
 20
421.729652
 30
0.0
 11
208.185478
 21
455.82132
 31
0.0
  0
LINE
  5
58C
330
1F
100
AcDbEntity
  8
dxfile
  6
PLine1
 62
     4
100
AcDbLine
 10
208.185478
 20
455.82132
 30
0.0
 11
279.364428
 21
468.371843
 31
0.0
  0
LINE
  5
58D
330
1F
100
AcDbEntity
  8
dxfile
  6
Continuous
 62
     4
100
AcDbLine
 10
210.185478
 20
454.143115
 30
0.0
 11
197.185478
 21
465.051447
 31
0.0
  0
LINE
  5
58E
330
1F
100
AcDbEntity
  8
dxfile
  6
Continuous
 62
     4
100
AcDbLine
 10
277.375147
 20
479.653834
 30
0.0
 11
279.711717
 21
466.402226
 31
0.0
  0
LINE
  5
58F
330
1F
100
AcDbEntity
  8
dxfile
  6
Continuous
 62
     6
100
AcDbLine
 10
197.185478
 20
421.729652
 30
0.0
 11
215.185478
 21
421.729652
 31
0.0
  0
LINE
  5
590
330
1F
100
AcDbEntity
  8
dxfile
  6
PLine2
 62
     3
100
AcDbLine
 10
246.975238
 20
340.513521
 30
0.0
 11
263.988612
 21
340.513521
 31
0.0
  0
LINE
  5
591
330
1F
100
AcDbEntity
  8
dxfile
  6
Continuous
 62
     6
100
AcDbLine
 10
197.185478
 20
406.729652
 30
0.0
 11
215.185478
 21
405.197635
 31
0.0
  0
LINE
  5
592
330
1F
100
AcDbEntity
  8
dxfile
  6
Continuous
 62
     6
100
AcDbLine
 10
268.071098
 20
497.235587
 30
0.0
 11
265.922776
 21
479.202302
 31
0.0
  0
LINE
  5
593
330
1F
100
AcDbEntity
  8
dxfile
  6
Continuous
 62
     6
100
AcDbLine
 10
200.639915
 20
406.435638
 30
0.0
 11
210.332014
 21
416.127737
 31
0.0
  0
LINE
  5
594
330
1F
100
AcDbEntity
  8
dxfile
  6
Continuous
 62
     6
100
AcDbLine
 10
197.178117
 20
410.187015
 30
0.0
 11
203.118839
 21
416.127737
 31
0.0
  0
LINE
  5
595
330
1F
100
AcDbEntity
  8
dxfile
  6
Continuous
 62
     6
100
AcDbLine
 10
205.633513
 20
406.010622
 30
0.0
 11
197.185478
 21
414.458656
 31
0.0
  0
LINE
  5
596
330
1F
100
AcDbEntity
  8
dxfile
  6
Continuous
 62
     6
100
AcDbLine
 10
207.295911
 20
405.869132
 30
0.0
 11
215.185478
 21
413.7587
 31
0.0
  0
LINE
  5
597
330
1F
100
AcDbEntity
  8
dxfile
  6
Continuous
 62
     6
100
AcDbLine
 10
213.28765
 20
405.359163
 30
0.0
 11
215.185478
 21
407.256991
 31
0.0
  0
LINE
  5
598
330
1F
100
AcDbEntity
  8
dxfile
  6
Continuous
 62
     6
100
AcDbLine
 10
212.817504
 20
405.399178
 30
0.0
 11
202.088945
 21
416.127737
 31
0.0
  0
LINE
  5
599
330
1F
100
AcDbEntity
  8
dxfile
  6
Continuous
 62
     6
100
AcDbLine
 10
215.185478
 20
409.791538
 30
0.0
 11
208.849279
 21
416.127737
 31
0.0
  0
LINE
  5
59A
330
1F
100
AcDbEntity
  8
dxfile
  6
Continuous
 62
     6
100
AcDbLine
 10
273.458565
 20
496.235587
 30
0.0
 11
267.207241
 21
489.984263
 31
0.0
  0
LINE
  5
59B
330
1F
100
AcDbEntity
  8
dxfile
  6
Continuous
 62
     6
100
AcDbLine
 10
273.840491
 20
481.4124
 30
0.0
 11
267.000876
 21
488.252014
 31
0.0
  0
LINE
  5
59C
330
1F
100
AcDbEntity
  8
dxfile
  6
Continuous
 62
     6
100
AcDbLine
 10
266.40301
 20
483.233444
 30
0.0
 11
273.840491
 21
490.670925
 31
0.0
  0
LINE
  5
59D
330
1F
100
AcDbEntity
  8
dxfile
  6
Continuous
 62
     6
100
AcDbLine
 10
269.104771
 20
479.763362
 30
0.0
 11
266.321222
 21
482.546911
 31
0.0
  0
LINE
  5
59E
330
1F
100
AcDbEntity
  8
dxfile
  6
Continuous
 62
     6
100
AcDbLine
 10
269.211273
 20
479.782141
 30
0.0
 11
273.840491
 21
484.411359
 31
0.0
  0
LINE
  5
59F
330
1F
100
AcDbEntity
  8
dxfile
  6
Continuous
 62
     6
100
AcDbLine
 10
273.840491
 20
493.368169
 30
0.0
 11
270.973073
 21
496.235587
 31
0.0
  0
LINE
  5
5A0
330
1F
100
AcDbEntity
  8
dxfile
  6
Continuous
 62
     6
100
AcDbLine
 10
273.840491
 20
487.409065
 30
0.0
 11
267.639218
 21
493.610337
 31
0.0
  0
LINE
  5
5A1
330
1F
100
AcDbEntity
  8
dxfile
  6
Continuous
 62
     4
100
AcDbLine
 10
332.814575
 20
482.708863
 30
0.0
 11
327.935433
 21
490.271533
 31
0.0
  0
LINE
  5
5A2
330
1F
100
AcDbEntity
  8
dxfile
  6
Continuous
 62
     4
100
AcDbLine
 10
359.287965
 20
510.498974
 30
0.0
 11
364.167107
 21
502.936304
 31
0.0
  0
LINE
  5
5A3
330
1F
100
AcDbEntity
  8
dxfile
  6
Continuous
 62
     4
100
AcDbLine
 10
327.935433
 20
490.271533
 30
0.0
 11
338.071098
 21
496.810672
 31
0.0
  0
LINE
  5
5A4
330
1F
100
AcDbEntity
  8
dxfile
  6
Continuous
 62
     4
100
AcDbLine
 10
348.071098
 20
503.262285
 30
0.0
 11
353.071098
 21
506.488091
 31
0.0
  0
LINE
  5
5A5
330
1F
100
AcDbEntity
  8
dxfile
  6
Continuous
 62
     4
100
AcDbLine
 10
355.371098
 20
507.971962
 30
0.0
 11
359.287965
 21
510.498974
 31
0.0
  0
LINE
  5
5A6
330
1F
100
AcDbEntity
  8
dxfile
  6
Continuous
 62
     4
100
AcDbLine
 10
364.167107
 20
502.936304
 30
0.0
 11
355.371098
 21
497.261459
 31
0.0
  0
LINE
  5
5A7
330
1F
100
AcDbEntity
  8
dxfile
  6
Continuous
 62
     4
100
AcDbLine
 10
353.071098
 20
495.777588
 30
0.0
 11
348.071098
 21
492.551782
 31
0.0
  0
LINE
  5
5A8
330
1F
100
AcDbEntity
  8
dxfile
  6
Continuous
 62
     4
100
AcDbLine
 10
338.071098
 20
486.100169
 30
0.0
 11
332.814575
 21
482.708863
 31
0.0
  0
LINE
  5
5A9
330
1F
100
AcDbEntity
  8
dxfile
  6
PLine2
 62
     3
100
AcDbLine
 10
326.694364
 20
484.115592
 30
0.0
 11
364.326432
 21
508.394346
 31
0.0
  0
LINE
  5
5AA
330
1F
100
AcDbEntity
  8
dxfile
  6
Continuous
 62
     6
100
AcDbLine
 10
383.071098
 20
479.549787
 30
0.0
 11
383.071098
 21
516.935587
 31
0.0
  0
CIRCLE
  5
5AB
330
1F
100
AcDbEntity
  8
dxfile
  6
Continuous
 62
     6
100
AcDbCircle
 10
374.736836
 20
502.802361
 30
0.0
 40
0.9999999999999858
  0
CIRCLE
  5
5AC
330
1F
100
AcDbEntity
  8
dxfile
  6
Continuous
 62
     6
100
AcDbCircle
 10
369.513399
 20
493.101692
 30
0.0
 40
0.9999999999999858
  0
CIRCLE
  5
5AD
330
1F
100
AcDbEntity
  8
dxfile
  6
Continuous
 62
     6
100
AcDbCircle
 10
374.363734
 20
486.012742
 30
0.0
 40
0.9999999999999858
  0
CIRCLE
  5
5AE
330
1F
100
AcDbEntity
  8
dxfile
  6
Continuous
 62
     6
100
AcDbCircle
 10
368.020988
 20
507.652695
 30
0.0
 40
0.9999999999999858
  0
CIRCLE
  5
5AF
330
1F
100
AcDbEntity
  8
dxfile
  6
Continuous
 62
     6
100
AcDbCircle
 10
316.905925
 20
506.533387
 30
0.0
 40
0.9999999999999858
  0
CIRCLE
  5
5B0
330
1F
100
AcDbEntity
  8
dxfile
  6
Continuous
 62
     6
100
AcDbCircle
 10
316.15972
 20
489.743768
 30
0.0
 40
0.9999999999999858
  0
CIRCLE
  5
5B1
330
1F
100
AcDbEntity
  8
dxfile
  6
Continuous
 62
     6
100
AcDbCircle
 10
300.862511
 20
477.431381
 30
0.0
 40
0.9999999999999858
  0
CIRCLE
  5
5B2
330
1F
100
AcDbEntity
  8
dxfile
  6
Continuous
 62
     6
100
AcDbCircle
 10
300.116306
 20
497.205821
 30
0.0
 40
0.9999999999999858
  0
CIRCLE
  5
5B3
330
1F
100
AcDbEntity
  8
dxfile
  6
Continuous
 62
     6
100
AcDbCircle
 10
318.771439
 20
475.565867
 30
0.0
 40
0.9999999999999858
  0
CIRCLE
  5
5B4
330
1F
100
AcDbEntity
  8
dxfile
  6
Continuous
 62
     6
100
AcDbCircle
 10
332.576237
 20
508.398901
 30
0.0
 40
0.9999999999999858
  0
LINE
  5
5B5
330
1F
100
AcDbEntity
  8
dxfile
  6
Continuous
 62
     4
100
AcDbLine
 10
1493.039302
 20
355.513521
 30
0.0
 11
1483.071098
 21
355.513521
 31
0.0
  0
LINE
  5
5B6
330
1F
100
AcDbEntity
  8
dxfile
  6
Continuous
 62
     4
100
AcDbLine
 10
1483.071098
 20
355.513521
 30
0.0
 11
1483.071098
 21
325.608906
 31
0.0
  0
LINE
  5
5B7
330
1F
100
AcDbEntity
  8
dxfile
  6
Continuous
 62
     4
100
AcDbLine
 10
1485.064739
 20
325.608906
 30
0.0
 11
1483.071098
 21
325.608906
 31
0.0
  0
LINE
  5
5B8
330
1F
100
AcDbEntity
  8
dxfile
  6
Continuous
 62
     4
100
AcDbLine
 10
1493.039302
 20
353.51988
 30
0.0
 11
1485.064739
 21
353.51988
 31
0.0
  0
LINE
  5
5B9
330
1F
100
AcDbEntity
  8
dxfile
  6
Continuous
 62
     4
100
AcDbLine
 10
1485.064739
 20
353.51988
 30
0.0
 11
1485.064739
 21
325.608906
 31
0.0
  0
LINE
  5
5BA
330
1F
100
AcDbEntity
  8
dxfile
  6
Continuous
 62
     4
100
AcDbLine
 10
1493.039302
 20
355.513521
 30
0.0
 11
1493.039302
 21
353.51988
 31
0.0
  0
LINE
  5
5BB
330
1F
100
AcDbEntity
  8
dxfile
  6
Continuous
 62
     2
100
AcDbLine
 10
1473.071098
 20
365.481726
 30
0.0
 11
1520.956717
 21
365.481726
 31
0.0
  0
LINE
  5
5BC
330
1F
100
AcDbEntity
  8
dxfile
  6
Continuous
 62
     2
100
AcDbLine
 10
1520.956717
 20
449.947602
 30
0.0
 11
1520.956717
 21
365.481726
 31
0.0
  0
LINE
  5
5BD
330
1F
100
AcDbEntity
  8
dxfile
  6
Continuous
 62
     2
100
AcDbLine
 10
1353.071098
 20
479.549787
 30
0.0
 11
1520.956717
 21
449.947602
 31
0.0
  0
LINE
  5
5BE
330
1F
100
AcDbEntity
  8
dxfile
  6
Continuous
 62
     2
100
AcDbLine
 10
1353.071098
 20
479.549787
 30
0.0
 11
1353.071098
 21
212.524727
 31
0.0
  0
LINE
  5
5BF
330
1F
100
AcDbEntity
  8
dxfile
  6
Continuous
 62
     2
100
AcDbLine
 10
1473.071098
 20
365.481726
 30
0.0
 11
1473.071098
 21
212.524727
 31
0.0
  0
LINE
  5
5C0
330
1F
100
AcDbEntity
  8
dxfile
  6
Continuous
 62
     3
100
AcDbLine
 10
1483.071098
 20
365.481726
 30
0.0
 11
1483.071098
 21
212.524727
 31
0.0
  0
LINE
  5
5C1
330
1F
100
AcDbEntity
  8
dxfile
  6
Continuous
 62
     6
100
AcDbLine
 10
1353.071098
 20
348.617226
 30
0.0
 11
1473.071098
 21
228.617226
 31
0.0
  0
LINE
  5
5C2
330
1F
100
AcDbEntity
  8
dxfile
  6
Continuous
 62
     6
100
AcDbLine
 10
1353.071098
 20
358.808718
 30
0.0
 11
1473.071098
 21
238.808718
 31
0.0
  0
LINE
  5
5C3
330
1F
100
AcDbEntity
  8
dxfile
  6
Continuous
 62
     6
100
AcDbLine
 10
1353.071098
 20
354.137618
 30
0.0
 11
1473.071098
 21
234.137618
 31
0.0
  0
LINE
  5
5C4
330
1F
100
AcDbEntity
  8
dxfile
  6
Continuous
 62
     4
100
AcDbLine
 10
1398.071098
 20
422.082252
 30
0.0
 11
1398.071098
 21
508.13345
 31
0.0
  0
LINE
  5
5C5
330
1F
100
AcDbEntity
  8
dxfile
  6
Continuous
 62
     4
100
AcDbLine
 10
1398.071098
 20
508.13345
 30
0.0
 11
1388.071098
 21
508.13345
 31
0.0
  0
LINE
  5
5C6
330
1F
100
AcDbEntity
  8
dxfile
  6
Continuous
 62
     4
100
AcDbLine
 10
1388.071098
 20
508.13345
 30
0.0
 11
1388.071098
 21
422.082252
 31
0.0
  0
LINE
  5
5C7
330
1F
100
AcDbEntity
  8
dxfile
  6
PLine2
 62
     3
100
AcDbLine
 10
1393.071098
 20
510.731032
 30
0.0
 11
1393.071098
 21
420.310676
 31
0.0
  0
LINE
  5
5C8
330
1F
100
AcDbEntity
  8
dxfile
  6
Continuous
 62
     4
100
AcDbLine
 10
1540.956717
 20
406.729652
 30
0.0
 11
1540.956717
 21
465.890549
 31
0.0
  0
LINE
  5
5C9
330
1F
100
AcDbEntity
  8
dxfile
  6
Continuous
 62
     4
100
AcDbLine
 10
1460.687861
 20
480.88294
 30
0.0
 11
1540.130362
 21
466.875358
 31
0.0
  0
ARC
  5
5CA
330
1F
100
AcDbEntity
  8
dxfile
  6
Continuous
 62
     4
100
AcDbCircle
 10
1539.956717
 20
465.890549
 30
0.0
 40
1.000000000611423
100
AcDbArc
 50
0.0
 51
80.000192
  0
LINE
  5
5CB
330
1F
100
AcDbEntity
  8
dxfile
  6
Continuous
 62
     4
100
AcDbLine
 10
1538.956717
 20
406.729652
 30
0.0
 11
1538.956717
 21
465.051447
 31
0.0
  0
LINE
  5
5CC
330
1F
100
AcDbEntity
  8
dxfile
  6
Continuous
 62
     4
100
AcDbLine
 10
1538.956717
 20
465.051447
 30
0.0
 11
1459.514217
 21
479.059029
 31
0.0
  0
LINE
  5
5CD
330
1F
100
AcDbEntity
  8
dxfile
  6
Continuous
 62
     4
100
AcDbLine
 10
1460.687861
 20
494.235587
 30
0.0
 11
1460.687861
 21
480.88294
 31
0.0
  0
ARC
  5
5CE
330
1F
100
AcDbEntity
  8
dxfile
  6
Continuous
 62
     4
100
AcDbCircle
 10
1459.687861
 20
480.043837
 30
0.0
 40
1.000000000263296
100
AcDbArc
 50
180.0
 51
260.000192
  0
LINE
  5
5CF
330
1F
100
AcDbEntity
  8
dxfile
  6
Continuous
 62
     4
100
AcDbLine
 10
1540.956717
 20
406.729652
 30
0.0
 11
1538.956717
 21
406.729652
 31
0.0
  0
LINE
  5
5D0
330
1F
100
AcDbEntity
  8
dxfile
  6
Continuous
 62
     4
100
AcDbLine
 10
1458.687861
 20
494.235587
 30
0.0
 11
1460.687861
 21
494.235587
 31
0.0
  0
LINE
  5
5D1
330
1F
100
AcDbEntity
  8
dxfile
  6
Continuous
 62
     4
100
AcDbLine
 10
1525.956717
 20
421.729652
 30
0.0
 11
1525.956717
 21
454.143115
 31
0.0
  0
LINE
  5
5D2
330
1F
100
AcDbEntity
  8
dxfile
  6
Continuous
 62
     4
100
AcDbLine
 10
1525.956717
 20
454.143115
 30
0.0
 11
1456.430478
 21
466.402226
 31
0.0
  0
LINE
  5
5D3
330
1F
100
AcDbEntity
  8
dxfile
  6
PLine1
 62
     4
100
AcDbLine
 10
1527.956717
 20
421.729652
 30
0.0
 11
1527.956717
 21
455.82132
 31
0.0
  0
LINE
  5
5D4
330
1F
100
AcDbEntity
  8
dxfile
  6
PLine1
 62
     4
100
AcDbLine
 10
1527.956717
 20
455.82132
 30
0.0
 11
1456.777768
 21
468.371843
 31
0.0
  0
LINE
  5
5D5
330
1F
100
AcDbEntity
  8
dxfile
  6
Continuous
 62
     4
100
AcDbLine
 10
1525.956717
 20
454.143115
 30
0.0
 11
1538.956717
 21
465.051447
 31
0.0
  0
LINE
  5
5D6
330
1F
100
AcDbEntity
  8
dxfile
  6
Continuous
 62
     4
100
AcDbLine
 10
1458.767048
 20
479.653834
 30
0.0
 11
1456.430478
 21
466.402226
 31
0.0
  0
LINE
  5
5D7
330
1F
100
AcDbEntity
  8
dxfile
  6
Continuous
 62
     6
100
AcDbLine
 10
1538.956717
 20
421.729652
 30
0.0
 11
1520.956717
 21
421.729652
 31
0.0
  0
LINE
  5
5D8
330
1F
100
AcDbEntity
  8
dxfile
  6
PLine2
 62
     3
100
AcDbLine
 10
1489.166957
 20
340.513521
 30
0.0
 11
1472.153583
 21
340.513521
 31
0.0
  0
LINE
  5
5D9
330
1F
100
AcDbEntity
  8
dxfile
  6
Continuous
 62
     6
100
AcDbLine
 10
1538.956717
 20
406.729652
 30
0.0
 11
1520.956717
 21
405.197635
 31
0.0
  0
LINE
  5
5DA
330
1F
100
AcDbEntity
  8
dxfile
  6
Continuous
 62
     6
100
AcDbLine
 10
1468.071098
 20
497.235587
 30
0.0
 11
1470.219419
 21
479.202302
 31
0.0
  0
LINE
  5
5DB
330
1F
100
AcDbEntity
  8
dxfile
  6
Continuous
 62
     6
100
AcDbLine
 10
1535.502281
 20
406.435638
 30
0.0
 11
1525.810181
 21
416.127737
 31
0.0
  0
LINE
  5
5DC
330
1F
100
AcDbEntity
  8
dxfile
  6
Continuous
 62
     6
100
AcDbLine
 10
1538.964078
 20
410.187015
 30
0.0
 11
1533.023356
 21
416.127737
 31
0.0
  0
LINE
  5
5DD
330
1F
100
AcDbEntity
  8
dxfile
  6
Continuous
 62
     6
100
AcDbLine
 10
1530.508683
 20
406.010622
 30
0.0
 11
1538.956717
 21
414.458656
 31
0.0
  0
LINE
  5
5DE
330
1F
100
AcDbEntity
  8
dxfile
  6
Continuous
 62
     6
100
AcDbLine
 10
1528.846284
 20
405.869132
 30
0.0
 11
1520.956717
 21
413.7587
 31
0.0
  0
LINE
  5
5DF
330
1F
100
AcDbEntity
  8
dxfile
  6
Continuous
 62
     6
100
AcDbLine
 10
1522.854545
 20
405.359163
 30
0.0
 11
1520.956717
 21
407.256991
 31
0.0
  0
LINE
  5
5E0
330
1F
100
AcDbEntity
  8
dxfile
  6
Continuous
 62
     6
100
AcDbLine
 10
1523.324691
 20
405.399178
 30
0.0
 11
1534.053251
 21
416.127737
 31
0.0
  0
LINE
  5
5E1
330
1F
100
AcDbEntity
  8
dxfile
  6
Continuous
 62
     6
100
AcDbLine
 10
1520.956717
 20
409.791538
 30
0.0
 11
1527.292916
 21
416.127737
 31
0.0
  0
LINE
  5
5E2
330
1F
100
AcDbEntity
  8
dxfile
  6
Continuous
 62
     6
100
AcDbLine
 10
1462.68363
 20
496.235587
 30
0.0
 11
1468.934954
 21
489.984263
 31
0.0
  0
LINE
  5
5E3
330
1F
100
AcDbEntity
  8
dxfile
  6
Continuous
 62
     6
100
AcDbLine
 10
1462.301705
 20
481.4124
 30
0.0
 11
1469.141319
 21
488.252014
 31
0.0
  0
LINE
  5
5E4
330
1F
100
AcDbEntity
  8
dxfile
  6
Continuous
 62
     6
100
AcDbLine
 10
1469.739186
 20
483.233444
 30
0.0
 11
1462.301705
 21
490.670925
 31
0.0
  0
LINE
  5
5E5
330
1F
100
AcDbEntity
  8
dxfile
  6
Continuous
 62
     6
100
AcDbLine
 10
1467.037424
 20
479.763362
 30
0.0
 11
1469.820973
 21
482.546911
 31
0.0
  0
LINE
  5
5E6
330
1F
100
AcDbEntity
  8
dxfile
  6
Continuous
 62
     6
100
AcDbLine
 10
1466.930923
 20
479.782141
 30
0.0
 11
1462.301705
 21
484.411359
 31
0.0
  0
LINE
  5
5E7
330
1F
100
AcDbEntity
  8
dxfile
  6
Continuous
 62
     6
100
AcDbLine
 10
1462.301705
 20
493.368169
 30
0.0
 11
1465.169123
 21
496.235587
 31
0.0
  0
LINE
  5
5E8
330
1F
100
AcDbEntity
  8
dxfile
  6
Continuous
 62
     6
100
AcDbLine
 10
1462.301705
 20
487.409065
 30
0.0
 11
1468.502977
 21
493.610337
 31
0.0
  0
LINE
  5
5E9
330
1F
100
AcDbEntity
  8
dxfile
  6
Continuous
 62
     4
100
AcDbLine
 10
1403.327621
 20
482.708863
 30
0.0
 11
1408.206763
 21
490.271533
 31
0.0
  0
LINE
  5
5EA
330
1F
100
AcDbEntity
  8
dxfile
  6
Continuous
 62
     4
100
AcDbLine
 10
1376.85423
 20
510.498974
 30
0.0
 11
1371.975088
 21
502.936304
 31
0.0
  0
LINE
  5
5EB
330
1F
100
AcDbEntity
  8
dxfile
  6
Continuous
 62
     4
100
AcDbLine
 10
1408.206763
 20
490.271533
 30
0.0
 11
1398.071098
 21
496.810672
 31
0.0
  0
LINE
  5
5EC
330
1F
100
AcDbEntity
  8
dxfile
  6
Continuous
 62
     4
100
AcDbLine
 10
1388.071098
 20
503.262285
 30
0.0
 11
1383.071098
 21
506.488091
 31
0.0
  0
LINE
  5
5ED
330
1F
100
AcDbEntity
  8
dxfile
  6
Continuous
 62
     4
100
AcDbLine
 10
1380.771098
 20
507.971962
 30
0.0
 11
1376.85423
 21
510.498974
 31
0.0
  0
LINE
  5
5EE
330
1F
100
AcDbEntity
  8
dxfile
  6
Continuous
 62
     4
100
AcDbLine
 10
1371.975088
 20
502.936304
 30
0.0
 11
1380.771098
 21
497.261459
 31
0.0
  0
LINE
  5
5EF
330
1F
100
AcDbEntity
  8
dxfile
  6
Continuous
 62
     4
100
AcDbLine
 10
1383.071098
 20
495.777588
 30
0.0
 11
1388.071098
 21
492.551782
 31
0.0
  0
LINE
  5
5F0
330
1F
100
AcDbEntity
  8
dxfile
  6
Continuous
 62
     4
100
AcDbLine
 10
1398.071098
 20
486.100169
 30
0.0
 11
1403.327621
 21
482.708863
 31
0.0
  0
LINE
  5
5F1
330
1F
100
AcDbEntity
  8
dxfile
  6
PLine2
 62
     3
100
AcDbLine
 10
1409.447832
 20
484.115592
 30
0.0
 11
1371.815763
 21
508.394346
 31
0.0
  0
LINE
  5
5F2
330
1F
100
AcDbEntity
  8
dxfile
  6
Continuous
 62
     6
100
AcDbLine
 10
1353.071098
 20
479.549787
 30
0.0
 11
1353.071098
 21
516.935587
 31
0.0
  0
CIRCLE
  5
5F3
330
1F
100
AcDbEntity
  8
dxfile
  6
Continuous
 62
     6
100
AcDbCircle
 10
1361.405359
 20
502.802361
 30
0.0
 40
1.000000000000114
  0
CIRCLE
  5
5F4
330
1F
100
AcDbEntity
  8
dxfile
  6
Continuous
 62
     6
100
AcDbCircle
 10
1366.628796
 20
493.101692
 30
0.0
 40
0.9999999999997726
  0
CIRCLE
  5
5F5
330
1F
100
AcDbEntity
  8
dxfile
  6
Continuous
 62
     6
100
AcDbCircle
 10
1372.971541
 20
483.401023
 30
0.0
 40
1.000000000000114
  0
CIRCLE
  5
5F6
330
1F
100
AcDbEntity
  8
dxfile
  6
Continuous
 62
     6
100
AcDbCircle
 10
1361.778462
 20
486.012742
 30
0.0
 40
1.000000000000114
  0
CIRCLE
  5
5F7
330
1F
100
AcDbEntity
  8
dxfile
  6
Continuous
 62
     6
100
AcDbCircle
 10
1368.121207
 20
507.652695
 30
0.0
 40
0.9999999999997726
  0
CIRCLE
  5
5F8
330
1F
100
AcDbEntity
  8
dxfile
  6
Continuous
 62
     6
100
AcDbCircle
 10
1419.23627
 20
506.533387
 30
0.0
 40
1.000000000000114
  0
CIRCLE
  5
5F9
330
1F
100
AcDbEntity
  8
dxfile
  6
Continuous
 62
     6
100
AcDbCircle
 10
1419.982475
 20
489.743768
 30
0.0
 40
0.9999999999997726
  0
CIRCLE
  5
5FA
330
1F
100
AcDbEntity
  8
dxfile
  6
Continuous
 62
     6
100
AcDbCircle
 10
1435.279684
 20
477.431381
 30
0.0
 40
1.000000000000114
  0
CIRCLE
  5
5FB
330
1F
100
AcDbEntity
  8
dxfile
  6
Continuous
 62
     6
100
AcDbCircle
 10
1436.025889
 20
497.205821
 30
0.0
 40
0.9999999999997726
  0
CIRCLE
  5
5FC
330
1F
100
AcDbEntity
  8
dxfile
  6
Continuous
 62
     6
100
AcDbCircle
 10
1417.370757
 20
475.565867
 30
0.0
 40
1.000000000000114
  0
CIRCLE
  5
5FD
330
1F
100
AcDbEntity
  8
dxfile
  6
Continuous
 62
     6
100
AcDbCircle
 10
1403.565959
 20
508.398901
 30
0.0
 40
0.9999999999997726
  0
LINE
  5
5FE
330
1F
100
AcDbEntity
  8
dxfile
  6
Continuous
 62
     4
100
AcDbLine
 10
443.071098
 20
210.865244
 30
0.0
 11
443.071098
 21
501.235587
 31
0.0
  0
LINE
  5
5FF
330
1F
100
AcDbEntity
  8
dxfile
  6
Continuous
 62
     4
100
AcDbLine
 10
434.071098
 20
210.865244
 30
0.0
 11
434.071098
 21
501.235587
 31
0.0
  0
LINE
  5
600
330
1F
100
AcDbEntity
  8
dxfile
  6
Continuous
 62
     4
100
AcDbLine
 10
1293.071098
 20
210.865244
 30
0.0
 11
1293.071098
 21
501.235587
 31
0.0
  0
LINE
  5
601
330
1F
100
AcDbEntity
  8
dxfile
  6
Continuous
 62
     4
100
AcDbLine
 10
1302.071098
 20
210.865244
 30
0.0
 11
1302.071098
 21
501.235587
 31
0.0
  0
INSERT
  5
60B
330
1F
100
AcDbEntity
  8
dxfile
  6
Continuous
 62
     3
100
AcDbBlockReference
  2
DIM_17
 10
383.071098
 20
274.712722
 30
0.0
  0
INSERT
  5
615
330
1F
100
AcDbEntity
  8
dxfile
  6
Continuous
 62
     3
100
AcDbBlockReference
  2
DIM_18
 10
383.071098
 20
232.057921
 30
0.0
  0
LINE
  5
616
330
1F
100
AcDbEntity
  8
dxfile
  6
Continuous
 62
     3
100
AcDbLine
 10
452.068252
 20
259.690068
 30
0.0
 11
443.470175
 21
268.582373
 31
0.0
  0
LINE
  5
617
330
1F
100
AcDbEntity
  8
dxfile
  6
Continuous
 62
     3
100
AcDbLine
 10
443.470175
 20
268.582373
 30
0.0
 11
473.446555
 21
216.66176
 31
0.0
  0
LINE
  5
618
330
1F
100
AcDbEntity
  8
dxfile
  6
Continuous
 62
     3
100
AcDbLine
 10
473.446555
 20
216.66176
 30
0.0
 11
612.485925
 21
216.66176
 31
0.0
  0
TEXT
  5
619
330
1F
100
AcDbEntity
  8
dxfile
  6
Continuous
 62
     3
100
AcDbText
 10
473.446555
 20
219.66176
 30
0.0
 40
18.0
  1
内装仕上げ（別途）
 41
0.858268
  7
BIGFONT
100
AcDbText
  0
LINE
  5
61A
330
1F
100
AcDbEntity
  8
dxfile
  6
Continuous
 62
     3
100
AcDbLine
 10
1516.252518
 20
483.087404
 30
0.0
 11
1512.850595
 21
471.195099
 31
0.0
  0
LINE
  5
61B
330
1F
100
AcDbEntity
  8
dxfile
  6
Continuous
 62
     3
100
AcDbLine
 10
1512.850595
 20
471.195099
 30
0.0
 11
1527.312879
 21
496.24451
 31
0.0
  0
LINE
  5
61C
330
1F
100
AcDbEntity
  8
dxfile
  6
Continuous
 62
     3
100
AcDbLine
 10
1527.312879
 20
496.24451
 30
0.0
 11
1712.698706
 21
496.24451
 31
0.0
  0
TEXT
  5
61D
330
1F
100
AcDbEntity
  8
dxfile
  6
Continuous
 62
     3
100
AcDbText
 10
1527.312879
 20
499.24451
 30
0.0
 40
18.0
  1
２段水切り（オプション）
 41
0.858268
  7
BIGFONT
100
AcDbText
  0
LINE
  5
61E
330
1F
100
AcDbEntity
  8
dxfile
  6
Continuous
 62
     3
100
AcDbLine
 10
1539.577468
 20
396.138904
 30
0.0
 11
1530.979392
 21
405.031209
 31
0.0
  0
LINE
  5
61F
330
1F
100
AcDbEntity
  8
dxfile
  6
Continuous
 62
     3
100
AcDbLine
 10
1530.979392
 20
405.031209
 30
0.0
 11
1552.593285
 21
367.594848
 31
0.0
  0
LINE
  5
620
330
1F
100
AcDbEntity
  8
dxfile
  6
Continuous
 62
     3
100
AcDbLine
 10
1552.593285
 20
367.594848
 30
0.0
 11
1722.530293
 21
367.594848
 31
0.0
  0
TEXT
  5
621
330
1F
100
AcDbEntity
  8
dxfile
  6
Continuous
 62
     3
100
AcDbText
 10
1552.593285
 20
370.594848
 30
0.0
 40
18.0
  1
シーリング処理（別途）
 41
0.858268
  7
BIGFONT
100
AcDbText
  0
LINE
  5
622
330
1F
100
AcDbEntity
  8
dxfile
  6
Continuous
 62
     3
100
AcDbLine
 10
1472.223421
 20
498.38995
 30
0.0
 11
1468.821498
 21
486.497646
 31
0.0
  0
LINE
  5
623
330
1F
100
AcDbEntity
  8
dxfile
  6
Continuous
 62
     3
100
AcDbLine
 10
1468.821498
 20
486.497646
 30
0.0
 11
1497.430512
 21
536.049912
 31
0.0
  0
LINE
  5
624
330
1F
100
AcDbEntity
  8
dxfile
  6
Continuous
 62
     3
100
AcDbLine
 10
1497.430512
 20
536.049912
 30
0.0
 11
1667.36752
 21
536.049912
 31
0.0
  0
TEXT
  5
625
330
1F
100
AcDbEntity
  8
dxfile
  6
Continuous
 62
     3
100
AcDbText
 10
1497.430512
 20
539.049912
 30
0.0
 40
18.0
  1
シーリング処理（別途）
 41
0.858268
  7
BIGFONT
100
AcDbText
  0
LINE
  5
626
330
1F
100
AcDbEntity
  8
dxfile
  6
Continuous
 62
     3
100
AcDbLine
 10
1407.014053
 20
437.828246
 30
0.0
 11
1398.415977
 21
446.720551
 31
0.0
  0
LINE
  5
627
330
1F
100
AcDbEntity
  8
dxfile
  6
Continuous
 62
     3
100
AcDbLine
 10
1398.415977
 20
446.720551
 30
0.0
 11
1503.651534
 21
264.447219
 31
0.0
  0
LINE
  5
628
330
1F
100
AcDbEntity
  8
dxfile
  6
Continuous
 62
     3
100
AcDbLine
 10
1503.651534
 20
264.447219
 30
0.0
 11
1596.344447
 21
264.447219
 31
0.0
  0
TEXT
  5
629
330
1F
100
AcDbEntity
  8
dxfile
  6
Continuous
 62
     3
100
AcDbText
 10
1503.651534
 20
267.447219
 30
0.0
 40
18.0
  1
差筋（別途）
 41
0.858268
  7
BIGFONT
100
AcDbText
  0
TEXT
  5
62A
330
1F
100
AcDbEntity
  8
dxfile
  6
Continuous
 62
     3
100
AcDbText
 10
33.278214
 20
-50.762041
 30
0.0
 40
18.0
  1
Ｓ１：６
 41
0.858268
  7
BIGFONT
100
AcDbText
  0
TEXT
  5
62B
330
1F
100
AcDbEntity
  8
dxfile
  6
Continuous
 62
     3
100
AcDbText
 10
31.992788
 20
-78.142514
 30
0.0
 40
18.0
  1
Ｓ１：１２
 41
0.858268
  7
BIGFONT
100
AcDbText
  0
TEXT
  5
62C
330
1F
100
AcDbEntity
  8
dxfile
  6
Continuous
 62
     3
100
AcDbText
 10
118.557949
 20
1566.427793
 30
0.0
 40
16.779
  1
　ＬＭ－　９００ＡＬ－Ｎ・ＮＰ・ＮＦ
 41
0.704256
  7
BIGFONT
100
AcDbText
  0
TEXT
  5
62D
330
1F
100
AcDbEntity
  8
dxfile
  6
Continuous
 62
     3
100
AcDbText
 10
118.557949
 20
1540.124027
 30
0.0
 40
16.779
  1
　ＬＭ－１３００ＡＬ－Ｎ・ＮＰ・ＮＦ
 41
0.704256
  7
BIGFONT
100
AcDbText
  0
LINE
  5
62E
330
1F
100
AcDbEntity
  8
dxfile
  6
Continuous
 62
     3
100
AcDbLine
 10
1317.845716
 20
340.809251
 30
0.0
 11
1321.24764
 21
352.701556
 31
0.0
  0
LINE
  5
62F
330
1F
100
AcDbEntity
  8
dxfile
  6
Continuous
 62
     3
100
AcDbLine
 10
1321.24764
 20
352.701556
 30
0.0
 11
1252.669701
 21
233.921082
 31
0.0
  0
LINE
  5
630
330
1F
100
AcDbEntity
  8
dxfile
  6
Continuous
 62
     3
100
AcDbLine
 10
1252.669701
 20
233.921082
 30
0.0
 11
1129.07915
 21
233.921082
 31
0.0
  0
TEXT
  5
631
330
1F
100
AcDbEntity
  8
dxfile
  6
Continuous
 62
     3
100
AcDbText
 10
1148.941917
 20
236.921082
 30
0.0
 40
18.0
  1
アウターケーブル
 41
0.858268
  7
BIGFONT
 72
     2
 11
1252.669701
 21
236.921082
 31
0.0
100
AcDbText
  0
LINE
  5
632
330
1F
100
AcDbEntity
  8
dxfile
  6
Continuous
 62
     3
100
AcDbLine
 10
1377.791661
 20
558.283665
 30
0.0
 11
1374.389737
 21
546.39136
 31
0.0
  0
LINE
  5
633
330
1F
100
AcDbEntity
  8
dxfile
  6
Continuous
 62
     3
100
AcDbLine
 10
1374.389737
 20
546.39136
 30
0.0
 11
1428.088447
 21
639.400254
 31
0.0
  0
LINE
  5
634
330
1F
100
AcDbEntity
  8
dxfile
  6
Continuous
 62
     3
100
AcDbLine
 10
1428.088447
 20
639.400254
 30
0.0
 11
1458.986085
 21
639.400254
 31
0.0
  0
TEXT
  5
635
330
1F
100
AcDbEntity
  8
dxfile
  6
Continuous
 62
     3
100
AcDbText
 10
1428.088447
 20
642.400254
 30
0.0
 40
18.0
  1
台部
 41
0.858268
  7
BIGFONT
100
AcDbText
  0
LINE
  5
636
330
1F
100
AcDbEntity
  8
dxfile
  6
Continuous
 62
     3
100
AcDbLine
 10
1371.057875
 20
711.799547
 30
0.0
 11
1367.655952
 21
699.907242
 31
0.0
  0
LINE
  5
637
330
1F
100
AcDbEntity
  8
dxfile
  6
Continuous
 62
     3
100
AcDbLine
 10
1367.655952
 20
699.907242
 30
0.0
 11
1429.923024
 21
807.756975
 31
0.0
  0
LINE
  5
638
330
1F
100
AcDbEntity
  8
dxfile
  6
Continuous
 62
     3
100
AcDbLine
 10
1429.923024
 20
807.756975
 30
0.0
 11
1522.615937
 21
807.756975
 31
0.0
  0
TEXT
  5
639
330
1F
100
AcDbEntity
  8
dxfile
  6
Continuous
 62
     3
100
AcDbText
 10
1429.923024
 20
810.756975
 30
0.0
 40
18.0
  1
ドアフレーム
 41
0.858268
  7
BIGFONT
100
AcDbText
  0
LINE
  5
63A
330
1F
100
AcDbEntity
  8
dxfile
  6
Continuous
 62
     3
100
AcDbLine
 10
1388.547021
 20
678.278684
 30
0.0
 11
1385.145097
 21
666.386379
 31
0.0
  0
LINE
  5
63B
330
1F
100
AcDbEntity
  8
dxfile
  6
Continuous
 62
     3
100
AcDbLine
 10
1385.145097
 20
666.386379
 30
0.0
 11
1431.533304
 21
746.733111
 31
0.0
  0
LINE
  5
63C
330
1F
100
AcDbEntity
  8
dxfile
  6
Continuous
 62
     3
100
AcDbLine
 10
1431.533304
 20
746.733111
 30
0.0
 11
1508.777399
 21
746.733111
 31
0.0
  0
TEXT
  5
63D
330
1F
100
AcDbEntity
  8
dxfile
  6
Continuous
 62
     3
100
AcDbText
 10
1431.533304
 20
749.733111
 30
0.0
 40
18.0
  1
ドアパネル
 41
0.858268
  7
BIGFONT
100
AcDbText
  0
LINE
  5
63E
330
1F
100
AcDbEntity
  8
dxfile
  6
Continuous
 62
     3
100
AcDbLine
 10
994.578507
 20
597.822049
 30
0.0
 11
985.98043
 21
606.714354
 31
0.0
  0
LINE
  5
63F
330
1F
100
AcDbEntity
  8
dxfile
  6
Continuous
 62
     3
100
AcDbLine
 10
985.98043
 20
606.714354
 30
0.0
 11
1082.220916
 21
440.020943
 31
0.0
  0
LINE
  5
640
330
1F
100
AcDbEntity
  8
dxfile
  6
Continuous
 62
     3
100
AcDbLine
 10
1082.220916
 20
440.020943
 30
0.0
 11
1174.91383
 21
440.020943
 31
0.0
  0
TEXT
  5
641
330
1F
100
AcDbEntity
  8
dxfile
  6
Continuous
 62
     3
100
AcDbText
 10
1082.220916
 20
443.020943
 30
0.0
 40
18.0
  1
オートステー
 41
0.858268
  7
BIGFONT
100
AcDbText
  0
LINE
  5
642
330
1F
100
AcDbEntity
  8
dxfile
  6
Continuous
 62
     3
100
AcDbLine
 10
479.836498
 20
584.339402
 30
0.0
 11
471.238422
 21
593.231707
 31
0.0
  0
LINE
  5
643
330
1F
100
AcDbEntity
  8
dxfile
  6
Continuous
 62
     3
100
AcDbLine
 10
471.238422
 20
593.231707
 30
0.0
 11
566.090262
 21
428.9435
 31
0.0
  0
LINE
  5
644
330
1F
100
AcDbEntity
  8
dxfile
  6
Continuous
 62
     3
100
AcDbLine
 10
566.090262
 20
428.9435
 30
0.0
 11
720.578451
 21
428.9435
 31
0.0
  0
TEXT
  5
645
330
1F
100
AcDbEntity
  8
dxfile
  6
Continuous
 62
     3
100
AcDbText
 10
566.090262
 20
431.9435
 30
0.0
 40
18.0
  1
トーションスプリング
 41
0.858268
  7
BIGFONT
100
AcDbText
  0
LINE
  5
646
330
1F
100
AcDbEntity
  8
dxfile
  6
Continuous
 62
     3
100
AcDbLine
 10
362.786769
 20
482.683752
 30
0.0
 11
354.188693
 21
491.576057
 31
0.0
  0
LINE
  5
647
330
1F
100
AcDbEntity
  8
dxfile
  6
Continuous
 62
     3
100
AcDbLine
 10
354.188693
 20
491.576057
 30
0.0
 11
456.845202
 21
313.769767
 31
0.0
  0
LINE
  5
648
330
1F
100
AcDbEntity
  8
dxfile
  6
Continuous
 62
     3
100
AcDbLine
 10
456.845202
 20
313.769767
 30
0.0
 11
549.538116
 21
313.769767
 31
0.0
  0
TEXT
  5
649
330
1F
100
AcDbEntity
  8
dxfile
  6
Continuous
 62
     3
100
AcDbText
 10
456.845202
 20
316.769767
 30
0.0
 40
18.0
  1
アンカー金具
 41
0.858268
  7
BIGFONT
100
AcDbText
  0
LINE
  5
64A
330
1F
100
AcDbEntity
  8
dxfile
  6
Continuous
 62
     3
100
AcDbLine
 10
1114.445773
 20
762.07652
 30
0.0
 11
1111.04385
 21
750.184215
 31
0.0
  0
LINE
  5
64B
330
1F
100
AcDbEntity
  8
dxfile
  6
Continuous
 62
     3
100
AcDbLine
 10
1111.04385
 20
750.184215
 30
0.0
 11
1296.753776
 21
1071.843242
 31
0.0
  0
LINE
  5
64C
330
1F
100
AcDbEntity
  8
dxfile
  6
Continuous
 62
     3
100
AcDbLine
 10
1296.753776
 20
1071.843242
 30
0.0
 11
1343.100232
 21
1071.843242
 31
0.0
  0
TEXT
  5
64D
330
1F
100
AcDbEntity
  8
dxfile
  6
Continuous
 62
     3
100
AcDbText
 10
1296.753776
 20
1074.843242
 30
0.0
 40
18.0
  1
採光部
 41
0.858268
  7
BIGFONT
100
AcDbText
  0
TEXT
  5
64E
330
1F
100
AcDbEntity
  8
dxfile
  6
Continuous
 62
     3
100
AcDbText
 10
129.850348
 20
1516.698169
 30
0.0
 40
15.0
  1
＊　概算重量はＮＰ型を示す。
 41
0.858268
  7
BIGFONT
100
AcDbText
  0
LINE
  5
64F
330
1F
100
AcDbEntity
  8
dxfile
  6
Continuous
 62
     3
100
AcDbLine
 10
1409.288797
 20
531.829496
 30
0.0
 11
1405.886873
 21
519.937191
 31
0.0
  0
LINE
  5
650
330
1F
100
AcDbEntity
  8
dxfile
  6
Continuous
 62
     3
100
AcDbLine
 10
1405.886873
 20
519.937191
 30
0.0
 11
1446.249625
 21
589.847528
 31
0.0
  0
LINE
  5
651
330
1F
100
AcDbEntity
  8
dxfile
  6
Continuous
 62
     3
100
AcDbLine
 10
1446.249625
 20
589.847528
 30
0.0
 11
1477.147263
 21
589.847528
 31
0.0
  0
TEXT
  5
652
330
1F
100
AcDbEntity
  8
dxfile
  6
Continuous
 62
     3
100
AcDbText
 10
1446.249625
 20
592.847528
 30
0.0
 40
18.0
  1
内枠
 41
0.858268
  7
BIGFONT
100
AcDbText
  0
ENDSEC
  0
SECTION
  2
OBJECTS
  0
DICTIONARY
  5
C
330
0
100
AcDbDictionary
281
     1
  3
ACAD_GROUP
350
D
  3
ACAD_LAYOUT
350
1A
  3
ACAD_MLEADERSTYLE
350
655
  3
ACAD_MLINESTYLE
350
17
  3
ACAD_PLOTSETTINGS
350
19
  3
ACAD_PLOTSTYLENAME
350
E
  3
ACAD_SCALELIST
350
59
  3
ACAD_VISUALSTYLE
350
2A
  3
AcDbVariableDictionary
350
653
  0
DICTIONARY
  5
D
102
{ACAD_REACTORS
330
C
102
}
330
C
100
AcDbDictionary
281
     1
  0
DICTIONARY
  5
1A
102
{ACAD_REACTORS
330
C
102
}
330
C
100
AcDbDictionary
281
     1
  3
Layout1
350
1E
  3
Layout2
350
26
  3
Model
350
22
  0
DICTIONARY
  5
655
102
{ACAD_REACTORS
330
C
102
}
330
C
100
AcDbDictionary
281
     1
  0
DICTIONARY
  5
17
102
{ACAD_REACTORS
330
C
102
}
330
C
100
AcDbDictionary
281
     1
  3
Standard
350
18
  0
DICTIONARY
  5
19
102
{ACAD_REACTORS
330
C
102
}
330
C
100
AcDbDictionary
281
     1
  0
ACDBDICTIONARYWDFLT
  5
E
102
{ACAD_REACTORS
330
C
102
}
330
C
100
AcDbDictionary
281
     1
  3
Normal
350
F
100
AcDbDictionaryWithDefault
340
F
  0
DICTIONARY
  5
59
102
{ACAD_REACTORS
330
C
102
}
330
C
100
AcDbDictionary
281
     1
  3
A0
350
5A
  3
A1
350
5B
  3
A2
350
5C
  3
A3
350
5D
  3
A4
350
5E
  3
A5
350
5F
  3
A6
350
60
  3
A7
350
61
  3
A8
350
62
  3
A9
350
63
  3
B0
350
64
  3
B1
350
65
  3
B2
350
66
  3
B3
350
67
  3
B4
350
68
  3
B5
350
69
  3
B6
350
6A
  3
B7
350
6B
  3
B8
350
6C
  3
B9
350
6D
  3
C0
350
6E
  3
C1
350
6F
  3
C2
350
70
  3
C3
350
71
  3
C4
350
72
  3
C5
350
73
  3
C6
350
74
  3
C7
350
75
  3
C8
350
76
  3
C9
350
77
  3
D0
350
78
  3
D1
350
79
  3
D2
350
7A
  0
DICTIONARY
  5
2A
102
{ACAD_REACTORS
330
C
102
}
330
C
100
AcDbDictionary
281
     1
  3
2dWireframe
350
2F
  3
3D Hidden
350
31
  3
3dWireframe
350
30
  3
Basic
350
32
  3
Brighten
350
36
  3
ColorChange
350
3A
  3
Conceptual
350
34
  3
Dim
350
35
  3
Facepattern
350
39
  3
Flat
350
2B
  3
FlatWithEdges
350
2C
  3
Gouraud
350
2D
  3
GouraudWithEdges
350
2E
  3
Linepattern
350
38
  3
Realistic
350
33
  3
Thicken
350
37
  0
DICTIONARY
  5
653
102
{ACAD_REACTORS
330
C
102
}
330
C
100
AcDbDictionary
281
     1
  3
CANNOSCALE
350
656
  3
DIMASSOC
350
657
  3
HIDETEXT
350
658
  0
LAYOUT
  5
1E
102
{ACAD_REACTORS
330
1A
102
}
330
1A
100
AcDbPlotSettings
  1

  2
none_device
  4

  6

 40
0.0
 41
0.0
 42
0.0
 43
0.0
 44
0.0
 45
0.0
 46
0.0
 47
0.0
 48
0.0
 49
0.0
140
0.0
141
0.0
142
1.0
143
1.0
 70
   688
 72
     0
 73
     0
 74
     5
  7

 75
    16
147
1.0
148
0.0
149
0.0
100
AcDbLayout
  1
Layout1
 70
     1
 71
     1
 10
0.0
 20
0.0
 11
12.0
 21
9.0
 12
0.0
 22
0.0
 32
0.0
 14
1.000000E+20
 24
1.000000E+20
 34
1.000000E+20
 15
-1.000000E+20
 25
-1.000000E+20
 35
-1.000000E+20
146
0.0
 13
0.0
 23
0.0
 33
0.0
 16
1.0
 26
0.0
 36
0.0
 17
0.0
 27
1.0
 37
0.0
 76
     0
330
1B
  0
LAYOUT
  5
26
102
{ACAD_REACTORS
330
1A
102
}
330
1A
100
AcDbPlotSettings
  1

  2
none_device
  4

  6

 40
0.0
 41
0.0
 42
0.0
 43
0.0
 44
0.0
 45
0.0
 46
0.0
 47
0.0
 48
0.0
 49
0.0
140
0.0
141
0.0
142
1.0
143
1.0
 70
   688
 72
     0
 73
     0
 74
     5
  7

 75
    16
147
1.0
148
0.0
149
0.0
100
AcDbLayout
  1
Layout2
 70
     1
 71
     2
 10
0.0
 20
0.0
 11
0.0
 21
0.0
 12
0.0
 22
0.0
 32
0.0
 14
0.0
 24
0.0
 34
0.0
 15
0.0
 25
0.0
 35
0.0
146
0.0
 13
0.0
 23
0.0
 33
0.0
 16
1.0
 26
0.0
 36
0.0
 17
0.0
 27
1.0
 37
0.0
 76
     0
330
23
  0
LAYOUT
  5
22
102
{ACAD_REACTORS
330
1A
102
}
330
1A
100
AcDbPlotSettings
  1

  2
none_device
  4

  6

 40
0.0
 41
0.0
 42
0.0
 43
0.0
 44
0.0
 45
0.0
 46
0.0
 47
0.0
 48
0.0
 49
0.0
140
0.0
141
0.0
142
1.0
143
1.0
 70
  1712
 72
     0
 73
     0
 74
     0
  7

 75
     0
147
1.0
148
0.0
149
0.0
100
AcDbLayout
  1
Model
 70
     1
 71
     0
 10
0.0
 20
0.0
 11
12.0
 21
9.0
 12
0.0
 22
0.0
 32
0.0
 14
0.0
 24
0.0
 34
0.0
 15
2520.0
 25
1782.0
 35
0.0
146
0.0
 13
0.0
 23
0.0
 33
0.0
 16
1.0
 26
0.0
 36
0.0
 17
0.0
 27
1.0
 37
0.0
 76
     0
330
1F
331
29
  0
MLINESTYLE
  5
18
102
{ACAD_REACTORS
330
17
102
}
330
17
100
AcDbMlineStyle
  2
Standard
 70
     0
  3

 62
   256
 51
90.0
 52
90.0
 71
     2
 49
0.5
 62
   256
  6
BYLAYER
 49
-0.5
 62
   256
  6
BYLAYER
  0
ACDBPLACEHOLDER
  5
F
102
{ACAD_REACTORS
330
E
102
}
330
E
  0
SCALE
  5
5A
102
{ACAD_REACTORS
330
59
102
}
330
59
100
AcDbScale
 70
     0
300
1:1
140
1.0
141
1.0
290
     1
  0
SCALE
  5
5B
102
{ACAD_REACTORS
330
59
102
}
330
59
100
AcDbScale
 70
     0
300
1:2
140
1.0
141
2.0
290
     0
  0
SCALE
  5
5C
102
{ACAD_REACTORS
330
59
102
}
330
59
100
AcDbScale
 70
     0
300
1:4
140
1.0
141
4.0
290
     0
  0
SCALE
  5
5D
102
{ACAD_REACTORS
330
59
102
}
330
59
100
AcDbScale
 70
     0
300
1:5
140
1.0
141
5.0
290
     0
  0
SCALE
  5
5E
102
{ACAD_REACTORS
330
59
102
}
330
59
100
AcDbScale
 70
     0
300
1:8
140
1.0
141
8.0
290
     0
  0
SCALE
  5
5F
102
{ACAD_REACTORS
330
59
102
}
330
59
100
AcDbScale
 70
     0
300
1:10
140
1.0
141
10.0
290
     0
  0
SCALE
  5
60
102
{ACAD_REACTORS
330
59
102
}
330
59
100
AcDbScale
 70
     0
300
1:16
140
1.0
141
16.0
290
     0
  0
SCALE
  5
61
102
{ACAD_REACTORS
330
59
102
}
330
59
100
AcDbScale
 70
     0
300
1:20
140
1.0
141
20.0
290
     0
  0
SCALE
  5
62
102
{ACAD_REACTORS
330
59
102
}
330
59
100
AcDbScale
 70
     0
300
1:30
140
1.0
141
30.0
290
     0
  0
SCALE
  5
63
102
{ACAD_REACTORS
330
59
102
}
330
59
100
AcDbScale
 70
     0
300
1:40
140
1.0
141
40.0
290
     0
  0
SCALE
  5
64
102
{ACAD_REACTORS
330
59
102
}
330
59
100
AcDbScale
 70
     0
300
1:50
140
1.0
141
50.0
290
     0
  0
SCALE
  5
65
102
{ACAD_REACTORS
330
59
102
}
330
59
100
AcDbScale
 70
     0
300
1:100
140
1.0
141
100.0
290
     0
  0
SCALE
  5
66
102
{ACAD_REACTORS
330
59
102
}
330
59
100
AcDbScale
 70
     0
300
2:1
140
2.0
141
1.0
290
     0
  0
SCALE
  5
67
102
{ACAD_REACTORS
330
59
102
}
330
59
100
AcDbScale
 70
     0
300
4:1
140
4.0
141
1.0
290
     0
  0
SCALE
  5
68
102
{ACAD_REACTORS
330
59
102
}
330
59
100
AcDbScale
 70
     0
300
8:1
140
8.0
141
1.0
290
     0
  0
SCALE
  5
69
102
{ACAD_REACTORS
330
59
102
}
330
59
100
AcDbScale
 70
     0
300
10:1
140
10.0
141
1.0
290
     0
  0
SCALE
  5
6A
102
{ACAD_REACTORS
330
59
102
}
330
59
100
AcDbScale
 70
     0
300
100:1
140
100.0
141
1.0
290
     0
  0
SCALE
  5
6B
102
{ACAD_REACTORS
330
59
102
}
330
59
100
AcDbScale
 70
     0
300
1/128" = 1'-0"
140
0.007812
141
12.0
290
     0
  0
SCALE
  5
6C
102
{ACAD_REACTORS
330
59
102
}
330
59
100
AcDbScale
 70
     0
300
1/64" = 1'-0"
140
0.015625
141
12.0
290
     0
  0
SCALE
  5
6D
102
{ACAD_REACTORS
330
59
102
}
330
59
100
AcDbScale
 70
     0
300
1/32" = 1'-0"
140
0.03125
141
12.0
290
     0
  0
SCALE
  5
6E
102
{ACAD_REACTORS
330
59
102
}
330
59
100
AcDbScale
 70
     0
300
1/16" = 1'-0"
140
0.0625
141
12.0
290
     0
  0
SCALE
  5
6F
102
{ACAD_REACTORS
330
59
102
}
330
59
100
AcDbScale
 70
     0
300
3/32" = 1'-0"
140
0.09375
141
12.0
290
     0
  0
SCALE
  5
70
102
{ACAD_REACTORS
330
59
102
}
330
59
100
AcDbScale
 70
     0
300
1/8" = 1'-0"
140
0.125
141
12.0
290
     0
  0
SCALE
  5
71
102
{ACAD_REACTORS
330
59
102
}
330
59
100
AcDbScale
 70
     0
300
3/16" = 1'-0"
140
0.1875
141
12.0
290
     0
  0
SCALE
  5
72
102
{ACAD_REACTORS
330
59
102
}
330
59
100
AcDbScale
 70
     0
300
1/4" = 1'-0"
140
0.25
141
12.0
290
     0
  0
SCALE
  5
73
102
{ACAD_REACTORS
330
59
102
}
330
59
100
AcDbScale
 70
     0
300
3/8" = 1'-0"
140
0.375
141
12.0
290
     0
  0
SCALE
  5
74
102
{ACAD_REACTORS
330
59
102
}
330
59
100
AcDbScale
 70
     0
300
1/2" = 1'-0"
140
0.5
141
12.0
290
     0
  0
SCALE
  5
75
102
{ACAD_REACTORS
330
59
102
}
330
59
100
AcDbScale
 70
     0
300
3/4" = 1'-0"
140
0.75
141
12.0
290
     0
  0
SCALE
  5
76
102
{ACAD_REACTORS
330
59
102
}
330
59
100
AcDbScale
 70
     0
300
1" = 1'-0"
140
1.0
141
12.0
290
     0
  0
SCALE
  5
77
102
{ACAD_REACTORS
330
59
102
}
330
59
100
AcDbScale
 70
     0
300
1-1/2" = 1'-0"
140
1.5
141
12.0
290
     0
  0
SCALE
  5
78
102
{ACAD_REACTORS
330
59
102
}
330
59
100
AcDbScale
 70
     0
300
3" = 1'-0"
140
3.0
141
12.0
290
     0
  0
SCALE
  5
79
102
{ACAD_REACTORS
330
59
102
}
330
59
100
AcDbScale
 70
     0
300
6" = 1'-0"
140
6.0
141
12.0
290
     0
  0
SCALE
  5
7A
102
{ACAD_REACTORS
330
59
102
}
330
59
100
AcDbScale
 70
     0
300
1'-0" = 1'-0"
140
12.0
141
12.0
290
     0
  0
VISUALSTYLE
  5
2F
102
{ACAD_REACTORS
330
2A
102
}
102
{ACAD_XDICTIONARY
360
661
102
}
330
2A
100
AcDbVisualStyle
  2
2dWireframe
 70
     4
 71
     0
 72
     2
 73
     0
 90
        0
 40
-0.6
 41
-30.0
 62
     5
 63
     7
 74
     1
 91
        4
 64
     7
 65
   257
 75
     1
175
     1
 42
1.0
 92
        0
 66
   257
 43
1.0
 76
     1
 77
     6
 78
     2
 67
     7
 79
     5
170
     0
171
     0
290
     0
174
     0
 93
        1
 44
0.0
173
     0
291
     0
 45
0.0
1001
ACAD
1000
AcDbSavedByObjectVersion
1070
     0
  0
VISUALSTYLE
  5
31
102
{ACAD_REACTORS
330
2A
102
}
102
{ACAD_XDICTIONARY
360
665
102
}
330
2A
100
AcDbVisualStyle
  2
3D Hidden
 70
     6
 71
     1
 72
     2
 73
     2
 90
        0
 40
-0.6
 41
-30.0
 62
     5
 63
     7
 74
     2
 91
        2
 64
     7
 65
   257
 75
     2
175
     1
 42
40.0
 92
        0
 66
   257
 43
1.0
 76
     1
 77
     6
 78
     2
 67
     7
 79
     3
170
     0
171
     0
290
     0
174
     0
 93
        1
 44
0.0
173
     0
291
     0
 45
0.0
1001
ACAD
1000
AcDbSavedByObjectVersion
1070
     0
  0
VISUALSTYLE
  5
30
102
{ACAD_REACTORS
330
2A
102
}
102
{ACAD_XDICTIONARY
360
663
102
}
330
2A
100
AcDbVisualStyle
  2
3dWireframe
 70
     5
 71
     0
 72
     2
 73
     0
 90
        0
 40
-0.6
 41
-30.0
 62
     5
 63
     7
 74
     1
 91
        4
 64
     7
 65
   257
 75
     1
175
     1
 42
1.0
 92
        0
 66
   257
 43
1.0
 76
     1
 77
     6
 78
     2
 67
     7
 79
     5
170
     0
171
     0
290
     0
174
     0
 93
        1
 44
0.0
173
     0
291
     0
 45
0.0
1001
ACAD
1000
AcDbSavedByObjectVersion
1070
     0
  0
VISUALSTYLE
  5
32
102
{ACAD_REACTORS
330
2A
102
}
102
{ACAD_XDICTIONARY
360
667
102
}
330
2A
100
AcDbVisualStyle
  2
Basic
 70
     7
 71
     1
 72
     0
 73
     1
 90
        0
 40
-0.6
 41
-30.0
 62
     5
 63
     7
 74
     0
 91
        4
 64
     7
 65
   257
 75
     1
175
     1
 42
1.0
 92
        8
 66
     7
 43
1.0
 76
     1
 77
     6
 78
     2
 67
     7
 79
     5
170
     0
171
     0
290
     0
174
     0
 93
        1
 44
0.0
173
     0
291
     1
 45
0.0
1001
ACAD
1000
AcDbSavedByObjectVersion
1070
     0
  0
VISUALSTYLE
  5
36
102
{ACAD_REACTORS
330
2A
102
}
102
{ACAD_XDICTIONARY
360
66F
102
}
330
2A
100
AcDbVisualStyle
  2
Brighten
 70
    12
 71
     2
 72
     2
 73
     0
 90
        0
 40
-0.6
 41
-30.0
 62
     5
 63
     7
 74
     1
 91
        4
 64
     7
 65
   257
 75
     1
175
     1
 42
1.0
 92
        8
 66
     7
 43
1.0
 76
     1
 77
     6
 78
     2
 67
     7
 79
     5
170
     0
171
     0
290
     0
174
     0
 93
        1
 44
50.0
173
     0
291
     1
 45
0.0
1001
ACAD
1000
AcDbSavedByObjectVersion
1070
     0
  0
VISUALSTYLE
  5
3A
102
{ACAD_REACTORS
330
2A
102
}
102
{ACAD_XDICTIONARY
360
677
102
}
330
2A
100
AcDbVisualStyle
  2
ColorChange
 70
    16
 71
     2
 72
     2
 73
     3
 90
        0
 40
-0.6
 41
-30.0
 62
     5
 63
     8
 74
     1
 91
        4
 64
     7
 65
   257
 75
     1
175
     1
 42
1.0
 92
        8
 66
     8
 43
1.0
 76
     1
 77
     6
 78
     2
 67
     7
 79
     5
170
     0
171
     0
290
     0
174
     0
 93
        1
 44
0.0
173
     0
291
     1
 45
0.0
1001
ACAD
1000
AcDbSavedByObjectVersion
1070
     0
  0
VISUALSTYLE
  5
34
102
{ACAD_REACTORS
330
2A
102
}
102
{ACAD_XDICTIONARY
360
66B
102
}
330
2A
100
AcDbVisualStyle
  2
Conceptual
 70
     9
 71
     3
 72
     2
 73
     0
 90
        0
 40
-0.6
 41
-30.0
 62
     5
 63
     7
 74
     2
 91
        2
 64
     7
 65
   257
 75
     1
175
     1
 42
40.0
 92
        8
 66
     7
 43
1.0
 76
     1
 77
     6
 78
     2
 67
     7
 79
     3
170
     0
171
     0
290
     0
174
     0
 93
        1
 44
0.0
173
     0
291
     0
 45
0.0
1001
ACAD
1000
AcDbSavedByObjectVersion
1070
     0
  0
VISUALSTYLE
  5
35
102
{ACAD_REACTORS
330
2A
102
}
102
{ACAD_XDICTIONARY
360
66D
102
}
330
2A
100
AcDbVisualStyle
  2
Dim
 70
    11
 71
     2
 72
     2
 73
     0
 90
        0
 40
-0.6
 41
-30.0
 62
     5
 63
     7
 74
     1
 91
        4
 64
     7
 65
   257
 75
     1
175
     1
 42
1.0
 92
        8
 66
     7
 43
1.0
 76
     1
 77
     6
 78
     2
 67
     7
 79
     5
170
     0
171
     0
290
     0
174
     0
 93
        1
 44
-50.0
173
     0
291
     1
 45
0.0
1001
ACAD
1000
AcDbSavedByObjectVersion
1070
     0
  0
VISUALSTYLE
  5
39
102
{ACAD_REACTORS
330
2A
102
}
102
{ACAD_XDICTIONARY
360
675
102
}
330
2A
100
AcDbVisualStyle
  2
Facepattern
 70
    15
 71
     2
 72
     2
 73
     0
 90
        0
 40
-0.6
 41
-30.0
 62
     5
 63
     7
 74
     1
 91
        4
 64
     7
 65
   257
 75
     1
175
     1
 42
1.0
 92
        8
 66
     7
 43
1.0
 76
     1
 77
     6
 78
     2
 67
     7
 79
     5
170
     0
171
     0
290
     0
174
     0
 93
        1
 44
0.0
173
     0
291
     1
 45
0.0
1001
ACAD
1000
AcDbSavedByObjectVersion
1070
     0
  0
VISUALSTYLE
  5
2B
102
{ACAD_REACTORS
330
2A
102
}
102
{ACAD_XDICTIONARY
360
659
102
}
330
2A
100
AcDbVisualStyle
  2
Flat
 70
     0
 71
     2
 72
     1
 73
     1
 90
        2
 40
-0.6
 41
30.0
 62
     5
 63
     7
 74
     0
 91
        4
 64
     7
 65
   257
 75
     1
175
     1
 42
1.0
 92
        8
 66
     7
 43
1.0
 76
     1
 77
     6
 78
     2
 67
     7
 79
     5
170
     0
171
     0
290
     0
174
     0
 93
       13
 44
0.0
173
     0
291
     1
 45
0.0
1001
ACAD
1000
AcDbSavedByObjectVersion
1070
     0
  0
VISUALSTYLE
  5
2C
102
{ACAD_REACTORS
330
2A
102
}
102
{ACAD_XDICTIONARY
360
65B
102
}
330
2A
100
AcDbVisualStyle
  2
FlatWithEdges
 70
     1
 71
     2
 72
     1
 73
     1
 90
        2
 40
-0.6
 41
30.0
 62
     5
 63
     7
 74
     1
 91
        4
 64
     7
 65
   257
 75
     1
175
     1
 42
1.0
 92
        0
 66
   257
 43
1.0
 76
     1
 77
     6
 78
     2
 67
     7
 79
     5
170
     0
171
     0
290
     0
174
     0
 93
       13
 44
0.0
173
     0
291
     1
 45
0.0
1001
ACAD
1000
AcDbSavedByObjectVersion
1070
     0
  0
VISUALSTYLE
  5
2D
102
{ACAD_REACTORS
330
2A
102
}
102
{ACAD_XDICTIONARY
360
65D
102
}
330
2A
100
AcDbVisualStyle
  2
Gouraud
 70
     2
 71
     2
 72
     2
 73
     1
 90
        2
 40
-0.6
 41
30.0
 62
     5
 63
     7
 74
     0
 91
        4
 64
     7
 65
   257
 75
     1
175
     1
 42
1.0
 92
        0
 66
     7
 43
1.0
 76
     1
 77
     6
 78
     2
 67
     7
 79
     5
170
     0
171
     0
290
     0
174
     0
 93
       13
 44
0.0
173
     0
291
     1
 45
0.0
1001
ACAD
1000
AcDbSavedByObjectVersion
1070
     0
  0
VISUALSTYLE
  5
2E
102
{ACAD_REACTORS
330
2A
102
}
102
{ACAD_XDICTIONARY
360
65F
102
}
330
2A
100
AcDbVisualStyle
  2
GouraudWithEdges
 70
     3
 71
     2
 72
     2
 73
     1
 90
        2
 40
-0.6
 41
30.0
 62
     5
 63
     7
 74
     1
 91
        4
 64
     7
 65
   257
 75
     1
175
     1
 42
1.0
 92
        0
 66
   257
 43
1.0
 76
     1
 77
     6
 78
     2
 67
     7
 79
     5
170
     0
171
     0
290
     0
174
     0
 93
       13
 44
0.0
173
     0
291
     1
 45
0.0
1001
ACAD
1000
AcDbSavedByObjectVersion
1070
     0
  0
VISUALSTYLE
  5
38
102
{ACAD_REACTORS
330
2A
102
}
102
{ACAD_XDICTIONARY
360
673
102
}
330
2A
100
AcDbVisualStyle
  2
Linepattern
 70
    14
 71
     2
 72
     2
 73
     0
 90
        0
 40
-0.6
 41
-30.0
 62
     5
 63
     7
 74
     1
 91
        4
 64
     7
 65
   257
 75
     7
175
     7
 42
1.0
 92
        8
 66
     7
 43
1.0
 76
     1
 77
     6
 78
     2
 67
     7
 79
     5
170
     0
171
     0
290
     0
174
     0
 93
        1
 44
0.0
173
     0
291
     1
 45
0.0
1001
ACAD
1000
AcDbSavedByObjectVersion
1070
     0
  0
VISUALSTYLE
  5
33
102
{ACAD_REACTORS
330
2A
102
}
102
{ACAD_XDICTIONARY
360
669
102
}
330
2A
100
AcDbVisualStyle
  2
Realistic
 70
     8
 71
     2
 72
     2
 73
     0
 90
        0
 40
-0.6
 41
-30.0
 62
     5
 63
     7
 74
     1
 91
        0
 64
     7
 65
   257
 75
     1
175
     1
 42
1.0
 92
        8
 66
     8
 43
1.0
 76
     1
 77
     6
 78
     2
 67
     7
 79
     5
170
     0
171
     0
290
     0
174
     0
 93
       13
 44
0.0
173
     0
291
     0
 45
0.0
1001
ACAD
1000
AcDbSavedByObjectVersion
1070
     0
  0
VISUALSTYLE
  5
37
102
{ACAD_REACTORS
330
2A
102
}
102
{ACAD_XDICTIONARY
360
671
102
}
330
2A
100
AcDbVisualStyle
  2
Thicken
 70
    13
 71
     2
 72
     2
 73
     0
 90
        0
 40
-0.6
 41
-30.0
 62
     5
 63
     7
 74
     1
 91
        4
 64
     7
 65
   257
 75
     1
175
     1
 42
1.0
 92
       12
 66
     7
 43
1.0
 76
     1
 77
     6
 78
     2
 67
     7
 79
     5
170
     0
171
     0
290
     0
174
     0
 93
        1
 44
0.0
173
     0
291
     1
 45
0.0
1001
ACAD
1000
AcDbSavedByObjectVersion
1070
     0
  0
DICTIONARYVAR
  5
656
102
{ACAD_REACTORS
330
653
102
}
330
653
100
DictionaryVariables
280
     0
  1
1:1
  0
DICTIONARYVAR
  5
657
102
{ACAD_REACTORS
330
653
102
}
330
653
100
DictionaryVariables
280
     0
  1
2
  0
DICTIONARYVAR
  5
658
102
{ACAD_REACTORS
330
653
102
}
330
653
100
DictionaryVariables
280
     0
  1
1
  0
DICTIONARY
  5
661
330
2F
100
AcDbDictionary
280
     1
281
     1
  3
ACAD_XREC_ROUNDTRIP
360
662
  0
DICTIONARY
  5
665
330
31
100
AcDbDictionary
280
     1
281
     1
  3
ACAD_XREC_ROUNDTRIP
360
666
  0
DICTIONARY
  5
663
330
30
100
AcDbDictionary
280
     1
281
     1
  3
ACAD_XREC_ROUNDTRIP
360
664
  0
DICTIONARY
  5
667
330
32
100
AcDbDictionary
280
     1
281
     1
  3
ACAD_XREC_ROUNDTRIP
360
668
  0
DICTIONARY
  5
66F
330
36
100
AcDbDictionary
280
     1
281
     1
  3
ACAD_XREC_ROUNDTRIP
360
670
  0
DICTIONARY
  5
677
330
3A
100
AcDbDictionary
280
     1
281
     1
  3
ACAD_XREC_ROUNDTRIP
360
678
  0
DICTIONARY
  5
66B
330
34
100
AcDbDictionary
280
     1
281
     1
  3
ACAD_XREC_ROUNDTRIP
360
66C
  0
DICTIONARY
  5
66D
330
35
100
AcDbDictionary
280
     1
281
     1
  3
ACAD_XREC_ROUNDTRIP
360
66E
  0
DICTIONARY
  5
675
330
39
100
AcDbDictionary
280
     1
281
     1
  3
ACAD_XREC_ROUNDTRIP
360
676
  0
DICTIONARY
  5
659
330
2B
100
AcDbDictionary
280
     1
281
     1
  3
ACAD_XREC_ROUNDTRIP
360
65A
  0
DICTIONARY
  5
65B
330
2C
100
AcDbDictionary
280
     1
281
     1
  3
ACAD_XREC_ROUNDTRIP
360
65C
  0
DICTIONARY
  5
65D
330
2D
100
AcDbDictionary
280
     1
281
     1
  3
ACAD_XREC_ROUNDTRIP
360
65E
  0
DICTIONARY
  5
65F
330
2E
100
AcDbDictionary
280
     1
281
     1
  3
ACAD_XREC_ROUNDTRIP
360
660
  0
DICTIONARY
  5
673
330
38
100
AcDbDictionary
280
     1
281
     1
  3
ACAD_XREC_ROUNDTRIP
360
674
  0
DICTIONARY
  5
669
330
33
100
AcDbDictionary
280
     1
281
     1
  3
ACAD_XREC_ROUNDTRIP
360
66A
  0
DICTIONARY
  5
671
330
37
100
AcDbDictionary
280
     1
281
     1
  3
ACAD_XREC_ROUNDTRIP
360
672
  0
XRECORD
  5
662
102
{ACAD_REACTORS
330
661
102
}
330
661
100
AcDbXrecord
280
     1
102
RTVSPropertyOp0
 70
     1
102
RTVSPropertyOp1
 70
     1
102
RTVSPropertyOp2
 70
     1
102
RTVSPropertyOp3
 70
     1
102
RTVSPropertyOp4
 70
     1
102
RTVSPropertyOp5
 70
     1
102
RTVSPropertyOp6
 70
     1
102
RTVSPropertyOp7
 70
     1
102
RTVSPropertyOp8
 70
     1
102
RTVSPropertyOp9
 70
     1
102
RTVSPropertyOp10
 70
     1
102
RTVSPropertyOp11
 70
     1
102
RTVSPropertyOp12
 70
     1
102
RTVSPropertyOp13
 70
     1
102
RTVSPropertyOp14
 70
     1
102
RTVSPropertyOp15
 70
     1
102
RTVSPropertyOp16
 70
     1
102
RTVSPropertyOp17
 70
     1
102
RTVSPropertyOp18
 70
     1
102
RTVSPropertyOp19
 70
     1
102
RTVSPropertyOp20
 70
     1
102
RTVSPropertyOp21
 70
     1
102
RTVSPropertyOp22
 70
     1
102
RTVSPropertyOp23
 70
     1
102
RTVSPropertyOp24
 70
     1
102
RTVSPropertyOp25
 70
     1
102
RTVSPropertyOp26
 70
     1
102
RTVSPropertyOp27
 70
     1
  0
XRECORD
  5
666
102
{ACAD_REACTORS
330
665
102
}
330
665
100
AcDbXrecord
280
     1
102
RTVSPropertyOp0
 70
     1
102
RTVSPropertyOp1
 70
     1
102
RTVSPropertyOp2
 70
     1
102
RTVSPropertyOp3
 70
     1
102
RTVSPropertyOp4
 70
     1
102
RTVSPropertyOp5
 70
     1
102
RTVSPropertyOp6
 70
     1
102
RTVSPropertyOp7
 70
     1
102
RTVSPropertyOp8
 70
     1
102
RTVSPropertyOp9
 70
     1
102
RTVSPropertyOp10
 70
     1
102
RTVSPropertyOp11
 70
     1
102
RTVSPropertyOp12
 70
     1
102
RTVSPropertyOp13
 70
     1
102
RTVSPropertyOp14
 70
     1
102
RTVSPropertyOp15
 70
     1
102
RTVSPropertyOp16
 70
     1
102
RTVSPropertyOp17
 70
     1
102
RTVSPropertyOp18
 70
     1
102
RTVSPropertyOp19
 70
     1
102
RTVSPropertyOp20
 70
     1
102
RTVSPropertyOp21
 70
     1
102
RTVSPropertyOp22
 70
     1
102
RTVSPropertyOp23
 70
     1
102
RTVSPropertyOp24
 70
     1
102
RTVSPropertyOp25
 70
     1
102
RTVSPropertyOp26
 70
     1
102
RTVSPropertyOp27
 70
     1
  0
XRECORD
  5
664
102
{ACAD_REACTORS
330
663
102
}
330
663
100
AcDbXrecord
280
     1
102
RTVSPropertyOp0
 70
     1
102
RTVSPropertyOp1
 70
     1
102
RTVSPropertyOp2
 70
     1
102
RTVSPropertyOp3
 70
     1
102
RTVSPropertyOp4
 70
     1
102
RTVSPropertyOp5
 70
     1
102
RTVSPropertyOp6
 70
     1
102
RTVSPropertyOp7
 70
     1
102
RTVSPropertyOp8
 70
     1
102
RTVSPropertyOp9
 70
     1
102
RTVSPropertyOp10
 70
     1
102
RTVSPropertyOp11
 70
     1
102
RTVSPropertyOp12
 70
     1
102
RTVSPropertyOp13
 70
     1
102
RTVSPropertyOp14
 70
     1
102
RTVSPropertyOp15
 70
     1
102
RTVSPropertyOp16
 70
     1
102
RTVSPropertyOp17
 70
     1
102
RTVSPropertyOp18
 70
     1
102
RTVSPropertyOp19
 70
     1
102
RTVSPropertyOp20
 70
     1
102
RTVSPropertyOp21
 70
     1
102
RTVSPropertyOp22
 70
     1
102
RTVSPropertyOp23
 70
     1
102
RTVSPropertyOp24
 70
     1
102
RTVSPropertyOp25
 70
     1
102
RTVSPropertyOp26
 70
     1
102
RTVSPropertyOp27
 70
     1
  0
XRECORD
  5
668
102
{ACAD_REACTORS
330
667
102
}
330
667
100
AcDbXrecord
280
     1
102
RTVSPropertyOp0
 70
     1
102
RTVSPropertyOp1
 70
     1
102
RTVSPropertyOp2
 70
     1
102
RTVSPropertyOp3
 70
     1
102
RTVSPropertyOp4
 70
     1
102
RTVSPropertyOp5
 70
     1
102
RTVSPropertyOp6
 70
     1
102
RTVSPropertyOp7
 70
     1
102
RTVSPropertyOp8
 70
     1
102
RTVSPropertyOp9
 70
     1
102
RTVSPropertyOp10
 70
     1
102
RTVSPropertyOp11
 70
     1
102
RTVSPropertyOp12
 70
     1
102
RTVSPropertyOp13
 70
     1
102
RTVSPropertyOp14
 70
     1
102
RTVSPropertyOp15
 70
     1
102
RTVSPropertyOp16
 70
     1
102
RTVSPropertyOp17
 70
     1
102
RTVSPropertyOp18
 70
     1
102
RTVSPropertyOp19
 70
     1
102
RTVSPropertyOp20
 70
     1
102
RTVSPropertyOp21
 70
     1
102
RTVSPropertyOp22
 70
     1
102
RTVSPropertyOp23
 70
     1
102
RTVSPropertyOp24
 70
     1
102
RTVSPropertyOp25
 70
     1
102
RTVSPropertyOp26
 70
     1
102
RTVSPropertyOp27
 70
     1
  0
XRECORD
  5
670
102
{ACAD_REACTORS
330
66F
102
}
330
66F
100
AcDbXrecord
280
     1
102
RTVSPropertyOp0
 70
     1
102
RTVSPropertyOp1
 70
     1
102
RTVSPropertyOp2
 70
     1
102
RTVSPropertyOp3
 70
     1
102
RTVSPropertyOp4
 70
     1
102
RTVSPropertyOp5
 70
     1
102
RTVSPropertyOp6
 70
     1
102
RTVSPropertyOp7
 70
     1
102
RTVSPropertyOp8
 70
     1
102
RTVSPropertyOp9
 70
     1
102
RTVSPropertyOp10
 70
     1
102
RTVSPropertyOp11
 70
     1
102
RTVSPropertyOp12
 70
     1
102
RTVSPropertyOp13
 70
     1
102
RTVSPropertyOp14
 70
     1
102
RTVSPropertyOp15
 70
     1
102
RTVSPropertyOp16
 70
     1
102
RTVSPropertyOp17
 70
     1
102
RTVSPropertyOp18
 70
     1
102
RTVSPropertyOp19
 70
     1
102
RTVSPropertyOp20
 70
     1
102
RTVSPropertyOp21
 70
     1
102
RTVSPropertyOp22
 70
     1
102
RTVSPropertyOp23
 70
     1
102
RTVSPropertyOp24
 70
     1
102
RTVSPropertyOp25
 70
     1
102
RTVSPropertyOp26
 70
     1
102
RTVSPropertyOp27
 70
     1
  0
XRECORD
  5
678
102
{ACAD_REACTORS
330
677
102
}
330
677
100
AcDbXrecord
280
     1
102
RTVSPropertyOp0
 70
     1
102
RTVSPropertyOp1
 70
     1
102
RTVSPropertyOp2
 70
     1
102
RTVSPropertyOp3
 70
     1
102
RTVSPropertyOp4
 70
     1
102
RTVSPropertyOp5
 70
     1
102
RTVSPropertyOp6
 70
     1
102
RTVSPropertyOp7
 70
     1
102
RTVSPropertyOp8
 70
     1
102
RTVSPropertyOp9
 70
     1
102
RTVSPropertyOp10
 70
     1
102
RTVSPropertyOp11
 70
     1
102
RTVSPropertyOp12
 70
     1
102
RTVSPropertyOp13
 70
     1
102
RTVSPropertyOp14
 70
     1
102
RTVSPropertyOp15
 70
     1
102
RTVSPropertyOp16
 70
     1
102
RTVSPropertyOp17
 70
     1
102
RTVSPropertyOp18
 70
     1
102
RTVSPropertyOp19
 70
     1
102
RTVSPropertyOp20
 70
     1
102
RTVSPropertyOp21
 70
     1
102
RTVSPropertyOp22
 70
     1
102
RTVSPropertyOp23
 70
     1
102
RTVSPropertyOp24
 70
     1
102
RTVSPropertyOp25
 70
     1
102
RTVSPropertyOp26
 70
     1
102
RTVSPropertyOp27
 70
     1
  0
XRECORD
  5
66C
102
{ACAD_REACTORS
330
66B
102
}
330
66B
100
AcDbXrecord
280
     1
102
RTVSPropertyOp0
 70
     1
102
RTVSPropertyOp1
 70
     1
102
RTVSPropertyOp2
 70
     1
102
RTVSPropertyOp3
 70
     1
102
RTVSPropertyOp4
 70
     1
102
RTVSPropertyOp5
 70
     1
102
RTVSPropertyOp6
 70
     1
102
RTVSPropertyOp7
 70
     1
102
RTVSPropertyOp8
 70
     1
102
RTVSPropertyOp9
 70
     1
102
RTVSPropertyOp10
 70
     1
102
RTVSPropertyOp11
 70
     1
102
RTVSPropertyOp12
 70
     1
102
RTVSPropertyOp13
 70
     1
102
RTVSPropertyOp14
 70
     1
102
RTVSPropertyOp15
 70
     1
102
RTVSPropertyOp16
 70
     1
102
RTVSPropertyOp17
 70
     1
102
RTVSPropertyOp18
 70
     1
102
RTVSPropertyOp19
 70
     1
102
RTVSPropertyOp20
 70
     1
102
RTVSPropertyOp21
 70
     1
102
RTVSPropertyOp22
 70
     1
102
RTVSPropertyOp23
 70
     1
102
RTVSPropertyOp24
 70
     1
102
RTVSPropertyOp25
 70
     1
102
RTVSPropertyOp26
 70
     1
102
RTVSPropertyOp27
 70
     1
  0
XRECORD
  5
66E
102
{ACAD_REACTORS
330
66D
102
}
330
66D
100
AcDbXrecord
280
     1
102
RTVSPropertyOp0
 70
     1
102
RTVSPropertyOp1
 70
     1
102
RTVSPropertyOp2
 70
     1
102
RTVSPropertyOp3
 70
     1
102
RTVSPropertyOp4
 70
     1
102
RTVSPropertyOp5
 70
     1
102
RTVSPropertyOp6
 70
     1
102
RTVSPropertyOp7
 70
     1
102
RTVSPropertyOp8
 70
     1
102
RTVSPropertyOp9
 70
     1
102
RTVSPropertyOp10
 70
     1
102
RTVSPropertyOp11
 70
     1
102
RTVSPropertyOp12
 70
     1
102
RTVSPropertyOp13
 70
     1
102
RTVSPropertyOp14
 70
     1
102
RTVSPropertyOp15
 70
     1
102
RTVSPropertyOp16
 70
     1
102
RTVSPropertyOp17
 70
     1
102
RTVSPropertyOp18
 70
     1
102
RTVSPropertyOp19
 70
     1
102
RTVSPropertyOp20
 70
     1
102
RTVSPropertyOp21
 70
     1
102
RTVSPropertyOp22
 70
     1
102
RTVSPropertyOp23
 70
     1
102
RTVSPropertyOp24
 70
     1
102
RTVSPropertyOp25
 70
     1
102
RTVSPropertyOp26
 70
     1
102
RTVSPropertyOp27
 70
     1
  0
XRECORD
  5
676
102
{ACAD_REACTORS
330
675
102
}
330
675
100
AcDbXrecord
280
     1
102
RTVSPropertyOp0
 70
     1
102
RTVSPropertyOp1
 70
     1
102
RTVSPropertyOp2
 70
     1
102
RTVSPropertyOp3
 70
     1
102
RTVSPropertyOp4
 70
     1
102
RTVSPropertyOp5
 70
     1
102
RTVSPropertyOp6
 70
     1
102
RTVSPropertyOp7
 70
     1
102
RTVSPropertyOp8
 70
     1
102
RTVSPropertyOp9
 70
     1
102
RTVSPropertyOp10
 70
     1
102
RTVSPropertyOp11
 70
     1
102
RTVSPropertyOp12
 70
     1
102
RTVSPropertyOp13
 70
     1
102
RTVSPropertyOp14
 70
     1
102
RTVSPropertyOp15
 70
     1
102
RTVSPropertyOp16
 70
     1
102
RTVSPropertyOp17
 70
     1
102
RTVSPropertyOp18
 70
     1
102
RTVSPropertyOp19
 70
     1
102
RTVSPropertyOp20
 70
     1
102
RTVSPropertyOp21
 70
     1
102
RTVSPropertyOp22
 70
     1
102
RTVSPropertyOp23
 70
     1
102
RTVSPropertyOp24
 70
     1
102
RTVSPropertyOp25
 70
     1
102
RTVSPropertyOp26
 70
     1
102
RTVSPropertyOp27
 70
     1
  0
XRECORD
  5
65A
102
{ACAD_REACTORS
330
659
102
}
330
659
100
AcDbXrecord
280
     1
102
RTVSPropertyOp0
 70
     1
102
RTVSPropertyOp1
 70
     1
102
RTVSPropertyOp2
 70
     1
102
RTVSPropertyOp3
 70
     1
102
RTVSPropertyOp4
 70
     1
102
RTVSPropertyOp5
 70
     1
102
RTVSPropertyOp6
 70
     1
102
RTVSPropertyOp7
 70
     1
102
RTVSPropertyOp8
 70
     1
102
RTVSPropertyOp9
 70
     1
102
RTVSPropertyOp10
 70
     1
102
RTVSPropertyOp11
 70
     1
102
RTVSPropertyOp12
 70
     1
102
RTVSPropertyOp13
 70
     1
102
RTVSPropertyOp14
 70
     1
102
RTVSPropertyOp15
 70
     1
102
RTVSPropertyOp16
 70
     1
102
RTVSPropertyOp17
 70
     1
102
RTVSPropertyOp18
 70
     1
102
RTVSPropertyOp19
 70
     1
102
RTVSPropertyOp20
 70
     1
102
RTVSPropertyOp21
 70
     1
102
RTVSPropertyOp22
 70
     1
102
RTVSPropertyOp23
 70
     1
102
RTVSPropertyOp24
 70
     1
102
RTVSPropertyOp25
 70
     1
102
RTVSPropertyOp26
 70
     1
102
RTVSPropertyOp27
 70
     1
  0
XRECORD
  5
65C
102
{ACAD_REACTORS
330
65B
102
}
330
65B
100
AcDbXrecord
280
     1
102
RTVSPropertyOp0
 70
     1
102
RTVSPropertyOp1
 70
     1
102
RTVSPropertyOp2
 70
     1
102
RTVSPropertyOp3
 70
     1
102
RTVSPropertyOp4
 70
     1
102
RTVSPropertyOp5
 70
     1
102
RTVSPropertyOp6
 70
     1
102
RTVSPropertyOp7
 70
     1
102
RTVSPropertyOp8
 70
     1
102
RTVSPropertyOp9
 70
     1
102
RTVSPropertyOp10
 70
     1
102
RTVSPropertyOp11
 70
     1
102
RTVSPropertyOp12
 70
     1
102
RTVSPropertyOp13
 70
     1
102
RTVSPropertyOp14
 70
     1
102
RTVSPropertyOp15
 70
     1
102
RTVSPropertyOp16
 70
     1
102
RTVSPropertyOp17
 70
     1
102
RTVSPropertyOp18
 70
     1
102
RTVSPropertyOp19
 70
     1
102
RTVSPropertyOp20
 70
     1
102
RTVSPropertyOp21
 70
     1
102
RTVSPropertyOp22
 70
     1
102
RTVSPropertyOp23
 70
     1
102
RTVSPropertyOp24
 70
     1
102
RTVSPropertyOp25
 70
     1
102
RTVSPropertyOp26
 70
     1
102
RTVSPropertyOp27
 70
     1
  0
XRECORD
  5
65E
102
{ACAD_REACTORS
330
65D
102
}
330
65D
100
AcDbXrecord
280
     1
102
RTVSPropertyOp0
 70
     1
102
RTVSPropertyOp1
 70
     1
102
RTVSPropertyOp2
 70
     1
102
RTVSPropertyOp3
 70
     1
102
RTVSPropertyOp4
 70
     1
102
RTVSPropertyOp5
 70
     1
102
RTVSPropertyOp6
 70
     1
102
RTVSPropertyOp7
 70
     1
102
RTVSPropertyOp8
 70
     1
102
RTVSPropertyOp9
 70
     1
102
RTVSPropertyOp10
 70
     1
102
RTVSPropertyOp11
 70
     1
102
RTVSPropertyOp12
 70
     1
102
RTVSPropertyOp13
 70
     1
102
RTVSPropertyOp14
 70
     1
102
RTVSPropertyOp15
 70
     1
102
RTVSPropertyOp16
 70
     1
102
RTVSPropertyOp17
 70
     1
102
RTVSPropertyOp18
 70
     1
102
RTVSPropertyOp19
 70
     1
102
RTVSPropertyOp20
 70
     1
102
RTVSPropertyOp21
 70
     1
102
RTVSPropertyOp22
 70
     1
102
RTVSPropertyOp23
 70
     1
102
RTVSPropertyOp24
 70
     1
102
RTVSPropertyOp25
 70
     1
102
RTVSPropertyOp26
 70
     1
102
RTVSPropertyOp27
 70
     1
  0
XRECORD
  5
660
102
{ACAD_REACTORS
330
65F
102
}
330
65F
100
AcDbXrecord
280
     1
102
RTVSPropertyOp0
 70
     1
102
RTVSPropertyOp1
 70
     1
102
RTVSPropertyOp2
 70
     1
102
RTVSPropertyOp3
 70
     1
102
RTVSPropertyOp4
 70
     1
102
RTVSPropertyOp5
 70
     1
102
RTVSPropertyOp6
 70
     1
102
RTVSPropertyOp7
 70
     1
102
RTVSPropertyOp8
 70
     1
102
RTVSPropertyOp9
 70
     1
102
RTVSPropertyOp10
 70
     1
102
RTVSPropertyOp11
 70
     1
102
RTVSPropertyOp12
 70
     1
102
RTVSPropertyOp13
 70
     1
102
RTVSPropertyOp14
 70
     1
102
RTVSPropertyOp15
 70
     1
102
RTVSPropertyOp16
 70
     1
102
RTVSPropertyOp17
 70
     1
102
RTVSPropertyOp18
 70
     1
102
RTVSPropertyOp19
 70
     1
102
RTVSPropertyOp20
 70
     1
102
RTVSPropertyOp21
 70
     1
102
RTVSPropertyOp22
 70
     1
102
RTVSPropertyOp23
 70
     1
102
RTVSPropertyOp24
 70
     1
102
RTVSPropertyOp25
 70
     1
102
RTVSPropertyOp26
 70
     1
102
RTVSPropertyOp27
 70
     1
  0
XRECORD
  5
674
102
{ACAD_REACTORS
330
673
102
}
330
673
100
AcDbXrecord
280
     1
102
RTVSPropertyOp0
 70
     1
102
RTVSPropertyOp1
 70
     1
102
RTVSPropertyOp2
 70
     1
102
RTVSPropertyOp3
 70
     1
102
RTVSPropertyOp4
 70
     1
102
RTVSPropertyOp5
 70
     1
102
RTVSPropertyOp6
 70
     1
102
RTVSPropertyOp7
 70
     1
102
RTVSPropertyOp8
 70
     1
102
RTVSPropertyOp9
 70
     1
102
RTVSPropertyOp10
 70
     1
102
RTVSPropertyOp11
 70
     1
102
RTVSPropertyOp12
 70
     1
102
RTVSPropertyOp13
 70
     1
102
RTVSPropertyOp14
 70
     1
102
RTVSPropertyOp15
 70
     1
102
RTVSPropertyOp16
 70
     1
102
RTVSPropertyOp17
 70
     1
102
RTVSPropertyOp18
 70
     1
102
RTVSPropertyOp19
 70
     1
102
RTVSPropertyOp20
 70
     1
102
RTVSPropertyOp21
 70
     1
102
RTVSPropertyOp22
 70
     1
102
RTVSPropertyOp23
 70
     1
102
RTVSPropertyOp24
 70
     1
102
RTVSPropertyOp25
 70
     1
102
RTVSPropertyOp26
 70
     1
102
RTVSPropertyOp27
 70
     1
  0
XRECORD
  5
66A
102
{ACAD_REACTORS
330
669
102
}
330
669
100
AcDbXrecord
280
     1
102
RTVSPropertyOp0
 70
     1
102
RTVSPropertyOp1
 70
     1
102
RTVSPropertyOp2
 70
     1
102
RTVSPropertyOp3
 70
     1
102
RTVSPropertyOp4
 70
     1
102
RTVSPropertyOp5
 70
     1
102
RTVSPropertyOp6
 70
     1
102
RTVSPropertyOp7
 70
     1
102
RTVSPropertyOp8
 70
     1
102
RTVSPropertyOp9
 70
     1
102
RTVSPropertyOp10
 70
     1
102
RTVSPropertyOp11
 70
     1
102
RTVSPropertyOp12
 70
     1
102
RTVSPropertyOp13
 70
     1
102
RTVSPropertyOp14
 70
     1
102
RTVSPropertyOp15
 70
     1
102
RTVSPropertyOp16
 70
     1
102
RTVSPropertyOp17
 70
     1
102
RTVSPropertyOp18
 70
     1
102
RTVSPropertyOp19
 70
     1
102
RTVSPropertyOp20
 70
     1
102
RTVSPropertyOp21
 70
     1
102
RTVSPropertyOp22
 70
     1
102
RTVSPropertyOp23
 70
     1
102
RTVSPropertyOp24
 70
     1
102
RTVSPropertyOp25
 70
     1
102
RTVSPropertyOp26
 70
     1
102
RTVSPropertyOp27
 70
     1
  0
XRECORD
  5
672
102
{ACAD_REACTORS
330
671
102
}
330
671
100
AcDbXrecord
280
     1
102
RTVSPropertyOp0
 70
     1
102
RTVSPropertyOp1
 70
     1
102
RTVSPropertyOp2
 70
     1
102
RTVSPropertyOp3
 70
     1
102
RTVSPropertyOp4
 70
     1
102
RTVSPropertyOp5
 70
     1
102
RTVSPropertyOp6
 70
     1
102
RTVSPropertyOp7
 70
     1
102
RTVSPropertyOp8
 70
     1
102
RTVSPropertyOp9
 70
     1
102
RTVSPropertyOp10
 70
     1
102
RTVSPropertyOp11
 70
     1
102
RTVSPropertyOp12
 70
     1
102
RTVSPropertyOp13
 70
     1
102
RTVSPropertyOp14
 70
     1
102
RTVSPropertyOp15
 70
     1
102
RTVSPropertyOp16
 70
     1
102
RTVSPropertyOp17
 70
     1
102
RTVSPropertyOp18
 70
     1
102
RTVSPropertyOp19
 70
     1
102
RTVSPropertyOp20
 70
     1
102
RTVSPropertyOp21
 70
     1
102
RTVSPropertyOp22
 70
     1
102
RTVSPropertyOp23
 70
     1
102
RTVSPropertyOp24
 70
     1
102
RTVSPropertyOp25
 70
     1
102
RTVSPropertyOp26
 70
     1
102
RTVSPropertyOp27
 70
     1
  0
ENDSEC
  0
EOF
