  0
SECTION
  2
HEADER
  9
$ACADVER
  1
AC1018
  9
$ACADMAINTVER
 70
   104
  9
$DWGCODEPAGE
  3
ANSI_932
  9
$LASTSAVEDBY
  1
HON1000CV
  9
$INSBASE
 10
0.0
 20
0.0
 30
0.0
  9
$EXTMIN
 10
23485.05162994933
 20
3639.903862543934
 30
-0.000000000000013
  9
$EXTMAX
 10
24501.94708167542
 20
4405.148725812691
 30
0.0000000000000023
  9
$LIMMIN
 10
0.0
 20
0.0
  9
$LIMMAX
 10
420.0
 20
297.0
  9
$ORTHOMODE
 70
     0
  9
$REGENMODE
 70
     1
  9
$FILLMODE
 70
     1
  9
$QTEXTMODE
 70
     0
  9
$MIRRTEXT
 70
     1
  9
$LTSCALE
 40
1.0
  9
$ATTMODE
 70
     1
  9
$TEXTSIZE
 40
5.0
  9
$TRACEWID
 40
0.05
  9
$TEXTSTYLE
  7
ACAD
  9
$CLAYER
  8
0
  9
$CELTYPE
  6
CONTINUOUS
  9
$CECOLOR
 62
     4
  9
$CELTSCALE
 40
1.0
  9
$DISPSILH
 70
     0
  9
$DIMSCALE
 40
1.0
  9
$DIMASZ
 40
1.0
  9
$DIMEXO
 40
0.0
  9
$DIMDLI
 40
0.38
  9
$DIMRND
 40
0.0
  9
$DIMDLE
 40
0.0
  9
$DIMEXE
 40
0.0
  9
$DIMTP
 40
0.0
  9
$DIMTM
 40
0.0
  9
$DIMTXT
 40
8.0
  9
$DIMCEN
 40
0.09
  9
$DIMTSZ
 40
0.0
  9
$DIMTOL
 70
     0
  9
$DIMLIM
 70
     0
  9
$DIMTIH
 70
     0
  9
$DIMTOH
 70
     1
  9
$DIMSE1
 70
     0
  9
$DIMSE2
 70
     0
  9
$DIMTAD
 70
     1
  9
$DIMZIN
 70
     0
  9
$DIMBLK
  1
Small
  9
$DIMASO
 70
     1
  9
$DIMSHO
 70
     1
  9
$DIMPOST
  1

  9
$DIMAPOST
  1

  9
$DIMALT
 70
     0
  9
$DIMALTD
 70
     2
  9
$DIMALTF
 40
25.4
  9
$DIMLFAC
 40
1.0
  9
$DIMTOFL
 70
     0
  9
$DIMTVP
 40
0.0
  9
$DIMTIX
 70
     1
  9
$DIMSOXD
 70
     0
  9
$DIMSAH
 70
     0
  9
$DIMBLK1
  1

  9
$DIMBLK2
  1

  9
$DIMSTYLE
  2
AutoCAD
  9
$DIMCLRD
 70
     4
  9
$DIMCLRE
 70
     4
  9
$DIMCLRT
 70
     3
  9
$DIMTFAC
 40
1.0
  9
$DIMGAP
 40
4.0
  9
$DIMJUST
 70
     0
  9
$DIMSD1
 70
     0
  9
$DIMSD2
 70
     0
  9
$DIMTOLJ
 70
     1
  9
$DIMTZIN
 70
     0
  9
$DIMALTZ
 70
     0
  9
$DIMALTTZ
 70
     0
  9
$DIMUPT
 70
     0
  9
$DIMDEC
 70
     0
  9
$DIMTDEC
 70
     0
  9
$DIMALTU
 70
     2
  9
$DIMALTTD
 70
     2
  9
$DIMTXSTY
  7
ACAD
  9
$DIMAUNIT
 70
     0
  9
$DIMADEC
 70
     0
  9
$DIMALTRND
 40
0.0
  9
$DIMAZIN
 70
     0
  9
$DIMDSEP
 70
    46
  9
$DIMATFIT
 70
     0
  9
$DIMFRAC
 70
     0
  9
$DIMLDRBLK
  1
None
  9
$DIMLUNIT
 70
     2
  9
$DIMLWD
 70
    -2
  9
$DIMLWE
 70
    -2
  9
$DIMTMOVE
 70
     0
  9
$LUNITS
 70
     2
  9
$LUPREC
 70
     4
  9
$SKETCHINC
 40
0.1
  9
$FILLETRAD
 40
0.0
  9
$AUNITS
 70
     0
  9
$AUPREC
 70
     0
  9
$MENU
  1
.
  9
$ELEVATION
 40
0.0
  9
$PELEVATION
 40
0.0
  9
$THICKNESS
 40
0.0
  9
$LIMCHECK
 70
     0
  9
$CHAMFERA
 40
0.0
  9
$CHAMFERB
 40
0.0
  9
$CHAMFERC
 40
0.0
  9
$CHAMFERD
 40
0.0
  9
$SKPOLY
 70
     0
  9
$TDCREATE
 40
2454316.693457674
  9
$TDUCREATE
 40
2454316.318457674
  9
$TDUPDATE
 40
2455841.600707223
  9
$TDUUPDATE
 40
2455841.225707222
  9
$TDINDWG
 40
1.1499491551
  9
$TDUSRTIMER
 40
1.1499491551
  9
$USRTIMER
 70
     1
  9
$ANGBASE
 50
0.0
  9
$ANGDIR
 70
     0
  9
$PDMODE
 70
     0
  9
$PDSIZE
 40
0.0
  9
$PLINEWID
 40
0.0
  9
$SPLFRAME
 70
     0
  9
$SPLINETYPE
 70
     6
  9
$SPLINESEGS
 70
     8
  9
$HANDSEED
  5
2BA25
  9
$SURFTAB1
 70
     6
  9
$SURFTAB2
 70
     6
  9
$SURFTYPE
 70
     6
  9
$SURFU
 70
     6
  9
$SURFV
 70
     6
  9
$UCSBASE
  2

  9
$UCSNAME
  2

  9
$UCSORG
 10
0.0
 20
0.0
 30
0.0
  9
$UCSXDIR
 10
1.0
 20
0.0
 30
0.0
  9
$UCSYDIR
 10
0.0
 20
1.0
 30
0.0
  9
$UCSORTHOREF
  2

  9
$UCSORTHOVIEW
 70
     0
  9
$UCSORGTOP
 10
0.0
 20
0.0
 30
0.0
  9
$UCSORGBOTTOM
 10
0.0
 20
0.0
 30
0.0
  9
$UCSORGLEFT
 10
0.0
 20
0.0
 30
0.0
  9
$UCSORGRIGHT
 10
0.0
 20
0.0
 30
0.0
  9
$UCSORGFRONT
 10
0.0
 20
0.0
 30
0.0
  9
$UCSORGBACK
 10
0.0
 20
0.0
 30
0.0
  9
$PUCSBASE
  2

  9
$PUCSNAME
  2

  9
$PUCSORG
 10
0.0
 20
0.0
 30
0.0
  9
$PUCSXDIR
 10
1.0
 20
0.0
 30
0.0
  9
$PUCSYDIR
 10
0.0
 20
1.0
 30
0.0
  9
$PUCSORTHOREF
  2

  9
$PUCSORTHOVIEW
 70
     0
  9
$PUCSORGTOP
 10
0.0
 20
0.0
 30
0.0
  9
$PUCSORGBOTTOM
 10
0.0
 20
0.0
 30
0.0
  9
$PUCSORGLEFT
 10
0.0
 20
0.0
 30
0.0
  9
$PUCSORGRIGHT
 10
0.0
 20
0.0
 30
0.0
  9
$PUCSORGFRONT
 10
0.0
 20
0.0
 30
0.0
  9
$PUCSORGBACK
 10
0.0
 20
0.0
 30
0.0
  9
$USERI1
 70
     0
  9
$USERI2
 70
     0
  9
$USERI3
 70
     0
  9
$USERI4
 70
     0
  9
$USERI5
 70
     0
  9
$USERR1
 40
0.0
  9
$USERR2
 40
0.0
  9
$USERR3
 40
0.0
  9
$USERR4
 40
0.0
  9
$USERR5
 40
0.0
  9
$WORLDVIEW
 70
     1
  9
$SHADEDGE
 70
     3
  9
$SHADEDIF
 70
    70
  9
$TILEMODE
 70
     1
  9
$MAXACTVP
 70
    48
  9
$PINSBASE
 10
0.0
 20
0.0
 30
0.0
  9
$PLIMCHECK
 70
     0
  9
$PEXTMIN
 10
1.000000000000000E+20
 20
1.000000000000000E+20
 30
1.000000000000000E+20
  9
$PEXTMAX
 10
-1.000000000000000E+20
 20
-1.000000000000000E+20
 30
-1.000000000000000E+20
  9
$PLIMMIN
 10
0.0
 20
0.0
  9
$PLIMMAX
 10
12.0
 20
9.0
  9
$UNITMODE
 70
     0
  9
$VISRETAIN
 70
     0
  9
$PLINEGEN
 70
     0
  9
$PSLTSCALE
 70
     1
  9
$TREEDEPTH
 70
  3020
  9
$CMLSTYLE
  2
Standard
  9
$CMLJUST
 70
     0
  9
$CMLSCALE
 40
1.0
  9
$PROXYGRAPHICS
 70
     1
  9
$MEASUREMENT
 70
     0
  9
$CELWEIGHT
370
    -1
  9
$ENDCAPS
280
     0
  9
$JOINSTYLE
280
     0
  9
$LWDISPLAY
290
     0
  9
$INSUNITS
 70
     0
  9
$HYPERLINKBASE
  1

  9
$STYLESHEET
  1
monochrome.ctb
  9
$XEDIT
290
     1
  9
$CEPSNTYPE
380
     0
  9
$PSTYLEMODE
290
     1
  9
$FINGERPRINTGUID
  2
{CC7D6DEE-A9F1-4F3E-AC95-C84B62CCA3FD}
  9
$VERSIONGUID
  2
{AD78DA88-1044-4992-AC8F-526EE830123D}
  9
$EXTNAMES
290
     1
  9
$PSVPSCALE
 40
0.0
  9
$OLESTARTUP
290
     0
  9
$SORTENTS
280
   127
  9
$INDEXCTL
280
     0
  9
$HIDETEXT
280
     0
  9
$XCLIPFRAME
290
     0
  9
$HALOGAP
280
     0
  9
$OBSCOLOR
 70
   257
  9
$OBSLTYPE
280
     0
  9
$INTERSECTIONDISPLAY
280
     0
  9
$INTERSECTIONCOLOR
 70
   257
  9
$DIMASSOC
280
     1
  9
$PROJECTNAME
  1

  0
ENDSEC
  0
SECTION
  2
CLASSES
  0
CLASS
  1
ACDBDICTIONARYWDFLT
  2
AcDbDictionaryWithDefault
  3
ObjectDBX Classes
 90
        0
 91
        1
280
     0
281
     0
  0
CLASS
  1
DICTIONARYVAR
  2
AcDbDictionaryVar
  3
ObjectDBX Classes
 90
        0
 91
       11
280
     0
281
     0
  0
CLASS
  1
MATERIAL
  2
AcDbMaterial
  3
ObjectDBX Classes
 90
     1153
 91
        3
280
     0
281
     0
  0
CLASS
  1
VISUALSTYLE
  2
AcDbVisualStyle
  3
ObjectDBX Classes
 90
     4095
 91
       25
280
     0
281
     0
  0
CLASS
  1
TABLESTYLE
  2
AcDbTableStyle
  3
ObjectDBX Classes
 90
     4095
 91
        1
280
     0
281
     0
  0
CLASS
  1
SCALE
  2
AcDbScale
  3
ObjectDBX Classes
 90
     1153
 91
       17
280
     0
281
     0
  0
CLASS
  1
MLEADERSTYLE
  2
AcDbMLeaderStyle
  3
ACDB_MLEADERSTYLE_CLASS
 90
     4095
 91
        1
280
     0
281
     0
  0
CLASS
  1
EXACXREFPANELOBJECT
  2
ExAcXREFPanelObject
  3
EXAC_ESW
 90
     1025
 91
        0
280
     0
281
     0
  0
CLASS
  1
NPOCOLLECTION
  2
AcDbImpNonPersistentObjectsCollection
  3
ObjectDBX Classes
 90
     1153
 91
        0
280
     0
281
     0
  0
CLASS
  1
SORTENTSTABLE
  2
AcDbSortentsTable
  3
ObjectDBX Classes
 90
        0
 91
        1
280
     0
281
     0
  0
CLASS
  1
CELLSTYLEMAP
  2
AcDbCellStyleMap
  3
ObjectDBX Classes
 90
     1152
 91
        4
280
     0
281
     0
  0
ENDSEC
  0
SECTION
  2
TABLES
  0
TABLE
  2
VPORT
  5
8
102
{ACAD_XDICTIONARY
360
8775
102
}
330
0
100
AcDbSymbolTable
 70
     1
  0
VPORT
  5
5FB8
330
8
100
AcDbSymbolTableRecord
100
AcDbViewportTableRecord
  2
*Active
 70
     0
 10
0.0
 20
0.0
 11
1.0
 21
1.0
 12
23992.7283067298
 22
4022.54238423034
 13
0.0
 23
0.0
 14
1.0
 24
1.0
 15
0.0
 25
0.0
 16
0.0
 26
0.0
 36
1.0
 17
0.0
 27
0.0
 37
0.0
 40
771.0417413184002
 41
2.513123359580052
 42
50.0
 43
0.0
 44
0.0
 50
0.0
 51
0.0
 71
     0
 72
   100
 73
     1
 74
     1
 75
     0
 76
     0
 77
     0
 78
     0
281
     0
 65
     1
110
0.0
120
0.0
130
0.0
111
1.0
121
0.0
131
0.0
112
0.0
122
1.0
132
0.0
 79
     0
146
0.0
1001
ACAD_NAV_VCDISPLAY
1070
     3
  0
ENDTAB
  0
TABLE
  2
LTYPE
  5
5
330
0
100
AcDbSymbolTable
 70
     3
  0
LTYPE
  5
13
330
5
100
AcDbSymbolTableRecord
100
AcDbLinetypeTableRecord
  2
ByBlock
 70
     0
  3

 72
    65
 73
     0
 40
0.0
  0
LTYPE
  5
14
330
5
100
AcDbSymbolTableRecord
100
AcDbLinetypeTableRecord
  2
ByLayer
 70
     0
  3

 72
    65
 73
     0
 40
0.0
  0
LTYPE
  5
15
330
5
100
AcDbSymbolTableRecord
100
AcDbLinetypeTableRecord
  2
CONTINUOUS
 70
     0
  3
実線
 72
    65
 73
     0
 40
0.0
  0
LTYPE
  5
25
330
5
100
AcDbSymbolTableRecord
100
AcDbLinetypeTableRecord
  2
CENTER1
 70
     0
  3
----- - ----- - ----- - ----- - 
 72
    65
 73
     4
 40
10.0
 49
6.25
 74
     0
 49
-1.25
 74
     0
 49
1.25
 74
     0
 49
-1.25
 74
     0
  0
LTYPE
  5
27779
330
5
100
AcDbSymbolTableRecord
100
AcDbLinetypeTableRecord
  2
PLINE2
 70
     0
  3
------     -----------     -----
 72
    65
 73
     2
 40
3.0
 49
2.1
 74
     0
 49
-0.9
 74
     0
  0
ENDTAB
  0
TABLE
  2
LAYER
  5
2
102
{ACAD_XDICTIONARY
360
175
102
}
330
0
100
AcDbSymbolTable
 70
     6
  0
LAYER
  5
10
102
{ACAD_XDICTIONARY
360
8647
102
}
330
2
100
AcDbSymbolTableRecord
100
AcDbLayerTableRecord
  2
0
 70
     0
 62
     7
  6
CONTINUOUS
370
    -3
390
F
  0
LAYER
  5
128
330
2
100
AcDbSymbolTableRecord
100
AcDbLayerTableRecord
  2
Defpoints
 70
     0
 62
     7
  6
CONTINUOUS
290
     0
370
    -3
390
F
  0
LAYER
  5
178
102
{ACAD_XDICTIONARY
360
8649
102
}
330
2
100
AcDbSymbolTableRecord
100
AcDbLayerTableRecord
  2
寸法
 70
     0
 62
     7
  6
CONTINUOUS
370
    -3
390
F
  0
LAYER
  5
179
102
{ACAD_XDICTIONARY
360
864B
102
}
330
2
100
AcDbSymbolTableRecord
100
AcDbLayerTableRecord
  2
躯体と製品
 70
     0
 62
     7
  6
CONTINUOUS
370
    -3
390
F
  0
LAYER
  5
4F62
102
{ACAD_XDICTIONARY
360
864D
102
}
330
2
100
AcDbSymbolTableRecord
100
AcDbLayerTableRecord
  2
文字-記号
 70
     0
 62
     7
  6
CONTINUOUS
370
    -3
390
F
  0
LAYER
  5
70D2
102
{ACAD_XDICTIONARY
360
864F
102
}
330
2
100
AcDbSymbolTableRecord
100
AcDbLayerTableRecord
  2
中心線
 70
     0
 62
     7
  6
CONTINUOUS
370
    -3
390
F
1001
AcAecLayerStandard
1000

1000

1001
AcCmTransparency
1071
        0
  0
ENDTAB
  0
TABLE
  2
STYLE
  5
3
330
0
100
AcDbSymbolTable
 70
     3
  0
STYLE
  5
11
330
3
100
AcDbSymbolTableRecord
100
AcDbTextStyleTableRecord
  2
STANDARD
 70
     0
 40
0.0
 41
1.0
 50
0.0
 71
     0
 42
0.2
  3
txt
  4
bigfont.shx
  0
STYLE
  5
123
330
3
100
AcDbSymbolTableRecord
100
AcDbTextStyleTableRecord
  2
ACAD
 70
     0
 40
0.0
 41
1.0
 50
0.0
 71
     0
 42
5.0
  3
romans.shx
  4
extfont.shx
  0
ENDTAB
  0
TABLE
  2
VIEW
  5
6
330
0
100
AcDbSymbolTable
 70
     2
  0
ENDTAB
  0
TABLE
  2
UCS
  5
7
330
0
100
AcDbSymbolTable
 70
     0
  0
ENDTAB
  0
TABLE
  2
APPID
  5
9
330
0
100
AcDbSymbolTable
 70
    17
  0
APPID
  5
12
330
9
100
AcDbSymbolTableRecord
100
AcDbRegAppTableRecord
  2
ACAD
 70
     0
  0
APPID
  5
676F
330
9
100
AcDbSymbolTableRecord
100
AcDbRegAppTableRecord
  2
AcAecLayerStandard
 70
     0
  0
APPID
  5
6770
330
9
100
AcDbSymbolTableRecord
100
AcDbRegAppTableRecord
  2
ACAD_DSTYLE_DIMJAG
 70
     0
  0
APPID
  5
6771
330
9
100
AcDbSymbolTableRecord
100
AcDbRegAppTableRecord
  2
ACAD_DSTYLE_DIMTALN
 70
     0
  0
APPID
  5
6772
330
9
100
AcDbSymbolTableRecord
100
AcDbRegAppTableRecord
  2
ACAD_PSEXT
 70
     0
  0
APPID
  5
6773
330
9
100
AcDbSymbolTableRecord
100
AcDbRegAppTableRecord
  2
AcCmTransparency
 70
     0
  0
APPID
  5
6774
330
9
100
AcDbSymbolTableRecord
100
AcDbRegAppTableRecord
  2
ACAD_NAV_VCDISPLAY
 70
     0
  0
APPID
  5
7095
330
9
100
AcDbSymbolTableRecord
100
AcDbRegAppTableRecord
  2
ACAD_EXEMPT_FROM_CAD_STANDARDS
 70
     0
  0
APPID
  5
70DD
330
9
100
AcDbSymbolTableRecord
100
AcDbRegAppTableRecord
  2
AcDbBlockRepETag
 70
     0
  0
APPID
  5
87AB
330
9
100
AcDbSymbolTableRecord
100
AcDbRegAppTableRecord
  2
ACAD_MLEADERVER
 70
     0
  0
APPID
  5
886D
330
9
100
AcDbSymbolTableRecord
100
AcDbRegAppTableRecord
  2
AcadAnnoPO
 70
     0
  0
APPID
  5
AA9F
330
9
100
AcDbSymbolTableRecord
100
AcDbRegAppTableRecord
  2
ACAD_DSTYLE_DIMTEXT_FILL
 70
     0
  0
APPID
  5
243A9
330
9
100
AcDbSymbolTableRecord
100
AcDbRegAppTableRecord
  2
GradientColor1ACI
 70
     0
  0
APPID
  5
243AA
330
9
100
AcDbSymbolTableRecord
100
AcDbRegAppTableRecord
  2
GradientColor2ACI
 70
     0
  0
APPID
  5
2AC35
330
9
100
AcDbSymbolTableRecord
100
AcDbRegAppTableRecord
  2
ACAD_DSTYLE_DIM_LINETYPE
 70
     0
  0
APPID
  5
2AC36
330
9
100
AcDbSymbolTableRecord
100
AcDbRegAppTableRecord
  2
ACAD_DSTYLE_DIM_EXT1_LINETYPE
 70
     0
  0
APPID
  5
2AC37
330
9
100
AcDbSymbolTableRecord
100
AcDbRegAppTableRecord
  2
ACAD_DSTYLE_DIM_EXT2_LINETYPE
 70
     0
  0
ENDTAB
  0
TABLE
  2
DIMSTYLE
  5
A
330
0
100
AcDbSymbolTable
 70
     3
100
AcDbDimStyleTable
 71
     1
340
126
  0
DIMSTYLE
105
11C
330
A
100
AcDbSymbolTableRecord
100
AcDbDimStyleTableRecord
  2
Standard
 70
     0
340
11
  0
DIMSTYLE
105
126
330
A
100
AcDbSymbolTableRecord
100
AcDbDimStyleTableRecord
  2
AutoCAD
 70
     0
 41
1.0
 42
0.0
 44
0.0
 73
     0
 77
     1
140
9.0
147
4.0
174
     1
176
     4
177
     4
178
     3
271
     0
272
     0
289
     0
340
123
341
15B0
342
2B9DB
1001
ACAD_DSTYLE_DIMJAG
1070
   388
1040
1.5
1001
ACAD_DSTYLE_DIMTALN
1070
   392
1070
     0
  0
ENDTAB
  0
TABLE
  2
BLOCK_RECORD
  5
1
330
0
100
AcDbSymbolTable
 70
     4
  0
BLOCK_RECORD
  5
1E
102
{ACAD_XDICTIONARY
360
28B
102
}
330
1
100
AcDbSymbolTableRecord
100
AcDbBlockTableRecord
  2
*Model_Space
340
21
  0
BLOCK_RECORD
  5
1A
102
{ACAD_XDICTIONARY
360
28D
102
}
330
1
100
AcDbSymbolTableRecord
100
AcDbBlockTableRecord
  2
*Paper_Space
340
1D
  0
BLOCK_RECORD
  5
11E
330
1
100
AcDbSymbolTableRecord
100
AcDbBlockTableRecord
  2
_Dot
340
0
  0
BLOCK_RECORD
  5
15B0
330
1
100
AcDbSymbolTableRecord
100
AcDbBlockTableRecord
  2
_None
340
0
  0
BLOCK_RECORD
  5
2B9DB
330
1
100
AcDbSymbolTableRecord
100
AcDbBlockTableRecord
  2
_Small
340
0
  0
ENDTAB
  0
ENDSEC
  0
SECTION
  2
BLOCKS
  0
BLOCK
  5
1F
330
1E
100
AcDbEntity
  8
0
100
AcDbBlockBegin
  2
*Model_Space
 70
     0
 10
0.0
 20
0.0
 30
0.0
  3
*Model_Space
  1

  0
ENDBLK
  5
20
330
1E
100
AcDbEntity
  8
0
100
AcDbBlockEnd
  0
BLOCK
  5
1B
330
1A
100
AcDbEntity
 67
     1
  8
0
100
AcDbBlockBegin
  2
*Paper_Space
 70
     0
 10
0.0
 20
0.0
 30
0.0
  3
*Paper_Space
  1

  0
ENDBLK
  5
1C
330
1A
100
AcDbEntity
 67
     1
  8
0
100
AcDbBlockEnd
  0
BLOCK
  5
121
330
11E
100
AcDbEntity
  8
0
100
AcDbBlockBegin
  2
_Dot
 70
     0
 10
0.0
 20
0.0
 30
0.0
  3
_Dot
  1

  0
LWPOLYLINE
  5
11F
330
11E
100
AcDbEntity
  8
0
  6
ByBlock
 62
     0
100
AcDbPolyline
 90
        2
 70
     1
 43
0.5
 10
-0.25
 20
0.0
 42
1.0
 10
0.25
 20
0.0
 42
1.0
  0
LINE
  5
120
330
11E
100
AcDbEntity
  8
0
  6
ByBlock
 62
     0
370
    -2
100
AcDbLine
 10
-0.5
 20
0.0
 30
0.0
 11
-1.0
 21
0.0
 31
0.0
  0
ENDBLK
  5
122
330
11E
100
AcDbEntity
  8
0
100
AcDbBlockEnd
  0
BLOCK
  5
15B1
330
15B0
100
AcDbEntity
  8
0
100
AcDbBlockBegin
  2
_None
 70
     0
 10
0.0
 20
0.0
 30
0.0
  3
_None
  1

  0
ENDBLK
  5
15B2
330
15B0
100
AcDbEntity
  8
0
100
AcDbBlockEnd
  0
BLOCK
  5
2B9DD
330
2B9DB
100
AcDbEntity
  8
0
 62
     4
100
AcDbBlockBegin
  2
_Small
 70
     0
 10
0.0
 20
0.0
 30
0.0
  3
_Small
  1

  0
CIRCLE
  5
2B9DC
330
2B9DB
100
AcDbEntity
  8
0
  6
ByBlock
 62
     0
370
    -2
100
AcDbCircle
 10
0.0
 20
0.0
 30
0.0
 40
0.25
  0
ENDBLK
  5
2B9DE
330
2B9DB
100
AcDbEntity
  8
0
 62
     4
100
AcDbBlockEnd
  0
ENDSEC
  0
SECTION
  2
ENTITIES
  0
LINE
  5
28FD1
330
1E
100
AcDbEntity
  8
躯体と製品
  6
Continuous
 62
     4
100
AcDbLine
 10
23612.43754876341
 20
3694.938398470887
 30
0.0
 11
23612.43754876341
 21
3740.340698502347
 31
0.0
  0
LINE
  5
28FD2
330
1E
100
AcDbEntity
  8
躯体と製品
  6
Continuous
 62
     4
100
AcDbLine
 10
23614.43754894273
 20
3694.938398470887
 30
0.0
 11
23614.43754897674
 21
3740.339223925417
 31
0.0
  0
LINE
  5
28FD4
330
1E
100
AcDbEntity
  8
躯体と製品
  6
Continuous
 62
     7
100
AcDbLine
 10
23549.43722680367
 20
3694.938398470887
 30
0.0
 11
23549.43722691976
 21
4404.938398470886
 31
0.0
  0
LWPOLYLINE
  5
28FD5
330
1E
100
AcDbEntity
  8
躯体と製品
  6
Continuous
 62
     4
100
AcDbPolyline
 90
       10
 70
     0
 43
0.0
 10
23614.43754926342
 20
3694.938398470887
 10
23614.43754926342
 20
3738.639698422223
 10
23618.63754926343
 20
3738.639698422223
 10
23618.63754926343
 20
3731.639698422223
 10
23620.13754926343
 20
3731.639698422223
 10
23620.13754926343
 20
3739.939698422226
 10
23622.03754926345
 20
3739.939698422226
 10
23626.93754926342
 20
3729.939698422226
 10
23629.43754926342
 20
3729.939698422226
 10
23629.43754926342
 20
3694.938398470887
  0
LINE
  5
28FEA
330
1E
100
AcDbEntity
  8
躯体と製品
  6
Continuous
 62
     4
100
AcDbLine
 10
23614.43754920451
 20
4038.939698502349
 30
0.0
 11
23614.43754921656
 21
4204.938398470886
 31
0.0
  0
LINE
  5
28FEB
330
1E
100
AcDbEntity
  8
躯体と製品
  6
Continuous
 62
     4
100
AcDbLine
 10
23612.43754876341
 20
4038.939698502349
 30
0.0
 11
23612.43754876341
 21
4204.938398470886
 31
0.0
  0
LINE
  5
28FEC
330
1E
100
AcDbEntity
  8
躯体と製品
  6
Continuous
 62
     4
100
AcDbLine
 10
23614.43754898332
 20
3748.939698662623
 30
0.0
 11
23614.4375491906
 21
4030.339698662618
 31
0.0
  0
LINE
  5
28FED
330
1E
100
AcDbEntity
  8
躯体と製品
  6
Continuous
 62
     4
100
AcDbLine
 10
23612.43754876341
 20
3748.939698662623
 30
0.0
 11
23612.43754876341
 21
4030.339698662618
 31
0.0
  0
LWPOLYLINE
  5
28FEF
330
1E
100
AcDbEntity
  8
躯体と製品
  6
Continuous
 62
     4
100
AcDbPolyline
 90
       16
 70
     1
 43
0.0
 10
23614.43754926342
 20
3750.639698422223
 10
23614.43754926342
 20
4028.639698422223
 10
23618.63754926343
 20
4028.639698422223
 10
23618.63754926343
 20
4021.639698422222
 10
23620.13754926343
 20
4021.639698422222
 10
23620.13754926343
 20
4029.939698422225
 10
23622.03754926345
 20
4029.939698422225
 10
23626.93754926342
 20
4019.939698422226
 10
23629.43754926342
 20
4019.939698422226
 10
23629.43754926342
 20
3739.939698422226
 10
23625.93754926342
 20
3739.939698422226
 10
23622.33754926344
 20
3749.33969842222
 10
23620.13754926343
 20
3749.33969842222
 10
23620.13754926343
 20
3757.639698422223
 10
23618.63754926343
 20
3757.639698422223
 10
23618.63754926343
 20
3750.639698422223
  0
LWPOLYLINE
  5
28FF0
330
1E
100
AcDbEntity
  8
文字-記号
  6
Continuous
 62
     7
100
AcDbPolyline
 90
        3
 70
   128
 43
0.0
 10
23615.63754891046
 20
4036.039890105429
 10
23644.10389246309
 20
4085.345043444293
 10
23693.7302774318
 20
4085.345043444293
  0
LINE
  5
28FF1
330
1E
100
AcDbEntity
  8
中心線
  6
CENTER1
 62
     7
100
AcDbLine
 10
23603.68754941045
 20
3744.639698422223
 30
0.0
 11
23634.40854926344
 21
3744.639698422223
 31
0.0
  0
LINE
  5
28FF2
330
1E
100
AcDbEntity
  8
躯体と製品
  6
Continuous
 62
     3
100
AcDbLine
 10
23618.73754876346
 20
3757.639698422223
 30
0.0
 11
23619.93754876341
 21
3757.639698422223
 31
0.0
  0
ARC
  5
28FF3
330
1E
100
AcDbEntity
  8
躯体と製品
  6
Continuous
 62
     3
100
AcDbCircle
 10
23616.13754861639
 20
3748.940698502353
 30
0.0
 40
1.7
100
AcDbArc
 50
91.96524710649606
 51
180.0336980000293
  0
ARC
  5
28FF4
330
1E
100
AcDbEntity
  8
躯体と製品
  6
Continuous
 62
     3
100
AcDbCircle
 10
23616.13754891046
 20
3740.339698662618
 30
0.0
 40
1.7
100
AcDbArc
 50
180.0000059997609
 51
269.9999969984521
  0
LWPOLYLINE
  5
28FF5
330
1E
100
AcDbEntity
  8
躯体と製品
  6
Continuous
 62
     3
100
AcDbPolyline
 90
        4
 70
     1
 43
0.0
 10
23615.63754891046
 20
3740.339698662618
 10
23608.63754891046
 20
3740.339698662618
 10
23608.63754891046
 20
3748.939698662623
 10
23615.63754891046
 20
3748.939698662623
  0
ARC
  5
28FF6
330
1E
100
AcDbEntity
  8
躯体と製品
  6
Continuous
 62
     3
100
AcDbCircle
 10
23616.13754791453
 20
3748.940696615042
 30
0.0
 40
0.5
100
AcDbArc
 50
93.62445275446685
 51
180.1143570002185
  0
ARC
  5
28FF7
330
1E
100
AcDbEntity
  8
躯体と製品
  6
Continuous
 62
     3
100
AcDbCircle
 10
23618.23754876346
 20
3751.139696534912
 30
0.0
 40
1.7
100
AcDbArc
 50
270.0
 51
0.0
  0
LINE
  5
28FF8
330
1E
100
AcDbEntity
  8
躯体と製品
  6
Continuous
 62
     3
100
AcDbLine
 10
23616.28454890848
 20
3748.640698651274
 30
0.0
 11
23615.83754890843
 21
3748.63969865127
 31
0.0
  0
LINE
  5
28FF9
330
1E
100
AcDbEntity
  8
躯体と製品
  6
Continuous
 62
     3
100
AcDbLine
 10
23618.06554890844
 20
3747.271698651268
 30
0.0
 11
23618.16454890848
 21
3747.323698651279
 31
0.0
  0
LINE
  5
28FFA
330
1E
100
AcDbEntity
  8
躯体と製品
  6
Continuous
 62
     3
100
AcDbLine
 10
23617.43754890847
 20
3748.40469865127
 30
0.0
 11
23616.28454890848
 21
3748.640698651274
 31
0.0
  0
LINE
  5
28FFB
330
1E
100
AcDbEntity
  8
躯体と製品
  6
Continuous
 62
     3
100
AcDbLine
 10
23618.00954890845
 20
3745.387698651277
 30
0.0
 11
23618.25354890846
 21
3745.387698651277
 31
0.0
  0
ARC
  5
28FFC
330
1E
100
AcDbEntity
  8
躯体と製品
  6
Continuous
 62
     3
100
AcDbCircle
 10
23618.00954890845
 20
3745.188698651269
 30
0.0
 40
0.2
100
AcDbArc
 50
90.00000299821293
 51
180.0000059997609
  0
ARC
  5
28FFD
330
1E
100
AcDbEntity
  8
躯体と製品
  6
Continuous
 62
     3
100
AcDbCircle
 10
23615.83754890843
 20
3748.439698651273
 30
0.0
 40
0.2
100
AcDbArc
 50
90.00000299821293
 51
180.0000059997609
  0
ARC
  5
28FFE
330
1E
100
AcDbEntity
  8
躯体と製品
  6
Continuous
 62
     3
100
AcDbCircle
 10
23618.15654890845
 20
3747.095698651275
 30
0.0
 40
0.2
100
AcDbArc
 50
117.3410229995599
 51
203.6129460013841
  0
ARC
  5
28FFF
330
1E
100
AcDbEntity
  8
躯体と製品
  6
Continuous
 62
     3
100
AcDbCircle
 10
23618.25354890846
 20
3745.487698651268
 30
0.0
 40
0.1
100
AcDbArc
 50
269.9999969984521
 51
4.6199239999185
  0
LINE
  5
29000
330
1E
100
AcDbEntity
  8
躯体と製品
  6
Continuous
 62
     3
100
AcDbLine
 10
23617.97354890849
 20
3747.015698651274
 30
0.0
 11
23618.08954890847
 21
3746.739698651276
 31
0.0
  0
LINE
  5
29001
330
1E
100
AcDbEntity
  8
躯体と製品
  6
Continuous
 62
     3
100
AcDbLine
 10
23618.08954890847
 20
3746.739698651276
 30
0.0
 11
23618.22554890847
 21
3746.287698651271
 31
0.0
  0
LINE
  5
29002
330
1E
100
AcDbEntity
  8
躯体と製品
  6
Continuous
 62
     3
100
AcDbLine
 10
23618.22554890847
 20
3746.287698651271
 30
0.0
 11
23618.32554890844
 21
3745.811698651277
 31
0.0
  0
LINE
  5
29003
330
1E
100
AcDbEntity
  8
躯体と製品
  6
Continuous
 62
     3
100
AcDbLine
 10
23618.32554890844
 20
3745.811698651277
 30
0.0
 11
23618.35254890845
 21
3745.49569865127
 31
0.0
  0
ARC
  5
29004
330
1E
100
AcDbEntity
  8
躯体と製品
  6
Continuous
 62
     3
100
AcDbCircle
 10
23618.23754876346
 20
3751.13969849913
 30
0.0
 40
0.5
100
AcDbArc
 50
269.9681866880938
 51
0.0
  0
LINE
  5
29005
330
1E
100
AcDbEntity
  8
躯体と製品
  6
Continuous
 62
     3
100
AcDbLine
 10
23618.23727113993
 20
3750.639698576197
 30
0.0
 11
23616.07924999384
 21
3750.639698581988
 31
0.0
  0
LINE
  5
29006
330
1E
100
AcDbEntity
  8
躯体と製品
  6
Continuous
 62
     3
100
AcDbLine
 10
23618.23754876346
 20
3749.439696534916
 30
0.0
 11
23616.10593968817
 21
3749.439696534916
 31
0.0
  0
ARC
  5
29007
330
1E
100
AcDbEntity
  8
躯体と製品
  6
Continuous
 62
     3
100
AcDbCircle
 10
23613.85332905013
 20
3744.091408795706
 30
0.0
 40
4.815999999999999
100
AcDbArc
 50
318.0931500005973
 51
6.537158761711621
  0
ARC
  5
29008
330
1E
100
AcDbEntity
  8
躯体と製品
  6
Continuous
 62
     3
100
AcDbCircle
 10
23618.00954890845
 20
3744.090698673972
 30
0.0
 40
0.2
100
AcDbArc
 50
179.9999940002391
 51
269.9999969984521
  0
LINE
  5
29009
330
1E
100
AcDbEntity
  8
躯体と製品
  6
Continuous
 62
     3
100
AcDbLine
 10
23617.43754890847
 20
3740.874698673972
 30
0.0
 11
23617.43754890847
 21
3744.639698673971
 31
0.0
  0
LINE
  5
2900A
330
1E
100
AcDbEntity
  8
躯体と製品
  6
Continuous
 62
     3
100
AcDbLine
 10
23618.73754876346
 20
3731.639698582483
 30
0.0
 11
23619.93754876341
 21
3731.639698582483
 31
0.0
  0
ARC
  5
2900B
330
1E
100
AcDbEntity
  8
躯体と製品
  6
Continuous
 62
     3
100
AcDbCircle
 10
23616.13754891046
 20
3740.339698662618
 30
0.0
 40
0.5
100
AcDbArc
 50
180.0000059997609
 51
269.885405997914
  0
ARC
  5
2900C
330
1E
100
AcDbEntity
  8
躯体と製品
  6
Continuous
 62
     3
100
AcDbCircle
 10
23618.23754876346
 20
3738.139698582483
 30
0.0
 40
0.5
100
AcDbArc
 50
0.0
 51
90.0
  0
LINE
  5
2900D
330
1E
100
AcDbEntity
  8
躯体と製品
  6
Continuous
 62
     3
100
AcDbLine
 10
23618.23754876346
 20
3738.639698582483
 30
0.0
 11
23616.13754882146
 21
3738.63969866262
 31
0.0
  0
LINE
  5
2900E
330
1E
100
AcDbEntity
  8
躯体と製品
  6
Continuous
 62
     3
100
AcDbLine
 10
23618.73754876346
 20
3738.139698582483
 30
0.0
 11
23618.73754876346
 21
3731.639698582483
 31
0.0
  0
ARC
  5
2900F
330
1E
100
AcDbEntity
  8
躯体と製品
  6
Continuous
 62
     3
100
AcDbCircle
 10
23618.23754876346
 20
3738.139698582483
 30
0.0
 40
1.7
100
AcDbArc
 50
0.0
 51
90.0
  0
LINE
  5
29010
330
1E
100
AcDbEntity
  8
躯体と製品
  6
Continuous
 62
     3
100
AcDbLine
 10
23618.23754876346
 20
3739.839698582481
 30
0.0
 11
23616.13654888981
 21
3739.839699662655
 31
0.0
  0
LINE
  5
29011
330
1E
100
AcDbEntity
  8
躯体と製品
  6
Continuous
 62
     3
100
AcDbLine
 10
23619.93754876341
 20
3738.139698582483
 30
0.0
 11
23619.93754876341
 21
3731.639698582483
 31
0.0
  0
LINE
  5
29012
330
1E
100
AcDbEntity
  8
躯体と製品
  6
Continuous
 62
     3
100
AcDbLine
 10
23618.32554890844
 20
3743.467698673966
 30
0.0
 11
23618.35254890845
 21
3743.783698673971
 31
0.0
  0
LINE
  5
29013
330
1E
100
AcDbEntity
  8
躯体と製品
  6
Continuous
 62
     3
100
AcDbLine
 10
23618.22554890847
 20
3742.99169867397
 30
0.0
 11
23618.32554890844
 21
3743.467698673966
 31
0.0
  0
LINE
  5
29014
330
1E
100
AcDbEntity
  8
躯体と製品
  6
Continuous
 62
     3
100
AcDbLine
 10
23618.08954890847
 20
3742.539698673965
 30
0.0
 11
23618.22554890847
 21
3742.99169867397
 31
0.0
  0
LINE
  5
29015
330
1E
100
AcDbEntity
  8
躯体と製品
  6
Continuous
 62
     3
100
AcDbLine
 10
23617.97354890849
 20
3742.263698673968
 30
0.0
 11
23618.08954890847
 21
3742.539698673965
 31
0.0
  0
ARC
  5
29016
330
1E
100
AcDbEntity
  8
躯体と製品
  6
Continuous
 62
     3
100
AcDbCircle
 10
23618.25354890846
 20
3743.791698673973
 30
0.0
 40
0.1
100
AcDbArc
 50
355.3800760000814
 51
90.00000299821293
  0
ARC
  5
29017
330
1E
100
AcDbEntity
  8
躯体と製品
  6
Continuous
 62
     3
100
AcDbCircle
 10
23618.15654890845
 20
3742.183698673966
 30
0.0
 40
0.2
100
AcDbArc
 50
156.3870539986159
 51
242.6589770004399
  0
ARC
  5
29018
330
1E
100
AcDbEntity
  8
躯体と製品
  6
Continuous
 62
     3
100
AcDbCircle
 10
23615.83754890843
 20
3740.839698673968
 30
0.0
 40
0.2
100
AcDbArc
 50
179.9999940002391
 51
269.9999969984521
  0
LINE
  5
29019
330
1E
100
AcDbEntity
  8
躯体と製品
  6
Continuous
 62
     3
100
AcDbLine
 10
23618.00954890845
 20
3743.891698673964
 30
0.0
 11
23618.25354890846
 21
3743.891698673964
 31
0.0
  0
LINE
  5
2901A
330
1E
100
AcDbEntity
  8
躯体と製品
  6
Continuous
 62
     3
100
AcDbLine
 10
23617.43754890847
 20
3740.874698673972
 30
0.0
 11
23616.28454890848
 21
3740.638698673967
 31
0.0
  0
LINE
  5
2901B
330
1E
100
AcDbEntity
  8
躯体と製品
  6
Continuous
 62
     3
100
AcDbLine
 10
23618.06554890844
 20
3742.007698673973
 30
0.0
 11
23618.16454890848
 21
3741.955698673963
 31
0.0
  0
LINE
  5
2901C
330
1E
100
AcDbEntity
  8
躯体と製品
  6
Continuous
 62
     3
100
AcDbLine
 10
23616.28454890848
 20
3740.638698673967
 30
0.0
 11
23615.83754890843
 21
3740.639698673971
 31
0.0
  0
LINE
  5
2901D
330
1E
100
AcDbEntity
  8
躯体と製品
  6
Continuous
 62
     3
100
AcDbLine
 10
23617.80954890844
 20
3744.091698651275
 30
0.0
 11
23617.80954890844
 21
3744.63969865127
 31
0.0
  0
LINE
  5
2901E
330
1E
100
AcDbEntity
  8
躯体と製品
  6
Continuous
 62
     3
100
AcDbLine
 10
23617.80954890844
 20
3744.090698673972
 30
0.0
 11
23617.80954890844
 21
3744.639698673971
 31
0.0
  0
LINE
  5
2901F
330
1E
100
AcDbEntity
  8
躯体と製品
  6
Continuous
 62
     3
100
AcDbLine
 10
23617.80954890844
 20
3745.188698651269
 30
0.0
 11
23617.80954890844
 21
3744.63969865127
 31
0.0
  0
LINE
  5
29020
330
1E
100
AcDbEntity
  8
躯体と製品
  6
Continuous
 62
     3
100
AcDbLine
 10
23617.43754890847
 20
3748.40469865127
 30
0.0
 11
23617.43754890847
 21
3744.63969865127
 31
0.0
  0
ARC
  5
29021
330
1E
100
AcDbEntity
  8
躯体と製品
  6
Continuous
 62
     3
100
AcDbCircle
 10
23613.85332905013
 20
3745.187988529535
 30
0.0
 40
4.815999999999999
100
AcDbArc
 50
353.4628412382885
 51
41.90684999940254
  0
LINE
  5
29022
330
1E
100
AcDbEntity
  8
躯体と製品
  6
Continuous
 62
     3
100
AcDbLine
 10
23617.80954890844
 20
3745.187698673966
 30
0.0
 11
23617.80954890844
 21
3744.639698673971
 31
0.0
  0
LINE
  5
29023
330
1E
100
AcDbEntity
  8
躯体と製品
  6
Continuous
 62
     3
100
AcDbLine
 10
23618.73754876346
 20
3757.639698582483
 30
0.0
 11
23618.73754876346
 21
3751.13969849913
 31
0.0
  0
LINE
  5
29024
330
1E
100
AcDbEntity
  8
躯体と製品
  6
Continuous
 62
     3
100
AcDbLine
 10
23619.93754876341
 20
3757.639698582483
 30
0.0
 11
23619.93754876341
 21
3751.139696534912
 31
0.0
  0
LWPOLYLINE
  5
29025
330
1E
100
AcDbEntity
  8
躯体と製品
  6
Continuous
 62
     4
100
AcDbPolyline
 90
        4
 70
     1
 43
0.0
 10
23549.43722694785
 20
4059.938398533401
 10
23551.73722694213
 20
4059.938398533401
 10
23551.73722694213
 20
4109.938398408386
 10
23549.43722694785
 20
4109.938398408386
  0
LINE
  5
29026
330
1E
100
AcDbEntity
  8
中心線
  6
CENTER1
 62
     7
100
AcDbLine
 10
23535.75546711129
 20
4084.938398470886
 30
0.0
 11
23597.93755043407
 21
4084.938398470886
 31
0.0
  0
LWPOLYLINE
  5
29027
330
1E
100
AcDbEntity
  8
躯体と製品
  6
Continuous
 62
     4
100
AcDbPolyline
 90
        2
 70
     0
 43
0.0
 10
23551.73722694213
 20
4092.938398450892
 10
23549.43722694785
 20
4092.938398450892
  0
LWPOLYLINE
  5
29028
330
1E
100
AcDbEntity
  8
躯体と製品
  6
Continuous
 62
     4
100
AcDbPolyline
 90
        2
 70
     0
 43
0.0
 10
23551.73722694213
 20
4076.938398490895
 10
23549.43722694785
 20
4076.938398490895
  0
LWPOLYLINE
  5
29029
330
1E
100
AcDbEntity
  8
躯体と製品
  6
Continuous
 62
     4
100
AcDbPolyline
 90
        6
 70
     0
 43
0.0
 10
23551.73722694213
 20
4074.938398495887
 10
23554.37741133517
 20
4077.138552156774
 42
0.2225848818878075
 10
23554.73722693463
 20
4077.90677343446
 10
23554.73722693463
 20
4091.970023507328
 42
0.222584881887805
 10
23554.37741133517
 20
4092.738244785013
 10
23551.73722694213
 20
4094.938398445886
  0
LINE
  5
2902B
330
1E
100
AcDbEntity
  8
躯体と製品
  6
Continuous
 62
     3
100
AcDbLine
 10
23619.93754876341
 20
4028.139698582483
 30
0.0
 11
23619.93754876341
 21
4021.639698582482
 31
0.0
  0
LINE
  5
2902C
330
1E
100
AcDbEntity
  8
躯体と製品
  6
Continuous
 62
     3
100
AcDbLine
 10
23618.73754876346
 20
4028.139698582483
 30
0.0
 11
23618.73754876346
 21
4021.639698582482
 31
0.0
  0
LINE
  5
2902D
330
1E
100
AcDbEntity
  8
躯体と製品
  6
Continuous
 62
     3
100
AcDbLine
 10
23618.73754876346
 20
4021.639698582482
 30
0.0
 11
23619.93754876341
 21
4021.639698582482
 31
0.0
  0
LINE
  5
2902E
330
1E
100
AcDbEntity
  8
中心線
  6
CENTER1
 62
     7
100
AcDbLine
 10
23603.68754941045
 20
4034.639698422223
 30
0.0
 11
23634.40854926344
 21
4034.639698422223
 31
0.0
  0
LINE
  5
2902F
330
1E
100
AcDbEntity
  8
躯体と製品
  6
Continuous
 62
     3
100
AcDbLine
 10
23619.93754876341
 20
4047.639698582483
 30
0.0
 11
23619.93754876341
 21
4041.139696534911
 31
0.0
  0
LINE
  5
29030
330
1E
100
AcDbEntity
  8
躯体と製品
  6
Continuous
 62
     3
100
AcDbLine
 10
23618.73754876346
 20
4047.639698582483
 30
0.0
 11
23618.73754876346
 21
4041.139698499129
 31
0.0
  0
LINE
  5
29031
330
1E
100
AcDbEntity
  8
躯体と製品
  6
Continuous
 62
     3
100
AcDbLine
 10
23617.80954890844
 20
4035.187698673966
 30
0.0
 11
23617.80954890844
 21
4034.639698673971
 31
0.0
  0
ARC
  5
29032
330
1E
100
AcDbEntity
  8
躯体と製品
  6
Continuous
 62
     3
100
AcDbCircle
 10
23613.85332905013
 20
4035.187988529535
 30
0.0
 40
4.815999999999999
100
AcDbArc
 50
353.4628412382885
 51
41.90684999940254
  0
LINE
  5
29033
330
1E
100
AcDbEntity
  8
躯体と製品
  6
Continuous
 62
     3
100
AcDbLine
 10
23617.43754890847
 20
4038.404698651269
 30
0.0
 11
23617.43754890847
 21
4034.63969865127
 31
0.0
  0
LINE
  5
29034
330
1E
100
AcDbEntity
  8
躯体と製品
  6
Continuous
 62
     3
100
AcDbLine
 10
23617.80954890844
 20
4035.188698651269
 30
0.0
 11
23617.80954890844
 21
4034.63969865127
 31
0.0
  0
LINE
  5
29035
330
1E
100
AcDbEntity
  8
躯体と製品
  6
Continuous
 62
     3
100
AcDbLine
 10
23617.80954890844
 20
4034.090698673971
 30
0.0
 11
23617.80954890844
 21
4034.639698673971
 31
0.0
  0
LINE
  5
29036
330
1E
100
AcDbEntity
  8
躯体と製品
  6
Continuous
 62
     3
100
AcDbLine
 10
23617.80954890844
 20
4034.091698651274
 30
0.0
 11
23617.80954890844
 21
4034.63969865127
 31
0.0
  0
LINE
  5
29037
330
1E
100
AcDbEntity
  8
躯体と製品
  6
Continuous
 62
     3
100
AcDbLine
 10
23616.28454890848
 20
4030.638698673967
 30
0.0
 11
23615.83754890843
 21
4030.639698673971
 31
0.0
  0
LINE
  5
29038
330
1E
100
AcDbEntity
  8
躯体と製品
  6
Continuous
 62
     3
100
AcDbLine
 10
23618.06554890844
 20
4032.007698673973
 30
0.0
 11
23618.16454890848
 21
4031.955698673963
 31
0.0
  0
LINE
  5
29039
330
1E
100
AcDbEntity
  8
躯体と製品
  6
Continuous
 62
     3
100
AcDbLine
 10
23617.43754890847
 20
4030.874698673971
 30
0.0
 11
23616.28454890848
 21
4030.638698673967
 31
0.0
  0
LINE
  5
2903A
330
1E
100
AcDbEntity
  8
躯体と製品
  6
Continuous
 62
     3
100
AcDbLine
 10
23618.00954890845
 20
4033.891698673964
 30
0.0
 11
23618.25354890846
 21
4033.891698673964
 31
0.0
  0
ARC
  5
2903B
330
1E
100
AcDbEntity
  8
躯体と製品
  6
Continuous
 62
     3
100
AcDbCircle
 10
23615.83754890843
 20
4030.839698673967
 30
0.0
 40
0.2
100
AcDbArc
 50
179.9999940002391
 51
269.9999969984521
  0
ARC
  5
2903C
330
1E
100
AcDbEntity
  8
躯体と製品
  6
Continuous
 62
     3
100
AcDbCircle
 10
23618.15654890845
 20
4032.183698673965
 30
0.0
 40
0.2
100
AcDbArc
 50
156.3870539986159
 51
242.6589770004399
  0
ARC
  5
2903D
330
1E
100
AcDbEntity
  8
躯体と製品
  6
Continuous
 62
     3
100
AcDbCircle
 10
23618.25354890846
 20
4033.791698673972
 30
0.0
 40
0.1
100
AcDbArc
 50
355.3800760000814
 51
90.00000299821293
  0
LINE
  5
2903E
330
1E
100
AcDbEntity
  8
躯体と製品
  6
Continuous
 62
     3
100
AcDbLine
 10
23617.97354890849
 20
4032.263698673967
 30
0.0
 11
23618.08954890847
 21
4032.539698673965
 31
0.0
  0
LINE
  5
2903F
330
1E
100
AcDbEntity
  8
躯体と製品
  6
Continuous
 62
     3
100
AcDbLine
 10
23618.08954890847
 20
4032.539698673965
 30
0.0
 11
23618.22554890847
 21
4032.99169867397
 31
0.0
  0
LINE
  5
29040
330
1E
100
AcDbEntity
  8
躯体と製品
  6
Continuous
 62
     3
100
AcDbLine
 10
23618.22554890847
 20
4032.99169867397
 30
0.0
 11
23618.32554890844
 21
4033.467698673965
 31
0.0
  0
LINE
  5
29041
330
1E
100
AcDbEntity
  8
躯体と製品
  6
Continuous
 62
     3
100
AcDbLine
 10
23618.32554890844
 20
4033.467698673965
 30
0.0
 11
23618.35254890845
 21
4033.78369867397
 31
0.0
  0
LINE
  5
29042
330
1E
100
AcDbEntity
  8
躯体と製品
  6
Continuous
 62
     3
100
AcDbLine
 10
23618.23754876346
 20
4029.83969858248
 30
0.0
 11
23616.13654888981
 21
4029.839699662654
 31
0.0
  0
ARC
  5
29043
330
1E
100
AcDbEntity
  8
躯体と製品
  6
Continuous
 62
     3
100
AcDbCircle
 10
23618.23754876346
 20
4028.139698582483
 30
0.0
 40
1.7
100
AcDbArc
 50
0.0
 51
90.0
  0
LINE
  5
29044
330
1E
100
AcDbEntity
  8
躯体と製品
  6
Continuous
 62
     3
100
AcDbLine
 10
23618.23754876346
 20
4028.639698582483
 30
0.0
 11
23616.13754882146
 21
4028.639698662621
 31
0.0
  0
ARC
  5
29045
330
1E
100
AcDbEntity
  8
躯体と製品
  6
Continuous
 62
     3
100
AcDbCircle
 10
23618.23754876346
 20
4028.139698582483
 30
0.0
 40
0.5
100
AcDbArc
 50
0.0
 51
90.0
  0
ARC
  5
29046
330
1E
100
AcDbEntity
  8
躯体と製品
  6
Continuous
 62
     3
100
AcDbCircle
 10
23616.13754891046
 20
4030.339698662618
 30
0.0
 40
0.5
100
AcDbArc
 50
180.0000059997609
 51
269.885405997914
  0
LINE
  5
29047
330
1E
100
AcDbEntity
  8
躯体と製品
  6
Continuous
 62
     3
100
AcDbLine
 10
23617.43754890847
 20
4030.874698673971
 30
0.0
 11
23617.43754890847
 21
4034.639698673971
 31
0.0
  0
ARC
  5
29048
330
1E
100
AcDbEntity
  8
躯体と製品
  6
Continuous
 62
     3
100
AcDbCircle
 10
23618.00954890845
 20
4034.090698673971
 30
0.0
 40
0.2
100
AcDbArc
 50
179.9999940002391
 51
269.9999969984521
  0
ARC
  5
29049
330
1E
100
AcDbEntity
  8
躯体と製品
  6
Continuous
 62
     3
100
AcDbCircle
 10
23613.85332905013
 20
4034.091408795705
 30
0.0
 40
4.815999999999999
100
AcDbArc
 50
318.0931500005973
 51
6.537158761711621
  0
LINE
  5
2904A
330
1E
100
AcDbEntity
  8
躯体と製品
  6
Continuous
 62
     3
100
AcDbLine
 10
23618.23754876346
 20
4039.439696534915
 30
0.0
 11
23616.10593968817
 21
4039.439696534915
 31
0.0
  0
LINE
  5
2904B
330
1E
100
AcDbEntity
  8
躯体と製品
  6
Continuous
 62
     3
100
AcDbLine
 10
23618.23727113993
 20
4040.639698576196
 30
0.0
 11
23616.07924999384
 21
4040.639698581988
 31
0.0
  0
ARC
  5
2904C
330
1E
100
AcDbEntity
  8
躯体と製品
  6
Continuous
 62
     3
100
AcDbCircle
 10
23618.23754876346
 20
4041.139698499129
 30
0.0
 40
0.5
100
AcDbArc
 50
269.9681866880938
 51
0.0
  0
LINE
  5
2904D
330
1E
100
AcDbEntity
  8
躯体と製品
  6
Continuous
 62
     3
100
AcDbLine
 10
23618.32554890844
 20
4035.811698651276
 30
0.0
 11
23618.35254890845
 21
4035.49569865127
 31
0.0
  0
LINE
  5
2904E
330
1E
100
AcDbEntity
  8
躯体と製品
  6
Continuous
 62
     3
100
AcDbLine
 10
23618.22554890847
 20
4036.28769865127
 30
0.0
 11
23618.32554890844
 21
4035.811698651276
 31
0.0
  0
LINE
  5
2904F
330
1E
100
AcDbEntity
  8
躯体と製品
  6
Continuous
 62
     3
100
AcDbLine
 10
23618.08954890847
 20
4036.739698651276
 30
0.0
 11
23618.22554890847
 21
4036.28769865127
 31
0.0
  0
LINE
  5
29050
330
1E
100
AcDbEntity
  8
躯体と製品
  6
Continuous
 62
     3
100
AcDbLine
 10
23617.97354890849
 20
4037.015698651273
 30
0.0
 11
23618.08954890847
 21
4036.739698651276
 31
0.0
  0
ARC
  5
29051
330
1E
100
AcDbEntity
  8
躯体と製品
  6
Continuous
 62
     3
100
AcDbCircle
 10
23618.25354890846
 20
4035.487698651269
 30
0.0
 40
0.1
100
AcDbArc
 50
269.9999969984521
 51
4.6199239999185
  0
ARC
  5
29052
330
1E
100
AcDbEntity
  8
躯体と製品
  6
Continuous
 62
     3
100
AcDbCircle
 10
23618.15654890845
 20
4037.095698651276
 30
0.0
 40
0.2
100
AcDbArc
 50
117.3410229995599
 51
203.6129460013841
  0
ARC
  5
29053
330
1E
100
AcDbEntity
  8
躯体と製品
  6
Continuous
 62
     3
100
AcDbCircle
 10
23615.83754890843
 20
4038.439698651273
 30
0.0
 40
0.2
100
AcDbArc
 50
90.00000299821293
 51
180.0000059997609
  0
ARC
  5
29054
330
1E
100
AcDbEntity
  8
躯体と製品
  6
Continuous
 62
     3
100
AcDbCircle
 10
23618.00954890845
 20
4035.188698651269
 30
0.0
 40
0.2
100
AcDbArc
 50
90.00000299821293
 51
180.0000059997609
  0
LINE
  5
29055
330
1E
100
AcDbEntity
  8
躯体と製品
  6
Continuous
 62
     3
100
AcDbLine
 10
23618.00954890845
 20
4035.387698651276
 30
0.0
 11
23618.25354890846
 21
4035.387698651276
 31
0.0
  0
LINE
  5
29056
330
1E
100
AcDbEntity
  8
躯体と製品
  6
Continuous
 62
     3
100
AcDbLine
 10
23617.43754890847
 20
4038.404698651269
 30
0.0
 11
23616.28454890848
 21
4038.640698651273
 31
0.0
  0
LINE
  5
29057
330
1E
100
AcDbEntity
  8
躯体と製品
  6
Continuous
 62
     3
100
AcDbLine
 10
23618.06554890844
 20
4037.271698651268
 30
0.0
 11
23618.16454890848
 21
4037.323698651278
 31
0.0
  0
LINE
  5
29058
330
1E
100
AcDbEntity
  8
躯体と製品
  6
Continuous
 62
     3
100
AcDbLine
 10
23616.28454890848
 20
4038.640698651273
 30
0.0
 11
23615.83754890843
 21
4038.63969865127
 31
0.0
  0
ARC
  5
29059
330
1E
100
AcDbEntity
  8
躯体と製品
  6
Continuous
 62
     3
100
AcDbCircle
 10
23618.23754876346
 20
4041.139696534911
 30
0.0
 40
1.7
100
AcDbArc
 50
270.0
 51
0.0
  0
ARC
  5
2905A
330
1E
100
AcDbEntity
  8
躯体と製品
  6
Continuous
 62
     3
100
AcDbCircle
 10
23616.13754791453
 20
4038.940696615042
 30
0.0
 40
0.5
100
AcDbArc
 50
93.62445275446685
 51
180.1143570002185
  0
LWPOLYLINE
  5
2905B
330
1E
100
AcDbEntity
  8
躯体と製品
  6
Continuous
 62
     3
100
AcDbPolyline
 90
        4
 70
     1
 43
0.0
 10
23615.63754891046
 20
4030.339698662618
 10
23608.63754891046
 20
4030.339698662618
 10
23608.63754891046
 20
4038.939698662623
 10
23615.63754891046
 20
4038.939698662623
  0
ARC
  5
2905C
330
1E
100
AcDbEntity
  8
躯体と製品
  6
Continuous
 62
     3
100
AcDbCircle
 10
23616.13754891046
 20
4030.339698662618
 30
0.0
 40
1.7
100
AcDbArc
 50
180.0000059997609
 51
269.9999969984521
  0
ARC
  5
2905D
330
1E
100
AcDbEntity
  8
躯体と製品
  6
Continuous
 62
     3
100
AcDbCircle
 10
23616.13754861639
 20
4038.940698502353
 30
0.0
 40
1.7
100
AcDbArc
 50
91.96524710649606
 51
180.0336980000293
  0
LINE
  5
2905E
330
1E
100
AcDbEntity
  8
躯体と製品
  6
Continuous
 62
     3
100
AcDbLine
 10
23618.73754876346
 20
4047.639698582483
 30
0.0
 11
23619.93754876341
 21
4047.639698582483
 31
0.0
  0
TEXT
  5
2905F
330
1E
100
AcDbEntity
  8
文字-記号
  6
Continuous
 62
     7
100
AcDbText
 10
23647.67004146252
 20
3892.597993561838
 30
0.0
 40
9.0
  1
ＳＡテープ
 11
23647.67004146252
 21
3891.397993561838
 31
0.0
100
AcDbText
 73
     1
  0
TEXT
  5
29060
330
1E
100
AcDbEntity
  8
文字-記号
  6
Continuous
 62
     7
100
AcDbText
 10
23649.23550449088
 20
4088.269217950528
 30
0.0
 40
9.0
  1
固定金具
 11
23649.23550449088
 21
4087.069217950527
 31
0.0
100
AcDbText
 73
     1
  0
TEXT
  5
29068
330
1E
100
AcDbEntity
  8
文字-記号
  6
Continuous
 62
     7
100
AcDbText
 10
23664.79643996369
 20
3993.158569892733
 30
0.0
 40
9.0
  1
壁面板（オープンタイプ）
 11
23664.79643996369
 21
3991.958569892733
 31
0.0
100
AcDbText
 73
     1
  0
TEXT
  5
29069
330
1E
100
AcDbEntity
  8
文字-記号
  6
Continuous
 62
     7
100
AcDbText
 10
23686.70938843591
 20
3980.445628630182
 30
0.0
 40
9.0
  1
面幅 ２９０ １５t
 11
23686.70938843591
 21
3979.245628630182
 31
0.0
100
AcDbText
 73
     1
  0
LWPOLYLINE
  5
2906A
330
1E
100
AcDbEntity
  8
文字-記号
  6
Continuous
 62
     7
 48
3.0
100
AcDbPolyline
 90
        3
 70
     0
 43
0.0
 10
23629.43754926342
 20
3922.772750770593
 10
23659.61258358893
 20
3975.037443342466
 10
23801.01411184067
 20
3975.037443342466
  0
LWPOLYLINE
  5
2906C
330
1E
100
AcDbEntity
  8
躯体と製品
  6
Continuous
 62
     4
100
AcDbPolyline
 90
       10
 70
     0
 43
0.0
 10
23629.43754926342
 20
4204.938398470886
 10
23629.43754926342
 20
4029.939698422225
 10
23625.93754926342
 20
4029.939698422225
 10
23622.33754926344
 20
4039.33969842222
 10
23620.13754926343
 20
4039.33969842222
 10
23620.13754926343
 20
4047.639698422222
 10
23618.63754926343
 20
4047.639698422222
 10
23618.63754926343
 20
4040.639698422222
 10
23614.43754926342
 20
4040.639698422222
 10
23614.43754926342
 20
4204.938398470886
  0
LWPOLYLINE
  5
290A7
330
1E
100
AcDbEntity
  8
文字-記号
  6
Continuous
 62
     7
 48
3.0
100
AcDbPolyline
 90
        3
 70
     0
 43
0.0
 10
23613.62384677446
 20
3841.959582153322
 10
23641.59433246113
 20
3890.405884474989
 10
23705.32405181592
 20
3890.405884474989
  0
LWPOLYLINE
  5
290A8
330
1E
100
AcDbEntity
  8
躯体と製品
  6
Continuous
 62
     4
100
AcDbPolyline
 90
        2
 70
     0
 43
0.0
 10
23586.13754876342
 20
4204.938398470886
 10
23586.13754876342
 20
3694.938398470887
  0
LWPOLYLINE
  5
290A9
330
1E
100
AcDbEntity
  8
躯体と製品
  6
Continuous
 62
     4
100
AcDbPolyline
 90
        2
 70
     0
 43
0.0
 10
23583.43754876341
 20
4204.938398470886
 10
23583.43754876341
 20
3694.938398470887
  0
LINE
  5
290AB
330
1E
100
AcDbEntity
  8
躯体と製品
  6
Continuous
 62
     4
100
AcDbLine
 10
23554.73722693463
 20
4089.938398458386
 30
0.0
 11
23577.4375487776
 21
4089.938398473977
 31
0.0
  0
LINE
  5
290AC
330
1E
100
AcDbEntity
  8
躯体と製品
  6
Continuous
 62
     4
100
AcDbLine
 10
23554.73722693463
 20
4088.938398460889
 30
0.0
 11
23577.43754877761
 21
4088.938398460888
 31
0.0
  0
LINE
  5
290AD
330
1E
100
AcDbEntity
  8
躯体と製品
  6
Continuous
 62
     4
100
AcDbLine
 10
23554.73722693463
 20
4079.938398483402
 30
0.0
 11
23577.4375487776
 21
4079.938398467791
 31
0.0
  0
LINE
  5
290AE
330
1E
100
AcDbEntity
  8
躯体と製品
  6
Continuous
 62
     4
100
AcDbLine
 10
23554.73722693463
 20
4080.938398994391
 30
0.0
 11
23577.4375487776
 21
4080.938398341448
 31
0.0
  0
LWPOLYLINE
  5
290BC
330
1E
100
AcDbEntity
  8
文字-記号
  6
Continuous
 62
     7
100
AcDbPolyline
 90
        3
 70
   128
 43
0.0
 10
23577.43754877761
 20
3823.318950169042
 10
23538.00703001271
 20
3888.563078990105
 10
23486.00154777926
 20
3888.563078990105
  0
LINE
  5
290BD
330
1E
100
AcDbEntity
  8
躯体と製品
  6
Continuous
 62
     4
100
AcDbLine
 10
23577.43754877761
 20
4121.938398378395
 30
0.0
 11
23577.43754877761
 21
4047.938398563393
 31
0.0
  0
LINE
  5
290BE
330
1E
100
AcDbEntity
  8
躯体と製品
  6
Continuous
 62
     4
100
AcDbLine
 10
23583.4375487626
 20
4050.938398555898
 30
0.0
 11
23583.4375487626
 21
4118.938398385888
 31
0.0
  0
ARC
  5
290BF
330
1E
100
AcDbEntity
  8
躯体と製品
  6
Continuous
 62
     4
100
AcDbCircle
 10
23580.43754877011
 20
4050.938398555898
 30
0.0
 40
2.99999999249997
100
AcDbArc
 50
269.9999969984521
 51
0.0
  0
LINE
  5
290C0
330
1E
100
AcDbEntity
  8
躯体と製品
  6
Continuous
 62
     4
100
AcDbLine
 10
23577.43754877761
 20
4047.938398563393
 30
0.0
 11
23580.43754877011
 21
4047.938398563393
 31
0.0
  0
ARC
  5
290C1
330
1E
100
AcDbEntity
  8
躯体と製品
  6
Continuous
 62
     4
100
AcDbCircle
 10
23580.43754877011
 20
4118.938398385888
 30
0.0
 40
2.99999999249997
100
AcDbArc
 50
0.0
 51
90.00000299821293
  0
LINE
  5
290C2
330
1E
100
AcDbEntity
  8
躯体と製品
  6
Continuous
 62
     4
100
AcDbLine
 10
23577.43754877761
 20
4121.938398378395
 30
0.0
 11
23580.43754877011
 21
4121.938398378395
 31
0.0
  0
LINE
  5
29156
330
1E
100
AcDbEntity
  8
躯体と製品
  6
Continuous
 62
     4
100
AcDbLine
 10
23549.43303712485
 20
3747.132515707717
 30
0.0
 11
23499.43288495724
 21
3697.13703022096
 31
0.0
  0
LINE
  5
29157
330
1E
100
AcDbEntity
  8
躯体と製品
  6
Continuous
 62
     4
100
AcDbLine
 10
23549.43308998977
 20
3764.50156748434
 30
0.0
 11
23499.43293782215
 21
3714.506081997563
 31
0.0
  0
LINE
  5
29158
330
1E
100
AcDbEntity
  8
躯体と製品
  6
Continuous
 62
     4
100
AcDbLine
 10
23549.43314288124
 20
3781.879342462126
 30
0.0
 11
23499.43299069942
 21
3731.879190280305
 31
0.0
  0
LINE
  5
29159
330
1E
100
AcDbEntity
  8
躯体と製品
  6
Continuous
 62
     4
100
AcDbLine
 10
23549.43303712485
 20
4269.386637369728
 30
0.0
 11
23499.43288495724
 21
4219.39115188297
 31
0.0
  0
LINE
  5
2915A
330
1E
100
AcDbEntity
  8
躯体と製品
  6
Continuous
 62
     4
100
AcDbLine
 10
23549.43308998977
 20
4286.75568914635
 30
0.0
 11
23499.43293782216
 21
4236.760203659574
 31
0.0
  0
LINE
  5
2915B
330
1E
100
AcDbEntity
  8
躯体と製品
  6
Continuous
 62
     4
100
AcDbLine
 10
23549.43314288124
 20
4304.133464124137
 30
0.0
 11
23499.43299069943
 21
4254.133311942316
 31
0.0
  0
LWPOLYLINE
  5
29161
330
1E
100
AcDbEntity
  8
文字-記号
  6
Continuous
 62
     7
100
AcDbPolyline
 90
        3
 70
   128
 43
0.0
 10
23603.36519503472
 20
3763.127331850395
 10
23644.10389246309
 20
3833.688825630496
 10
23682.95189399908
 20
3833.688825630496
  0
TEXT
  5
29162
330
1E
100
AcDbEntity
  8
文字-記号
  6
Continuous
 62
     7
100
AcDbText
 10
23649.23550449088
 20
3836.61300013673
 30
0.0
 40
9.0
  1
間柱鋼
 11
23649.23550449088
 21
3835.41300013673
 31
0.0
100
AcDbText
 73
     1
  0
TEXT
  5
29166
330
1E
100
AcDbEntity
  8
文字-記号
  6
Continuous
 62
     7
100
AcDbText
 10
23490.34251597552
 20
3892.18203744879
 30
0.0
 40
9.0
  1
スタンド
 11
23490.34251597552
 21
3890.98203744879
 31
0.0
100
AcDbText
 73
     1
  0
LWPOLYLINE
  5
2923E
330
1E
100
AcDbEntity
  8
躯体と製品
  6
Continuous
 62
     4
100
AcDbPolyline
 90
        7
 70
     0
 43
0.0
 10
23552.43722689278
 20
4234.938398470887
 10
23552.43722689278
 20
4214.938398470887
 10
23639.43754926342
 20
4214.938398470887
 10
23639.43754926342
 20
4224.938398470886
 10
23629.43754926342
 20
4224.938398470886
 10
23629.43754926342
 20
4234.938398470887
 10
23552.43722689279
 20
4234.938398483968
  0
LWPOLYLINE
  5
2923F
330
1E
100
AcDbEntity
  8
躯体と製品
  6
Continuous
 62
     4
100
AcDbPolyline
 90
        9
 70
     0
 43
0.0
 10
23629.43754926342
 20
4234.938398470887
 10
23629.43754926342
 20
4224.938398470886
 10
23639.43754926342
 20
4224.938398470886
 10
23639.43754926342
 20
4214.938398470887
 10
23629.43754926342
 20
4214.938398470887
 10
23629.43754926342
 20
4139.938398470887
 10
23649.43754926342
 20
4139.938398470887
 10
23649.43754926342
 20
4234.938398470887
 10
23629.43754926342
 20
4234.938398470887
  0
LWPOLYLINE
  5
29241
330
1E
100
AcDbEntity
  8
躯体と製品
  6
Continuous
 62
     4
100
AcDbPolyline
 90
        2
 70
     0
 43
0.0
 10
23614.43754926342
 20
4204.938398470886
 10
23629.43754926342
 20
4204.938398470886
  0
LWPOLYLINE
  5
29242
330
1E
100
AcDbEntity
  8
躯体と製品
  6
Continuous
 62
     4
100
AcDbPolyline
 90
        8
 70
     1
 43
0.0
 10
23582.8375504349
 20
4172.738398471372
 10
23583.43755043488
 20
4172.738398471372
 10
23583.43755043488
 20
4212.738398471372
 10
23612.43755043489
 20
4212.738398471372
 10
23612.43755043489
 20
4182.738398471371
 10
23613.03755043492
 20
4182.738398471371
 10
23613.03755043492
 20
4213.338398471377
 10
23582.8375504349
 20
4213.338398471377
  0
LWPOLYLINE
  5
29243
330
1E
100
AcDbEntity
  8
中心線
  6
CENTER1
 62
     7
100
AcDbPolyline
 90
        2
 70
     0
 43
0.0
 10
23597.93755043488
 20
4224.938398470886
 10
23597.93755043488
 20
4198.060032814243
  0
LWPOLYLINE
  5
29247
330
1E
100
AcDbEntity
  8
躯体と製品
  6
Continuous
 62
     3
100
AcDbPolyline
 90
        6
 70
     1
 43
0.0
 10
23614.4372268887
 20
4214.938398471377
 10
23614.4372268887
 20
4213.338398471377
 10
23551.0372268887
 20
4213.338398471377
 10
23551.0372268887
 20
4164.938398471377
 10
23549.4372268887
 20
4164.938398471377
 10
23549.4372268887
 20
4214.938398471377
  0
LWPOLYLINE
  5
29248
330
1E
100
AcDbEntity
  8
躯体と製品
  6
Continuous
 62
     4
100
AcDbPolyline
 90
        2
 70
     0
 43
0.0
 10
23614.43754926342
 20
4204.938398470886
 10
23613.03755043492
 20
4204.938398470886
  0
LWPOLYLINE
  5
29249
330
1E
100
AcDbEntity
  8
躯体と製品
  6
Continuous
 62
     4
100
AcDbPolyline
 90
        2
 70
     0
 43
0.0
 10
23612.43755043489
 20
4204.938398470886
 10
23583.43755043488
 20
4204.938398470886
  0
LWPOLYLINE
  5
2924A
330
1E
100
AcDbEntity
  8
躯体と製品
  6
Continuous
 62
     4
100
AcDbPolyline
 90
        4
 70
     1
 43
0.0
 10
23549.43722694785
 20
3779.938398533402
 10
23551.73722694213
 20
3779.938398533402
 10
23551.73722694213
 20
3829.938398408386
 10
23549.43722694785
 20
3829.938398408386
  0
LINE
  5
2924B
330
1E
100
AcDbEntity
  8
中心線
  6
CENTER1
 62
     7
100
AcDbLine
 10
23535.75546711129
 20
3804.938398470887
 30
0.0
 11
23597.93755043407
 21
3804.938398470887
 31
0.0
  0
LWPOLYLINE
  5
2924C
330
1E
100
AcDbEntity
  8
躯体と製品
  6
Continuous
 62
     4
100
AcDbPolyline
 90
        2
 70
     0
 43
0.0
 10
23551.73722694213
 20
3812.938398450893
 10
23549.43722694785
 20
3812.938398450893
  0
LWPOLYLINE
  5
2924D
330
1E
100
AcDbEntity
  8
躯体と製品
  6
Continuous
 62
     4
100
AcDbPolyline
 90
        2
 70
     0
 43
0.0
 10
23551.73722694213
 20
3796.938398490896
 10
23549.43722694785
 20
3796.938398490896
  0
LWPOLYLINE
  5
2924E
330
1E
100
AcDbEntity
  8
躯体と製品
  6
Continuous
 62
     4
100
AcDbPolyline
 90
        6
 70
     0
 43
0.0
 10
23551.73722694213
 20
3794.938398495887
 10
23554.37741133517
 20
3797.138552156775
 42
0.2225848818878075
 10
23554.73722693463
 20
3797.90677343446
 10
23554.73722693463
 20
3811.970023507328
 42
0.222584881887805
 10
23554.37741133517
 20
3812.738244785013
 10
23551.73722694213
 20
3814.938398445887
  0
LINE
  5
2924F
330
1E
100
AcDbEntity
  8
躯体と製品
  6
Continuous
 62
     4
100
AcDbLine
 10
23554.73722693463
 20
3809.938398458387
 30
0.0
 11
23577.4375487776
 21
3809.938398473978
 31
0.0
  0
LINE
  5
29250
330
1E
100
AcDbEntity
  8
躯体と製品
  6
Continuous
 62
     4
100
AcDbLine
 10
23554.73722693463
 20
3808.93839846089
 30
0.0
 11
23577.43754877761
 21
3808.938398460889
 31
0.0
  0
LINE
  5
29251
330
1E
100
AcDbEntity
  8
躯体と製品
  6
Continuous
 62
     4
100
AcDbLine
 10
23554.73722693463
 20
3799.938398483401
 30
0.0
 11
23577.4375487776
 21
3799.938398467792
 31
0.0
  0
LINE
  5
29252
330
1E
100
AcDbEntity
  8
躯体と製品
  6
Continuous
 62
     4
100
AcDbLine
 10
23554.73722693463
 20
3800.938398994392
 30
0.0
 11
23577.4375487776
 21
3800.938398341448
 31
0.0
  0
LINE
  5
29253
330
1E
100
AcDbEntity
  8
躯体と製品
  6
Continuous
 62
     4
100
AcDbLine
 10
23577.43754877761
 20
3841.938398378395
 30
0.0
 11
23577.43754877761
 21
3767.938398563393
 31
0.0
  0
LINE
  5
29254
330
1E
100
AcDbEntity
  8
躯体と製品
  6
Continuous
 62
     4
100
AcDbLine
 10
23583.4375487626
 20
3770.938398555899
 30
0.0
 11
23583.4375487626
 21
3838.938398385889
 31
0.0
  0
ARC
  5
29255
330
1E
100
AcDbEntity
  8
躯体と製品
  6
Continuous
 62
     4
100
AcDbCircle
 10
23580.43754877011
 20
3770.938398555899
 30
0.0
 40
2.99999999249997
100
AcDbArc
 50
269.9999969984521
 51
0.0
  0
LINE
  5
29256
330
1E
100
AcDbEntity
  8
躯体と製品
  6
Continuous
 62
     4
100
AcDbLine
 10
23577.43754877761
 20
3767.938398563393
 30
0.0
 11
23580.43754877011
 21
3767.938398563393
 31
0.0
  0
ARC
  5
29257
330
1E
100
AcDbEntity
  8
躯体と製品
  6
Continuous
 62
     4
100
AcDbCircle
 10
23580.43754877011
 20
3838.938398385889
 30
0.0
 40
2.99999999249997
100
AcDbArc
 50
0.0
 51
90.00000299821293
  0
LINE
  5
29258
330
1E
100
AcDbEntity
  8
躯体と製品
  6
Continuous
 62
     4
100
AcDbLine
 10
23577.43754877761
 20
3841.938398378395
 30
0.0
 11
23580.43754877011
 21
3841.938398378395
 31
0.0
  0
LWPOLYLINE
  5
2925A
330
1E
100
AcDbEntity
  8
文字-記号
  6
Continuous
 62
     7
100
AcDbPolyline
 90
        3
 70
   128
 43
0.0
 10
23645.70046953293
 20
4179.523388298272
 10
23674.16681308556
 20
4228.828541637136
 10
23723.79319805427
 20
4228.828541637136
  0
TEXT
  5
2925B
330
1E
100
AcDbEntity
  8
文字-記号
  6
Continuous
 62
     7
100
AcDbText
 10
23679.29842511335
 20
4231.752716143371
 30
0.0
 40
9.0
  1
見切り縁
 11
23679.29842511335
 21
4230.55271614337
 31
0.0
100
AcDbText
 73
     1
  0
LWPOLYLINE
  5
2925C
330
1E
100
AcDbEntity
  8
文字-記号
  6
Continuous
 62
     7
100
AcDbPolyline
 90
        3
 70
   128
 43
0.0
 10
23580.37036273708
 20
4214.163401244785
 10
23606.81584548127
 20
4259.968320988405
 10
23656.44223044998
 20
4259.968320988405
  0
TEXT
  5
2925D
330
1E
100
AcDbEntity
  8
文字-記号
  6
Continuous
 62
     7
100
AcDbText
 10
23611.94745750907
 20
4262.892495494639
 30
0.0
 40
9.0
  1
アングル
 11
23611.94745750907
 21
4261.69249549464
 31
0.0
100
AcDbText
 73
     1
  0
LWPOLYLINE
  5
2927B
330
1E
100
AcDbEntity
  8
中心線
  6
CENTER1
 62
     7
100
AcDbPolyline
 90
        2
 70
     0
 43
0.0
 10
23560.72005495741
 20
4189.938398471377
 10
23520.94055069417
 20
4189.938398471377
  0
LWPOLYLINE
  5
2927C
330
1E
100
AcDbEntity
  8
躯体と製品
  6
Continuous
 62
     3
100
AcDbPolyline
 90
        2
 70
     0
 43
0.0
 10
23551.0372268887
 20
4185.938398471376
 42
0.9999999999999998
 10
23551.0372268887
 20
4193.938398471376
  0
LWPOLYLINE
  5
2927D
330
1E
100
AcDbEntity
  8
躯体と製品
  6
PLINE2
 62
     3
100
AcDbPolyline
 90
        2
 70
     0
 43
0.0
 10
23526.03722938869
 20
4189.938398471377
 10
23528.03722938869
 20
4187.938398471376
  0
LWPOLYLINE
  5
2927E
330
1E
100
AcDbEntity
  8
躯体と製品
  6
PLINE2
 62
     3
100
AcDbPolyline
 90
        2
 70
     0
 43
0.0
 10
23528.03722938869
 20
4191.938398471377
 10
23526.03722938869
 20
4189.938398471377
  0
LWPOLYLINE
  5
2927F
330
1E
100
AcDbEntity
  8
躯体と製品
  6
PLINE2
 62
     3
100
AcDbPolyline
 90
        2
 70
     0
 43
0.0
 10
23528.03722938869
 20
4187.938398471376
 10
23551.0372268887
 20
4187.938398471376
  0
LWPOLYLINE
  5
29280
330
1E
100
AcDbEntity
  8
躯体と製品
  6
PLINE2
 62
     3
100
AcDbPolyline
 90
        2
 70
     0
 43
0.0
 10
23551.0372268887
 20
4191.938398471377
 10
23528.03722938869
 20
4191.938398471377
  0
LINE
  5
29368
330
1E
100
AcDbEntity
  8
躯体と製品
  6
PLINE2
 62
     3
100
AcDbLine
 10
23575.8372268876
 20
4216.032148484473
 30
0.0
 11
23572.03722688844
 21
4214.444648484825
 31
0.0
  0
LINE
  5
29369
330
1E
100
AcDbEntity
  8
躯体と製品
  6
PLINE2
 62
     3
100
AcDbLine
 10
23572.6872268883
 20
4213.986344137099
 30
0.0
 11
23575.8372268876
 21
4216.032148484473
 31
0.0
  0
LINE
  5
2936A
330
1E
100
AcDbEntity
  8
躯体と製品
  6
PLINE2
 62
     3
100
AcDbLine
 10
23575.18722688775
 20
4216.490452107561
 30
0.0
 11
23572.03722688844
 21
4214.444648484825
 31
0.0
  0
LINE
  5
2936B
330
1E
100
AcDbEntity
  8
躯体と製品
  6
PLINE2
 62
     3
100
AcDbLine
 10
23575.18722688775
 20
4214.902952107911
 30
0.0
 11
23572.03722688844
 21
4212.857148485173
 31
0.0
  0
LINE
  5
2936C
330
1E
100
AcDbEntity
  8
躯体と製品
  6
PLINE2
 62
     3
100
AcDbLine
 10
23575.8372268876
 20
4214.444648484825
 30
0.0
 11
23575.18722688775
 21
4214.902952107911
 31
0.0
  0
LINE
  5
2937E
330
1E
100
AcDbEntity
  8
躯体と製品
  6
PLINE2
 62
     3
100
AcDbLine
 10
23578.18722688709
 20
4234.238398480468
 30
0.0
 11
23577.01927616271
 21
4233.110521669123
 31
0.0
  0
LINE
  5
2937F
330
1E
100
AcDbEntity
  8
躯体と製品
  6
PLINE2
 62
     3
100
AcDbLine
 10
23578.18722688709
 20
4234.938398480315
 30
0.0
 11
23569.68722688896
 21
4234.938398480315
 31
0.0
  0
LINE
  5
29380
330
1E
100
AcDbEntity
  8
躯体と製品
  6
PLINE2
 62
     3
100
AcDbLine
 10
23569.68722688896
 20
4234.238398480468
 30
0.0
 11
23578.18722688709
 21
4234.238398480468
 31
0.0
  0
LINE
  5
29381
330
1E
100
AcDbEntity
  8
躯体と製品
  6
PLINE2
 62
     3
100
AcDbLine
 10
23575.8372268876
 20
4227.144648482028
 30
0.0
 11
23572.03722688844
 21
4225.557148482379
 31
0.0
  0
LINE
  5
29382
330
1E
100
AcDbEntity
  8
躯体と製品
  6
PLINE2
 62
     3
100
AcDbLine
 10
23572.6872268883
 20
4225.098844134654
 30
0.0
 11
23575.8372268876
 21
4227.144648482028
 31
0.0
  0
LINE
  5
29383
330
1E
100
AcDbEntity
  8
躯体と製品
  6
PLINE2
 62
     3
100
AcDbLine
 10
23575.18722688775
 20
4227.602952105117
 30
0.0
 11
23572.03722688844
 21
4225.557148482379
 31
0.0
  0
LINE
  5
29384
330
1E
100
AcDbEntity
  8
躯体と製品
  6
PLINE2
 62
     3
100
AcDbLine
 10
23575.18722688775
 20
4226.015452105467
 30
0.0
 11
23572.03722688844
 21
4223.969648482727
 31
0.0
  0
LINE
  5
29385
330
1E
100
AcDbEntity
  8
躯体と製品
  6
PLINE2
 62
     3
100
AcDbLine
 10
23575.8372268876
 20
4225.557148482379
 30
0.0
 11
23575.18722688775
 21
4226.015452105467
 31
0.0
  0
LINE
  5
29386
330
1E
100
AcDbEntity
  8
躯体と製品
  6
PLINE2
 62
     3
100
AcDbLine
 10
23570.8551768887
 20
4233.110521669123
 30
0.0
 11
23569.68722688896
 21
4234.238398480468
 31
0.0
  0
LINE
  5
29387
330
1E
100
AcDbEntity
  8
躯体と製品
  6
PLINE2
 62
     3
100
AcDbLine
 10
23569.68722688896
 20
4234.938398480315
 30
0.0
 11
23569.68722688896
 21
4234.238398480468
 31
0.0
  0
ARC
  5
29388
330
1E
100
AcDbEntity
  8
躯体と製品
  6
PLINE2
 62
     3
100
AcDbCircle
 10
23566.68722688961
 20
4228.794483264275
 30
0.0
 40
5.999999998679999
100
AcDbArc
 50
0.0
 51
46.00000000002527
  0
ARC
  5
29389
330
1E
100
AcDbEntity
  8
躯体と製品
  6
PLINE2
 62
     3
100
AcDbCircle
 10
23581.18722688643
 20
4228.794483264275
 30
0.0
 40
5.999999998679999
100
AcDbArc
 50
133.9999999999747
 51
180.0
  0
LINE
  5
293A4
330
1E
100
AcDbEntity
  8
躯体と製品
  6
PLINE2
 62
     3
100
AcDbLine
 10
23575.18722688775
 20
4228.460602104928
 30
0.0
 11
23572.03722688844
 21
4227.144648482028
 31
0.0
  0
LINE
  5
293A5
330
1E
100
AcDbEntity
  8
躯体と製品
  6
PLINE2
 62
     3
100
AcDbLine
 10
23572.6872268883
 20
4226.686344134305
 30
0.0
 11
23575.18722688775
 21
4228.460602104928
 31
0.0
  0
LINE
  5
293A6
330
1E
100
AcDbEntity
  8
躯体と製品
  6
PLINE2
 62
     3
100
AcDbLine
 10
23575.18722688775
 20
4228.460602104928
 30
0.0
 11
23572.6872268883
 21
4227.566798481937
 31
0.0
  0
LINE
  5
293A7
330
1E
100
AcDbEntity
  8
躯体と製品
  6
PLINE2
 62
     3
100
AcDbLine
 10
23572.6872268883
 20
4227.566798481937
 30
0.0
 11
23572.6872268883
 21
4228.794483264275
 31
0.0
  0
LINE
  5
293A8
330
1E
100
AcDbEntity
  8
躯体と製品
  6
PLINE2
 62
     3
100
AcDbLine
 10
23572.03722688844
 20
4227.144648482028
 30
0.0
 11
23572.6872268883
 21
4226.686344134305
 31
0.0
  0
LINE
  5
293A9
330
1E
100
AcDbEntity
  8
躯体と製品
  6
PLINE2
 62
     3
100
AcDbLine
 10
23572.6872268883
 20
4227.566798481937
 30
0.0
 11
23572.03722688844
 21
4227.144648482028
 31
0.0
  0
LINE
  5
293AA
330
1E
100
AcDbEntity
  8
躯体と製品
  6
PLINE2
 62
     3
100
AcDbLine
 10
23572.6872268883
 20
4225.979298482285
 30
0.0
 11
23572.6872268883
 21
4226.686344134305
 31
0.0
  0
LINE
  5
293AB
330
1E
100
AcDbEntity
  8
躯体と製品
  6
PLINE2
 62
     3
100
AcDbLine
 10
23575.18722688775
 20
4228.794483264275
 30
0.0
 11
23575.18722688775
 21
4227.602952105117
 31
0.0
  0
LINE
  5
293AC
330
1E
100
AcDbEntity
  8
躯体と製品
  6
PLINE2
 62
     3
100
AcDbLine
 10
23575.8372268876
 20
4227.144648482028
 30
0.0
 11
23575.18722688775
 21
4227.602952105117
 31
0.0
  0
LINE
  5
293AD
330
1E
100
AcDbEntity
  8
躯体と製品
  6
PLINE2
 62
     3
100
AcDbLine
 10
23575.18722688775
 20
4226.722498482123
 30
0.0
 11
23575.18722688775
 21
4226.015452105467
 31
0.0
  0
LINE
  5
293AE
330
1E
100
AcDbEntity
  8
躯体と製品
  6
PLINE2
 62
     3
100
AcDbLine
 10
23575.8372268876
 20
4220.794648483426
 30
0.0
 11
23572.03722688844
 21
4219.207148483778
 31
0.0
  0
LINE
  5
293AF
330
1E
100
AcDbEntity
  8
躯体と製品
  6
PLINE2
 62
     3
100
AcDbLine
 10
23572.6872268883
 20
4218.748844136052
 30
0.0
 11
23575.8372268876
 21
4220.794648483426
 31
0.0
  0
LINE
  5
293B0
330
1E
100
AcDbEntity
  8
躯体と製品
  6
PLINE2
 62
     3
100
AcDbLine
 10
23575.18722688775
 20
4221.252952106514
 30
0.0
 11
23572.03722688844
 21
4219.207148483778
 31
0.0
  0
LINE
  5
293B1
330
1E
100
AcDbEntity
  8
躯体と製品
  6
PLINE2
 62
     3
100
AcDbLine
 10
23572.6872268883
 20
4219.629298483683
 30
0.0
 11
23572.6872268883
 21
4220.336344135701
 31
0.0
  0
LINE
  5
293B2
330
1E
100
AcDbEntity
  8
躯体と製品
  6
PLINE2
 62
     3
100
AcDbLine
 10
23575.18722688775
 20
4220.372498483519
 30
0.0
 11
23575.18722688775
 21
4219.665452106863
 31
0.0
  0
LINE
  5
293B3
330
1E
100
AcDbEntity
  8
躯体と製品
  6
PLINE2
 62
     3
100
AcDbLine
 10
23575.8372268876
 20
4222.382148483078
 30
0.0
 11
23572.03722688844
 21
4220.794648483426
 31
0.0
  0
LINE
  5
293B4
330
1E
100
AcDbEntity
  8
躯体と製品
  6
PLINE2
 62
     3
100
AcDbLine
 10
23572.6872268883
 20
4220.336344135701
 30
0.0
 11
23575.8372268876
 21
4222.382148483078
 31
0.0
  0
LINE
  5
293B5
330
1E
100
AcDbEntity
  8
躯体と製品
  6
PLINE2
 62
     3
100
AcDbLine
 10
23575.18722688775
 20
4222.840452106167
 30
0.0
 11
23572.03722688844
 21
4220.794648483426
 31
0.0
  0
LINE
  5
293B6
330
1E
100
AcDbEntity
  8
躯体と製品
  6
PLINE2
 62
     3
100
AcDbLine
 10
23575.8372268876
 20
4223.969648482727
 30
0.0
 11
23572.03722688844
 21
4222.382148483078
 31
0.0
  0
LINE
  5
293B7
330
1E
100
AcDbEntity
  8
躯体と製品
  6
PLINE2
 62
     3
100
AcDbLine
 10
23572.6872268883
 20
4221.923844135353
 30
0.0
 11
23575.8372268876
 21
4223.969648482727
 31
0.0
  0
LINE
  5
293B8
330
1E
100
AcDbEntity
  8
躯体と製品
  6
PLINE2
 62
     3
100
AcDbLine
 10
23575.18722688775
 20
4224.427952105815
 30
0.0
 11
23572.03722688844
 21
4222.382148483078
 31
0.0
  0
LINE
  5
293B9
330
1E
100
AcDbEntity
  8
躯体と製品
  6
PLINE2
 62
     3
100
AcDbLine
 10
23575.8372268876
 20
4225.557148482379
 30
0.0
 11
23572.03722688844
 21
4223.969648482727
 31
0.0
  0
LINE
  5
293BA
330
1E
100
AcDbEntity
  8
躯体と製品
  6
PLINE2
 62
     3
100
AcDbLine
 10
23572.6872268883
 20
4223.511344135002
 30
0.0
 11
23575.8372268876
 21
4225.557148482379
 31
0.0
  0
LINE
  5
293BB
330
1E
100
AcDbEntity
  8
躯体と製品
  6
PLINE2
 62
     3
100
AcDbLine
 10
23572.6872268883
 20
4222.804298482984
 30
0.0
 11
23572.6872268883
 21
4223.511344135002
 31
0.0
  0
LINE
  5
293BC
330
1E
100
AcDbEntity
  8
躯体と製品
  6
PLINE2
 62
     3
100
AcDbLine
 10
23572.03722688844
 20
4225.557148482379
 30
0.0
 11
23572.6872268883
 21
4225.098844134654
 31
0.0
  0
LINE
  5
293BD
330
1E
100
AcDbEntity
  8
躯体と製品
  6
PLINE2
 62
     3
100
AcDbLine
 10
23572.03722688844
 20
4223.969648482727
 30
0.0
 11
23572.6872268883
 21
4223.511344135002
 31
0.0
  0
LINE
  5
293BE
330
1E
100
AcDbEntity
  8
躯体と製品
  6
PLINE2
 62
     3
100
AcDbLine
 10
23572.6872268883
 20
4224.391798482636
 30
0.0
 11
23572.6872268883
 21
4225.098844134654
 31
0.0
  0
LINE
  5
293BF
330
1E
100
AcDbEntity
  8
躯体と製品
  6
PLINE2
 62
     3
100
AcDbLine
 10
23572.03722688844
 20
4220.794648483426
 30
0.0
 11
23572.6872268883
 21
4220.336344135701
 31
0.0
  0
LINE
  5
293C0
330
1E
100
AcDbEntity
  8
躯体と製品
  6
PLINE2
 62
     3
100
AcDbLine
 10
23572.03722688844
 20
4222.382148483078
 30
0.0
 11
23572.6872268883
 21
4221.923844135353
 31
0.0
  0
LINE
  5
293C1
330
1E
100
AcDbEntity
  8
躯体と製品
  6
PLINE2
 62
     3
100
AcDbLine
 10
23572.6872268883
 20
4221.216798483335
 30
0.0
 11
23572.6872268883
 21
4221.923844135353
 31
0.0
  0
LINE
  5
293C2
330
1E
100
AcDbEntity
  8
躯体と製品
  6
PLINE2
 62
     3
100
AcDbLine
 10
23575.18722688775
 20
4223.547498482822
 30
0.0
 11
23575.18722688775
 21
4222.840452106167
 31
0.0
  0
LINE
  5
293C3
330
1E
100
AcDbEntity
  8
躯体と製品
  6
PLINE2
 62
     3
100
AcDbLine
 10
23575.8372268876
 20
4223.969648482727
 30
0.0
 11
23575.18722688775
 21
4224.427952105815
 31
0.0
  0
LINE
  5
293C4
330
1E
100
AcDbEntity
  8
躯体と製品
  6
PLINE2
 62
     3
100
AcDbLine
 10
23575.18722688775
 20
4225.134998482472
 30
0.0
 11
23575.18722688775
 21
4224.427952105815
 31
0.0
  0
LINE
  5
293C5
330
1E
100
AcDbEntity
  8
躯体と製品
  6
PLINE2
 62
     3
100
AcDbLine
 10
23575.8372268876
 20
4220.794648483426
 30
0.0
 11
23575.18722688775
 21
4221.252952106514
 31
0.0
  0
LINE
  5
293C6
330
1E
100
AcDbEntity
  8
躯体と製品
  6
PLINE2
 62
     3
100
AcDbLine
 10
23575.8372268876
 20
4222.382148483078
 30
0.0
 11
23575.18722688775
 21
4222.840452106167
 31
0.0
  0
LINE
  5
293C7
330
1E
100
AcDbEntity
  8
躯体と製品
  6
PLINE2
 62
     3
100
AcDbLine
 10
23575.18722688775
 20
4221.95999848317
 30
0.0
 11
23575.18722688775
 21
4221.252952106514
 31
0.0
  0
LINE
  5
293C8
330
1E
100
AcDbEntity
  8
躯体と製品
  6
PLINE2
 62
     3
100
AcDbLine
 10
23575.8372268876
 20
4217.619648484125
 30
0.0
 11
23572.03722688844
 21
4216.032148484473
 31
0.0
  0
LINE
  5
293C9
330
1E
100
AcDbEntity
  8
躯体と製品
  6
PLINE2
 62
     3
100
AcDbLine
 10
23572.6872268883
 20
4215.57384413675
 30
0.0
 11
23575.8372268876
 21
4217.619648484125
 31
0.0
  0
LINE
  5
293CA
330
1E
100
AcDbEntity
  8
躯体と製品
  6
PLINE2
 62
     3
100
AcDbLine
 10
23575.18722688775
 20
4218.077952107214
 30
0.0
 11
23572.03722688844
 21
4216.032148484473
 31
0.0
  0
LINE
  5
293CB
330
1E
100
AcDbEntity
  8
躯体と製品
  6
PLINE2
 62
     3
100
AcDbLine
 10
23575.8372268876
 20
4219.207148483778
 30
0.0
 11
23572.03722688844
 21
4217.619648484125
 31
0.0
  0
LINE
  5
293CC
330
1E
100
AcDbEntity
  8
躯体と製品
  6
PLINE2
 62
     3
100
AcDbLine
 10
23572.6872268883
 20
4217.161344136399
 30
0.0
 11
23575.8372268876
 21
4219.207148483778
 31
0.0
  0
LINE
  5
293CD
330
1E
100
AcDbEntity
  8
躯体と製品
  6
PLINE2
 62
     3
100
AcDbLine
 10
23575.18722688775
 20
4219.665452106863
 30
0.0
 11
23572.03722688844
 21
4217.619648484125
 31
0.0
  0
LINE
  5
293CE
330
1E
100
AcDbEntity
  8
躯体と製品
  6
PLINE2
 62
     3
100
AcDbLine
 10
23572.03722688844
 20
4217.619648484125
 30
0.0
 11
23572.6872268883
 21
4217.161344136399
 31
0.0
  0
LINE
  5
293CF
330
1E
100
AcDbEntity
  8
躯体と製品
  6
PLINE2
 62
     3
100
AcDbLine
 10
23572.03722688844
 20
4219.207148483778
 30
0.0
 11
23572.6872268883
 21
4218.748844136052
 31
0.0
  0
LINE
  5
293D0
330
1E
100
AcDbEntity
  8
躯体と製品
  6
PLINE2
 62
     3
100
AcDbLine
 10
23572.6872268883
 20
4218.041798484033
 30
0.0
 11
23572.6872268883
 21
4218.748844136052
 31
0.0
  0
LINE
  5
293D1
330
1E
100
AcDbEntity
  8
躯体と製品
  6
PLINE2
 62
     3
100
AcDbLine
 10
23572.03722688844
 20
4216.032148484473
 30
0.0
 11
23572.6872268883
 21
4215.57384413675
 31
0.0
  0
LINE
  5
293D2
330
1E
100
AcDbEntity
  8
躯体と製品
  6
PLINE2
 62
     3
100
AcDbLine
 10
23572.6872268883
 20
4214.86679848473
 30
0.0
 11
23572.6872268883
 21
4215.57384413675
 31
0.0
  0
LINE
  5
293D3
330
1E
100
AcDbEntity
  8
躯体と製品
  6
PLINE2
 62
     3
100
AcDbLine
 10
23572.6872268883
 20
4216.454298484381
 30
0.0
 11
23572.6872268883
 21
4217.161344136399
 31
0.0
  0
LINE
  5
293D4
330
1E
100
AcDbEntity
  8
躯体と製品
  6
PLINE2
 62
     3
100
AcDbLine
 10
23575.8372268876
 20
4217.619648484125
 30
0.0
 11
23575.18722688775
 21
4218.077952107214
 31
0.0
  0
LINE
  5
293D5
330
1E
100
AcDbEntity
  8
躯体と製品
  6
PLINE2
 62
     3
100
AcDbLine
 10
23575.8372268876
 20
4219.207148483778
 30
0.0
 11
23575.18722688775
 21
4219.665452106863
 31
0.0
  0
LINE
  5
293D6
330
1E
100
AcDbEntity
  8
躯体と製品
  6
PLINE2
 62
     3
100
AcDbLine
 10
23575.18722688775
 20
4218.784998483869
 30
0.0
 11
23575.18722688775
 21
4218.077952107214
 31
0.0
  0
LINE
  5
293D7
330
1E
100
AcDbEntity
  8
躯体と製品
  6
PLINE2
 62
     3
100
AcDbLine
 10
23575.18722688775
 20
4217.197498484217
 30
0.0
 11
23575.18722688775
 21
4216.490452107561
 31
0.0
  0
LINE
  5
293D8
330
1E
100
AcDbEntity
  8
躯体と製品
  6
PLINE2
 62
     3
100
AcDbLine
 10
23575.8372268876
 20
4216.032148484473
 30
0.0
 11
23575.18722688775
 21
4216.490452107561
 31
0.0
  0
LINE
  5
293D9
330
1E
100
AcDbEntity
  8
躯体と製品
  6
PLINE2
 62
     3
100
AcDbLine
 10
23575.18722688775
 20
4215.609998484568
 30
0.0
 11
23575.18722688775
 21
4214.902952107911
 31
0.0
  0
LINE
  5
293DA
330
1E
100
AcDbEntity
  8
躯体と製品
  6
PLINE2
 62
     3
100
AcDbLine
 10
23578.18722688709
 20
4234.238398480468
 30
0.0
 11
23578.18722688709
 21
4234.938398480315
 31
0.0
  0
LINE
  5
293DB
330
1E
100
AcDbEntity
  8
躯体と製品
  6
PLINE2
 62
     3
100
AcDbLine
 10
23574.85710007623
 20
4209.146378196133
 30
0.0
 11
23574.38783703285
 21
4207.509862979103
 31
0.0
  0
LINE
  5
293DC
330
1E
100
AcDbEntity
  8
躯体と製品
  6
PLINE2
 62
     3
100
AcDbLine
 10
23574.87366746753
 20
4209.148468775844
 30
0.0
 11
23572.91348993173
 21
4208.420205732525
 31
0.0
  0
LINE
  5
293DD
330
1E
100
AcDbEntity
  8
躯体と製品
  6
PLINE2
 62
     3
100
AcDbLine
 10
23573.18060877225
 20
4208.577039065825
 30
0.0
 11
23572.94680007665
 21
4209.392427471441
 31
0.0
  0
LINE
  5
293DE
330
1E
100
AcDbEntity
  8
躯体と製品
  6
PLINE2
 62
     3
100
AcDbLine
 10
23575.354136308
 20
4209.584912254009
 30
0.0
 11
23572.91348993173
 21
4208.420205732525
 31
0.0
  0
LINE
  5
293DF
330
1E
100
AcDbEntity
  8
躯体と製品
  6
PLINE2
 62
     3
100
AcDbLine
 10
23575.00018123562
 20
4209.645361529357
 30
0.0
 11
23572.91348993173
 21
4208.420205732525
 31
0.0
  0
LINE
  5
293E0
330
1E
100
AcDbEntity
  8
躯体と製品
  6
PLINE2
 62
     3
100
AcDbLine
 10
23575.8372268876
 20
4214.444648484825
 30
0.0
 11
23572.03722688844
 21
4212.857148485173
 31
0.0
  0
LINE
  5
293E1
330
1E
100
AcDbEntity
  8
躯体と製品
  6
PLINE2
 62
     3
100
AcDbLine
 10
23572.6872268883
 20
4212.398844137447
 30
0.0
 11
23575.8372268876
 21
4214.444648484825
 31
0.0
  0
LINE
  5
293E2
330
1E
100
AcDbEntity
  8
躯体と製品
  6
PLINE2
 62
     3
100
AcDbLine
 10
23575.8372268876
 20
4212.857148485173
 30
0.0
 11
23572.03722688844
 21
4211.269648485523
 31
0.0
  0
LINE
  5
293E3
330
1E
100
AcDbEntity
  8
躯体と製品
  6
PLINE2
 62
     3
100
AcDbLine
 10
23572.6872268883
 20
4210.811344137797
 30
0.0
 11
23575.8372268876
 21
4212.857148485173
 31
0.0
  0
LINE
  5
293E4
330
1E
100
AcDbEntity
  8
躯体と製品
  6
PLINE2
 62
     3
100
AcDbLine
 10
23575.18722688775
 20
4213.31545210826
 30
0.0
 11
23572.03722688844
 21
4211.269648485523
 31
0.0
  0
LINE
  5
293E5
330
1E
100
AcDbEntity
  8
躯体と製品
  6
PLINE2
 62
     3
100
AcDbLine
 10
23575.8372268876
 20
4211.269648485523
 30
0.0
 11
23572.03722688844
 21
4209.682148485872
 31
0.0
  0
LINE
  5
293E6
330
1E
100
AcDbEntity
  8
躯体と製品
  6
PLINE2
 62
     3
100
AcDbLine
 10
23572.6872268883
 20
4209.223844138145
 30
0.0
 11
23575.8372268876
 21
4211.269648485523
 31
0.0
  0
LINE
  5
293E7
330
1E
100
AcDbEntity
  8
躯体と製品
  6
PLINE2
 62
     3
100
AcDbLine
 10
23575.18722688775
 20
4211.727952108611
 30
0.0
 11
23572.03722688844
 21
4209.682148485872
 31
0.0
  0
LINE
  5
293E8
330
1E
100
AcDbEntity
  8
躯体と製品
  6
PLINE2
 62
     3
100
AcDbLine
 10
23572.6872268883
 20
4211.691798485428
 30
0.0
 11
23572.6872268883
 21
4212.398844137447
 31
0.0
  0
LINE
  5
293E9
330
1E
100
AcDbEntity
  8
躯体と製品
  6
PLINE2
 62
     3
100
AcDbLine
 10
23572.03722688844
 20
4214.444648484825
 30
0.0
 11
23572.6872268883
 21
4213.986344137099
 31
0.0
  0
LINE
  5
293EA
330
1E
100
AcDbEntity
  8
躯体と製品
  6
PLINE2
 62
     3
100
AcDbLine
 10
23572.03722688844
 20
4212.857148485173
 30
0.0
 11
23572.6872268883
 21
4212.398844137447
 31
0.0
  0
LINE
  5
293EB
330
1E
100
AcDbEntity
  8
躯体と製品
  6
PLINE2
 62
     3
100
AcDbLine
 10
23572.6872268883
 20
4213.27929848508
 30
0.0
 11
23572.6872268883
 21
4213.986344137099
 31
0.0
  0
LINE
  5
293EC
330
1E
100
AcDbEntity
  8
躯体と製品
  6
PLINE2
 62
     3
100
AcDbLine
 10
23572.6872268883
 20
4210.438207181357
 30
0.0
 11
23572.6872268883
 21
4210.811344137797
 31
0.0
  0
ARC
  5
293ED
330
1E
100
AcDbEntity
  8
躯体と製品
  6
PLINE2
 62
     3
100
AcDbCircle
 10
23573.68722688808
 20
4210.438207181357
 30
0.0
 40
0.9999999997799998
100
AcDbArc
 50
180.0
 51
196.0000000000827
  0
LINE
  5
293EE
330
1E
100
AcDbEntity
  8
躯体と製品
  6
PLINE2
 62
     3
100
AcDbLine
 10
23572.72596529409
 20
4210.162570224897
 30
0.0
 11
23572.73396891727
 21
4210.134655732148
 31
0.0
  0
LINE
  5
293EF
330
1E
100
AcDbEntity
  8
躯体と製品
  6
PLINE2
 62
     3
100
AcDbLine
 10
23572.03722688844
 20
4211.269648485523
 30
0.0
 11
23572.6872268883
 21
4210.811344137797
 31
0.0
  0
LINE
  5
293F0
330
1E
100
AcDbEntity
  8
躯体と製品
  6
PLINE2
 62
     3
100
AcDbLine
 10
23572.03722688844
 20
4209.682148485872
 30
0.0
 11
23572.6872268883
 21
4209.223844138145
 31
0.0
  0
LINE
  5
293F1
330
1E
100
AcDbEntity
  8
躯体と製品
  6
PLINE2
 62
     3
100
AcDbLine
 10
23575.18722688775
 20
4212.434998485266
 30
0.0
 11
23575.18722688775
 21
4211.727952108611
 31
0.0
  0
LINE
  5
293F2
330
1E
100
AcDbEntity
  8
躯体と製品
  6
PLINE2
 62
     3
100
AcDbLine
 10
23575.8372268876
 20
4212.857148485173
 30
0.0
 11
23575.18722688775
 21
4213.31545210826
 31
0.0
  0
LINE
  5
293F3
330
1E
100
AcDbEntity
  8
躯体と製品
  6
PLINE2
 62
     3
100
AcDbLine
 10
23575.18722688775
 20
4214.022498484916
 30
0.0
 11
23575.18722688775
 21
4213.31545210826
 31
0.0
  0
LINE
  5
293F4
330
1E
100
AcDbEntity
  8
躯体と製品
  6
PLINE2
 62
     3
100
AcDbLine
 10
23575.14848848196
 20
4210.162570224897
 30
0.0
 11
23575.00018123562
 21
4209.645361529357
 31
0.0
  0
ARC
  5
293F5
330
1E
100
AcDbEntity
  8
躯体と製品
  6
PLINE2
 62
     3
100
AcDbCircle
 10
23574.18722688797
 20
4210.438207181357
 30
0.0
 40
0.9999999997799998
100
AcDbArc
 50
343.9999999999171
 51
0.0
  0
LINE
  5
293F6
330
1E
100
AcDbEntity
  8
躯体と製品
  6
PLINE2
 62
     3
100
AcDbLine
 10
23575.18722688775
 20
4210.847498485615
 30
0.0
 11
23575.18722688775
 21
4210.438207181357
 31
0.0
  0
LINE
  5
293F7
330
1E
100
AcDbEntity
  8
躯体と製品
  6
PLINE2
 62
     3
100
AcDbLine
 10
23575.8372268876
 20
4211.269648485523
 30
0.0
 11
23575.18722688775
 21
4211.727952108611
 31
0.0
  0
LINE
  5
293F8
330
1E
100
AcDbEntity
  8
躯体と製品
  6
PLINE2
 62
     3
100
AcDbLine
 10
23575.354136308
 20
4209.584912254009
 30
0.0
 11
23575.00018123562
 21
4209.645361529357
 31
0.0
  0
LINE
  5
293F9
330
1E
100
AcDbEntity
  8
躯体と製品
  6
PLINE2
 62
     3
100
AcDbLine
 10
23574.8557957284
 20
4209.136862254107
 30
0.0
 11
23575.354136308
 21
4209.584912254009
 31
0.0
  0
LINE
  5
293FA
330
1E
100
AcDbEntity
  8
躯体と製品
  6
PLINE2
 62
     3
100
AcDbLine
 10
23573.56045659825
 20
4207.252352109594
 30
0.0
 11
23574.73050877191
 21
4207.616515152992
 31
0.0
  0
LINE
  5
293FB
330
1E
100
AcDbEntity
  8
躯体と製品
  6
PLINE2
 62
     3
100
AcDbLine
 10
23574.73050877191
 20
4207.616515152992
 30
0.0
 11
23573.26887906208
 21
4206.985050660377
 31
0.0
  0
LINE
  5
293FC
330
1E
100
AcDbEntity
  8
躯体と製品
  6
PLINE2
 62
     3
100
AcDbLine
 10
23573.26887906208
 20
4206.985050660377
 30
0.0
 11
23573.64698703301
 21
4206.950585442995
 31
0.0
  0
LINE
  5
293FD
330
1E
100
AcDbEntity
  8
躯体と製品
  6
PLINE2
 62
     3
100
AcDbLine
 10
23573.56045659825
 20
4207.252352109594
 30
0.0
 11
23573.19553268529
 21
4208.524992689024
 31
0.0
  0
LINE
  5
293FE
330
1E
100
AcDbEntity
  8
躯体と製品
  6
PLINE2
 62
     3
100
AcDbLine
 10
23573.56045659825
 20
4207.252352109594
 30
0.0
 11
23573.26887906208
 21
4206.985050660377
 31
0.0
  0
LINE
  5
293FF
330
1E
100
AcDbEntity
  8
躯体と製品
  6
PLINE2
 62
     3
100
AcDbLine
 10
23574.35165225025
 20
4207.383670950145
 30
0.0
 11
23573.93722688802
 21
4205.938398486694
 31
0.0
  0
LINE
  5
29400
330
1E
100
AcDbEntity
  8
躯体と製品
  6
PLINE2
 62
     3
100
AcDbLine
 10
23573.93722688802
 20
4205.938398486694
 30
0.0
 11
23573.64698703301
 21
4206.950585442995
 31
0.0
  0
LINE
  5
29401
330
1E
100
AcDbEntity
  8
躯体と製品
  6
PLINE2
 62
     3
100
AcDbLine
 10
23573.64698703301
 20
4206.950585442995
 30
0.0
 11
23574.73050877191
 21
4207.616515152992
 31
0.0
  0
LWPOLYLINE
  5
294D4
330
1E
100
AcDbEntity
  8
中心線
  6
CENTER1
 62
     7
100
AcDbPolyline
 90
        2
 70
     0
 43
0.0
 10
23573.93722688802
 20
4236.533825848339
 10
23573.93722688802
 20
4203.869625570106
  0
LINE
  5
294D5
330
1E
100
AcDbEntity
  8
躯体と製品
  6
PLINE2
 62
     3
100
AcDbLine
 10
23610.53129926758
 20
4175.538398471303
 30
0.0
 11
23608.94379926793
 21
4179.338398470469
 31
0.0
  0
LINE
  5
294D6
330
1E
100
AcDbEntity
  8
躯体と製品
  6
PLINE2
 62
     3
100
AcDbLine
 10
23608.4854949202
 20
4178.68839847061
 30
0.0
 11
23610.53129926758
 21
4175.538398471303
 31
0.0
  0
LINE
  5
294D7
330
1E
100
AcDbEntity
  8
躯体と製品
  6
PLINE2
 62
     3
100
AcDbLine
 10
23610.98960289067
 20
4176.188398471159
 30
0.0
 11
23608.94379926793
 21
4179.338398470469
 31
0.0
  0
LINE
  5
294D8
330
1E
100
AcDbEntity
  8
躯体と製品
  6
PLINE2
 62
     3
100
AcDbLine
 10
23609.40210289102
 20
4176.188398471159
 30
0.0
 11
23607.35629926828
 21
4179.338398470469
 31
0.0
  0
LINE
  5
294D9
330
1E
100
AcDbEntity
  8
躯体と製品
  6
PLINE2
 62
     3
100
AcDbLine
 10
23608.94379926793
 20
4175.538398471303
 30
0.0
 11
23609.40210289102
 21
4176.188398471159
 31
0.0
  0
LINE
  5
294DA
330
1E
100
AcDbEntity
  8
躯体と製品
  6
PLINE2
 62
     3
100
AcDbLine
 10
23628.73754926357
 20
4173.188398471821
 30
0.0
 11
23627.60967245223
 21
4174.356349196201
 31
0.0
  0
LINE
  5
294DB
330
1E
100
AcDbEntity
  8
躯体と製品
  6
PLINE2
 62
     3
100
AcDbLine
 10
23629.43754926342
 20
4173.188398471821
 30
0.0
 11
23629.43754926342
 21
4181.688398469951
 31
0.0
  0
LINE
  5
294DC
330
1E
100
AcDbEntity
  8
躯体と製品
  6
PLINE2
 62
     3
100
AcDbLine
 10
23628.73754926357
 20
4181.688398469951
 30
0.0
 11
23628.73754926357
 21
4173.188398471821
 31
0.0
  0
LINE
  5
294DD
330
1E
100
AcDbEntity
  8
躯体と製品
  6
PLINE2
 62
     3
100
AcDbLine
 10
23621.64379926513
 20
4175.538398471303
 30
0.0
 11
23620.05629926548
 21
4179.338398470469
 31
0.0
  0
LINE
  5
294DE
330
1E
100
AcDbEntity
  8
躯体と製品
  6
PLINE2
 62
     3
100
AcDbLine
 10
23619.59799491776
 20
4178.68839847061
 30
0.0
 11
23621.64379926513
 21
4175.538398471303
 31
0.0
  0
LINE
  5
294DF
330
1E
100
AcDbEntity
  8
躯体と製品
  6
PLINE2
 62
     3
100
AcDbLine
 10
23622.10210288822
 20
4176.188398471159
 30
0.0
 11
23620.05629926548
 21
4179.338398470469
 31
0.0
  0
LINE
  5
294E0
330
1E
100
AcDbEntity
  8
躯体と製品
  6
PLINE2
 62
     3
100
AcDbLine
 10
23620.51460288857
 20
4176.188398471159
 30
0.0
 11
23618.46879926583
 21
4179.338398470469
 31
0.0
  0
LINE
  5
294E1
330
1E
100
AcDbEntity
  8
躯体と製品
  6
PLINE2
 62
     3
100
AcDbLine
 10
23620.05629926548
 20
4175.538398471303
 30
0.0
 11
23620.51460288857
 21
4176.188398471159
 31
0.0
  0
LINE
  5
294E2
330
1E
100
AcDbEntity
  8
躯体と製品
  6
PLINE2
 62
     3
100
AcDbLine
 10
23627.60967245223
 20
4180.520448470207
 30
0.0
 11
23628.73754926357
 21
4181.688398469951
 31
0.0
  0
LINE
  5
294E3
330
1E
100
AcDbEntity
  8
躯体と製品
  6
PLINE2
 62
     3
100
AcDbLine
 10
23629.43754926342
 20
4181.688398469951
 30
0.0
 11
23628.73754926357
 21
4181.688398469951
 31
0.0
  0
ARC
  5
294E4
330
1E
100
AcDbEntity
  8
躯体と製品
  6
PLINE2
 62
     3
100
AcDbCircle
 10
23623.29363404738
 20
4184.688398469293
 30
0.0
 40
5.999999998679999
100
AcDbArc
 50
270.0
 51
316.0000000000425
  0
ARC
  5
294E5
330
1E
100
AcDbEntity
  8
躯体と製品
  6
PLINE2
 62
     3
100
AcDbCircle
 10
23623.29363404738
 20
4170.18839847248
 30
0.0
 40
5.999999998679999
100
AcDbArc
 50
43.99999999995714
 51
90.0
  0
LINE
  5
294E6
330
1E
100
AcDbEntity
  8
躯体と製品
  6
PLINE2
 62
     3
100
AcDbLine
 10
23622.95975288803
 20
4176.188398471159
 30
0.0
 11
23621.64379926513
 21
4179.338398470469
 31
0.0
  0
LINE
  5
294E7
330
1E
100
AcDbEntity
  8
躯体と製品
  6
PLINE2
 62
     3
100
AcDbLine
 10
23621.18549491741
 20
4178.68839847061
 30
0.0
 11
23622.95975288803
 21
4176.188398471159
 31
0.0
  0
LINE
  5
294E8
330
1E
100
AcDbEntity
  8
躯体と製品
  6
PLINE2
 62
     3
100
AcDbLine
 10
23622.95975288803
 20
4176.188398471159
 30
0.0
 11
23622.06594926504
 21
4178.68839847061
 31
0.0
  0
LINE
  5
294E9
330
1E
100
AcDbEntity
  8
躯体と製品
  6
PLINE2
 62
     3
100
AcDbLine
 10
23622.06594926504
 20
4178.68839847061
 30
0.0
 11
23623.29363404738
 21
4178.68839847061
 31
0.0
  0
LINE
  5
294EA
330
1E
100
AcDbEntity
  8
躯体と製品
  6
PLINE2
 62
     3
100
AcDbLine
 10
23621.64379926513
 20
4179.338398470469
 30
0.0
 11
23621.18549491741
 21
4178.68839847061
 31
0.0
  0
LINE
  5
294EB
330
1E
100
AcDbEntity
  8
躯体と製品
  6
PLINE2
 62
     3
100
AcDbLine
 10
23622.06594926504
 20
4178.68839847061
 30
0.0
 11
23621.64379926513
 21
4179.338398470469
 31
0.0
  0
LINE
  5
294EC
330
1E
100
AcDbEntity
  8
躯体と製品
  6
PLINE2
 62
     3
100
AcDbLine
 10
23620.47844926539
 20
4178.68839847061
 30
0.0
 11
23621.18549491741
 21
4178.68839847061
 31
0.0
  0
LINE
  5
294ED
330
1E
100
AcDbEntity
  8
躯体と製品
  6
PLINE2
 62
     3
100
AcDbLine
 10
23623.29363404738
 20
4176.188398471159
 30
0.0
 11
23622.10210288822
 21
4176.188398471159
 31
0.0
  0
LINE
  5
294EE
330
1E
100
AcDbEntity
  8
躯体と製品
  6
PLINE2
 62
     3
100
AcDbLine
 10
23621.64379926513
 20
4175.538398471303
 30
0.0
 11
23622.10210288822
 21
4176.188398471159
 31
0.0
  0
LINE
  5
294EF
330
1E
100
AcDbEntity
  8
躯体と製品
  6
PLINE2
 62
     3
100
AcDbLine
 10
23621.22164926522
 20
4176.188398471159
 30
0.0
 11
23620.51460288857
 21
4176.188398471159
 31
0.0
  0
LINE
  5
294F0
330
1E
100
AcDbEntity
  8
躯体と製品
  6
PLINE2
 62
     3
100
AcDbLine
 10
23615.29379926653
 20
4175.538398471303
 30
0.0
 11
23613.70629926688
 21
4179.338398470469
 31
0.0
  0
LINE
  5
294F1
330
1E
100
AcDbEntity
  8
躯体と製品
  6
PLINE2
 62
     3
100
AcDbLine
 10
23613.24799491915
 20
4178.68839847061
 30
0.0
 11
23615.29379926653
 21
4175.538398471303
 31
0.0
  0
LINE
  5
294F2
330
1E
100
AcDbEntity
  8
躯体と製品
  6
PLINE2
 62
     3
100
AcDbLine
 10
23615.75210288962
 20
4176.188398471159
 30
0.0
 11
23613.70629926688
 21
4179.338398470469
 31
0.0
  0
LINE
  5
294F3
330
1E
100
AcDbEntity
  8
躯体と製品
  6
PLINE2
 62
     3
100
AcDbLine
 10
23614.12844926679
 20
4178.68839847061
 30
0.0
 11
23614.83549491881
 21
4178.68839847061
 31
0.0
  0
LINE
  5
294F4
330
1E
100
AcDbEntity
  8
躯体と製品
  6
PLINE2
 62
     3
100
AcDbLine
 10
23614.87164926662
 20
4176.188398471159
 30
0.0
 11
23614.16460288997
 21
4176.188398471159
 31
0.0
  0
LINE
  5
294F5
330
1E
100
AcDbEntity
  8
躯体と製品
  6
PLINE2
 62
     3
100
AcDbLine
 10
23616.88129926618
 20
4175.538398471303
 30
0.0
 11
23615.29379926653
 21
4179.338398470469
 31
0.0
  0
LINE
  5
294F6
330
1E
100
AcDbEntity
  8
躯体と製品
  6
PLINE2
 62
     3
100
AcDbLine
 10
23614.83549491881
 20
4178.68839847061
 30
0.0
 11
23616.88129926618
 21
4175.538398471303
 31
0.0
  0
LINE
  5
294F7
330
1E
100
AcDbEntity
  8
躯体と製品
  6
PLINE2
 62
     3
100
AcDbLine
 10
23617.33960288927
 20
4176.188398471159
 30
0.0
 11
23615.29379926653
 21
4179.338398470469
 31
0.0
  0
LINE
  5
294F8
330
1E
100
AcDbEntity
  8
躯体と製品
  6
PLINE2
 62
     3
100
AcDbLine
 10
23618.46879926583
 20
4175.538398471303
 30
0.0
 11
23616.88129926618
 21
4179.338398470469
 31
0.0
  0
LINE
  5
294F9
330
1E
100
AcDbEntity
  8
躯体と製品
  6
PLINE2
 62
     3
100
AcDbLine
 10
23616.42299491846
 20
4178.68839847061
 30
0.0
 11
23618.46879926583
 21
4175.538398471303
 31
0.0
  0
LINE
  5
294FA
330
1E
100
AcDbEntity
  8
躯体と製品
  6
PLINE2
 62
     3
100
AcDbLine
 10
23618.92710288892
 20
4176.188398471159
 30
0.0
 11
23616.88129926618
 21
4179.338398470469
 31
0.0
  0
LINE
  5
294FB
330
1E
100
AcDbEntity
  8
躯体と製品
  6
PLINE2
 62
     3
100
AcDbLine
 10
23620.05629926548
 20
4175.538398471303
 30
0.0
 11
23618.46879926583
 21
4179.338398470469
 31
0.0
  0
LINE
  5
294FC
330
1E
100
AcDbEntity
  8
躯体と製品
  6
PLINE2
 62
     3
100
AcDbLine
 10
23618.0104949181
 20
4178.68839847061
 30
0.0
 11
23620.05629926548
 21
4175.538398471303
 31
0.0
  0
LINE
  5
294FD
330
1E
100
AcDbEntity
  8
躯体と製品
  6
PLINE2
 62
     3
100
AcDbLine
 10
23617.30344926609
 20
4178.68839847061
 30
0.0
 11
23618.0104949181
 21
4178.68839847061
 31
0.0
  0
LINE
  5
294FE
330
1E
100
AcDbEntity
  8
躯体と製品
  6
PLINE2
 62
     3
100
AcDbLine
 10
23620.05629926548
 20
4179.338398470469
 30
0.0
 11
23619.59799491776
 21
4178.68839847061
 31
0.0
  0
LINE
  5
294FF
330
1E
100
AcDbEntity
  8
躯体と製品
  6
PLINE2
 62
     3
100
AcDbLine
 10
23618.46879926583
 20
4179.338398470469
 30
0.0
 11
23618.0104949181
 21
4178.68839847061
 31
0.0
  0
LINE
  5
29500
330
1E
100
AcDbEntity
  8
躯体と製品
  6
PLINE2
 62
     3
100
AcDbLine
 10
23618.89094926574
 20
4178.68839847061
 30
0.0
 11
23619.59799491776
 21
4178.68839847061
 31
0.0
  0
LINE
  5
29501
330
1E
100
AcDbEntity
  8
躯体と製品
  6
PLINE2
 62
     3
100
AcDbLine
 10
23615.29379926653
 20
4179.338398470469
 30
0.0
 11
23614.83549491881
 21
4178.68839847061
 31
0.0
  0
LINE
  5
29502
330
1E
100
AcDbEntity
  8
躯体と製品
  6
PLINE2
 62
     3
100
AcDbLine
 10
23616.88129926618
 20
4179.338398470469
 30
0.0
 11
23616.42299491846
 21
4178.68839847061
 31
0.0
  0
LINE
  5
29503
330
1E
100
AcDbEntity
  8
躯体と製品
  6
PLINE2
 62
     3
100
AcDbLine
 10
23615.71594926644
 20
4178.68839847061
 30
0.0
 11
23616.42299491846
 21
4178.68839847061
 31
0.0
  0
LINE
  5
29504
330
1E
100
AcDbEntity
  8
躯体と製品
  6
PLINE2
 62
     3
100
AcDbLine
 10
23618.04664926593
 20
4176.188398471159
 30
0.0
 11
23617.33960288927
 21
4176.188398471159
 31
0.0
  0
LINE
  5
29505
330
1E
100
AcDbEntity
  8
躯体と製品
  6
PLINE2
 62
     3
100
AcDbLine
 10
23618.46879926583
 20
4175.538398471303
 30
0.0
 11
23618.92710288892
 21
4176.188398471159
 31
0.0
  0
LINE
  5
29506
330
1E
100
AcDbEntity
  8
躯体と製品
  6
PLINE2
 62
     3
100
AcDbLine
 10
23619.63414926557
 20
4176.188398471159
 30
0.0
 11
23618.92710288892
 21
4176.188398471159
 31
0.0
  0
LINE
  5
29507
330
1E
100
AcDbEntity
  8
躯体と製品
  6
PLINE2
 62
     3
100
AcDbLine
 10
23615.29379926653
 20
4175.538398471303
 30
0.0
 11
23615.75210288962
 21
4176.188398471159
 31
0.0
  0
LINE
  5
29508
330
1E
100
AcDbEntity
  8
躯体と製品
  6
PLINE2
 62
     3
100
AcDbLine
 10
23616.88129926618
 20
4175.538398471303
 30
0.0
 11
23617.33960288927
 21
4176.188398471159
 31
0.0
  0
LINE
  5
29509
330
1E
100
AcDbEntity
  8
躯体と製品
  6
PLINE2
 62
     3
100
AcDbLine
 10
23616.45914926628
 20
4176.188398471159
 30
0.0
 11
23615.75210288962
 21
4176.188398471159
 31
0.0
  0
LINE
  5
2950A
330
1E
100
AcDbEntity
  8
躯体と製品
  6
PLINE2
 62
     3
100
AcDbLine
 10
23612.11879926723
 20
4175.538398471303
 30
0.0
 11
23610.53129926758
 21
4179.338398470469
 31
0.0
  0
LINE
  5
2950B
330
1E
100
AcDbEntity
  8
躯体と製品
  6
PLINE2
 62
     3
100
AcDbLine
 10
23610.07299491985
 20
4178.68839847061
 30
0.0
 11
23612.11879926723
 21
4175.538398471303
 31
0.0
  0
LINE
  5
2950C
330
1E
100
AcDbEntity
  8
躯体と製品
  6
PLINE2
 62
     3
100
AcDbLine
 10
23612.57710289032
 20
4176.188398471159
 30
0.0
 11
23610.53129926758
 21
4179.338398470469
 31
0.0
  0
LINE
  5
2950D
330
1E
100
AcDbEntity
  8
躯体と製品
  6
PLINE2
 62
     3
100
AcDbLine
 10
23613.70629926688
 20
4175.538398471303
 30
0.0
 11
23612.11879926723
 21
4179.338398470469
 31
0.0
  0
LINE
  5
2950E
330
1E
100
AcDbEntity
  8
躯体と製品
  6
PLINE2
 62
     3
100
AcDbLine
 10
23611.6604949195
 20
4178.68839847061
 30
0.0
 11
23613.70629926688
 21
4175.538398471303
 31
0.0
  0
LINE
  5
2950F
330
1E
100
AcDbEntity
  8
躯体と製品
  6
PLINE2
 62
     3
100
AcDbLine
 10
23614.16460288997
 20
4176.188398471159
 30
0.0
 11
23612.11879926723
 21
4179.338398470469
 31
0.0
  0
LINE
  5
29510
330
1E
100
AcDbEntity
  8
躯体と製品
  6
PLINE2
 62
     3
100
AcDbLine
 10
23612.11879926723
 20
4179.338398470469
 30
0.0
 11
23611.6604949195
 21
4178.68839847061
 31
0.0
  0
LINE
  5
29511
330
1E
100
AcDbEntity
  8
躯体と製品
  6
PLINE2
 62
     3
100
AcDbLine
 10
23613.70629926688
 20
4179.338398470469
 30
0.0
 11
23613.24799491915
 21
4178.68839847061
 31
0.0
  0
LINE
  5
29512
330
1E
100
AcDbEntity
  8
躯体と製品
  6
PLINE2
 62
     3
100
AcDbLine
 10
23612.54094926714
 20
4178.68839847061
 30
0.0
 11
23613.24799491915
 21
4178.68839847061
 31
0.0
  0
LINE
  5
29513
330
1E
100
AcDbEntity
  8
躯体と製品
  6
PLINE2
 62
     3
100
AcDbLine
 10
23610.53129926758
 20
4179.338398470469
 30
0.0
 11
23610.07299491985
 21
4178.68839847061
 31
0.0
  0
LINE
  5
29514
330
1E
100
AcDbEntity
  8
躯体と製品
  6
PLINE2
 62
     3
100
AcDbLine
 10
23609.36594926783
 20
4178.68839847061
 30
0.0
 11
23610.07299491985
 21
4178.68839847061
 31
0.0
  0
LINE
  5
29515
330
1E
100
AcDbEntity
  8
躯体と製品
  6
PLINE2
 62
     3
100
AcDbLine
 10
23610.95344926749
 20
4178.68839847061
 30
0.0
 11
23611.6604949195
 21
4178.68839847061
 31
0.0
  0
LINE
  5
29516
330
1E
100
AcDbEntity
  8
躯体と製品
  6
PLINE2
 62
     3
100
AcDbLine
 10
23612.11879926723
 20
4175.538398471303
 30
0.0
 11
23612.57710289032
 21
4176.188398471159
 31
0.0
  0
LINE
  5
29517
330
1E
100
AcDbEntity
  8
躯体と製品
  6
PLINE2
 62
     3
100
AcDbLine
 10
23613.70629926688
 20
4175.538398471303
 30
0.0
 11
23614.16460288997
 21
4176.188398471159
 31
0.0
  0
LINE
  5
29518
330
1E
100
AcDbEntity
  8
躯体と製品
  6
PLINE2
 62
     3
100
AcDbLine
 10
23613.28414926697
 20
4176.188398471159
 30
0.0
 11
23612.57710289032
 21
4176.188398471159
 31
0.0
  0
LINE
  5
29519
330
1E
100
AcDbEntity
  8
躯体と製品
  6
PLINE2
 62
     3
100
AcDbLine
 10
23611.69664926732
 20
4176.188398471159
 30
0.0
 11
23610.98960289067
 21
4176.188398471159
 31
0.0
  0
LINE
  5
2951A
330
1E
100
AcDbEntity
  8
躯体と製品
  6
PLINE2
 62
     3
100
AcDbLine
 10
23610.53129926758
 20
4175.538398471303
 30
0.0
 11
23610.98960289067
 21
4176.188398471159
 31
0.0
  0
LINE
  5
2951B
330
1E
100
AcDbEntity
  8
躯体と製品
  6
PLINE2
 62
     3
100
AcDbLine
 10
23610.10914926767
 20
4176.188398471159
 30
0.0
 11
23609.40210289102
 21
4176.188398471159
 31
0.0
  0
LINE
  5
2951C
330
1E
100
AcDbEntity
  8
躯体と製品
  6
PLINE2
 62
     3
100
AcDbLine
 10
23628.73754926357
 20
4173.188398471821
 30
0.0
 11
23629.43754926342
 21
4173.188398471821
 31
0.0
  0
LINE
  5
2951D
330
1E
100
AcDbEntity
  8
躯体と製品
  6
PLINE2
 62
     3
100
AcDbLine
 10
23603.64552897924
 20
4176.51852528268
 30
0.0
 11
23602.00901376221
 21
4176.987788326059
 31
0.0
  0
LINE
  5
2951E
330
1E
100
AcDbEntity
  8
躯体と製品
  6
PLINE2
 62
     3
100
AcDbLine
 10
23603.64761955895
 20
4176.501957891381
 30
0.0
 11
23602.91935651563
 21
4178.462135427183
 31
0.0
  0
LINE
  5
2951F
330
1E
100
AcDbEntity
  8
躯体と製品
  6
PLINE2
 62
     3
100
AcDbLine
 10
23603.07618984893
 20
4178.195016586661
 30
0.0
 11
23603.89157825454
 21
4178.428825282262
 31
0.0
  0
LINE
  5
29520
330
1E
100
AcDbEntity
  8
躯体と製品
  6
PLINE2
 62
     3
100
AcDbLine
 10
23604.08406303712
 20
4176.021489050907
 30
0.0
 11
23602.91935651563
 21
4178.462135427183
 31
0.0
  0
LINE
  5
29521
330
1E
100
AcDbEntity
  8
躯体と製品
  6
PLINE2
 62
     3
100
AcDbLine
 10
23604.14451231246
 20
4176.375444123291
 30
0.0
 11
23602.91935651563
 21
4178.462135427183
 31
0.0
  0
LINE
  5
29522
330
1E
100
AcDbEntity
  8
躯体と製品
  6
PLINE2
 62
     3
100
AcDbLine
 10
23608.94379926793
 20
4175.538398471303
 30
0.0
 11
23607.35629926828
 21
4179.338398470469
 31
0.0
  0
LINE
  5
29523
330
1E
100
AcDbEntity
  8
躯体と製品
  6
PLINE2
 62
     3
100
AcDbLine
 10
23606.89799492055
 20
4178.68839847061
 30
0.0
 11
23608.94379926793
 21
4175.538398471303
 31
0.0
  0
LINE
  5
29524
330
1E
100
AcDbEntity
  8
躯体と製品
  6
PLINE2
 62
     3
100
AcDbLine
 10
23607.35629926828
 20
4175.538398471303
 30
0.0
 11
23605.76879926863
 21
4179.338398470469
 31
0.0
  0
LINE
  5
29525
330
1E
100
AcDbEntity
  8
躯体と製品
  6
PLINE2
 62
     3
100
AcDbLine
 10
23605.3104949209
 20
4178.68839847061
 30
0.0
 11
23607.35629926828
 21
4175.538398471303
 31
0.0
  0
LINE
  5
29526
330
1E
100
AcDbEntity
  8
躯体と製品
  6
PLINE2
 62
     3
100
AcDbLine
 10
23607.81460289137
 20
4176.188398471159
 30
0.0
 11
23605.76879926863
 21
4179.338398470469
 31
0.0
  0
LINE
  5
29527
330
1E
100
AcDbEntity
  8
躯体と製品
  6
PLINE2
 62
     3
100
AcDbLine
 10
23605.76879926863
 20
4175.538398471303
 30
0.0
 11
23604.18129926897
 21
4179.338398470469
 31
0.0
  0
LINE
  5
29528
330
1E
100
AcDbEntity
  8
躯体と製品
  6
PLINE2
 62
     3
100
AcDbLine
 10
23603.72299492125
 20
4178.68839847061
 30
0.0
 11
23605.76879926863
 21
4175.538398471303
 31
0.0
  0
LINE
  5
29529
330
1E
100
AcDbEntity
  8
躯体と製品
  6
PLINE2
 62
     3
100
AcDbLine
 10
23606.22710289171
 20
4176.188398471159
 30
0.0
 11
23604.18129926897
 21
4179.338398470469
 31
0.0
  0
LINE
  5
2952A
330
1E
100
AcDbEntity
  8
躯体と製品
  6
PLINE2
 62
     3
100
AcDbLine
 10
23606.19094926853
 20
4178.68839847061
 30
0.0
 11
23606.89799492055
 21
4178.68839847061
 31
0.0
  0
LINE
  5
2952B
330
1E
100
AcDbEntity
  8
躯体と製品
  6
PLINE2
 62
     3
100
AcDbLine
 10
23608.94379926793
 20
4179.338398470469
 30
0.0
 11
23608.4854949202
 21
4178.68839847061
 31
0.0
  0
LINE
  5
2952C
330
1E
100
AcDbEntity
  8
躯体と製品
  6
PLINE2
 62
     3
100
AcDbLine
 10
23607.35629926828
 20
4179.338398470469
 30
0.0
 11
23606.89799492055
 21
4178.68839847061
 31
0.0
  0
LINE
  5
2952D
330
1E
100
AcDbEntity
  8
躯体と製品
  6
PLINE2
 62
     3
100
AcDbLine
 10
23607.77844926818
 20
4178.68839847061
 30
0.0
 11
23608.4854949202
 21
4178.68839847061
 31
0.0
  0
LINE
  5
2952E
330
1E
100
AcDbEntity
  8
躯体と製品
  6
PLINE2
 62
     3
100
AcDbLine
 10
23604.93735796446
 20
4178.68839847061
 30
0.0
 11
23605.3104949209
 21
4178.68839847061
 31
0.0
  0
ARC
  5
2952F
330
1E
100
AcDbEntity
  8
躯体と製品
  6
PLINE2
 62
     3
100
AcDbCircle
 10
23604.93735796446
 20
4177.688398470828
 30
0.0
 40
0.9999999997799998
100
AcDbArc
 50
90.0
 51
106.0000000000856
  0
LINE
  5
29530
330
1E
100
AcDbEntity
  8
躯体と製品
  6
PLINE2
 62
     3
100
AcDbLine
 10
23604.661721008
 20
4178.649660064823
 30
0.0
 11
23604.63380651525
 21
4178.641656441638
 31
0.0
  0
LINE
  5
29531
330
1E
100
AcDbEntity
  8
躯体と製品
  6
PLINE2
 62
     3
100
AcDbLine
 10
23605.76879926863
 20
4179.338398470469
 30
0.0
 11
23605.3104949209
 21
4178.68839847061
 31
0.0
  0
LINE
  5
29532
330
1E
100
AcDbEntity
  8
躯体と製品
  6
PLINE2
 62
     3
100
AcDbLine
 10
23604.18129926897
 20
4179.338398470469
 30
0.0
 11
23603.72299492125
 21
4178.68839847061
 31
0.0
  0
LINE
  5
29533
330
1E
100
AcDbEntity
  8
躯体と製品
  6
PLINE2
 62
     3
100
AcDbLine
 10
23606.93414926837
 20
4176.188398471159
 30
0.0
 11
23606.22710289171
 21
4176.188398471159
 31
0.0
  0
LINE
  5
29534
330
1E
100
AcDbEntity
  8
躯体と製品
  6
PLINE2
 62
     3
100
AcDbLine
 10
23607.35629926828
 20
4175.538398471303
 30
0.0
 11
23607.81460289137
 21
4176.188398471159
 31
0.0
  0
LINE
  5
29535
330
1E
100
AcDbEntity
  8
躯体と製品
  6
PLINE2
 62
     3
100
AcDbLine
 10
23608.52164926802
 20
4176.188398471159
 30
0.0
 11
23607.81460289137
 21
4176.188398471159
 31
0.0
  0
LINE
  5
29536
330
1E
100
AcDbEntity
  8
躯体と製品
  6
PLINE2
 62
     3
100
AcDbLine
 10
23604.661721008
 20
4176.227136876949
 30
0.0
 11
23604.14451231246
 21
4176.375444123291
 31
0.0
  0
ARC
  5
29537
330
1E
100
AcDbEntity
  8
躯体と製品
  6
PLINE2
 62
     3
100
AcDbCircle
 10
23604.93735796446
 20
4177.188398470941
 30
0.0
 40
0.9999999997799998
100
AcDbArc
 50
253.9999999999143
 51
270.0
  0
LINE
  5
29538
330
1E
100
AcDbEntity
  8
躯体と製品
  6
PLINE2
 62
     3
100
AcDbLine
 10
23605.34664926872
 20
4176.188398471159
 30
0.0
 11
23604.93735796446
 21
4176.188398471159
 31
0.0
  0
LINE
  5
29539
330
1E
100
AcDbEntity
  8
躯体と製品
  6
PLINE2
 62
     3
100
AcDbLine
 10
23605.76879926863
 20
4175.538398471303
 30
0.0
 11
23606.22710289171
 21
4176.188398471159
 31
0.0
  0
LINE
  5
2953A
330
1E
100
AcDbEntity
  8
躯体と製品
  6
PLINE2
 62
     3
100
AcDbLine
 10
23604.08406303712
 20
4176.021489050907
 30
0.0
 11
23604.14451231246
 21
4176.375444123291
 31
0.0
  0
LINE
  5
2953B
330
1E
100
AcDbEntity
  8
躯体と製品
  6
PLINE2
 62
     3
100
AcDbLine
 10
23603.63601303721
 20
4176.519829630509
 30
0.0
 11
23604.08406303712
 21
4176.021489050907
 31
0.0
  0
LINE
  5
2953C
330
1E
100
AcDbEntity
  8
躯体と製品
  6
PLINE2
 62
     3
100
AcDbLine
 10
23601.7515028927
 20
4177.815168760658
 30
0.0
 11
23602.1156659361
 21
4176.645116587001
 31
0.0
  0
LINE
  5
2953D
330
1E
100
AcDbEntity
  8
躯体と製品
  6
PLINE2
 62
     3
100
AcDbLine
 10
23602.1156659361
 20
4176.645116587001
 30
0.0
 11
23601.48420144348
 21
4178.106746296826
 31
0.0
  0
LINE
  5
2953E
330
1E
100
AcDbEntity
  8
躯体と製品
  6
PLINE2
 62
     3
100
AcDbLine
 10
23601.48420144348
 20
4178.106746296826
 30
0.0
 11
23601.4497362261
 21
4177.728638325893
 31
0.0
  0
LINE
  5
2953F
330
1E
100
AcDbEntity
  8
躯体と製品
  6
PLINE2
 62
     3
100
AcDbLine
 10
23601.7515028927
 20
4177.815168760658
 30
0.0
 11
23603.02414347213
 21
4178.18009267362
 31
0.0
  0
LINE
  5
29540
330
1E
100
AcDbEntity
  8
躯体と製品
  6
PLINE2
 62
     3
100
AcDbLine
 10
23601.7515028927
 20
4177.815168760658
 30
0.0
 11
23601.48420144348
 21
4178.106746296826
 31
0.0
  0
LINE
  5
29541
330
1E
100
AcDbEntity
  8
躯体と製品
  6
PLINE2
 62
     3
100
AcDbLine
 10
23601.88282173325
 20
4177.023973108657
 30
0.0
 11
23600.4375492698
 21
4177.438398470886
 31
0.0
  0
LINE
  5
29542
330
1E
100
AcDbEntity
  8
躯体と製品
  6
PLINE2
 62
     3
100
AcDbLine
 10
23600.4375492698
 20
4177.438398470886
 30
0.0
 11
23601.4497362261
 21
4177.728638325893
 31
0.0
  0
LINE
  5
29543
330
1E
100
AcDbEntity
  8
躯体と製品
  6
PLINE2
 62
     3
100
AcDbLine
 10
23601.4497362261
 20
4177.728638325893
 30
0.0
 11
23602.1156659361
 21
4176.645116587001
 31
0.0
  0
LWPOLYLINE
  5
29544
330
1E
100
AcDbEntity
  8
中心線
  6
CENTER1
 62
     7
100
AcDbPolyline
 90
        2
 70
     0
 43
0.0
 10
23631.03297663144
 20
4177.438398470886
 10
23598.36877635321
 20
4177.438398470886
  0
LINE
  5
29548
330
1E
100
AcDbEntity
  8
躯体と製品
  6
Continuous
 62
     4
100
AcDbLine
 10
23962.43754876342
 20
3694.938398470887
 30
0.0
 11
23962.43754876342
 21
3740.340698502347
 31
0.0
  0
LINE
  5
29549
330
1E
100
AcDbEntity
  8
躯体と製品
  6
Continuous
 62
     4
100
AcDbLine
 10
23964.43754894272
 20
3694.938398470887
 30
0.0
 11
23964.43754897675
 21
3740.339223925417
 31
0.0
  0
LINE
  5
2954A
330
1E
100
AcDbEntity
  8
躯体と製品
  6
Continuous
 62
     7
100
AcDbLine
 10
23899.43722680367
 20
3694.938398470887
 30
0.0
 11
23899.43722691976
 21
4404.938398470886
 31
0.0
  0
LWPOLYLINE
  5
2954B
330
1E
100
AcDbEntity
  8
躯体と製品
  6
Continuous
 62
     4
100
AcDbPolyline
 90
       10
 70
     0
 43
0.0
 10
23964.43754926342
 20
3694.938398470887
 10
23964.43754926342
 20
3738.639698422223
 10
23968.63754926343
 20
3738.639698422223
 10
23968.63754926343
 20
3731.639698422223
 10
23970.13754926343
 20
3731.639698422223
 10
23970.13754926343
 20
3739.939698422226
 10
23972.03754926345
 20
3739.939698422226
 10
23976.93754926342
 20
3729.939698422226
 10
23979.43754926342
 20
3729.939698422226
 10
23979.43754926342
 20
3694.938398470887
  0
LINE
  5
2954C
330
1E
100
AcDbEntity
  8
躯体と製品
  6
Continuous
 62
     4
100
AcDbLine
 10
23964.43754920451
 20
4038.939698502349
 30
0.0
 11
23964.4375492132
 21
4404.938398470886
 31
0.0
  0
LINE
  5
2954D
330
1E
100
AcDbEntity
  8
躯体と製品
  6
Continuous
 62
     4
100
AcDbLine
 10
23962.43754876342
 20
4038.939698502349
 30
0.0
 11
23962.43754876342
 21
4404.938398470886
 31
0.0
  0
LINE
  5
2954E
330
1E
100
AcDbEntity
  8
躯体と製品
  6
Continuous
 62
     4
100
AcDbLine
 10
23964.43754898332
 20
3748.939698662623
 30
0.0
 11
23964.4375491906
 21
4030.339698662618
 31
0.0
  0
LINE
  5
2954F
330
1E
100
AcDbEntity
  8
躯体と製品
  6
Continuous
 62
     4
100
AcDbLine
 10
23962.43754876342
 20
3748.939698662623
 30
0.0
 11
23962.43754876342
 21
4030.339698662618
 31
0.0
  0
LWPOLYLINE
  5
29550
330
1E
100
AcDbEntity
  8
躯体と製品
  6
Continuous
 62
     4
100
AcDbPolyline
 90
       16
 70
     1
 43
0.0
 10
23964.43754926342
 20
3750.639698422223
 10
23964.43754926342
 20
4028.639698422223
 10
23968.63754926343
 20
4028.639698422223
 10
23968.63754926343
 20
4021.639698422222
 10
23970.13754926343
 20
4021.639698422222
 10
23970.13754926343
 20
4029.939698422225
 10
23972.03754926345
 20
4029.939698422225
 10
23976.93754926342
 20
4019.939698422226
 10
23979.43754926342
 20
4019.939698422226
 10
23979.43754926342
 20
3739.939698422226
 10
23975.93754926342
 20
3739.939698422226
 10
23972.33754926344
 20
3749.33969842222
 10
23970.13754926343
 20
3749.33969842222
 10
23970.13754926343
 20
3757.639698422223
 10
23968.63754926343
 20
3757.639698422223
 10
23968.63754926343
 20
3750.639698422223
  0
LWPOLYLINE
  5
29551
330
1E
100
AcDbEntity
  8
文字-記号
  6
Continuous
 62
     7
100
AcDbPolyline
 90
        3
 70
   128
 43
0.0
 10
23965.63754891046
 20
4036.039890105429
 10
23994.10389246309
 20
4085.345043444293
 10
24043.73027743179
 20
4085.345043444293
  0
LINE
  5
29552
330
1E
100
AcDbEntity
  8
中心線
  6
CENTER1
 62
     7
100
AcDbLine
 10
23953.68754941045
 20
3744.639698422223
 30
0.0
 11
23984.40854926344
 21
3744.639698422223
 31
0.0
  0
LINE
  5
29553
330
1E
100
AcDbEntity
  8
躯体と製品
  6
Continuous
 62
     3
100
AcDbLine
 10
23968.73754876346
 20
3757.639698422223
 30
0.0
 11
23969.93754876342
 21
3757.639698422223
 31
0.0
  0
ARC
  5
29554
330
1E
100
AcDbEntity
  8
躯体と製品
  6
Continuous
 62
     3
100
AcDbCircle
 10
23966.13754861639
 20
3748.940698502353
 30
0.0
 40
1.7
100
AcDbArc
 50
91.96524710649606
 51
180.0336980000293
  0
ARC
  5
29555
330
1E
100
AcDbEntity
  8
躯体と製品
  6
Continuous
 62
     3
100
AcDbCircle
 10
23966.13754891046
 20
3740.339698662618
 30
0.0
 40
1.7
100
AcDbArc
 50
180.0000059997609
 51
269.9999969984521
  0
LWPOLYLINE
  5
29556
330
1E
100
AcDbEntity
  8
躯体と製品
  6
Continuous
 62
     3
100
AcDbPolyline
 90
        4
 70
     1
 43
0.0
 10
23965.63754891046
 20
3740.339698662618
 10
23958.63754891046
 20
3740.339698662618
 10
23958.63754891046
 20
3748.939698662623
 10
23965.63754891046
 20
3748.939698662623
  0
ARC
  5
29557
330
1E
100
AcDbEntity
  8
躯体と製品
  6
Continuous
 62
     3
100
AcDbCircle
 10
23966.13754791453
 20
3748.940696615042
 30
0.0
 40
0.5
100
AcDbArc
 50
93.62445275446631
 51
180.1143570002185
  0
ARC
  5
29558
330
1E
100
AcDbEntity
  8
躯体と製品
  6
Continuous
 62
     3
100
AcDbCircle
 10
23968.23754876346
 20
3751.139696534912
 30
0.0
 40
1.7
100
AcDbArc
 50
270.0
 51
0.0
  0
LINE
  5
29559
330
1E
100
AcDbEntity
  8
躯体と製品
  6
Continuous
 62
     3
100
AcDbLine
 10
23966.28454890848
 20
3748.640698651274
 30
0.0
 11
23965.83754890843
 21
3748.63969865127
 31
0.0
  0
LINE
  5
2955A
330
1E
100
AcDbEntity
  8
躯体と製品
  6
Continuous
 62
     3
100
AcDbLine
 10
23968.06554890844
 20
3747.271698651268
 30
0.0
 11
23968.16454890848
 21
3747.323698651279
 31
0.0
  0
LINE
  5
2955B
330
1E
100
AcDbEntity
  8
躯体と製品
  6
Continuous
 62
     3
100
AcDbLine
 10
23967.43754890847
 20
3748.40469865127
 30
0.0
 11
23966.28454890848
 21
3748.640698651274
 31
0.0
  0
LINE
  5
2955C
330
1E
100
AcDbEntity
  8
躯体と製品
  6
Continuous
 62
     3
100
AcDbLine
 10
23968.00954890845
 20
3745.387698651277
 30
0.0
 11
23968.25354890846
 21
3745.387698651277
 31
0.0
  0
ARC
  5
2955D
330
1E
100
AcDbEntity
  8
躯体と製品
  6
Continuous
 62
     3
100
AcDbCircle
 10
23968.00954890845
 20
3745.188698651269
 30
0.0
 40
0.2
100
AcDbArc
 50
90.00000299821293
 51
180.0000059997609
  0
ARC
  5
2955E
330
1E
100
AcDbEntity
  8
躯体と製品
  6
Continuous
 62
     3
100
AcDbCircle
 10
23965.83754890843
 20
3748.439698651273
 30
0.0
 40
0.2
100
AcDbArc
 50
90.00000299821293
 51
180.0000059997609
  0
ARC
  5
2955F
330
1E
100
AcDbEntity
  8
躯体と製品
  6
Continuous
 62
     3
100
AcDbCircle
 10
23968.15654890845
 20
3747.095698651275
 30
0.0
 40
0.2
100
AcDbArc
 50
117.3410229995603
 51
203.6129460013843
  0
ARC
  5
29560
330
1E
100
AcDbEntity
  8
躯体と製品
  6
Continuous
 62
     3
100
AcDbCircle
 10
23968.25354890846
 20
3745.487698651268
 30
0.0
 40
0.1
100
AcDbArc
 50
269.9999969984521
 51
4.6199239999185
  0
LINE
  5
29561
330
1E
100
AcDbEntity
  8
躯体と製品
  6
Continuous
 62
     3
100
AcDbLine
 10
23967.97354890849
 20
3747.015698651274
 30
0.0
 11
23968.08954890847
 21
3746.739698651276
 31
0.0
  0
LINE
  5
29562
330
1E
100
AcDbEntity
  8
躯体と製品
  6
Continuous
 62
     3
100
AcDbLine
 10
23968.08954890847
 20
3746.739698651276
 30
0.0
 11
23968.22554890847
 21
3746.287698651271
 31
0.0
  0
LINE
  5
29563
330
1E
100
AcDbEntity
  8
躯体と製品
  6
Continuous
 62
     3
100
AcDbLine
 10
23968.22554890847
 20
3746.287698651271
 30
0.0
 11
23968.32554890845
 21
3745.811698651277
 31
0.0
  0
LINE
  5
29564
330
1E
100
AcDbEntity
  8
躯体と製品
  6
Continuous
 62
     3
100
AcDbLine
 10
23968.32554890845
 20
3745.811698651277
 30
0.0
 11
23968.35254890845
 21
3745.49569865127
 31
0.0
  0
ARC
  5
29565
330
1E
100
AcDbEntity
  8
躯体と製品
  6
Continuous
 62
     3
100
AcDbCircle
 10
23968.23754876346
 20
3751.13969849913
 30
0.0
 40
0.5
100
AcDbArc
 50
269.9681866880938
 51
0.0
  0
LINE
  5
29566
330
1E
100
AcDbEntity
  8
躯体と製品
  6
Continuous
 62
     3
100
AcDbLine
 10
23968.23727113992
 20
3750.639698576197
 30
0.0
 11
23966.07924999385
 21
3750.639698581988
 31
0.0
  0
LINE
  5
29567
330
1E
100
AcDbEntity
  8
躯体と製品
  6
Continuous
 62
     3
100
AcDbLine
 10
23968.23754876346
 20
3749.439696534916
 30
0.0
 11
23966.10593968817
 21
3749.439696534916
 31
0.0
  0
ARC
  5
29568
330
1E
100
AcDbEntity
  8
躯体と製品
  6
Continuous
 62
     3
100
AcDbCircle
 10
23963.85332905013
 20
3744.091408795706
 30
0.0
 40
4.815999999999999
100
AcDbArc
 50
318.093150000597
 51
6.537158761711621
  0
ARC
  5
29569
330
1E
100
AcDbEntity
  8
躯体と製品
  6
Continuous
 62
     3
100
AcDbCircle
 10
23968.00954890845
 20
3744.090698673972
 30
0.0
 40
0.2
100
AcDbArc
 50
179.9999940002391
 51
269.9999969984521
  0
LINE
  5
2956A
330
1E
100
AcDbEntity
  8
躯体と製品
  6
Continuous
 62
     3
100
AcDbLine
 10
23967.43754890847
 20
3740.874698673972
 30
0.0
 11
23967.43754890847
 21
3744.639698673971
 31
0.0
  0
LINE
  5
2956B
330
1E
100
AcDbEntity
  8
躯体と製品
  6
Continuous
 62
     3
100
AcDbLine
 10
23968.73754876346
 20
3731.639698582483
 30
0.0
 11
23969.93754876342
 21
3731.639698582483
 31
0.0
  0
ARC
  5
2956C
330
1E
100
AcDbEntity
  8
躯体と製品
  6
Continuous
 62
     3
100
AcDbCircle
 10
23966.13754891046
 20
3740.339698662618
 30
0.0
 40
0.5
100
AcDbArc
 50
180.0000059997609
 51
269.885405997914
  0
ARC
  5
2956D
330
1E
100
AcDbEntity
  8
躯体と製品
  6
Continuous
 62
     3
100
AcDbCircle
 10
23968.23754876346
 20
3738.139698582483
 30
0.0
 40
0.5
100
AcDbArc
 50
0.0
 51
90.0
  0
LINE
  5
2956E
330
1E
100
AcDbEntity
  8
躯体と製品
  6
Continuous
 62
     3
100
AcDbLine
 10
23968.23754876346
 20
3738.639698582483
 30
0.0
 11
23966.13754882146
 21
3738.63969866262
 31
0.0
  0
LINE
  5
2956F
330
1E
100
AcDbEntity
  8
躯体と製品
  6
Continuous
 62
     3
100
AcDbLine
 10
23968.73754876346
 20
3738.139698582483
 30
0.0
 11
23968.73754876346
 21
3731.639698582483
 31
0.0
  0
ARC
  5
29570
330
1E
100
AcDbEntity
  8
躯体と製品
  6
Continuous
 62
     3
100
AcDbCircle
 10
23968.23754876346
 20
3738.139698582483
 30
0.0
 40
1.7
100
AcDbArc
 50
0.0
 51
90.0
  0
LINE
  5
29571
330
1E
100
AcDbEntity
  8
躯体と製品
  6
Continuous
 62
     3
100
AcDbLine
 10
23968.23754876346
 20
3739.839698582481
 30
0.0
 11
23966.13654888981
 21
3739.839699662655
 31
0.0
  0
LINE
  5
29572
330
1E
100
AcDbEntity
  8
躯体と製品
  6
Continuous
 62
     3
100
AcDbLine
 10
23969.93754876342
 20
3738.139698582483
 30
0.0
 11
23969.93754876342
 21
3731.639698582483
 31
0.0
  0
LINE
  5
29573
330
1E
100
AcDbEntity
  8
躯体と製品
  6
Continuous
 62
     3
100
AcDbLine
 10
23968.32554890845
 20
3743.467698673966
 30
0.0
 11
23968.35254890845
 21
3743.783698673971
 31
0.0
  0
LINE
  5
29574
330
1E
100
AcDbEntity
  8
躯体と製品
  6
Continuous
 62
     3
100
AcDbLine
 10
23968.22554890847
 20
3742.99169867397
 30
0.0
 11
23968.32554890845
 21
3743.467698673966
 31
0.0
  0
LINE
  5
29575
330
1E
100
AcDbEntity
  8
躯体と製品
  6
Continuous
 62
     3
100
AcDbLine
 10
23968.08954890847
 20
3742.539698673965
 30
0.0
 11
23968.22554890847
 21
3742.99169867397
 31
0.0
  0
LINE
  5
29576
330
1E
100
AcDbEntity
  8
躯体と製品
  6
Continuous
 62
     3
100
AcDbLine
 10
23967.97354890849
 20
3742.263698673968
 30
0.0
 11
23968.08954890847
 21
3742.539698673965
 31
0.0
  0
ARC
  5
29577
330
1E
100
AcDbEntity
  8
躯体と製品
  6
Continuous
 62
     3
100
AcDbCircle
 10
23968.25354890846
 20
3743.791698673973
 30
0.0
 40
0.1
100
AcDbArc
 50
355.3800760000814
 51
90.00000299821293
  0
ARC
  5
29578
330
1E
100
AcDbEntity
  8
躯体と製品
  6
Continuous
 62
     3
100
AcDbCircle
 10
23968.15654890845
 20
3742.183698673966
 30
0.0
 40
0.2
100
AcDbArc
 50
156.3870539986157
 51
242.6589770004394
  0
ARC
  5
29579
330
1E
100
AcDbEntity
  8
躯体と製品
  6
Continuous
 62
     3
100
AcDbCircle
 10
23965.83754890843
 20
3740.839698673968
 30
0.0
 40
0.2
100
AcDbArc
 50
179.9999940002391
 51
269.9999969984521
  0
LINE
  5
2957A
330
1E
100
AcDbEntity
  8
躯体と製品
  6
Continuous
 62
     3
100
AcDbLine
 10
23968.00954890845
 20
3743.891698673964
 30
0.0
 11
23968.25354890846
 21
3743.891698673964
 31
0.0
  0
LINE
  5
2957B
330
1E
100
AcDbEntity
  8
躯体と製品
  6
Continuous
 62
     3
100
AcDbLine
 10
23967.43754890847
 20
3740.874698673972
 30
0.0
 11
23966.28454890848
 21
3740.638698673967
 31
0.0
  0
LINE
  5
2957C
330
1E
100
AcDbEntity
  8
躯体と製品
  6
Continuous
 62
     3
100
AcDbLine
 10
23968.06554890844
 20
3742.007698673973
 30
0.0
 11
23968.16454890848
 21
3741.955698673963
 31
0.0
  0
LINE
  5
2957D
330
1E
100
AcDbEntity
  8
躯体と製品
  6
Continuous
 62
     3
100
AcDbLine
 10
23966.28454890848
 20
3740.638698673967
 30
0.0
 11
23965.83754890843
 21
3740.639698673971
 31
0.0
  0
LINE
  5
2957E
330
1E
100
AcDbEntity
  8
躯体と製品
  6
Continuous
 62
     3
100
AcDbLine
 10
23967.80954890844
 20
3744.091698651275
 30
0.0
 11
23967.80954890844
 21
3744.63969865127
 31
0.0
  0
LINE
  5
2957F
330
1E
100
AcDbEntity
  8
躯体と製品
  6
Continuous
 62
     3
100
AcDbLine
 10
23967.80954890844
 20
3744.090698673972
 30
0.0
 11
23967.80954890844
 21
3744.639698673971
 31
0.0
  0
LINE
  5
29580
330
1E
100
AcDbEntity
  8
躯体と製品
  6
Continuous
 62
     3
100
AcDbLine
 10
23967.80954890844
 20
3745.188698651269
 30
0.0
 11
23967.80954890844
 21
3744.63969865127
 31
0.0
  0
LINE
  5
29581
330
1E
100
AcDbEntity
  8
躯体と製品
  6
Continuous
 62
     3
100
AcDbLine
 10
23967.43754890847
 20
3748.40469865127
 30
0.0
 11
23967.43754890847
 21
3744.63969865127
 31
0.0
  0
ARC
  5
29582
330
1E
100
AcDbEntity
  8
躯体と製品
  6
Continuous
 62
     3
100
AcDbCircle
 10
23963.85332905013
 20
3745.187988529535
 30
0.0
 40
4.815999999999999
100
AcDbArc
 50
353.4628412382885
 51
41.90684999940309
  0
LINE
  5
29583
330
1E
100
AcDbEntity
  8
躯体と製品
  6
Continuous
 62
     3
100
AcDbLine
 10
23967.80954890844
 20
3745.187698673966
 30
0.0
 11
23967.80954890844
 21
3744.639698673971
 31
0.0
  0
LINE
  5
29584
330
1E
100
AcDbEntity
  8
躯体と製品
  6
Continuous
 62
     3
100
AcDbLine
 10
23968.73754876346
 20
3757.639698582483
 30
0.0
 11
23968.73754876346
 21
3751.13969849913
 31
0.0
  0
LINE
  5
29585
330
1E
100
AcDbEntity
  8
躯体と製品
  6
Continuous
 62
     3
100
AcDbLine
 10
23969.93754876342
 20
3757.639698582483
 30
0.0
 11
23969.93754876342
 21
3751.139696534912
 31
0.0
  0
LWPOLYLINE
  5
29586
330
1E
100
AcDbEntity
  8
躯体と製品
  6
Continuous
 62
     4
100
AcDbPolyline
 90
        4
 70
     1
 43
0.0
 10
23899.43722694785
 20
4059.938398533401
 10
23901.73722694214
 20
4059.938398533401
 10
23901.73722694214
 20
4109.938398408386
 10
23899.43722694785
 20
4109.938398408386
  0
LINE
  5
29587
330
1E
100
AcDbEntity
  8
中心線
  6
CENTER1
 62
     7
100
AcDbLine
 10
23885.75546711129
 20
4084.938398470886
 30
0.0
 11
23947.93755043406
 21
4084.938398470886
 31
0.0
  0
LWPOLYLINE
  5
29588
330
1E
100
AcDbEntity
  8
躯体と製品
  6
Continuous
 62
     4
100
AcDbPolyline
 90
        2
 70
     0
 43
0.0
 10
23901.73722694214
 20
4092.938398450892
 10
23899.43722694785
 20
4092.938398450892
  0
LWPOLYLINE
  5
29589
330
1E
100
AcDbEntity
  8
躯体と製品
  6
Continuous
 62
     4
100
AcDbPolyline
 90
        2
 70
     0
 43
0.0
 10
23901.73722694214
 20
4076.938398490895
 10
23899.43722694785
 20
4076.938398490895
  0
LWPOLYLINE
  5
2958A
330
1E
100
AcDbEntity
  8
躯体と製品
  6
Continuous
 62
     4
100
AcDbPolyline
 90
        6
 70
     0
 43
0.0
 10
23901.73722694214
 20
4074.938398495887
 10
23904.37741133517
 20
4077.138552156774
 42
0.2225848818878075
 10
23904.73722693463
 20
4077.90677343446
 10
23904.73722693463
 20
4091.970023507328
 42
0.222584881887805
 10
23904.37741133517
 20
4092.738244785013
 10
23901.73722694214
 20
4094.938398445886
  0
LINE
  5
2958B
330
1E
100
AcDbEntity
  8
躯体と製品
  6
Continuous
 62
     3
100
AcDbLine
 10
23969.93754876342
 20
4028.139698582483
 30
0.0
 11
23969.93754876342
 21
4021.639698582482
 31
0.0
  0
LINE
  5
2958C
330
1E
100
AcDbEntity
  8
躯体と製品
  6
Continuous
 62
     3
100
AcDbLine
 10
23968.73754876346
 20
4028.139698582483
 30
0.0
 11
23968.73754876346
 21
4021.639698582482
 31
0.0
  0
LINE
  5
2958D
330
1E
100
AcDbEntity
  8
躯体と製品
  6
Continuous
 62
     3
100
AcDbLine
 10
23968.73754876346
 20
4021.639698582482
 30
0.0
 11
23969.93754876342
 21
4021.639698582482
 31
0.0
  0
LINE
  5
2958E
330
1E
100
AcDbEntity
  8
中心線
  6
CENTER1
 62
     7
100
AcDbLine
 10
23953.68754941045
 20
4034.639698422223
 30
0.0
 11
23984.40854926344
 21
4034.639698422223
 31
0.0
  0
LINE
  5
2958F
330
1E
100
AcDbEntity
  8
躯体と製品
  6
Continuous
 62
     3
100
AcDbLine
 10
23969.93754876342
 20
4047.639698582483
 30
0.0
 11
23969.93754876342
 21
4041.139696534911
 31
0.0
  0
LINE
  5
29590
330
1E
100
AcDbEntity
  8
躯体と製品
  6
Continuous
 62
     3
100
AcDbLine
 10
23968.73754876346
 20
4047.639698582483
 30
0.0
 11
23968.73754876346
 21
4041.139698499129
 31
0.0
  0
LINE
  5
29591
330
1E
100
AcDbEntity
  8
躯体と製品
  6
Continuous
 62
     3
100
AcDbLine
 10
23967.80954890844
 20
4035.187698673966
 30
0.0
 11
23967.80954890844
 21
4034.639698673971
 31
0.0
  0
ARC
  5
29592
330
1E
100
AcDbEntity
  8
躯体と製品
  6
Continuous
 62
     3
100
AcDbCircle
 10
23963.85332905013
 20
4035.187988529535
 30
0.0
 40
4.815999999999999
100
AcDbArc
 50
353.4628412382885
 51
41.90684999940309
  0
LINE
  5
29593
330
1E
100
AcDbEntity
  8
躯体と製品
  6
Continuous
 62
     3
100
AcDbLine
 10
23967.43754890847
 20
4038.404698651269
 30
0.0
 11
23967.43754890847
 21
4034.63969865127
 31
0.0
  0
LINE
  5
29594
330
1E
100
AcDbEntity
  8
躯体と製品
  6
Continuous
 62
     3
100
AcDbLine
 10
23967.80954890844
 20
4035.188698651269
 30
0.0
 11
23967.80954890844
 21
4034.63969865127
 31
0.0
  0
LINE
  5
29595
330
1E
100
AcDbEntity
  8
躯体と製品
  6
Continuous
 62
     3
100
AcDbLine
 10
23967.80954890844
 20
4034.090698673971
 30
0.0
 11
23967.80954890844
 21
4034.639698673971
 31
0.0
  0
LINE
  5
29596
330
1E
100
AcDbEntity
  8
躯体と製品
  6
Continuous
 62
     3
100
AcDbLine
 10
23967.80954890844
 20
4034.091698651274
 30
0.0
 11
23967.80954890844
 21
4034.63969865127
 31
0.0
  0
LINE
  5
29597
330
1E
100
AcDbEntity
  8
躯体と製品
  6
Continuous
 62
     3
100
AcDbLine
 10
23966.28454890848
 20
4030.638698673967
 30
0.0
 11
23965.83754890843
 21
4030.639698673971
 31
0.0
  0
LINE
  5
29598
330
1E
100
AcDbEntity
  8
躯体と製品
  6
Continuous
 62
     3
100
AcDbLine
 10
23968.06554890844
 20
4032.007698673973
 30
0.0
 11
23968.16454890848
 21
4031.955698673963
 31
0.0
  0
LINE
  5
29599
330
1E
100
AcDbEntity
  8
躯体と製品
  6
Continuous
 62
     3
100
AcDbLine
 10
23967.43754890847
 20
4030.874698673971
 30
0.0
 11
23966.28454890848
 21
4030.638698673967
 31
0.0
  0
LINE
  5
2959A
330
1E
100
AcDbEntity
  8
躯体と製品
  6
Continuous
 62
     3
100
AcDbLine
 10
23968.00954890845
 20
4033.891698673964
 30
0.0
 11
23968.25354890846
 21
4033.891698673964
 31
0.0
  0
ARC
  5
2959B
330
1E
100
AcDbEntity
  8
躯体と製品
  6
Continuous
 62
     3
100
AcDbCircle
 10
23965.83754890843
 20
4030.839698673967
 30
0.0
 40
0.2
100
AcDbArc
 50
179.9999940002391
 51
269.9999969984521
  0
ARC
  5
2959C
330
1E
100
AcDbEntity
  8
躯体と製品
  6
Continuous
 62
     3
100
AcDbCircle
 10
23968.15654890845
 20
4032.183698673965
 30
0.0
 40
0.2
100
AcDbArc
 50
156.3870539986157
 51
242.6589770004394
  0
ARC
  5
2959D
330
1E
100
AcDbEntity
  8
躯体と製品
  6
Continuous
 62
     3
100
AcDbCircle
 10
23968.25354890846
 20
4033.791698673972
 30
0.0
 40
0.1
100
AcDbArc
 50
355.3800760000814
 51
90.00000299821293
  0
LINE
  5
2959E
330
1E
100
AcDbEntity
  8
躯体と製品
  6
Continuous
 62
     3
100
AcDbLine
 10
23967.97354890849
 20
4032.263698673967
 30
0.0
 11
23968.08954890847
 21
4032.539698673965
 31
0.0
  0
LINE
  5
2959F
330
1E
100
AcDbEntity
  8
躯体と製品
  6
Continuous
 62
     3
100
AcDbLine
 10
23968.08954890847
 20
4032.539698673965
 30
0.0
 11
23968.22554890847
 21
4032.99169867397
 31
0.0
  0
LINE
  5
295A0
330
1E
100
AcDbEntity
  8
躯体と製品
  6
Continuous
 62
     3
100
AcDbLine
 10
23968.22554890847
 20
4032.99169867397
 30
0.0
 11
23968.32554890845
 21
4033.467698673965
 31
0.0
  0
LINE
  5
295A1
330
1E
100
AcDbEntity
  8
躯体と製品
  6
Continuous
 62
     3
100
AcDbLine
 10
23968.32554890845
 20
4033.467698673965
 30
0.0
 11
23968.35254890845
 21
4033.78369867397
 31
0.0
  0
LINE
  5
295A2
330
1E
100
AcDbEntity
  8
躯体と製品
  6
Continuous
 62
     3
100
AcDbLine
 10
23968.23754876346
 20
4029.83969858248
 30
0.0
 11
23966.13654888981
 21
4029.839699662654
 31
0.0
  0
ARC
  5
295A3
330
1E
100
AcDbEntity
  8
躯体と製品
  6
Continuous
 62
     3
100
AcDbCircle
 10
23968.23754876346
 20
4028.139698582483
 30
0.0
 40
1.7
100
AcDbArc
 50
0.0
 51
90.0
  0
LINE
  5
295A4
330
1E
100
AcDbEntity
  8
躯体と製品
  6
Continuous
 62
     3
100
AcDbLine
 10
23968.23754876346
 20
4028.639698582483
 30
0.0
 11
23966.13754882146
 21
4028.639698662621
 31
0.0
  0
ARC
  5
295A5
330
1E
100
AcDbEntity
  8
躯体と製品
  6
Continuous
 62
     3
100
AcDbCircle
 10
23968.23754876346
 20
4028.139698582483
 30
0.0
 40
0.5
100
AcDbArc
 50
0.0
 51
90.0
  0
ARC
  5
295A6
330
1E
100
AcDbEntity
  8
躯体と製品
  6
Continuous
 62
     3
100
AcDbCircle
 10
23966.13754891046
 20
4030.339698662618
 30
0.0
 40
0.5
100
AcDbArc
 50
180.0000059997609
 51
269.885405997914
  0
LINE
  5
295A7
330
1E
100
AcDbEntity
  8
躯体と製品
  6
Continuous
 62
     3
100
AcDbLine
 10
23967.43754890847
 20
4030.874698673971
 30
0.0
 11
23967.43754890847
 21
4034.639698673971
 31
0.0
  0
ARC
  5
295A8
330
1E
100
AcDbEntity
  8
躯体と製品
  6
Continuous
 62
     3
100
AcDbCircle
 10
23968.00954890845
 20
4034.090698673971
 30
0.0
 40
0.2
100
AcDbArc
 50
179.9999940002391
 51
269.9999969984521
  0
ARC
  5
295A9
330
1E
100
AcDbEntity
  8
躯体と製品
  6
Continuous
 62
     3
100
AcDbCircle
 10
23963.85332905013
 20
4034.091408795705
 30
0.0
 40
4.815999999999999
100
AcDbArc
 50
318.093150000597
 51
6.537158761711621
  0
LINE
  5
295AA
330
1E
100
AcDbEntity
  8
躯体と製品
  6
Continuous
 62
     3
100
AcDbLine
 10
23968.23754876346
 20
4039.439696534915
 30
0.0
 11
23966.10593968817
 21
4039.439696534915
 31
0.0
  0
LINE
  5
295AB
330
1E
100
AcDbEntity
  8
躯体と製品
  6
Continuous
 62
     3
100
AcDbLine
 10
23968.23727113992
 20
4040.639698576196
 30
0.0
 11
23966.07924999385
 21
4040.639698581988
 31
0.0
  0
ARC
  5
295AC
330
1E
100
AcDbEntity
  8
躯体と製品
  6
Continuous
 62
     3
100
AcDbCircle
 10
23968.23754876346
 20
4041.139698499129
 30
0.0
 40
0.5
100
AcDbArc
 50
269.9681866880938
 51
0.0
  0
LINE
  5
295AD
330
1E
100
AcDbEntity
  8
躯体と製品
  6
Continuous
 62
     3
100
AcDbLine
 10
23968.32554890845
 20
4035.811698651276
 30
0.0
 11
23968.35254890845
 21
4035.49569865127
 31
0.0
  0
LINE
  5
295AE
330
1E
100
AcDbEntity
  8
躯体と製品
  6
Continuous
 62
     3
100
AcDbLine
 10
23968.22554890847
 20
4036.28769865127
 30
0.0
 11
23968.32554890845
 21
4035.811698651276
 31
0.0
  0
LINE
  5
295AF
330
1E
100
AcDbEntity
  8
躯体と製品
  6
Continuous
 62
     3
100
AcDbLine
 10
23968.08954890847
 20
4036.739698651276
 30
0.0
 11
23968.22554890847
 21
4036.28769865127
 31
0.0
  0
LINE
  5
295B0
330
1E
100
AcDbEntity
  8
躯体と製品
  6
Continuous
 62
     3
100
AcDbLine
 10
23967.97354890849
 20
4037.015698651273
 30
0.0
 11
23968.08954890847
 21
4036.739698651276
 31
0.0
  0
ARC
  5
295B1
330
1E
100
AcDbEntity
  8
躯体と製品
  6
Continuous
 62
     3
100
AcDbCircle
 10
23968.25354890846
 20
4035.487698651269
 30
0.0
 40
0.1
100
AcDbArc
 50
269.9999969984521
 51
4.6199239999185
  0
ARC
  5
295B2
330
1E
100
AcDbEntity
  8
躯体と製品
  6
Continuous
 62
     3
100
AcDbCircle
 10
23968.15654890845
 20
4037.095698651276
 30
0.0
 40
0.2
100
AcDbArc
 50
117.3410229995603
 51
203.6129460013843
  0
ARC
  5
295B3
330
1E
100
AcDbEntity
  8
躯体と製品
  6
Continuous
 62
     3
100
AcDbCircle
 10
23965.83754890843
 20
4038.439698651273
 30
0.0
 40
0.2
100
AcDbArc
 50
90.00000299821293
 51
180.0000059997609
  0
ARC
  5
295B4
330
1E
100
AcDbEntity
  8
躯体と製品
  6
Continuous
 62
     3
100
AcDbCircle
 10
23968.00954890845
 20
4035.188698651269
 30
0.0
 40
0.2
100
AcDbArc
 50
90.00000299821293
 51
180.0000059997609
  0
LINE
  5
295B5
330
1E
100
AcDbEntity
  8
躯体と製品
  6
Continuous
 62
     3
100
AcDbLine
 10
23968.00954890845
 20
4035.387698651276
 30
0.0
 11
23968.25354890846
 21
4035.387698651276
 31
0.0
  0
LINE
  5
295B6
330
1E
100
AcDbEntity
  8
躯体と製品
  6
Continuous
 62
     3
100
AcDbLine
 10
23967.43754890847
 20
4038.404698651269
 30
0.0
 11
23966.28454890848
 21
4038.640698651273
 31
0.0
  0
LINE
  5
295B7
330
1E
100
AcDbEntity
  8
躯体と製品
  6
Continuous
 62
     3
100
AcDbLine
 10
23968.06554890844
 20
4037.271698651268
 30
0.0
 11
23968.16454890848
 21
4037.323698651278
 31
0.0
  0
LINE
  5
295B8
330
1E
100
AcDbEntity
  8
躯体と製品
  6
Continuous
 62
     3
100
AcDbLine
 10
23966.28454890848
 20
4038.640698651273
 30
0.0
 11
23965.83754890843
 21
4038.63969865127
 31
0.0
  0
ARC
  5
295B9
330
1E
100
AcDbEntity
  8
躯体と製品
  6
Continuous
 62
     3
100
AcDbCircle
 10
23968.23754876346
 20
4041.139696534911
 30
0.0
 40
1.7
100
AcDbArc
 50
270.0
 51
0.0
  0
ARC
  5
295BA
330
1E
100
AcDbEntity
  8
躯体と製品
  6
Continuous
 62
     3
100
AcDbCircle
 10
23966.13754791453
 20
4038.940696615042
 30
0.0
 40
0.5
100
AcDbArc
 50
93.62445275446631
 51
180.1143570002185
  0
LWPOLYLINE
  5
295BB
330
1E
100
AcDbEntity
  8
躯体と製品
  6
Continuous
 62
     3
100
AcDbPolyline
 90
        4
 70
     1
 43
0.0
 10
23965.63754891046
 20
4030.339698662618
 10
23958.63754891046
 20
4030.339698662618
 10
23958.63754891046
 20
4038.939698662623
 10
23965.63754891046
 20
4038.939698662623
  0
ARC
  5
295BC
330
1E
100
AcDbEntity
  8
躯体と製品
  6
Continuous
 62
     3
100
AcDbCircle
 10
23966.13754891046
 20
4030.339698662618
 30
0.0
 40
1.7
100
AcDbArc
 50
180.0000059997609
 51
269.9999969984521
  0
ARC
  5
295BD
330
1E
100
AcDbEntity
  8
躯体と製品
  6
Continuous
 62
     3
100
AcDbCircle
 10
23966.13754861639
 20
4038.940698502353
 30
0.0
 40
1.7
100
AcDbArc
 50
91.96524710649606
 51
180.0336980000293
  0
LINE
  5
295BE
330
1E
100
AcDbEntity
  8
躯体と製品
  6
Continuous
 62
     3
100
AcDbLine
 10
23968.73754876346
 20
4047.639698582483
 30
0.0
 11
23969.93754876342
 21
4047.639698582483
 31
0.0
  0
TEXT
  5
295BF
330
1E
100
AcDbEntity
  8
文字-記号
  6
Continuous
 62
     7
100
AcDbText
 10
23997.67004146251
 20
3892.597993561838
 30
0.0
 40
9.0
  1
ＳＡテープ
 11
23997.67004146251
 21
3891.397993561838
 31
0.0
100
AcDbText
 73
     1
  0
TEXT
  5
295C0
330
1E
100
AcDbEntity
  8
文字-記号
  6
Continuous
 62
     7
100
AcDbText
 10
23999.23550449088
 20
4088.269217950528
 30
0.0
 40
9.0
  1
固定金具
 11
23999.23550449088
 21
4087.069217950527
 31
0.0
100
AcDbText
 73
     1
  0
TEXT
  5
295C1
330
1E
100
AcDbEntity
  8
文字-記号
  6
Continuous
 62
     7
100
AcDbText
 10
24014.79643996369
 20
3993.158569892733
 30
0.0
 40
9.0
  1
壁面板（オープンタイプ）
 11
24014.79643996369
 21
3991.958569892733
 31
0.0
100
AcDbText
 73
     1
  0
TEXT
  5
295C2
330
1E
100
AcDbEntity
  8
文字-記号
  6
Continuous
 62
     7
100
AcDbText
 10
24036.70938843591
 20
3980.445628630182
 30
0.0
 40
9.0
  1
面幅 ２９０ １５t
 11
24036.70938843591
 21
3979.245628630182
 31
0.0
100
AcDbText
 73
     1
  0
LWPOLYLINE
  5
295C3
330
1E
100
AcDbEntity
  8
文字-記号
  6
Continuous
 62
     7
 48
3.0
100
AcDbPolyline
 90
        3
 70
     0
 43
0.0
 10
23979.43754926342
 20
3922.772750770593
 10
24009.61258358893
 20
3975.037443342466
 10
24151.01411184068
 20
3975.037443342466
  0
LWPOLYLINE
  5
295C4
330
1E
100
AcDbEntity
  8
躯体と製品
  6
Continuous
 62
     4
100
AcDbPolyline
 90
       10
 70
     0
 43
0.0
 10
23979.43754926342
 20
4234.938398470887
 10
23979.43754926342
 20
4029.939698422225
 10
23975.93754926342
 20
4029.939698422225
 10
23972.33754926344
 20
4039.33969842222
 10
23970.13754926343
 20
4039.33969842222
 10
23970.13754926343
 20
4047.639698422222
 10
23968.63754926343
 20
4047.639698422222
 10
23968.63754926343
 20
4040.639698422222
 10
23964.43754926342
 20
4040.639698422222
 10
23964.43754920916
 20
4234.938398470887
  0
LWPOLYLINE
  5
295C5
330
1E
100
AcDbEntity
  8
文字-記号
  6
Continuous
 62
     7
 48
3.0
100
AcDbPolyline
 90
        3
 70
     0
 43
0.0
 10
23963.62384677446
 20
3841.959582153322
 10
23991.59433246113
 20
3890.405884474989
 10
24055.32405181591
 20
3890.405884474989
  0
LWPOLYLINE
  5
295C6
330
1E
100
AcDbEntity
  8
躯体と製品
  6
Continuous
 62
     4
100
AcDbPolyline
 90
        2
 70
     0
 43
0.0
 10
23936.13754876342
 20
4404.938398470886
 10
23936.13754876342
 20
3694.938398470887
  0
LWPOLYLINE
  5
295C7
330
1E
100
AcDbEntity
  8
躯体と製品
  6
Continuous
 62
     4
100
AcDbPolyline
 90
        2
 70
     0
 43
0.0
 10
23933.43754876342
 20
4404.938398470886
 10
23933.43754876342
 20
3694.938398470887
  0
LINE
  5
295C8
330
1E
100
AcDbEntity
  8
躯体と製品
  6
Continuous
 62
     4
100
AcDbLine
 10
23904.73722693463
 20
4089.938398458386
 30
0.0
 11
23927.43754877761
 21
4089.938398473977
 31
0.0
  0
LINE
  5
295C9
330
1E
100
AcDbEntity
  8
躯体と製品
  6
Continuous
 62
     4
100
AcDbLine
 10
23904.73722693463
 20
4088.938398460889
 30
0.0
 11
23927.43754877761
 21
4088.938398460888
 31
0.0
  0
LINE
  5
295CA
330
1E
100
AcDbEntity
  8
躯体と製品
  6
Continuous
 62
     4
100
AcDbLine
 10
23904.73722693463
 20
4079.938398483402
 30
0.0
 11
23927.43754877761
 21
4079.938398467791
 31
0.0
  0
LINE
  5
295CB
330
1E
100
AcDbEntity
  8
躯体と製品
  6
Continuous
 62
     4
100
AcDbLine
 10
23904.73722693463
 20
4080.938398994391
 30
0.0
 11
23927.43754877761
 21
4080.938398341448
 31
0.0
  0
LWPOLYLINE
  5
295CC
330
1E
100
AcDbEntity
  8
文字-記号
  6
Continuous
 62
     7
100
AcDbPolyline
 90
        3
 70
   128
 43
0.0
 10
23927.43754877761
 20
3823.318950169042
 10
23888.00703001272
 20
3888.563078990105
 10
23836.00154777926
 20
3888.563078990105
  0
LINE
  5
295CD
330
1E
100
AcDbEntity
  8
躯体と製品
  6
Continuous
 62
     4
100
AcDbLine
 10
23927.43754877761
 20
4121.938398378395
 30
0.0
 11
23927.43754877761
 21
4047.938398563393
 31
0.0
  0
LINE
  5
295CE
330
1E
100
AcDbEntity
  8
躯体と製品
  6
Continuous
 62
     4
100
AcDbLine
 10
23933.43754876259
 20
4050.938398555898
 30
0.0
 11
23933.43754876259
 21
4118.938398385888
 31
0.0
  0
ARC
  5
295CF
330
1E
100
AcDbEntity
  8
躯体と製品
  6
Continuous
 62
     4
100
AcDbCircle
 10
23930.4375487701
 20
4050.938398555898
 30
0.0
 40
2.99999999249997
100
AcDbArc
 50
269.9999969984521
 51
0.0
  0
LINE
  5
295D0
330
1E
100
AcDbEntity
  8
躯体と製品
  6
Continuous
 62
     4
100
AcDbLine
 10
23927.43754877761
 20
4047.938398563393
 30
0.0
 11
23930.4375487701
 21
4047.938398563393
 31
0.0
  0
ARC
  5
295D1
330
1E
100
AcDbEntity
  8
躯体と製品
  6
Continuous
 62
     4
100
AcDbCircle
 10
23930.4375487701
 20
4118.938398385888
 30
0.0
 40
2.99999999249997
100
AcDbArc
 50
0.0
 51
90.00000299821293
  0
LINE
  5
295D2
330
1E
100
AcDbEntity
  8
躯体と製品
  6
Continuous
 62
     4
100
AcDbLine
 10
23927.43754877761
 20
4121.938398378395
 30
0.0
 11
23930.4375487701
 21
4121.938398378395
 31
0.0
  0
LINE
  5
295D3
330
1E
100
AcDbEntity
  8
躯体と製品
  6
Continuous
 62
     4
100
AcDbLine
 10
23899.43303712485
 20
3747.132515707717
 30
0.0
 11
23849.43288495724
 21
3697.13703022096
 31
0.0
  0
LINE
  5
295D4
330
1E
100
AcDbEntity
  8
躯体と製品
  6
Continuous
 62
     4
100
AcDbLine
 10
23899.43308998977
 20
3764.50156748434
 30
0.0
 11
23849.43293782215
 21
3714.506081997563
 31
0.0
  0
LINE
  5
295D5
330
1E
100
AcDbEntity
  8
躯体と製品
  6
Continuous
 62
     4
100
AcDbLine
 10
23899.43314288124
 20
3781.879342462126
 30
0.0
 11
23849.43299069942
 21
3731.879190280305
 31
0.0
  0
LINE
  5
295D6
330
1E
100
AcDbEntity
  8
躯体と製品
  6
Continuous
 62
     4
100
AcDbLine
 10
23899.43303712485
 20
4269.386637369728
 30
0.0
 11
23849.43288495724
 21
4219.39115188297
 31
0.0
  0
LINE
  5
295D7
330
1E
100
AcDbEntity
  8
躯体と製品
  6
Continuous
 62
     4
100
AcDbLine
 10
23899.43308998977
 20
4286.75568914635
 30
0.0
 11
23849.43293782216
 21
4236.760203659574
 31
0.0
  0
LINE
  5
295D8
330
1E
100
AcDbEntity
  8
躯体と製品
  6
Continuous
 62
     4
100
AcDbLine
 10
23899.43314288124
 20
4304.133464124137
 30
0.0
 11
23849.43299069942
 21
4254.133311942316
 31
0.0
  0
LWPOLYLINE
  5
295D9
330
1E
100
AcDbEntity
  8
文字-記号
  6
Continuous
 62
     7
100
AcDbPolyline
 90
        3
 70
   128
 43
0.0
 10
23953.36519503473
 20
3763.127331850395
 10
23994.10389246309
 20
3833.688825630496
 10
24032.95189399908
 20
3833.688825630496
  0
TEXT
  5
295DA
330
1E
100
AcDbEntity
  8
文字-記号
  6
Continuous
 62
     7
100
AcDbText
 10
23999.23550449088
 20
3836.61300013673
 30
0.0
 40
9.0
  1
間柱鋼
 11
23999.23550449088
 21
3835.41300013673
 31
0.0
100
AcDbText
 73
     1
  0
TEXT
  5
295DB
330
1E
100
AcDbEntity
  8
文字-記号
  6
Continuous
 62
     7
100
AcDbText
 10
23840.34251597552
 20
3892.18203744879
 30
0.0
 40
9.0
  1
スタンド
 11
23840.34251597552
 21
3890.98203744879
 31
0.0
100
AcDbText
 73
     1
  0
LWPOLYLINE
  5
295E4
330
1E
100
AcDbEntity
  8
躯体と製品
  6
Continuous
 62
     4
100
AcDbPolyline
 90
        4
 70
     1
 43
0.0
 10
23899.43722694785
 20
3779.938398533402
 10
23901.73722694214
 20
3779.938398533402
 10
23901.73722694214
 20
3829.938398408386
 10
23899.43722694785
 20
3829.938398408386
  0
LINE
  5
295E5
330
1E
100
AcDbEntity
  8
中心線
  6
CENTER1
 62
     7
100
AcDbLine
 10
23885.75546711129
 20
3804.938398470887
 30
0.0
 11
23947.93755043406
 21
3804.938398470887
 31
0.0
  0
LWPOLYLINE
  5
295E6
330
1E
100
AcDbEntity
  8
躯体と製品
  6
Continuous
 62
     4
100
AcDbPolyline
 90
        2
 70
     0
 43
0.0
 10
23901.73722694214
 20
3812.938398450893
 10
23899.43722694785
 20
3812.938398450893
  0
LWPOLYLINE
  5
295E7
330
1E
100
AcDbEntity
  8
躯体と製品
  6
Continuous
 62
     4
100
AcDbPolyline
 90
        2
 70
     0
 43
0.0
 10
23901.73722694214
 20
3796.938398490896
 10
23899.43722694785
 20
3796.938398490896
  0
LWPOLYLINE
  5
295E8
330
1E
100
AcDbEntity
  8
躯体と製品
  6
Continuous
 62
     4
100
AcDbPolyline
 90
        6
 70
     0
 43
0.0
 10
23901.73722694214
 20
3794.938398495887
 10
23904.37741133517
 20
3797.138552156775
 42
0.2225848818878075
 10
23904.73722693463
 20
3797.90677343446
 10
23904.73722693463
 20
3811.970023507328
 42
0.222584881887805
 10
23904.37741133517
 20
3812.738244785013
 10
23901.73722694214
 20
3814.938398445887
  0
LINE
  5
295E9
330
1E
100
AcDbEntity
  8
躯体と製品
  6
Continuous
 62
     4
100
AcDbLine
 10
23904.73722693463
 20
3809.938398458387
 30
0.0
 11
23927.43754877761
 21
3809.938398473978
 31
0.0
  0
LINE
  5
295EA
330
1E
100
AcDbEntity
  8
躯体と製品
  6
Continuous
 62
     4
100
AcDbLine
 10
23904.73722693463
 20
3808.93839846089
 30
0.0
 11
23927.43754877761
 21
3808.938398460889
 31
0.0
  0
LINE
  5
295EB
330
1E
100
AcDbEntity
  8
躯体と製品
  6
Continuous
 62
     4
100
AcDbLine
 10
23904.73722693463
 20
3799.938398483401
 30
0.0
 11
23927.43754877761
 21
3799.938398467792
 31
0.0
  0
LINE
  5
295EC
330
1E
100
AcDbEntity
  8
躯体と製品
  6
Continuous
 62
     4
100
AcDbLine
 10
23904.73722693463
 20
3800.938398994392
 30
0.0
 11
23927.43754877761
 21
3800.938398341448
 31
0.0
  0
LINE
  5
295ED
330
1E
100
AcDbEntity
  8
躯体と製品
  6
Continuous
 62
     4
100
AcDbLine
 10
23927.43754877761
 20
3841.938398378395
 30
0.0
 11
23927.43754877761
 21
3767.938398563393
 31
0.0
  0
LINE
  5
295EE
330
1E
100
AcDbEntity
  8
躯体と製品
  6
Continuous
 62
     4
100
AcDbLine
 10
23933.43754876259
 20
3770.938398555899
 30
0.0
 11
23933.43754876259
 21
3838.938398385889
 31
0.0
  0
ARC
  5
295EF
330
1E
100
AcDbEntity
  8
躯体と製品
  6
Continuous
 62
     4
100
AcDbCircle
 10
23930.4375487701
 20
3770.938398555899
 30
0.0
 40
2.99999999249997
100
AcDbArc
 50
269.9999969984521
 51
0.0
  0
LINE
  5
295F0
330
1E
100
AcDbEntity
  8
躯体と製品
  6
Continuous
 62
     4
100
AcDbLine
 10
23927.43754877761
 20
3767.938398563393
 30
0.0
 11
23930.4375487701
 21
3767.938398563393
 31
0.0
  0
ARC
  5
295F1
330
1E
100
AcDbEntity
  8
躯体と製品
  6
Continuous
 62
     4
100
AcDbCircle
 10
23930.4375487701
 20
3838.938398385889
 30
0.0
 40
2.99999999249997
100
AcDbArc
 50
0.0
 51
90.00000299821293
  0
LINE
  5
295F2
330
1E
100
AcDbEntity
  8
躯体と製品
  6
Continuous
 62
     4
100
AcDbLine
 10
23927.43754877761
 20
3841.938398378395
 30
0.0
 11
23930.4375487701
 21
3841.938398378395
 31
0.0
  0
LWPOLYLINE
  5
295F3
330
1E
100
AcDbEntity
  8
文字-記号
  6
Continuous
 62
     7
100
AcDbPolyline
 90
        3
 70
   128
 43
0.0
 10
23989.8369468137
 20
4224.85821379585
 10
24014.01130195727
 20
4266.729425144724
 10
24063.63768692598
 20
4266.729425144724
  0
TEXT
  5
295F4
330
1E
100
AcDbEntity
  8
文字-記号
  6
Continuous
 62
     7
100
AcDbText
 10
24019.14291398507
 20
4269.653599650959
 30
0.0
 40
9.0
  1
見切り縁
 11
24019.14291398507
 21
4268.45359965096
 31
0.0
100
AcDbText
 73
     1
  0
LINE
  5
2966D
330
1E
100
AcDbEntity
  8
躯体と製品
  6
PLINE2
 62
     3
100
AcDbLine
 10
23975.53129926758
 20
4248.03839846544
 30
0.0
 11
23973.94379926793
 21
4251.838398464606
 31
0.0
  0
LINE
  5
2966E
330
1E
100
AcDbEntity
  8
躯体と製品
  6
PLINE2
 62
     3
100
AcDbLine
 10
23973.4854949202
 20
4251.188398464747
 30
0.0
 11
23975.53129926758
 21
4248.03839846544
 31
0.0
  0
LINE
  5
2966F
330
1E
100
AcDbEntity
  8
躯体と製品
  6
PLINE2
 62
     3
100
AcDbLine
 10
23975.98960289067
 20
4248.688398465296
 30
0.0
 11
23973.94379926793
 21
4251.838398464606
 31
0.0
  0
LINE
  5
29670
330
1E
100
AcDbEntity
  8
躯体と製品
  6
PLINE2
 62
     3
100
AcDbLine
 10
23974.40210289102
 20
4248.688398465296
 30
0.0
 11
23972.35629926827
 21
4251.838398464606
 31
0.0
  0
LINE
  5
29671
330
1E
100
AcDbEntity
  8
躯体と製品
  6
PLINE2
 62
     3
100
AcDbLine
 10
23973.94379926793
 20
4248.03839846544
 30
0.0
 11
23974.40210289102
 21
4248.688398465296
 31
0.0
  0
LINE
  5
29672
330
1E
100
AcDbEntity
  8
躯体と製品
  6
PLINE2
 62
     3
100
AcDbLine
 10
23993.73754926357
 20
4245.688398465958
 30
0.0
 11
23992.60967245222
 21
4246.856349190337
 31
0.0
  0
LINE
  5
29673
330
1E
100
AcDbEntity
  8
躯体と製品
  6
PLINE2
 62
     3
100
AcDbLine
 10
23994.43754926342
 20
4245.688398465958
 30
0.0
 11
23994.43754926342
 21
4254.188398464088
 31
0.0
  0
LINE
  5
29674
330
1E
100
AcDbEntity
  8
躯体と製品
  6
PLINE2
 62
     3
100
AcDbLine
 10
23993.73754926357
 20
4254.188398464088
 30
0.0
 11
23993.73754926357
 21
4245.688398465958
 31
0.0
  0
LINE
  5
29675
330
1E
100
AcDbEntity
  8
躯体と製品
  6
PLINE2
 62
     3
100
AcDbLine
 10
23986.64379926513
 20
4248.03839846544
 30
0.0
 11
23985.05629926548
 21
4251.838398464606
 31
0.0
  0
LINE
  5
29676
330
1E
100
AcDbEntity
  8
躯体と製品
  6
PLINE2
 62
     3
100
AcDbLine
 10
23984.59799491776
 20
4251.188398464747
 30
0.0
 11
23986.64379926513
 21
4248.03839846544
 31
0.0
  0
LINE
  5
29677
330
1E
100
AcDbEntity
  8
躯体と製品
  6
PLINE2
 62
     3
100
AcDbLine
 10
23987.10210288822
 20
4248.688398465296
 30
0.0
 11
23985.05629926548
 21
4251.838398464606
 31
0.0
  0
LINE
  5
29678
330
1E
100
AcDbEntity
  8
躯体と製品
  6
PLINE2
 62
     3
100
AcDbLine
 10
23985.51460288857
 20
4248.688398465296
 30
0.0
 11
23983.46879926583
 21
4251.838398464606
 31
0.0
  0
LINE
  5
29679
330
1E
100
AcDbEntity
  8
躯体と製品
  6
PLINE2
 62
     3
100
AcDbLine
 10
23985.05629926548
 20
4248.03839846544
 30
0.0
 11
23985.51460288857
 21
4248.688398465296
 31
0.0
  0
LINE
  5
2967A
330
1E
100
AcDbEntity
  8
躯体と製品
  6
PLINE2
 62
     3
100
AcDbLine
 10
23992.60967245222
 20
4253.020448464343
 30
0.0
 11
23993.73754926357
 21
4254.188398464088
 31
0.0
  0
LINE
  5
2967B
330
1E
100
AcDbEntity
  8
躯体と製品
  6
PLINE2
 62
     3
100
AcDbLine
 10
23994.43754926342
 20
4254.188398464088
 30
0.0
 11
23993.73754926357
 21
4254.188398464088
 31
0.0
  0
ARC
  5
2967C
330
1E
100
AcDbEntity
  8
躯体と製品
  6
PLINE2
 62
     3
100
AcDbCircle
 10
23988.29363404738
 20
4257.188398463429
 30
0.0
 40
5.999999998679999
100
AcDbArc
 50
270.0
 51
316.0000000000431
  0
ARC
  5
2967D
330
1E
100
AcDbEntity
  8
躯体と製品
  6
PLINE2
 62
     3
100
AcDbCircle
 10
23988.29363404738
 20
4242.688398466617
 30
0.0
 40
5.999999998679999
100
AcDbArc
 50
43.99999999995684
 51
90.0
  0
LINE
  5
2967E
330
1E
100
AcDbEntity
  8
躯体と製品
  6
PLINE2
 62
     3
100
AcDbLine
 10
23987.95975288803
 20
4248.688398465296
 30
0.0
 11
23986.64379926513
 21
4251.838398464606
 31
0.0
  0
LINE
  5
2967F
330
1E
100
AcDbEntity
  8
躯体と製品
  6
PLINE2
 62
     3
100
AcDbLine
 10
23986.18549491741
 20
4251.188398464747
 30
0.0
 11
23987.95975288803
 21
4248.688398465296
 31
0.0
  0
LINE
  5
29680
330
1E
100
AcDbEntity
  8
躯体と製品
  6
PLINE2
 62
     3
100
AcDbLine
 10
23987.95975288803
 20
4248.688398465296
 30
0.0
 11
23987.06594926504
 21
4251.188398464747
 31
0.0
  0
LINE
  5
29681
330
1E
100
AcDbEntity
  8
躯体と製品
  6
PLINE2
 62
     3
100
AcDbLine
 10
23987.06594926504
 20
4251.188398464747
 30
0.0
 11
23988.29363404738
 21
4251.188398464747
 31
0.0
  0
LINE
  5
29682
330
1E
100
AcDbEntity
  8
躯体と製品
  6
PLINE2
 62
     3
100
AcDbLine
 10
23986.64379926513
 20
4251.838398464606
 30
0.0
 11
23986.18549491741
 21
4251.188398464747
 31
0.0
  0
LINE
  5
29683
330
1E
100
AcDbEntity
  8
躯体と製品
  6
PLINE2
 62
     3
100
AcDbLine
 10
23987.06594926504
 20
4251.188398464747
 30
0.0
 11
23986.64379926513
 21
4251.838398464606
 31
0.0
  0
LINE
  5
29684
330
1E
100
AcDbEntity
  8
躯体と製品
  6
PLINE2
 62
     3
100
AcDbLine
 10
23985.47844926539
 20
4251.188398464747
 30
0.0
 11
23986.18549491741
 21
4251.188398464747
 31
0.0
  0
LINE
  5
29685
330
1E
100
AcDbEntity
  8
躯体と製品
  6
PLINE2
 62
     3
100
AcDbLine
 10
23988.29363404738
 20
4248.688398465296
 30
0.0
 11
23987.10210288822
 21
4248.688398465296
 31
0.0
  0
LINE
  5
29686
330
1E
100
AcDbEntity
  8
躯体と製品
  6
PLINE2
 62
     3
100
AcDbLine
 10
23986.64379926513
 20
4248.03839846544
 30
0.0
 11
23987.10210288822
 21
4248.688398465296
 31
0.0
  0
LINE
  5
29687
330
1E
100
AcDbEntity
  8
躯体と製品
  6
PLINE2
 62
     3
100
AcDbLine
 10
23986.22164926523
 20
4248.688398465296
 30
0.0
 11
23985.51460288857
 21
4248.688398465296
 31
0.0
  0
LINE
  5
29688
330
1E
100
AcDbEntity
  8
躯体と製品
  6
PLINE2
 62
     3
100
AcDbLine
 10
23980.29379926653
 20
4248.03839846544
 30
0.0
 11
23978.70629926688
 21
4251.838398464606
 31
0.0
  0
LINE
  5
29689
330
1E
100
AcDbEntity
  8
躯体と製品
  6
PLINE2
 62
     3
100
AcDbLine
 10
23978.24799491916
 20
4251.188398464747
 30
0.0
 11
23980.29379926653
 21
4248.03839846544
 31
0.0
  0
LINE
  5
2968A
330
1E
100
AcDbEntity
  8
躯体と製品
  6
PLINE2
 62
     3
100
AcDbLine
 10
23980.75210288962
 20
4248.688398465296
 30
0.0
 11
23978.70629926688
 21
4251.838398464606
 31
0.0
  0
LINE
  5
2968B
330
1E
100
AcDbEntity
  8
躯体と製品
  6
PLINE2
 62
     3
100
AcDbLine
 10
23979.12844926679
 20
4251.188398464747
 30
0.0
 11
23979.8354949188
 21
4251.188398464747
 31
0.0
  0
LINE
  5
2968C
330
1E
100
AcDbEntity
  8
躯体と製品
  6
PLINE2
 62
     3
100
AcDbLine
 10
23979.87164926662
 20
4248.688398465296
 30
0.0
 11
23979.16460288997
 21
4248.688398465296
 31
0.0
  0
LINE
  5
2968D
330
1E
100
AcDbEntity
  8
躯体と製品
  6
PLINE2
 62
     3
100
AcDbLine
 10
23981.88129926618
 20
4248.03839846544
 30
0.0
 11
23980.29379926653
 21
4251.838398464606
 31
0.0
  0
LINE
  5
2968E
330
1E
100
AcDbEntity
  8
躯体と製品
  6
PLINE2
 62
     3
100
AcDbLine
 10
23979.8354949188
 20
4251.188398464747
 30
0.0
 11
23981.88129926618
 21
4248.03839846544
 31
0.0
  0
LINE
  5
2968F
330
1E
100
AcDbEntity
  8
躯体と製品
  6
PLINE2
 62
     3
100
AcDbLine
 10
23982.33960288927
 20
4248.688398465296
 30
0.0
 11
23980.29379926653
 21
4251.838398464606
 31
0.0
  0
LINE
  5
29690
330
1E
100
AcDbEntity
  8
躯体と製品
  6
PLINE2
 62
     3
100
AcDbLine
 10
23983.46879926583
 20
4248.03839846544
 30
0.0
 11
23981.88129926618
 21
4251.838398464606
 31
0.0
  0
LINE
  5
29691
330
1E
100
AcDbEntity
  8
躯体と製品
  6
PLINE2
 62
     3
100
AcDbLine
 10
23981.42299491845
 20
4251.188398464747
 30
0.0
 11
23983.46879926583
 21
4248.03839846544
 31
0.0
  0
LINE
  5
29692
330
1E
100
AcDbEntity
  8
躯体と製品
  6
PLINE2
 62
     3
100
AcDbLine
 10
23983.92710288892
 20
4248.688398465296
 30
0.0
 11
23981.88129926618
 21
4251.838398464606
 31
0.0
  0
LINE
  5
29693
330
1E
100
AcDbEntity
  8
躯体と製品
  6
PLINE2
 62
     3
100
AcDbLine
 10
23985.05629926548
 20
4248.03839846544
 30
0.0
 11
23983.46879926583
 21
4251.838398464606
 31
0.0
  0
LINE
  5
29694
330
1E
100
AcDbEntity
  8
躯体と製品
  6
PLINE2
 62
     3
100
AcDbLine
 10
23983.01049491811
 20
4251.188398464747
 30
0.0
 11
23985.05629926548
 21
4248.03839846544
 31
0.0
  0
LINE
  5
29695
330
1E
100
AcDbEntity
  8
躯体と製品
  6
PLINE2
 62
     3
100
AcDbLine
 10
23982.30344926609
 20
4251.188398464747
 30
0.0
 11
23983.01049491811
 21
4251.188398464747
 31
0.0
  0
LINE
  5
29696
330
1E
100
AcDbEntity
  8
躯体と製品
  6
PLINE2
 62
     3
100
AcDbLine
 10
23985.05629926548
 20
4251.838398464606
 30
0.0
 11
23984.59799491776
 21
4251.188398464747
 31
0.0
  0
LINE
  5
29697
330
1E
100
AcDbEntity
  8
躯体と製品
  6
PLINE2
 62
     3
100
AcDbLine
 10
23983.46879926583
 20
4251.838398464606
 30
0.0
 11
23983.01049491811
 21
4251.188398464747
 31
0.0
  0
LINE
  5
29698
330
1E
100
AcDbEntity
  8
躯体と製品
  6
PLINE2
 62
     3
100
AcDbLine
 10
23983.89094926574
 20
4251.188398464747
 30
0.0
 11
23984.59799491776
 21
4251.188398464747
 31
0.0
  0
LINE
  5
29699
330
1E
100
AcDbEntity
  8
躯体と製品
  6
PLINE2
 62
     3
100
AcDbLine
 10
23980.29379926653
 20
4251.838398464606
 30
0.0
 11
23979.8354949188
 21
4251.188398464747
 31
0.0
  0
LINE
  5
2969A
330
1E
100
AcDbEntity
  8
躯体と製品
  6
PLINE2
 62
     3
100
AcDbLine
 10
23981.88129926618
 20
4251.838398464606
 30
0.0
 11
23981.42299491845
 21
4251.188398464747
 31
0.0
  0
LINE
  5
2969B
330
1E
100
AcDbEntity
  8
躯体と製品
  6
PLINE2
 62
     3
100
AcDbLine
 10
23980.71594926644
 20
4251.188398464747
 30
0.0
 11
23981.42299491845
 21
4251.188398464747
 31
0.0
  0
LINE
  5
2969C
330
1E
100
AcDbEntity
  8
躯体と製品
  6
PLINE2
 62
     3
100
AcDbLine
 10
23983.04664926592
 20
4248.688398465296
 30
0.0
 11
23982.33960288927
 21
4248.688398465296
 31
0.0
  0
LINE
  5
2969D
330
1E
100
AcDbEntity
  8
躯体と製品
  6
PLINE2
 62
     3
100
AcDbLine
 10
23983.46879926583
 20
4248.03839846544
 30
0.0
 11
23983.92710288892
 21
4248.688398465296
 31
0.0
  0
LINE
  5
2969E
330
1E
100
AcDbEntity
  8
躯体と製品
  6
PLINE2
 62
     3
100
AcDbLine
 10
23984.63414926558
 20
4248.688398465296
 30
0.0
 11
23983.92710288892
 21
4248.688398465296
 31
0.0
  0
LINE
  5
2969F
330
1E
100
AcDbEntity
  8
躯体と製品
  6
PLINE2
 62
     3
100
AcDbLine
 10
23980.29379926653
 20
4248.03839846544
 30
0.0
 11
23980.75210288962
 21
4248.688398465296
 31
0.0
  0
LINE
  5
296A0
330
1E
100
AcDbEntity
  8
躯体と製品
  6
PLINE2
 62
     3
100
AcDbLine
 10
23981.88129926618
 20
4248.03839846544
 30
0.0
 11
23982.33960288927
 21
4248.688398465296
 31
0.0
  0
LINE
  5
296A1
330
1E
100
AcDbEntity
  8
躯体と製品
  6
PLINE2
 62
     3
100
AcDbLine
 10
23981.45914926627
 20
4248.688398465296
 30
0.0
 11
23980.75210288962
 21
4248.688398465296
 31
0.0
  0
LINE
  5
296A2
330
1E
100
AcDbEntity
  8
躯体と製品
  6
PLINE2
 62
     3
100
AcDbLine
 10
23977.11879926723
 20
4248.03839846544
 30
0.0
 11
23975.53129926758
 21
4251.838398464606
 31
0.0
  0
LINE
  5
296A3
330
1E
100
AcDbEntity
  8
躯体と製品
  6
PLINE2
 62
     3
100
AcDbLine
 10
23975.07299491985
 20
4251.188398464747
 30
0.0
 11
23977.11879926723
 21
4248.03839846544
 31
0.0
  0
LINE
  5
296A4
330
1E
100
AcDbEntity
  8
躯体と製品
  6
PLINE2
 62
     3
100
AcDbLine
 10
23977.57710289032
 20
4248.688398465296
 30
0.0
 11
23975.53129926758
 21
4251.838398464606
 31
0.0
  0
LINE
  5
296A5
330
1E
100
AcDbEntity
  8
躯体と製品
  6
PLINE2
 62
     3
100
AcDbLine
 10
23978.70629926688
 20
4248.03839846544
 30
0.0
 11
23977.11879926723
 21
4251.838398464606
 31
0.0
  0
LINE
  5
296A6
330
1E
100
AcDbEntity
  8
躯体と製品
  6
PLINE2
 62
     3
100
AcDbLine
 10
23976.6604949195
 20
4251.188398464747
 30
0.0
 11
23978.70629926688
 21
4248.03839846544
 31
0.0
  0
LINE
  5
296A7
330
1E
100
AcDbEntity
  8
躯体と製品
  6
PLINE2
 62
     3
100
AcDbLine
 10
23979.16460288997
 20
4248.688398465296
 30
0.0
 11
23977.11879926723
 21
4251.838398464606
 31
0.0
  0
LINE
  5
296A8
330
1E
100
AcDbEntity
  8
躯体と製品
  6
PLINE2
 62
     3
100
AcDbLine
 10
23977.11879926723
 20
4251.838398464606
 30
0.0
 11
23976.6604949195
 21
4251.188398464747
 31
0.0
  0
LINE
  5
296A9
330
1E
100
AcDbEntity
  8
躯体と製品
  6
PLINE2
 62
     3
100
AcDbLine
 10
23978.70629926688
 20
4251.838398464606
 30
0.0
 11
23978.24799491916
 21
4251.188398464747
 31
0.0
  0
LINE
  5
296AA
330
1E
100
AcDbEntity
  8
躯体と製品
  6
PLINE2
 62
     3
100
AcDbLine
 10
23977.54094926713
 20
4251.188398464747
 30
0.0
 11
23978.24799491916
 21
4251.188398464747
 31
0.0
  0
LINE
  5
296AB
330
1E
100
AcDbEntity
  8
躯体と製品
  6
PLINE2
 62
     3
100
AcDbLine
 10
23975.53129926758
 20
4251.838398464606
 30
0.0
 11
23975.07299491985
 21
4251.188398464747
 31
0.0
  0
LINE
  5
296AC
330
1E
100
AcDbEntity
  8
躯体と製品
  6
PLINE2
 62
     3
100
AcDbLine
 10
23974.36594926784
 20
4251.188398464747
 30
0.0
 11
23975.07299491985
 21
4251.188398464747
 31
0.0
  0
LINE
  5
296AD
330
1E
100
AcDbEntity
  8
躯体と製品
  6
PLINE2
 62
     3
100
AcDbLine
 10
23975.95344926749
 20
4251.188398464747
 30
0.0
 11
23976.6604949195
 21
4251.188398464747
 31
0.0
  0
LINE
  5
296AE
330
1E
100
AcDbEntity
  8
躯体と製品
  6
PLINE2
 62
     3
100
AcDbLine
 10
23977.11879926723
 20
4248.03839846544
 30
0.0
 11
23977.57710289032
 21
4248.688398465296
 31
0.0
  0
LINE
  5
296AF
330
1E
100
AcDbEntity
  8
躯体と製品
  6
PLINE2
 62
     3
100
AcDbLine
 10
23978.70629926688
 20
4248.03839846544
 30
0.0
 11
23979.16460288997
 21
4248.688398465296
 31
0.0
  0
LINE
  5
296B0
330
1E
100
AcDbEntity
  8
躯体と製品
  6
PLINE2
 62
     3
100
AcDbLine
 10
23978.28414926697
 20
4248.688398465296
 30
0.0
 11
23977.57710289032
 21
4248.688398465296
 31
0.0
  0
LINE
  5
296B1
330
1E
100
AcDbEntity
  8
躯体と製品
  6
PLINE2
 62
     3
100
AcDbLine
 10
23976.69664926732
 20
4248.688398465296
 30
0.0
 11
23975.98960289067
 21
4248.688398465296
 31
0.0
  0
LINE
  5
296B2
330
1E
100
AcDbEntity
  8
躯体と製品
  6
PLINE2
 62
     3
100
AcDbLine
 10
23975.53129926758
 20
4248.03839846544
 30
0.0
 11
23975.98960289067
 21
4248.688398465296
 31
0.0
  0
LINE
  5
296B3
330
1E
100
AcDbEntity
  8
躯体と製品
  6
PLINE2
 62
     3
100
AcDbLine
 10
23975.10914926767
 20
4248.688398465296
 30
0.0
 11
23974.40210289102
 21
4248.688398465296
 31
0.0
  0
LINE
  5
296B4
330
1E
100
AcDbEntity
  8
躯体と製品
  6
PLINE2
 62
     3
100
AcDbLine
 10
23993.73754926357
 20
4245.688398465958
 30
0.0
 11
23994.43754926342
 21
4245.688398465958
 31
0.0
  0
LINE
  5
296B5
330
1E
100
AcDbEntity
  8
躯体と製品
  6
PLINE2
 62
     3
100
AcDbLine
 10
23968.64552897924
 20
4249.018525276817
 30
0.0
 11
23967.00901376221
 21
4249.487788320195
 31
0.0
  0
LINE
  5
296B6
330
1E
100
AcDbEntity
  8
躯体と製品
  6
PLINE2
 62
     3
100
AcDbLine
 10
23968.64761955895
 20
4249.001957885517
 30
0.0
 11
23967.91935651563
 21
4250.962135421319
 31
0.0
  0
LINE
  5
296B7
330
1E
100
AcDbEntity
  8
躯体と製品
  6
PLINE2
 62
     3
100
AcDbLine
 10
23968.07618984893
 20
4250.695016580798
 30
0.0
 11
23968.89157825455
 21
4250.928825276398
 31
0.0
  0
LINE
  5
296B8
330
1E
100
AcDbEntity
  8
躯体と製品
  6
PLINE2
 62
     3
100
AcDbLine
 10
23969.08406303711
 20
4248.521489045044
 30
0.0
 11
23967.91935651563
 21
4250.962135421319
 31
0.0
  0
LINE
  5
296B9
330
1E
100
AcDbEntity
  8
躯体と製品
  6
PLINE2
 62
     3
100
AcDbLine
 10
23969.14451231246
 20
4248.875444117428
 30
0.0
 11
23967.91935651563
 21
4250.962135421319
 31
0.0
  0
LINE
  5
296BA
330
1E
100
AcDbEntity
  8
躯体と製品
  6
PLINE2
 62
     3
100
AcDbLine
 10
23973.94379926793
 20
4248.03839846544
 30
0.0
 11
23972.35629926827
 21
4251.838398464606
 31
0.0
  0
LINE
  5
296BB
330
1E
100
AcDbEntity
  8
躯体と製品
  6
PLINE2
 62
     3
100
AcDbLine
 10
23971.89799492055
 20
4251.188398464747
 30
0.0
 11
23973.94379926793
 21
4248.03839846544
 31
0.0
  0
LINE
  5
296BC
330
1E
100
AcDbEntity
  8
躯体と製品
  6
PLINE2
 62
     3
100
AcDbLine
 10
23972.35629926827
 20
4248.03839846544
 30
0.0
 11
23970.76879926863
 21
4251.838398464606
 31
0.0
  0
LINE
  5
296BD
330
1E
100
AcDbEntity
  8
躯体と製品
  6
PLINE2
 62
     3
100
AcDbLine
 10
23970.3104949209
 20
4251.188398464747
 30
0.0
 11
23972.35629926827
 21
4248.03839846544
 31
0.0
  0
LINE
  5
296BE
330
1E
100
AcDbEntity
  8
躯体と製品
  6
PLINE2
 62
     3
100
AcDbLine
 10
23972.81460289137
 20
4248.688398465296
 30
0.0
 11
23970.76879926863
 21
4251.838398464606
 31
0.0
  0
LINE
  5
296BF
330
1E
100
AcDbEntity
  8
躯体と製品
  6
PLINE2
 62
     3
100
AcDbLine
 10
23970.76879926863
 20
4248.03839846544
 30
0.0
 11
23969.18129926898
 21
4251.838398464606
 31
0.0
  0
LINE
  5
296C0
330
1E
100
AcDbEntity
  8
躯体と製品
  6
PLINE2
 62
     3
100
AcDbLine
 10
23968.72299492125
 20
4251.188398464747
 30
0.0
 11
23970.76879926863
 21
4248.03839846544
 31
0.0
  0
LINE
  5
296C1
330
1E
100
AcDbEntity
  8
躯体と製品
  6
PLINE2
 62
     3
100
AcDbLine
 10
23971.22710289171
 20
4248.688398465296
 30
0.0
 11
23969.18129926898
 21
4251.838398464606
 31
0.0
  0
LINE
  5
296C2
330
1E
100
AcDbEntity
  8
躯体と製品
  6
PLINE2
 62
     3
100
AcDbLine
 10
23971.19094926853
 20
4251.188398464747
 30
0.0
 11
23971.89799492055
 21
4251.188398464747
 31
0.0
  0
LINE
  5
296C3
330
1E
100
AcDbEntity
  8
躯体と製品
  6
PLINE2
 62
     3
100
AcDbLine
 10
23973.94379926793
 20
4251.838398464606
 30
0.0
 11
23973.4854949202
 21
4251.188398464747
 31
0.0
  0
LINE
  5
296C4
330
1E
100
AcDbEntity
  8
躯体と製品
  6
PLINE2
 62
     3
100
AcDbLine
 10
23972.35629926827
 20
4251.838398464606
 30
0.0
 11
23971.89799492055
 21
4251.188398464747
 31
0.0
  0
LINE
  5
296C5
330
1E
100
AcDbEntity
  8
躯体と製品
  6
PLINE2
 62
     3
100
AcDbLine
 10
23972.77844926818
 20
4251.188398464747
 30
0.0
 11
23973.4854949202
 21
4251.188398464747
 31
0.0
  0
LINE
  5
296C6
330
1E
100
AcDbEntity
  8
躯体と製品
  6
PLINE2
 62
     3
100
AcDbLine
 10
23969.93735796446
 20
4251.188398464747
 30
0.0
 11
23970.3104949209
 21
4251.188398464747
 31
0.0
  0
ARC
  5
296C7
330
1E
100
AcDbEntity
  8
躯体と製品
  6
PLINE2
 62
     3
100
AcDbCircle
 10
23969.93735796446
 20
4250.188398464965
 30
0.0
 40
0.9999999997799998
100
AcDbArc
 50
90.0
 51
106.0000000000849
  0
LINE
  5
296C8
330
1E
100
AcDbEntity
  8
躯体と製品
  6
PLINE2
 62
     3
100
AcDbLine
 10
23969.661721008
 20
4251.14966005896
 30
0.0
 11
23969.63380651525
 21
4251.141656435775
 31
0.0
  0
LINE
  5
296C9
330
1E
100
AcDbEntity
  8
躯体と製品
  6
PLINE2
 62
     3
100
AcDbLine
 10
23970.76879926863
 20
4251.838398464606
 30
0.0
 11
23970.3104949209
 21
4251.188398464747
 31
0.0
  0
LINE
  5
296CA
330
1E
100
AcDbEntity
  8
躯体と製品
  6
PLINE2
 62
     3
100
AcDbLine
 10
23969.18129926898
 20
4251.838398464606
 30
0.0
 11
23968.72299492125
 21
4251.188398464747
 31
0.0
  0
LINE
  5
296CB
330
1E
100
AcDbEntity
  8
躯体と製品
  6
PLINE2
 62
     3
100
AcDbLine
 10
23971.93414926837
 20
4248.688398465296
 30
0.0
 11
23971.22710289171
 21
4248.688398465296
 31
0.0
  0
LINE
  5
296CC
330
1E
100
AcDbEntity
  8
躯体と製品
  6
PLINE2
 62
     3
100
AcDbLine
 10
23972.35629926827
 20
4248.03839846544
 30
0.0
 11
23972.81460289137
 21
4248.688398465296
 31
0.0
  0
LINE
  5
296CD
330
1E
100
AcDbEntity
  8
躯体と製品
  6
PLINE2
 62
     3
100
AcDbLine
 10
23973.52164926802
 20
4248.688398465296
 30
0.0
 11
23972.81460289137
 21
4248.688398465296
 31
0.0
  0
LINE
  5
296CE
330
1E
100
AcDbEntity
  8
躯体と製品
  6
PLINE2
 62
     3
100
AcDbLine
 10
23969.661721008
 20
4248.727136871086
 30
0.0
 11
23969.14451231246
 21
4248.875444117428
 31
0.0
  0
ARC
  5
296CF
330
1E
100
AcDbEntity
  8
躯体と製品
  6
PLINE2
 62
     3
100
AcDbCircle
 10
23969.93735796446
 20
4249.688398465077
 30
0.0
 40
0.9999999997799998
100
AcDbArc
 50
253.9999999999152
 51
270.0
  0
LINE
  5
296D0
330
1E
100
AcDbEntity
  8
躯体と製品
  6
PLINE2
 62
     3
100
AcDbLine
 10
23970.34664926872
 20
4248.688398465296
 30
0.0
 11
23969.93735796446
 21
4248.688398465296
 31
0.0
  0
LINE
  5
296D1
330
1E
100
AcDbEntity
  8
躯体と製品
  6
PLINE2
 62
     3
100
AcDbLine
 10
23970.76879926863
 20
4248.03839846544
 30
0.0
 11
23971.22710289171
 21
4248.688398465296
 31
0.0
  0
LINE
  5
296D2
330
1E
100
AcDbEntity
  8
躯体と製品
  6
PLINE2
 62
     3
100
AcDbLine
 10
23969.08406303711
 20
4248.521489045044
 30
0.0
 11
23969.14451231246
 21
4248.875444117428
 31
0.0
  0
LINE
  5
296D3
330
1E
100
AcDbEntity
  8
躯体と製品
  6
PLINE2
 62
     3
100
AcDbLine
 10
23968.63601303721
 20
4249.019829624645
 30
0.0
 11
23969.08406303711
 21
4248.521489045044
 31
0.0
  0
LINE
  5
296D4
330
1E
100
AcDbEntity
  8
躯体と製品
  6
PLINE2
 62
     3
100
AcDbLine
 10
23966.7515028927
 20
4250.315168754794
 30
0.0
 11
23967.1156659361
 21
4249.145116581138
 31
0.0
  0
LINE
  5
296D5
330
1E
100
AcDbEntity
  8
躯体と製品
  6
PLINE2
 62
     3
100
AcDbLine
 10
23967.1156659361
 20
4249.145116581138
 30
0.0
 11
23966.48420144348
 21
4250.606746290963
 31
0.0
  0
LINE
  5
296D6
330
1E
100
AcDbEntity
  8
躯体と製品
  6
PLINE2
 62
     3
100
AcDbLine
 10
23966.48420144348
 20
4250.606746290963
 30
0.0
 11
23966.4497362261
 21
4250.22863832003
 31
0.0
  0
LINE
  5
296D7
330
1E
100
AcDbEntity
  8
躯体と製品
  6
PLINE2
 62
     3
100
AcDbLine
 10
23966.7515028927
 20
4250.315168754794
 30
0.0
 11
23968.02414347213
 21
4250.680092667757
 31
0.0
  0
LINE
  5
296D8
330
1E
100
AcDbEntity
  8
躯体と製品
  6
PLINE2
 62
     3
100
AcDbLine
 10
23966.7515028927
 20
4250.315168754794
 30
0.0
 11
23966.48420144348
 21
4250.606746290963
 31
0.0
  0
LINE
  5
296D9
330
1E
100
AcDbEntity
  8
躯体と製品
  6
PLINE2
 62
     3
100
AcDbLine
 10
23966.88282173325
 20
4249.523973102794
 30
0.0
 11
23965.4375492698
 21
4249.938398465022
 31
0.0
  0
LINE
  5
296DA
330
1E
100
AcDbEntity
  8
躯体と製品
  6
PLINE2
 62
     3
100
AcDbLine
 10
23965.4375492698
 20
4249.938398465022
 30
0.0
 11
23966.4497362261
 21
4250.22863832003
 31
0.0
  0
LINE
  5
296DB
330
1E
100
AcDbEntity
  8
躯体と製品
  6
PLINE2
 62
     3
100
AcDbLine
 10
23966.4497362261
 20
4250.22863832003
 30
0.0
 11
23967.1156659361
 21
4249.145116581138
 31
0.0
  0
LWPOLYLINE
  5
296DC
330
1E
100
AcDbEntity
  8
中心線
  6
CENTER1
 62
     7
100
AcDbPolyline
 90
        2
 70
     0
 43
0.0
 10
23996.03297663144
 20
4249.938398465022
 10
23963.36877635321
 20
4249.938398465022
  0
LINE
  5
296DD
330
1E
100
AcDbEntity
  8
躯体と製品
  6
Continuous
 62
     4
100
AcDbLine
 10
24312.43754876341
 20
3694.938398470887
 30
0.0
 11
24312.43754876341
 21
3740.340698502347
 31
0.0
  0
LINE
  5
296DE
330
1E
100
AcDbEntity
  8
躯体と製品
  6
Continuous
 62
     4
100
AcDbLine
 10
24314.43754894273
 20
3694.938398470887
 30
0.0
 11
24314.43754897674
 21
3740.339223925417
 31
0.0
  0
LINE
  5
296DF
330
1E
100
AcDbEntity
  8
躯体と製品
  6
Continuous
 62
     7
100
AcDbLine
 10
24249.43722680285
 20
3694.938398470887
 30
0.0
 11
24249.43722680285
 21
4234.938398470887
 31
0.0
  0
LWPOLYLINE
  5
296E0
330
1E
100
AcDbEntity
  8
躯体と製品
  6
Continuous
 62
     4
100
AcDbPolyline
 90
       10
 70
     0
 43
0.0
 10
24314.43754926342
 20
3694.938398470887
 10
24314.43754926342
 20
3738.639698422223
 10
24318.63754926343
 20
3738.639698422223
 10
24318.63754926343
 20
3731.639698422223
 10
24320.13754926343
 20
3731.639698422223
 10
24320.13754926343
 20
3739.939698422226
 10
24322.03754926345
 20
3739.939698422226
 10
24326.93754926342
 20
3729.939698422226
 10
24329.43754926342
 20
3729.939698422226
 10
24329.43754926342
 20
3694.938398470887
  0
LINE
  5
296E1
330
1E
100
AcDbEntity
  8
躯体と製品
  6
Continuous
 62
     4
100
AcDbLine
 10
24314.43754920451
 20
4038.939698502349
 30
0.0
 11
24314.43754921656
 21
4220.538398136194
 31
0.0
  0
LINE
  5
296E2
330
1E
100
AcDbEntity
  8
躯体と製品
  6
Continuous
 62
     4
100
AcDbLine
 10
24312.43754876341
 20
4038.939698502349
 30
0.0
 11
24312.43754876341
 21
4220.538398136194
 31
0.0
  0
LINE
  5
296E3
330
1E
100
AcDbEntity
  8
躯体と製品
  6
Continuous
 62
     4
100
AcDbLine
 10
24314.43754898332
 20
3748.939698662623
 30
0.0
 11
24314.4375491906
 21
4030.339698662618
 31
0.0
  0
LINE
  5
296E4
330
1E
100
AcDbEntity
  8
躯体と製品
  6
Continuous
 62
     4
100
AcDbLine
 10
24312.43754876341
 20
3748.939698662623
 30
0.0
 11
24312.43754876341
 21
4030.339698662618
 31
0.0
  0
LWPOLYLINE
  5
296E5
330
1E
100
AcDbEntity
  8
躯体と製品
  6
Continuous
 62
     4
100
AcDbPolyline
 90
       16
 70
     1
 43
0.0
 10
24314.43754926342
 20
3750.639698422223
 10
24314.43754926342
 20
4028.639698422223
 10
24318.63754926343
 20
4028.639698422223
 10
24318.63754926343
 20
4021.639698422222
 10
24320.13754926343
 20
4021.639698422222
 10
24320.13754926343
 20
4029.939698422225
 10
24322.03754926345
 20
4029.939698422225
 10
24326.93754926342
 20
4019.939698422226
 10
24329.43754926342
 20
4019.939698422226
 10
24329.43754926342
 20
3739.939698422226
 10
24325.93754926342
 20
3739.939698422226
 10
24322.33754926344
 20
3749.33969842222
 10
24320.13754926343
 20
3749.33969842222
 10
24320.13754926343
 20
3757.639698422223
 10
24318.63754926343
 20
3757.639698422223
 10
24318.63754926343
 20
3750.639698422223
  0
LWPOLYLINE
  5
296E6
330
1E
100
AcDbEntity
  8
文字-記号
  6
Continuous
 62
     7
100
AcDbPolyline
 90
        3
 70
   128
 43
0.0
 10
24315.63754891046
 20
4036.039890105429
 10
24344.10389246309
 20
4085.345043444293
 10
24393.73027743179
 20
4085.345043444293
  0
LINE
  5
296E7
330
1E
100
AcDbEntity
  8
中心線
  6
CENTER1
 62
     7
100
AcDbLine
 10
24303.68754941045
 20
3744.639698422223
 30
0.0
 11
24334.40854926344
 21
3744.639698422223
 31
0.0
  0
LINE
  5
296E8
330
1E
100
AcDbEntity
  8
躯体と製品
  6
Continuous
 62
     3
100
AcDbLine
 10
24318.73754876346
 20
3757.639698422223
 30
0.0
 11
24319.93754876341
 21
3757.639698422223
 31
0.0
  0
ARC
  5
296E9
330
1E
100
AcDbEntity
  8
躯体と製品
  6
Continuous
 62
     3
100
AcDbCircle
 10
24316.13754861639
 20
3748.940698502353
 30
0.0
 40
1.7
100
AcDbArc
 50
91.96524710649606
 51
180.0336980000293
  0
ARC
  5
296EA
330
1E
100
AcDbEntity
  8
躯体と製品
  6
Continuous
 62
     3
100
AcDbCircle
 10
24316.13754891046
 20
3740.339698662618
 30
0.0
 40
1.7
100
AcDbArc
 50
180.0000059997609
 51
269.9999969984521
  0
LWPOLYLINE
  5
296EB
330
1E
100
AcDbEntity
  8
躯体と製品
  6
Continuous
 62
     3
100
AcDbPolyline
 90
        4
 70
     1
 43
0.0
 10
24315.63754891046
 20
3740.339698662618
 10
24308.63754891046
 20
3740.339698662618
 10
24308.63754891046
 20
3748.939698662623
 10
24315.63754891046
 20
3748.939698662623
  0
ARC
  5
296EC
330
1E
100
AcDbEntity
  8
躯体と製品
  6
Continuous
 62
     3
100
AcDbCircle
 10
24316.13754791452
 20
3748.940696615042
 30
0.0
 40
0.5
100
AcDbArc
 50
93.62445275446631
 51
180.1143570002185
  0
ARC
  5
296ED
330
1E
100
AcDbEntity
  8
躯体と製品
  6
Continuous
 62
     3
100
AcDbCircle
 10
24318.23754876346
 20
3751.139696534912
 30
0.0
 40
1.7
100
AcDbArc
 50
270.0
 51
0.0
  0
LINE
  5
296EE
330
1E
100
AcDbEntity
  8
躯体と製品
  6
Continuous
 62
     3
100
AcDbLine
 10
24316.28454890848
 20
3748.640698651274
 30
0.0
 11
24315.83754890843
 21
3748.63969865127
 31
0.0
  0
LINE
  5
296EF
330
1E
100
AcDbEntity
  8
躯体と製品
  6
Continuous
 62
     3
100
AcDbLine
 10
24318.06554890843
 20
3747.271698651268
 30
0.0
 11
24318.16454890848
 21
3747.323698651279
 31
0.0
  0
LINE
  5
296F0
330
1E
100
AcDbEntity
  8
躯体と製品
  6
Continuous
 62
     3
100
AcDbLine
 10
24317.43754890847
 20
3748.40469865127
 30
0.0
 11
24316.28454890848
 21
3748.640698651274
 31
0.0
  0
LINE
  5
296F1
330
1E
100
AcDbEntity
  8
躯体と製品
  6
Continuous
 62
     3
100
AcDbLine
 10
24318.00954890845
 20
3745.387698651277
 30
0.0
 11
24318.25354890846
 21
3745.387698651277
 31
0.0
  0
ARC
  5
296F2
330
1E
100
AcDbEntity
  8
躯体と製品
  6
Continuous
 62
     3
100
AcDbCircle
 10
24318.00954890845
 20
3745.188698651269
 30
0.0
 40
0.2
100
AcDbArc
 50
90.00000299821293
 51
180.0000059997609
  0
ARC
  5
296F3
330
1E
100
AcDbEntity
  8
躯体と製品
  6
Continuous
 62
     3
100
AcDbCircle
 10
24315.83754890843
 20
3748.439698651273
 30
0.0
 40
0.2
100
AcDbArc
 50
90.00000299821293
 51
180.0000059997609
  0
ARC
  5
296F4
330
1E
100
AcDbEntity
  8
躯体と製品
  6
Continuous
 62
     3
100
AcDbCircle
 10
24318.15654890845
 20
3747.095698651275
 30
0.0
 40
0.2
100
AcDbArc
 50
117.3410229995603
 51
203.6129460013843
  0
ARC
  5
296F5
330
1E
100
AcDbEntity
  8
躯体と製品
  6
Continuous
 62
     3
100
AcDbCircle
 10
24318.25354890846
 20
3745.487698651268
 30
0.0
 40
0.1
100
AcDbArc
 50
269.9999969984521
 51
4.6199239999185
  0
LINE
  5
296F6
330
1E
100
AcDbEntity
  8
躯体と製品
  6
Continuous
 62
     3
100
AcDbLine
 10
24317.97354890849
 20
3747.015698651274
 30
0.0
 11
24318.08954890847
 21
3746.739698651276
 31
0.0
  0
LINE
  5
296F7
330
1E
100
AcDbEntity
  8
躯体と製品
  6
Continuous
 62
     3
100
AcDbLine
 10
24318.08954890847
 20
3746.739698651276
 30
0.0
 11
24318.22554890847
 21
3746.287698651271
 31
0.0
  0
LINE
  5
296F8
330
1E
100
AcDbEntity
  8
躯体と製品
  6
Continuous
 62
     3
100
AcDbLine
 10
24318.22554890847
 20
3746.287698651271
 30
0.0
 11
24318.32554890844
 21
3745.811698651277
 31
0.0
  0
LINE
  5
296F9
330
1E
100
AcDbEntity
  8
躯体と製品
  6
Continuous
 62
     3
100
AcDbLine
 10
24318.32554890844
 20
3745.811698651277
 30
0.0
 11
24318.35254890845
 21
3745.49569865127
 31
0.0
  0
ARC
  5
296FA
330
1E
100
AcDbEntity
  8
躯体と製品
  6
Continuous
 62
     3
100
AcDbCircle
 10
24318.23754876346
 20
3751.13969849913
 30
0.0
 40
0.5
100
AcDbArc
 50
269.9681866880938
 51
0.0
  0
LINE
  5
296FB
330
1E
100
AcDbEntity
  8
躯体と製品
  6
Continuous
 62
     3
100
AcDbLine
 10
24318.23727113993
 20
3750.639698576197
 30
0.0
 11
24316.07924999384
 21
3750.639698581988
 31
0.0
  0
LINE
  5
296FC
330
1E
100
AcDbEntity
  8
躯体と製品
  6
Continuous
 62
     3
100
AcDbLine
 10
24318.23754876346
 20
3749.439696534916
 30
0.0
 11
24316.10593968816
 21
3749.439696534916
 31
0.0
  0
ARC
  5
296FD
330
1E
100
AcDbEntity
  8
躯体と製品
  6
Continuous
 62
     3
100
AcDbCircle
 10
24313.85332905013
 20
3744.091408795706
 30
0.0
 40
4.815999999999999
100
AcDbArc
 50
318.0931500005966
 51
6.537158761711621
  0
ARC
  5
296FE
330
1E
100
AcDbEntity
  8
躯体と製品
  6
Continuous
 62
     3
100
AcDbCircle
 10
24318.00954890845
 20
3744.090698673972
 30
0.0
 40
0.2
100
AcDbArc
 50
179.9999940002391
 51
269.9999969984521
  0
LINE
  5
296FF
330
1E
100
AcDbEntity
  8
躯体と製品
  6
Continuous
 62
     3
100
AcDbLine
 10
24317.43754890847
 20
3740.874698673972
 30
0.0
 11
24317.43754890847
 21
3744.639698673971
 31
0.0
  0
LINE
  5
29700
330
1E
100
AcDbEntity
  8
躯体と製品
  6
Continuous
 62
     3
100
AcDbLine
 10
24318.73754876346
 20
3731.639698582483
 30
0.0
 11
24319.93754876341
 21
3731.639698582483
 31
0.0
  0
ARC
  5
29701
330
1E
100
AcDbEntity
  8
躯体と製品
  6
Continuous
 62
     3
100
AcDbCircle
 10
24316.13754891046
 20
3740.339698662618
 30
0.0
 40
0.5
100
AcDbArc
 50
180.0000059997609
 51
269.885405997914
  0
ARC
  5
29702
330
1E
100
AcDbEntity
  8
躯体と製品
  6
Continuous
 62
     3
100
AcDbCircle
 10
24318.23754876346
 20
3738.139698582483
 30
0.0
 40
0.5
100
AcDbArc
 50
0.0
 51
90.0
  0
LINE
  5
29703
330
1E
100
AcDbEntity
  8
躯体と製品
  6
Continuous
 62
     3
100
AcDbLine
 10
24318.23754876346
 20
3738.639698582483
 30
0.0
 11
24316.13754882146
 21
3738.63969866262
 31
0.0
  0
LINE
  5
29704
330
1E
100
AcDbEntity
  8
躯体と製品
  6
Continuous
 62
     3
100
AcDbLine
 10
24318.73754876346
 20
3738.139698582483
 30
0.0
 11
24318.73754876346
 21
3731.639698582483
 31
0.0
  0
ARC
  5
29705
330
1E
100
AcDbEntity
  8
躯体と製品
  6
Continuous
 62
     3
100
AcDbCircle
 10
24318.23754876346
 20
3738.139698582483
 30
0.0
 40
1.7
100
AcDbArc
 50
0.0
 51
90.0
  0
LINE
  5
29706
330
1E
100
AcDbEntity
  8
躯体と製品
  6
Continuous
 62
     3
100
AcDbLine
 10
24318.23754876346
 20
3739.839698582481
 30
0.0
 11
24316.1365488898
 21
3739.839699662655
 31
0.0
  0
LINE
  5
29707
330
1E
100
AcDbEntity
  8
躯体と製品
  6
Continuous
 62
     3
100
AcDbLine
 10
24319.93754876341
 20
3738.139698582483
 30
0.0
 11
24319.93754876341
 21
3731.639698582483
 31
0.0
  0
LINE
  5
29708
330
1E
100
AcDbEntity
  8
躯体と製品
  6
Continuous
 62
     3
100
AcDbLine
 10
24318.32554890844
 20
3743.467698673966
 30
0.0
 11
24318.35254890845
 21
3743.783698673971
 31
0.0
  0
LINE
  5
29709
330
1E
100
AcDbEntity
  8
躯体と製品
  6
Continuous
 62
     3
100
AcDbLine
 10
24318.22554890847
 20
3742.99169867397
 30
0.0
 11
24318.32554890844
 21
3743.467698673966
 31
0.0
  0
LINE
  5
2970A
330
1E
100
AcDbEntity
  8
躯体と製品
  6
Continuous
 62
     3
100
AcDbLine
 10
24318.08954890847
 20
3742.539698673965
 30
0.0
 11
24318.22554890847
 21
3742.99169867397
 31
0.0
  0
LINE
  5
2970B
330
1E
100
AcDbEntity
  8
躯体と製品
  6
Continuous
 62
     3
100
AcDbLine
 10
24317.97354890849
 20
3742.263698673968
 30
0.0
 11
24318.08954890847
 21
3742.539698673965
 31
0.0
  0
ARC
  5
2970C
330
1E
100
AcDbEntity
  8
躯体と製品
  6
Continuous
 62
     3
100
AcDbCircle
 10
24318.25354890846
 20
3743.791698673973
 30
0.0
 40
0.1
100
AcDbArc
 50
355.3800760000814
 51
90.00000299821293
  0
ARC
  5
2970D
330
1E
100
AcDbEntity
  8
躯体と製品
  6
Continuous
 62
     3
100
AcDbCircle
 10
24318.15654890845
 20
3742.183698673966
 30
0.0
 40
0.2
100
AcDbArc
 50
156.3870539986157
 51
242.6589770004394
  0
ARC
  5
2970E
330
1E
100
AcDbEntity
  8
躯体と製品
  6
Continuous
 62
     3
100
AcDbCircle
 10
24315.83754890843
 20
3740.839698673968
 30
0.0
 40
0.2
100
AcDbArc
 50
179.9999940002391
 51
269.9999969984521
  0
LINE
  5
2970F
330
1E
100
AcDbEntity
  8
躯体と製品
  6
Continuous
 62
     3
100
AcDbLine
 10
24318.00954890845
 20
3743.891698673964
 30
0.0
 11
24318.25354890846
 21
3743.891698673964
 31
0.0
  0
LINE
  5
29710
330
1E
100
AcDbEntity
  8
躯体と製品
  6
Continuous
 62
     3
100
AcDbLine
 10
24317.43754890847
 20
3740.874698673972
 30
0.0
 11
24316.28454890848
 21
3740.638698673967
 31
0.0
  0
LINE
  5
29711
330
1E
100
AcDbEntity
  8
躯体と製品
  6
Continuous
 62
     3
100
AcDbLine
 10
24318.06554890843
 20
3742.007698673973
 30
0.0
 11
24318.16454890848
 21
3741.955698673963
 31
0.0
  0
LINE
  5
29712
330
1E
100
AcDbEntity
  8
躯体と製品
  6
Continuous
 62
     3
100
AcDbLine
 10
24316.28454890848
 20
3740.638698673967
 30
0.0
 11
24315.83754890843
 21
3740.639698673971
 31
0.0
  0
LINE
  5
29713
330
1E
100
AcDbEntity
  8
躯体と製品
  6
Continuous
 62
     3
100
AcDbLine
 10
24317.80954890844
 20
3744.091698651275
 30
0.0
 11
24317.80954890844
 21
3744.63969865127
 31
0.0
  0
LINE
  5
29714
330
1E
100
AcDbEntity
  8
躯体と製品
  6
Continuous
 62
     3
100
AcDbLine
 10
24317.80954890844
 20
3744.090698673972
 30
0.0
 11
24317.80954890844
 21
3744.639698673971
 31
0.0
  0
LINE
  5
29715
330
1E
100
AcDbEntity
  8
躯体と製品
  6
Continuous
 62
     3
100
AcDbLine
 10
24317.80954890844
 20
3745.188698651269
 30
0.0
 11
24317.80954890844
 21
3744.63969865127
 31
0.0
  0
LINE
  5
29716
330
1E
100
AcDbEntity
  8
躯体と製品
  6
Continuous
 62
     3
100
AcDbLine
 10
24317.43754890847
 20
3748.40469865127
 30
0.0
 11
24317.43754890847
 21
3744.63969865127
 31
0.0
  0
ARC
  5
29717
330
1E
100
AcDbEntity
  8
躯体と製品
  6
Continuous
 62
     3
100
AcDbCircle
 10
24313.85332905013
 20
3745.187988529535
 30
0.0
 40
4.815999999999999
100
AcDbArc
 50
353.4628412382885
 51
41.90684999940309
  0
LINE
  5
29718
330
1E
100
AcDbEntity
  8
躯体と製品
  6
Continuous
 62
     3
100
AcDbLine
 10
24317.80954890844
 20
3745.187698673966
 30
0.0
 11
24317.80954890844
 21
3744.639698673971
 31
0.0
  0
LINE
  5
29719
330
1E
100
AcDbEntity
  8
躯体と製品
  6
Continuous
 62
     3
100
AcDbLine
 10
24318.73754876346
 20
3757.639698582483
 30
0.0
 11
24318.73754876346
 21
3751.13969849913
 31
0.0
  0
LINE
  5
2971A
330
1E
100
AcDbEntity
  8
躯体と製品
  6
Continuous
 62
     3
100
AcDbLine
 10
24319.93754876341
 20
3757.639698582483
 30
0.0
 11
24319.93754876341
 21
3751.139696534912
 31
0.0
  0
LWPOLYLINE
  5
2971B
330
1E
100
AcDbEntity
  8
躯体と製品
  6
Continuous
 62
     4
100
AcDbPolyline
 90
        4
 70
     1
 43
0.0
 10
24249.43722694785
 20
4059.938398533401
 10
24251.73722694214
 20
4059.938398533401
 10
24251.73722694214
 20
4109.938398408386
 10
24249.43722694785
 20
4109.938398408386
  0
LINE
  5
2971C
330
1E
100
AcDbEntity
  8
中心線
  6
CENTER1
 62
     7
100
AcDbLine
 10
24235.75546711128
 20
4084.938398470886
 30
0.0
 11
24297.93755043406
 21
4084.938398470886
 31
0.0
  0
LWPOLYLINE
  5
2971D
330
1E
100
AcDbEntity
  8
躯体と製品
  6
Continuous
 62
     4
100
AcDbPolyline
 90
        2
 70
     0
 43
0.0
 10
24251.73722694214
 20
4092.938398450892
 10
24249.43722694785
 20
4092.938398450892
  0
LWPOLYLINE
  5
2971E
330
1E
100
AcDbEntity
  8
躯体と製品
  6
Continuous
 62
     4
100
AcDbPolyline
 90
        2
 70
     0
 43
0.0
 10
24251.73722694214
 20
4076.938398490895
 10
24249.43722694785
 20
4076.938398490895
  0
LWPOLYLINE
  5
2971F
330
1E
100
AcDbEntity
  8
躯体と製品
  6
Continuous
 62
     4
100
AcDbPolyline
 90
        6
 70
     0
 43
0.0
 10
24251.73722694214
 20
4074.938398495887
 10
24254.37741133517
 20
4077.138552156774
 42
0.2225848818878075
 10
24254.73722693463
 20
4077.90677343446
 10
24254.73722693463
 20
4091.970023507328
 42
0.222584881887805
 10
24254.37741133517
 20
4092.738244785013
 10
24251.73722694214
 20
4094.938398445886
  0
LINE
  5
29720
330
1E
100
AcDbEntity
  8
躯体と製品
  6
Continuous
 62
     3
100
AcDbLine
 10
24319.93754876341
 20
4028.139698582483
 30
0.0
 11
24319.93754876341
 21
4021.639698582482
 31
0.0
  0
LINE
  5
29721
330
1E
100
AcDbEntity
  8
躯体と製品
  6
Continuous
 62
     3
100
AcDbLine
 10
24318.73754876346
 20
4028.139698582483
 30
0.0
 11
24318.73754876346
 21
4021.639698582482
 31
0.0
  0
LINE
  5
29722
330
1E
100
AcDbEntity
  8
躯体と製品
  6
Continuous
 62
     3
100
AcDbLine
 10
24318.73754876346
 20
4021.639698582482
 30
0.0
 11
24319.93754876341
 21
4021.639698582482
 31
0.0
  0
LINE
  5
29723
330
1E
100
AcDbEntity
  8
中心線
  6
CENTER1
 62
     7
100
AcDbLine
 10
24303.68754941045
 20
4034.639698422223
 30
0.0
 11
24334.40854926344
 21
4034.639698422223
 31
0.0
  0
LINE
  5
29724
330
1E
100
AcDbEntity
  8
躯体と製品
  6
Continuous
 62
     3
100
AcDbLine
 10
24319.93754876341
 20
4047.639698582483
 30
0.0
 11
24319.93754876341
 21
4041.139696534911
 31
0.0
  0
LINE
  5
29725
330
1E
100
AcDbEntity
  8
躯体と製品
  6
Continuous
 62
     3
100
AcDbLine
 10
24318.73754876346
 20
4047.639698582483
 30
0.0
 11
24318.73754876346
 21
4041.139698499129
 31
0.0
  0
LINE
  5
29726
330
1E
100
AcDbEntity
  8
躯体と製品
  6
Continuous
 62
     3
100
AcDbLine
 10
24317.80954890844
 20
4035.187698673966
 30
0.0
 11
24317.80954890844
 21
4034.639698673971
 31
0.0
  0
ARC
  5
29727
330
1E
100
AcDbEntity
  8
躯体と製品
  6
Continuous
 62
     3
100
AcDbCircle
 10
24313.85332905013
 20
4035.187988529535
 30
0.0
 40
4.815999999999999
100
AcDbArc
 50
353.4628412382885
 51
41.90684999940309
  0
LINE
  5
29728
330
1E
100
AcDbEntity
  8
躯体と製品
  6
Continuous
 62
     3
100
AcDbLine
 10
24317.43754890847
 20
4038.404698651269
 30
0.0
 11
24317.43754890847
 21
4034.63969865127
 31
0.0
  0
LINE
  5
29729
330
1E
100
AcDbEntity
  8
躯体と製品
  6
Continuous
 62
     3
100
AcDbLine
 10
24317.80954890844
 20
4035.188698651269
 30
0.0
 11
24317.80954890844
 21
4034.63969865127
 31
0.0
  0
LINE
  5
2972A
330
1E
100
AcDbEntity
  8
躯体と製品
  6
Continuous
 62
     3
100
AcDbLine
 10
24317.80954890844
 20
4034.090698673971
 30
0.0
 11
24317.80954890844
 21
4034.639698673971
 31
0.0
  0
LINE
  5
2972B
330
1E
100
AcDbEntity
  8
躯体と製品
  6
Continuous
 62
     3
100
AcDbLine
 10
24317.80954890844
 20
4034.091698651274
 30
0.0
 11
24317.80954890844
 21
4034.63969865127
 31
0.0
  0
LINE
  5
2972C
330
1E
100
AcDbEntity
  8
躯体と製品
  6
Continuous
 62
     3
100
AcDbLine
 10
24316.28454890848
 20
4030.638698673967
 30
0.0
 11
24315.83754890843
 21
4030.639698673971
 31
0.0
  0
LINE
  5
2972D
330
1E
100
AcDbEntity
  8
躯体と製品
  6
Continuous
 62
     3
100
AcDbLine
 10
24318.06554890843
 20
4032.007698673973
 30
0.0
 11
24318.16454890848
 21
4031.955698673963
 31
0.0
  0
LINE
  5
2972E
330
1E
100
AcDbEntity
  8
躯体と製品
  6
Continuous
 62
     3
100
AcDbLine
 10
24317.43754890847
 20
4030.874698673971
 30
0.0
 11
24316.28454890848
 21
4030.638698673967
 31
0.0
  0
LINE
  5
2972F
330
1E
100
AcDbEntity
  8
躯体と製品
  6
Continuous
 62
     3
100
AcDbLine
 10
24318.00954890845
 20
4033.891698673964
 30
0.0
 11
24318.25354890846
 21
4033.891698673964
 31
0.0
  0
ARC
  5
29730
330
1E
100
AcDbEntity
  8
躯体と製品
  6
Continuous
 62
     3
100
AcDbCircle
 10
24315.83754890843
 20
4030.839698673967
 30
0.0
 40
0.2
100
AcDbArc
 50
179.9999940002391
 51
269.9999969984521
  0
ARC
  5
29731
330
1E
100
AcDbEntity
  8
躯体と製品
  6
Continuous
 62
     3
100
AcDbCircle
 10
24318.15654890845
 20
4032.183698673965
 30
0.0
 40
0.2
100
AcDbArc
 50
156.3870539986157
 51
242.6589770004394
  0
ARC
  5
29732
330
1E
100
AcDbEntity
  8
躯体と製品
  6
Continuous
 62
     3
100
AcDbCircle
 10
24318.25354890846
 20
4033.791698673972
 30
0.0
 40
0.1
100
AcDbArc
 50
355.3800760000814
 51
90.00000299821293
  0
LINE
  5
29733
330
1E
100
AcDbEntity
  8
躯体と製品
  6
Continuous
 62
     3
100
AcDbLine
 10
24317.97354890849
 20
4032.263698673967
 30
0.0
 11
24318.08954890847
 21
4032.539698673965
 31
0.0
  0
LINE
  5
29734
330
1E
100
AcDbEntity
  8
躯体と製品
  6
Continuous
 62
     3
100
AcDbLine
 10
24318.08954890847
 20
4032.539698673965
 30
0.0
 11
24318.22554890847
 21
4032.99169867397
 31
0.0
  0
LINE
  5
29735
330
1E
100
AcDbEntity
  8
躯体と製品
  6
Continuous
 62
     3
100
AcDbLine
 10
24318.22554890847
 20
4032.99169867397
 30
0.0
 11
24318.32554890844
 21
4033.467698673965
 31
0.0
  0
LINE
  5
29736
330
1E
100
AcDbEntity
  8
躯体と製品
  6
Continuous
 62
     3
100
AcDbLine
 10
24318.32554890844
 20
4033.467698673965
 30
0.0
 11
24318.35254890845
 21
4033.78369867397
 31
0.0
  0
LINE
  5
29737
330
1E
100
AcDbEntity
  8
躯体と製品
  6
Continuous
 62
     3
100
AcDbLine
 10
24318.23754876346
 20
4029.83969858248
 30
0.0
 11
24316.1365488898
 21
4029.839699662654
 31
0.0
  0
ARC
  5
29738
330
1E
100
AcDbEntity
  8
躯体と製品
  6
Continuous
 62
     3
100
AcDbCircle
 10
24318.23754876346
 20
4028.139698582483
 30
0.0
 40
1.7
100
AcDbArc
 50
0.0
 51
90.0
  0
LINE
  5
29739
330
1E
100
AcDbEntity
  8
躯体と製品
  6
Continuous
 62
     3
100
AcDbLine
 10
24318.23754876346
 20
4028.639698582483
 30
0.0
 11
24316.13754882146
 21
4028.639698662621
 31
0.0
  0
ARC
  5
2973A
330
1E
100
AcDbEntity
  8
躯体と製品
  6
Continuous
 62
     3
100
AcDbCircle
 10
24318.23754876346
 20
4028.139698582483
 30
0.0
 40
0.5
100
AcDbArc
 50
0.0
 51
90.0
  0
ARC
  5
2973B
330
1E
100
AcDbEntity
  8
躯体と製品
  6
Continuous
 62
     3
100
AcDbCircle
 10
24316.13754891046
 20
4030.339698662618
 30
0.0
 40
0.5
100
AcDbArc
 50
180.0000059997609
 51
269.885405997914
  0
LINE
  5
2973C
330
1E
100
AcDbEntity
  8
躯体と製品
  6
Continuous
 62
     3
100
AcDbLine
 10
24317.43754890847
 20
4030.874698673971
 30
0.0
 11
24317.43754890847
 21
4034.639698673971
 31
0.0
  0
ARC
  5
2973D
330
1E
100
AcDbEntity
  8
躯体と製品
  6
Continuous
 62
     3
100
AcDbCircle
 10
24318.00954890845
 20
4034.090698673971
 30
0.0
 40
0.2
100
AcDbArc
 50
179.9999940002391
 51
269.9999969984521
  0
ARC
  5
2973E
330
1E
100
AcDbEntity
  8
躯体と製品
  6
Continuous
 62
     3
100
AcDbCircle
 10
24313.85332905013
 20
4034.091408795705
 30
0.0
 40
4.815999999999999
100
AcDbArc
 50
318.0931500005966
 51
6.537158761711621
  0
LINE
  5
2973F
330
1E
100
AcDbEntity
  8
躯体と製品
  6
Continuous
 62
     3
100
AcDbLine
 10
24318.23754876346
 20
4039.439696534915
 30
0.0
 11
24316.10593968816
 21
4039.439696534915
 31
0.0
  0
LINE
  5
29740
330
1E
100
AcDbEntity
  8
躯体と製品
  6
Continuous
 62
     3
100
AcDbLine
 10
24318.23727113993
 20
4040.639698576196
 30
0.0
 11
24316.07924999384
 21
4040.639698581988
 31
0.0
  0
ARC
  5
29741
330
1E
100
AcDbEntity
  8
躯体と製品
  6
Continuous
 62
     3
100
AcDbCircle
 10
24318.23754876346
 20
4041.139698499129
 30
0.0
 40
0.5
100
AcDbArc
 50
269.9681866880938
 51
0.0
  0
LINE
  5
29742
330
1E
100
AcDbEntity
  8
躯体と製品
  6
Continuous
 62
     3
100
AcDbLine
 10
24318.32554890844
 20
4035.811698651276
 30
0.0
 11
24318.35254890845
 21
4035.49569865127
 31
0.0
  0
LINE
  5
29743
330
1E
100
AcDbEntity
  8
躯体と製品
  6
Continuous
 62
     3
100
AcDbLine
 10
24318.22554890847
 20
4036.28769865127
 30
0.0
 11
24318.32554890844
 21
4035.811698651276
 31
0.0
  0
LINE
  5
29744
330
1E
100
AcDbEntity
  8
躯体と製品
  6
Continuous
 62
     3
100
AcDbLine
 10
24318.08954890847
 20
4036.739698651276
 30
0.0
 11
24318.22554890847
 21
4036.28769865127
 31
0.0
  0
LINE
  5
29745
330
1E
100
AcDbEntity
  8
躯体と製品
  6
Continuous
 62
     3
100
AcDbLine
 10
24317.97354890849
 20
4037.015698651273
 30
0.0
 11
24318.08954890847
 21
4036.739698651276
 31
0.0
  0
ARC
  5
29746
330
1E
100
AcDbEntity
  8
躯体と製品
  6
Continuous
 62
     3
100
AcDbCircle
 10
24318.25354890846
 20
4035.487698651269
 30
0.0
 40
0.1
100
AcDbArc
 50
269.9999969984521
 51
4.6199239999185
  0
ARC
  5
29747
330
1E
100
AcDbEntity
  8
躯体と製品
  6
Continuous
 62
     3
100
AcDbCircle
 10
24318.15654890845
 20
4037.095698651276
 30
0.0
 40
0.2
100
AcDbArc
 50
117.3410229995603
 51
203.6129460013843
  0
ARC
  5
29748
330
1E
100
AcDbEntity
  8
躯体と製品
  6
Continuous
 62
     3
100
AcDbCircle
 10
24315.83754890843
 20
4038.439698651273
 30
0.0
 40
0.2
100
AcDbArc
 50
90.00000299821293
 51
180.0000059997609
  0
ARC
  5
29749
330
1E
100
AcDbEntity
  8
躯体と製品
  6
Continuous
 62
     3
100
AcDbCircle
 10
24318.00954890845
 20
4035.188698651269
 30
0.0
 40
0.2
100
AcDbArc
 50
90.00000299821293
 51
180.0000059997609
  0
LINE
  5
2974A
330
1E
100
AcDbEntity
  8
躯体と製品
  6
Continuous
 62
     3
100
AcDbLine
 10
24318.00954890845
 20
4035.387698651276
 30
0.0
 11
24318.25354890846
 21
4035.387698651276
 31
0.0
  0
LINE
  5
2974B
330
1E
100
AcDbEntity
  8
躯体と製品
  6
Continuous
 62
     3
100
AcDbLine
 10
24317.43754890847
 20
4038.404698651269
 30
0.0
 11
24316.28454890848
 21
4038.640698651273
 31
0.0
  0
LINE
  5
2974C
330
1E
100
AcDbEntity
  8
躯体と製品
  6
Continuous
 62
     3
100
AcDbLine
 10
24318.06554890843
 20
4037.271698651268
 30
0.0
 11
24318.16454890848
 21
4037.323698651278
 31
0.0
  0
LINE
  5
2974D
330
1E
100
AcDbEntity
  8
躯体と製品
  6
Continuous
 62
     3
100
AcDbLine
 10
24316.28454890848
 20
4038.640698651273
 30
0.0
 11
24315.83754890843
 21
4038.63969865127
 31
0.0
  0
ARC
  5
2974E
330
1E
100
AcDbEntity
  8
躯体と製品
  6
Continuous
 62
     3
100
AcDbCircle
 10
24318.23754876346
 20
4041.139696534911
 30
0.0
 40
1.7
100
AcDbArc
 50
270.0
 51
0.0
  0
ARC
  5
2974F
330
1E
100
AcDbEntity
  8
躯体と製品
  6
Continuous
 62
     3
100
AcDbCircle
 10
24316.13754791452
 20
4038.940696615042
 30
0.0
 40
0.5
100
AcDbArc
 50
93.62445275446631
 51
180.1143570002185
  0
LWPOLYLINE
  5
29750
330
1E
100
AcDbEntity
  8
躯体と製品
  6
Continuous
 62
     3
100
AcDbPolyline
 90
        4
 70
     1
 43
0.0
 10
24315.63754891046
 20
4030.339698662618
 10
24308.63754891046
 20
4030.339698662618
 10
24308.63754891046
 20
4038.939698662623
 10
24315.63754891046
 20
4038.939698662623
  0
ARC
  5
29751
330
1E
100
AcDbEntity
  8
躯体と製品
  6
Continuous
 62
     3
100
AcDbCircle
 10
24316.13754891046
 20
4030.339698662618
 30
0.0
 40
1.7
100
AcDbArc
 50
180.0000059997609
 51
269.9999969984521
  0
ARC
  5
29752
330
1E
100
AcDbEntity
  8
躯体と製品
  6
Continuous
 62
     3
100
AcDbCircle
 10
24316.13754861639
 20
4038.940698502353
 30
0.0
 40
1.7
100
AcDbArc
 50
91.96524710649606
 51
180.0336980000293
  0
LINE
  5
29753
330
1E
100
AcDbEntity
  8
躯体と製品
  6
Continuous
 62
     3
100
AcDbLine
 10
24318.73754876346
 20
4047.639698582483
 30
0.0
 11
24319.93754876341
 21
4047.639698582483
 31
0.0
  0
TEXT
  5
29754
330
1E
100
AcDbEntity
  8
文字-記号
  6
Continuous
 62
     7
100
AcDbText
 10
24347.67004146252
 20
3892.597993561838
 30
0.0
 40
9.0
  1
ＳＡテープ
 11
24347.67004146252
 21
3891.397993561838
 31
0.0
100
AcDbText
 73
     1
  0
TEXT
  5
29755
330
1E
100
AcDbEntity
  8
文字-記号
  6
Continuous
 62
     7
100
AcDbText
 10
24349.23550449088
 20
4088.269217950528
 30
0.0
 40
9.0
  1
固定金具
 11
24349.23550449088
 21
4087.069217950527
 31
0.0
100
AcDbText
 73
     1
  0
TEXT
  5
29756
330
1E
100
AcDbEntity
  8
文字-記号
  6
Continuous
 62
     7
100
AcDbText
 10
24364.79643996369
 20
3993.158569892733
 30
0.0
 40
9.0
  1
壁面板（オープンタイプ）
 11
24364.79643996369
 21
3991.958569892733
 31
0.0
100
AcDbText
 73
     1
  0
TEXT
  5
29757
330
1E
100
AcDbEntity
  8
文字-記号
  6
Continuous
 62
     7
100
AcDbText
 10
24386.70938843591
 20
3980.445628630182
 30
0.0
 40
9.0
  1
面幅 ２９０ １５t
 11
24386.70938843591
 21
3979.245628630182
 31
0.0
100
AcDbText
 73
     1
  0
LWPOLYLINE
  5
29758
330
1E
100
AcDbEntity
  8
文字-記号
  6
Continuous
 62
     7
 48
3.0
100
AcDbPolyline
 90
        3
 70
     0
 43
0.0
 10
24329.43754926342
 20
3922.772750770593
 10
24359.61258358893
 20
3975.037443342466
 10
24501.01411184068
 20
3975.037443342466
  0
LWPOLYLINE
  5
2975A
330
1E
100
AcDbEntity
  8
文字-記号
  6
Continuous
 62
     7
 48
3.0
100
AcDbPolyline
 90
        3
 70
     0
 43
0.0
 10
24313.62384677446
 20
3841.959582153322
 10
24341.59433246113
 20
3890.405884474989
 10
24405.32405181591
 20
3890.405884474989
  0
LWPOLYLINE
  5
2975B
330
1E
100
AcDbEntity
  8
躯体と製品
  6
Continuous
 62
     4
100
AcDbPolyline
 90
        2
 70
     0
 43
0.0
 10
24286.13754876343
 20
4220.538398136194
 10
24286.13754876343
 20
3694.938398470887
  0
LWPOLYLINE
  5
2975C
330
1E
100
AcDbEntity
  8
躯体と製品
  6
Continuous
 62
     4
100
AcDbPolyline
 90
        2
 70
     0
 43
0.0
 10
24283.43754876341
 20
4220.538398136194
 10
24283.43754876341
 20
3694.938398470887
  0
LINE
  5
2975D
330
1E
100
AcDbEntity
  8
躯体と製品
  6
Continuous
 62
     4
100
AcDbLine
 10
24254.73722693463
 20
4089.938398458386
 30
0.0
 11
24277.43754877761
 21
4089.938398473977
 31
0.0
  0
LINE
  5
2975E
330
1E
100
AcDbEntity
  8
躯体と製品
  6
Continuous
 62
     4
100
AcDbLine
 10
24254.73722693463
 20
4088.938398460889
 30
0.0
 11
24277.43754877761
 21
4088.938398460888
 31
0.0
  0
LINE
  5
2975F
330
1E
100
AcDbEntity
  8
躯体と製品
  6
Continuous
 62
     4
100
AcDbLine
 10
24254.73722693463
 20
4079.938398483402
 30
0.0
 11
24277.43754877761
 21
4079.938398467791
 31
0.0
  0
LINE
  5
29760
330
1E
100
AcDbEntity
  8
躯体と製品
  6
Continuous
 62
     4
100
AcDbLine
 10
24254.73722693463
 20
4080.938398994391
 30
0.0
 11
24277.43754877761
 21
4080.938398341448
 31
0.0
  0
LWPOLYLINE
  5
29761
330
1E
100
AcDbEntity
  8
文字-記号
  6
Continuous
 62
     7
100
AcDbPolyline
 90
        3
 70
   128
 43
0.0
 10
24277.43754877761
 20
3823.318950169042
 10
24238.00703001272
 20
3888.563078990105
 10
24186.00154777926
 20
3888.563078990105
  0
LINE
  5
29762
330
1E
100
AcDbEntity
  8
躯体と製品
  6
Continuous
 62
     4
100
AcDbLine
 10
24277.43754877761
 20
4121.938398378395
 30
0.0
 11
24277.43754877761
 21
4047.938398563393
 31
0.0
  0
LINE
  5
29763
330
1E
100
AcDbEntity
  8
躯体と製品
  6
Continuous
 62
     4
100
AcDbLine
 10
24283.4375487626
 20
4050.938398555898
 30
0.0
 11
24283.4375487626
 21
4118.938398385888
 31
0.0
  0
ARC
  5
29764
330
1E
100
AcDbEntity
  8
躯体と製品
  6
Continuous
 62
     4
100
AcDbCircle
 10
24280.4375487701
 20
4050.938398555898
 30
0.0
 40
2.99999999249997
100
AcDbArc
 50
269.9999969984521
 51
0.0
  0
LINE
  5
29765
330
1E
100
AcDbEntity
  8
躯体と製品
  6
Continuous
 62
     4
100
AcDbLine
 10
24277.43754877761
 20
4047.938398563393
 30
0.0
 11
24280.4375487701
 21
4047.938398563393
 31
0.0
  0
ARC
  5
29766
330
1E
100
AcDbEntity
  8
躯体と製品
  6
Continuous
 62
     4
100
AcDbCircle
 10
24280.4375487701
 20
4118.938398385888
 30
0.0
 40
2.99999999249997
100
AcDbArc
 50
0.0
 51
90.00000299821293
  0
LINE
  5
29767
330
1E
100
AcDbEntity
  8
躯体と製品
  6
Continuous
 62
     4
100
AcDbLine
 10
24277.43754877761
 20
4121.938398378395
 30
0.0
 11
24280.4375487701
 21
4121.938398378395
 31
0.0
  0
LINE
  5
29768
330
1E
100
AcDbEntity
  8
躯体と製品
  6
Continuous
 62
     4
100
AcDbLine
 10
24249.43303712485
 20
3747.132515707717
 30
0.0
 11
24199.43288495724
 21
3697.13703022096
 31
0.0
  0
LINE
  5
29769
330
1E
100
AcDbEntity
  8
躯体と製品
  6
Continuous
 62
     4
100
AcDbLine
 10
24249.43308998977
 20
3764.50156748434
 30
0.0
 11
24199.43293782215
 21
3714.506081997563
 31
0.0
  0
LINE
  5
2976A
330
1E
100
AcDbEntity
  8
躯体と製品
  6
Continuous
 62
     4
100
AcDbLine
 10
24249.43314288124
 20
3781.879342462126
 30
0.0
 11
24199.43299069942
 21
3731.879190280305
 31
0.0
  0
LINE
  5
2976B
330
1E
100
AcDbEntity
  8
躯体と製品
  6
Continuous
 62
     4
100
AcDbLine
 10
24284.43754926342
 20
4304.3878824205
 30
0.0
 11
24199.43288495724
 21
4219.39115188297
 31
0.0
  0
LINE
  5
2976C
330
1E
100
AcDbEntity
  8
躯体と製品
  6
Continuous
 62
     4
100
AcDbLine
 10
24284.43754926342
 20
4321.756881337149
 30
0.0
 11
24199.43293782216
 21
4236.760203659574
 31
0.0
  0
LINE
  5
2976D
330
1E
100
AcDbEntity
  8
躯体と製品
  6
Continuous
 62
     4
100
AcDbLine
 10
24284.43754926342
 20
4339.137870506318
 30
0.0
 11
24199.43299069942
 21
4254.133311942316
 31
0.0
  0
LWPOLYLINE
  5
2976E
330
1E
100
AcDbEntity
  8
文字-記号
  6
Continuous
 62
     7
100
AcDbPolyline
 90
        3
 70
   128
 43
0.0
 10
24303.36519503472
 20
3763.127331850395
 10
24344.10389246309
 20
3833.688825630496
 10
24382.95189399908
 20
3833.688825630496
  0
TEXT
  5
2976F
330
1E
100
AcDbEntity
  8
文字-記号
  6
Continuous
 62
     7
100
AcDbText
 10
24349.23550449088
 20
3836.61300013673
 30
0.0
 40
9.0
  1
間柱鋼
 11
24349.23550449088
 21
3835.41300013673
 31
0.0
100
AcDbText
 73
     1
  0
TEXT
  5
29770
330
1E
100
AcDbEntity
  8
文字-記号
  6
Continuous
 62
     7
100
AcDbText
 10
24190.34251597552
 20
3892.18203744879
 30
0.0
 40
9.0
  1
スタンド
 11
24190.34251597552
 21
3890.98203744879
 31
0.0
100
AcDbText
 73
     1
  0
LWPOLYLINE
  5
29774
330
1E
100
AcDbEntity
  8
躯体と製品
  6
Continuous
 62
     4
100
AcDbPolyline
 90
        8
 70
     1
 43
0.0
 10
24282.83755043491
 20
4188.338398136679
 10
24283.43755043488
 20
4188.338398136679
 10
24283.43755043488
 20
4228.338398136679
 10
24312.43755043488
 20
4228.338398136679
 10
24312.43755043488
 20
4198.338398136678
 10
24313.03755043492
 20
4198.338398136678
 10
24313.03755043492
 20
4228.938398136684
 10
24282.83755043491
 20
4228.938398136684
  0
LWPOLYLINE
  5
29775
330
1E
100
AcDbEntity
  8
中心線
  6
CENTER1
 62
     7
100
AcDbPolyline
 90
        2
 70
     0
 43
0.0
 10
24297.93755043488
 20
4240.538398136194
 10
24297.93755043488
 20
4213.660032479551
  0
LWPOLYLINE
  5
29777
330
1E
100
AcDbEntity
  8
躯体と製品
  6
Continuous
 62
     4
100
AcDbPolyline
 90
        2
 70
     0
 43
0.0
 10
24314.43754926342
 20
4220.538398136194
 10
24313.03755043492
 20
4220.538398136194
  0
LWPOLYLINE
  5
29778
330
1E
100
AcDbEntity
  8
躯体と製品
  6
Continuous
 62
     4
100
AcDbPolyline
 90
        2
 70
     0
 43
0.0
 10
24312.43755043488
 20
4220.538398136194
 10
24283.43755043488
 20
4220.538398136194
  0
LWPOLYLINE
  5
29779
330
1E
100
AcDbEntity
  8
躯体と製品
  6
Continuous
 62
     4
100
AcDbPolyline
 90
        4
 70
     1
 43
0.0
 10
24249.43722694785
 20
3779.938398533402
 10
24251.73722694214
 20
3779.938398533402
 10
24251.73722694214
 20
3829.938398408386
 10
24249.43722694785
 20
3829.938398408386
  0
LINE
  5
2977A
330
1E
100
AcDbEntity
  8
中心線
  6
CENTER1
 62
     7
100
AcDbLine
 10
24235.75546711128
 20
3804.938398470887
 30
0.0
 11
24297.93755043406
 21
3804.938398470887
 31
0.0
  0
LWPOLYLINE
  5
2977B
330
1E
100
AcDbEntity
  8
躯体と製品
  6
Continuous
 62
     4
100
AcDbPolyline
 90
        2
 70
     0
 43
0.0
 10
24251.73722694214
 20
3812.938398450893
 10
24249.43722694785
 20
3812.938398450893
  0
LWPOLYLINE
  5
2977C
330
1E
100
AcDbEntity
  8
躯体と製品
  6
Continuous
 62
     4
100
AcDbPolyline
 90
        2
 70
     0
 43
0.0
 10
24251.73722694214
 20
3796.938398490896
 10
24249.43722694785
 20
3796.938398490896
  0
LWPOLYLINE
  5
2977D
330
1E
100
AcDbEntity
  8
躯体と製品
  6
Continuous
 62
     4
100
AcDbPolyline
 90
        6
 70
     0
 43
0.0
 10
24251.73722694214
 20
3794.938398495887
 10
24254.37741133517
 20
3797.138552156775
 42
0.2225848818878075
 10
24254.73722693463
 20
3797.90677343446
 10
24254.73722693463
 20
3811.970023507328
 42
0.222584881887805
 10
24254.37741133517
 20
3812.738244785013
 10
24251.73722694214
 20
3814.938398445887
  0
LINE
  5
2977E
330
1E
100
AcDbEntity
  8
躯体と製品
  6
Continuous
 62
     4
100
AcDbLine
 10
24254.73722693463
 20
3809.938398458387
 30
0.0
 11
24277.43754877761
 21
3809.938398473978
 31
0.0
  0
LINE
  5
2977F
330
1E
100
AcDbEntity
  8
躯体と製品
  6
Continuous
 62
     4
100
AcDbLine
 10
24254.73722693463
 20
3808.93839846089
 30
0.0
 11
24277.43754877761
 21
3808.938398460889
 31
0.0
  0
LINE
  5
29780
330
1E
100
AcDbEntity
  8
躯体と製品
  6
Continuous
 62
     4
100
AcDbLine
 10
24254.73722693463
 20
3799.938398483401
 30
0.0
 11
24277.43754877761
 21
3799.938398467792
 31
0.0
  0
LINE
  5
29781
330
1E
100
AcDbEntity
  8
躯体と製品
  6
Continuous
 62
     4
100
AcDbLine
 10
24254.73722693463
 20
3800.938398994392
 30
0.0
 11
24277.43754877761
 21
3800.938398341448
 31
0.0
  0
LINE
  5
29782
330
1E
100
AcDbEntity
  8
躯体と製品
  6
Continuous
 62
     4
100
AcDbLine
 10
24277.43754877761
 20
3841.938398378395
 30
0.0
 11
24277.43754877761
 21
3767.938398563393
 31
0.0
  0
LINE
  5
29783
330
1E
100
AcDbEntity
  8
躯体と製品
  6
Continuous
 62
     4
100
AcDbLine
 10
24283.4375487626
 20
3770.938398555899
 30
0.0
 11
24283.4375487626
 21
3838.938398385889
 31
0.0
  0
ARC
  5
29784
330
1E
100
AcDbEntity
  8
躯体と製品
  6
Continuous
 62
     4
100
AcDbCircle
 10
24280.4375487701
 20
3770.938398555899
 30
0.0
 40
2.99999999249997
100
AcDbArc
 50
269.9999969984521
 51
0.0
  0
LINE
  5
29785
330
1E
100
AcDbEntity
  8
躯体と製品
  6
Continuous
 62
     4
100
AcDbLine
 10
24277.43754877761
 20
3767.938398563393
 30
0.0
 11
24280.4375487701
 21
3767.938398563393
 31
0.0
  0
ARC
  5
29786
330
1E
100
AcDbEntity
  8
躯体と製品
  6
Continuous
 62
     4
100
AcDbCircle
 10
24280.4375487701
 20
3838.938398385889
 30
0.0
 40
2.99999999249997
100
AcDbArc
 50
0.0
 51
90.00000299821293
  0
LINE
  5
29787
330
1E
100
AcDbEntity
  8
躯体と製品
  6
Continuous
 62
     4
100
AcDbLine
 10
24277.43754877761
 20
3841.938398378395
 30
0.0
 11
24280.4375487701
 21
3841.938398378395
 31
0.0
  0
LWPOLYLINE
  5
29873
330
1E
100
AcDbEntity
  8
躯体と製品
  6
Continuous
 62
     4
100
AcDbPolyline
 90
        2
 70
     0
 43
0.0
 10
23979.43754926342
 20
4234.938398470887
 10
23964.43754920916
 20
4234.938398461114
  0
LINE
  5
29874
330
1E
100
AcDbEntity
  8
躯体と製品
  6
Continuous
 62
     4
100
AcDbLine
 10
23976.43754920916
 20
4234.938398468932
 30
0.0
 11
23976.4375492132
 21
4404.938398470886
 31
0.0
  0
LINE
  5
29875
330
1E
100
AcDbEntity
  8
躯体と製品
  6
Continuous
 62
     3
100
AcDbLine
 10
23972.43754920916
 20
4234.938398466325
 30
0.0
 11
23972.4375492132
 21
4404.938398470886
 31
0.0
  0
LINE
  5
29876
330
1E
100
AcDbEntity
  8
躯体と製品
  6
Continuous
 62
     3
100
AcDbLine
 10
23968.43754920916
 20
4234.93839846372
 30
0.0
 11
23968.4375492132
 21
4404.938398470886
 31
0.0
  0
LWPOLYLINE
  5
2987F
330
1E
100
AcDbEntity
  8
躯体と製品
  6
Continuous
 62
     4
100
AcDbPolyline
 90
        8
 70
     0
 43
0.0
 10
23976.43754920988
 20
4264.938398450768
 10
23976.43754922942
 20
4234.938398468932
 10
23979.43754926342
 20
4234.938398468932
 10
23979.43754926342
 20
4204.938398462248
 10
23994.43754926342
 20
4204.938398462248
 10
23994.43754926342
 20
4262.817078117553
 10
23992.31622891985
 20
4264.938398461114
 10
23976.43754920988
 20
4264.938398437163
  0
LWPOLYLINE
  5
29880
330
1E
100
AcDbEntity
  8
文字-記号
  6
Continuous
 62
     7
100
AcDbPolyline
 90
        3
 70
   128
 43
0.0
 10
23976.43754921143
 20
4330.330670551557
 10
23999.11035558052
 20
4369.601123132991
 10
24028.50282351865
 20
4369.601123132991
  0
TEXT
  5
29881
330
1E
100
AcDbEntity
  8
文字-記号
  6
Continuous
 62
     7
100
AcDbText
 10
24004.24196760831
 20
4372.525297639225
 30
0.0
 40
9.0
  1
合板
 11
24004.24196760831
 21
4371.325297639226
 31
0.0
100
AcDbText
 73
     1
  0
LWPOLYLINE
  5
29882
330
1E
100
AcDbEntity
  8
躯体と製品
  6
Continuous
 62
     3
100
AcDbPolyline
 90
        4
 70
     1
 43
0.0
 10
24252.9372268887
 20
4234.938398137175
 10
24312.9372268887
 20
4234.938398137175
 10
24312.9372268887
 20
4228.938398136684
 10
24252.9372268887
 20
4228.938398136684
  0
LWPOLYLINE
  5
29883
330
1E
100
AcDbEntity
  8
躯体と製品
  6
Continuous
 62
     7
100
AcDbPolyline
 90
        2
 70
     0
 43
0.0
 10
24284.43754926342
 20
4234.938398118479
 10
24249.43722688941
 20
4234.938398147803
  0
LWPOLYLINE
  5
29884
330
1E
100
AcDbEntity
  8
躯体と製品
  6
Continuous
 62
     4
100
AcDbPolyline
 90
       16
 70
     1
 43
0.0
 10
24314.43754926342
 20
4040.639698422222
 10
24314.43754926342
 20
4318.639698422223
 10
24318.63754926343
 20
4318.639698422223
 10
24318.63754926343
 20
4311.639698422222
 10
24320.13754926343
 20
4311.639698422222
 10
24320.13754926343
 20
4319.939698422226
 10
24322.03754926345
 20
4319.939698422226
 10
24326.93754926342
 20
4309.939698422225
 10
24329.43754926342
 20
4309.939698422225
 10
24329.43754926342
 20
4029.939698422225
 10
24325.93754926342
 20
4029.939698422225
 10
24322.33754926344
 20
4039.33969842222
 10
24320.13754926343
 20
4039.33969842222
 10
24320.13754926343
 20
4047.639698422222
 10
24318.63754926343
 20
4047.639698422222
 10
24318.63754926343
 20
4040.639698422222
  0
LINE
  5
29885
330
1E
100
AcDbEntity
  8
躯体と製品
  6
Continuous
 62
     3
100
AcDbLine
 10
24319.93754876341
 20
4318.139698582483
 30
0.0
 11
24319.93754876341
 21
4311.639698582483
 31
0.0
  0
LINE
  5
29886
330
1E
100
AcDbEntity
  8
躯体と製品
  6
Continuous
 62
     3
100
AcDbLine
 10
24318.73754876346
 20
4318.139698582483
 30
0.0
 11
24318.73754876346
 21
4311.639698582483
 31
0.0
  0
LINE
  5
29887
330
1E
100
AcDbEntity
  8
躯体と製品
  6
Continuous
 62
     3
100
AcDbLine
 10
24318.73754876346
 20
4311.639698582483
 30
0.0
 11
24319.93754876341
 21
4311.639698582483
 31
0.0
  0
LINE
  5
29888
330
1E
100
AcDbEntity
  8
中心線
  6
CENTER1
 62
     7
100
AcDbLine
 10
24303.68754941045
 20
4324.639698422223
 30
0.0
 11
24334.40854926344
 21
4324.639698422223
 31
0.0
  0
LINE
  5
29889
330
1E
100
AcDbEntity
  8
躯体と製品
  6
Continuous
 62
     3
100
AcDbLine
 10
24319.93754876341
 20
4337.639698582483
 30
0.0
 11
24319.93754876341
 21
4331.139696534912
 31
0.0
  0
LINE
  5
2988A
330
1E
100
AcDbEntity
  8
躯体と製品
  6
Continuous
 62
     3
100
AcDbLine
 10
24318.73754876346
 20
4337.639698582483
 30
0.0
 11
24318.73754876346
 21
4331.139698499129
 31
0.0
  0
LINE
  5
2988B
330
1E
100
AcDbEntity
  8
躯体と製品
  6
Continuous
 62
     3
100
AcDbLine
 10
24317.80954890844
 20
4325.187698673966
 30
0.0
 11
24317.80954890844
 21
4324.639698673971
 31
0.0
  0
ARC
  5
2988C
330
1E
100
AcDbEntity
  8
躯体と製品
  6
Continuous
 62
     3
100
AcDbCircle
 10
24313.85332905013
 20
4325.187988529534
 30
0.0
 40
4.815999999999999
100
AcDbArc
 50
353.4628412382885
 51
41.90684999940336
  0
LINE
  5
2988D
330
1E
100
AcDbEntity
  8
躯体と製品
  6
Continuous
 62
     3
100
AcDbLine
 10
24317.43754890847
 20
4328.404698651269
 30
0.0
 11
24317.43754890847
 21
4324.63969865127
 31
0.0
  0
LINE
  5
2988E
330
1E
100
AcDbEntity
  8
躯体と製品
  6
Continuous
 62
     3
100
AcDbLine
 10
24317.80954890844
 20
4325.188698651269
 30
0.0
 11
24317.80954890844
 21
4324.63969865127
 31
0.0
  0
LINE
  5
2988F
330
1E
100
AcDbEntity
  8
躯体と製品
  6
Continuous
 62
     3
100
AcDbLine
 10
24317.80954890844
 20
4324.090698673972
 30
0.0
 11
24317.80954890844
 21
4324.639698673971
 31
0.0
  0
LINE
  5
29890
330
1E
100
AcDbEntity
  8
躯体と製品
  6
Continuous
 62
     3
100
AcDbLine
 10
24317.80954890844
 20
4324.091698651275
 30
0.0
 11
24317.80954890844
 21
4324.63969865127
 31
0.0
  0
LINE
  5
29891
330
1E
100
AcDbEntity
  8
躯体と製品
  6
Continuous
 62
     3
100
AcDbLine
 10
24316.28454890848
 20
4320.638698673967
 30
0.0
 11
24315.83754890843
 21
4320.639698673971
 31
0.0
  0
LINE
  5
29892
330
1E
100
AcDbEntity
  8
躯体と製品
  6
Continuous
 62
     3
100
AcDbLine
 10
24318.06554890843
 20
4322.007698673973
 30
0.0
 11
24318.16454890848
 21
4321.955698673963
 31
0.0
  0
LINE
  5
29893
330
1E
100
AcDbEntity
  8
躯体と製品
  6
Continuous
 62
     3
100
AcDbLine
 10
24317.43754890847
 20
4320.874698673971
 30
0.0
 11
24316.28454890848
 21
4320.638698673967
 31
0.0
  0
LINE
  5
29894
330
1E
100
AcDbEntity
  8
躯体と製品
  6
Continuous
 62
     3
100
AcDbLine
 10
24318.00954890845
 20
4323.891698673963
 30
0.0
 11
24318.25354890846
 21
4323.891698673963
 31
0.0
  0
ARC
  5
29895
330
1E
100
AcDbEntity
  8
躯体と製品
  6
Continuous
 62
     3
100
AcDbCircle
 10
24315.83754890843
 20
4320.839698673967
 30
0.0
 40
0.2
100
AcDbArc
 50
179.9999940002391
 51
269.9999969984521
  0
ARC
  5
29896
330
1E
100
AcDbEntity
  8
躯体と製品
  6
Continuous
 62
     3
100
AcDbCircle
 10
24318.15654890845
 20
4322.183698673965
 30
0.0
 40
0.2
100
AcDbArc
 50
156.3870539986159
 51
242.6589770004397
  0
ARC
  5
29897
330
1E
100
AcDbEntity
  8
躯体と製品
  6
Continuous
 62
     3
100
AcDbCircle
 10
24318.25354890846
 20
4323.791698673972
 30
0.0
 40
0.1
100
AcDbArc
 50
355.3800760000814
 51
90.00000299821293
  0
LINE
  5
29898
330
1E
100
AcDbEntity
  8
躯体と製品
  6
Continuous
 62
     3
100
AcDbLine
 10
24317.97354890849
 20
4322.263698673967
 30
0.0
 11
24318.08954890847
 21
4322.539698673965
 31
0.0
  0
LINE
  5
29899
330
1E
100
AcDbEntity
  8
躯体と製品
  6
Continuous
 62
     3
100
AcDbLine
 10
24318.08954890847
 20
4322.539698673965
 30
0.0
 11
24318.22554890847
 21
4322.99169867397
 31
0.0
  0
LINE
  5
2989A
330
1E
100
AcDbEntity
  8
躯体と製品
  6
Continuous
 62
     3
100
AcDbLine
 10
24318.22554890847
 20
4322.99169867397
 30
0.0
 11
24318.32554890844
 21
4323.467698673964
 31
0.0
  0
LINE
  5
2989B
330
1E
100
AcDbEntity
  8
躯体と製品
  6
Continuous
 62
     3
100
AcDbLine
 10
24318.32554890844
 20
4323.467698673964
 30
0.0
 11
24318.35254890845
 21
4323.783698673971
 31
0.0
  0
LINE
  5
2989C
330
1E
100
AcDbEntity
  8
躯体と製品
  6
Continuous
 62
     3
100
AcDbLine
 10
24318.23754876346
 20
4319.839698582479
 30
0.0
 11
24316.1365488898
 21
4319.839699662654
 31
0.0
  0
ARC
  5
2989D
330
1E
100
AcDbEntity
  8
躯体と製品
  6
Continuous
 62
     3
100
AcDbCircle
 10
24318.23754876346
 20
4318.139698582483
 30
0.0
 40
1.7
100
AcDbArc
 50
0.0
 51
90.0
  0
LINE
  5
2989E
330
1E
100
AcDbEntity
  8
躯体と製品
  6
Continuous
 62
     3
100
AcDbLine
 10
24318.23754876346
 20
4318.639698582483
 30
0.0
 11
24316.13754882146
 21
4318.639698662621
 31
0.0
  0
ARC
  5
2989F
330
1E
100
AcDbEntity
  8
躯体と製品
  6
Continuous
 62
     3
100
AcDbCircle
 10
24318.23754876346
 20
4318.139698582483
 30
0.0
 40
0.5
100
AcDbArc
 50
0.0
 51
90.0
  0
ARC
  5
298A0
330
1E
100
AcDbEntity
  8
躯体と製品
  6
Continuous
 62
     3
100
AcDbCircle
 10
24316.13754891046
 20
4320.339698662617
 30
0.0
 40
0.5
100
AcDbArc
 50
180.0000059997609
 51
269.885405997914
  0
LINE
  5
298A1
330
1E
100
AcDbEntity
  8
躯体と製品
  6
Continuous
 62
     3
100
AcDbLine
 10
24317.43754890847
 20
4320.874698673971
 30
0.0
 11
24317.43754890847
 21
4324.639698673971
 31
0.0
  0
ARC
  5
298A2
330
1E
100
AcDbEntity
  8
躯体と製品
  6
Continuous
 62
     3
100
AcDbCircle
 10
24318.00954890845
 20
4324.090698673972
 30
0.0
 40
0.2
100
AcDbArc
 50
179.9999940002391
 51
269.9999969984521
  0
ARC
  5
298A3
330
1E
100
AcDbEntity
  8
躯体と製品
  6
Continuous
 62
     3
100
AcDbCircle
 10
24313.85332905013
 20
4324.091408795706
 30
0.0
 40
4.815999999999999
100
AcDbArc
 50
318.0931500005965
 51
6.537158761711621
  0
LINE
  5
298A4
330
1E
100
AcDbEntity
  8
躯体と製品
  6
Continuous
 62
     3
100
AcDbLine
 10
24318.23754876346
 20
4329.439696534914
 30
0.0
 11
24316.10593968816
 21
4329.439696534914
 31
0.0
  0
LINE
  5
298A5
330
1E
100
AcDbEntity
  8
躯体と製品
  6
Continuous
 62
     3
100
AcDbLine
 10
24318.23727113993
 20
4330.639698576197
 30
0.0
 11
24316.07924999384
 21
4330.639698581989
 31
0.0
  0
ARC
  5
298A6
330
1E
100
AcDbEntity
  8
躯体と製品
  6
Continuous
 62
     3
100
AcDbCircle
 10
24318.23754876346
 20
4331.139698499129
 30
0.0
 40
0.5
100
AcDbArc
 50
269.9681866880938
 51
0.0
  0
LINE
  5
298A7
330
1E
100
AcDbEntity
  8
躯体と製品
  6
Continuous
 62
     3
100
AcDbLine
 10
24318.32554890844
 20
4325.811698651276
 30
0.0
 11
24318.35254890845
 21
4325.495698651269
 31
0.0
  0
LINE
  5
298A8
330
1E
100
AcDbEntity
  8
躯体と製品
  6
Continuous
 62
     3
100
AcDbLine
 10
24318.22554890847
 20
4326.28769865127
 30
0.0
 11
24318.32554890844
 21
4325.811698651276
 31
0.0
  0
LINE
  5
298A9
330
1E
100
AcDbEntity
  8
躯体と製品
  6
Continuous
 62
     3
100
AcDbLine
 10
24318.08954890847
 20
4326.739698651276
 30
0.0
 11
24318.22554890847
 21
4326.28769865127
 31
0.0
  0
LINE
  5
298AA
330
1E
100
AcDbEntity
  8
躯体と製品
  6
Continuous
 62
     3
100
AcDbLine
 10
24317.97354890849
 20
4327.015698651274
 30
0.0
 11
24318.08954890847
 21
4326.739698651276
 31
0.0
  0
ARC
  5
298AB
330
1E
100
AcDbEntity
  8
躯体と製品
  6
Continuous
 62
     3
100
AcDbCircle
 10
24318.25354890846
 20
4325.487698651268
 30
0.0
 40
0.1
100
AcDbArc
 50
269.9999969984521
 51
4.6199239999185
  0
ARC
  5
298AC
330
1E
100
AcDbEntity
  8
躯体と製品
  6
Continuous
 62
     3
100
AcDbCircle
 10
24318.15654890845
 20
4327.095698651276
 30
0.0
 40
0.2
100
AcDbArc
 50
117.3410229995602
 51
203.612946001384
  0
ARC
  5
298AD
330
1E
100
AcDbEntity
  8
躯体と製品
  6
Continuous
 62
     3
100
AcDbCircle
 10
24315.83754890843
 20
4328.439698651273
 30
0.0
 40
0.2
100
AcDbArc
 50
90.00000299821293
 51
180.0000059997609
  0
ARC
  5
298AE
330
1E
100
AcDbEntity
  8
躯体と製品
  6
Continuous
 62
     3
100
AcDbCircle
 10
24318.00954890845
 20
4325.188698651269
 30
0.0
 40
0.2
100
AcDbArc
 50
90.00000299821293
 51
180.0000059997609
  0
LINE
  5
298AF
330
1E
100
AcDbEntity
  8
躯体と製品
  6
Continuous
 62
     3
100
AcDbLine
 10
24318.00954890845
 20
4325.387698651277
 30
0.0
 11
24318.25354890846
 21
4325.387698651277
 31
0.0
  0
LINE
  5
298B0
330
1E
100
AcDbEntity
  8
躯体と製品
  6
Continuous
 62
     3
100
AcDbLine
 10
24317.43754890847
 20
4328.404698651269
 30
0.0
 11
24316.28454890848
 21
4328.640698651273
 31
0.0
  0
LINE
  5
298B1
330
1E
100
AcDbEntity
  8
躯体と製品
  6
Continuous
 62
     3
100
AcDbLine
 10
24318.06554890843
 20
4327.271698651268
 30
0.0
 11
24318.16454890848
 21
4327.323698651278
 31
0.0
  0
LINE
  5
298B2
330
1E
100
AcDbEntity
  8
躯体と製品
  6
Continuous
 62
     3
100
AcDbLine
 10
24316.28454890848
 20
4328.640698651273
 30
0.0
 11
24315.83754890843
 21
4328.63969865127
 31
0.0
  0
ARC
  5
298B3
330
1E
100
AcDbEntity
  8
躯体と製品
  6
Continuous
 62
     3
100
AcDbCircle
 10
24318.23754876346
 20
4331.139696534912
 30
0.0
 40
1.7
100
AcDbArc
 50
270.0
 51
0.0
  0
ARC
  5
298B4
330
1E
100
AcDbEntity
  8
躯体と製品
  6
Continuous
 62
     3
100
AcDbCircle
 10
24316.13754791452
 20
4328.940696615041
 30
0.0
 40
0.5
100
AcDbArc
 50
93.62445275446622
 51
180.1143570002185
  0
LWPOLYLINE
  5
298B5
330
1E
100
AcDbEntity
  8
躯体と製品
  6
Continuous
 62
     3
100
AcDbPolyline
 90
        4
 70
     1
 43
0.0
 10
24315.63754891046
 20
4320.339698662617
 10
24308.63754891046
 20
4320.339698662617
 10
24308.63754891046
 20
4328.939698662623
 10
24315.63754891046
 20
4328.939698662623
  0
ARC
  5
298B6
330
1E
100
AcDbEntity
  8
躯体と製品
  6
Continuous
 62
     3
100
AcDbCircle
 10
24316.13754891046
 20
4320.339698662617
 30
0.0
 40
1.7
100
AcDbArc
 50
180.0000059997609
 51
269.9999969984521
  0
ARC
  5
298B7
330
1E
100
AcDbEntity
  8
躯体と製品
  6
Continuous
 62
     3
100
AcDbCircle
 10
24316.13754861639
 20
4328.940698502353
 30
0.0
 40
1.7
100
AcDbArc
 50
91.96524710649606
 51
180.0336980000293
  0
LINE
  5
298B8
330
1E
100
AcDbEntity
  8
躯体と製品
  6
Continuous
 62
     3
100
AcDbLine
 10
24318.73754876346
 20
4337.639698582483
 30
0.0
 11
24319.93754876341
 21
4337.639698582483
 31
0.0
  0
LWPOLYLINE
  5
298B9
330
1E
100
AcDbEntity
  8
躯体と製品
  6
Continuous
 62
     4
100
AcDbPolyline
 90
       10
 70
     0
 43
0.0
 10
24329.43754926342
 20
4404.938398470886
 10
24329.43754926342
 20
4319.939698422226
 10
24325.93754926342
 20
4319.939698422226
 10
24322.33754926344
 20
4329.339698422219
 10
24320.13754926343
 20
4329.339698422219
 10
24320.13754926343
 20
4337.639698422223
 10
24318.63754926343
 20
4337.639698422223
 10
24318.63754926343
 20
4330.639698422223
 10
24314.43754926342
 20
4330.639698422223
 10
24314.43754926342
 20
4404.938398470886
  0
LWPOLYLINE
  5
298BA
330
1E
100
AcDbEntity
  8
躯体と製品
  6
Continuous
 62
     7
100
AcDbPolyline
 90
        2
 70
     0
 43
0.0
 10
24284.43754926342
 20
4234.938398134722
 10
24284.43754926342
 20
4404.938398470886
  0
LWPOLYLINE
  5
298BD
330
1E
100
AcDbEntity
  8
躯体と製品
  6
Continuous
 62
     3
100
AcDbPolyline
 90
        6
 70
     0
 43
0.0
 10
24314.43754926342
 20
4328.939698662623
 10
24314.43754926342
 20
4369.639698422223
 10
24284.43754926342
 20
4369.639698422223
 10
24284.43754926342
 20
4279.639698422222
 10
24314.43754926342
 20
4279.639698422222
 10
24314.43754926342
 20
4320.339698662617
  0
LWPOLYLINE
  5
298BE
330
1E
100
AcDbEntity
  8
躯体と製品
  6
Continuous
 62
     3
100
AcDbPolyline
 90
        2
 70
     0
 43
0.0
 10
24314.43754926342
 20
4369.639698422223
 10
24284.43754926342
 20
4279.639698422222
  0
LWPOLYLINE
  5
298BF
330
1E
100
AcDbEntity
  8
文字-記号
  6
Continuous
 62
     7
100
AcDbPolyline
 90
        3
 70
   128
 43
0.0
 10
24294.37347848245
 20
4332.05377352856
 10
24266.0195406951
 20
4378.11270132237
 10
24214.01405846164
 20
4378.11270132237
  0
TEXT
  5
298C0
330
1E
100
AcDbEntity
  8
文字-記号
  6
Continuous
 62
     7
100
AcDbText
 10
24218.3550266579
 20
4381.731659781054
 30
0.0
 40
9.0
  1
木レンガ
 11
24218.3550266579
 21
4380.531659781055
 31
0.0
100
AcDbText
 73
     1
  0
LWPOLYLINE
  5
298C7
330
1E
100
AcDbEntity
  8
中心線
  6
CENTER1
 62
     7
100
AcDbPolyline
 90
        2
 70
     0
 43
0.0
 10
24269.4372268887
 20
4219.255570067973
 10
24269.4372268887
 20
4259.035074331215
  0
LWPOLYLINE
  5
298C8
330
1E
100
AcDbEntity
  8
躯体と製品
  6
Continuous
 62
     3
100
AcDbPolyline
 90
        2
 70
     0
 43
0.0
 10
24265.4372268887
 20
4228.938398136684
 42
0.9999999999999998
 10
24273.4372268887
 20
4228.938398136684
  0
LWPOLYLINE
  5
298C9
330
1E
100
AcDbEntity
  8
躯体と製品
  6
PLINE2
 62
     3
100
AcDbPolyline
 90
        2
 70
     0
 43
0.0
 10
24269.4372268887
 20
4253.938395636694
 10
24267.4372268887
 20
4251.938395636694
  0
LWPOLYLINE
  5
298CA
330
1E
100
AcDbEntity
  8
躯体と製品
  6
PLINE2
 62
     3
100
AcDbPolyline
 90
        2
 70
     0
 43
0.0
 10
24271.4372268887
 20
4251.938395636694
 10
24269.4372268887
 20
4253.938395636694
  0
LWPOLYLINE
  5
298CB
330
1E
100
AcDbEntity
  8
躯体と製品
  6
PLINE2
 62
     3
100
AcDbPolyline
 90
        2
 70
     0
 43
0.0
 10
24267.4372268887
 20
4251.938395636694
 10
24267.4372268887
 20
4228.938398136684
  0
LWPOLYLINE
  5
298CC
330
1E
100
AcDbEntity
  8
躯体と製品
  6
PLINE2
 62
     3
100
AcDbPolyline
 90
        2
 70
     0
 43
0.0
 10
24271.4372268887
 20
4228.938398136684
 10
24271.4372268887
 20
4251.938395636694
  0
TEXT
  5
298D1
330
1E
100
AcDbEntity
  8
文字-記号
  6
Continuous
 62
     3
100
AcDbText
 10
23665.39710105317
 20
3640.181616739008
 30
0.0
 40
30.0
  1
■カベックス（上部納まり参考図）
  7
ACAD
100
AcDbText
  0
ENDSEC
  0
SECTION
  2
OBJECTS
  0
DICTIONARY
  5
C
330
0
100
AcDbDictionary
281
     1
  3
ACAD_2007HEADERVARS_RT
350
2B9EA
  3
ACAD_CIP_PREVIOUS_PRODUCT_INFO
350
6052
  3
ACAD_COLOR
350
6036
  3
ACAD_GROUP
350
D
  3
ACAD_LAYOUT
350
19
  3
ACAD_MATERIAL
350
6004
  3
ACAD_MLEADERSTYLE
350
604B
  3
ACAD_MLINESTYLE
350
16
  3
ACAD_PLOTSETTINGS
350
18
  3
ACAD_PLOTSTYLENAME
350
E
  3
ACAD_SCALELIST
350
6039
  3
ACAD_TABLESTYLE
350
6037
  3
ACAD_VISUALSTYLE
350
601D
  3
ACDB_RECOMPOSE_DATA
350
2B9E9
  3
AcDbVariableDictionary
350
169
  3
AEC_PROPERTY_SET_DEFS
350
6788
  0
DICTIONARY
  5
8775
330
8
100
AcDbDictionary
280
     1
281
     1
  0
DICTIONARY
  5
175
330
2
100
AcDbDictionary
280
     1
281
     1
  3
ACAD_LAYERFILTERS
360
185
  3
ACAD_LAYERSTATES
360
176
  0
DICTIONARY
  5
8647
330
10
100
AcDbDictionary
280
     1
281
     1
  3
ADSK_XREC_LAYER_RECONCILED
360
8648
  0
DICTIONARY
  5
8649
330
178
100
AcDbDictionary
280
     1
281
     1
  3
ADSK_XREC_LAYER_RECONCILED
360
864A
  0
DICTIONARY
  5
864B
330
179
100
AcDbDictionary
280
     1
281
     1
  3
ADSK_XREC_LAYER_RECONCILED
360
864C
  0
DICTIONARY
  5
864D
330
4F62
100
AcDbDictionary
280
     1
281
     1
  3
ADSK_XREC_LAYER_RECONCILED
360
864E
  0
DICTIONARY
  5
864F
330
70D2
100
AcDbDictionary
280
     1
281
     1
  3
ADSK_XREC_LAYER_RECONCILED
360
8650
  0
DICTIONARY
  5
28B
330
1E
100
AcDbDictionary
280
     1
281
     1
  3
ACAD_LAYOUTSELFREF
360
5FFD
  3
ACAD_SORTENTS
360
684A
  0
DICTIONARY
  5
28D
330
1A
100
AcDbDictionary
280
     1
281
     1
  3
ACAD_LAYOUTSELFREF
360
5FFC
  0
DICTIONARY
  5
2B9EA
102
{ACAD_REACTORS
330
C
102
}
330
C
100
AcDbDictionary
281
     1
  3
DIMLTEX1
350
2B9ED
  3
DIMLTEX2
350
2B9EE
  3
DIMLTYPE
350
2B9EC
  3
DIMTFILL
350
2B9EB
  0
XRECORD
  5
6052
102
{ACAD_REACTORS
330
C
102
}
330
C
100
AcDbXrecord
280
     1
300
ACD
300
2012
300
ACD_F_S
  0
DICTIONARY
  5
6036
102
{ACAD_REACTORS
330
C
102
}
330
C
100
AcDbDictionary
281
     1
  0
DICTIONARY
  5
D
102
{ACAD_REACTORS
330
C
102
}
330
C
100
AcDbDictionary
281
     1
  0
DICTIONARY
  5
19
102
{ACAD_REACTORS
330
C
102
}
330
C
100
AcDbDictionary
281
     1
  3
Model
350
21
  3
ﾚｲｱｳﾄ1
350
1D
  0
DICTIONARY
  5
6004
102
{ACAD_REACTORS
330
C
102
}
330
C
100
AcDbDictionary
281
     1
  3
ByBlock
350
600D
  3
ByLayer
350
6005
  3
Global
350
6015
  0
DICTIONARY
  5
604B
102
{ACAD_REACTORS
330
C
102
}
330
C
100
AcDbDictionary
281
     1
  3
Standard
350
604C
  0
DICTIONARY
  5
16
102
{ACAD_REACTORS
330
C
102
}
330
C
100
AcDbDictionary
281
     1
  3
Standard
350
17
  0
DICTIONARY
  5
18
102
{ACAD_REACTORS
330
C
102
}
330
C
100
AcDbDictionary
281
     1
  0
ACDBDICTIONARYWDFLT
  5
E
102
{ACAD_REACTORS
330
C
102
}
330
C
100
AcDbDictionary
281
     1
  3
Normal
350
F
100
AcDbDictionaryWithDefault
340
F
  0
DICTIONARY
  5
6039
102
{ACAD_REACTORS
330
C
102
}
330
C
100
AcDbDictionary
281
     1
  3
A0
350
603A
  3
A1
350
603B
  3
A2
350
603C
  3
A3
350
603D
  3
A4
350
603E
  3
A5
350
603F
  3
A6
350
6040
  3
A7
350
6041
  3
A8
350
6042
  3
A9
350
6043
  3
B0
350
6044
  3
B1
350
6045
  3
B2
350
6046
  3
B3
350
6047
  3
B4
350
6048
  3
B5
350
6049
  3
B6
350
604A
  0
DICTIONARY
  5
6037
102
{ACAD_REACTORS
330
C
102
}
330
C
100
AcDbDictionary
281
     1
  3
Standard
350
6038
  0
DICTIONARY
  5
601D
102
{ACAD_REACTORS
330
C
102
}
330
C
100
AcDbDictionary
281
     1
  3
2dWireframe
350
6023
  3
3dWireframe
350
6775
  3
Basic
350
6022
  3
Brighten
350
6029
  3
ColorChange
350
602D
  3
Conceptual
350
6026
  3
Dim
350
6028
  3
EdgeColorOff
350
6035
  3
Facepattern
350
602C
  3
Flat
350
601E
  3
FlatWithEdges
350
601F
  3
Gouraud
350
6020
  3
GouraudWithEdges
350
6021
  3
Hidden
350
6025
  3
JitterOff
350
6033
  3
Linepattern
350
602B
  3
OverhangOff
350
6034
  3
Realistic
350
6027
  3
Shaded
350
6032
  3
Shaded with edges
350
6031
  3
Shades of Gray
350
602E
  3
Sketchy
350
602F
  3
Thicken
350
602A
  3
Wireframe
350
6024
  3
X-Ray
350
6030
  0
XRECORD
  5
2B9E9
102
{ACAD_REACTORS
330
C
102
}
330
C
100
AcDbXrecord
280
     1
 90
        1
330
6038
  0
DICTIONARY
  5
169
102
{ACAD_REACTORS
330
C
102
}
330
C
100
AcDbDictionary
281
     1
  3
CANNOSCALE
350
868F
  3
CMLEADERSTYLE
350
868D
  3
CTABLESTYLE
350
868C
  3
DIMASSOC
350
16A
  3
LAYEREVAL
350
8691
  3
LAYERNOTIFY
350
8692
  3
LIGHTINGUNITS
350
8690
  3
MSLTSCALE
350
868E
  3
XCLIPFRAME
350
2B99B
  0
DICTIONARY
  5
6788
102
{ACAD_REACTORS
330
C
102
}
330
C
100
AcDbDictionary
281
     1
  0
DICTIONARY
  5
185
102
{ACAD_REACTORS
330
175
102
}
330
175
100
AcDbDictionary
280
     1
281
     1
  0
DICTIONARY
  5
176
102
{ACAD_REACTORS
330
175
102
}
330
175
100
AcDbDictionary
281
     1
  3
ACAD
350
177
  0
XRECORD
  5
8648
102
{ACAD_REACTORS
330
8647
102
}
330
8647
100
AcDbXrecord
280
     1
290
     1
  0
XRECORD
  5
864A
102
{ACAD_REACTORS
330
8649
102
}
330
8649
100
AcDbXrecord
280
     1
290
     1
  0
XRECORD
  5
864C
102
{ACAD_REACTORS
330
864B
102
}
330
864B
100
AcDbXrecord
280
     1
290
     1
  0
XRECORD
  5
864E
102
{ACAD_REACTORS
330
864D
102
}
330
864D
100
AcDbXrecord
280
     1
290
     1
  0
XRECORD
  5
8650
102
{ACAD_REACTORS
330
864F
102
}
330
864F
100
AcDbXrecord
280
     1
290
     1
  0
XRECORD
  5
5FFD
102
{ACAD_REACTORS
330
28B
102
}
330
28B
100
AcDbXrecord
280
     1
340
1E
  0
SORTENTSTABLE
  5
684A
102
{ACAD_REACTORS
330
28B
102
}
330
28B
100
AcDbSortentsTable
330
1E
331
298A0
  5
298A0
331
29779
  5
29779
331
29742
  5
29742
331
29703
  5
29703
331
2968D
  5
2968D
331
295E6
  5
295E6
331
295A7
  5
295A7
331
296CC
  5
296CC
331
298A8
  5
298A8
331
29781
  5
29781
331
2974A
  5
2974A
331
2970B
  5
2970B
331
29695
  5
29695
331
295EE
  5
295EE
331
295AF
  5
295AF
331
296D4
  5
296D4
331
290C0
  5
290C0
331
29049
  5
29049
331
2955A
  5
2955A
331
2951B
  5
2951B
331
294E4
  5
294E4
331
293DD
  5
293DD
331
293A6
  5
293A6
331
29051
  5
29051
331
29257
  5
29257
331
29562
  5
29562
331
29523
  5
29523
331
294EC
  5
294EC
331
293E5
  5
293E5
331
293AE
  5
293AE
331
29059
  5
29059
331
29158
  5
29158
331
2956A
  5
2956A
331
2952B
  5
2952B
331
294F4
  5
294F4
331
293ED
  5
293ED
331
293B6
  5
293B6
331
2927F
  5
2927F
331
29572
  5
29572
331
29533
  5
29533
331
294FC
  5
294FC
331
293F5
  5
293F5
331
293BE
  5
293BE
331
29010
  5
29010
331
29018
  5
29018
331
29020
  5
29020
331
28FD1
  5
28FD1
331
29028
  5
29028
331
298B0
  5
298B0
331
29752
  5
29752
331
29713
  5
29713
331
2969D
  5
2969D
331
295B7
  5
295B7
331
296DC
  5
296DC
331
298B8
  5
298B8
331
2975A
  5
2975A
331
2971B
  5
2971B
331
296A5
  5
296A5
331
2966E
  5
2966E
331
295BF
  5
295BF
331
296E4
  5
296E4
331
298C0
  5
298C0
331
29881
  5
29881
331
29762
  5
29762
331
29723
  5
29723
331
296AD
  5
296AD
331
29676
  5
29676
331
295C7
  5
295C7
331
296EC
  5
296EC
331
29889
  5
29889
331
2972B
  5
2972B
331
295CF
  5
295CF
331
296B5
  5
296B5
331
29069
  5
29069
331
2957A
  5
2957A
331
2953B
  5
2953B
331
29504
  5
29504
331
293FD
  5
293FD
331
293C6
  5
293C6
331
29582
  5
29582
331
29543
  5
29543
331
2950C
  5
2950C
331
293CE
  5
293CE
331
2937F
  5
2937F
331
290A9
  5
290A9
331
29248
  5
29248
331
2958A
  5
2958A
331
2954B
  5
2954B
331
29514
  5
29514
331
294D5
  5
294D5
331
293D6
  5
293D6
331
29387
  5
29387
331
29553
  5
29553
331
294DD
  5
294DD
331
29030
  5
29030
331
28FF1
  5
28FF1
331
29038
  5
29038
331
28FF9
  5
28FF9
331
29001
  5
29001
331
29040
  5
29040
331
29009
  5
29009
331
29590
  5
29590
331
29891
  5
29891
331
2976A
  5
2976A
331
29733
  5
29733
331
296BD
  5
296BD
331
2967E
  5
2967E
331
295D7
  5
295D7
331
29598
  5
29598
331
296F4
  5
296F4
331
29899
  5
29899
331
2973B
  5
2973B
331
296FC
  5
296FC
331
29686
  5
29686
331
295A0
  5
295A0
331
296C5
  5
296C5
331
298A1
  5
298A1
331
2977A
  5
2977A
331
29743
  5
29743
331
29704
  5
29704
331
2968E
  5
2968E
331
295E7
  5
295E7
331
295A8
  5
295A8
331
296CD
  5
296CD
331
298A9
  5
298A9
331
29782
  5
29782
331
2974B
  5
2974B
331
2970C
  5
2970C
331
29696
  5
29696
331
295EF
  5
295EF
331
296D5
  5
296D5
331
290C1
  5
290C1
331
2904A
  5
2904A
331
29250
  5
29250
331
2955B
  5
2955B
331
2951C
  5
2951C
331
294E5
  5
294E5
331
293DE
  5
293DE
331
293A7
  5
293A7
331
29052
  5
29052
331
29258
  5
29258
331
29563
  5
29563
331
29524
  5
29524
331
294ED
  5
294ED
331
293E6
  5
293E6
331
293AF
  5
293AF
331
2905A
  5
2905A
331
29159
  5
29159
331
2956B
  5
2956B
331
2952C
  5
2952C
331
294F5
  5
294F5
331
293EE
  5
293EE
331
293B7
  5
293B7
331
29280
  5
29280
331
29161
  5
29161
331
29573
  5
29573
331
29534
  5
29534
331
294FD
  5
294FD
331
293F6
  5
293F6
331
293BF
  5
293BF
331
29011
  5
29011
331
29019
  5
29019
331
29021
  5
29021
331
28FD2
  5
28FD2
331
29029
  5
29029
331
28FEA
  5
28FEA
331
295B0
  5
295B0
331
298B1
  5
298B1
331
29753
  5
29753
331
29714
  5
29714
331
2969E
  5
2969E
331
295B8
  5
295B8
331
296DD
  5
296DD
331
298B9
  5
298B9
331
2975B
  5
2975B
331
2971C
  5
2971C
331
296A6
  5
296A6
331
2966F
  5
2966F
331
295C0
  5
295C0
331
296E5
  5
296E5
331
29882
  5
29882
331
29763
  5
29763
331
29724
  5
29724
331
296AE
  5
296AE
331
29677
  5
29677
331
295C8
  5
295C8
331
296ED
  5
296ED
331
2988A
  5
2988A
331
2972C
  5
2972C
331
296B6
  5
296B6
331
2906A
  5
2906A
331
29368
  5
29368
331
2957B
  5
2957B
331
2953C
  5
2953C
331
29505
  5
29505
331
293FE
  5
293FE
331
293C7
  5
293C7
331
29241
  5
29241
331
29583
  5
29583
331
29544
  5
29544
331
2950D
  5
2950D
331
293CF
  5
293CF
331
29380
  5
29380
331
29249
  5
29249
331
2958B
  5
2958B
331
2954C
  5
2954C
331
29515
  5
29515
331
294D6
  5
294D6
331
293D7
  5
293D7
331
29388
  5
29388
331
29554
  5
29554
331
294DE
  5
294DE
331
29031
  5
29031
331
28FF2
  5
28FF2
331
29039
  5
29039
331
28FFA
  5
28FFA
331
29002
  5
29002
331
29041
  5
29041
331
2900A
  5
2900A
331
295D0
  5
295D0
331
29591
  5
29591
331
29892
  5
29892
331
2976B
  5
2976B
331
29734
  5
29734
331
296BE
  5
296BE
331
2967F
  5
2967F
331
295D8
  5
295D8
331
29599
  5
29599
331
296F5
  5
296F5
331
2989A
  5
2989A
331
2973C
  5
2973C
331
296FD
  5
296FD
331
29687
  5
29687
331
295A1
  5
295A1
331
296C6
  5
296C6
331
298A2
  5
298A2
331
2977B
  5
2977B
331
29744
  5
29744
331
29705
  5
29705
331
2968F
  5
2968F
331
295E8
  5
295E8
331
295A9
  5
295A9
331
296CE
  5
296CE
331
298AA
  5
298AA
331
29783
  5
29783
331
2974C
  5
2974C
331
2970D
  5
2970D
331
29697
  5
29697
331
296D6
  5
296D6
331
290C2
  5
290C2
331
2904B
  5
2904B
331
29251
  5
29251
331
2955C
  5
2955C
331
2951D
  5
2951D
331
294E6
  5
294E6
331
293DF
  5
293DF
331
29053
  5
29053
331
293A8
  5
293A8
331
29564
  5
29564
331
29525
  5
29525
331
294EE
  5
294EE
331
293E7
  5
293E7
331
293B0
  5
293B0
331
2905B
  5
2905B
331
2915A
  5
2915A
331
2956C
  5
2956C
331
2952D
  5
2952D
331
294F6
  5
294F6
331
293EF
  5
293EF
331
293B8
  5
293B8
331
29162
  5
29162
331
29574
  5
29574
331
29535
  5
29535
331
294FE
  5
294FE
331
293F7
  5
293F7
331
29012
  5
29012
331
2901A
  5
2901A
331
29022
  5
29022
331
28FEB
  5
28FEB
331
295F0
  5
295F0
331
295B1
  5
295B1
331
298B2
  5
298B2
331
29873
  5
29873
331
29754
  5
29754
331
29715
  5
29715
331
2969F
  5
2969F
331
295B9
  5
295B9
331
296DE
  5
296DE
331
298BA
  5
298BA
331
2975C
  5
2975C
331
2971D
  5
2971D
331
296A7
  5
296A7
331
29670
  5
29670
331
295C1
  5
295C1
331
296E6
  5
296E6
331
29883
  5
29883
331
29764
  5
29764
331
29725
  5
29725
331
296AF
  5
296AF
331
295C9
  5
295C9
331
296EE
  5
296EE
331
2988B
  5
2988B
331
2972D
  5
2972D
331
296B7
  5
296B7
331
293C0
  5
293C0
331
29369
  5
29369
331
2957C
  5
2957C
331
2953D
  5
2953D
331
29506
  5
29506
331
293FF
  5
293FF
331
293C8
  5
293C8
331
29242
  5
29242
331
29584
  5
29584
331
2950E
  5
2950E
331
293D0
  5
293D0
331
29381
  5
29381
331
290AB
  5
290AB
331
2924A
  5
2924A
331
2958C
  5
2958C
331
2954D
  5
2954D
331
29516
  5
29516
331
294D7
  5
294D7
331
29389
  5
29389
331
29555
  5
29555
331
294DF
  5
294DF
331
29032
  5
29032
331
28FF3
  5
28FF3
331
2903A
  5
2903A
331
28FFB
  5
28FFB
331
29003
  5
29003
331
29042
  5
29042
331
2900B
  5
2900B
331
29678
  5
29678
331
295D1
  5
295D1
331
29592
  5
29592
331
29893
  5
29893
331
2976C
  5
2976C
331
29735
  5
29735
331
296BF
  5
296BF
331
29680
  5
29680
331
295D9
  5
295D9
331
2959A
  5
2959A
331
296F6
  5
296F6
331
2989B
  5
2989B
331
29774
  5
29774
331
2973D
  5
2973D
331
296FE
  5
296FE
331
29688
  5
29688
331
295A2
  5
295A2
331
296C7
  5
296C7
331
298A3
  5
298A3
331
2977C
  5
2977C
331
29745
  5
29745
331
29706
  5
29706
331
29690
  5
29690
331
295E9
  5
295E9
331
295AA
  5
295AA
331
296CF
  5
296CF
331
298AB
  5
298AB
331
29784
  5
29784
331
2974D
  5
2974D
331
2970E
  5
2970E
331
296D7
  5
296D7
331
293D8
  5
293D8
331
2904C
  5
2904C
331
29252
  5
29252
331
2955D
  5
2955D
331
2951E
  5
2951E
331
294E7
  5
294E7
331
293E0
  5
293E0
331
293A9
  5
293A9
331
29054
  5
29054
331
2925A
  5
2925A
331
29565
  5
29565
331
29526
  5
29526
331
294EF
  5
294EF
331
293E8
  5
293E8
331
293B1
  5
293B1
331
2905C
  5
2905C
331
2915B
  5
2915B
331
2956D
  5
2956D
331
2952E
  5
2952E
331
294F7
  5
294F7
331
293F0
  5
293F0
331
293B9
  5
293B9
331
29575
  5
29575
331
29536
  5
29536
331
294FF
  5
294FF
331
298C8
  5
298C8
331
29013
  5
29013
331
2901B
  5
2901B
331
29023
  5
29023
331
28FD4
  5
28FD4
331
2902B
  5
2902B
331
28FEC
  5
28FEC
331
29698
  5
29698
331
295F1
  5
295F1
331
295B2
  5
295B2
331
298B3
  5
298B3
331
29874
  5
29874
331
29755
  5
29755
331
29716
  5
29716
331
296A0
  5
296A0
331
295BA
  5
295BA
331
296DF
  5
296DF
331
2975D
  5
2975D
331
2971E
  5
2971E
331
296A8
  5
296A8
331
29671
  5
29671
331
295C2
  5
295C2
331
296E7
  5
296E7
331
29884
  5
29884
331
29765
  5
29765
331
29726
  5
29726
331
296B0
  5
296B0
331
295CA
  5
295CA
331
296EF
  5
296EF
331
2988C
  5
2988C
331
2972E
  5
2972E
331
293F8
  5
293F8
331
293C1
  5
293C1
331
2906C
  5
2906C
331
2936A
  5
2936A
331
2957D
  5
2957D
331
2953E
  5
2953E
331
29507
  5
29507
331
29400
  5
29400
331
293C9
  5
293C9
331
29243
  5
29243
331
29585
  5
29585
331
2950F
  5
2950F
331
293D1
  5
293D1
331
29382
  5
29382
331
290AC
  5
290AC
331
2924B
  5
2924B
331
2958D
  5
2958D
331
2954E
  5
2954E
331
29517
  5
29517
331
294D8
  5
294D8
331
290BC
  5
290BC
331
29556
  5
29556
331
29033
  5
29033
331
28FF4
  5
28FF4
331
2903B
  5
2903B
331
28FFC
  5
28FFC
331
29004
  5
29004
331
29043
  5
29043
331
2900C
  5
2900C
331
296B8
  5
296B8
331
29679
  5
29679
331
295D2
  5
295D2
331
29593
  5
29593
331
29894
  5
29894
331
2976D
  5
2976D
331
29736
  5
29736
331
296C0
  5
296C0
331
29681
  5
29681
331
295DA
  5
295DA
331
2959B
  5
2959B
331
296F7
  5
296F7
331
2989C
  5
2989C
331
29775
  5
29775
331
2973E
  5
2973E
331
296FF
  5
296FF
331
29689
  5
29689
331
295A3
  5
295A3
331
296C8
  5
296C8
331
298A4
  5
298A4
331
2977D
  5
2977D
331
29746
  5
29746
331
29707
  5
29707
331
29691
  5
29691
331
295EA
  5
295EA
331
295AB
  5
295AB
331
296D0
  5
296D0
331
298AC
  5
298AC
331
29785
  5
29785
331
2974E
  5
2974E
331
2970F
  5
2970F
331
294E0
  5
294E0
331
293D9
  5
293D9
331
2904D
  5
2904D
331
29253
  5
29253
331
2955E
  5
2955E
331
2951F
  5
2951F
331
294E8
  5
294E8
331
293E1
  5
293E1
331
293AA
  5
293AA
331
29055
  5
29055
331
2925B
  5
2925B
331
29566
  5
29566
331
29527
  5
29527
331
294F0
  5
294F0
331
293E9
  5
293E9
331
293B2
  5
293B2
331
2905D
  5
2905D
331
2927B
  5
2927B
331
2956E
  5
2956E
331
2952F
  5
2952F
331
294F8
  5
294F8
331
293F1
  5
293F1
331
293BA
  5
293BA
331
29576
  5
29576
331
29537
  5
29537
331
298C9
  5
298C9
331
298D1
  5
298D1
331
29014
  5
29014
331
2901C
  5
2901C
331
29024
  5
29024
331
28FD5
  5
28FD5
331
2902C
  5
2902C
331
28FED
  5
28FED
331
29699
  5
29699
331
295F2
  5
295F2
331
295B3
  5
295B3
331
296D8
  5
296D8
331
298B4
  5
298B4
331
29875
  5
29875
331
29756
  5
29756
331
29717
  5
29717
331
296A1
  5
296A1
331
295BB
  5
295BB
331
296E0
  5
296E0
331
2975E
  5
2975E
331
2971F
  5
2971F
331
296A9
  5
296A9
331
29672
  5
29672
331
295C3
  5
295C3
331
296E8
  5
296E8
331
29885
  5
29885
331
29766
  5
29766
331
296B1
  5
296B1
331
295CB
  5
295CB
331
29727
  5
29727
331
2988D
  5
2988D
331
2972F
  5
2972F
331
29500
  5
29500
331
293F9
  5
293F9
331
293C2
  5
293C2
331
2936B
  5
2936B
331
2957E
  5
2957E
331
2953F
  5
2953F
331
29508
  5
29508
331
29401
  5
29401
331
293CA
  5
293CA
331
29586
  5
29586
331
29510
  5
29510
331
293D2
  5
293D2
331
29383
  5
29383
331
290AD
  5
290AD
331
2924C
  5
2924C
331
2958E
  5
2958E
331
2954F
  5
2954F
331
294D9
  5
294D9
331
290BD
  5
290BD
331
29557
  5
29557
331
29034
  5
29034
331
28FF5
  5
28FF5
331
2903C
  5
2903C
331
28FFD
  5
28FFD
331
29005
  5
29005
331
29044
  5
29044
331
2900D
  5
2900D
331
296B9
  5
296B9
331
2967A
  5
2967A
331
295D3
  5
295D3
331
29594
  5
29594
331
296F0
  5
296F0
331
29895
  5
29895
331
2976E
  5
2976E
331
29737
  5
29737
331
296C1
  5
296C1
331
29682
  5
29682
331
295DB
  5
295DB
331
2959C
  5
2959C
331
296F8
  5
296F8
331
2989D
  5
2989D
331
2973F
  5
2973F
331
29700
  5
29700
331
2968A
  5
2968A
331
295A4
  5
295A4
331
296C9
  5
296C9
331
298A5
  5
298A5
331
2977E
  5
2977E
331
29747
  5
29747
331
29708
  5
29708
331
29692
  5
29692
331
295EB
  5
295EB
331
295AC
  5
295AC
331
296D1
  5
296D1
331
298AD
  5
298AD
331
29786
  5
29786
331
2974F
  5
2974F
331
29518
  5
29518
331
294E1
  5
294E1
331
293DA
  5
293DA
331
2904E
  5
2904E
331
29254
  5
29254
331
2955F
  5
2955F
331
29520
  5
29520
331
294E9
  5
294E9
331
293E2
  5
293E2
331
293AB
  5
293AB
331
29056
  5
29056
331
2925C
  5
2925C
331
29567
  5
29567
331
29528
  5
29528
331
294F1
  5
294F1
331
293EA
  5
293EA
331
293B3
  5
293B3
331
2905E
  5
2905E
331
2927C
  5
2927C
331
2956F
  5
2956F
331
29530
  5
29530
331
294F9
  5
294F9
331
293F2
  5
293F2
331
293BB
  5
293BB
331
29577
  5
29577
331
298CA
  5
298CA
331
29015
  5
29015
331
2901D
  5
2901D
331
29025
  5
29025
331
2902D
  5
2902D
331
29710
  5
29710
331
2969A
  5
2969A
331
295F3
  5
295F3
331
295B4
  5
295B4
331
296D9
  5
296D9
331
298B5
  5
298B5
331
29876
  5
29876
331
29757
  5
29757
331
29718
  5
29718
331
296A2
  5
296A2
331
295BC
  5
295BC
331
296E1
  5
296E1
331
298BD
  5
298BD
331
2975F
  5
2975F
331
29720
  5
29720
331
296AA
  5
296AA
331
29673
  5
29673
331
295C4
  5
295C4
331
296E9
  5
296E9
331
29886
  5
29886
331
29767
  5
29767
331
296B2
  5
296B2
331
295CC
  5
295CC
331
29728
  5
29728
331
2988E
  5
2988E
331
29538
  5
29538
331
29501
  5
29501
331
293FA
  5
293FA
331
293C3
  5
293C3
331
2936C
  5
2936C
331
2957F
  5
2957F
331
29540
  5
29540
331
29509
  5
29509
331
293CB
  5
293CB
331
29587
  5
29587
331
29548
  5
29548
331
29511
  5
29511
331
293D3
  5
293D3
331
29384
  5
29384
331
290AE
  5
290AE
331
2924D
  5
2924D
331
2958F
  5
2958F
331
29550
  5
29550
331
294DA
  5
294DA
331
290BE
  5
290BE
331
29035
  5
29035
331
28FF6
  5
28FF6
331
2903D
  5
2903D
331
28FFE
  5
28FFE
331
29006
  5
29006
331
29045
  5
29045
331
2900E
  5
2900E
331
29730
  5
29730
331
296BA
  5
296BA
331
2967B
  5
2967B
331
295D4
  5
295D4
331
29595
  5
29595
331
296F1
  5
296F1
331
29896
  5
29896
331
2976F
  5
2976F
331
29738
  5
29738
331
296C2
  5
296C2
331
29683
  5
29683
331
2959D
  5
2959D
331
296F9
  5
296F9
331
2989E
  5
2989E
331
29777
  5
29777
331
29740
  5
29740
331
29701
  5
29701
331
2968B
  5
2968B
331
295E4
  5
295E4
331
295A5
  5
295A5
331
296CA
  5
296CA
331
298A6
  5
298A6
331
2977F
  5
2977F
331
29748
  5
29748
331
29709
  5
29709
331
29693
  5
29693
331
295EC
  5
295EC
331
295AD
  5
295AD
331
296D2
  5
296D2
331
298AE
  5
298AE
331
29787
  5
29787
331
29558
  5
29558
331
29519
  5
29519
331
294E2
  5
294E2
331
293DB
  5
293DB
331
293A4
  5
293A4
331
2904F
  5
2904F
331
29255
  5
29255
331
29560
  5
29560
331
29521
  5
29521
331
294EA
  5
294EA
331
293E3
  5
293E3
331
293AC
  5
293AC
331
2925D
  5
2925D
331
29057
  5
29057
331
29156
  5
29156
331
29568
  5
29568
331
29529
  5
29529
331
294F2
  5
294F2
331
293EB
  5
293EB
331
293B4
  5
293B4
331
2905F
  5
2905F
331
2927D
  5
2927D
331
29570
  5
29570
331
29531
  5
29531
331
294FA
  5
294FA
331
293F3
  5
293F3
331
293BC
  5
293BC
331
29166
  5
29166
331
298CB
  5
298CB
331
29016
  5
29016
331
2901E
  5
2901E
331
29026
  5
29026
331
2902E
  5
2902E
331
28FEF
  5
28FEF
331
29750
  5
29750
331
29711
  5
29711
331
2969B
  5
2969B
331
295F4
  5
295F4
331
295B5
  5
295B5
331
296DA
  5
296DA
331
298B6
  5
298B6
331
29758
  5
29758
331
29719
  5
29719
331
296A3
  5
296A3
331
295BD
  5
295BD
331
296E2
  5
296E2
331
298BE
  5
298BE
331
2987F
  5
2987F
331
29760
  5
29760
331
29721
  5
29721
331
296AB
  5
296AB
331
29674
  5
29674
331
295C5
  5
295C5
331
296EA
  5
296EA
331
29887
  5
29887
331
296B3
  5
296B3
331
295CD
  5
295CD
331
29729
  5
29729
331
2988F
  5
2988F
331
29578
  5
29578
331
29539
  5
29539
331
29502
  5
29502
331
293FB
  5
293FB
331
293C4
  5
293C4
331
2923E
  5
2923E
331
29580
  5
29580
331
29541
  5
29541
331
2950A
  5
2950A
331
290A7
  5
290A7
331
293CC
  5
293CC
331
29588
  5
29588
331
29549
  5
29549
331
29512
  5
29512
331
293D4
  5
293D4
331
29385
  5
29385
331
2924E
  5
2924E
331
29551
  5
29551
331
294DB
  5
294DB
331
290BF
  5
290BF
331
29036
  5
29036
331
28FF7
  5
28FF7
331
28FFF
  5
28FFF
331
2903E
  5
2903E
331
29007
  5
29007
331
29046
  5
29046
331
2900F
  5
2900F
331
29768
  5
29768
331
29731
  5
29731
331
296BB
  5
296BB
331
2967C
  5
2967C
331
295D5
  5
295D5
331
29596
  5
29596
331
296F2
  5
296F2
331
29897
  5
29897
331
29770
  5
29770
331
29739
  5
29739
331
296C3
  5
296C3
331
29684
  5
29684
331
2959E
  5
2959E
331
296FA
  5
296FA
331
2989F
  5
2989F
331
29778
  5
29778
331
29741
  5
29741
331
29702
  5
29702
331
2968C
  5
2968C
331
295E5
  5
295E5
331
295A6
  5
295A6
331
296CB
  5
296CB
331
298A7
  5
298A7
331
29780
  5
29780
331
29749
  5
29749
331
2970A
  5
2970A
331
29694
  5
29694
331
295ED
  5
295ED
331
295AE
  5
295AE
331
296D3
  5
296D3
331
298AF
  5
298AF
331
29048
  5
29048
331
29559
  5
29559
331
2951A
  5
2951A
331
294E3
  5
294E3
331
293DC
  5
293DC
331
293A5
  5
293A5
331
29050
  5
29050
331
29256
  5
29256
331
29561
  5
29561
331
29522
  5
29522
331
294EB
  5
294EB
331
293E4
  5
293E4
331
293AD
  5
293AD
331
29058
  5
29058
331
29157
  5
29157
331
29569
  5
29569
331
2952A
  5
2952A
331
294F3
  5
294F3
331
293EC
  5
293EC
331
293B5
  5
293B5
331
29060
  5
29060
331
2927E
  5
2927E
331
29571
  5
29571
331
29532
  5
29532
331
294FB
  5
294FB
331
293F4
  5
293F4
331
293BD
  5
293BD
331
298CC
  5
298CC
331
29017
  5
29017
331
2901F
  5
2901F
331
29027
  5
29027
331
2902F
  5
2902F
331
29751
  5
29751
331
29712
  5
29712
331
2969C
  5
2969C
331
295B6
  5
295B6
331
296DB
  5
296DB
331
298B7
  5
298B7
331
2971A
  5
2971A
331
296A4
  5
296A4
331
2966D
  5
2966D
331
295BE
  5
295BE
331
296E3
  5
296E3
331
298BF
  5
298BF
331
29880
  5
29880
331
29761
  5
29761
331
29722
  5
29722
331
296AC
  5
296AC
331
29675
  5
29675
331
295C6
  5
295C6
331
296EB
  5
296EB
331
298C7
  5
298C7
331
29888
  5
29888
331
2972A
  5
2972A
331
295CE
  5
295CE
331
296B4
  5
296B4
331
29068
  5
29068
331
29579
  5
29579
331
2953A
  5
2953A
331
29503
  5
29503
331
293FC
  5
293FC
331
293C5
  5
293C5
331
2923F
  5
2923F
331
29581
  5
29581
331
29542
  5
29542
331
2950B
  5
2950B
331
293CD
  5
293CD
331
2937E
  5
2937E
331
290A8
  5
290A8
331
29247
  5
29247
331
29589
  5
29589
331
2954A
  5
2954A
331
29513
  5
29513
331
294D4
  5
294D4
331
293D5
  5
293D5
331
29386
  5
29386
331
2924F
  5
2924F
331
29552
  5
29552
331
294DC
  5
294DC
331
28FF0
  5
28FF0
331
29037
  5
29037
331
28FF8
  5
28FF8
331
29000
  5
29000
331
2903F
  5
2903F
331
29008
  5
29008
331
29047
  5
29047
331
29890
  5
29890
331
29769
  5
29769
331
29732
  5
29732
331
296BC
  5
296BC
331
2967D
  5
2967D
331
295D6
  5
295D6
331
29597
  5
29597
331
296F3
  5
296F3
331
29898
  5
29898
331
2973A
  5
2973A
331
296FB
  5
296FB
331
29685
  5
29685
331
2959F
  5
2959F
331
296C4
  5
296C4
  0
XRECORD
  5
5FFC
102
{ACAD_REACTORS
330
28D
102
}
330
28D
100
AcDbXrecord
280
     1
340
1A
  0
XRECORD
  5
2B9ED
102
{ACAD_REACTORS
330
2B9EA
102
}
330
2B9EA
100
AcDbXrecord
280
     1
340
14
  0
XRECORD
  5
2B9EE
102
{ACAD_REACTORS
330
2B9EA
102
}
330
2B9EA
100
AcDbXrecord
280
     1
340
14
  0
XRECORD
  5
2B9EC
102
{ACAD_REACTORS
330
2B9EA
102
}
330
2B9EA
100
AcDbXrecord
280
     1
340
14
  0
XRECORD
  5
2B9EB
102
{ACAD_REACTORS
330
2B9EA
102
}
330
2B9EA
100
AcDbXrecord
280
     1
 70
     1
  0
LAYOUT
  5
21
102
{ACAD_XDICTIONARY
360
8658
102
}
102
{ACAD_REACTORS
330
19
102
}
330
19
100
AcDbPlotSettings
  1

  2
none_device
  4
Letter_(8.50_x_11.00_Inches)
  6

 40
6.349999904632568
 41
6.349999904632568
 42
6.350006103515625
 43
6.350006103515625
 44
215.8999938964844
 45
279.3999938964844
 46
0.0
 47
0.0
 48
0.0
 49
0.0
140
0.0
141
0.0
142
1.0
143
146.7100980149999
 70
 11952
 72
     0
 73
     1
 74
     0
  7
monochrome.ctb
 75
     0
147
0.0068161633965902
 76
     0
 77
     2
 78
   300
148
47470.08137818641
149
-63730.11029222032
100
AcDbLayout
  1
Model
 70
     1
 71
     0
 10
0.0
 20
0.0
 11
12.0
 21
9.0
 12
0.0
 22
0.0
 32
0.0
 14
0.0
 24
0.0
 34
0.0
 15
0.0
 25
0.0
 35
0.0
146
0.0
 13
0.0
 23
0.0
 33
0.0
 16
1.0
 26
0.0
 36
0.0
 17
0.0
 27
1.0
 37
0.0
 76
     0
330
1E
331
5FB8
1001
ACAD_PSEXT
1000
なし
1000
なし
1000
適切ではありません
1000
新しいプロッタ環境設定名を選択しない限り、レイアウトは印刷されません。
1070
     0
  0
LAYOUT
  5
1D
102
{ACAD_REACTORS
330
19
102
}
330
19
100
AcDbPlotSettings
  1

  2
\\MEISEI-1\EPSON Stylus Photo EX3
  4

  6

 40
0.0
 41
0.0
 42
0.0
 43
0.0
 44
0.0
 45
0.0
 46
0.0
 47
0.0
 48
0.0
 49
0.0
140
0.0
141
0.0
142
1.0
143
1.0
 70
   688
 72
     0
 73
     0
 74
     5
  7
monochrome.ctb
 75
    16
147
1.0
 76
     0
 77
     2
 78
   300
148
0.0
149
0.0
100
AcDbLayout
  1
ﾚｲｱｳﾄ1
 70
     1
 71
     1
 10
0.0
 20
0.0
 11
12.0
 21
9.0
 12
0.0
 22
0.0
 32
0.0
 14
1.000000000000000E+20
 24
1.000000000000000E+20
 34
1.000000000000000E+20
 15
-1.000000000000000E+20
 25
-1.000000000000000E+20
 35
-1.000000000000000E+20
146
0.0
 13
0.0
 23
0.0
 33
0.0
 16
1.0
 26
0.0
 36
0.0
 17
0.0
 27
1.0
 37
0.0
 76
     0
330
1A
  0
MATERIAL
  5
600D
102
{ACAD_XDICTIONARY
360
600E
102
}
102
{ACAD_REACTORS
330
6004
102
}
330
6004
100
AcDbMaterial
  1
ByBlock
 72
     0
 43
0.0208333333333333
 43
0.0
 43
0.0
 43
0.0
 43
0.0
 43
0.0208333333333333
 43
0.0
 43
0.0
 43
0.0
 43
0.0
 43
1.0
 43
0.0
 43
0.0
 43
0.0
 43
0.0
 43
1.0
 77
     0
 47
0.0208333333333333
 47
0.0
 47
0.0
 47
0.0
 47
0.0
 47
0.0208333333333333
 47
0.0
 47
0.0
 47
0.0
 47
0.0
 47
1.0
 47
0.0
 47
0.0
 47
0.0
 47
0.0
 47
1.0
171
     0
 49
0.0208333333333333
 49
0.0
 49
0.0
 49
0.0
 49
0.0
 49
0.0208333333333333
 49
0.0
 49
0.0
 49
0.0
 49
0.0
 49
1.0
 49
0.0
 49
0.0
 49
0.0
 49
0.0
 49
1.0
175
     0
142
0.0208333333333333
142
0.0
142
0.0
142
0.0
142
0.0
142
0.0208333333333333
142
0.0
142
0.0
142
0.0
142
0.0
142
1.0
142
0.0
142
0.0
142
0.0
142
0.0
142
1.0
179
     0
144
0.0208333333333333
144
0.0
144
0.0
144
0.0
144
0.0
144
0.0208333333333333
144
0.0
144
0.0
144
0.0
144
0.0
144
1.0
144
0.0
144
0.0
144
0.0
144
0.0
144
1.0
147
0.0208333333333333
147
0.0
147
0.0
147
0.0
147
0.0
147
0.0208333333333333
147
0.0
147
0.0
147
0.0
147
0.0
147
1.0
147
0.0
147
0.0
147
0.0
147
0.0
147
1.0
  0
MATERIAL
  5
6005
102
{ACAD_XDICTIONARY
360
6006
102
}
102
{ACAD_REACTORS
330
6004
102
}
330
6004
100
AcDbMaterial
  1
ByLayer
 72
     0
 43
0.0208333333333333
 43
0.0
 43
0.0
 43
0.0
 43
0.0
 43
0.0208333333333333
 43
0.0
 43
0.0
 43
0.0
 43
0.0
 43
1.0
 43
0.0
 43
0.0
 43
0.0
 43
0.0
 43
1.0
 77
     0
 47
0.0208333333333333
 47
0.0
 47
0.0
 47
0.0
 47
0.0
 47
0.0208333333333333
 47
0.0
 47
0.0
 47
0.0
 47
0.0
 47
1.0
 47
0.0
 47
0.0
 47
0.0
 47
0.0
 47
1.0
171
     0
 49
0.0208333333333333
 49
0.0
 49
0.0
 49
0.0
 49
0.0
 49
0.0208333333333333
 49
0.0
 49
0.0
 49
0.0
 49
0.0
 49
1.0
 49
0.0
 49
0.0
 49
0.0
 49
0.0
 49
1.0
175
     0
142
0.0208333333333333
142
0.0
142
0.0
142
0.0
142
0.0
142
0.0208333333333333
142
0.0
142
0.0
142
0.0
142
0.0
142
1.0
142
0.0
142
0.0
142
0.0
142
0.0
142
1.0
179
     0
144
0.0208333333333333
144
0.0
144
0.0
144
0.0
144
0.0
144
0.0208333333333333
144
0.0
144
0.0
144
0.0
144
0.0
144
1.0
144
0.0
144
0.0
144
0.0
144
0.0
144
1.0
147
0.0208333333333333
147
0.0
147
0.0
147
0.0
147
0.0
147
0.0208333333333333
147
0.0
147
0.0
147
0.0
147
0.0
147
1.0
147
0.0
147
0.0
147
0.0
147
0.0
147
1.0
  0
MATERIAL
  5
6015
102
{ACAD_XDICTIONARY
360
6016
102
}
102
{ACAD_REACTORS
330
6004
102
}
330
6004
100
AcDbMaterial
  1
Global
 72
     0
 43
0.0208333333333333
 43
0.0
 43
0.0
 43
0.0
 43
0.0
 43
0.0208333333333333
 43
0.0
 43
0.0
 43
0.0
 43
0.0
 43
1.0
 43
0.0
 43
0.0
 43
0.0
 43
0.0
 43
1.0
 77
     0
 47
0.0208333333333333
 47
0.0
 47
0.0
 47
0.0
 47
0.0
 47
0.0208333333333333
 47
0.0
 47
0.0
 47
0.0
 47
0.0
 47
1.0
 47
0.0
 47
0.0
 47
0.0
 47
0.0
 47
1.0
171
     0
 49
0.0208333333333333
 49
0.0
 49
0.0
 49
0.0
 49
0.0
 49
0.0208333333333333
 49
0.0
 49
0.0
 49
0.0
 49
0.0
 49
1.0
 49
0.0
 49
0.0
 49
0.0
 49
0.0
 49
1.0
175
     0
142
0.0208333333333333
142
0.0
142
0.0
142
0.0
142
0.0
142
0.0208333333333333
142
0.0
142
0.0
142
0.0
142
0.0
142
1.0
142
0.0
142
0.0
142
0.0
142
0.0
142
1.0
179
     0
144
0.0208333333333333
144
0.0
144
0.0
144
0.0
144
0.0
144
0.0208333333333333
144
0.0
144
0.0
144
0.0
144
0.0
144
1.0
144
0.0
144
0.0
144
0.0
144
0.0
144
1.0
147
0.0208333333333333
147
0.0
147
0.0
147
0.0
147
0.0
147
0.0208333333333333
147
0.0
147
0.0
147
0.0
147
0.0
147
1.0
147
0.0
147
0.0
147
0.0
147
0.0
147
1.0
  0
MLEADERSTYLE
  5
604C
102
{ACAD_XDICTIONARY
360
2B9E7
102
}
102
{ACAD_REACTORS
330
604B
102
}
330
604B
100
AcDbMLeaderStyle
170
     2
171
     1
172
     0
 90
        2
 40
0.0
 41
0.0
173
     1
 91
-1056964608
340
13
 92
       -2
290
     1
 42
0.09
291
     1
 43
0.36
  3
Standard
 44
0.18
300

342
11
174
     1
178
     6
175
     1
176
     0
 93
-1056964608
 45
0.18
292
     0
297
     0
 46
0.18
 94
-1056964608
 47
1.0
 49
1.0
140
1.0
293
     1
141
0.0
294
     1
177
     0
142
1.0
295
     0
296
     0
143
0.125
1001
ACAD_MLEADERVER
1070
     2
  0
MLINESTYLE
  5
17
102
{ACAD_REACTORS
330
16
102
}
330
16
100
AcDbMlineStyle
  2
STANDARD
 70
     0
  3

 62
   256
 51
90.0
 52
90.0
 71
     2
 49
0.5
 62
   256
  6
BYLAYER
 49
-0.5
 62
   256
  6
BYLAYER
  0
ACDBPLACEHOLDER
  5
F
102
{ACAD_REACTORS
330
E
102
}
330
E
  0
SCALE
  5
603A
102
{ACAD_REACTORS
330
6039
102
}
330
6039
100
AcDbScale
 70
     0
300
1:1
140
1.0
141
1.0
290
     1
  0
SCALE
  5
603B
102
{ACAD_REACTORS
330
6039
102
}
330
6039
100
AcDbScale
 70
     0
300
1/128" = 1'-0"
140
0.0078125
141
12.0
290
     0
  0
SCALE
  5
603C
102
{ACAD_REACTORS
330
6039
102
}
330
6039
100
AcDbScale
 70
     0
300
1/64" = 1'-0"
140
0.015625
141
12.0
290
     0
  0
SCALE
  5
603D
102
{ACAD_REACTORS
330
6039
102
}
330
6039
100
AcDbScale
 70
     0
300
1/32" = 1'-0"
140
0.03125
141
12.0
290
     0
  0
SCALE
  5
603E
102
{ACAD_REACTORS
330
6039
102
}
330
6039
100
AcDbScale
 70
     0
300
1/16" = 1'-0"
140
0.0625
141
12.0
290
     0
  0
SCALE
  5
603F
102
{ACAD_REACTORS
330
6039
102
}
330
6039
100
AcDbScale
 70
     0
300
3/32" = 1'-0"
140
0.09375
141
12.0
290
     0
  0
SCALE
  5
6040
102
{ACAD_REACTORS
330
6039
102
}
330
6039
100
AcDbScale
 70
     0
300
1/8" = 1'-0"
140
0.125
141
12.0
290
     0
  0
SCALE
  5
6041
102
{ACAD_REACTORS
330
6039
102
}
330
6039
100
AcDbScale
 70
     0
300
3/16" = 1'-0"
140
0.1875
141
12.0
290
     0
  0
SCALE
  5
6042
102
{ACAD_REACTORS
330
6039
102
}
330
6039
100
AcDbScale
 70
     0
300
1/4" = 1'-0"
140
0.25
141
12.0
290
     0
  0
SCALE
  5
6043
102
{ACAD_REACTORS
330
6039
102
}
330
6039
100
AcDbScale
 70
     0
300
3/8" = 1'-0"
140
0.375
141
12.0
290
     0
  0
SCALE
  5
6044
102
{ACAD_REACTORS
330
6039
102
}
330
6039
100
AcDbScale
 70
     0
300
1/2" = 1'-0"
140
0.5
141
12.0
290
     0
  0
SCALE
  5
6045
102
{ACAD_REACTORS
330
6039
102
}
330
6039
100
AcDbScale
 70
     0
300
3/4" = 1'-0"
140
0.75
141
12.0
290
     0
  0
SCALE
  5
6046
102
{ACAD_REACTORS
330
6039
102
}
330
6039
100
AcDbScale
 70
     0
300
1" = 1'-0"
140
1.0
141
12.0
290
     0
  0
SCALE
  5
6047
102
{ACAD_REACTORS
330
6039
102
}
330
6039
100
AcDbScale
 70
     0
300
1-1/2" = 1'-0"
140
1.5
141
12.0
290
     0
  0
SCALE
  5
6048
102
{ACAD_REACTORS
330
6039
102
}
330
6039
100
AcDbScale
 70
     0
300
3" = 1'-0"
140
3.0
141
12.0
290
     0
  0
SCALE
  5
6049
102
{ACAD_REACTORS
330
6039
102
}
330
6039
100
AcDbScale
 70
     0
300
6" = 1'-0"
140
6.0
141
12.0
290
     0
  0
SCALE
  5
604A
102
{ACAD_REACTORS
330
6039
102
}
330
6039
100
AcDbScale
 70
     0
300
1'-0" = 1'-0"
140
12.0
141
12.0
290
     0
  0
TABLESTYLE
  5
6038
102
{ACAD_XDICTIONARY
360
8770
102
}
102
{ACAD_REACTORS
330
6037
102
}
330
6037
100
AcDbTableStyle
  3
Standard
 70
     0
 71
     0
 40
0.06
 41
0.06
280
     0
281
     0
  7
STANDARD
140
0.18
170
     2
 62
     0
 63
     7
283
     0
274
    -2
284
     1
 64
     0
275
    -2
285
     1
 65
     0
276
    -2
286
     1
 66
     0
277
    -2
287
     1
 67
     0
278
    -2
288
     1
 68
     0
279
    -2
289
     1
 69
     0
  7
STANDARD
140
0.25
170
     5
 62
     0
 63
     7
283
     0
274
    -2
284
     1
 64
     0
275
    -2
285
     1
 65
     0
276
    -2
286
     1
 66
     0
277
    -2
287
     1
 67
     0
278
    -2
288
     1
 68
     0
279
    -2
289
     1
 69
     0
  7
STANDARD
140
0.18
170
     5
 62
     0
 63
     7
283
     0
274
    -2
284
     1
 64
     0
275
    -2
285
     1
 65
     0
276
    -2
286
     1
 66
     0
277
    -2
287
     1
 67
     0
278
    -2
288
     1
 68
     0
279
    -2
289
     1
 69
     0
  0
VISUALSTYLE
  5
6023
102
{ACAD_XDICTIONARY
360
2B9FC
102
}
102
{ACAD_REACTORS
330
601D
102
}
330
601D
100
AcDbVisualStyle
  2
2dWireframe
 70
     4
 71
     0
 72
     2
 73
     0
 90
        0
 40
-0.6
 41
-30.0
 62
     5
 63
     7
421
 16777215
 74
     1
 91
        4
 64
     7
 65
   257
 75
     1
175
     1
 42
1.0
 92
        0
 66
   257
 43
1.0
 76
     1
 77
     6
 78
     2
 67
     7
 79
     5
170
     0
171
     0
290
     0
174
     0
 93
        1
 44
0.0
173
     0
291
     0
 45
0.0
1001
ACAD
1000
AcDbSavedByObjectVersion
1070
     0
  0
VISUALSTYLE
  5
6775
102
{ACAD_XDICTIONARY
360
2BA23
102
}
102
{ACAD_REACTORS
330
601D
102
}
330
601D
100
AcDbVisualStyle
  2
3dWireframe
 70
     5
 71
     0
 72
     2
 73
     0
 90
        0
 40
-0.6
 41
-30.0
 62
     5
 63
     7
421
 16777215
 74
     1
 91
        4
 64
     7
 65
   257
 75
     1
175
     1
 42
1.0
 92
        0
 66
   257
 43
1.0
 76
     1
 77
     6
 78
     2
 67
     7
 79
     5
170
     0
171
     0
290
     0
174
     0
 93
        1
 44
0.0
173
     0
291
     0
 45
0.0
1001
ACAD
1000
AcDbSavedByObjectVersion
1070
     0
  0
VISUALSTYLE
  5
6022
102
{ACAD_XDICTIONARY
360
2B9FA
102
}
102
{ACAD_REACTORS
330
601D
102
}
330
601D
100
AcDbVisualStyle
  2
Basic
 70
     7
 71
     1
 72
     0
 73
     1
 90
        0
 40
-0.6
 41
-30.0
 62
     5
 63
     7
421
 16777215
 74
     0
 91
        4
 64
     7
 65
   257
 75
     1
175
     1
 42
1.0
 92
        8
 66
     7
 43
1.0
 76
     1
 77
     6
 78
     2
 67
     7
 79
     5
170
     0
171
     0
290
     0
174
     0
 93
        1
 44
0.0
173
     0
291
     1
 45
0.0
1001
ACAD
1000
AcDbSavedByObjectVersion
1070
     0
  0
VISUALSTYLE
  5
6029
102
{ACAD_XDICTIONARY
360
2BA08
102
}
102
{ACAD_REACTORS
330
601D
102
}
330
601D
100
AcDbVisualStyle
  2
Brighten
 70
    12
 71
     2
 72
     2
 73
     0
 90
        0
 40
-0.6
 41
-30.0
 62
     5
 63
     7
421
 16777215
 74
     1
 91
        4
 64
     7
 65
   257
 75
     1
175
     1
 42
1.0
 92
        8
 66
     7
 43
1.0
 76
     1
 77
     6
 78
     2
 67
     7
 79
     5
170
     0
171
     0
290
     0
174
     0
 93
        1
 44
50.0
173
     0
291
     1
 45
0.0
1001
ACAD
1000
AcDbSavedByObjectVersion
1070
     0
  0
VISUALSTYLE
  5
602D
102
{ACAD_XDICTIONARY
360
2BA10
102
}
102
{ACAD_REACTORS
330
601D
102
}
330
601D
100
AcDbVisualStyle
  2
ColorChange
 70
    16
 71
     2
 72
     2
 73
     3
 90
        0
 40
-0.6
 41
-30.0
 62
     5
 63
     8
421
  8421504
 74
     1
 91
        4
 64
     7
 65
   257
 75
     1
175
     1
 42
1.0
 92
        8
 66
     8
424
  8421504
 43
1.0
 76
     1
 77
     6
 78
     2
 67
     7
 79
     5
170
     0
171
     0
290
     0
174
     0
 93
        1
 44
0.0
173
     0
291
     1
 45
0.0
1001
ACAD
1000
AcDbSavedByObjectVersion
1070
     0
  0
VISUALSTYLE
  5
6026
102
{ACAD_XDICTIONARY
360
2BA02
102
}
102
{ACAD_REACTORS
330
601D
102
}
330
601D
100
AcDbVisualStyle
  2
Conceptual
 70
     9
 71
     3
 72
     2
 73
     0
 90
        0
 40
-0.6
 41
-30.0
 62
     5
 63
     7
421
 16777215
 74
     2
 91
        2
 64
     7
 65
   257
 75
     1
175
     1
 42
179.0
 92
        8
 66
     7
 43
1.0
 76
     1
 77
     6
 78
     2
 67
     7
 79
     3
170
     0
171
     0
290
     0
174
     0
 93
        1
 44
0.0
173
     0
291
     0
 45
0.0
1001
ACAD
1000
AcDbSavedByObjectVersion
1070
     0
  0
VISUALSTYLE
  5
6028
102
{ACAD_XDICTIONARY
360
2BA06
102
}
102
{ACAD_REACTORS
330
601D
102
}
330
601D
100
AcDbVisualStyle
  2
Dim
 70
    11
 71
     2
 72
     2
 73
     0
 90
        0
 40
-0.6
 41
-30.0
 62
     5
 63
     7
421
 16777215
 74
     1
 91
        4
 64
     7
 65
   257
 75
     1
175
     1
 42
1.0
 92
        8
 66
     7
 43
1.0
 76
     1
 77
     6
 78
     2
 67
     7
 79
     5
170
     0
171
     0
290
     0
174
     0
 93
        1
 44
-50.0
173
     0
291
     1
 45
0.0
1001
ACAD
1000
AcDbSavedByObjectVersion
1070
     0
  0
VISUALSTYLE
  5
6035
102
{ACAD_XDICTIONARY
360
2BA20
102
}
102
{ACAD_REACTORS
330
601D
102
}
330
601D
100
AcDbVisualStyle
  2
EdgeColorOff
 70
    22
 71
     2
 72
     2
 73
     0
 90
        0
 40
-0.6
 41
-30.0
 62
     5
 63
     7
421
 16777215
 74
     1
 91
        4
 64
     7
 65
   257
 75
     1
175
     1
 42
1.0
 92
        8
 66
     7
 43
1.0
 76
     1
 77
     6
 78
     2
 67
     7
 79
     5
170
     0
171
     0
290
     0
174
     0
 93
        1
 44
0.0
173
     0
291
     1
 45
0.0
1001
ACAD
1000
AcDbSavedByObjectVersion
1070
     0
  0
VISUALSTYLE
  5
602C
102
{ACAD_XDICTIONARY
360
2BA0E
102
}
102
{ACAD_REACTORS
330
601D
102
}
330
601D
100
AcDbVisualStyle
  2
Facepattern
 70
    15
 71
     2
 72
     2
 73
     0
 90
        0
 40
-0.6
 41
-30.0
 62
     5
 63
     7
421
 16777215
 74
     1
 91
        4
 64
     7
 65
   257
 75
     1
175
     1
 42
1.0
 92
        8
 66
     7
 43
1.0
 76
     1
 77
     6
 78
     2
 67
     7
 79
     5
170
     0
171
     0
290
     0
174
     0
 93
        1
 44
0.0
173
     0
291
     1
 45
0.0
1001
ACAD
1000
AcDbSavedByObjectVersion
1070
     0
  0
VISUALSTYLE
  5
601E
102
{ACAD_XDICTIONARY
360
2B9F2
102
}
102
{ACAD_REACTORS
330
601D
102
}
330
601D
100
AcDbVisualStyle
  2
Flat
 70
     0
 71
     2
 72
     1
 73
     1
 90
        2
 40
-0.6
 41
30.0
 62
     5
 63
     7
421
 16777215
 74
     0
 91
        0
 64
     7
 65
   257
 75
     1
175
     1
 42
1.0
 92
        8
 66
     7
 43
1.0
 76
     1
 77
     6
 78
     2
 67
     7
 79
     5
170
     0
171
     0
290
     0
174
     0
 93
       13
 44
0.0
173
     0
291
     1
 45
0.0
1001
ACAD
1000
AcDbSavedByObjectVersion
1070
     0
  0
VISUALSTYLE
  5
601F
102
{ACAD_XDICTIONARY
360
2B9F4
102
}
102
{ACAD_REACTORS
330
601D
102
}
330
601D
100
AcDbVisualStyle
  2
FlatWithEdges
 70
     1
 71
     2
 72
     1
 73
     1
 90
        2
 40
-0.6
 41
30.0
 62
     5
 63
     7
421
 16777215
 74
     1
 91
        0
 64
     7
 65
   257
 75
     1
175
     1
 42
1.0
 92
        0
 66
   257
 43
1.0
 76
     1
 77
     6
 78
     2
 67
     7
 79
     5
170
     0
171
     0
290
     0
174
     0
 93
       13
 44
0.0
173
     0
291
     1
 45
0.0
1001
ACAD
1000
AcDbSavedByObjectVersion
1070
     0
  0
VISUALSTYLE
  5
6020
102
{ACAD_XDICTIONARY
360
2B9F6
102
}
102
{ACAD_REACTORS
330
601D
102
}
330
601D
100
AcDbVisualStyle
  2
Gouraud
 70
     2
 71
     2
 72
     2
 73
     1
 90
        2
 40
-0.6
 41
30.0
 62
     5
 63
     7
421
 16777215
 74
     0
 91
        0
 64
     7
 65
   257
 75
     1
175
     1
 42
1.0
 92
        0
 66
     7
 43
1.0
 76
     1
 77
     6
 78
     2
 67
     7
 79
     5
170
     0
171
     0
290
     0
174
     0
 93
       13
 44
0.0
173
     0
291
     1
 45
0.0
1001
ACAD
1000
AcDbSavedByObjectVersion
1070
     0
  0
VISUALSTYLE
  5
6021
102
{ACAD_XDICTIONARY
360
2B9F8
102
}
102
{ACAD_REACTORS
330
601D
102
}
330
601D
100
AcDbVisualStyle
  2
GouraudWithEdges
 70
     3
 71
     2
 72
     2
 73
     1
 90
        2
 40
-0.6
 41
30.0
 62
     5
 63
     7
421
 16777215
 74
     1
 91
        0
 64
     7
 65
   257
 75
     1
175
     1
 42
1.0
 92
        0
 66
   257
 43
1.0
 76
     1
 77
     6
 78
     2
 67
     7
 79
     5
170
     0
171
     0
290
     0
174
     0
 93
       13
 44
0.0
173
     0
291
     1
 45
0.0
1001
ACAD
1000
AcDbSavedByObjectVersion
1070
     0
  0
VISUALSTYLE
  5
6025
102
{ACAD_XDICTIONARY
360
2BA00
102
}
102
{ACAD_REACTORS
330
601D
102
}
330
601D
100
AcDbVisualStyle
  2
Hidden
 70
     6
 71
     1
 72
     2
 73
     2
 90
        0
 40
-0.6
 41
-30.0
 62
     5
 63
     7
421
 16777215
 74
     2
 91
        2
 64
     7
 65
   257
 75
     2
175
     1
 42
40.0
 92
        0
 66
   257
 43
1.0
 76
     1
 77
     6
 78
     2
 67
     7
 79
     3
170
     0
171
     0
290
     0
174
     0
 93
        1
 44
0.0
173
     0
291
     0
 45
0.0
1001
ACAD
1000
AcDbSavedByObjectVersion
1070
     0
  0
VISUALSTYLE
  5
6033
102
{ACAD_XDICTIONARY
360
2BA1C
102
}
102
{ACAD_REACTORS
330
601D
102
}
330
601D
100
AcDbVisualStyle
  2
JitterOff
 70
    20
 71
     2
 72
     2
 73
     0
 90
        0
 40
-0.6
 41
-30.0
 62
     5
 63
     7
421
 16777215
 74
     1
 91
        4
 64
     7
 65
   257
 75
     1
175
     1
 42
1.0
 92
       10
 66
     7
 43
1.0
 76
     1
 77
     6
 78
     2
 67
     7
 79
     5
170
     0
171
     0
290
     0
174
     0
 93
        1
 44
0.0
173
     0
291
     1
 45
0.0
1001
ACAD
1000
AcDbSavedByObjectVersion
1070
     0
  0
VISUALSTYLE
  5
602B
102
{ACAD_XDICTIONARY
360
2BA0C
102
}
102
{ACAD_REACTORS
330
601D
102
}
330
601D
100
AcDbVisualStyle
  2
Linepattern
 70
    14
 71
     2
 72
     2
 73
     0
 90
        0
 40
-0.6
 41
-30.0
 62
     5
 63
     7
421
 16777215
 74
     1
 91
        4
 64
     7
 65
   257
 75
     7
175
     7
 42
1.0
 92
        8
 66
     7
 43
1.0
 76
     1
 77
     6
 78
     2
 67
     7
 79
     5
170
     0
171
     0
290
     0
174
     0
 93
        1
 44
0.0
173
     0
291
     1
 45
0.0
1001
ACAD
1000
AcDbSavedByObjectVersion
1070
     0
  0
VISUALSTYLE
  5
6034
102
{ACAD_XDICTIONARY
360
2BA1E
102
}
102
{ACAD_REACTORS
330
601D
102
}
330
601D
100
AcDbVisualStyle
  2
OverhangOff
 70
    21
 71
     2
 72
     2
 73
     0
 90
        0
 40
-0.6
 41
-30.0
 62
     5
 63
     7
421
 16777215
 74
     1
 91
        4
 64
     7
 65
   257
 75
     1
175
     1
 42
1.0
 92
        9
 66
     7
 43
1.0
 76
     1
 77
     6
 78
     2
 67
     7
 79
     5
170
     0
171
     0
290
     0
174
     0
 93
        1
 44
0.0
173
     0
291
     1
 45
0.0
1001
ACAD
1000
AcDbSavedByObjectVersion
1070
     0
  0
VISUALSTYLE
  5
6027
102
{ACAD_XDICTIONARY
360
2BA04
102
}
102
{ACAD_REACTORS
330
601D
102
}
330
601D
100
AcDbVisualStyle
  2
Realistic
 70
     8
 71
     2
 72
     2
 73
     0
 90
        2
 40
-0.6
 41
30.0
 62
     5
 63
     7
421
 16777215
 74
     0
 91
        0
 64
     7
 65
   257
 75
     1
175
     1
 42
1.0
 92
        8
 66
   257
 43
1.0
 76
     1
 77
     6
 78
     2
 67
     7
 79
     3
170
     0
171
     0
290
     0
174
     0
 93
       13
 44
0.0
173
     0
291
     0
 45
0.0
1001
ACAD
1000
AcDbSavedByObjectVersion
1070
     0
  0
VISUALSTYLE
  5
6032
102
{ACAD_XDICTIONARY
360
2BA1A
102
}
102
{ACAD_REACTORS
330
601D
102
}
330
601D
100
AcDbVisualStyle
  2
Shaded
 70
    27
 71
     2
 72
     2
 73
     1
 90
        2
 40
-0.6
 41
30.0
 62
     5
 63
     7
421
 16777215
 74
     0
 91
        4
 64
     7
 65
   257
 75
     1
175
     1
 42
1.0
 92
        8
 66
   257
 43
1.0
 76
     1
 77
     6
 78
     2
 67
     8
425
  7895160
 79
     3
170
     0
171
     0
290
     0
174
     0
 93
        5
 44
0.0
173
     0
291
     0
 45
0.0
1001
ACAD
1000
AcDbSavedByObjectVersion
1070
     0
  0
VISUALSTYLE
  5
6031
102
{ACAD_XDICTIONARY
360
2BA18
102
}
102
{ACAD_REACTORS
330
601D
102
}
330
601D
100
AcDbVisualStyle
  2
Shaded with edges
 70
    26
 71
     2
 72
     2
 73
     1
 90
        2
 40
-0.6
 41
30.0
 62
     5
 63
     7
421
 16777215
 74
     1
 91
       10
 64
     7
 65
   257
 75
     2
175
     1
 42
1.0
 92
        8
 66
   257
 43
1.0
 76
     1
 77
     6
 78
     2
 67
     7
 79
     3
170
     0
171
     0
290
     0
174
     0
 93
        5
 44
0.0
173
     0
291
     0
 45
0.0
1001
ACAD
1000
AcDbSavedByObjectVersion
1070
     0
  0
VISUALSTYLE
  5
602E
102
{ACAD_XDICTIONARY
360
2BA12
102
}
102
{ACAD_REACTORS
330
601D
102
}
330
601D
100
AcDbVisualStyle
  2
Shades of Gray
 70
    23
 71
     2
 72
     2
 73
     3
 90
        0
 40
-0.6
 41
-30.0
 62
     5
 63
     7
421
 16777215
 74
     2
 91
        2
 64
     7
 65
     7
 75
     1
175
     1
 42
40.0
 92
        8
 66
     7
 43
1.0
 76
     1
 77
     6
 78
     2
 67
     7
 79
     3
170
     0
171
     0
290
     0
174
     0
 93
        1
 44
0.0
173
     0
291
     0
 45
0.0
1001
ACAD
1000
AcDbSavedByObjectVersion
1070
     0
  0
VISUALSTYLE
  5
602F
102
{ACAD_XDICTIONARY
360
2BA14
102
}
102
{ACAD_REACTORS
330
601D
102
}
330
601D
100
AcDbVisualStyle
  2
Sketchy
 70
    24
 71
     1
 72
     2
 73
     2
 90
        0
 40
-0.6
 41
-30.0
 62
     5
 63
     7
421
 16777215
 74
     2
 91
        2
 64
     7
 65
     7
 75
     1
175
     1
 42
40.0
 92
       11
 66
     7
 43
1.0
 76
     1
 77
     6
 78
     2
 67
     7
 79
     6
170
     0
171
     0
290
     0
174
     0
 93
        1
 44
0.0
173
     0
291
     0
 45
0.0
1001
ACAD
1000
AcDbSavedByObjectVersion
1070
     0
  0
VISUALSTYLE
  5
602A
102
{ACAD_XDICTIONARY
360
2BA0A
102
}
102
{ACAD_REACTORS
330
601D
102
}
330
601D
100
AcDbVisualStyle
  2
Thicken
 70
    13
 71
     2
 72
     2
 73
     0
 90
        0
 40
-0.6
 41
-30.0
 62
     5
 63
     7
421
 16777215
 74
     1
 91
        4
 64
     7
 65
   257
 75
     1
175
     1
 42
1.0
 92
       12
 66
     7
 43
1.0
 76
     1
 77
     6
 78
     2
 67
     7
 79
     5
170
     0
171
     0
290
     0
174
     0
 93
        1
 44
0.0
173
     0
291
     1
 45
0.0
1001
ACAD
1000
AcDbSavedByObjectVersion
1070
     0
  0
VISUALSTYLE
  5
6024
102
{ACAD_XDICTIONARY
360
2B9FE
102
}
102
{ACAD_REACTORS
330
601D
102
}
330
601D
100
AcDbVisualStyle
  2
Wireframe
 70
     5
 71
     0
 72
     2
 73
     0
 90
        0
 40
-0.6
 41
-30.0
 62
     5
 63
     7
421
 16777215
 74
     1
 91
        4
 64
     7
 65
   257
 75
     1
175
     1
 42
1.0
 92
        0
 66
   257
 43
1.0
 76
     1
 77
     6
 78
     2
 67
     7
 79
     3
170
     0
171
     0
290
     0
174
     0
 93
        1
 44
0.0
173
     0
291
     0
 45
0.0
1001
ACAD
1000
AcDbSavedByObjectVersion
1070
     0
  0
VISUALSTYLE
  5
6030
102
{ACAD_XDICTIONARY
360
2BA16
102
}
102
{ACAD_REACTORS
330
601D
102
}
330
601D
100
AcDbVisualStyle
  2
X-Ray
 70
    25
 71
     2
 72
     2
 73
     1
 90
        1
 40
0.5
 41
-30.0
 62
     5
 63
     7
421
 16777215
 74
     1
 91
        0
 64
     7
 65
   257
 75
     1
175
     1
 42
1.0
 92
        8
 66
     7
 43
1.0
 76
     1
 77
     6
 78
     2
 67
     7
 79
     3
170
     0
171
     0
290
     0
174
     0
 93
       13
 44
0.0
173
     0
291
     0
 45
0.0
1001
ACAD
1000
AcDbSavedByObjectVersion
1070
     0
  0
DICTIONARYVAR
  5
868F
102
{ACAD_REACTORS
330
169
102
}
330
169
100
DictionaryVariables
280
     0
  1
1:1
  0
DICTIONARYVAR
  5
868D
102
{ACAD_REACTORS
330
169
102
}
330
169
100
DictionaryVariables
280
     0
  1
STANDARD
  0
DICTIONARYVAR
  5
868C
102
{ACAD_REACTORS
330
169
102
}
330
169
100
DictionaryVariables
280
     0
  1
STANDARD
  0
DICTIONARYVAR
  5
16A
102
{ACAD_REACTORS
330
169
102
}
330
169
100
DictionaryVariables
280
     0
  1
1
  0
DICTIONARYVAR
  5
8691
102
{ACAD_REACTORS
330
169
102
}
330
169
100
DictionaryVariables
280
     0
  1
1
  0
DICTIONARYVAR
  5
8692
102
{ACAD_REACTORS
330
169
102
}
330
169
100
DictionaryVariables
280
     0
  1
15
  0
DICTIONARYVAR
  5
8690
102
{ACAD_REACTORS
330
169
102
}
330
169
100
DictionaryVariables
280
     0
  1
0
  0
DICTIONARYVAR
  5
868E
102
{ACAD_REACTORS
330
169
102
}
330
169
100
DictionaryVariables
280
     0
  1
0
  0
DICTIONARYVAR
  5
2B99B
102
{ACAD_REACTORS
330
169
102
}
330
169
100
DictionaryVariables
280
     0
  1
2
  0
XRECORD
  5
177
102
{ACAD_REACTORS
330
176
102
}
330
176
100
AcDbXrecord
280
     1
 91
      476
330
179
 90
        8
 62
     7
370
    -3
331
15
  1
Color_7
330
178
 90
        8
 62
     7
370
    -3
331
15
  1
Color_7
330
128
 90
        0
 62
     7
370
    -3
331
15
  1
Color_7
330
10
 90
        8
 62
     7
370
    -3
331
15
  1
Color_7
  0
DICTIONARY
  5
8658
330
21
100
AcDbDictionary
280
     1
281
     1
  3
ADSK_XREC_LAYOUTTHUMBNAIL
360
8659
  0
DICTIONARY
  5
600E
330
600D
100
AcDbDictionary
280
     1
281
     1
  3
ACAD_XREC_ROUNDTRIP
360
2B9F0
  3
BUMPTILE
360
6010
  3
DIFFUSETILE
360
600F
  3
OPACITYTILE
360
6013
  3
REFLECTIONTILE
360
6012
  3
REFRACTIONTILE
360
6014
  3
SPECULARTILE
360
6011
  0
DICTIONARY
  5
6006
330
6005
100
AcDbDictionary
280
     1
281
     1
  3
ACAD_XREC_ROUNDTRIP
360
2B9EF
  3
BUMPTILE
360
6008
  3
DIFFUSETILE
360
6007
  3
OPACITYTILE
360
600B
  3
REFLECTIONTILE
360
600A
  3
REFRACTIONTILE
360
600C
  3
SPECULARTILE
360
6009
  0
DICTIONARY
  5
6016
330
6015
100
AcDbDictionary
280
     1
281
     1
  3
ACAD_XREC_ROUNDTRIP
360
2B9F1
  3
BUMPTILE
360
6018
  3
DIFFUSETILE
360
6017
  3
OPACITYTILE
360
601B
  3
REFLECTIONTILE
360
601A
  3
REFRACTIONTILE
360
601C
  3
SPECULARTILE
360
6019
  0
DICTIONARY
  5
2B9E7
330
604C
100
AcDbDictionary
280
     1
281
     1
  3
ACAD_XREC_ROUNDTRIP
360
2B9E8
  0
DICTIONARY
  5
8770
330
6038
100
AcDbDictionary
280
     1
281
     1
  3
ACAD_ROUNDTRIP_2008_TABLESTYLE_CELLSTYLEMAP
360
2B9E6
  3
ACAD_XREC_ROUNDTRIP
360
2BA22
  0
DICTIONARY
  5
2B9FC
330
6023
100
AcDbDictionary
280
     1
281
     1
  3
ACAD_XREC_ROUNDTRIP
360
2B9FD
  0
DICTIONARY
  5
2BA23
330
6775
100
AcDbDictionary
280
     1
281
     1
  3
ACAD_XREC_ROUNDTRIP
360
2BA24
  0
DICTIONARY
  5
2B9FA
330
6022
100
AcDbDictionary
280
     1
281
     1
  3
ACAD_XREC_ROUNDTRIP
360
2B9FB
  0
DICTIONARY
  5
2BA08
330
6029
100
AcDbDictionary
280
     1
281
     1
  3
ACAD_XREC_ROUNDTRIP
360
2BA09
  0
DICTIONARY
  5
2BA10
330
602D
100
AcDbDictionary
280
     1
281
     1
  3
ACAD_XREC_ROUNDTRIP
360
2BA11
  0
DICTIONARY
  5
2BA02
330
6026
100
AcDbDictionary
280
     1
281
     1
  3
ACAD_XREC_ROUNDTRIP
360
2BA03
  0
DICTIONARY
  5
2BA06
330
6028
100
AcDbDictionary
280
     1
281
     1
  3
ACAD_XREC_ROUNDTRIP
360
2BA07
  0
DICTIONARY
  5
2BA20
330
6035
100
AcDbDictionary
280
     1
281
     1
  3
ACAD_XREC_ROUNDTRIP
360
2BA21
  0
DICTIONARY
  5
2BA0E
330
602C
100
AcDbDictionary
280
     1
281
     1
  3
ACAD_XREC_ROUNDTRIP
360
2BA0F
  0
DICTIONARY
  5
2B9F2
330
601E
100
AcDbDictionary
280
     1
281
     1
  3
ACAD_XREC_ROUNDTRIP
360
2B9F3
  0
DICTIONARY
  5
2B9F4
330
601F
100
AcDbDictionary
280
     1
281
     1
  3
ACAD_XREC_ROUNDTRIP
360
2B9F5
  0
DICTIONARY
  5
2B9F6
330
6020
100
AcDbDictionary
280
     1
281
     1
  3
ACAD_XREC_ROUNDTRIP
360
2B9F7
  0
DICTIONARY
  5
2B9F8
330
6021
100
AcDbDictionary
280
     1
281
     1
  3
ACAD_XREC_ROUNDTRIP
360
2B9F9
  0
DICTIONARY
  5
2BA00
330
6025
100
AcDbDictionary
280
     1
281
     1
  3
ACAD_XREC_ROUNDTRIP
360
2BA01
  0
DICTIONARY
  5
2BA1C
330
6033
100
AcDbDictionary
280
     1
281
     1
  3
ACAD_XREC_ROUNDTRIP
360
2BA1D
  0
DICTIONARY
  5
2BA0C
330
602B
100
AcDbDictionary
280
     1
281
     1
  3
ACAD_XREC_ROUNDTRIP
360
2BA0D
  0
DICTIONARY
  5
2BA1E
330
6034
100
AcDbDictionary
280
     1
281
     1
  3
ACAD_XREC_ROUNDTRIP
360
2BA1F
  0
DICTIONARY
  5
2BA04
330
6027
100
AcDbDictionary
280
     1
281
     1
  3
ACAD_XREC_ROUNDTRIP
360
2BA05
  0
DICTIONARY
  5
2BA1A
330
6032
100
AcDbDictionary
280
     1
281
     1
  3
ACAD_XREC_ROUNDTRIP
360
2BA1B
  0
DICTIONARY
  5
2BA18
330
6031
100
AcDbDictionary
280
     1
281
     1
  3
ACAD_XREC_ROUNDTRIP
360
2BA19
  0
DICTIONARY
  5
2BA12
330
602E
100
AcDbDictionary
280
     1
281
     1
  3
ACAD_XREC_ROUNDTRIP
360
2BA13
  0
DICTIONARY
  5
2BA14
330
602F
100
AcDbDictionary
280
     1
281
     1
  3
ACAD_XREC_ROUNDTRIP
360
2BA15
  0
DICTIONARY
  5
2BA0A
330
602A
100
AcDbDictionary
280
     1
281
     1
  3
ACAD_XREC_ROUNDTRIP
360
2BA0B
  0
DICTIONARY
  5
2B9FE
330
6024
100
AcDbDictionary
280
     1
281
     1
  3
ACAD_XREC_ROUNDTRIP
360
2B9FF
  0
DICTIONARY
  5
2BA16
330
6030
100
AcDbDictionary
280
     1
281
     1
  3
ACAD_XREC_ROUNDTRIP
360
2BA17
  0
XRECORD
  5
8659
102
{ACAD_REACTORS
330
8658
102
}
330
8658
100
AcDbXrecord
280
     1
310
280000000001000065000000010008000000000000650000000000000000000000010000000000003028210000000000FFFFFF000000000000000000000000000000000000000000000000000000000000000000330000006600000099000000CC000000FF00000000330000333300006633000099330000CC330000FF3300
310
0000660000336600006666000099660000CC660000FF66000000990000339900006699000099990000CC990000FF99000000CC000033CC000066CC000099CC0000CCCC0000FFCC000000FF000033FF000066FF000099FF0000CCFF0000FFFF000000003300330033006600330099003300CC003300FF003300003333003333
310
33006633330099333300CC333300FF33330000663300336633006666330099663300CC663300FF66330000993300339933006699330099993300CC993300FF99330000CC330033CC330066CC330099CC3300CCCC3300FFCC330000FF330033FF330066FF330099FF3300CCFF3300FFFF330000006600330066006600660099
310
006600CC006600FF00660000336600333366006633660099336600CC336600FF33660000666600336666006666660099666600CC666600FF66660000996600339966006699660099996600CC996600FF99660000CC660033CC660066CC660099CC6600CCCC6600FFCC660000FF660033FF660066FF660099FF6600CCFF6600
310
FFFF660000009900330099006600990099009900CC009900FF00990000339900333399006633990099339900CC339900FF33990000669900336699006666990099669900CC669900FF66990000999900339999006699990099999900CC999900FF99990000CC990033CC990066CC990099CC9900CCCC9900FFCC990000FF99
310
0033FF990066FF990099FF9900CCFF9900FFFF99000000CC003300CC006600CC009900CC00CC00CC00FF00CC000033CC003333CC006633CC009933CC00CC33CC00FF33CC000066CC003366CC006666CC009966CC00CC66CC00FF66CC000099CC003399CC006699CC009999CC00CC99CC00FF99CC0000CCCC0033CCCC0066CC
310
CC0099CCCC00CCCCCC00FFCCCC0000FFCC0033FFCC0066FFCC0099FFCC00CCFFCC00FFFFCC000000FF003300FF006600FF009900FF00CC00FF00FF00FF000033FF003333FF006633FF009933FF00CC33FF00FF33FF000066FF003366FF006666FF009966FF00CC66FF00FF66FF000099FF003399FF006699FF009999FF00CC
310
99FF00FF99FF0000CCFF0033CCFF0066CCFF0099CCFF00CCCCFF00FFCCFF0000FFFF0033FFFF0066FFFF0099FFFF00CCFFFF00FFFFFF00000000000D0D0D001A1A1A00282828003535350043434300505050005D5D5D006B6B6B00787878008686860093939300A1A1A100AEAEAE00BBBBBB00C9C9C900D6D6D600E4E4E400
310
F1F1F100FFFFFF000000000000000000000000000000000000000000000000000000000000000000000000000000000000000000000000000000000000000000000000000000000000000000000000000000000000000000000000000000000000000000000000000000000000000000000000000000000000000000000000
310
00000000000000000000000000000000000000002800000000000000000000000000000000000000000000000000280000282828280000000000000000000028000000000028280028282828000000000000000000000000000000000000000000000000000000000000000000000000000000000000000000000000000000
310
00000000000000000000000000000000000000000000000000000000000000000000000000000000000000000000000000000000000000000000000000000000000000000000000000000000000000000000000000000000000000000000000000000000000000000000000000000000000000000000000000000000000000
310
00000000000000002828282800282828000000002800002800000028280000002828280000000028002828282800282828282828282828002828280000282800002828280000000028002828002800280000000000000000000000000000000000000000000000000000000000000000000000000000000000000000000000
310
00000000000000000000000000000000000000000000000000000000000000000000000000000000000000000000000000000000000000000000000000000000000000000000000000000000000000000000000000000000000000000000000000000000000000000000000000000000000000000000000000000000000000
310
00000000000000000000282828280028002800282800280028282800002800280000002828000000280000002800002828282828282828282800282828002828280028282828282828282800282828280000280000000000000000000000000000000000000000000000000000000000000000000000000000000000000000
310
00000000000000000000000000000000000000000000000000000000000000000000000000000000000000000000000000000000000000000000000000000000000000000000000000000000000000000000000000000000000000000000000000000000000000000000000000000000000000000000000000000000000000
310
00000000000000000000000028282828002828280000282828000000000000002828280000280000000028000000282828002828282800282828282828282800280028002828282828282828282828282828000028000000000000000000000000000000000000000000000000000000000000000000000000000000000000
310
00000000000000000000000000000000000000000000000000000000000000000000000000000000000000000000000000000000000000000000000000000000000000000000000000000000000000000000000000000000000000000000000000000000000000000000000000000000000000000000000000000000000000
310
00000000000000000000000000002828282800002800000000282800000000000000280000002828280000000028000028000000282828282828282828000028280000282800000028280000282828002828282800280000000000000000000000000000000000000000000000000000000000000000000000000000000000
310
00000000000000000000000000000000000000000000000000000000000000000000000000000000000000000000000000000000000000000000000000000000000000000000000000000000000000000000000000000000000000000000000000000000000000000000000000000000000000000000000000000000000000
310
00000000000000000000000000000000000000000000000000000000000000000000000000000000000000000000000000000000000000000000000000000000000000000000000000000000000000000000000000000000000000000000000000000000000000000000000000000000000000000000000000000000000000
310
00000000000000000000000000000000000000000000000000000000000000000000000000000000000000000000000000000000000000000000000000000000000000000000000000000000000000000000000000000000000000000000000000000000000000000000000000000000000000000000000000000000000000
310
00000000000000000000000000000000000000000000000000000000000000000000000000000000000000000000000000000000000000000000000000000000000000000000000000000000000000000000000000000000000000000000000000000000000000000000000000000000000000000000000000000000000000
310
00000000000000000000000000000000000000000000000000000000000000000000000000000000000000000000000000000000000000000000000000000000000000000000000000000000000000000000000000000000000000000000000000000000000000000000000000000000000000000000000000000000000000
310
00000000000000000000000000000000000000000000000000000000000000000000000000000000000000000000000000000000000000000000000000000000000000000000000000000000000000000000000000000000000000000000000000000000000000000000000000000000000000000000000000000000000000
310
00000000000000000000000000000000000000000000000000000000000000000000000000000000000000000000000000000000000000000000000000000000000000000000000000000000000000000000000000000000000000000000000000000000000000000000000000000000000000000000000000000000000000
310
2D0000000000F5000000002D00002D2D002D000000000000000000000000000000000000000000000000000000002D0000000000F5000000002D0000002D002D000000000000000000000000000000000000000000000000000000002D0000000000F5000000002D0000002D002D0000000000000000000000000000000000
310
00000000000000000000000000000000000000000000000000000000000000000000000000000000000000000000000000000000000000000000000000000000000000000000000000000000000000000000000000000000000000000000000000000000000000000000000000000000000000000000000000000000000000
310
0000002D00000000F5000000002D00002D2D002D00000000000000000000000000000000000000000000000000000000002D00000000F5000000002D0000002D002D00000000000000000000000000000000000000000000000000000000002D00000000F5000000002D0000002D002D000000000000000000000000000000
310
00000000000000000000000000000000000000000000000000000000000000000000000000000000000000000000000000000000000000000000000000000000000000000000000000000000000000000000000000000000000000000000000000000000000000000000000000000000000000000000000000000000000000
310
000000002D002D000000F5000000002D00002D2D002D000000000000000000000000000000000000000000000000000000002D002D000000F5000000002D0000002D002D000000000000000000000000000000000000000000000000000000002D002D000000F5000000002D0000002D002D00000000000000000000000000
310
00000000000000000000000000000000000000000000000000000000000000000000000000000000000000000000000000000000000000000000000000000000000000000000000000000000000000000000000000000000000000000000000000000000000000000000000000000000000000000000000000000000000000
310
000000000000002D002D0000F5000000002D00002D2D002D00000000000000000000000000000000000000000000000000000000002D002D0000F5000000002D0000002D002D00000000000000000000000000000000000000000000000000000000002D002D0000F5000000002D0000002D002D0000000000000000000000
310
00000000000000000000000000000000000000000000000000000000000000000000000000000000000000000000000000000000000000000000000000000000000000000000000000000000000000000000000000000000000000000000000000000000000000000000000000000000000000000000000000000000000000
310
00000000000000002D002D002D00F5000000002D00002D282D2D000000000000000000000000000000000000000000000000000000002D002D002D00F5000000002D00000028282D000000000000000000000000000000000000000000000000000000002D002D002D00F5000000002D00000028282D000000000000000000
310
00000000000000000000000000000000000000000000000000000000000000000000000000000000000000000000000000000000000000000000000000000000000000000000000000000000000000000000000000000000000000000000000000000000000000000000000000000000000000000000000000000000000000
310
00000000000000000000002D002D002DF5000000002D000028282D2D00000000000000000000000000000000000000000000000000000000002D002D002DF5000000002D00002828282D00000000000000000000000000000000000000000000000000000000002D002D002DF5000000002D00002828282D00000000000000
310
00000000000000000000000000000000000000000000000000000000000000000000000000000000000000000000000000000000000000000000000000000000000000000000000000000000000000000000000000000000000000000000000000000000000000000000000000000000000000000000000000000000000000
310
00000000000000000000000000002D2D00002D000000002D00F52828F5F50000000000000000000000000000000000000000000000000000000000002D2D00002D000000002D00F52828F5F50000000000000000000000000000000000000000000000000000000000002D2D00002D000000002D00F52828F5F50000000000
310
00000000000000000000000000000000000000000000000000000000000000000000000000000000000000000000000000000000000000000000000000000000000000000000000000000000000000000000000000000000000000000000000000000000000000000000000000000000000000000000000000000000000000
310
00000000000000000000000000000000002D2D00F5000000002D000028282D2D000000000000000000000000000000000000000000000000000000000000002D2D00F5000000002D00002828282D000000000000000000000000000000000000000000000000000000000000002D2D00F5000000002D00002828282D000000
310
00000000000000000000000000000000000000000000000000000000000000000000000000000000000000000000000000000000000000000000000000000000000000000000000000000000000000000000000000000000000000000000000000000000000000000000000000000000000000000000000000000000000000
310
000000000000000000000000000000000000002D002DF5000000002D00F52D28002D000000000000000000000000000000000000000000000000000000000000002D002DF5000000002D00F50028282D000000000000000000000000000000000000000000000000000000000000002D002DF5000000002D00F50028282D00
310
00000000000000000000000000000000000000000000000000000000000000000000000000000000000000000000000000000000000000000000000000000000000000000000000000000000000000000000000000000000000000000000000000000000000000000000000000000000000000000000000000000000000000
310
000000000000000000000000000000000000000000002D002D0000002D2D0000F52D002D00000000000000000000000000000000000000000000000000000000000000002D002D0000002D2D0000F52D002D00000000000000000000000000000000000000000000000000000000000000002D002D0000002D2D0000F52D00
310
2D000000000000000000000000000000000000000000000000000000000000000000000000000000000000000000000000000000000000000000000000000000000000000000000000000000000000000000000000000000000000000000000000000000000000000000000000000000000000000000000000000000000000
310
000000000000000000000000000000000000000000000000002DF50000002D2D0000F52D002D0000000000000000000000000000000000000000000000000000000000000000002DF50000002D2D0000F52D002D0000000000000000000000000000000000000000000000000000000000000000002DF50000002D2D0000F5
310
2D002D00000000000000000000000000000000000000000000000000000000000000000000000000000000000000000000000000000000000000000000000000000000000000000000000000000000000000000000000000000000000000000000000000000000000000000000000000000000000000000000000000000000
310
000000000000000000000000000000000000000000000000000000002D0000002D2D00002DF5002D000000000000000000000000000000000000000000000000000000000000000000002D2D00002D2D000000F5002D000000000000000000000000000000000000000000000000000000000000000000002D2D00002D2D00
310
0000F5002D0000000000000000000000000000000000000000000000000000000000000000000000000000000000000000000000000000000000000000000000000000000000000000000000000000000000000000000000000000000000000000000000000000000000000000000000000000000000000000000000000000
310
0000000000000000000000000000000000000000000000000000000000002D0000002D2D00002DF5002D000000000000000000000000000000000000000000000000000000000000000000002D2D00002D2D000000F5002D000000000000000000000000000000000000000000000000000000000000000000002D2D00002D
310
2D000000F5002D000000000000000000000000000000000000000000000000000000000000000000000000000000000000000000000000000000000000000000000000000000000000000000000000000000000000000000000000000000000000000000000000000000000000000000000000000000000000000000000000
310
00000000000000000000000000000000000000000000000000000000000000002D2D2D2D2D2D00002D2DF52D000000000000000000000000000000000000000000000000000000000000000000002D2D2D2D2D2D0000002DF52D000000000000000000000000000000000000000000000000000000000000000000002D2D2D
310
2D2D2D0000002DF52D00000000000000000000000000000000000000000000000000000000000000000000000000000000000000000000000000000000000000000000000000000000000000000000000000000000000000000000000000000000000000000000000000000000000000000000000000000000000000000000
310
0000000000000000000000000000000000000000000000000000000000000000F5F5F52D2D2D2D2DF5F52D2D00F50000000000000000000000000000000000000000000000000000000000000000F5F5F52D2D2D2D2DF5F5002D00F50000000000000000000000000000000000000000000000000000000000000000F5F5F5
310
2D2D2D2D2DF5F5002D00F50000000000000000000000000000000000000000000000000000000000000000000000000000000000000000000000000000000000000000000000000000000000000000000000000000000000000000000000000000000000000000000000000000000000000000000000000000000000000000
310
0000000000000000000000000000000000000000000000000000000000000000000000002D2D00002D2D00002D2D00F5000000000000000000000000000000000000000000000000000000000000000000002D2D00002D2D0000002D00F5000000000000000000000000000000000000000000000000000000000000000000
310
002D2D00002D2D0000002D00F5000000000000000000000000000000000000000000000000000000000000000000000000000000000000000000000000000000000000000000000000000000000000000000000000000000000000000000000000000000000000000000000000000000000000000000000000000000000000
310
00000000000000000000000000000000000000000000000000000000000000000000000000002D0000002D2D00002D2D002DF50000000000000000000000000000000000000000000000000000000000000000002D2D00002D2D0000002D002DF5000000000000000000000000000000000000000000000000000000000000
310
0000002D2D00002D2D0000002D002DF5000000000000000000000000000000000000000000000000000000000000000000000000000000000000000000000000000000000000000000000000000000000000000000000000000000000000000000000000000000000000000000000000000000000000000000000000000000
310
000000000000000000000000000000000000000000000000000000000000000000000000000000002D0000F52D2D00002D2D002DF50000000000000000000000000000000000000000000000000000000000000000002D2D00F52D2D0000002D002DF500000000000000000000000000000000000000000000000000000000
310
00000000002D2D00F52D2D0000002D002DF500000000000000000000000000000000000000000000000000000000000000000000000000000000000000000000000000000000000000000000000000000000000000000000000000000000000000000000000000000000000000000000000000000000000000000000000000
310
000000000000000000000000000000000000000000000000000000000000000000000000000000000000F50000F52D2D00002D2D002D00F5F5F5F5F5F5000000000000000000000000000000000000000000000000000000F50000F52D2D0000002D002D00F5F5F5F5F5F50000000000000000000000000000000000000000
310
00000000000000F50000F52D2D0000002D002D00F5F5F5F5F5F50000000000000000000000000000000000000000000000000000000000000000000000000000000000000000000000000000000000000000000000000000000000000000000000000000000000000000000000000000000000000000000000000000000000
310
0000000000000000000000000000000000000000000000000000000000000000000000000000000000000000F500F5002D2D00002DF5002D00F5F5F5F5F500000000000000000000000000000000000000000000000000000000F500F5002D2D000000F5002D00F5F5F5F5F500000000000000000000000000000000000000
310
000000000000000000F500F5002D2D000000F5002D00F5F5F5F5F500000000000000000000000000000000000000000000000000000000000000000000000000000000000000000000000000000000000000000000000000000000000000000000000000000000000000000000000000000000000000000000000000000000
310
00000000000000000000000000000000000000000000000000000000000000000000000000000000000000000000F500F500002D00002D2DF52D00000000000000000000000000000000000000000000000000000000000000000000F500F500002D0000002DF52D0000000000000000000000000000000000000000000000
310
0000000000000000000000F500F500002D0000002DF52D0000000000000000000000000000000000000000000000000000000000000000000000000000000000000000000000000000000000000000000000000000000000000000000000000000000000000000000000000000000000000000000000000000000000000000
310
000000000000000000000000000000000000000000000000000000000000000000000000000000000000000000000000F5F50000002D00002D2DF52D00000000000000000000000000000000000000000000000000000000000000000000F5F50000002D0000002DF52D000000000000000000000000000000000000000000
310
00000000000000000000000000F5F50000002D0000002DF52D000000000000000000000000000000000000000000000000000000000000000000000000000000000000000000000000000000000000000000000000000000000000000000000000000000000000000000000000000000000000000000000000000000000000
310
0000000000000000000000000000000000000000000000000000000000000000000000000000000000000000000000000000F5F50000002D00002D2D00F500000000000000000000000000000000000000000000000000000000000000000000F5F50000002D0000002D00F500000000000000000000000000000000000000
310
000000000000000000000000000000F5F50000002D0000002D00F500000000000000000000000000000000000000000000000000000000000000000000000000000000000000000000000000000000000000000000000000000000000000000000000000000000000000000000000000000000000000000000000000000000
310
00000000000000000000000000000000000000000000000000000000000000000000000000000000000000000000000000000000F5000000002D00002D2D00F500000000000000000000000000000000000000000000000000000000000000000000F5000000002D0000002D00F50000000000000000000000000000000000
310
0000000000000000000000000000000000F5000000002D0000002D00F50000000000000000000000000000000000000000000000000000000000000000000000000000000000000000000000000000000000000000000000000000000000000000000000000000000000000000000000000000000000000000000000000000
310
000000000000000000000000000000000000000000000000000000000000000000000000000000000000000000000000000000000000F5000000002D00002D2D002DF5000000000000000000000000000000000000000000000000000000000000000000F5000000002D0000002D002DF50000000000000000000000000000
310
00000000000000000000000000000000000000F5000000002D0000002D002DF50000000000000000000000000000000000000000000000000000000000000000000000000000000000000000000000000000000000000000000000000000000000000000000000000000000000000000000000000000000000000000000000
310
000000000000000000000000000000000000000000000000000000000000000000000000000000000000000000000000F5F5F5F5F5F5F5F5F5000000002D00002D2D002DF5F5F5F5F5F5F5F5F5F500000000000000000000000000000000F5F5F5F5F5F5F5F5F5000000002D0000002D002DF5F5F5F5F5F5F5F5F5F5000000
310
00000000000000000000000000F5F5F5F5F5F5F5F5F5000000002D0000002D002DF5F5F5F5F5F5F5F5F5F5000000000000000000000000000000000000000000000000000000000000000000000000000000000000000000000000000000000000000000000000000000000000000000000000000000000000000000000000
310
000000000000000000000000000000000000000000000000000000000000000000000000000000000000000000000000000000F5F5F5F5F5F500F5000000002D00002D2D002D00F5F5F5F5F5F5F5F5000000000000000000000000000000000000F5F5F5F5F5F500F5000000002D0000002D002D00F5F5F5F5F5F5F5F50000
310
00000000000000000000000000000000F5F5F5F5F5F500F5000000002D0000002D002D00F5F5F5F5F5F5F5F50000000000000000000000000000000000000000000000000000000000000000000000000000000000000000000000000000000000000000000000000000000000000000000000000000000000000000000000
310
000000000000000000000000000000000000000000000000000000000000000000000000000000000000000000000000000000000000000000000000F5000000002D00002D2D002D00000000000000000000000000000000000000000000000000000000000000000000F5000000002D0000002D002D000000000000000000
310
00000000000000000000000000000000000000000000000000F5000000002D0000002D002D000000000000000000000000000000000000000000000000000000000000000000000000000000000000000000000000000000000000000000000000000000000000000000000000000000000000000000000000000000000000
310
0000000000000000000000000000000000000000000000000000000000000000000000000000000000000000000000000000000000000000000000000000F5000000002D00002D2D002D00000000000000000000000000000000000000000000000000000000000000000000F5000000002D0000002D002D00000000000000
310
000000000000000000000000000000000000000000000000000000F5000000002D0000002D002D00000000000000000000000000000000000000000000000000000000000000000000000000000000000000000000000000000000000000000000000000000000000000000000000000000000000000000000000000000000
310
00000000000000000000000000000000000000000000000000000000000000000000000000000000000000000000000000000000000000000000000000000000F5000000002D00002D2D00F500000000000000000000000000000000000000000000000000000000000000000000F5000000002D0000002D00F50000000000
310
0000000000000000000000000000000000000000000000000000000000F5000000002D0000002D00F50000000000000000000000000000000000000000000000000000000000000000000000000000000000000000000000000000000000000000000000000000000000000000000000000000000000000000000000000000
310
000000000000000000000000000000000000000000000000000000000000000000000000000000000000000000000000000000000000000000000000000000000000F5000000002D00002D2D002DF5000000000000000000000000000000000000000000000000000000000000000000F5000000002D0000002D002DF50000
310
00000000000000000000000000000000000000000000000000000000000000F5000000002D0000002D002DF50000000000000000000000000000000000000000000000000000000000000000000000000000000000000000000000000000000000000000000000000000000000000000000000000000000000000000000000
310
0000000000000000000000000000000000000000000000000000000000000000000000000000000000000000000000000000000000000000000000000000000000000000F5000000002D00002D2D002DF5000000000000000000000000000000000000000000000000000000000000000000F5000000002D0000002D002DF5
310
000000000000000000000000000000000000000000000000000000000000000000F5000000002D0000002D002DF5000000000000000000000000000000000000000000000000000000000000000000000000000000000000000000000000000000000000000000000000000000000000000000000000000000000000000000
310
00000000000000000000000000000000000000000000000000000000000000000000000000000000000000000000000000000000000000000000000000000000000000000000F5000000002D00002D2D002D00F50000000000000000000000000000000000000000000000000000000000000000F5000000002D0000002D00
310
2D00F50000000000000000000000000000000000000000000000000000000000000000F5000000002D0000002D002D00F5000000000000000000000000000000000000000000000000000000000000000000000000000000000000000000000000000000000000000000000000000000000000000000000000000000000000
310
000000000000000000000000000000000000000000000000000000000000000000000000000000000000000000000000000000000000000000000000000000000000000000000000F5000000002D00002D2D002D00F50000000000000000000000000000000000000000000000000000000000000000F5000000002D000000
310
2D002D00F50000000000000000000000000000000000000000000000000000000000000000F5000000002D0000002D002D00F500000000000000000000000000000000000000000000000000000000000000000000000000000000000000000000000000000000000000000000000000000000000000000000000000000000
310
0000000000000000000000000000000000000000000000000000000000000000000000000000000000000000000000000000000000000000000000000000000000000000000000000000F5000000002D00002D2D002D0000F500000000000000000000000000000000000000000000000000000000000000F5000000002D00
310
00002D002D0000F500000000000000000000000000000000000000000000000000000000000000F5000000002D0000002D002D0000F500000000000000000000000000000000000000000000000000000000000000000000000000000000000000000000000000000000000000000000000000000000000000000000000000
310
00000000000000000000000000000000000000000000000000000000000000000000000000000000000000000000000000000000000000000000000000000000000000000000000000000000F5000000002D00002D2D002D0000F500000000000000000000000000000000000000000000000000000000000000F500000000
310
2D0000002D002D0000F500000000000000000000000000000000000000000000000000000000000000F5000000002D0000002D002D0000F50000000000000000000000000000000000000000000000000000000000000000000000000000000000000000000000000000000000000000000000000000000000000000000000
310
000000000000000000000000000000000000000000000000000000000000000000000000000000000000000000000000000000000000000000000000000000000000000000000000000000000000F5000000002D00002D2D002D000000F5F5F5F5F5F5F5F5F5F5F5F5F5F5F5F5F5F5F5000000000000000000000000F50000
310
00002D0000002D002D000000F5F5F5F5F5F5F5F5F5F5F5F5F5F5F5F5F5F5F5000000000000000000000000F5000000002D0000002D002D000000F5F5F5F5F5F5F5F5F5F5F5F5F5F5F5F5F5F5F50000000000000000000000000000000000000000000000000000000000000000000000000000000000000000000000000000
310
0000000000000000000000000000000000000000000000000000000000000000000000000000000000000000000000000000000000000000000000000000000000000000000000000000000000000000F5000000002D00002D2D002D000000000000F5F5F5F5F5F5F5F500F5F5F5F5000000000000000000000000000000F5
310
000000002D0000002D002D000000000000F5F5F5F5F5F5F5F5F5F5F5F5F5000000000000000000000000000000F5000000002D0000002D002D000000000000F5F5F5F5F5F5F5F5F5F5F5F5F5F50000000000000000000000000000000000000000000000000000000000000000000000000000000000000000000000000000
310
00000000000000000000000000000000000000000000000000000000000000000000000000000000000000000000000000000000000000000000000000000000000000000000000000000000000000000000F5000000002D00002D2D002D000000F5F5F5F5F5F5F5F5F5F5F5F5F5F5F5F5F500000000000000000000000000
310
00F5000000002D0000002D002D000000F5F5F5F5F5F5F5F5F5F5F5F5F5F5F5F5F50000000000000000000000000000F5000000002D0000002D002D000000F5F5F5F5F5F5F5F5F5F5F5F5F500F5F5F5000000000000000000000000000000000000000000000000000000000000000000000000000000000000000000000000
310
000000000000000000000000000000000000000000000000000000000000000000000000000000000000000000000000000000000000000000000000000000000000000000000000000000000000000000000000F5000000002D00002D2D002D000000F5F5F5F5F5F5F5F5F5F5F5F5F5F5F5F5F50000000000000000000000
310
000000F5000000002D0000002D002D000000F5F5F5F5F5F5F5F5F5F5F5F5F5F5F5F5F5F500000000000000000000000000F5000000002D0000002D002D000000F5F5F5F5F5F5F5F5F5F5F5F5F5F5F5F5F5F5000000000000000000000000000000000000000000000000000000000000000000000000000000000000000000
310
0000000000000000000000000000000000000000000000000000000000000000000000000000000000000000000000000000000000000000000000000000000000000000000000000000000000000000000000000000F5000000002D00002D2D002D0000000000000000000000000000000000000000000000000000000000
310
0000000000F5000000002D0000002D002D00000000000000000000000000000000000000000000000000000000000000000000F5000000002D0000002D002D00000000000000000000000000000000000000000000000000000000000000000000000000000000000000000000000000000000000000000000000000000000
310
00000000000000000000000000000000000000000000000000000000000000000000000000000000000000000000000000000000000000000000000000000000000000000000000000000000000000000000000000000000F5000000002D00002D2D002D000000000000000000000000000000000000000000000000000000
310
00000000000000F5000000002D0000002D002D00000000000000000000000000000000000000000000000000000000000000000000F5000000002D0000002D002D0000000000000000000000000000000000000000000000000000000000000000000000000000000000000000000000000000000000000000000000000000
310
000000000000000000000000000000000000000000000000000000000000000000000000000000000000000000000000000000000000000000000000000000000000000000000000000000000000000000000000000000000000F5000000002D00002D282D2D00000000000000000000000000000000000000000000000000
310
000000000000000000F5000000002D00000028282D00000000000000000000000000000000000000000000000000000000000000000000F5000000002D00000028282D000000000000000000000000000000000000000000000000000000000000000000000000000000000000000000000000000000000000000000000000
310
0000000000000000000000000000000000000000000000000000000000000000000000000000000000000000000000000000000000000000000000000000000000000000000000000000000000000000000000000000000000000000F5000000002D000028282D2D0000000000000000000000000000000000000000000000
310
0000000000000000000000F5000000002D000028282D2D00000000000000000000000000000000000000000000000000000000000000000000F5000000002D000028282D2D00000000000000000000000000000000000000000000000000000000000000000000000000000000000000000000000000000000000000000000
310
00000000000000000000000000000000000000000000000000000000000000000000000000000000000000000000000000000000000000000000000000000000000000000000000000000000000000000000000000000000000000000000F5000000002D00F5282D2D2D000000000000000000000000000000000000000000
310
00000000000000000000000000F5000000002D00F5282D2D2D00000000000000000000000000000000000000000000000000000000000000000000F5000000002D00F5282D2D2D0000000000000000000000000000000000000000000000000000000000000000000000000000000000000000000000000000000000000000
310
000000000000000000000000000000000000000000000000000000000000000000000000000000000000000000000000000000000000000000000000000000000000000000000000000000000000000000000000000000000000000000000000F50000002D2D00002D2DF52D00000000000000000000000000000000000000
310
000000000000000000000000000000F50000002D2D0000002D2D2D00000000000000000000000000000000000000000000000000000000000000000000F50000002D2D0000002D2D2D000000000000000000000000000000000000000000000000000000000000000000000000000000000000000000000000000000000000
310
0000000000000000000000000000000000000000000000000000000000000000000000000000000000000000000000000000000000000000000000000000000000000000000000000000000000000000000000000000000000000000000000000000F50000002D2D00002D2DF52D0000000000000000000000000000000000
310
0000000000000000000000000000000000F50000002D2D0000002DF52D00000000000000000000000000000000000000000000000000000000000000000000F50000002D2D0000002DF52D00000000000000000000000000000000000000000000000000000000000000000000000000000000000000000000000000000000
310
000000000000000000000000000000000000000000000000000000000000000000000000000000000000000000000000000000000000000000000000000000000000000000000000000000000000000000000000000000000000000000000000000000002D0000002D2D00002D2D002D000000000000000000000000000000
310
000000000000000000000000000000000000002D2D00002D2D0000002D002D000000000000000000000000000000000000000000000000000000000000000000002D2D00002D2D0000002D002D0000000000000000000000000000000000000000000000000000000000000000000000000000000000000000000000000000
310
0000000000000000000000000000000000000000000000000000000000000000000000000000000000000000000000000000000000000000000000000000000000000000000000000000000000000000000000000000000000000000000000000000000000002D0000002D2D00002D2D002DF5000000000000000000000000
310
0000000000000000000000000000000000000000002D2D00002D2D0000002D002DF50000000000000000000000000000000000000000000000000000000000000000002D2D00002D2D0000002D002DF50000000000000000000000000000000000000000000000000000000000000000000000000000000000000000000000
310
00000000000000000000000000000000000000000000000000000000000000000000000000000000000000000000000000000000000000000000000000000000000000000000000000000000000000000000000000000000000000000000000000000000000000002D2D2D2D2D2D00002D2D002DF500000000000000000000
310
00000000000000000000000000000000000000000000002D2D2D2D2D2D0000002D002DF50000000000000000000000000000000000000000000000000000000000000000002D2D2D2D2D2D0000002D002DF5000000000000000000000000000000000000000000000000000000000000000000000000000000000000000000
310
0000000000000000000000000000000000000000000000000000000000000000000000000000000000000000000000000000000000000000000000000000000000000000000000000000000000000000000000000000000000000000000000000000000000000000F5F5F52D2D2D2D2DF5F52D2D002D00F5F5F5F5F5F5F500
310
0000000000000000000000000000000000000000000000F5F5F52D2D2D2D2DF5F5002D002D00F5F5F5F5F5F5F5000000000000000000000000000000000000000000000000F5F5F52D2D2D2D2DF5F5002D002D00F5F5F5F5F5F5F5000000000000000000000000000000000000000000000000000000000000000000000000
310
0000000000000000000000000000000000000000000000000000000000000000000000000000000000000000000000000000000000000000000000000000000000000000000000000000000000000000000000000000000000000000000000000000000000000000000000002D2D2D2D2D2D00002D2D002D00F5F5F5F5F5F5
310
F500000000000000000000000000000000000000000000000000002D2D2D2D2D2D0000002D002D00F5F5F5F5F5F5F500000000000000000000000000000000000000000000000000002D2D2D2D2D2D0000002D002D00F5F5F5F5F5F5F500000000000000000000000000000000000000000000000000000000000000000000
310
00000000000000000000000000000000000000000000000000000000000000000000000000000000000000000000000000000000000000000000000000000000000000000000000000000000000000000000000000000000000000000000000000000000000000000000000000002D0000002D2D00002D2D002D00F5F5F5F5
310
F5F50000000000000000000000000000000000000000000000000000002D2D00002D2D0000002D002D00F5F5F5F5F5F50000000000000000000000000000000000000000000000000000002D2D00002D2D0000002D002D00F5F5F5F5F5F5F50000000000000000000000000000000000000000000000000000000000000000
310
000000000000000000000000000000000000000000000000000000000000000000000000000000000000000000000000000000000000000000000000000000000000000000000000000000000000000000000000000000000000000000000000000000000000000000000000000000002D0000002D2D00002D2D002D000000
310
000000000000000000000000000000000000000000000000000000000000002D2D00002D2D0000002D002D000000000000000000000000000000000000000000000000000000000000000000002D2D00002D2D0000002D002D0000000000000000000000000000000000000000000000000000000000000000000000000000
310
000000000000000000000000000000000000000000000000000000000000000000000000000000000000000000000000000000000000000000000000000000000000000000000000000000000000000000000000000000000000000000000000000000000000000000000000000000000000F50000002D2D00002D2D002D00
310
000000000000000000000000000000000000000000000000000000000000000000F50000002D2D0000002D002D00000000000000000000000000000000000000000000000000000000000000000000F50000002D2D0000002D002D000000000000000000000000000000000000000000000000000000000000000000000000
310
0000000000000000000000000000000000000000000000000000000000000000000000000000000000000000000000000000000000000000000000000000000000000000000000000000000000000000000000000000000000000000000000000000000000000000000000000000000000000000F50000002D2D00002D2D00
310
2D00000000000000000000000000000000000000000000000000000000000000000000F50000002D2D0000002D002D00000000000000000000000000000000000000000000000000000000000000000000F50000002D2D0000002D002D00000000000000000000000000000000000000000000000000000000000000000000
310
00000000000000000000000000000000000000000000000000000000000000000000000000000000000000000000000000000000000000000000000000000000000000000000000000000000000000000000000000000000000000000000000000000000000000000000000000000000000000000000F5000000002D00002D
310
2D002D00000000000000000000000000000000000000000000000000000000000000000000F5000000002D0000002D002D00000000000000000000000000000000000000000000000000000000000000000000F5000000002D0000002D002D0000000000000000000000000000000000000000000000000000000000000000
310
000000000000000000000000000000000000000000000000000000000000000000000000000000000000000000000000000000000000000000000000000000000000000000000000000000000000000000000000000000000000000000000000000000000000000000000000000000000000000000000000F5000000002D00
310
002D2D002D2D2D0000000000000000000000000000000000000000000000000000000000000000F5000000002D0000002D002D00000000000000000000000000000000000000000000000000000000000000000000F5000000002D0000002D002D000000000000000000000000000000000000000000000000000000000000
310
0000000000000000000000000000000000000000000000000000000000000000000000000000000000000000000000000000000000000000000000000000000000000000000000000000000000000000000000000000000000000000000000000000000000000000000000000000000000000000000000000000F500000000
310
2D00002D2D002D002D0000000000000000000000000000000000000000000000000000000000000000F5000000002D0000002D002D00000000000000000000000000000000000000000000000000000000000000000000F5000000002D0000002D002D00000000000000000000000000000000000000000000000000000000
310
00000000000000000000000000000000000000000000000000000000000000000000000000000000000000000000000000000000000000000000000000000000000000000000000000000000000000000000000000000000000000000000000000000000000000000000000000000000000000000000000000000000F50000
310
00002D00002D2D002D002D0000000000000000000000000000000000000000000000000000000000000000F5000000002D0000002D002D00000000000000000000000000000000000000000000000000000000000000000000F5000000002D0000002D002D0000000000000000000000000000000000000000000000000000
310
00000000000000000000000000000000000000000000000000000000000000000000000000000000000000000000000000000000000000000000000000000000000000000000000000000000000000000000000000000000000000000000000000000000000000000000000000000000000000000000000000000000000028
310
000000002D00002D2D002D002D0000000000000000000000000000000000000000000000000000000000000000F5000000002D0000002D002D00000000000000000000000000000000000000000000000000000000000000000000F5000000002D0000002D002D000000000000000000000000000000000000000000000000
310
00000000000000000000000000000000000000000000000000000000000000000000000000000000000000000000000000000000000000000000000000000000000000000000000000000000000000000000000000000000000000000000000000000000000000000000000000000000000000000000000000000000000000
310
0028000000002D00002D2D002D002D0000000000000000000000000000000000000000000000000000000000000000F5000000002D0000002D002D00000000000000000000000000000000000000000000000000000000000000000000F5000000002D0000002D002D00000000000000000000000000000000000000000000
310
00000000000000000000000000000000000000000000000000000000000000000000000000000000000000000000000000000000000000000000000000000000000000000000000000000000000000000000000000000000000000000000000000000000000000000000000000000000000000000000000000000000000000
310
00000028000000002D00F5F5F5F5F500F50000000000000000000000000000000000000000000000000000000000000000F5000000002D0000002D002D00000000000000000000000000000000000000000000000000000000000000000000F5000000002D0000002D002D0000000000000000000000000000000000000000
310
00000000000000000000000000000000000000000000000000000000000000000000000000000000000000000000000000000000000000000000000000000000000000000000000000000000000000000000000000000000000000000000000000000000000000000000000000000000000000000000000000000000000000
310
000028282828280000002D00002D2D0028002DF500000000000000000000000000000000000000000000000000000000000000F5000000002D0000002D002D00000000000000000000000000000000000000000000000000000000000000000000F5000000002D0000002D002D000000000000000000000000000000000000
310
00000000000000000000000000000000000000000000000000000000000000000000000000000000000000000000000000000000000000000000000000000000000000000000000000000000000000000000000000000000000000000000000000000000000000000000000000000000000000000000000000000000000000
310
000000F52828282828F500002D00002D2D002D002DF500000000000000000000000000000000000000000000000000000000000000F5000000002D0000002D002D00000000000000000000000000000000000000000000000000000000000000000000F5000000002D0000002D002D00000000000000000000000000000000
310
00000000000000000000000000000000000000000000000000000000000000000000000000000000000000000000000000000000000000000000000000000000000000000000000000000000000000000000000000000000000000000000000000000000000000000000000000000000000000000000000000000000000000
310
00000000000000000028000000002D00F52D2D002D002D00F5000000000000000000000000000000000000000000000000000000000000F5000000002D0000002D002D00000000000000000000000000000000000000000000000000000000000000000000F5000000002D0000002D002D0000000000000000000000000000
310
00000000000000000000000000000000000000000000000000000000000000000000000000000000000000000000000000000000000000000000000000000000000000000000000000000000000000000000000000000000000000000000000000000000000000000000000000000000000000000000000000000000000000
310
0000000000000000000000280000F5282D2D2D2D2D2D2D002D00F5000000000000000000000000000000000000000000000000000000000000F5000000002D0000002D002D2D2D0000000000000000000000000000000000000000000000000000000000000000F5000000002D0000002D002D000000000000000000000000
310
00000000000000000000000000000000000000000000000000000000000000000000000000000000000000000000000000000000000000000000000000000000000000000000000000000000000000000000000000000000000000000000000000000000000000000000000000000000000000000000000000000000000000
310
00000000000000000000000000282828F52828282828282D2D2D2D0000F50000000000000000000000000000000000000000000000000000000000F5000000002D0000002D002D002D0000000000000000000000000000000000000000000000000000000000000000F5000000002D00F5002D002D00000000000000000000
310
00000000000000000000000000000000000000000000000000000000000000000000000000000000000000000000000000000000000000000000000000000000000000000000000000000000000000000000000000000000000000000000000000000000000000000000000000000000000000000000000000000000000000
310
0000000000000000002D0000000000F52D00F528F500F50000002D2D2D0000F500000000000000000000000000000000000000000000002D0000000000F5000000002D0000002D002DF52D00000000000000000000000000000000000000000000000000002D0000000000F5000028002D2D2D2D2D002D0000000000000000
310
00000000000000000000000000000000000000000000000000000000000000000000000000000000000000000000000000000000000000000000000000000000000000000000000000000000000000000000000000000000000000000000000000000000000000000000000000000000000000000000000000000000000000
310
0000000000000000000000002D00000000F52D00F528F500000000002D002D000000F5F5F5F5F5F5F500000000000000000000000000000000002D00000000F5000000002D0000002D002D002D0000000000000000000000000000000000000000000000000000002D00000000F528282828282828282D002D000000000000
310
00000000000000000000000000000000000000000000000000000000000000000000000000000000000000000000000000000000000000000000000000000000000000000000000000000000000000000000000000000000000000000000000000000000000000000000000000000000000000000000000000000000000000
310
000000000000000000000000002D002D000000F52D2DF5282DF52D2D2D2D2D2D2D000000F5F5F5F5F5F5F5000000000000000000000000000000002D002D000000F5000000002D000000282D2D002D00000000000000000000000000000000000000000000000000002D002D000000F5F5F528F5F52828282D002D00000000
310
00000000000000000000000000000000000000000000000000000000000000000000000000000000000000000000000000000000000000000000000000000000000000000000000000000000000000000000000000000000000000000000000000000000000000000000000000000000000000000000000000000000000000
310
000000000000000000000000000000002D002D0000F5000000000000F50000000000000000000000000000000000000000000000000000000000000000002D002D0000F5000000002D000000282DF5F52DF500000000000000000000000000000000000000000000000000002D002D00000000002800F50000002D002D0000
310
00000000000000000000000000000000000000000000000000000000000000000000000000000000000000000000000000000000000000000000000000000000000000000000000000000000000000000000000000000000000000000000000000000000000000000000000000000000000000000000000000000000000000
310
00000000000000000000000000000000002D002D002D00F5000000000000F500000000000000000000000000000000000000000000000000000000000000002D002D002D00F5000000002D000000282D28282DF5000000000000000000000000000000000000000000000000002D002D002D000000002800F50000002D002D
310
00000000000000000000000000000000000000000000000000000000000000000000000000000000000000000000000000000000000000000000000000000000000000000000000000000000000000000000000000000000000000000000000000000000000000000000000000000000000000000000000000000000000000
310
00000000000000000000000000000000000000002D002D002DF500000000000000F5F5F5F5F5F5F500000000000000000000000000000000000000000000000000002D002D002DF5000000002D000000282D2D2D2D00F5000000000000000000000000000000000000000000000000002D002D002D000000F500F50000002D
310
002D0000000000000000000000000000000000000000000000000000000000000000000000000000000000000000000000000000000000000000000000000000000000000000000000000000000000000000000000000000000000000000000000000000000000000000000000000000000000000000000000000000000000
310
00000000000000000000000000000000000000000000002D002D002D00000000000000F5F5F5F5F5F5F50000000000000000000000000000000000000000000000000000002D002D002D000000002D000000282800000000F5F5F5F5F5F5F5F5000000000000000000000000000000000000002D002D002D00000000F50000
310
002D002D000000000000000000000000000000000000000000000000000000000000000000000000000000000000000000000000000000000000000000000000000000000000000000000000000000000000000000000000000000000000000000000000000000000000000000000000000000000000000000000000000000
310
00000000000000000000000000000000000000000000000000002D002DF50000000000000000000000000000000000000000000000000000000000000000000000000000000000002D002DF5000000002D00000028280000000000F5F5F5F5F5F50000000000000000000000000000000000000000002D002D002D00000028
310
28282828002D00000000000000000000000000000000000000000000000000000000000000000000000000000000000000000000000000000000000000000000000000000000000000000000000000000000000000000000000000000000000000000000000000000000000000000000000000000000000000000000000000
310
000000000000000000000000000000000000000000000000000000002D00002D0000000000000000000000000000000000000000000000000000000000000000000000000000000000002D00002D000000002D00000028280000000000000000000000000000000000000000000000000000000000000000002D002D002D00
310
002800000028002D0000000000000000000000000000000000000000000000000000000000000000000000000000000000000000000000000000000000000000000000000000000000000000000000000000000000000000000000000000000000000000000000000000000000000000000000000000000000000000000000
310
000000000000000000000000000000000000000000000000000000000000002D00F5000000000000000000000000000000000000000000000000000000000000000000000000000000000000002D00F5000000002D0000002828000000000000000000000000000000000000000000000000000000000000000000002D002D
310
002D002828000028002D000000000000000000000000000000000000000000000000000000000000000000000000000000000000000000000000000000000000000000000000000000000000000000000000000000000000000000000000000000000000000000000000000000000000000000000000000000000000000000
310
000000000000000000000000000000000000000000000000000000000000000000002DF500000000000000000000000000000000000000000000000000000000000000000000000000000000000000002DF5000000002D00000028280000000000000000000000000000000000000000000000000000000000000000000000
310
2D002D002D2828000028002D00000000000000000000000000000000000000000000000000000000000000000000000000000000000000000000000000000000000000000000000000000000000000000000000000000000000000000000000000000000000000000000000000000000000000000000000000000000000000
310
000000000000000000000000000000000000000000000000000000000000000000000000002D0000000000000000000000000000000000000000000000000000000000000000000000000000000000000000002D000000002D0000002828000000000000000000000000000000000000000000000000000000000000000000
310
0000002D002D002828000028282D0000000000000000000000000000000000000000000000000000000000000000000000000000000000000000000000000000000000000000000000000000000000000000000000000000000000000000000000000000000000000000000000000000000000000000000000000000000000
310
000000000000000000000000000000000000000000000000000000000000000000000000000000F5000000000000000000000000000000000000000000000000000000000000000000000000000000000000000000F5000000002D000000282800000000000000000000000000000000000000000000000000000000000000
310
0000000000002D002D28002800282800000000000000000000000000000000000000000000000000000000000000000000000000000000000000000000000000000000000000000000000000000000000000000000000000000000000000000000000000000000000000000000000000000000000000000000000000000000
310
0000000000000000000000000000000000000000000000000000000000000000000000000000000000F5000000000000000000000000000000000000000000000000000000000000000000000000000000000000000000F5000000002D00000028280000000000000000000000000000000000000000000000000000000000
310
0000000000000000002D0028002828282D2D00000000000000000000000000000000000000000000000000000000000000000000000000000000000000000000000000000000000000000000000000000000000000000000000000000000000000000000000000000000000000000000000000000000000000000000000000
310
00000000000000000000000000000000000000000000000000000000000000000000000000000000000000F5000000000000000000000000000000000000000000000000000000000000000000000000000000000000000000F5000000002D00000028F5000000000000000000000000000000000000000000000000000000
310
0000000000000000000000002D28F52828282D2D0000000000000000000000000000000000000000000000000000000000000000000000000000000000000000000000000000000000000000000000000000000000000000000000000000000000000000000000000000000000000000000000000000000000000000000000
310
000000000000000000000000000000000000000000000000000000000000000000000000000000000000000000F5000000000000000000000000000000000000000000000000000000000000000000000000000000000000000000F5000000002D0000002828F5000000000000000000000000000000000000000000000000
310
000000000000000000000000000000F5000028282D2D000000000000000000000000000000000000000000000000000000000000000000000000000000000000000000000000000000000000000000000000000000000000000000000000000000000000000000000000000000000000000000000000000000000000000000
310
0000000000000000000000000000000000000000000000000000000000000000000000000000000000000000000000F5000000000000000000000000000000000000000000000000000000000000000000000000000000000000000000F5000000002D0000002828F500000000000000000000000000000000000000000000
310
0000000000000000000000000000000000F500002828002D00000000000000000000000000000000000000000000000000000000000000000000000000000000000000000000000000000000000000000000000000000000000000000000000000000000000000000000000000000000000000000000000000000000000000
310
00000000000000000000000000000000000000000000000000000000000000000000000000000000000000000000000000F5000000000000000000000000000000000000000000000000000000000000000000000000000000000000000000F5000000002D000000282800F500000000000000000000000000000000000000
310
000000000000000000000000000000000000F52800002828002D0000000000000000000000000000000000000000000000000000000000000000000000000000000000000000000000000000000000000000000000000000000000000000000000000000000000000000000000000000000000000000000000000000000000
310
000000000000000000000000000000000000000000000000000000000000000000000000000000000000000000000000000000F5000000000000000000000000000000000000000000000000000000000000000000000000000000000000000000F5000000002D000000282800F50000000000000000000000000000000000
310
00000000000000000000000000000000000000F5002800000028002D000000000000000000000000000000000000000000000000000000000000000000000000000000000000000000000000000000000000000000000000000000000000000000000000000000000000000000000000000000000000000000000000000000
310
0000000000000000000000000000000000000000000000000000000000000000000000000000000000000000000000000000000000F5000000000000000000000000000000000000000000000000000000000000000000000000000000000000000000F5000000002D00000028280000F5F5F5F5F500000000000000000000
310
000000000000000000000000000000000000000000F5002828282828002D00000000000000000000000000000000000000000000000000000000000000000000000000000000000000000000000000000000000000000000000000000000000000000000000000000000000000000000000000000000000000000000000000
310
00000000000000000000000000000000000000000000000000000000000000000000000000000000000000000000000000000000000000F5000000000000000000000000000000000000000000000000000000000000000000000000000000000000000000F5000000002D0000002828000000F5F5F5F50000000000000000
310
00000000000000000000000000000000F5F5F5F5F5F5F50000F50000002D002D0000000000000000000000000000000000000000000000000000000000000000000000000000000000000000000000000000000000000000000000000000000000000000000000000000000000000000000000000000000000000000000000
310
000000000000000000000000000000000000000000000000000000000000000000000000000000000000000000000000000000000000000000F5000000000000000000000000000000000000000000000000000000000000000000000000000000000000000000F5000000002D000000282800000000F5F500000000000000
310
000000000000000000000000000000000000F5F5F5F5F5F5000000F50000002D002D000000000000000000000000000000000000000000000000000000000000000000000000000000000000000000000000000000000000000000000000000000000000000000000000000000000000000000000000000000000000000000
310
0000000000000000000000000000000000000000000000000000000000000000000000000000000000000000000000000000000000000000000000F5000000000000000000000000000000000000000000000000000000000000000000000000000000000000000000F5000000002D00000028280000000000000000000000
310
000000000000000000000000000000000000000000F5F5F500F5F50000F50000002D002D00000000000000000000000000000000000000000000000000000000000000000000000000000000000000000000000000000000000000000000000000000000000000000000000000000000000000000000000000000000000000
310
00000000000000000000000000000000000000000000000000000000000000000000000000000000000000000000000000000000000000000000000000F5000000000000000000000000000000000000000000000000000000000000000000000000000000000000000000F5000000002D0000002828000000000000000000
310
00000000000000000000000000000000000000000000000000000000000000F50000002D002D0000000000000000000000000000000000000000000000000000000000000000000000000000000000000000000000000000000000000000000000000000000000000000000000000000000000000000000000000000000000
310
000000000000000000000000000000000000000000000000000000000000000000000000000000000000000000000000000000000000000000000000000000F5000000000000000000000000000000000000000000000000000000000000000000000000000000000000000000F5000000002D000000282800000000000000
310
000000000000000000000000000000000000000000000000000000000000000000F50000002D002D0000000000000000000000000000000000000000000000000000000000000000000000000000000000000000000000000000000000000000000000000000000000000000000000000000000000000000000000
  0
XRECORD
  5
2B9F0
102
{ACAD_REACTORS
330
600E
102
}
330
600E
100
AcDbXrecord
280
     1
102
MATERIAL
148
0.0
149
0.0
149
0.0
 93
        0
 94
      127
282
     0
 72
     0
 77
     0
171
     0
175
     0
179
     0
273
     0
  0
XRECORD
  5
6010
102
{ACAD_REACTORS
330
600E
102
}
330
600E
100
AcDbXrecord
280
     1
270
     1
271
     1
  0
XRECORD
  5
600F
102
{ACAD_REACTORS
330
600E
102
}
330
600E
100
AcDbXrecord
280
     1
270
     1
271
     1
  0
XRECORD
  5
6013
102
{ACAD_REACTORS
330
600E
102
}
330
600E
100
AcDbXrecord
280
     1
270
     1
271
     1
  0
XRECORD
  5
6012
102
{ACAD_REACTORS
330
600E
102
}
330
600E
100
AcDbXrecord
280
     1
270
     1
271
     1
  0
XRECORD
  5
6014
102
{ACAD_REACTORS
330
600E
102
}
330
600E
100
AcDbXrecord
280
     1
270
     1
271
     1
  0
XRECORD
  5
6011
102
{ACAD_REACTORS
330
600E
102
}
330
600E
100
AcDbXrecord
280
     1
270
     1
271
     1
  0
XRECORD
  5
2B9EF
102
{ACAD_REACTORS
330
6006
102
}
330
6006
100
AcDbXrecord
280
     1
102
MATERIAL
148
0.0
149
0.0
149
0.0
 93
        0
 94
      127
282
     0
 72
     0
 77
     0
171
     0
175
     0
179
     0
273
     0
  0
XRECORD
  5
6008
102
{ACAD_REACTORS
330
6006
102
}
330
6006
100
AcDbXrecord
280
     1
270
     1
271
     1
  0
XRECORD
  5
6007
102
{ACAD_REACTORS
330
6006
102
}
330
6006
100
AcDbXrecord
280
     1
270
     1
271
     1
  0
XRECORD
  5
600B
102
{ACAD_REACTORS
330
6006
102
}
330
6006
100
AcDbXrecord
280
     1
270
     1
271
     1
  0
XRECORD
  5
600A
102
{ACAD_REACTORS
330
6006
102
}
330
6006
100
AcDbXrecord
280
     1
270
     1
271
     1
  0
XRECORD
  5
600C
102
{ACAD_REACTORS
330
6006
102
}
330
6006
100
AcDbXrecord
280
     1
270
     1
271
     1
  0
XRECORD
  5
6009
102
{ACAD_REACTORS
330
6006
102
}
330
6006
100
AcDbXrecord
280
     1
270
     1
271
     1
  0
XRECORD
  5
2B9F1
102
{ACAD_REACTORS
330
6016
102
}
330
6016
100
AcDbXrecord
280
     1
102
MATERIAL
148
0.0
149
0.0
149
0.0
 93
        0
 94
      127
282
     0
 72
     0
 77
     0
171
     0
175
     0
179
     0
273
     0
  0
XRECORD
  5
6018
102
{ACAD_REACTORS
330
6016
102
}
330
6016
100
AcDbXrecord
280
     1
270
     1
271
     1
  0
XRECORD
  5
6017
102
{ACAD_REACTORS
330
6016
102
}
330
6016
100
AcDbXrecord
280
     1
270
     1
271
     1
  0
XRECORD
  5
601B
102
{ACAD_REACTORS
330
6016
102
}
330
6016
100
AcDbXrecord
280
     1
270
     1
271
     1
  0
XRECORD
  5
601A
102
{ACAD_REACTORS
330
6016
102
}
330
6016
100
AcDbXrecord
280
     1
270
     1
271
     1
  0
XRECORD
  5
601C
102
{ACAD_REACTORS
330
6016
102
}
330
6016
100
AcDbXrecord
280
     1
270
     1
271
     1
  0
XRECORD
  5
6019
102
{ACAD_REACTORS
330
6016
102
}
330
6016
100
AcDbXrecord
280
     1
270
     1
271
     1
  0
XRECORD
  5
2B9E8
102
{ACAD_REACTORS
330
2B9E7
102
}
330
2B9E7
100
AcDbXrecord
280
     1
102
ACAD_ROUNDTRIP_2012_MLEADER_STYLE
298
     1
  0
CELLSTYLEMAP
  5
2B9E6
102
{ACAD_REACTORS
330
8770
102
}
330
8770
100
AcDbCellStyleMap
 90
        3
300
CELLSTYLE
  1
TABLEFORMAT_BEGIN
 90
        5
170
     1
 91
        0
 92
    32768
 62
   257
 93
        1
300
CONTENTFORMAT
  1
CONTENTFORMAT_BEGIN
 90
        0
 91
        0
 92
      512
 93
        0
300

 40
0.0
140
1.0
 94
        5
 62
     0
340
11
144
0.25
309
CONTENTFORMAT_END
171
     0
 94
        0
309
TABLEFORMAT_END
  1
CELLSTYLE_BEGIN
 90
        1
 91
        1
300
_TITLE
309
CELLSTYLE_END
300
CELLSTYLE
  1
TABLEFORMAT_BEGIN
 90
        5
170
     1
 91
        0
 92
        0
 62
   257
 93
        1
300
CONTENTFORMAT
  1
CONTENTFORMAT_BEGIN
 90
        0
 91
        0
 92
      512
 93
        0
300

 40
0.0
140
1.0
 94
        5
 62
     0
340
11
144
0.18
309
CONTENTFORMAT_END
171
     0
 94
        0
309
TABLEFORMAT_END
  1
CELLSTYLE_BEGIN
 90
        2
 91
        1
300
_HEADER
309
CELLSTYLE_END
300
CELLSTYLE
  1
TABLEFORMAT_BEGIN
 90
        5
170
     1
 91
        0
 92
        0
 62
   257
 93
        1
300
CONTENTFORMAT
  1
CONTENTFORMAT_BEGIN
 90
        0
 91
        0
 92
      512
 93
        0
300

 40
0.0
140
1.0
 94
        2
 62
     0
340
11
144
0.18
309
CONTENTFORMAT_END
171
     0
 94
        0
309
TABLEFORMAT_END
  1
CELLSTYLE_BEGIN
 90
        3
 91
        2
300
_DATA
309
CELLSTYLE_END
  0
XRECORD
  5
2BA22
102
{ACAD_REACTORS
330
8770
102
}
330
8770
100
AcDbXrecord
280
     1
102
ACAD_ROUNDTRIP_PRE2007_TABLESTYLE
 90
      512
 91
        0
  1

 92
      512
 93
        0
  2

 94
      512
 95
        0
  3

  0
XRECORD
  5
2B9FD
102
{ACAD_REACTORS
330
2B9FC
102
}
330
2B9FC
100
AcDbXrecord
280
     1
102
RTVSPropertyOp0
 70
     1
102
RTVSPropertyOp1
 70
     1
102
RTVSPropertyOp2
 70
     1
102
RTVSPropertyOp3
 70
     1
102
RTVSPropertyOp4
 70
     1
102
RTVSPropertyOp5
 70
     1
102
RTVSPropertyOp6
 70
     1
102
RTVSPropertyOp7
 70
     1
102
RTVSPropertyOp8
 70
     1
102
RTVSPropertyOp9
 70
     1
102
RTVSPropertyOp10
 70
     1
102
RTVSPropertyOp11
 70
     1
102
RTVSPropertyOp12
 70
     1
102
RTVSPropertyOp13
 70
     1
102
RTVSPropertyOp14
 70
     1
102
RTVSPropertyOp15
 70
     1
102
RTVSPropertyOp16
 70
     1
102
RTVSPropertyOp17
 70
     1
102
RTVSPropertyOp18
 70
     1
102
RTVSPropertyOp19
 70
     1
102
RTVSPropertyOp20
 70
     1
102
RTVSPropertyOp21
 70
     1
102
RTVSPropertyOp22
 70
     1
102
RTVSPropertyOp23
 70
     1
102
RTVSPropertyOp24
 70
     1
102
RTVSPropertyOp25
 70
     1
102
RTVSPropertyOp26
 70
     1
102
RTVSPropertyOp27
 70
     1
102
RTVSPropertyOp28
 70
     1
102
RTVSPropertyOp29
 70
     1
102
RTVSPropertyOp30
 70
     1
102
RTVSPropertyOp31
 70
     1
102
RTVSPropertyOp32
 70
     1
  0
XRECORD
  5
2BA24
102
{ACAD_REACTORS
330
2BA23
102
}
330
2BA23
100
AcDbXrecord
280
     1
102
RTVSPropertyOp0
 70
     1
102
RTVSPropertyOp1
 70
     1
102
RTVSPropertyOp2
 70
     1
102
RTVSPropertyOp3
 70
     1
102
RTVSPropertyOp4
 70
     1
102
RTVSPropertyOp5
 70
     1
102
RTVSPropertyOp6
 70
     1
102
RTVSPropertyOp7
 70
     1
102
RTVSPropertyOp8
 70
     1
102
RTVSPropertyOp9
 70
     1
102
RTVSPropertyOp10
 70
     1
102
RTVSPropertyOp11
 70
     1
102
RTVSPropertyOp12
 70
     1
102
RTVSPropertyOp13
 70
     1
102
RTVSPropertyOp14
 70
     1
102
RTVSPropertyOp15
 70
     1
102
RTVSPropertyOp16
 70
     1
102
RTVSPropertyOp17
 70
     1
102
RTVSPropertyOp18
 70
     1
102
RTVSPropertyOp19
 70
     1
102
RTVSPropertyOp20
 70
     1
102
RTVSPropertyOp21
 70
     1
102
RTVSPropertyOp22
 70
     1
102
RTVSPropertyOp23
 70
     1
102
RTVSPropertyOp24
 70
     1
102
RTVSPropertyOp25
 70
     1
102
RTVSPropertyOp26
 70
     1
102
RTVSPropertyOp27
 70
     1
102
RTVSPropertyOp28
 70
     1
102
RTVSPropertyOp29
 70
     1
102
RTVSPropertyOp30
 70
     1
102
RTVSPropertyOp31
 70
     1
102
RTVSPropertyOp32
 70
     1
  0
XRECORD
  5
2B9FB
102
{ACAD_REACTORS
330
2B9FA
102
}
330
2B9FA
100
AcDbXrecord
280
     1
102
RTVSPropertyOp0
 70
     1
102
RTVSPropertyOp1
 70
     1
102
RTVSPropertyOp2
 70
     1
102
RTVSPropertyOp3
 70
     1
102
RTVSPropertyOp4
 70
     1
102
RTVSPropertyOp5
 70
     1
102
RTVSPropertyOp6
 70
     1
102
RTVSPropertyOp7
 70
     1
102
RTVSPropertyOp8
 70
     1
102
RTVSPropertyOp9
 70
     1
102
RTVSPropertyOp10
 70
     1
102
RTVSPropertyOp11
 70
     1
102
RTVSPropertyOp12
 70
     1
102
RTVSPropertyOp13
 70
     1
102
RTVSPropertyOp14
 70
     1
102
RTVSPropertyOp15
 70
     1
102
RTVSPropertyOp16
 70
     1
102
RTVSPropertyOp17
 70
     1
102
RTVSPropertyOp18
 70
     1
102
RTVSPropertyOp19
 70
     1
102
RTVSPropertyOp20
 70
     1
102
RTVSPropertyOp21
 70
     1
102
RTVSPropertyOp22
 70
     1
102
RTVSPropertyOp23
 70
     1
102
RTVSPropertyOp24
 70
     1
102
RTVSPropertyOp25
 70
     1
102
RTVSPropertyOp26
 70
     1
102
RTVSPropertyOp27
 70
     1
102
RTVSPropertyOp28
 70
     1
102
RTVSPropertyOp29
 70
     1
102
RTVSPropertyOp30
 70
     1
102
RTVSPropertyOp31
 70
     1
102
RTVSPropertyOp32
 70
     1
  0
XRECORD
  5
2BA09
102
{ACAD_REACTORS
330
2BA08
102
}
330
2BA08
100
AcDbXrecord
280
     1
102
RTVSPropertyOp0
 70
     1
102
RTVSPropertyOp1
 70
     1
102
RTVSPropertyOp2
 70
     1
102
RTVSPropertyOp3
 70
     1
102
RTVSPropertyOp4
 70
     1
102
RTVSPropertyOp5
 70
     1
102
RTVSPropertyOp6
 70
     1
102
RTVSPropertyOp7
 70
     1
102
RTVSPropertyOp8
 70
     1
102
RTVSPropertyOp9
 70
     1
102
RTVSPropertyOp10
 70
     1
102
RTVSPropertyOp11
 70
     1
102
RTVSPropertyOp12
 70
     1
102
RTVSPropertyOp13
 70
     1
102
RTVSPropertyOp14
 70
     1
102
RTVSPropertyOp15
 70
     1
102
RTVSPropertyOp16
 70
     1
102
RTVSPropertyOp17
 70
     1
102
RTVSPropertyOp18
 70
     1
102
RTVSPropertyOp19
 70
     1
102
RTVSPropertyOp20
 70
     1
102
RTVSPropertyOp21
 70
     1
102
RTVSPropertyOp22
 70
     1
102
RTVSPropertyOp23
 70
     1
102
RTVSPropertyOp24
 70
     1
102
RTVSPropertyOp25
 70
     1
102
RTVSPropertyOp26
 70
     1
102
RTVSPropertyOp27
 70
     1
102
RTVSPropertyOp28
 70
     1
102
RTVSPropertyOp29
 70
     1
102
RTVSPropertyOp30
 70
     1
102
RTVSPropertyOp31
 70
     1
102
RTVSPropertyOp32
 70
     1
  0
XRECORD
  5
2BA11
102
{ACAD_REACTORS
330
2BA10
102
}
330
2BA10
100
AcDbXrecord
280
     1
102
RTVSPropertyOp0
 70
     1
102
RTVSPropertyOp1
 70
     1
102
RTVSPropertyOp2
 70
     1
102
RTVSPropertyOp3
 70
     1
102
RTVSPropertyOp4
 70
     1
102
RTVSPropertyOp5
 70
     1
102
RTVSPropertyOp6
 70
     1
102
RTVSPropertyOp7
 70
     1
102
RTVSPropertyOp8
 70
     1
102
RTVSPropertyOp9
 70
     1
102
RTVSPropertyOp10
 70
     1
102
RTVSPropertyOp11
 70
     1
102
RTVSPropertyOp12
 70
     1
102
RTVSPropertyOp13
 70
     1
102
RTVSPropertyOp14
 70
     1
102
RTVSPropertyOp15
 70
     1
102
RTVSPropertyOp16
 70
     1
102
RTVSPropertyOp17
 70
     1
102
RTVSPropertyOp18
 70
     1
102
RTVSPropertyOp19
 70
     1
102
RTVSPropertyOp20
 70
     1
102
RTVSPropertyOp21
 70
     1
102
RTVSPropertyOp22
 70
     1
102
RTVSPropertyOp23
 70
     1
102
RTVSPropertyOp24
 70
     1
102
RTVSPropertyOp25
 70
     1
102
RTVSPropertyOp26
 70
     1
102
RTVSPropertyOp27
 70
     1
102
RTVSPropertyOp28
 70
     1
102
RTVSPropertyOp29
 70
     1
102
RTVSPropertyOp30
 70
     1
102
RTVSPropertyOp31
 70
     1
102
RTVSPropertyOp32
 70
     1
  0
XRECORD
  5
2BA03
102
{ACAD_REACTORS
330
2BA02
102
}
330
2BA02
100
AcDbXrecord
280
     1
102
RTVSPropertyOp0
 70
     1
102
RTVSPropertyOp1
 70
     1
102
RTVSPropertyOp2
 70
     1
102
RTVSPropertyOp3
 70
     1
102
RTVSPropertyOp4
 70
     1
102
RTVSPropertyOp5
 70
     1
102
RTVSPropertyOp6
 70
     1
102
RTVSPropertyOp7
 70
     1
102
RTVSPropertyOp8
 70
     1
102
RTVSPropertyOp9
 70
     1
102
RTVSPropertyOp10
 70
     1
102
RTVSPropertyOp11
 70
     1
102
RTVSPropertyOp12
 70
     1
102
RTVSPropertyOp13
 70
     1
102
RTVSPropertyOp14
 70
     1
102
RTVSPropertyOp15
 70
     1
102
RTVSPropertyOp16
 70
     1
102
RTVSPropertyOp17
 70
     1
102
RTVSPropertyOp18
 70
     1
102
RTVSPropertyOp19
 70
     1
102
RTVSPropertyOp20
 70
     1
102
RTVSPropertyOp21
 70
     1
102
RTVSPropertyOp22
 70
     1
102
RTVSPropertyOp23
 70
     1
102
RTVSPropertyOp24
 70
     1
102
RTVSPropertyOp25
 70
     1
102
RTVSPropertyOp26
 70
     1
102
RTVSPropertyOp27
 70
     1
102
RTVSPropertyOp28
 70
     1
102
RTVSPropertyOp29
 70
     1
102
RTVSPropertyOp30
 70
     1
102
RTVSPropertyOp31
 70
     1
102
RTVSPropertyOp32
 70
     1
  0
XRECORD
  5
2BA07
102
{ACAD_REACTORS
330
2BA06
102
}
330
2BA06
100
AcDbXrecord
280
     1
102
RTVSPropertyOp0
 70
     1
102
RTVSPropertyOp1
 70
     1
102
RTVSPropertyOp2
 70
     1
102
RTVSPropertyOp3
 70
     1
102
RTVSPropertyOp4
 70
     1
102
RTVSPropertyOp5
 70
     1
102
RTVSPropertyOp6
 70
     1
102
RTVSPropertyOp7
 70
     1
102
RTVSPropertyOp8
 70
     1
102
RTVSPropertyOp9
 70
     1
102
RTVSPropertyOp10
 70
     1
102
RTVSPropertyOp11
 70
     1
102
RTVSPropertyOp12
 70
     1
102
RTVSPropertyOp13
 70
     1
102
RTVSPropertyOp14
 70
     1
102
RTVSPropertyOp15
 70
     1
102
RTVSPropertyOp16
 70
     1
102
RTVSPropertyOp17
 70
     1
102
RTVSPropertyOp18
 70
     1
102
RTVSPropertyOp19
 70
     1
102
RTVSPropertyOp20
 70
     1
102
RTVSPropertyOp21
 70
     1
102
RTVSPropertyOp22
 70
     1
102
RTVSPropertyOp23
 70
     1
102
RTVSPropertyOp24
 70
     1
102
RTVSPropertyOp25
 70
     1
102
RTVSPropertyOp26
 70
     1
102
RTVSPropertyOp27
 70
     1
102
RTVSPropertyOp28
 70
     1
102
RTVSPropertyOp29
 70
     1
102
RTVSPropertyOp30
 70
     1
102
RTVSPropertyOp31
 70
     1
102
RTVSPropertyOp32
 70
     1
  0
XRECORD
  5
2BA21
102
{ACAD_REACTORS
330
2BA20
102
}
330
2BA20
100
AcDbXrecord
280
     1
102
RTVSPropertyOp0
 70
     0
102
RTVSPropertyOp1
 70
     0
102
RTVSPropertyOp2
 70
     0
102
RTVSPropertyOp3
 70
     0
102
RTVSPropertyOp4
 70
     0
102
RTVSPropertyOp5
 70
     0
102
RTVSPropertyOp6
 70
     0
102
RTVSPropertyOp7
 70
     0
102
RTVSPropertyOp8
 70
     0
102
RTVSPropertyOp9
 70
     0
102
RTVSPropertyOp10
 70
     0
102
RTVSPropertyOp11
 70
     0
102
RTVSPropertyOp12
 70
     0
102
RTVSPropertyOp13
 70
     0
102
RTVSPropertyOp14
 70
     2
102
RTVSPropertyOp15
 70
     0
102
RTVSPropertyOp16
 70
     0
102
RTVSPropertyOp17
 70
     0
102
RTVSPropertyOp18
 70
     0
102
RTVSPropertyOp19
 70
     0
102
RTVSPropertyOp20
 70
     0
102
RTVSPropertyOp21
 70
     0
102
RTVSPropertyOp22
 70
     0
102
RTVSPropertyOp23
 70
     0
102
RTVSPropertyOp24
 70
     0
102
RTVSPropertyOp25
 70
     0
102
RTVSPropertyOp26
 70
     0
102
RTVSPropertyOp27
 70
     0
102
RTVSPropertyOp28
 70
     1
102
RTVSPropertyOp29
 70
     1
102
RTVSPropertyOp30
 70
     1
102
RTVSPropertyOp31
 70
     1
102
RTVSPropertyOp32
 70
     1
  0
XRECORD
  5
2BA0F
102
{ACAD_REACTORS
330
2BA0E
102
}
330
2BA0E
100
AcDbXrecord
280
     1
102
RTVSPropertyOp0
 70
     1
102
RTVSPropertyOp1
 70
     1
102
RTVSPropertyOp2
 70
     1
102
RTVSPropertyOp3
 70
     1
102
RTVSPropertyOp4
 70
     1
102
RTVSPropertyOp5
 70
     1
102
RTVSPropertyOp6
 70
     1
102
RTVSPropertyOp7
 70
     1
102
RTVSPropertyOp8
 70
     1
102
RTVSPropertyOp9
 70
     1
102
RTVSPropertyOp10
 70
     1
102
RTVSPropertyOp11
 70
     1
102
RTVSPropertyOp12
 70
     1
102
RTVSPropertyOp13
 70
     1
102
RTVSPropertyOp14
 70
     1
102
RTVSPropertyOp15
 70
     1
102
RTVSPropertyOp16
 70
     1
102
RTVSPropertyOp17
 70
     1
102
RTVSPropertyOp18
 70
     1
102
RTVSPropertyOp19
 70
     1
102
RTVSPropertyOp20
 70
     1
102
RTVSPropertyOp21
 70
     1
102
RTVSPropertyOp22
 70
     1
102
RTVSPropertyOp23
 70
     1
102
RTVSPropertyOp24
 70
     1
102
RTVSPropertyOp25
 70
     1
102
RTVSPropertyOp26
 70
     1
102
RTVSPropertyOp27
 70
     1
102
RTVSPropertyOp28
 70
     1
102
RTVSPropertyOp29
 70
     1
102
RTVSPropertyOp30
 70
     1
102
RTVSPropertyOp31
 70
     1
102
RTVSPropertyOp32
 70
     1
  0
XRECORD
  5
2B9F3
102
{ACAD_REACTORS
330
2B9F2
102
}
330
2B9F2
100
AcDbXrecord
280
     1
102
RTVSPropertyOp0
 70
     1
102
RTVSPropertyOp1
 70
     1
102
RTVSPropertyOp2
 70
     1
102
RTVSPropertyOp3
 70
     1
102
RTVSPropertyOp4
 70
     1
102
RTVSPropertyOp5
 70
     1
102
RTVSPropertyOp6
 70
     1
102
RTVSPropertyOp7
 70
     1
102
RTVSPropertyOp8
 70
     1
102
RTVSPropertyOp9
 70
     1
102
RTVSPropertyOp10
 70
     1
102
RTVSPropertyOp11
 70
     1
102
RTVSPropertyOp12
 70
     1
102
RTVSPropertyOp13
 70
     1
102
RTVSPropertyOp14
 70
     1
102
RTVSPropertyOp15
 70
     1
102
RTVSPropertyOp16
 70
     1
102
RTVSPropertyOp17
 70
     1
102
RTVSPropertyOp18
 70
     1
102
RTVSPropertyOp19
 70
     1
102
RTVSPropertyOp20
 70
     1
102
RTVSPropertyOp21
 70
     1
102
RTVSPropertyOp22
 70
     1
102
RTVSPropertyOp23
 70
     1
102
RTVSPropertyOp24
 70
     1
102
RTVSPropertyOp25
 70
     1
102
RTVSPropertyOp26
 70
     1
102
RTVSPropertyOp27
 70
     1
102
RTVSPropertyOp28
 70
     1
102
RTVSPropertyOp29
 70
     1
102
RTVSPropertyOp30
 70
     1
102
RTVSPropertyOp31
 70
     1
102
RTVSPropertyOp32
 70
     1
  0
XRECORD
  5
2B9F5
102
{ACAD_REACTORS
330
2B9F4
102
}
330
2B9F4
100
AcDbXrecord
280
     1
102
RTVSPropertyOp0
 70
     1
102
RTVSPropertyOp1
 70
     1
102
RTVSPropertyOp2
 70
     1
102
RTVSPropertyOp3
 70
     1
102
RTVSPropertyOp4
 70
     1
102
RTVSPropertyOp5
 70
     1
102
RTVSPropertyOp6
 70
     1
102
RTVSPropertyOp7
 70
     1
102
RTVSPropertyOp8
 70
     1
102
RTVSPropertyOp9
 70
     1
102
RTVSPropertyOp10
 70
     1
102
RTVSPropertyOp11
 70
     1
102
RTVSPropertyOp12
 70
     1
102
RTVSPropertyOp13
 70
     1
102
RTVSPropertyOp14
 70
     1
102
RTVSPropertyOp15
 70
     1
102
RTVSPropertyOp16
 70
     1
102
RTVSPropertyOp17
 70
     1
102
RTVSPropertyOp18
 70
     1
102
RTVSPropertyOp19
 70
     1
102
RTVSPropertyOp20
 70
     1
102
RTVSPropertyOp21
 70
     1
102
RTVSPropertyOp22
 70
     1
102
RTVSPropertyOp23
 70
     1
102
RTVSPropertyOp24
 70
     1
102
RTVSPropertyOp25
 70
     1
102
RTVSPropertyOp26
 70
     1
102
RTVSPropertyOp27
 70
     1
102
RTVSPropertyOp28
 70
     1
102
RTVSPropertyOp29
 70
     1
102
RTVSPropertyOp30
 70
     1
102
RTVSPropertyOp31
 70
     1
102
RTVSPropertyOp32
 70
     1
  0
XRECORD
  5
2B9F7
102
{ACAD_REACTORS
330
2B9F6
102
}
330
2B9F6
100
AcDbXrecord
280
     1
102
RTVSPropertyOp0
 70
     1
102
RTVSPropertyOp1
 70
     1
102
RTVSPropertyOp2
 70
     1
102
RTVSPropertyOp3
 70
     1
102
RTVSPropertyOp4
 70
     1
102
RTVSPropertyOp5
 70
     1
102
RTVSPropertyOp6
 70
     1
102
RTVSPropertyOp7
 70
     1
102
RTVSPropertyOp8
 70
     1
102
RTVSPropertyOp9
 70
     1
102
RTVSPropertyOp10
 70
     1
102
RTVSPropertyOp11
 70
     1
102
RTVSPropertyOp12
 70
     1
102
RTVSPropertyOp13
 70
     1
102
RTVSPropertyOp14
 70
     1
102
RTVSPropertyOp15
 70
     1
102
RTVSPropertyOp16
 70
     1
102
RTVSPropertyOp17
 70
     1
102
RTVSPropertyOp18
 70
     1
102
RTVSPropertyOp19
 70
     1
102
RTVSPropertyOp20
 70
     1
102
RTVSPropertyOp21
 70
     1
102
RTVSPropertyOp22
 70
     1
102
RTVSPropertyOp23
 70
     1
102
RTVSPropertyOp24
 70
     1
102
RTVSPropertyOp25
 70
     1
102
RTVSPropertyOp26
 70
     1
102
RTVSPropertyOp27
 70
     1
102
RTVSPropertyOp28
 70
     1
102
RTVSPropertyOp29
 70
     1
102
RTVSPropertyOp30
 70
     1
102
RTVSPropertyOp31
 70
     1
102
RTVSPropertyOp32
 70
     1
  0
XRECORD
  5
2B9F9
102
{ACAD_REACTORS
330
2B9F8
102
}
330
2B9F8
100
AcDbXrecord
280
     1
102
RTVSPropertyOp0
 70
     1
102
RTVSPropertyOp1
 70
     1
102
RTVSPropertyOp2
 70
     1
102
RTVSPropertyOp3
 70
     1
102
RTVSPropertyOp4
 70
     1
102
RTVSPropertyOp5
 70
     1
102
RTVSPropertyOp6
 70
     1
102
RTVSPropertyOp7
 70
     1
102
RTVSPropertyOp8
 70
     1
102
RTVSPropertyOp9
 70
     1
102
RTVSPropertyOp10
 70
     1
102
RTVSPropertyOp11
 70
     1
102
RTVSPropertyOp12
 70
     1
102
RTVSPropertyOp13
 70
     1
102
RTVSPropertyOp14
 70
     1
102
RTVSPropertyOp15
 70
     1
102
RTVSPropertyOp16
 70
     1
102
RTVSPropertyOp17
 70
     1
102
RTVSPropertyOp18
 70
     1
102
RTVSPropertyOp19
 70
     1
102
RTVSPropertyOp20
 70
     1
102
RTVSPropertyOp21
 70
     1
102
RTVSPropertyOp22
 70
     1
102
RTVSPropertyOp23
 70
     1
102
RTVSPropertyOp24
 70
     1
102
RTVSPropertyOp25
 70
     1
102
RTVSPropertyOp26
 70
     1
102
RTVSPropertyOp27
 70
     1
102
RTVSPropertyOp28
 70
     1
102
RTVSPropertyOp29
 70
     1
102
RTVSPropertyOp30
 70
     1
102
RTVSPropertyOp31
 70
     1
102
RTVSPropertyOp32
 70
     1
  0
XRECORD
  5
2BA01
102
{ACAD_REACTORS
330
2BA00
102
}
330
2BA00
100
AcDbXrecord
280
     1
102
RTVSPropertyOp0
 70
     1
102
RTVSPropertyOp1
 70
     1
102
RTVSPropertyOp2
 70
     1
102
RTVSPropertyOp3
 70
     1
102
RTVSPropertyOp4
 70
     1
102
RTVSPropertyOp5
 70
     1
102
RTVSPropertyOp6
 70
     1
102
RTVSPropertyOp7
 70
     1
102
RTVSPropertyOp8
 70
     1
102
RTVSPropertyOp9
 70
     1
102
RTVSPropertyOp10
 70
     1
102
RTVSPropertyOp11
 70
     1
102
RTVSPropertyOp12
 70
     1
102
RTVSPropertyOp13
 70
     1
102
RTVSPropertyOp14
 70
     1
102
RTVSPropertyOp15
 70
     1
102
RTVSPropertyOp16
 70
     1
102
RTVSPropertyOp17
 70
     1
102
RTVSPropertyOp18
 70
     1
102
RTVSPropertyOp19
 70
     1
102
RTVSPropertyOp20
 70
     1
102
RTVSPropertyOp21
 70
     1
102
RTVSPropertyOp22
 70
     1
102
RTVSPropertyOp23
 70
     1
102
RTVSPropertyOp24
 70
     1
102
RTVSPropertyOp25
 70
     1
102
RTVSPropertyOp26
 70
     1
102
RTVSPropertyOp27
 70
     1
102
RTVSPropertyOp28
 70
     1
102
RTVSPropertyOp29
 70
     1
102
RTVSPropertyOp30
 70
     1
102
RTVSPropertyOp31
 70
     1
102
RTVSPropertyOp32
 70
     1
  0
XRECORD
  5
2BA1D
102
{ACAD_REACTORS
330
2BA1C
102
}
330
2BA1C
100
AcDbXrecord
280
     1
102
RTVSPropertyOp0
 70
     0
102
RTVSPropertyOp1
 70
     0
102
RTVSPropertyOp2
 70
     0
102
RTVSPropertyOp3
 70
     0
102
RTVSPropertyOp4
 70
     0
102
RTVSPropertyOp5
 70
     0
102
RTVSPropertyOp6
 70
     0
102
RTVSPropertyOp7
 70
     0
102
RTVSPropertyOp8
 70
     0
102
RTVSPropertyOp9
 70
     0
102
RTVSPropertyOp10
 70
     0
102
RTVSPropertyOp11
 70
     0
102
RTVSPropertyOp12
 70
     0
102
RTVSPropertyOp13
 70
     0
102
RTVSPropertyOp14
 70
     2
102
RTVSPropertyOp15
 70
     0
102
RTVSPropertyOp16
 70
     0
102
RTVSPropertyOp17
 70
     0
102
RTVSPropertyOp18
 70
     0
102
RTVSPropertyOp19
 70
     0
102
RTVSPropertyOp20
 70
     0
102
RTVSPropertyOp21
 70
     0
102
RTVSPropertyOp22
 70
     0
102
RTVSPropertyOp23
 70
     0
102
RTVSPropertyOp24
 70
     0
102
RTVSPropertyOp25
 70
     0
102
RTVSPropertyOp26
 70
     0
102
RTVSPropertyOp27
 70
     0
102
RTVSPropertyOp28
 70
     1
102
RTVSPropertyOp29
 70
     1
102
RTVSPropertyOp30
 70
     1
102
RTVSPropertyOp31
 70
     1
102
RTVSPropertyOp32
 70
     1
  0
XRECORD
  5
2BA0D
102
{ACAD_REACTORS
330
2BA0C
102
}
330
2BA0C
100
AcDbXrecord
280
     1
102
RTVSPropertyOp0
 70
     1
102
RTVSPropertyOp1
 70
     1
102
RTVSPropertyOp2
 70
     1
102
RTVSPropertyOp3
 70
     1
102
RTVSPropertyOp4
 70
     1
102
RTVSPropertyOp5
 70
     1
102
RTVSPropertyOp6
 70
     1
102
RTVSPropertyOp7
 70
     1
102
RTVSPropertyOp8
 70
     1
102
RTVSPropertyOp9
 70
     1
102
RTVSPropertyOp10
 70
     1
102
RTVSPropertyOp11
 70
     1
102
RTVSPropertyOp12
 70
     1
102
RTVSPropertyOp13
 70
     1
102
RTVSPropertyOp14
 70
     1
102
RTVSPropertyOp15
 70
     1
102
RTVSPropertyOp16
 70
     1
102
RTVSPropertyOp17
 70
     1
102
RTVSPropertyOp18
 70
     1
102
RTVSPropertyOp19
 70
     1
102
RTVSPropertyOp20
 70
     1
102
RTVSPropertyOp21
 70
     1
102
RTVSPropertyOp22
 70
     1
102
RTVSPropertyOp23
 70
     1
102
RTVSPropertyOp24
 70
     1
102
RTVSPropertyOp25
 70
     1
102
RTVSPropertyOp26
 70
     1
102
RTVSPropertyOp27
 70
     1
102
RTVSPropertyOp28
 70
     1
102
RTVSPropertyOp29
 70
     1
102
RTVSPropertyOp30
 70
     1
102
RTVSPropertyOp31
 70
     1
102
RTVSPropertyOp32
 70
     1
  0
XRECORD
  5
2BA1F
102
{ACAD_REACTORS
330
2BA1E
102
}
330
2BA1E
100
AcDbXrecord
280
     1
102
RTVSPropertyOp0
 70
     0
102
RTVSPropertyOp1
 70
     0
102
RTVSPropertyOp2
 70
     0
102
RTVSPropertyOp3
 70
     0
102
RTVSPropertyOp4
 70
     0
102
RTVSPropertyOp5
 70
     0
102
RTVSPropertyOp6
 70
     0
102
RTVSPropertyOp7
 70
     0
102
RTVSPropertyOp8
 70
     0
102
RTVSPropertyOp9
 70
     0
102
RTVSPropertyOp10
 70
     0
102
RTVSPropertyOp11
 70
     0
102
RTVSPropertyOp12
 70
     0
102
RTVSPropertyOp13
 70
     0
102
RTVSPropertyOp14
 70
     2
102
RTVSPropertyOp15
 70
     0
102
RTVSPropertyOp16
 70
     0
102
RTVSPropertyOp17
 70
     0
102
RTVSPropertyOp18
 70
     0
102
RTVSPropertyOp19
 70
     0
102
RTVSPropertyOp20
 70
     0
102
RTVSPropertyOp21
 70
     0
102
RTVSPropertyOp22
 70
     0
102
RTVSPropertyOp23
 70
     0
102
RTVSPropertyOp24
 70
     0
102
RTVSPropertyOp25
 70
     0
102
RTVSPropertyOp26
 70
     0
102
RTVSPropertyOp27
 70
     0
102
RTVSPropertyOp28
 70
     1
102
RTVSPropertyOp29
 70
     1
102
RTVSPropertyOp30
 70
     1
102
RTVSPropertyOp31
 70
     1
102
RTVSPropertyOp32
 70
     1
  0
XRECORD
  5
2BA05
102
{ACAD_REACTORS
330
2BA04
102
}
330
2BA04
100
AcDbXrecord
280
     1
102
RTVSPropertyOp0
 70
     1
102
RTVSPropertyOp1
 70
     1
102
RTVSPropertyOp2
 70
     1
102
RTVSPropertyOp3
 70
     1
102
RTVSPropertyOp4
 70
     1
102
RTVSPropertyOp5
 70
     1
102
RTVSPropertyOp6
 70
     1
102
RTVSPropertyOp7
 70
     1
102
RTVSPropertyOp8
 70
     1
102
RTVSPropertyOp9
 70
     1
102
RTVSPropertyOp10
 70
     1
102
RTVSPropertyOp11
 70
     1
102
RTVSPropertyOp12
 70
     1
102
RTVSPropertyOp13
 70
     1
102
RTVSPropertyOp14
 70
     1
102
RTVSPropertyOp15
 70
     1
102
RTVSPropertyOp16
 70
     1
102
RTVSPropertyOp17
 70
     1
102
RTVSPropertyOp18
 70
     1
102
RTVSPropertyOp19
 70
     1
102
RTVSPropertyOp20
 70
     1
102
RTVSPropertyOp21
 70
     1
102
RTVSPropertyOp22
 70
     1
102
RTVSPropertyOp23
 70
     1
102
RTVSPropertyOp24
 70
     1
102
RTVSPropertyOp25
 70
     1
102
RTVSPropertyOp26
 70
     1
102
RTVSPropertyOp27
 70
     1
102
RTVSPropertyOp28
 70
     1
102
RTVSPropertyOp29
 70
     1
102
RTVSPropertyOp30
 70
     1
102
RTVSPropertyOp31
 70
     1
102
RTVSPropertyOp32
 70
     1
  0
XRECORD
  5
2BA1B
102
{ACAD_REACTORS
330
2BA1A
102
}
330
2BA1A
100
AcDbXrecord
280
     1
102
RTVSPropertyOp0
 70
     1
102
RTVSPropertyOp1
 70
     1
102
RTVSPropertyOp2
 70
     1
102
RTVSPropertyOp3
 70
     1
102
RTVSPropertyOp4
 70
     1
102
RTVSPropertyOp5
 70
     1
102
RTVSPropertyOp6
 70
     1
102
RTVSPropertyOp7
 70
     1
102
RTVSPropertyOp8
 70
     1
102
RTVSPropertyOp9
 70
     1
102
RTVSPropertyOp10
 70
     1
102
RTVSPropertyOp11
 70
     1
102
RTVSPropertyOp12
 70
     1
102
RTVSPropertyOp13
 70
     1
102
RTVSPropertyOp14
 70
     1
102
RTVSPropertyOp15
 70
     1
102
RTVSPropertyOp16
 70
     1
102
RTVSPropertyOp17
 70
     1
102
RTVSPropertyOp18
 70
     1
102
RTVSPropertyOp19
 70
     1
102
RTVSPropertyOp20
 70
     1
102
RTVSPropertyOp21
 70
     1
102
RTVSPropertyOp22
 70
     1
102
RTVSPropertyOp23
 70
     1
102
RTVSPropertyOp24
 70
     1
102
RTVSPropertyOp25
 70
     1
102
RTVSPropertyOp26
 70
     1
102
RTVSPropertyOp27
 70
     1
102
RTVSPropertyOp28
 70
     1
102
RTVSPropertyOp29
 70
     1
102
RTVSPropertyOp30
 70
     1
102
RTVSPropertyOp31
 70
     1
102
RTVSPropertyOp32
 70
     1
  0
XRECORD
  5
2BA19
102
{ACAD_REACTORS
330
2BA18
102
}
330
2BA18
100
AcDbXrecord
280
     1
102
RTVSPropertyOp0
 70
     1
102
RTVSPropertyOp1
 70
     1
102
RTVSPropertyOp2
 70
     1
102
RTVSPropertyOp3
 70
     1
102
RTVSPropertyOp4
 70
     1
102
RTVSPropertyOp5
 70
     1
102
RTVSPropertyOp6
 70
     1
102
RTVSPropertyOp7
 70
     1
102
RTVSPropertyOp8
 70
     1
102
RTVSPropertyOp9
 70
     1
102
RTVSPropertyOp10
 70
     1
102
RTVSPropertyOp11
 70
     1
102
RTVSPropertyOp12
 70
     1
102
RTVSPropertyOp13
 70
     1
102
RTVSPropertyOp14
 70
     1
102
RTVSPropertyOp15
 70
     1
102
RTVSPropertyOp16
 70
     1
102
RTVSPropertyOp17
 70
     1
102
RTVSPropertyOp18
 70
     1
102
RTVSPropertyOp19
 70
     1
102
RTVSPropertyOp20
 70
     1
102
RTVSPropertyOp21
 70
     1
102
RTVSPropertyOp22
 70
     1
102
RTVSPropertyOp23
 70
     1
102
RTVSPropertyOp24
 70
     1
102
RTVSPropertyOp25
 70
     1
102
RTVSPropertyOp26
 70
     1
102
RTVSPropertyOp27
 70
     1
102
RTVSPropertyOp28
 70
     1
102
RTVSPropertyOp29
 70
     1
102
RTVSPropertyOp30
 70
     1
102
RTVSPropertyOp31
 70
     1
102
RTVSPropertyOp32
 70
     1
  0
XRECORD
  5
2BA13
102
{ACAD_REACTORS
330
2BA12
102
}
330
2BA12
100
AcDbXrecord
280
     1
102
RTVSPropertyOp0
 70
     1
102
RTVSPropertyOp1
 70
     1
102
RTVSPropertyOp2
 70
     1
102
RTVSPropertyOp3
 70
     1
102
RTVSPropertyOp4
 70
     1
102
RTVSPropertyOp5
 70
     1
102
RTVSPropertyOp6
 70
     1
102
RTVSPropertyOp7
 70
     1
102
RTVSPropertyOp8
 70
     1
102
RTVSPropertyOp9
 70
     1
102
RTVSPropertyOp10
 70
     1
102
RTVSPropertyOp11
 70
     1
102
RTVSPropertyOp12
 70
     1
102
RTVSPropertyOp13
 70
     1
102
RTVSPropertyOp14
 70
     1
102
RTVSPropertyOp15
 70
     1
102
RTVSPropertyOp16
 70
     1
102
RTVSPropertyOp17
 70
     1
102
RTVSPropertyOp18
 70
     1
102
RTVSPropertyOp19
 70
     1
102
RTVSPropertyOp20
 70
     1
102
RTVSPropertyOp21
 70
     1
102
RTVSPropertyOp22
 70
     1
102
RTVSPropertyOp23
 70
     1
102
RTVSPropertyOp24
 70
     1
102
RTVSPropertyOp25
 70
     1
102
RTVSPropertyOp26
 70
     1
102
RTVSPropertyOp27
 70
     1
102
RTVSPropertyOp28
 70
     1
102
RTVSPropertyOp29
 70
     1
102
RTVSPropertyOp30
 70
     1
102
RTVSPropertyOp31
 70
     1
102
RTVSPropertyOp32
 70
     1
  0
XRECORD
  5
2BA15
102
{ACAD_REACTORS
330
2BA14
102
}
330
2BA14
100
AcDbXrecord
280
     1
102
RTVSPropertyOp0
 70
     1
102
RTVSPropertyOp1
 70
     1
102
RTVSPropertyOp2
 70
     1
102
RTVSPropertyOp3
 70
     1
102
RTVSPropertyOp4
 70
     1
102
RTVSPropertyOp5
 70
     1
102
RTVSPropertyOp6
 70
     1
102
RTVSPropertyOp7
 70
     1
102
RTVSPropertyOp8
 70
     1
102
RTVSPropertyOp9
 70
     1
102
RTVSPropertyOp10
 70
     1
102
RTVSPropertyOp11
 70
     1
102
RTVSPropertyOp12
 70
     1
102
RTVSPropertyOp13
 70
     1
102
RTVSPropertyOp14
 70
     1
102
RTVSPropertyOp15
 70
     1
102
RTVSPropertyOp16
 70
     1
102
RTVSPropertyOp17
 70
     1
102
RTVSPropertyOp18
 70
     1
102
RTVSPropertyOp19
 70
     1
102
RTVSPropertyOp20
 70
     1
102
RTVSPropertyOp21
 70
     1
102
RTVSPropertyOp22
 70
     1
102
RTVSPropertyOp23
 70
     1
102
RTVSPropertyOp24
 70
     1
102
RTVSPropertyOp25
 70
     1
102
RTVSPropertyOp26
 70
     1
102
RTVSPropertyOp27
 70
     1
102
RTVSPropertyOp28
 70
     1
102
RTVSPropertyOp29
 70
     1
102
RTVSPropertyOp30
 70
     1
102
RTVSPropertyOp31
 70
     1
102
RTVSPropertyOp32
 70
     1
  0
XRECORD
  5
2BA0B
102
{ACAD_REACTORS
330
2BA0A
102
}
330
2BA0A
100
AcDbXrecord
280
     1
102
RTVSPropertyOp0
 70
     1
102
RTVSPropertyOp1
 70
     1
102
RTVSPropertyOp2
 70
     1
102
RTVSPropertyOp3
 70
     1
102
RTVSPropertyOp4
 70
     1
102
RTVSPropertyOp5
 70
     1
102
RTVSPropertyOp6
 70
     1
102
RTVSPropertyOp7
 70
     1
102
RTVSPropertyOp8
 70
     1
102
RTVSPropertyOp9
 70
     1
102
RTVSPropertyOp10
 70
     1
102
RTVSPropertyOp11
 70
     1
102
RTVSPropertyOp12
 70
     1
102
RTVSPropertyOp13
 70
     1
102
RTVSPropertyOp14
 70
     1
102
RTVSPropertyOp15
 70
     1
102
RTVSPropertyOp16
 70
     1
102
RTVSPropertyOp17
 70
     1
102
RTVSPropertyOp18
 70
     1
102
RTVSPropertyOp19
 70
     1
102
RTVSPropertyOp20
 70
     1
102
RTVSPropertyOp21
 70
     1
102
RTVSPropertyOp22
 70
     1
102
RTVSPropertyOp23
 70
     1
102
RTVSPropertyOp24
 70
     1
102
RTVSPropertyOp25
 70
     1
102
RTVSPropertyOp26
 70
     1
102
RTVSPropertyOp27
 70
     1
102
RTVSPropertyOp28
 70
     1
102
RTVSPropertyOp29
 70
     1
102
RTVSPropertyOp30
 70
     1
102
RTVSPropertyOp31
 70
     1
102
RTVSPropertyOp32
 70
     1
  0
XRECORD
  5
2B9FF
102
{ACAD_REACTORS
330
2B9FE
102
}
330
2B9FE
100
AcDbXrecord
280
     1
102
RTVSPropertyOp0
 70
     1
102
RTVSPropertyOp1
 70
     1
102
RTVSPropertyOp2
 70
     1
102
RTVSPropertyOp3
 70
     1
102
RTVSPropertyOp4
 70
     1
102
RTVSPropertyOp5
 70
     1
102
RTVSPropertyOp6
 70
     1
102
RTVSPropertyOp7
 70
     1
102
RTVSPropertyOp8
 70
     1
102
RTVSPropertyOp9
 70
     1
102
RTVSPropertyOp10
 70
     1
102
RTVSPropertyOp11
 70
     1
102
RTVSPropertyOp12
 70
     1
102
RTVSPropertyOp13
 70
     1
102
RTVSPropertyOp14
 70
     1
102
RTVSPropertyOp15
 70
     1
102
RTVSPropertyOp16
 70
     1
102
RTVSPropertyOp17
 70
     1
102
RTVSPropertyOp18
 70
     1
102
RTVSPropertyOp19
 70
     1
102
RTVSPropertyOp20
 70
     1
102
RTVSPropertyOp21
 70
     1
102
RTVSPropertyOp22
 70
     1
102
RTVSPropertyOp23
 70
     1
102
RTVSPropertyOp24
 70
     1
102
RTVSPropertyOp25
 70
     1
102
RTVSPropertyOp26
 70
     1
102
RTVSPropertyOp27
 70
     1
102
RTVSPropertyOp28
 70
     1
102
RTVSPropertyOp29
 70
     1
102
RTVSPropertyOp30
 70
     1
102
RTVSPropertyOp31
 70
     1
102
RTVSPropertyOp32
 70
     1
  0
XRECORD
  5
2BA17
102
{ACAD_REACTORS
330
2BA16
102
}
330
2BA16
100
AcDbXrecord
280
     1
102
RTVSPropertyOp0
 70
     1
102
RTVSPropertyOp1
 70
     1
102
RTVSPropertyOp2
 70
     1
102
RTVSPropertyOp3
 70
     1
102
RTVSPropertyOp4
 70
     1
102
RTVSPropertyOp5
 70
     1
102
RTVSPropertyOp6
 70
     1
102
RTVSPropertyOp7
 70
     1
102
RTVSPropertyOp8
 70
     1
102
RTVSPropertyOp9
 70
     1
102
RTVSPropertyOp10
 70
     1
102
RTVSPropertyOp11
 70
     1
102
RTVSPropertyOp12
 70
     1
102
RTVSPropertyOp13
 70
     1
102
RTVSPropertyOp14
 70
     1
102
RTVSPropertyOp15
 70
     1
102
RTVSPropertyOp16
 70
     1
102
RTVSPropertyOp17
 70
     1
102
RTVSPropertyOp18
 70
     1
102
RTVSPropertyOp19
 70
     1
102
RTVSPropertyOp20
 70
     1
102
RTVSPropertyOp21
 70
     1
102
RTVSPropertyOp22
 70
     1
102
RTVSPropertyOp23
 70
     1
102
RTVSPropertyOp24
 70
     1
102
RTVSPropertyOp25
 70
     1
102
RTVSPropertyOp26
 70
     1
102
RTVSPropertyOp27
 70
     1
102
RTVSPropertyOp28
 70
     1
102
RTVSPropertyOp29
 70
     1
102
RTVSPropertyOp30
 70
     1
102
RTVSPropertyOp31
 70
     1
102
RTVSPropertyOp32
 70
     1
  0
ENDSEC
  0
EOF
