  0
SECTION
  2
HEADER
  9
$ACADVER
  1
AC1009
  9
$INSBASE
 10
0
 20
0
 30
0
  9
$EXTMIN
 10
0
 20
0
  9
$EXTMAX
 10
210.25
 20
148.5
  9
$LIMMIN
 10
0
 20
0
  9
$LIMMAX
 10
210.25
 20
148.5
  9
$LTSCALE
 40
0.25
  0
ENDSEC
  0
SECTION
  2
TABLES
  0
TABLE
  2
LTYPE
 70
     9
  0
LTYPE
  2
CONTINUOUS
 70
    64
  3
実線
 72
    65
 73
     0
 40
0.0
  0
LTYPE
  2
DASHED1
 70
    64
  3
--  --  --  --  --  --  --  --  
 72
    65
 73
     2
 40
2.5
 49
1.25
 49
-1.25
  0
LTYPE
  2
DASHED2
 70
    64
  3
----    ----    ----    ----    
 72
    65
 73
     2
 40
5.0
 49
2.5
 49
-2.5
  0
LTYPE
  2
DASHED3
 70
    64
  3
------  ------  ------  ------  
 72
    65
 73
     2
 40
5.0
 49
3.75
 49
-1.25
  0
LTYPE
  2
CENTER1
 70
    64
  3
----- - ----- - ----- - ----- - 
 72
    65
 73
     4
 40
10.0
 49
6.25
 49
-1.25
 49
1.25
 49
-1.25
  0
LTYPE
  2
CENTER2
 70
    64
  3
----------  --  ----------  --  
 72
    65
 73
     4
 40
20.0
 49
12.5
 49
-2.5
 49
2.5
 49
-2.5
  0
LTYPE
  2
PHANTOM1
 70
    64
  3
--- - - --- - - --- - - --- - - 
 72
    65
 73
     6
 40
10.0
 49
3.25
 49
-1.25
 49
1.25
 49
-1.25
 49
1.25
 49
-1.25
  0
LTYPE
  2
PHANTOM2
 70
    64
  3
--------  -  -  --------  -  -  
 72
    65
 73
     6
 40
20.0
 49
10.0
 49
-2.5
 49
1.25
 49
-2.5
 49
1.25
 49
-2.5
  0
LTYPE
  2
DOT
 70
    64
  3
-   -   -   -   -   -   -   -   
 72
    65
 73
     2
 40
2.5
 49
0.625
 49
-1.875
  0
LTYPE
  2
DUMMY
 70
    64
  3
ダミー
 72
    65
 73
     0
 40
0.0
  0
LTYPE
  2
RAND1
 70
    64
  3
ランダム線1
 72
    65
 73
     4
 40
10.0
 49
1.0
 49
-2.0
 49
3.0
 49
-4.0
  0
LTYPE
  2
RAND2
 70
    64
  3
ランダム線2
 72
    65
 73
     4
 40
14.0
 49
2.0
 49
-3.0
 49
4.0
 49
-5.0
  0
LTYPE
  2
RAND3
 70
    64
  3
ランダム線3
 72
    65
 73
     4
 40
18.0
 49
3.0
 49
-4.0
 49
5.0
 49
-6.0
  0
LTYPE
  2
RAND4
 70
    64
  3
ランダム線4
 72
    65
 73
     4
 40
22.0
 49
4.0
 49
-5.0
 49
6.0
 49
-7.0
  0
LTYPE
  2
RAND5
 70
    64
  3
ランダム線5
 72
    65
 73
     4
 40
26.0
 49
5.0
 49
-6.0
 49
7.0
 49
-8.0
  0
LTYPE
  2
LONG1
 70
    64
  3
----------  --  ----------  --  
 72
    65
 73
     4
 40
40.0
 49
32.5
 49
-2.5
 49
2.5
 49
-2.5
  0
LTYPE
  2
LONG2
 70
    64
  3
--------  -  -  --------  -  -  
 72
    65
 73
     6
 40
40.0
 49
30.0
 49
-2.5
 49
1.25
 49
-2.5
 49
1.25
 49
-2.5
  0
LTYPE
  2
LONG3
 70
    64
  3
+++++++++++++++..+++++++++++++++
 72
    65
 73
     2
 40
40.0
 49
37.5
 49
-2.5
  0
LTYPE
  2
LONG4
 70
    64
  3
+++++++++++++++..+++++++++++++++
 72
    65
 73
     2
 40
80.0
 49
75.0
 49
-5.0
  0
LTYPE
  2
LONG5
 70
    64
  3
----------  --  ----------  --  
 72
    65
 73
     4
 40
60.0
 49
37.5
 49
-7.5
 49
7.5
 49
-7.5
  0
LTYPE
  2
dashed
 70
   64
  3
-------   -------------   ------
 72
   65
 73
    2
 40
7.5
 49
6
 49
-1.5
  0
LTYPE
  2
dashed_spaced
 70
   64
  3
----        --------        ----
 72
   65
 73
    2
 40
12
 49
6
 49
-6
  0
LTYPE
  2
long_dashed_dotted
 70
   64
  3
------------- --- --------------
 72
   65
 73
    4
 40
15.25
 49
12
 49
-1.5
 49
0.25
 49
-1.5
  0
LTYPE
  2
long_dashed_double-dotted
 70
   64
  3
----------- --- --- ------------
 72
   65
 73
    6
 40
17
 49
12
 49
-1.5
 49
0.25
 49
-1.5
 49
0.25
 49
-1.5
  0
LTYPE
  2
long_dashed_triplicate-dotted
 70
   64
  3
--------- --- --- --- ----------
 72
   65
 73
    8
 40
18.75
 49
12
 49
-1.5
 49
0.25
 49
-1.5
 49
0.25
 49
-1.5
 49
0.25
 49
-1.5
  0
LTYPE
  2
dotted
 70
   64
  3
   -       -       -       -    
 72
   65
 73
    2
 40
1.75
 49
0.25
 49
-1.5
  0
LTYPE
  2
chain
 70
   64
  3
-------------- -- --------------
 72
   65
 73
    4
 40
18.5
 49
12
 49
-1.5
 49
3.5
 49
-1.5
  0
LTYPE
  2
chain_double_dash
 70
   64
  3
------------ -- -- -------------
 72
   65
 73
    6
 40
23.5
 49
12
 49
-1.5
 49
3.5
 49
-1.5
 49
3.5
 49
-1.5
  0
LTYPE
  2
dashed_dotted
 70
   64
  3
-----------     -     ----------
 72
   65
 73
    4
 40
9.25
 49
6
 49
-1.5
 49
0.25
 49
-1.5
  0
LTYPE
  2
double-dashed_dotted
 70
   64
  3
------   -----------   -   -----
 72
   65
 73
    6
 40
16.75
 49
6
 49
-1.5
 49
6
 49
-1.5
 49
0.25
 49
-1.5
  0
LTYPE
  2
dashed_double-dotted
 70
   64
  3
---------    -    -    ---------
 72
   65
 73
    6
 40
11
 49
6
 49
-1.5
 49
0.25
 49
-1.5
 49
0.25
 49
-1.5
  0
LTYPE
  2
double-dashed_double-dotted
 70
   64
  3
-----   ---------   -   -   ----
 72
   65
 73
    8
 40
18.5
 49
6
 49
-1.5
 49
6
 49
-1.5
 49
0.25
 49
-1.5
 49
0.25
 49
-1.5
  0
LTYPE
  2
dashed_triplicate-dotted
 70
   64
  3
-------    -    -    -    ------
 72
   65
 73
    8
 40
12.75
 49
6
 49
-1.5
 49
0.25
 49
-1.5
 49
0.25
 49
-1.5
 49
0.25
 49
-1.5
  0
LTYPE
  2
double-dashed_triplicate-dotted
 70
   64
  3
-----  ---------  -  -  -  -----
 72
   65
 73
   10
 40
20.25
 49
6
 49
-1.5
 49
6
 49
-1.5
 49
0.25
 49
-1.5
 49
0.25
 49
-1.5
 49
0.25
 49
-1.5
  0
LTYPE
  2
undefined
 70
   64
  3
--------------------------------
 72
   65
 73
    0
 40
0
  0
LTYPE
  2
_
 70
   64
  3
                                
 72
   65
 73
    0
 40
0
  0
LTYPE
  2
__18
 70
   64
  3
                                
 72
   65
 73
    0
 40
0
  0
LTYPE
  2
__19
 70
   64
  3
                                
 72
   65
 73
    0
 40
0
  0
LTYPE
  2
__20
 70
   64
  3
                                
 72
   65
 73
    0
 40
0
  0
LTYPE
  2
__21
 70
   64
  3
                                
 72
   65
 73
    0
 40
0
  0
LTYPE
  2
__22
 70
   64
  3
                                
 72
   65
 73
    0
 40
0
  0
LTYPE
  2
__23
 70
   64
  3
                                
 72
   65
 73
    0
 40
0
  0
LTYPE
  2
__24
 70
   64
  3
                                
 72
   65
 73
    0
 40
0
  0
LTYPE
  2
__25
 70
   64
  3
                                
 72
   65
 73
    0
 40
0
  0
LTYPE
  2
__26
 70
   64
  3
                                
 72
   65
 73
    0
 40
0
  0
LTYPE
  2
__27
 70
   64
  3
                                
 72
   65
 73
    0
 40
0
  0
LTYPE
  2
__28
 70
   64
  3
                                
 72
   65
 73
    0
 40
0
  0
LTYPE
  2
__29
 70
   64
  3
                                
 72
   65
 73
    0
 40
0
  0
LTYPE
  2
__30
 70
   64
  3
                                
 72
   65
 73
    0
 40
0
  0
LTYPE
  2
__31
 70
   64
  3
                                
 72
   65
 73
    0
 40
0
  0
LTYPE
  2
__32
 70
   64
  3
                                
 72
   65
 73
    0
 40
0
  0
ENDTAB
  0
TABLE
  2
STYLE
  5
3
100
AcDbSymbolTable
 70
     1
  0
STYLE
  5
10
100
AcDbSymbolTableRecord
100
AcDbTextStyleTableRecord
  2
STANDARD
 70
     0
 40
0.0
 41
1.0
 50
0.0
 71
     0
 42
0.2
  3
txt
  4
bigfont.shx
  0
STYLE
  5
26
100
AcDbSymbolTableRecord
100
AcDbTextStyleTableRecord
  2
TATEGAKI
 70
    68
 40
0.0
 41
1.0
 50
0.0
 71
     0
 42
1.0
  3
txt
  4
bigfont.shx
  0
ENDTAB
  0
TABLE
  2
LAYER
 70
    5
  0
LAYER
  2
_0-2_寸法
 70
   64
 62
    7
  6
CONTINUOUS
  0
LAYER
  2
_0-3_躯体と製品
 70
   64
 62
    7
  6
CONTINUOUS
  0
LAYER
  2
_0-4_文字-記号
 70
   64
 62
    7
  6
CONTINUOUS
  0
LAYER
  2
_0-5_中心線
 70
   64
 62
    7
  6
CONTINUOUS
  0
LAYER
  2
ADD_LINE
 70
   64
 62
    7
  6
CONTINUOUS
  0
ENDTAB
  0
ENDSEC
  0
SECTION
  2
BLOCKS
  0
BLOCK
  2
-000-_Small
 70
   64
 10
0
 20
0
 30
0
  0
CIRCLE
  8
_0-0_0
  6
CONTINUOUS
 62
    7
 10
0
 20
0
 40
0.25
  0
ENDBLK
  0
BLOCK
  2
-002-_D2
 70
   64
 10
0
 20
0
 30
0
  0
LINE
  8
_0-2_寸法
  6
CONTINUOUS
 62
    4
 10
-690.04834163169642
 20
2899.3173728977008
 11
-681.08768112296525
 21
2899.3173728977008
  0
LINE
  8
_0-2_寸法
  6
CONTINUOUS
 62
    4
 10
-690.04834163169642
 20
2919.3173728977008
 11
-681.08768112296525
 21
2919.3173728977008
  0
LINE
  8
_0-2_寸法
  6
CONTINUOUS
 62
    4
 10
-681.08768112296525
 20
2899.3173728977008
 11
-681.08768112296525
 21
2919.3173728977008
  0
INSERT
  2
-000-_Small
  8
_0-2_寸法
 10
-681.08768112296525
 20
2899.3173728977008
 41
5
 42
5
 50
270
  0
INSERT
  2
-000-_Small
  8
_0-2_寸法
 10
-681.08768112296525
 20
2919.3173728977008
 41
5
 42
5
 50
90
  0
TEXT
  8
_0-2_寸法
 62
    7
 10
-684.08768112296582
 20
2906.0673728976999
 40
6.5
 41
1
 50
90
  1
20
  0
POINT
  8
_0-1_Defpoints
 62
    7
 10
-690.04834163169642
 20
2899.3173728977008
  0
POINT
  8
_0-1_Defpoints
 62
    7
 10
-690.04834163169642
 20
2919.3173728977008
  0
POINT
  8
_0-1_Defpoints
 62
    7
 10
-681.08768112296525
 20
2919.3173728977008
  0
ENDBLK
  0
ENDSEC
  0
SECTION
  2
ENTITIES
  0
LINE
  8
_0-3_躯体と製品
  6
CONTINUOUS
 62
    4
 10
134.20546993664595
 20
49.060559816518889
 11
48.205469936645954
 21
49.060559816518889
  0
LINE
  8
_0-3_躯体と製品
  6
CONTINUOUS
 62
    4
 10
48.205469936645954
 20
49.060559816518889
 11
48.205469936645954
 21
45.860559816535897
  0
LINE
  8
_0-3_躯体と製品
  6
CONTINUOUS
 62
    4
 10
48.205469936645954
 20
45.860559816535897
 11
134.20546993664595
 21
45.860559816535897
  0
LINE
  8
_0-3_躯体と製品
  6
CONTINUOUS
 62
    4
 10
134.20546993664595
 20
45.860559816535897
 11
134.20546993664595
 21
49.060559816518889
  0
LINE
  8
_0-3_躯体と製品
  6
CONTINUOUS
 62
    4
 10
99.205469936645954
 20
65.060559816518889
 11
99.205469936645954
 21
63.160559816524255
  0
LINE
  8
_0-3_躯体と製品
  6
CONTINUOUS
 62
    4
 10
83.205469936645954
 20
65.060559816518889
 11
83.205469936645954
 21
63.160559816524255
  0
LINE
  8
_0-3_躯体と製品
  6
CONTINUOUS
 62
    4
 10
83.205469936645954
 20
63.160559816524255
 11
99.205469936645954
 21
63.160559816524255
  0
LINE
  8
_0-3_躯体と製品
  6
CONTINUOUS
 62
    4
 10
69.205469936645954
 20
49.060559816518889
 11
78.555896698777929
 21
59.487369751709139
  0
ARC
  8
_0-3_躯体と製品
  6
CONTINUOUS
 62
    4
 10
78.934308202636956
 20
59.160559816560372
 40
0.4999999999647942
 50
90.000000000125638
 51
139.18491612531025
  0
LINE
  8
_0-3_躯体と製品
  6
CONTINUOUS
 62
    4
 10
78.934308202635862
 20
59.660559816525165
 11
103.47663167071426
 21
59.660559816525165
  0
ARC
  8
_0-3_躯体と製品
  6
CONTINUOUS
 62
    4
 10
103.47663167071322
 20
59.160559816560244
 40
0.4999999999649184
 50
40.815083874696249
 51
89.999999999880856
  0
LINE
  8
_0-3_躯体と製品
  6
CONTINUOUS
 62
    4
 10
103.8550431745723
 20
59.487369751709139
 11
113.20546993664595
 21
49.060559816518889
  0
LINE
  8
_0-3_躯体と製品
  6
CONTINUOUS
 62
    4
 10
99.205469936645954
 20
65.060559816518889
 11
99.205469936645954
 21
63.160559816524255
  0
LINE
  8
_0-3_躯体と製品
  6
CONTINUOUS
 62
    4
 10
78.205469936645954
 20
38.06055981651798
 11
75.205469936645954
 21
35.060559816518889
  0
LINE
  8
_0-3_躯体と製品
  6
CONTINUOUS
 62
    4
 10
75.205469936645954
 20
35.060559816518889
 11
70.205469936645954
 21
10.06055981651798
  0
LINE
  8
_0-3_躯体と製品
  6
CONTINUOUS
 62
    4
 10
70.205469936645954
 20
10.06055981651798
 11
71.205469936645954
 21
9.0605598165188894
  0
LINE
  8
_0-3_躯体と製品
  6
CONTINUOUS
 62
    4
 10
71.205469936645954
 20
9.0605598165188894
 11
111.20546993664607
 21
9.0605598165188894
  0
LINE
  8
_0-3_躯体と製品
  6
CONTINUOUS
 62
    4
 10
111.20546993664607
 20
9.0605598165188894
 11
112.20546993664595
 21
10.06055981651798
  0
LINE
  8
_0-3_躯体と製品
  6
CONTINUOUS
 62
    4
 10
112.20546993664595
 20
10.06055981651798
 11
107.20546993664607
 21
35.060559816518889
  0
LINE
  8
_0-3_躯体と製品
  6
CONTINUOUS
 62
    4
 10
107.20546993664607
 20
35.060559816518889
 11
104.20546993664595
 21
38.06055981651798
  0
LINE
  8
_0-3_躯体と製品
  6
CONTINUOUS
 62
    4
 10
104.20546993664595
 20
38.06055981651798
 11
78.205469936645954
 21
38.06055981651798
  0
LINE
  8
_0-3_躯体と製品
  6
CONTINUOUS
 62
    4
 10
75.205469936645954
 20
35.060559816518889
 11
107.20546993664607
 21
35.060559816518889
  0
LINE
  8
_0-3_躯体と製品
  6
CONTINUOUS
 62
    4
 10
83.205469936645954
 20
65.060559816518889
 11
99.205469936645954
 21
65.060559816518889
  0
LINE
  8
_0-3_躯体と製品
  6
CONTINUOUS
 62
    4
 10
69.205469936645954
 20
49.060559816518889
 11
69.205469936645954
 21
69.060559816518889
  0
LINE
  8
_0-3_躯体と製品
  6
CONTINUOUS
 62
    4
 10
113.20546993664595
 20
49.060559816518889
 11
113.20546993664595
 21
69.060559816518889
  0
LINE
  8
_0-3_躯体と製品
  6
CONTINUOUS
 62
    4
 10
70.205469936645954
 20
10.06055981651798
 11
112.20546993664595
 21
10.06055981651798
  0
LINE
  8
_0-3_躯体と製品
  6
CONTINUOUS
 62
    4
 10
83.205469936645954
 20
45.860559816535897
 11
83.205469936645954
 21
43.06055981651798
  0
LINE
  8
_0-3_躯体と製品
  6
CONTINUOUS
 62
    4
 10
83.205469936645954
 20
43.06055981651798
 11
99.205469936645954
 21
43.06055981651798
  0
LINE
  8
_0-3_躯体と製品
  6
CONTINUOUS
 62
    4
 10
99.205469936645954
 20
43.06055981651798
 11
99.205469936645954
 21
45.860559816535897
  0
LINE
  8
_0-3_躯体と製品
  6
CONTINUOUS
 62
    4
 10
85.205469936645954
 20
43.06055981651798
 11
85.205469936645954
 21
38.06055981651798
  0
LINE
  8
_0-3_躯体と製品
  6
CONTINUOUS
 62
    4
 10
97.205469936645954
 20
43.06055981651798
 11
97.205469936645954
 21
38.06055981651798
  0
LINE
  8
_0-3_躯体と製品
  6
CONTINUOUS
 62
    4
 10
96.205469936645954
 20
43.06055981651798
 11
96.205469936645954
 21
38.06055981651798
  0
LINE
  8
_0-3_躯体と製品
  6
CONTINUOUS
 62
    4
 10
86.205469936646068
 20
43.06055981651798
 11
86.205469936646068
 21
38.06055981651798
  0
LINE
  8
_0-3_躯体と製品
  6
CONTINUOUS
 62
    4
 10
-53.794530063354159
 20
99.060559816518889
 11
236.20546993664607
 21
99.060559816518889
  0
LINE
  8
_0-3_躯体と製品
  6
CONTINUOUS
 62
    3
 10
-53.794530063354159
 20
73.060559816518889
 11
236.20546993664607
 21
73.060559816518889
  0
LINE
  8
_0-3_躯体と製品
  6
CONTINUOUS
 62
    3
 10
-53.794530063354159
 20
77.060559816518889
 11
236.20546993664607
 21
77.060559816518889
  0
LINE
  8
_0-3_躯体と製品
  6
CONTINUOUS
 62
    4
 10
-53.794530063354159
 20
81.060559816518889
 11
236.20546993664607
 21
81.060559816518889
  0
TEXT
  8
_0-4_文字-記号
 62
    7
 10
119.91630798190522
 20
-17.613185475897808
 40
6.5
 41
1
 50
0
  1
クッションゴムＴＧ
  0
TEXT
  8
_0-4_文字-記号
 62
    7
 10
30.974629829890318
 20
23.903148576350304
 40
6.5
 41
1
 50
0
  1
調整ボルト
  0
LINE
  8
_0-4_文字-記号
  6
CONTINUOUS
 62
    7
 10
19.761935560548181
 20
49.060559816518889
 11
10.369808270177828
 21
32.792918158443172
  0
LINE
  8
_0-4_文字-記号
  6
CONTINUOUS
 62
    7
 10
10.369808270177828
 20
32.792918158443172
 11
-38.268833396389482
 21
32.792918158443172
  0
TEXT
  8
_0-4_文字-記号
 62
    7
 10
-37.669629473832856
 20
35.604788756353173
 40
6.5
 41
1
 50
0
  1
シートパネル
  0
TEXT
  8
_0-4_文字-記号
 62
    7
 10
123.07342176758652
 20
25.055066362660909
 40
6.5
 41
1
 50
0
  1
調整ナット
  0
LINE
  8
_0-4_文字-記号
  6
CONTINUOUS
 62
    7
 10
85.205469936646182
 20
40.56055981651798
 11
74.302142194601174
 21
21.675442195722098
  0
LINE
  8
_0-4_文字-記号
  6
CONTINUOUS
 62
    7
 10
74.302142194601174
 20
21.675442195722098
 11
23.319003090713409
 21
21.675442195722098
  0
INSERT
  2
-002-_D2
  8
_0-2_寸法
 10
839.21217623199527
 20
-2850.2568130811819
 41
1
 42
1
 50
0
  0
TEXT
  8
_0-4_文字-記号
 62
    7
 10
-55.16060114931372
 20
155.50262047589604
 40
13
 41
0.9000000000000001
 50
0
  1
■メタルベース：SLタイプ（低床用）
  0
LINE
  8
_0-4_文字-記号
  6
CONTINUOUS
 62
    7
 10
91.205469936646068
 20
99.060559816518889
 11
109.97455221051928
 21
131.56956392630718
  0
LINE
  8
_0-4_文字-記号
  6
CONTINUOUS
 62
    7
 10
109.97455221051928
 20
131.56956392630718
 11
184.03882776653768
 21
131.56956392630718
  0
TEXT
  8
_0-4_文字-記号
 62
    7
 10
116.69487164891029
 20
133.39984520399503
 40
6.5
 41
1
 50
0
  1
フローリング貼り
  0
LINE
  8
_0-4_文字-記号
  6
CONTINUOUS
 62
    7
 10
107.32627802794752
 20
77.060559816518889
 11
126.68439597046086
 21
110.58980363186311
  0
LINE
  8
_0-4_文字-記号
  6
CONTINUOUS
 62
    7
 10
126.68439597046086
 20
110.58980363186311
 11
171.72734789649326
 21
110.58980363186311
  0
TEXT
  8
_0-4_文字-記号
 62
    7
 10
135.07082049322059
 20
112.42008490955095
 40
6.5
 41
1
 50
0
  1
捨板貼り
  0
LINE
  8
_0-4_文字-記号
  6
CONTINUOUS
 62
    7
 10
107.4080294570656
 20
45.860559816507248
 11
120.799627767586
 21
22.665631362660861
  0
LINE
  8
_0-4_文字-記号
  6
CONTINUOUS
 62
    7
 10
120.799627767586
 20
22.665631362660861
 11
159.15635187606802
 21
22.665631362660861
  0
LINE
  8
_0-3_躯体と製品
  6
CONTINUOUS
 62
    4
 10
161.20547184399459
 20
9.0605598165188894
 11
146.20547184399459
 21
-5.9394401834820201
  0
LINE
  8
_0-3_躯体と製品
  6
CONTINUOUS
 62
    4
 10
166.20547184399459
 20
9.0605598165188894
 11
151.2054718439947
 21
-5.9394401834820201
  0
LINE
  8
_0-3_躯体と製品
  6
CONTINUOUS
 62
    4
 10
171.20547184399459
 20
9.0605598165188894
 11
156.2054718439947
 21
-5.9394401834820201
  0
LINE
  8
_0-3_躯体と製品
  6
CONTINUOUS
 62
    4
 10
11.205471843994701
 20
9.0605598165188894
 11
-3.794528156005299
 21
-5.9394401834820201
  0
LINE
  8
_0-3_躯体と製品
  6
CONTINUOUS
 62
    4
 10
16.205471843994587
 20
9.0605598165188894
 11
1.2054718439945873
 21
-5.9394401834820201
  0
LINE
  8
_0-3_躯体と製品
  6
CONTINUOUS
 62
    4
 10
21.205471843994701
 20
9.0605598165188894
 11
6.205471843994701
 21
-5.9394401834820201
  0
LINE
  8
_0-4_文字-記号
  6
CONTINUOUS
 62
    7
 10
97.724082985266932
 20
14.497113698246267
 11
117.64251398190459
 21
-20.002620475897857
  0
LINE
  8
_0-4_文字-記号
  6
CONTINUOUS
 62
    7
 10
117.64251398190459
 20
-20.002620475897857
 11
190.8760626565022
 21
-20.002620475897857
  0
LINE
  8
_0-3_躯体と製品
  6
CONTINUOUS
 62
    3
 10
30.623108228745537
 20
69.060559816518889
 11
10.62310822877464
 21
49.060559816518889
  0
LINE
  8
_0-3_躯体と製品
  6
CONTINUOUS
 62
    3
 10
25.623108228745537
 20
69.060559816518889
 11
5.6231082287455365
 21
49.060559816518889
  0
ARC
  8
_0-3_躯体と製品
  6
CONTINUOUS
 62
    4
 10
102.70546993664556
 20
63.160559816524767
 40
3.4999999999996021
 50
180.00000000000838
 51
270.00000000000841
  0
ARC
  8
_0-3_躯体と製品
  6
CONTINUOUS
 62
    4
 10
79.705469936646409
 20
63.16055981652471
 40
3.4999999999995453
 50
269.99999999999255
 51
359.99999999999255
  0
LINE
  8
_0-5_中心線
  6
CENTER1
 62
    7
 10
91.205469936645954
 20
7.2285598165240117
 11
91.205469936616851
 21
71.853118587698191
  0
LINE
  8
_0-3_躯体と製品
  6
CONTINUOUS
 62
    4
 10
-53.794530063354159
 20
69.060559816518889
 11
236.20546993664607
 21
69.060559816518889
  0
LINE
  8
_0-3_躯体と製品
  6
CONTINUOUS
 62
    4
 10
-53.794530063354159
 20
49.060559816518889
 11
236.20546993664607
 21
49.060559816518889
  0
LINE
  8
_0-3_躯体と製品
  6
CONTINUOUS
 62
    4
 10
-53.794530063354159
 20
9.0605598165188894
 11
236.20546993664607
 21
9.0605598165188894
  0
LINE
  8
_0-3_躯体と製品
  6
CONTINUOUS
 62
    3
 10
189.47967603659038
 20
69.060559816518889
 11
169.47967603661948
 21
49.060559816518889
  0
LINE
  8
_0-3_躯体と製品
  6
CONTINUOUS
 62
    3
 10
184.47967603656127
 20
69.060559816518889
 11
164.47967603659038
 21
49.060559816518889
  0
LINE
  8
_0-2_寸法
  6
CONTINUOUS
 62
    4
 10
238.20546993664595
 20
9.0605598165188894
 11
262.79453006335427
 21
9.0605598165188894
  0
LINE
  8
_0-2_寸法
  6
CONTINUOUS
 62
    4
 10
238.20546993664584
 20
69.060559816518889
 11
262.79453006335427
 21
69.060559816518889
  0
LINE
  8
_0-2_寸法
  6
CONTINUOUS
 62
    4
 10
262.79453006335427
 20
9.0605598165188894
 11
262.79453006335427
 21
69.060559816518889
  0
INSERT
  2
-000-_Small
  8
_0-2_寸法
 10
262.79453006335427
 20
9.0605598165188894
 41
5
 42
5
 50
270
  0
INSERT
  2
-000-_Small
  8
_0-2_寸法
 10
262.79453006335427
 20
69.060559816518889
 41
5
 42
5
 50
90
  0
POINT
  8
_0-2_寸法
 62
    7
 10
238.20546993664595
 20
9.0605598165188894
  0
POINT
  8
_0-2_寸法
 62
    7
 10
238.20546993664584
 20
69.060559816518889
  0
POINT
  8
_0-2_寸法
 62
    7
 10
262.79453006335427
 20
69.060559816518889
  0
TEXT
  8
_0-2_寸法
 62
    7
 10
260.54790249433108
 20
35.632653061224495
 40
6.5
 41
1
 50
90
  1
h
  0
ENDSEC
  0
EOF
