  0
SECTION
  2
HEADER
  9
$ACADVER
  1
AC1009
  9
$INSBASE
 10
0
 20
0
 30
0
  9
$EXTMIN
 10
0
 20
0
  9
$EXTMAX
 10
841
 20
594
  9
$LIMMIN
 10
0
 20
0
  9
$LIMMAX
 10
841
 20
594
  9
$LTSCALE
 40
1
  0
ENDSEC
  0
SECTION
  2
TABLES
  0
TABLE
  2
LTYPE
 70
     9
  0
LTYPE
  2
CONTINUOUS
 70
    64
  3
実線
 72
    65
 73
     0
 40
0.0
  0
LTYPE
  2
DASHED1
 70
    64
  3
--  --  --  --  --  --  --  --  
 72
    65
 73
     2
 40
2.5
 49
1.25
 49
-1.25
  0
LTYPE
  2
DASHED2
 70
    64
  3
----    ----    ----    ----    
 72
    65
 73
     2
 40
5.0
 49
2.5
 49
-2.5
  0
LTYPE
  2
DASHED3
 70
    64
  3
------  ------  ------  ------  
 72
    65
 73
     2
 40
5.0
 49
3.75
 49
-1.25
  0
LTYPE
  2
CENTER1
 70
    64
  3
----- - ----- - ----- - ----- - 
 72
    65
 73
     4
 40
10.0
 49
6.25
 49
-1.25
 49
1.25
 49
-1.25
  0
LTYPE
  2
CENTER2
 70
    64
  3
----------  --  ----------  --  
 72
    65
 73
     4
 40
20.0
 49
12.5
 49
-2.5
 49
2.5
 49
-2.5
  0
LTYPE
  2
PHANTOM1
 70
    64
  3
--- - - --- - - --- - - --- - - 
 72
    65
 73
     6
 40
10.0
 49
3.25
 49
-1.25
 49
1.25
 49
-1.25
 49
1.25
 49
-1.25
  0
LTYPE
  2
PHANTOM2
 70
    64
  3
--------  -  -  --------  -  -  
 72
    65
 73
     6
 40
20.0
 49
10.0
 49
-2.5
 49
1.25
 49
-2.5
 49
1.25
 49
-2.5
  0
LTYPE
  2
DOT
 70
    64
  3
-   -   -   -   -   -   -   -   
 72
    65
 73
     2
 40
2.5
 49
0.625
 49
-1.875
  0
LTYPE
  2
DUMMY
 70
    64
  3
ダミー
 72
    65
 73
     0
 40
0.0
  0
LTYPE
  2
RAND1
 70
    64
  3
ランダム線1
 72
    65
 73
     4
 40
10.0
 49
1.0
 49
-2.0
 49
3.0
 49
-4.0
  0
LTYPE
  2
RAND2
 70
    64
  3
ランダム線2
 72
    65
 73
     4
 40
14.0
 49
2.0
 49
-3.0
 49
4.0
 49
-5.0
  0
LTYPE
  2
RAND3
 70
    64
  3
ランダム線3
 72
    65
 73
     4
 40
18.0
 49
3.0
 49
-4.0
 49
5.0
 49
-6.0
  0
LTYPE
  2
RAND4
 70
    64
  3
ランダム線4
 72
    65
 73
     4
 40
22.0
 49
4.0
 49
-5.0
 49
6.0
 49
-7.0
  0
LTYPE
  2
RAND5
 70
    64
  3
ランダム線5
 72
    65
 73
     4
 40
26.0
 49
5.0
 49
-6.0
 49
7.0
 49
-8.0
  0
LTYPE
  2
LONG1
 70
    64
  3
----------  --  ----------  --  
 72
    65
 73
     4
 40
40.0
 49
32.5
 49
-2.5
 49
2.5
 49
-2.5
  0
LTYPE
  2
LONG2
 70
    64
  3
--------  -  -  --------  -  -  
 72
    65
 73
     6
 40
40.0
 49
30.0
 49
-2.5
 49
1.25
 49
-2.5
 49
1.25
 49
-2.5
  0
LTYPE
  2
LONG3
 70
    64
  3
+++++++++++++++..+++++++++++++++
 72
    65
 73
     2
 40
40.0
 49
37.5
 49
-2.5
  0
LTYPE
  2
LONG4
 70
    64
  3
+++++++++++++++..+++++++++++++++
 72
    65
 73
     2
 40
80.0
 49
75.0
 49
-5.0
  0
LTYPE
  2
LONG5
 70
    64
  3
----------  --  ----------  --  
 72
    65
 73
     4
 40
60.0
 49
37.5
 49
-7.5
 49
7.5
 49
-7.5
  0
LTYPE
  2
dashed
 70
   64
  3
-------   -------------   ------
 72
   65
 73
    2
 40
7.5
 49
6
 49
-1.5
  0
LTYPE
  2
dashed_spaced
 70
   64
  3
----        --------        ----
 72
   65
 73
    2
 40
12
 49
6
 49
-6
  0
LTYPE
  2
long_dashed_dotted
 70
   64
  3
------------- --- --------------
 72
   65
 73
    4
 40
15.25
 49
12
 49
-1.5
 49
0.25
 49
-1.5
  0
LTYPE
  2
long_dashed_double-dotted
 70
   64
  3
----------- --- --- ------------
 72
   65
 73
    6
 40
17
 49
12
 49
-1.5
 49
0.25
 49
-1.5
 49
0.25
 49
-1.5
  0
LTYPE
  2
long_dashed_triplicate-dotted
 70
   64
  3
--------- --- --- --- ----------
 72
   65
 73
    8
 40
18.75
 49
12
 49
-1.5
 49
0.25
 49
-1.5
 49
0.25
 49
-1.5
 49
0.25
 49
-1.5
  0
LTYPE
  2
dotted
 70
   64
  3
   -       -       -       -    
 72
   65
 73
    2
 40
1.75
 49
0.25
 49
-1.5
  0
LTYPE
  2
chain
 70
   64
  3
-------------- -- --------------
 72
   65
 73
    4
 40
18.5
 49
12
 49
-1.5
 49
3.5
 49
-1.5
  0
LTYPE
  2
chain_double_dash
 70
   64
  3
------------ -- -- -------------
 72
   65
 73
    6
 40
23.5
 49
12
 49
-1.5
 49
3.5
 49
-1.5
 49
3.5
 49
-1.5
  0
LTYPE
  2
dashed_dotted
 70
   64
  3
-----------     -     ----------
 72
   65
 73
    4
 40
9.25
 49
6
 49
-1.5
 49
0.25
 49
-1.5
  0
LTYPE
  2
double-dashed_dotted
 70
   64
  3
------   -----------   -   -----
 72
   65
 73
    6
 40
16.75
 49
6
 49
-1.5
 49
6
 49
-1.5
 49
0.25
 49
-1.5
  0
LTYPE
  2
dashed_double-dotted
 70
   64
  3
---------    -    -    ---------
 72
   65
 73
    6
 40
11
 49
6
 49
-1.5
 49
0.25
 49
-1.5
 49
0.25
 49
-1.5
  0
LTYPE
  2
double-dashed_double-dotted
 70
   64
  3
-----   ---------   -   -   ----
 72
   65
 73
    8
 40
18.5
 49
6
 49
-1.5
 49
6
 49
-1.5
 49
0.25
 49
-1.5
 49
0.25
 49
-1.5
  0
LTYPE
  2
dashed_triplicate-dotted
 70
   64
  3
-------    -    -    -    ------
 72
   65
 73
    8
 40
12.75
 49
6
 49
-1.5
 49
0.25
 49
-1.5
 49
0.25
 49
-1.5
 49
0.25
 49
-1.5
  0
LTYPE
  2
double-dashed_triplicate-dotted
 70
   64
  3
-----  ---------  -  -  -  -----
 72
   65
 73
   10
 40
20.25
 49
6
 49
-1.5
 49
6
 49
-1.5
 49
0.25
 49
-1.5
 49
0.25
 49
-1.5
 49
0.25
 49
-1.5
  0
LTYPE
  2
undefined
 70
   64
  3
--------------------------------
 72
   65
 73
    0
 40
0
  0
LTYPE
  2
_
 70
   64
  3
                                
 72
   65
 73
    0
 40
0
  0
LTYPE
  2
__18
 70
   64
  3
                                
 72
   65
 73
    0
 40
0
  0
LTYPE
  2
__19
 70
   64
  3
                                
 72
   65
 73
    0
 40
0
  0
LTYPE
  2
__20
 70
   64
  3
                                
 72
   65
 73
    0
 40
0
  0
LTYPE
  2
__21
 70
   64
  3
                                
 72
   65
 73
    0
 40
0
  0
LTYPE
  2
__22
 70
   64
  3
                                
 72
   65
 73
    0
 40
0
  0
LTYPE
  2
__23
 70
   64
  3
                                
 72
   65
 73
    0
 40
0
  0
LTYPE
  2
__24
 70
   64
  3
                                
 72
   65
 73
    0
 40
0
  0
LTYPE
  2
__25
 70
   64
  3
                                
 72
   65
 73
    0
 40
0
  0
LTYPE
  2
__26
 70
   64
  3
                                
 72
   65
 73
    0
 40
0
  0
LTYPE
  2
__27
 70
   64
  3
                                
 72
   65
 73
    0
 40
0
  0
LTYPE
  2
__28
 70
   64
  3
                                
 72
   65
 73
    0
 40
0
  0
LTYPE
  2
__29
 70
   64
  3
                                
 72
   65
 73
    0
 40
0
  0
LTYPE
  2
__30
 70
   64
  3
                                
 72
   65
 73
    0
 40
0
  0
LTYPE
  2
__31
 70
   64
  3
                                
 72
   65
 73
    0
 40
0
  0
LTYPE
  2
__32
 70
   64
  3
                                
 72
   65
 73
    0
 40
0
  0
ENDTAB
  0
TABLE
  2
STYLE
  5
3
100
AcDbSymbolTable
 70
     1
  0
STYLE
  5
10
100
AcDbSymbolTableRecord
100
AcDbTextStyleTableRecord
  2
STANDARD
 70
     0
 40
0.0
 41
1.0
 50
0.0
 71
     0
 42
0.2
  3
txt
  4
bigfont.shx
  0
STYLE
  5
26
100
AcDbSymbolTableRecord
100
AcDbTextStyleTableRecord
  2
TATEGAKI
 70
    68
 40
0.0
 41
1.0
 50
0.0
 71
     0
 42
1.0
  3
txt
  4
bigfont.shx
  0
ENDTAB
  0
TABLE
  2
LAYER
 70
    6
  0
LAYER
  2
_0-0_0
 70
   64
 62
    7
  6
CONTINUOUS
  0
LAYER
  2
_0-2_寸法
 70
   64
 62
    7
  6
CONTINUOUS
  0
LAYER
  2
_0-3_躯体と製品
 70
   64
 62
    7
  6
CONTINUOUS
  0
LAYER
  2
_0-4_文字-記号
 70
   64
 62
    7
  6
CONTINUOUS
  0
LAYER
  2
_0-5_中心線
 70
   64
 62
    7
  6
CONTINUOUS
  0
LAYER
  2
ADD_LINE
 70
   64
 62
    7
  6
CONTINUOUS
  0
ENDTAB
  0
ENDSEC
  0
SECTION
  2
BLOCKS
  0
BLOCK
  2
-000-_Small
 70
   64
 10
0
 20
0
 30
0
  0
CIRCLE
  8
_0-0_0
  6
CONTINUOUS
 62
    7
 10
0
 20
0
 40
0.5
  0
ENDBLK
  0
ENDSEC
  0
SECTION
  2
ENTITIES
  0
LINE
  8
_0-3_躯体と製品
  6
CONTINUOUS
 62
    4
 10
157.9333505990578
 20
263.29408543181034
 11
590.08320965843677
 21
263.29408543181034
  0
LINE
  8
_0-3_躯体と製品
  6
CONTINUOUS
 62
    4
 10
157.9333505990578
 20
231.29408543181034
 11
590.08320965843677
 21
231.29408543181034
  0
LINE
  8
_0-3_躯体と製品
  6
CONTINUOUS
 62
    4
 10
157.9333505990578
 20
171.29408543180944
 11
590.08320965843677
 21
171.29408543180944
  0
LINE
  8
_0-3_躯体と製品
  6
CONTINUOUS
 62
    4
 10
157.9333505990578
 20
251.29408543180944
 11
590.08320965843677
 21
251.29408543180944
  0
LINE
  8
_0-3_躯体と製品
  6
CONTINUOUS
 62
    3
 10
209.1440441749919
 20
171.29408543180944
 11
189.1440441749919
 21
151.29408543180944
  0
LINE
  8
_0-3_躯体と製品
  6
CONTINUOUS
 62
    3
 10
216.21511198685494
 20
171.29408543180944
 11
196.21511198685494
 21
151.29408543180944
  0
LINE
  8
_0-3_躯体と製品
  6
CONTINUOUS
 62
    3
 10
223.28617979872479
 20
171.29408543180944
 11
203.28617979872479
 21
151.29408543180944
  0
LINE
  8
_0-3_躯体と製品
  6
CONTINUOUS
 62
    3
 10
384.1440441749919
 20
171.29408543180944
 11
364.1440441749919
 21
151.29408543180944
  0
LINE
  8
_0-3_躯体と製品
  6
CONTINUOUS
 62
    3
 10
391.21511198685494
 20
171.29408543180944
 11
371.21511198685494
 21
151.29408543180944
  0
LINE
  8
_0-3_躯体と製品
  6
CONTINUOUS
 62
    3
 10
398.28617979872479
 20
171.29408543180944
 11
378.28617979872479
 21
151.29408543180944
  0
LINE
  8
_0-3_躯体と製品
  6
CONTINUOUS
 62
    4
 10
361.00828012874808
 20
206.29408543180944
 11
387.00828012874808
 21
206.29408543180944
  0
LINE
  8
_0-3_躯体と製品
  6
CONTINUOUS
 62
    4
 10
326.00828012874672
 20
231.29408543181034
 11
326.00828012874672
 21
224.29408543180944
  0
LINE
  8
_0-3_躯体と製品
  6
CONTINUOUS
 62
    4
 10
363.50828012874808
 20
231.29408543181034
 11
384.50828012874808
 21
231.29408543181034
  0
LINE
  8
_0-3_躯体と製品
  6
CONTINUOUS
 62
    4
 10
361.00828012874808
 20
207.07650336800998
 11
361.00828012874808
 21
206.29408543180944
  0
LINE
  8
_0-3_躯体と製品
  6
CONTINUOUS
 62
    4
 10
387.00828012874808
 20
206.29408543180944
 11
387.00828012874808
 21
207.07650336800998
  0
LINE
  8
_0-3_躯体と製品
  6
CONTINUOUS
 62
    4
 10
363.00828012874808
 20
231.59408543181326
 11
362.50828012874808
 21
231.29408543181034
  0
LINE
  8
_0-3_躯体と製品
  6
CONTINUOUS
 62
    4
 10
363.50828012874808
 20
231.29408543181034
 11
363.00828012874808
 21
231.59408543181326
  0
LINE
  8
_0-3_躯体と製品
  6
CONTINUOUS
 62
    4
 10
385.00828012874808
 20
231.59408543181326
 11
384.50828012874808
 21
231.29408543181034
  0
LINE
  8
_0-3_躯体と製品
  6
CONTINUOUS
 62
    4
 10
385.50828012874808
 20
231.29408543181034
 11
385.00828012874808
 21
231.59408543181326
  0
ARC
  8
_0-3_躯体と製品
  6
CONTINUOUS
 62
    4
 10
421.00828012874808
 20
224.29408543180944
 40
1
 50
270
 51
0
  0
LINE
  8
_0-3_躯体と製品
  6
CONTINUOUS
 62
    4
 10
422.00828012874808
 20
231.29408543181034
 11
422.00828012874808
 21
224.29408543180944
  0
ARC
  8
_0-3_躯体と製品
  6
CONTINUOUS
 62
    4
 10
327.00828012874808
 20
224.29408543180944
 40
1
 50
180
 51
270
  0
LINE
  8
_0-3_躯体と製品
  6
CONTINUOUS
 62
    4
 10
373.25828012874808
 20
215.51770768381084
 11
373.25828012874808
 21
223.29408543181034
  0
LINE
  8
_0-3_躯体と製品
  6
CONTINUOUS
 62
    4
 10
374.75828012874808
 20
215.51770768381084
 11
374.25840358554888
 21
215.52210681620909
  0
LINE
  8
_0-3_躯体と製品
  6
CONTINUOUS
 62
    4
 10
374.25840358554888
 20
215.52210681620909
 11
373.75815667174675
 21
215.52210681620909
  0
LINE
  8
_0-3_躯体と製品
  6
CONTINUOUS
 62
    4
 10
373.75815667174675
 20
215.52210681620909
 11
373.25828012874808
 21
215.51770768381084
  0
LINE
  8
_0-3_躯体と製品
  6
CONTINUOUS
 62
    4
 10
374.75828012874808
 20
215.51770768381084
 11
374.75828012874808
 21
223.29408543181034
  0
LINE
  8
_0-3_躯体と製品
  6
CONTINUOUS
 62
    4
 10
387.85946843614602
 20
216.57940926381252
 11
418.66207336054595
 21
223.29408543181034
  0
LINE
  8
_0-3_躯体と製品
  6
CONTINUOUS
 62
    4
 10
387.6318925019491
 20
216.29858599241106
 11
419.72273353234596
 21
223.29408543181034
  0
LINE
  8
_0-3_躯体と製品
  6
CONTINUOUS
 62
    4
 10
389.36328132674771
 20
218.43507848000627
 11
389.36328132674771
 21
218.29408543180944
  0
LINE
  8
_0-3_躯体と製品
  6
CONTINUOUS
 62
    4
 10
360.38466775534971
 20
216.29858599241106
 11
328.29382672494603
 21
223.29408543181034
  0
LINE
  8
_0-3_躯体と製品
  6
CONTINUOUS
 62
    4
 10
360.15709182134879
 20
216.57940926381252
 11
329.35448689674877
 21
223.29408543181034
  0
LINE
  8
_0-3_躯体と製品
  6
CONTINUOUS
 62
    4
 10
358.65327893074709
 20
218.29408543180944
 11
358.65327893074709
 21
218.43507848000627
  0
LINE
  8
_0-3_躯体と製品
  6
CONTINUOUS
 62
    4
 10
391.43407117814604
 20
223.29408543181034
 11
391.43407117814604
 21
223.27047432081145
  0
LINE
  8
_0-3_躯体と製品
  6
CONTINUOUS
 62
    4
 10
393.28183024314603
 20
223.29408543181034
 11
393.28183024314603
 21
223.27047432081145
  0
LINE
  8
_0-3_躯体と製品
  6
CONTINUOUS
 62
    4
 10
393.28183024314603
 20
223.27047432081145
 11
391.43407117814604
 21
223.27047432081145
  0
LINE
  8
_0-3_躯体と製品
  6
CONTINUOUS
 62
    4
 10
393.28183024314603
 20
223.27047432081145
 11
379.89230385074688
 21
206.74811831361512
  0
LINE
  8
_0-3_躯体と製品
  6
CONTINUOUS
 62
    4
 10
378.04454478574689
 20
206.74811831361512
 11
378.67329568495006
 21
206.76428572841087
  0
LINE
  8
_0-3_躯体と製品
  6
CONTINUOUS
 62
    4
 10
378.67329568495006
 20
206.76428572841087
 11
379.28975672354682
 21
206.76428572841087
  0
LINE
  8
_0-3_躯体と製品
  6
CONTINUOUS
 62
    4
 10
379.28975672354682
 20
206.76428572841087
 11
379.89230385074688
 21
206.74811831361512
  0
LINE
  8
_0-3_躯体と製品
  6
CONTINUOUS
 62
    4
 10
391.43407117814604
 20
223.27047432081145
 11
378.04454478574689
 21
206.74811831361512
  0
LINE
  8
_0-3_躯体と製品
  6
CONTINUOUS
 62
    4
 10
378.04454478574689
 20
206.74811831361512
 11
378.04454478574689
 21
218.29408543180944
  0
LINE
  8
_0-3_躯体と製品
  6
CONTINUOUS
 62
    4
 10
381.6756223451498
 20
223.29408543181034
 11
381.6756223451498
 21
218.29408543180944
  0
LINE
  8
_0-3_躯体と製品
  6
CONTINUOUS
 62
    4
 10
356.58248907934967
 20
223.27047432081145
 11
354.73473001434968
 21
223.27047432081145
  0
LINE
  8
_0-3_躯体と製品
  6
CONTINUOUS
 62
    4
 10
356.58248907934967
 20
223.27047432081145
 11
369.97201547174791
 21
206.74811831361512
  0
LINE
  8
_0-3_躯体と製品
  6
CONTINUOUS
 62
    4
 10
368.12425640674792
 20
206.74811831361512
 11
368.7268035339489
 21
206.76428572841087
  0
LINE
  8
_0-3_躯体と製品
  6
CONTINUOUS
 62
    4
 10
368.7268035339489
 20
206.76428572841087
 11
369.34326457234874
 21
206.76428572841087
  0
LINE
  8
_0-3_躯体と製品
  6
CONTINUOUS
 62
    4
 10
369.34326457234874
 20
206.76428572841087
 11
369.97201547174791
 21
206.74811831361512
  0
LINE
  8
_0-3_躯体と製品
  6
CONTINUOUS
 62
    4
 10
354.73473001434968
 20
223.27047432081145
 11
368.12425640674792
 21
206.74811831361512
  0
LINE
  8
_0-3_躯体と製品
  6
CONTINUOUS
 62
    4
 10
366.340937912149
 20
218.29408543180944
 11
366.340937912149
 21
223.29408543181034
  0
LINE
  8
_0-3_躯体と製品
  6
CONTINUOUS
 62
    4
 10
369.97201547174791
 20
206.74811831361512
 11
369.97201547174791
 21
218.29408543180944
  0
LINE
  8
_0-3_躯体と製品
  6
CONTINUOUS
 62
    4
 10
356.58248907934967
 20
223.29408543181034
 11
356.58248907934967
 21
223.27047432081145
  0
LINE
  8
_0-3_躯体と製品
  6
CONTINUOUS
 62
    4
 10
354.73473001434968
 20
223.29408543181034
 11
354.73473001434968
 21
223.27047432081145
  0
LINE
  8
_0-3_躯体と製品
  6
CONTINUOUS
 62
    4
 10
375.23050235094797
 20
223.29408543181034
 11
375.23050235094797
 21
218.29408543180944
  0
LINE
  8
_0-3_躯体と製品
  6
CONTINUOUS
 62
    4
 10
372.78605790654683
 20
218.29408543180944
 11
372.78605790654683
 21
223.29408543181034
  0
LINE
  8
_0-3_躯体と製品
  6
CONTINUOUS
 62
    4
 10
381.05356252454794
 20
218.29408543180944
 11
381.05356252454794
 21
223.29408543181034
  0
LINE
  8
_0-3_躯体と製品
  6
CONTINUOUS
 62
    4
 10
366.96299773294686
 20
223.29408543181034
 11
366.96299773294686
 21
218.29408543180944
  0
LINE
  8
_0-3_躯体と製品
  6
CONTINUOUS
 62
    4
 10
418.00428306274807
 20
222.91947950341455
 11
386.36581093454697
 21
206.74811831361512
  0
LINE
  8
_0-3_躯体と製品
  6
CONTINUOUS
 62
    4
 10
385.60044406994803
 20
206.74811831361512
 11
385.887084991949
 21
206.76428572841087
  0
LINE
  8
_0-3_躯体と製品
  6
CONTINUOUS
 62
    4
 10
385.887084991949
 20
206.76428572841087
 11
386.14243151474602
 21
206.76428572841087
  0
LINE
  8
_0-3_躯体と製品
  6
CONTINUOUS
 62
    4
 10
386.14243151474602
 20
206.76428572841087
 11
386.36581093454697
 21
206.74811831361512
  0
LINE
  8
_0-3_躯体と製品
  6
CONTINUOUS
 62
    4
 10
416.66975733514573
 20
222.62856553300935
 11
385.60044406994803
 21
206.74811831361512
  0
LINE
  8
_0-3_躯体と製品
  6
CONTINUOUS
 62
    4
 10
385.60044406994803
 20
206.74811831361512
 11
385.60044406994803
 21
213.7918271108083
  0
LINE
  8
_0-3_躯体と製品
  6
CONTINUOUS
 62
    4
 10
362.41611618754678
 20
206.74811831361512
 11
362.41611618754678
 21
213.7918271108083
  0
LINE
  8
_0-3_躯体と製品
  6
CONTINUOUS
 62
    4
 10
331.34680292214489
 20
222.62856553300935
 11
362.41611618754678
 21
206.74811831361512
  0
LINE
  8
_0-3_躯体と製品
  6
CONTINUOUS
 62
    4
 10
361.65074932274911
 20
206.74811831361512
 11
361.87412874274469
 21
206.76428572841087
  0
LINE
  8
_0-3_躯体と製品
  6
CONTINUOUS
 62
    4
 10
361.87412874274469
 20
206.76428572841087
 11
362.1294752655499
 21
206.76428572841087
  0
LINE
  8
_0-3_躯体と製品
  6
CONTINUOUS
 62
    4
 10
362.1294752655499
 20
206.76428572841087
 11
362.41611618754678
 21
206.74811831361512
  0
LINE
  8
_0-3_躯体と製品
  6
CONTINUOUS
 62
    4
 10
330.01227719454801
 20
222.91947950341455
 11
361.65074932274911
 21
206.74811831361512
  0
LINE
  8
_0-3_躯体と製品
  6
CONTINUOUS
 62
    4
 10
389.36328132674771
 20
218.29408543180944
 11
389.24902218974785
 21
218.29408543180944
  0
LINE
  8
_0-3_躯体と製品
  6
CONTINUOUS
 62
    4
 10
358.76753806774786
 20
218.29408543180944
 11
358.65327893074709
 21
218.29408543180944
  0
LINE
  8
_0-3_躯体と製品
  6
CONTINUOUS
 62
    4
 10
416.90000809014782
 20
222.35505182301404
 11
421.00828012874808
 21
223.29408543181034
  0
LINE
  8
_0-3_躯体と製品
  6
CONTINUOUS
 62
    4
 10
331.1165521671478
 20
222.35505182301404
 11
327.00828012874808
 21
223.29408543181034
  0
LINE
  8
_0-3_躯体と製品
  6
CONTINUOUS
 62
    4
 10
326.00828012874672
 20
231.29408543181034
 11
362.50828012874808
 21
231.29408543181034
  0
LINE
  8
_0-3_躯体と製品
  6
CONTINUOUS
 62
    4
 10
326.00828012874672
 20
224.29408543180944
 11
422.00828012874808
 21
224.29408543180944
  0
LINE
  8
_0-3_躯体と製品
  6
CONTINUOUS
 62
    4
 10
417.00828012874808
 20
231.29408543181034
 11
417.00828012874808
 21
223.29408543181034
  0
LINE
  8
_0-3_躯体と製品
  6
CONTINUOUS
 62
    4
 10
385.50828012874808
 20
231.29408543181034
 11
422.00828012874808
 21
231.29408543181034
  0
LINE
  8
_0-3_躯体と製品
  6
CONTINUOUS
 62
    4
 10
331.00828012874808
 20
231.29408543181034
 11
331.00828012874808
 21
223.29408543181034
  0
LINE
  8
_0-3_躯体と製品
  6
CONTINUOUS
 62
    4
 10
421.00828012874808
 20
223.29408543181034
 11
327.00828012874808
 21
223.29408543181034
  0
LINE
  8
_0-3_躯体と製品
  6
CONTINUOUS
 62
    4
 10
373.25828012874808
 20
218.29408543180944
 11
366.340937912149
 21
218.29408543180944
  0
LINE
  8
_0-3_躯体と製品
  6
CONTINUOUS
 62
    4
 10
381.6756223451498
 20
218.29408543180944
 11
374.75828012874808
 21
218.29408543180944
  0
LINE
  8
_0-5_中心線
  6
CENTER1
 62
    7
 10
374.00828012874808
 20
236.7765005643696
 11
374.00828012874808
 21
166.5355934505651
  0
LINE
  8
_0-3_躯体と製品
  6
CONTINUOUS
 62
    4
 10
385.50828012874808
 20
251.29408543180944
 11
385.50828012874808
 21
231.29408543181034
  0
LINE
  8
_0-3_躯体と製品
  6
CONTINUOUS
 62
    4
 10
362.50828012874808
 20
251.29408543180944
 11
362.50828012874808
 21
231.29408543181034
  0
LINE
  8
_0-3_躯体と製品
  6
CONTINUOUS
 62
    4
 10
375.50828012874808
 20
206.29408543180944
 11
375.50828012874808
 21
200.29408543180944
  0
LINE
  8
_0-3_躯体と製品
  6
CONTINUOUS
 62
    4
 10
364.00828012874808
 20
206.29408543180944
 11
364.00828012874808
 21
200.29408543180944
  0
LINE
  8
_0-3_躯体と製品
  6
CONTINUOUS
 62
    4
 10
372.50828012874672
 20
206.29408543180944
 11
372.50828012874672
 21
200.29408543180944
  0
LINE
  8
_0-3_躯体と製品
  6
CONTINUOUS
 62
    4
 10
365.36128012875088
 20
206.29408543180944
 11
365.36128012875088
 21
200.29408543180944
  0
LINE
  8
_0-3_躯体と製品
  6
CONTINUOUS
 62
    4
 10
384.00828012874808
 20
206.29408543180944
 11
384.00828012874808
 21
200.29408543180944
  0
LINE
  8
_0-3_躯体と製品
  6
CONTINUOUS
 62
    4
 10
364.00828012874808
 20
200.29408543180944
 11
384.00828012874808
 21
200.29408543180944
  0
LINE
  8
_0-3_躯体と製品
  6
CONTINUOUS
 62
    4
 10
382.65528012874893
 20
206.29408543180944
 11
382.65528012874893
 21
200.29408543180944
  0
TEXT
  8
_0-4_文字-記号
 62
    7
 10
271.80751544057284
 20
200.30491331833855
 40
9
 41
1
 50
0
  1
クッションゴム
  0
LINE
  8
_0-4_文字-記号
  6
CONTINUOUS
 62
    7
 10
401.04790270284093
 20
214.8393732891218
 11
409.08256026197205
 21
200.92293817528753
  0
LINE
  8
_0-4_文字-記号
  6
CONTINUOUS
 62
    7
 10
409.08256026197205
 20
200.92293817528753
 11
471.54863289610694
 21
200.92293817528753
  0
TEXT
  8
_0-4_文字-記号
 62
    7
 10
412.52209751936107
 20
203.40159165955629
 40
9
 41
1
 50
0
  1
ボード受け
  0
LINE
  8
_0-4_文字-記号
  6
CONTINUOUS
 62
    7
 10
355.09228773388077
 20
186.01460539528398
 11
349.80829060414089
 21
195.1667568910425
  0
LINE
  8
_0-4_文字-記号
  6
CONTINUOUS
 62
    7
 10
349.80829060414089
 20
195.1667568910425
 11
267.32672256315982
 21
195.1667568910425
  0
LINE
  8
_0-4_文字-記号
  6
CONTINUOUS
 62
    7
 10
267.94409357529003
 20
259.29408543180944
 11
303.45073416638297
 21
320.79339094167244
  0
LINE
  8
_0-4_文字-記号
  6
CONTINUOUS
 62
    7
 10
303.45073416638297
 20
320.79339094167244
 11
429.74540338834686
 21
320.79339094167244
  0
TEXT
  8
_0-4_文字-記号
 62
    7
 10
306.33245047942091
 20
325.9315473689694
 40
9
 41
1
 50
0
  1
針葉樹合板 t＝１２ｍｍ
  0
LINE
  8
_0-4_文字-記号
  6
CONTINUOUS
 62
    7
 10
292.14747445216472
 20
241.40698393271578
 11
320.71598603758275
 21
290.88909749528011
  0
LINE
  8
_0-4_文字-記号
  6
CONTINUOUS
 62
    7
 10
320.71598603758275
 20
290.88909749528011
 11
487.43155290900404
 21
290.88909749528011
  0
TEXT
  8
_0-4_文字-記号
 62
    7
 10
323.59770235062069
 20
296.02725392257798
 40
9
 41
1
 50
0
  1
パーティクルボード t＝２０ｍｍ
  0
TEXT
  8
_0-4_文字-記号
 62
    7
 10
160.92379225808691
 20
398.58628542330825
 40
15
 41
1
 50
0
  1
【MPフロア Ｐタイプ（保育園・幼稚園・小学校・中学校 用）】
  0
CIRCLE
  8
_0-3_躯体と製品
  6
CONTINUOUS
 62
    3
 10
188.07495810679279
 20
247.29408543180944
 40
0.9999999999999997
  0
CIRCLE
  8
_0-3_躯体と製品
  6
CONTINUOUS
 62
    3
 10
228.07495810679279
 20
247.29408543180944
 40
0.9999999999999997
  0
CIRCLE
  8
_0-3_躯体と製品
  6
CONTINUOUS
 62
    3
 10
268.07495810679302
 20
247.29408543180944
 40
0.9999999999999997
  0
CIRCLE
  8
_0-3_躯体と製品
  6
CONTINUOUS
 62
    3
 10
308.07495810679211
 20
247.29408543180944
 40
0.9999999999999997
  0
CIRCLE
  8
_0-3_躯体と製品
  6
CONTINUOUS
 62
    3
 10
348.07495810679302
 20
247.29408543180944
 40
0.9999999999999997
  0
CIRCLE
  8
_0-3_躯体と製品
  6
CONTINUOUS
 62
    3
 10
428.07495810679302
 20
247.29408543180944
 40
0.9999999999999997
  0
CIRCLE
  8
_0-3_躯体と製品
  6
CONTINUOUS
 62
    3
 10
468.07495810679302
 20
247.29408543180944
 40
0.9999999999999997
  0
CIRCLE
  8
_0-3_躯体と製品
  6
CONTINUOUS
 62
    3
 10
390.07495810679302
 20
247.29408543180944
 40
0.9999999999999997
  0
CIRCLE
  8
_0-3_躯体と製品
  6
CONTINUOUS
 62
    3
 10
508.07495810679302
 20
247.29408543180944
 40
0.9999999999999997
  0
CIRCLE
  8
_0-3_躯体と製品
  6
CONTINUOUS
 62
    3
 10
548.07495810679302
 20
247.29408543180944
 40
0.9999999999999997
  0
CIRCLE
  8
_0-3_躯体と製品
  6
CONTINUOUS
 62
    3
 10
588.07495810679302
 20
247.29408543180944
 40
0.9999999999999997
  0
CIRCLE
  8
_0-3_躯体と製品
  6
CONTINUOUS
 62
    3
 10
173.07495810679279
 20
235.29408543180944
 40
0.9999999999999997
  0
CIRCLE
  8
_0-3_躯体と製品
  6
CONTINUOUS
 62
    3
 10
213.07495810679279
 20
235.29408543180944
 40
0.9999999999999997
  0
CIRCLE
  8
_0-3_躯体と製品
  6
CONTINUOUS
 62
    3
 10
253.44098351057801
 20
234.92806002802627
 40
0.9999999999999997
  0
CIRCLE
  8
_0-3_躯体と製品
  6
CONTINUOUS
 62
    3
 10
293.44098351057801
 20
234.92806002802627
 40
0.9999999999999997
  0
CIRCLE
  8
_0-3_躯体と製品
  6
CONTINUOUS
 62
    3
 10
333.44098351057801
 20
234.92806002802627
 40
0.9999999999999997
  0
CIRCLE
  8
_0-3_躯体と製品
  6
CONTINUOUS
 62
    3
 10
413.44098351057801
 20
234.92806002802627
 40
0.9999999999999997
  0
CIRCLE
  8
_0-3_躯体と製品
  6
CONTINUOUS
 62
    3
 10
453.44098351057801
 20
234.92806002802627
 40
0.9999999999999997
  0
CIRCLE
  8
_0-3_躯体と製品
  6
CONTINUOUS
 62
    3
 10
493.44098351057801
 20
234.92806002802627
 40
0.9999999999999997
  0
CIRCLE
  8
_0-3_躯体と製品
  6
CONTINUOUS
 62
    3
 10
533.4409835105771
 20
234.92806002802627
 40
0.9999999999999997
  0
CIRCLE
  8
_0-3_躯体と製品
  6
CONTINUOUS
 62
    3
 10
573.44098351057801
 20
234.92806002802627
 40
0.9999999999999997
  0
CIRCLE
  8
_0-3_躯体と製品
  6
CONTINUOUS
 62
    3
 10
160.57495810679279
 20
245.29408543181034
 40
0.9999999999999997
  0
CIRCLE
  8
_0-3_躯体と製品
  6
CONTINUOUS
 62
    3
 10
170.57495810679279
 20
245.29408543181034
 40
0.9999999999999997
  0
CIRCLE
  8
_0-3_躯体と製品
  6
CONTINUOUS
 62
    3
 10
180.57495810679279
 20
245.29408543181034
 40
0.9999999999999997
  0
CIRCLE
  8
_0-3_躯体と製品
  6
CONTINUOUS
 62
    3
 10
200.57495810679279
 20
245.29408543181034
 40
0.9999999999999997
  0
CIRCLE
  8
_0-3_躯体と製品
  6
CONTINUOUS
 62
    3
 10
210.57495810679279
 20
245.29408543181034
 40
0.9999999999999997
  0
CIRCLE
  8
_0-3_躯体と製品
  6
CONTINUOUS
 62
    3
 10
160.57495810679279
 20
237.29408543180944
 40
0.9999999999999997
  0
CIRCLE
  8
_0-3_躯体と製品
  6
CONTINUOUS
 62
    3
 10
180.57495810679279
 20
237.29408543180944
 40
0.9999999999999997
  0
CIRCLE
  8
_0-3_躯体と製品
  6
CONTINUOUS
 62
    3
 10
190.57495810679279
 20
237.29408543180944
 40
0.9999999999999997
  0
CIRCLE
  8
_0-3_躯体と製品
  6
CONTINUOUS
 62
    3
 10
200.57495810679279
 20
237.29408543180944
 40
0.9999999999999997
  0
CIRCLE
  8
_0-3_躯体と製品
  6
CONTINUOUS
 62
    3
 10
220.57495810679279
 20
245.29408543181034
 40
0.9999999999999997
  0
CIRCLE
  8
_0-3_躯体と製品
  6
CONTINUOUS
 62
    3
 10
240.57495810679302
 20
245.29408543181034
 40
0.9999999999999997
  0
CIRCLE
  8
_0-3_躯体と製品
  6
CONTINUOUS
 62
    3
 10
250.57495810679302
 20
245.29408543181034
 40
0.9999999999999997
  0
CIRCLE
  8
_0-3_躯体と製品
  6
CONTINUOUS
 62
    3
 10
260.57495810679302
 20
245.29408543181034
 40
0.9999999999999997
  0
CIRCLE
  8
_0-3_躯体と製品
  6
CONTINUOUS
 62
    3
 10
280.57495810679302
 20
245.29408543181034
 40
0.9999999999999997
  0
CIRCLE
  8
_0-3_躯体と製品
  6
CONTINUOUS
 62
    3
 10
290.57495810679302
 20
245.29408543181034
 40
0.9999999999999997
  0
CIRCLE
  8
_0-3_躯体と製品
  6
CONTINUOUS
 62
    3
 10
220.57495810679279
 20
237.29408543180944
 40
0.9999999999999997
  0
CIRCLE
  8
_0-3_躯体と製品
  6
CONTINUOUS
 62
    3
 10
230.57495810679279
 20
237.29408543180944
 40
0.9999999999999997
  0
CIRCLE
  8
_0-3_躯体と製品
  6
CONTINUOUS
 62
    3
 10
240.57495810679302
 20
237.29408543180944
 40
0.9999999999999997
  0
CIRCLE
  8
_0-3_躯体と製品
  6
CONTINUOUS
 62
    3
 10
260.57495810679302
 20
237.29408543180944
 40
0.9999999999999997
  0
CIRCLE
  8
_0-3_躯体と製品
  6
CONTINUOUS
 62
    3
 10
270.57495810679302
 20
237.29408543180944
 40
0.9999999999999997
  0
CIRCLE
  8
_0-3_躯体と製品
  6
CONTINUOUS
 62
    3
 10
280.57495810679302
 20
237.29408543180944
 40
0.9999999999999997
  0
CIRCLE
  8
_0-3_躯体と製品
  6
CONTINUOUS
 62
    3
 10
300.57495810679302
 20
245.29408543181034
 40
0.9999999999999997
  0
CIRCLE
  8
_0-3_躯体と製品
  6
CONTINUOUS
 62
    3
 10
320.57495810679302
 20
245.29408543181034
 40
0.9999999999999997
  0
CIRCLE
  8
_0-3_躯体と製品
  6
CONTINUOUS
 62
    3
 10
330.57495810679302
 20
245.29408543181034
 40
0.9999999999999997
  0
CIRCLE
  8
_0-3_躯体と製品
  6
CONTINUOUS
 62
    3
 10
340.57495810679302
 20
245.29408543181034
 40
0.9999999999999997
  0
CIRCLE
  8
_0-3_躯体と製品
  6
CONTINUOUS
 62
    3
 10
358.57495810679302
 20
245.29408543181034
 40
0.9999999999999997
  0
CIRCLE
  8
_0-3_躯体と製品
  6
CONTINUOUS
 62
    3
 10
300.57495810679302
 20
237.29408543180944
 40
0.9999999999999997
  0
CIRCLE
  8
_0-3_躯体と製品
  6
CONTINUOUS
 62
    3
 10
310.57495810679302
 20
237.29408543180944
 40
0.9999999999999997
  0
CIRCLE
  8
_0-3_躯体と製品
  6
CONTINUOUS
 62
    3
 10
320.57495810679302
 20
237.29408543180944
 40
0.9999999999999997
  0
CIRCLE
  8
_0-3_躯体と製品
  6
CONTINUOUS
 62
    3
 10
340.57495810679302
 20
237.29408543180944
 40
0.9999999999999997
  0
CIRCLE
  8
_0-3_躯体と製品
  6
CONTINUOUS
 62
    3
 10
350.57495810679302
 20
237.29408543180944
 40
0.9999999999999997
  0
CIRCLE
  8
_0-3_躯体と製品
  6
CONTINUOUS
 62
    3
 10
358.57495810679302
 20
237.29408543180944
 40
0.9999999999999997
  0
CIRCLE
  8
_0-3_躯体と製品
  6
CONTINUOUS
 62
    3
 10
400.57495810679302
 20
245.29408543181034
 40
0.9999999999999997
  0
CIRCLE
  8
_0-3_躯体と製品
  6
CONTINUOUS
 62
    3
 10
410.57495810679302
 20
245.29408543181034
 40
0.9999999999999997
  0
CIRCLE
  8
_0-3_躯体と製品
  6
CONTINUOUS
 62
    3
 10
420.57495810679302
 20
245.29408543181034
 40
0.9999999999999997
  0
CIRCLE
  8
_0-3_躯体と製品
  6
CONTINUOUS
 62
    3
 10
440.57495810679302
 20
245.29408543181034
 40
0.9999999999999997
  0
CIRCLE
  8
_0-3_躯体と製品
  6
CONTINUOUS
 62
    3
 10
450.57495810679211
 20
245.29408543181034
 40
0.9999999999999997
  0
CIRCLE
  8
_0-3_躯体と製品
  6
CONTINUOUS
 62
    3
 10
390.57495810679302
 20
237.29408543180944
 40
0.9999999999999997
  0
CIRCLE
  8
_0-3_躯体と製品
  6
CONTINUOUS
 62
    3
 10
400.57495810679302
 20
237.29408543180944
 40
0.9999999999999997
  0
CIRCLE
  8
_0-3_躯体と製品
  6
CONTINUOUS
 62
    3
 10
420.57495810679302
 20
237.29408543180944
 40
0.9999999999999997
  0
CIRCLE
  8
_0-3_躯体と製品
  6
CONTINUOUS
 62
    3
 10
430.57495810679302
 20
237.29408543180944
 40
0.9999999999999997
  0
CIRCLE
  8
_0-3_躯体と製品
  6
CONTINUOUS
 62
    3
 10
440.57495810679302
 20
237.29408543180944
 40
0.9999999999999997
  0
CIRCLE
  8
_0-3_躯体と製品
  6
CONTINUOUS
 62
    3
 10
460.57495810679302
 20
245.29408543181034
 40
0.9999999999999997
  0
CIRCLE
  8
_0-3_躯体と製品
  6
CONTINUOUS
 62
    3
 10
480.57495810679302
 20
245.29408543181034
 40
0.9999999999999997
  0
CIRCLE
  8
_0-3_躯体と製品
  6
CONTINUOUS
 62
    3
 10
490.57495810679302
 20
245.29408543181034
 40
0.9999999999999997
  0
CIRCLE
  8
_0-3_躯体と製品
  6
CONTINUOUS
 62
    3
 10
500.57495810679302
 20
245.29408543181034
 40
0.9999999999999997
  0
CIRCLE
  8
_0-3_躯体と製品
  6
CONTINUOUS
 62
    3
 10
520.57495810679302
 20
245.29408543181034
 40
0.9999999999999997
  0
CIRCLE
  8
_0-3_躯体と製品
  6
CONTINUOUS
 62
    3
 10
530.57495810679302
 20
245.29408543181034
 40
0.9999999999999997
  0
CIRCLE
  8
_0-3_躯体と製品
  6
CONTINUOUS
 62
    3
 10
460.57495810679302
 20
237.29408543180944
 40
0.9999999999999997
  0
CIRCLE
  8
_0-3_躯体と製品
  6
CONTINUOUS
 62
    3
 10
470.57495810679211
 20
237.29408543180944
 40
0.9999999999999997
  0
CIRCLE
  8
_0-3_躯体と製品
  6
CONTINUOUS
 62
    3
 10
480.57495810679302
 20
237.29408543180944
 40
0.9999999999999997
  0
CIRCLE
  8
_0-3_躯体と製品
  6
CONTINUOUS
 62
    3
 10
500.57495810679302
 20
237.29408543180944
 40
0.9999999999999997
  0
CIRCLE
  8
_0-3_躯体と製品
  6
CONTINUOUS
 62
    3
 10
510.57495810679302
 20
237.29408543180944
 40
0.9999999999999997
  0
CIRCLE
  8
_0-3_躯体と製品
  6
CONTINUOUS
 62
    3
 10
520.57495810679302
 20
237.29408543180944
 40
0.9999999999999997
  0
CIRCLE
  8
_0-3_躯体と製品
  6
CONTINUOUS
 62
    3
 10
540.57495810679302
 20
245.29408543181034
 40
0.9999999999999997
  0
CIRCLE
  8
_0-3_躯体と製品
  6
CONTINUOUS
 62
    3
 10
560.57495810679302
 20
245.29408543181034
 40
0.9999999999999997
  0
CIRCLE
  8
_0-3_躯体と製品
  6
CONTINUOUS
 62
    3
 10
570.57495810679302
 20
245.29408543181034
 40
0.9999999999999997
  0
CIRCLE
  8
_0-3_躯体と製品
  6
CONTINUOUS
 62
    3
 10
580.57495810679302
 20
245.29408543181034
 40
0.9999999999999997
  0
CIRCLE
  8
_0-3_躯体と製品
  6
CONTINUOUS
 62
    3
 10
540.57495810679302
 20
237.29408543180944
 40
0.9999999999999997
  0
CIRCLE
  8
_0-3_躯体と製品
  6
CONTINUOUS
 62
    3
 10
550.57495810679302
 20
237.29408543180944
 40
0.9999999999999997
  0
CIRCLE
  8
_0-3_躯体と製品
  6
CONTINUOUS
 62
    3
 10
560.57495810679302
 20
237.29408543180944
 40
0.9999999999999997
  0
CIRCLE
  8
_0-3_躯体と製品
  6
CONTINUOUS
 62
    3
 10
580.57495810679302
 20
237.29408543180944
 40
0.9999999999999997
  0
CIRCLE
  8
_0-3_躯体と製品
  6
CONTINUOUS
 62
    3
 10
165.57495810679279
 20
241.29408543181034
 40
0.9999999999999997
  0
CIRCLE
  8
_0-3_躯体と製品
  6
CONTINUOUS
 62
    3
 10
205.57495810679279
 20
241.29408543181034
 40
0.9999999999999997
  0
CIRCLE
  8
_0-3_躯体と製品
  6
CONTINUOUS
 62
    3
 10
245.57495810679211
 20
241.29408543181034
 40
0.9999999999999997
  0
CIRCLE
  8
_0-3_躯体と製品
  6
CONTINUOUS
 62
    3
 10
285.57495810679302
 20
241.29408543181034
 40
0.9999999999999997
  0
CIRCLE
  8
_0-3_躯体と製品
  6
CONTINUOUS
 62
    3
 10
325.57495810679211
 20
241.29408543181034
 40
0.9999999999999997
  0
CIRCLE
  8
_0-3_躯体と製品
  6
CONTINUOUS
 62
    3
 10
405.57495810679302
 20
241.29408543181034
 40
0.9999999999999997
  0
CIRCLE
  8
_0-3_躯体と製品
  6
CONTINUOUS
 62
    3
 10
445.57495810679302
 20
241.29408543181034
 40
0.9999999999999997
  0
CIRCLE
  8
_0-3_躯体と製品
  6
CONTINUOUS
 62
    3
 10
485.57495810679302
 20
241.29408543181034
 40
0.9999999999999997
  0
CIRCLE
  8
_0-3_躯体と製品
  6
CONTINUOUS
 62
    3
 10
525.57495810679302
 20
241.29408543181034
 40
0.9999999999999997
  0
CIRCLE
  8
_0-3_躯体と製品
  6
CONTINUOUS
 62
    3
 10
565.57495810679302
 20
241.29408543181034
 40
0.9999999999999997
  0
LINE
  8
_0-3_躯体と製品
  6
CONTINUOUS
 62
    4
 10
157.9333505990578
 20
275.29408543180944
 11
590.08320965843677
 21
275.29408543180944
  0
LINE
  8
_0-4_文字-記号
  6
CONTINUOUS
 62
    7
 10
242.65119413992306
 20
275.29408543180944
 11
286.18548229518183
 21
350.69768438806568
  0
LINE
  8
_0-4_文字-記号
  6
CONTINUOUS
 62
    7
 10
286.18548229518183
 20
350.69768438806568
 11
446.44527959931384
 21
350.69768438806568
  0
TEXT
  8
_0-4_文字-記号
 62
    7
 10
289.06719860821977
 20
355.83584081536355
 40
9
 41
1
 50
0
  1
フローリング t＝１２ｍｍ以上
  0
LINE
  8
_0-3_躯体と製品
  6
CONTINUOUS
 62
    3
 10
157.9333505990578
 20
259.29408543180944
 11
590.08320965843677
 21
259.29408543180944
  0
LINE
  8
_0-3_躯体と製品
  6
CONTINUOUS
 62
    3
 10
157.9333505990578
 20
255.29408543181034
 11
590.08320965843677
 21
255.29408543181034
  0
TEXT
  8
_0-4_文字-記号
 62
    7
 10
160.92379225808691
 20
427.70591456818784
 40
15
 41
1
 50
0
  1
～文教施設用二重床システム～
  0
LINE
  8
_0-3_躯体と製品
  6
CONTINUOUS
 62
    3
 10
559.144044174991
 20
171.29408543180944
 11
539.1440441749919
 21
151.29408543180944
  0
LINE
  8
_0-3_躯体と製品
  6
CONTINUOUS
 62
    3
 10
566.21511198685403
 20
171.29408543180944
 11
546.21511198685403
 21
151.29408543180944
  0
LINE
  8
_0-3_躯体と製品
  6
CONTINUOUS
 62
    3
 10
573.28617979872479
 20
171.29408543180944
 11
553.28617979872479
 21
151.29408543180944
  0
LINE
  8
_0-2_寸法
  6
CONTINUOUS
 62
    4
 10
593.08320965843677
 20
171.29408543180944
 11
632.31509065843784
 21
171.29408543180944
  0
LINE
  8
_0-2_寸法
  6
CONTINUOUS
 62
    4
 10
593.08320965843677
 20
251.29408543180944
 11
632.31509065843784
 21
251.29408543180944
  0
LINE
  8
_0-2_寸法
  6
CONTINUOUS
 62
    4
 10
632.31509065843784
 20
171.29408543180944
 11
632.31509065843784
 21
251.29408543180944
  0
INSERT
  2
-000-_Small
  8
_0-2_寸法
 10
632.31509065843784
 20
171.29408543180944
 41
1.5
 42
1.5
 50
270
  0
INSERT
  2
-000-_Small
  8
_0-2_寸法
 10
632.31509065843784
 20
251.29408543180944
 41
1.5
 42
1.5
 50
90
  0
POINT
  8
_0-2_寸法
 62
    7
 10
593.08320965843677
 20
171.29408543180944
  0
POINT
  8
_0-2_寸法
 62
    7
 10
593.08320965843677
 20
251.29408543180944
  0
POINT
  8
_0-2_寸法
 62
    7
 10
632.31509065843784
 20
251.29408543180944
  0
TEXT
  8
_0-2_寸法
 62
    7
 10
627.88945578231289
 20
205.93934240362813
 40
9
 41
1
 50
90
  1
h
  0
LINE
  8
_0-0_0
  6
CONTINUOUS
 62
    4
 10
364.00828012874899
 20
200.29408543180944
 11
384.00828012874899
 21
200.29408543180944
  0
LINE
  8
_0-0_0
  6
CONTINUOUS
 62
    4
 10
364.00828012874808
 20
200.29408543180944
 11
384.00828012874808
 21
200.29408543180944
  0
LINE
  8
_0-0_0
  6
CONTINUOUS
 62
    4
 10
385.20299717281807
 20
200.29408543180944
 11
386.81356308467809
 21
200.29408543180944
  0
LINE
  8
_0-0_0
  6
CONTINUOUS
 62
    4
 10
390.20299717281807
 20
196.97789662510945
 11
358.20299717281807
 21
196.97789662510945
  0
LINE
  8
_0-0_0
  6
CONTINUOUS
 62
    4
 10
387.20299717281807
 20
200.29408543180944
 11
361.20299717281807
 21
200.29408543180944
  0
LINE
  8
_0-0_0
  6
CONTINUOUS
 62
    4
 10
358.20299717281807
 20
196.97789662510945
 11
361.20299717281807
 21
200.29408543180944
  0
LINE
  8
_0-0_0
  6
CONTINUOUS
 62
    4
 10
387.20299717281807
 20
200.29408543180944
 11
390.20299717281807
 21
196.97789662510945
  0
LINE
  8
_0-0_0
  6
CONTINUOUS
 62
    4
 10
394.20299717281807
 20
171.29408543180944
 11
374.20299717281807
 21
171.29408543180944
  0
LINE
  8
_0-0_0
  6
CONTINUOUS
 62
    4
 10
395.20299717281807
 20
172.29408543180944
 11
394.20299717281807
 21
171.29408543180944
  0
LINE
  8
_0-0_0
  6
CONTINUOUS
 62
    4
 10
390.20299717281807
 20
196.97789662510945
 11
395.20299717281807
 21
172.29408543180944
  0
LINE
  8
_0-0_0
  6
CONTINUOUS
 62
    4
 10
354.20299717281807
 20
171.29408543180944
 11
374.20299717281807
 21
171.29408543180944
  0
LINE
  8
_0-0_0
  6
CONTINUOUS
 62
    4
 10
353.20299717281807
 20
172.29408543180944
 11
354.20299717281807
 21
171.29408543180944
  0
LINE
  8
_0-0_0
  6
CONTINUOUS
 62
    4
 10
358.20299717281807
 20
196.97789662510945
 11
353.20299717281807
 21
172.29408543180944
  0
LINE
  8
_0-0_0
  6
CONTINUOUS
 62
    4
 10
395.20299717281807
 20
172.29408543180944
 11
353.20299717281807
 21
172.29408543180944
  0
ENDSEC
  0
EOF
