  0
SECTION
  2
HEADER
  9
$ACADVER
  1
AC1009
  9
$INSBASE
 10
0
 20
0
 30
0
  9
$EXTMIN
 10
0
 20
0
  9
$EXTMAX
 10
2523
 20
1782
  9
$LIMMIN
 10
0
 20
0
  9
$LIMMAX
 10
2523
 20
1782
  9
$LTSCALE
 40
3
  0
ENDSEC
  0
SECTION
  2
TABLES
  0
TABLE
  2
LTYPE
 70
     9
  0
LTYPE
  2
CONTINUOUS
 70
    64
  3
Ä└É³
 72
    65
 73
     0
 40
0.0
  0
LTYPE
  2
DASHED1
 70
    64
  3
--  --  --  --  --  --  --  --  
 72
    65
 73
     2
 40
2.5
 49
1.25
 49
-1.25
  0
LTYPE
  2
DASHED2
 70
    64
  3
----    ----    ----    ----    
 72
    65
 73
     2
 40
5.0
 49
2.5
 49
-2.5
  0
LTYPE
  2
DASHED3
 70
    64
  3
------  ------  ------  ------  
 72
    65
 73
     2
 40
5.0
 49
3.75
 49
-1.25
  0
LTYPE
  2
CENTER1
 70
    64
  3
----- - ----- - ----- - ----- - 
 72
    65
 73
     4
 40
10.0
 49
6.25
 49
-1.25
 49
1.25
 49
-1.25
  0
LTYPE
  2
CENTER2
 70
    64
  3
----------  --  ----------  --  
 72
    65
 73
     4
 40
20.0
 49
12.5
 49
-2.5
 49
2.5
 49
-2.5
  0
LTYPE
  2
PHANTOM1
 70
    64
  3
--- - - --- - - --- - - --- - - 
 72
    65
 73
     6
 40
10.0
 49
3.25
 49
-1.25
 49
1.25
 49
-1.25
 49
1.25
 49
-1.25
  0
LTYPE
  2
PHANTOM2
 70
    64
  3
--------  -  -  --------  -  -  
 72
    65
 73
     6
 40
20.0
 49
10.0
 49
-2.5
 49
1.25
 49
-2.5
 49
1.25
 49
-2.5
  0
LTYPE
  2
DOT
 70
    64
  3
-   -   -   -   -   -   -   -   
 72
    65
 73
     2
 40
2.5
 49
0.625
 49
-1.875
  0
LTYPE
  2
DUMMY
 70
    64
  3
â_â~ü[
 72
    65
 73
     0
 40
0.0
  0
LTYPE
  2
RAND1
 70
    64
  3
âëâôâ_âÇÉ³1
 72
    65
 73
     4
 40
10.0
 49
1.0
 49
-2.0
 49
3.0
 49
-4.0
  0
LTYPE
  2
RAND2
 70
    64
  3
âëâôâ_âÇÉ³2
 72
    65
 73
     4
 40
14.0
 49
2.0
 49
-3.0
 49
4.0
 49
-5.0
  0
LTYPE
  2
RAND3
 70
    64
  3
âëâôâ_âÇÉ³3
 72
    65
 73
     4
 40
18.0
 49
3.0
 49
-4.0
 49
5.0
 49
-6.0
  0
LTYPE
  2
RAND4
 70
    64
  3
âëâôâ_âÇÉ³4
 72
    65
 73
     4
 40
22.0
 49
4.0
 49
-5.0
 49
6.0
 49
-7.0
  0
LTYPE
  2
RAND5
 70
    64
  3
âëâôâ_âÇÉ³5
 72
    65
 73
     4
 40
26.0
 49
5.0
 49
-6.0
 49
7.0
 49
-8.0
  0
LTYPE
  2
LONG1
 70
    64
  3
----------  --  ----------  --  
 72
    65
 73
     4
 40
40.0
 49
32.5
 49
-2.5
 49
2.5
 49
-2.5
  0
LTYPE
  2
LONG2
 70
    64
  3
--------  -  -  --------  -  -  
 72
    65
 73
     6
 40
40.0
 49
30.0
 49
-2.5
 49
1.25
 49
-2.5
 49
1.25
 49
-2.5
  0
LTYPE
  2
LONG3
 70
    64
  3
+++++++++++++++..+++++++++++++++
 72
    65
 73
     2
 40
40.0
 49
37.5
 49
-2.5
  0
LTYPE
  2
LONG4
 70
    64
  3
+++++++++++++++..+++++++++++++++
 72
    65
 73
     2
 40
80.0
 49
75.0
 49
-5.0
  0
LTYPE
  2
LONG5
 70
    64
  3
----------  --  ----------  --  
 72
    65
 73
     4
 40
60.0
 49
37.5
 49
-7.5
 49
7.5
 49
-7.5
  0
LTYPE
  2
dashed
 70
   64
  3
-------   -------------   ------
 72
   65
 73
    2
 40
7.5
 49
6
 49
-1.5
  0
LTYPE
  2
dashed_spaced
 70
   64
  3
----        --------        ----
 72
   65
 73
    2
 40
12
 49
6
 49
-6
  0
LTYPE
  2
long_dashed_dotted
 70
   64
  3
------------- --- --------------
 72
   65
 73
    4
 40
15.25
 49
12
 49
-1.5
 49
0.25
 49
-1.5
  0
LTYPE
  2
long_dashed_double-dotted
 70
   64
  3
----------- --- --- ------------
 72
   65
 73
    6
 40
17
 49
12
 49
-1.5
 49
0.25
 49
-1.5
 49
0.25
 49
-1.5
  0
LTYPE
  2
long_dashed_triplicate-dotted
 70
   64
  3
--------- --- --- --- ----------
 72
   65
 73
    8
 40
18.75
 49
12
 49
-1.5
 49
0.25
 49
-1.5
 49
0.25
 49
-1.5
 49
0.25
 49
-1.5
  0
LTYPE
  2
dotted
 70
   64
  3
   -       -       -       -    
 72
   65
 73
    2
 40
1.75
 49
0.25
 49
-1.5
  0
LTYPE
  2
chain
 70
   64
  3
-------------- -- --------------
 72
   65
 73
    4
 40
18.5
 49
12
 49
-1.5
 49
3.5
 49
-1.5
  0
LTYPE
  2
chain_double_dash
 70
   64
  3
------------ -- -- -------------
 72
   65
 73
    6
 40
23.5
 49
12
 49
-1.5
 49
3.5
 49
-1.5
 49
3.5
 49
-1.5
  0
LTYPE
  2
dashed_dotted
 70
   64
  3
-----------     -     ----------
 72
   65
 73
    4
 40
9.25
 49
6
 49
-1.5
 49
0.25
 49
-1.5
  0
LTYPE
  2
double-dashed_dotted
 70
   64
  3
------   -----------   -   -----
 72
   65
 73
    6
 40
16.75
 49
6
 49
-1.5
 49
6
 49
-1.5
 49
0.25
 49
-1.5
  0
LTYPE
  2
dashed_double-dotted
 70
   64
  3
---------    -    -    ---------
 72
   65
 73
    6
 40
11
 49
6
 49
-1.5
 49
0.25
 49
-1.5
 49
0.25
 49
-1.5
  0
LTYPE
  2
double-dashed_double-dotted
 70
   64
  3
-----   ---------   -   -   ----
 72
   65
 73
    8
 40
18.5
 49
6
 49
-1.5
 49
6
 49
-1.5
 49
0.25
 49
-1.5
 49
0.25
 49
-1.5
  0
LTYPE
  2
dashed_triplicate-dotted
 70
   64
  3
-------    -    -    -    ------
 72
   65
 73
    8
 40
12.75
 49
6
 49
-1.5
 49
0.25
 49
-1.5
 49
0.25
 49
-1.5
 49
0.25
 49
-1.5
  0
LTYPE
  2
double-dashed_triplicate-dotted
 70
   64
  3
-----  ---------  -  -  -  -----
 72
   65
 73
   10
 40
20.25
 49
6
 49
-1.5
 49
6
 49
-1.5
 49
0.25
 49
-1.5
 49
0.25
 49
-1.5
 49
0.25
 49
-1.5
  0
LTYPE
  2
undefined
 70
   64
  3
--------------------------------
 72
   65
 73
    0
 40
0
  0
LTYPE
  2
_
 70
   64
  3
                                
 72
   65
 73
    0
 40
0
  0
LTYPE
  2
__18
 70
   64
  3
                                
 72
   65
 73
    0
 40
0
  0
LTYPE
  2
__19
 70
   64
  3
                                
 72
   65
 73
    0
 40
0
  0
LTYPE
  2
__20
 70
   64
  3
                                
 72
   65
 73
    0
 40
0
  0
LTYPE
  2
__21
 70
   64
  3
                                
 72
   65
 73
    0
 40
0
  0
LTYPE
  2
__22
 70
   64
  3
                                
 72
   65
 73
    0
 40
0
  0
LTYPE
  2
__23
 70
   64
  3
                                
 72
   65
 73
    0
 40
0
  0
LTYPE
  2
__24
 70
   64
  3
                                
 72
   65
 73
    0
 40
0
  0
LTYPE
  2
__25
 70
   64
  3
                                
 72
   65
 73
    0
 40
0
  0
LTYPE
  2
__26
 70
   64
  3
                                
 72
   65
 73
    0
 40
0
  0
LTYPE
  2
__27
 70
   64
  3
                                
 72
   65
 73
    0
 40
0
  0
LTYPE
  2
__28
 70
   64
  3
                                
 72
   65
 73
    0
 40
0
  0
LTYPE
  2
__29
 70
   64
  3
                                
 72
   65
 73
    0
 40
0
  0
LTYPE
  2
__30
 70
   64
  3
                                
 72
   65
 73
    0
 40
0
  0
LTYPE
  2
__31
 70
   64
  3
                                
 72
   65
 73
    0
 40
0
  0
LTYPE
  2
__32
 70
   64
  3
                                
 72
   65
 73
    0
 40
0
  0
ENDTAB
  0
TABLE
  2
STYLE
  5
3
100
AcDbSymbolTable
 70
     1
  0
STYLE
  5
10
100
AcDbSymbolTableRecord
100
AcDbTextStyleTableRecord
  2
STANDARD
 70
     0
 40
0.0
 41
1.0
 50
0.0
 71
     0
 42
0.2
  3
txt
  4
bigfont.shx
  0
STYLE
  5
26
100
AcDbSymbolTableRecord
100
AcDbTextStyleTableRecord
  2
TATEGAKI
 70
    68
 40
0.0
 41
1.0
 50
0.0
 71
     0
 42
1.0
  3
txt
  4
bigfont.shx
  0
ENDTAB
  0
TABLE
  2
LAYER
 70
    6
  0
LAYER
  2
_0-1_MOD
 70
   64
 62
    7
  6
CONTINUOUS
  0
LAYER
  2
_0-2_Õ»_µ│__
 70
   64
 62
    7
  6
CONTINUOUS
  0
LAYER
  2
_0-3_Þ║_õ¢ôÒ
 70
   64
 62
    7
  6
CONTINUOUS
  0
LAYER
  2
_0-4_µûçÕ___
 70
   64
 62
    7
  6
CONTINUOUS
  0
LAYER
  2
_0-5_õ©_Õ┐âþ_
 70
   64
 62
    7
  6
CONTINUOUS
  0
LAYER
  2
ADD_LINE
 70
   64
 62
    7
  6
CONTINUOUS
  0
ENDTAB
  0
ENDSEC
  0
SECTION
  2
BLOCKS
  0
ENDSEC
  0
SECTION
  2
ENTITIES
  0
LINE
  8
_0-3_Þ║_õ¢ôÒ
  6
CONTINUOUS
 62
    5
 10
2234.6227474139005
 20
1322.5282778942446
 11
2234.6227474139005
 21
1300.4227397432658
  0
LINE
  8
_0-5_õ©_Õ┐âþ_
  6
LONG3
 62
    5
 10
584.77270133707054
 20
1341.0037144252233
 11
584.77270133707054
 21
818.94822021248706
  0
LINE
  8
_0-5_õ©_Õ┐âþ_
  6
LONG3
 62
    5
 10
323.74499139086157
 20
1079.9759673188553
 11
845.80037412312038
 21
1079.9759673188553
  0
LINE
  8
_0-5_õ©_Õ┐âþ_
  6
LONG3
 62
    5
 10
1284.7726644272971
 20
1341.0340371150307
 11
1284.7726644272971
 21
818.97861722261291
  0
LINE
  8
_0-5_õ©_Õ┐âþ_
  6
LONG3
 62
    5
 10
1023.7449916412472
 20
1080.0062900086627
 11
1545.8003372133467
 21
1080.0062900086627
  0
LINE
  8
_0-5_õ©_Õ┐âþ_
  6
LONG3
 62
    5
 10
1984.7727018378414
 20
1341.0037144252233
 11
1984.7727018378414
 21
818.94822021248706
  0
LINE
  8
_0-5_õ©_Õ┐âþ_
  6
LONG3
 62
    5
 10
1723.7450290517918
 20
1079.9759673188553
 11
2245.8003746238915
 21
1079.9759673188553
  0
LINE
  8
_0-2_Õ»_µ│__
  6
CONTINUOUS
 62
    5
 10
334.92269292117084
 20
1325.1725948142268
 11
334.92269292117084
 21
1390.1181480378257
  0
LINE
  8
_0-2_Õ»_µ│__
  6
CONTINUOUS
 62
    5
 10
834.62267259281111
 20
1325.1725948142268
 11
834.62267259281111
 21
1390.1181480378257
  0
LINE
  8
_0-2_Õ»_µ│__
  6
CONTINUOUS
 62
    5
 10
334.92269292117084
 20
1390.1181480378257
 11
834.62267259281111
 21
1390.1181480378257
  0
LINE
  8
_0-2_Õ»_µ│__
  6
CONTINUOUS
 62
    5
 10
339.57607384169881
 20
830.12592174279644
 11
273.3775172141527
 21
830.12592174279644
  0
LINE
  8
_0-2_Õ»_µ│__
  6
CONTINUOUS
 62
    5
 10
339.57607384169881
 20
1329.825938574596
 11
273.3775172141527
 21
1329.825938574596
  0
LINE
  8
_0-2_Õ»_µ│__
  6
CONTINUOUS
 62
    5
 10
273.3775172141527
 20
830.12592174279644
 11
273.3775172141527
 21
1329.825938574596
  0
LINE
  8
_0-2_Õ»_µ│__
  6
CONTINUOUS
 62
    5
 10
1039.5760369319253
 20
830.15631875292206
 11
970.34465392123775
 21
830.15631875292206
  0
LINE
  8
_0-2_Õ»_µ│__
  6
CONTINUOUS
 62
    5
 10
1039.5760369319253
 20
1329.8562612644034
 11
970.34465392123775
 21
1329.8562612644034
  0
LINE
  8
_0-2_Õ»_µ│__
  6
CONTINUOUS
 62
    5
 10
970.34465392123775
 20
830.15631875292206
 11
970.34465392123775
 21
1329.8562612644034
  0
LINE
  8
_0-2_Õ»_µ│__
  6
CONTINUOUS
 62
    5
 10
1734.9226562617828
 20
1325.1725948142268
 11
1734.9226562617828
 21
1390.1181480378257
  0
LINE
  8
_0-2_Õ»_µ│__
  6
CONTINUOUS
 62
    5
 10
2234.6227474139005
 20
1325.1725948142268
 11
2234.6227474139005
 21
1390.1181480378257
  0
LINE
  8
_0-2_Õ»_µ│__
  6
CONTINUOUS
 62
    5
 10
1734.9226562617828
 20
1390.1181480378257
 11
2234.6227474139005
 21
1390.1181480378257
  0
LINE
  8
_0-2_Õ»_µ│__
  6
CONTINUOUS
 62
    5
 10
1739.5760000221517
 20
830.12592174279644
 11
1669.9888456484528
 21
830.12592174279644
  0
LINE
  8
_0-2_Õ»_µ│__
  6
CONTINUOUS
 62
    5
 10
1739.5760000221517
 20
1329.825938574596
 11
1669.9888456484528
 21
1329.825938574596
  0
LINE
  8
_0-2_Õ»_µ│__
  6
CONTINUOUS
 62
    5
 10
1669.9888456484528
 20
830.12592174279644
 11
1669.9888456484528
 21
1329.825938574596
  0
LINE
  8
_0-2_Õ»_µ│__
  6
CONTINUOUS
 62
    5
 10
1939.7727896789788
 20
833.07584381103516
 11
1939.7727896789788
 21
798.39463894523715
  0
LINE
  8
_0-2_Õ»_µ│__
  6
CONTINUOUS
 62
    5
 10
2029.7727626373407
 20
833.07584381103516
 11
2029.7727626373407
 21
798.39463894523715
  0
LINE
  8
_0-2_Õ»_µ│__
  6
CONTINUOUS
 62
    5
 10
1939.7727896789788
 20
798.39463894523715
 11
2029.7727626373407
 21
798.39463894523715
  0
LINE
  8
_0-2_Õ»_µ│__
  6
CONTINUOUS
 62
    5
 10
1922.4728032999517
 20
827.37584701007859
 11
1922.4728032999517
 21
771.69342960077825
  0
LINE
  8
_0-2_Õ»_µ│__
  6
CONTINUOUS
 62
    5
 10
2047.0727490163677
 20
827.37584701007859
 11
2047.0727490163677
 21
771.69342960077825
  0
LINE
  8
_0-2_Õ»_µ│__
  6
CONTINUOUS
 62
    5
 10
1922.4728032999517
 20
771.69342960077825
 11
2047.0727490163677
 21
771.69342960077825
  0
LINE
  8
_0-2_Õ»_µ│__
  6
CONTINUOUS
 62
    5
 10
1943.7728578427582
 20
874.97585549962105
 11
1880.8453985383612
 21
874.97585549962105
  0
LINE
  8
_0-2_Õ»_µ│__
  6
CONTINUOUS
 62
    5
 10
1889.492716196421
 20
830.37586097275425
 11
1880.8453985383612
 21
830.37586097275425
  0
LINE
  8
_0-2_Õ»_µ│__
  6
CONTINUOUS
 62
    5
 10
1880.8453985383612
 20
874.97585549962105
 11
1880.8453985383612
 21
830.37586097275425
  0
LINE
  8
_0-2_Õ»_µ│__
  6
CONTINUOUS
 62
    5
 10
332.52155208219432
 20
700.99652423637713
 11
294.27867602933787
 21
700.99652423637713
  0
LINE
  8
_0-2_Õ»_µ│__
  6
CONTINUOUS
 62
    5
 10
1034.9226931715564
 20
1325.2029175040343
 11
1034.9226931715564
 21
1390.1484707276331
  0
LINE
  8
_0-2_Õ»_µ│__
  6
CONTINUOUS
 62
    5
 10
1534.6227100033557
 20
1325.2029175040343
 11
1534.6227100033557
 21
1390.1484707276331
  0
LINE
  8
_0-2_Õ»_µ│__
  6
CONTINUOUS
 62
    5
 10
1034.9226931715564
 20
1390.1484707276331
 11
1534.6227100033557
 21
1390.1484707276331
  0
LINE
  8
_0-2_Õ»_µ│__
  6
CONTINUOUS
 62
    5
 10
334.95305277113755
 20
703.09651914618644
 11
334.95305277113755
 21
733.18918756904748
  0
LINE
  8
_0-2_Õ»_µ│__
  6
CONTINUOUS
 62
    5
 10
834.77272531516769
 20
703.09651914618644
 11
834.77272531516769
 21
733.18918756904748
  0
LINE
  8
_0-2_Õ»_µ│__
  6
CONTINUOUS
 62
    5
 10
334.95305277113755
 20
733.18918756904748
 11
834.77272531516769
 21
733.18918756904748
  0
LINE
  8
_0-2_Õ»_µ│__
  6
CONTINUOUS
 62
    5
 10
345.73815722078882
 20
671.99651313104221
 11
294.27867602933787
 21
671.99651313104221
  0
LINE
  8
_0-2_Õ»_µ│__
  6
CONTINUOUS
 62
    5
 10
294.27867602933787
 20
700.99652423637713
 11
294.27867602933787
 21
671.99651313104221
  0
LINE
  8
_0-3_Þ║_õ¢ôÒ
  6
CONTINUOUS
 62
    5
 10
334.92269292117084
 20
837.779279465841
 11
334.92269292117084
 21
1322.1725808515512
  0
LINE
  8
_0-3_Þ║_õ¢ôÒ
  6
CONTINUOUS
 62
    5
 10
834.62267259281111
 20
1322.1725808515512
 11
834.62267259281111
 21
955.82120030819226
  0
LINE
  8
_0-3_Þ║_õ¢ôÒ
  6
CONTINUOUS
 62
    5
 10
834.62267259281111
 20
940.13069473914663
 11
834.62267259281111
 21
837.779279465841
  0
LINE
  8
_0-3_Þ║_õ¢ôÒ
  6
CONTINUOUS
 62
    5
 10
708.92746834773357
 20
830.12592174279644
 11
342.57608780437448
 21
830.12592174279644
  0
LINE
  8
_0-3_Þ║_õ¢ôÒ
  6
CONTINUOUS
 62
    5
 10
826.96931486976655
 20
830.12592174279644
 11
724.61789959646092
 21
830.12592174279644
  0
LINE
  8
_0-3_Þ║_õ¢ôÒ
  6
CONTINUOUS
 62
    5
 10
708.92746834773357
 20
832.97595730343369
 11
708.92746834773357
 21
830.12592174279644
  0
LINE
  8
_0-3_Þ║_õ¢ôÒ
  6
CONTINUOUS
 62
    5
 10
724.61789959646092
 20
830.12592174279644
 11
724.61789959646092
 21
832.97595730343369
  0
LINE
  8
_0-3_Þ║_õ¢ôÒ
  6
CONTINUOUS
 62
    5
 10
715.47271012707563
 20
837.17594712305254
 11
718.07273213743701
 21
837.17594712305254
  0
LINE
  8
_0-3_Þ║_õ¢ôÒ
  6
CONTINUOUS
 62
    5
 10
827.57272153287317
 20
946.6759365184887
 11
827.57272153287317
 21
949.2759585288502
  0
LINE
  8
_0-3_Þ║_õ¢ôÒ
  6
CONTINUOUS
 62
    5
 10
831.77271135249202
 20
940.13069473914663
 11
834.62267259281111
 21
940.13069473914663
  0
LINE
  8
_0-3_Þ║_õ¢ôÒ
  6
CONTINUOUS
 62
    5
 10
834.62267259281111
 20
955.82120030819226
 11
831.77271135249202
 21
955.82120030819226
  0
LINE
  8
_0-3_Þ║_õ¢ôÒ
  6
CONTINUOUS
 62
    5
 10
826.96931486976655
 20
1329.825938574596
 11
342.57608780437448
 21
1329.825938574596
  0
LINE
  8
_0-3_Þ║_õ¢ôÒ
  6
CONTINUOUS
 62
    5
 10
1735.1728184526951
 20
860.19042276507639
 11
1735.1728184526951
 21
1299.7614375523158
  0
LINE
  8
_0-3_Þ║_õ¢ôÒ
  6
CONTINUOUS
 62
    5
 10
2234.3727338636245
 20
1299.7612889116795
 11
2234.3727338636245
 21
955.82105166755582
  0
LINE
  8
_0-3_Þ║_õ¢ôÒ
  6
CONTINUOUS
 62
    5
 10
2204.5583950322571
 20
830.37586097275425
 11
2124.6179744175502
 21
830.37586097275425
  0
LINE
  8
_0-3_Þ║_õ¢ôÒ
  6
CONTINUOUS
 62
    5
 10
1922.4726546593151
 20
835.07595221324323
 11
1938.7727354778744
 21
835.07595221324323
  0
LINE
  8
_0-3_Þ║_õ¢ôÒ
  6
CONTINUOUS
 62
    5
 10
1938.7730327591473
 20
835.07595221324323
 11
1922.4726546593151
 21
835.07595221324323
  0
LINE
  8
_0-3_Þ║_õ¢ôÒ
  6
CONTINUOUS
 62
    5
 10
1922.4728032999517
 20
830.37586097275425
 11
1764.9871572840625
 21
830.37586097275425
  0
LINE
  8
_0-3_Þ║_õ¢ôÒ
  6
CONTINUOUS
 62
    5
 10
1734.9228049024191
 20
837.42343378251121
 11
1734.9228049024191
 21
859.52897193348997
  0
LINE
  8
_0-3_Þ║_õ¢ôÒ
  6
CONTINUOUS
 62
    5
 10
1764.3258550931128
 20
830.12584742247827
 11
1742.2203169421339
 21
830.12584742247827
  0
LINE
  8
_0-3_Þ║_õ¢ôÒ
  6
CONTINUOUS
 62
    5
 10
1926.3726876748574
 20
875.97605834136141
 11
1926.3726876748574
 21
835.07595221324323
  0
LINE
  8
_0-3_Þ║_õ¢ôÒ
  6
CONTINUOUS
 62
    5
 10
1925.6727389184662
 20
875.97605834136141
 11
1925.6727389184662
 21
835.07595221324323
  0
LINE
  8
_0-3_Þ║_õ¢ôÒ
  6
CONTINUOUS
 62
    5
 10
1926.7726796271718
 20
875.9759097007252
 11
1926.7726796271718
 21
835.07595221324323
  0
LINE
  8
_0-3_Þ║_õ¢ôÒ
  6
CONTINUOUS
 62
    5
 10
1922.4726546593151
 20
875.9759097007252
 11
1922.4726546593151
 21
835.07595221324323
  0
LINE
  8
_0-3_Þ║_õ¢ôÒ
  6
CONTINUOUS
 62
    5
 10
1922.4726546593151
 20
835.07595221324323
 11
1922.4726546593151
 21
830.37586097275425
  0
LINE
  8
_0-3_Þ║_õ¢ôÒ
  6
CONTINUOUS
 62
    5
 10
2027.0657193688353
 20
875.47580827985496
 11
2022.7728291515216
 21
875.47580827985496
  0
LINE
  8
_0-3_Þ║_õ¢ôÒ
  6
CONTINUOUS
 62
    5
 10
1939.7727896789788
 20
850.57582616621914
 11
1939.7727896789788
 21
836.07585777371082
  0
LINE
  8
_0-3_Þ║_õ¢ôÒ
  6
CONTINUOUS
 62
    5
 10
2022.7728291515216
 20
874.97585549962105
 11
1946.7728718054341
 21
874.97585549962105
  0
LINE
  8
_0-3_Þ║_õ¢ôÒ
  6
CONTINUOUS
 62
    5
 10
1946.7728718054341
 20
875.47580827985496
 11
1942.4799815881206
 21
875.47580827985496
  0
LINE
  8
_0-3_Þ║_õ¢ôÒ
  6
CONTINUOUS
 62
    5
 10
1942.4799815881206
 20
875.47580827985496
 11
1939.2727625784269
 21
872.2687379107972
  0
LINE
  8
_0-3_Þ║_õ¢ôÒ
  6
CONTINUOUS
 62
    5
 10
1939.7727896789788
 20
867.47582059293177
 11
1939.2727625784269
 21
867.47582059293177
  0
LINE
  8
_0-3_Þ║_õ¢ôÒ
  6
CONTINUOUS
 62
    5
 10
1939.7727896789788
 20
857.77582994851366
 11
1939.7727896789788
 21
867.47582059293177
  0
LINE
  8
_0-3_Þ║_õ¢ôÒ
  6
CONTINUOUS
 62
    5
 10
1939.2727625784269
 20
867.47582059293177
 11
1939.2727625784269
 21
872.2687379107972
  0
LINE
  8
_0-3_Þ║_õ¢ôÒ
  6
CONTINUOUS
 62
    5
 10
1946.7728718054341
 20
874.97585549962105
 11
1946.7728718054341
 21
875.47580827985496
  0
LINE
  8
_0-3_Þ║_õ¢ôÒ
  6
CONTINUOUS
 62
    5
 10
1937.4728731133305
 20
857.77582994851366
 11
1939.7727896789788
 21
857.77582994851366
  0
LINE
  8
_0-3_Þ║_õ¢ôÒ
  6
CONTINUOUS
 62
    5
 10
1937.4728731133305
 20
851.57580604700502
 11
1938.7728841185108
 21
851.57580604700502
  0
LINE
  8
_0-3_Þ║_õ¢ôÒ
  6
CONTINUOUS
 62
    5
 10
1937.4728731133305
 20
851.57580604700502
 11
1937.4728731133305
 21
857.77582994851366
  0
LINE
  8
_0-3_Þ║_õ¢ôÒ
  6
CONTINUOUS
 62
    5
 10
1937.4728731133305
 20
857.77582994851366
 11
1937.4728731133305
 21
851.57580604700502
  0
LINE
  8
_0-3_Þ║_õ¢ôÒ
  6
CONTINUOUS
 62
    5
 10
2022.7728291515216
 20
874.97585549962105
 11
2022.7728291515216
 21
875.47580827985496
  0
LINE
  8
_0-3_Þ║_õ¢ôÒ
  6
CONTINUOUS
 62
    5
 10
2029.7727626373407
 20
850.57582616621914
 11
2029.7727626373407
 21
836.07585777371082
  0
LINE
  8
_0-3_Þ║_õ¢ôÒ
  6
CONTINUOUS
 62
    5
 10
2042.7727240485112
 20
875.9759097007252
 11
2042.7727240485112
 21
835.07595221324323
  0
LINE
  8
_0-3_Þ║_õ¢ôÒ
  6
CONTINUOUS
 62
    5
 10
2043.8726647572166
 20
875.97605834136141
 11
2043.8726647572166
 21
835.07595221324323
  0
LINE
  8
_0-3_Þ║_õ¢ôÒ
  6
CONTINUOUS
 62
    5
 10
2043.1727160008259
 20
875.97605834136141
 11
2043.1727160008259
 21
835.07595221324323
  0
LINE
  8
_0-3_Þ║_õ¢ôÒ
  6
CONTINUOUS
 62
    5
 10
2042.7727240485112
 20
875.9759097007252
 11
2042.7727240485112
 21
835.07595221324323
  0
LINE
  8
_0-3_Þ║_õ¢ôÒ
  6
CONTINUOUS
 62
    5
 10
2047.0727490163677
 20
875.9759097007252
 11
2047.0727490163677
 21
835.07595221324323
  0
LINE
  8
_0-3_Þ║_õ¢ôÒ
  6
CONTINUOUS
 62
    5
 10
2108.9274688485048
 20
830.37586097275425
 11
2047.0727490163677
 21
830.37586097275425
  0
LINE
  8
_0-3_Þ║_õ¢ôÒ
  6
CONTINUOUS
 62
    5
 10
2047.0727490163677
 20
835.07595221324323
 11
2030.7726681978086
 21
835.07595221324323
  0
LINE
  8
_0-3_Þ║_õ¢ôÒ
  6
CONTINUOUS
 62
    5
 10
2047.0727490163677
 20
835.07595221324323
 11
2030.7723709165361
 21
835.07595221324323
  0
LINE
  8
_0-3_Þ║_õ¢ôÒ
  6
CONTINUOUS
 62
    5
 10
2047.0727490163677
 20
835.07595221324323
 11
2047.0727490163677
 21
830.37586097275425
  0
LINE
  8
_0-3_Þ║_õ¢ôÒ
  6
CONTINUOUS
 62
    5
 10
2115.4727106278465
 20
837.57586475504866
 11
2118.072732638208
 21
837.57586475504866
  0
LINE
  8
_0-3_Þ║_õ¢ôÒ
  6
CONTINUOUS
 62
    5
 10
2124.6179744175502
 20
830.37586097275425
 11
2124.6179744175502
 21
833.87582771566395
  0
LINE
  8
_0-3_Þ║_õ¢ôÒ
  6
CONTINUOUS
 62
    5
 10
2108.9274688485048
 20
833.87582771566395
 11
2108.9274688485048
 21
830.37586097275425
  0
LINE
  8
_0-3_Þ║_õ¢ôÒ
  6
CONTINUOUS
 62
    5
 10
2032.7727766000164
 20
867.47582059293177
 11
2032.8228684944534
 21
867.47582059293177
  0
LINE
  8
_0-3_Þ║_õ¢ôÒ
  6
CONTINUOUS
 62
    5
 10
2032.0728278436254
 20
857.77582994851366
 11
2029.7727626373407
 21
857.77582994851366
  0
LINE
  8
_0-3_Þ║_õ¢ôÒ
  6
CONTINUOUS
 62
    5
 10
2032.8228684944534
 20
857.77582994851366
 11
2032.7727766000164
 21
857.77582994851366
  0
LINE
  8
_0-3_Þ║_õ¢ôÒ
  6
CONTINUOUS
 62
    5
 10
2030.2727897378927
 20
867.47582059293177
 11
2030.2727897378927
 21
872.2687379107972
  0
LINE
  8
_0-3_Þ║_õ¢ôÒ
  6
CONTINUOUS
 62
    5
 10
2029.7727626373407
 20
857.77582994851366
 11
2029.7727626373407
 21
867.47582059293177
  0
LINE
  8
_0-3_Þ║_õ¢ôÒ
  6
CONTINUOUS
 62
    5
 10
2029.7727626373407
 20
867.47582059293177
 11
2030.2727897378927
 21
867.47582059293177
  0
LINE
  8
_0-3_Þ║_õ¢ôÒ
  6
CONTINUOUS
 62
    5
 10
2027.0657193688353
 20
875.47580827985496
 11
2030.2727897378927
 21
872.2687379107972
  0
LINE
  8
_0-3_Þ║_õ¢ôÒ
  6
CONTINUOUS
 62
    5
 10
2030.7728168384451
 20
851.57580604700502
 11
2032.0728278436254
 21
851.57580604700502
  0
LINE
  8
_0-3_Þ║_õ¢ôÒ
  6
CONTINUOUS
 62
    5
 10
2032.0728278436254
 20
851.57580604700502
 11
2032.0728278436254
 21
857.77582994851366
  0
LINE
  8
_0-3_Þ║_õ¢ôÒ
  6
CONTINUOUS
 62
    5
 10
2030.7726681978086
 20
892.27591619896612
 11
1938.7727354778744
 21
892.27591619896612
  0
LINE
  8
_0-3_Þ║_õ¢ôÒ
  6
CONTINUOUS
 62
    5
 10
2030.7726681978086
 20
887.97596555142786
 11
1938.7727354778744
 21
887.97596555142786
  0
LINE
  8
_0-3_Þ║_õ¢ôÒ
  6
CONTINUOUS
 62
    5
 10
1938.7727354778744
 20
889.07605490076958
 11
2030.7726681978086
 21
889.07605490076958
  0
LINE
  8
_0-3_Þ║_õ¢ôÒ
  6
CONTINUOUS
 62
    5
 10
1938.7727354778744
 20
888.37603182406031
 11
2030.7726681978086
 21
888.37603182406031
  0
LINE
  8
_0-3_Þ║_õ¢ôÒ
  6
CONTINUOUS
 62
    5
 10
2234.3727338636245
 20
940.13062041882836
 11
2234.3727338636245
 21
860.1901998041219
  0
LINE
  8
_0-3_Þ║_õ¢ôÒ
  6
CONTINUOUS
 62
    5
 10
2227.3252353741855
 20
830.12584742247827
 11
2205.2195485825705
 21
830.12584742247827
  0
LINE
  8
_0-3_Þ║_õ¢ôÒ
  6
CONTINUOUS
 62
    5
 10
2234.6227474139005
 20
837.42343378251121
 11
2234.6227474139005
 21
859.52897193348997
  0
LINE
  8
_0-3_Þ║_õ¢ôÒ
  6
CONTINUOUS
 62
    5
 10
2231.3727199009486
 20
940.13062041882836
 11
2234.3727338636245
 21
940.13062041882836
  0
LINE
  8
_0-3_Þ║_õ¢ôÒ
  6
CONTINUOUS
 62
    5
 10
2227.17273008133
 20
946.67586219817053
 11
2227.17273008133
 21
949.27588420853192
  0
LINE
  8
_0-3_Þ║_õ¢ôÒ
  6
CONTINUOUS
 62
    5
 10
2234.3727338636245
 20
955.82105166755582
 11
2231.3727199009486
 21
955.82105166755582
  0
LINE
  8
_0-3_Þ║_õ¢ôÒ
  6
CONTINUOUS
 62
    5
 10
2204.558097750984
 20
1329.5757763836834
 11
1764.9873059246991
 21
1329.5757763836834
  0
LINE
  8
_0-3_Þ║_õ¢ôÒ
  6
CONTINUOUS
 62
    5
 10
1734.9226562617828
 20
1322.5282778942446
 11
1734.9226562617828
 21
1300.4227397432658
  0
LINE
  8
_0-3_Þ║_õ¢ôÒ
  6
CONTINUOUS
 62
    5
 10
1742.2203169421339
 20
1329.8257899339594
 11
1764.3258550931128
 21
1329.8257899339594
  0
LINE
  8
_0-3_Þ║_õ¢ôÒ
  6
CONTINUOUS
 62
    5
 10
2227.3250867335491
 20
1329.8257899339594
 11
2205.2195485825705
 21
1329.8257899339594
  0
LINE
  8
_0-3_Þ║_õ¢ôÒ
  6
CONTINUOUS
 62
    5
 10
2044.9018525230379
 20
852.0646850998337
 11
2044.9018525230379
 21
830.60194338058409
  0
LINE
  8
_0-3_Þ║_õ¢ôÒ
  6
CONTINUOUS
 62
    5
 10
1924.7019669227157
 20
852.0646850998337
 11
1924.7019669227157
 21
830.60194338058409
  0
LINE
  8
_0-3_Þ║_õ¢ôÒ
  6
CONTINUOUS
 62
    5
 10
2044.9018525230379
 20
857.28702521600314
 11
2032.1309463324235
 21
857.79730852046077
  0
LINE
  8
_0-3_Þ║_õ¢ôÒ
  6
CONTINUOUS
 62
    5
 10
2044.9018525230379
 20
852.0646850998337
 11
2032.1309463324235
 21
851.55440179537618
  0
LINE
  8
_0-3_Þ║_õ¢ôÒ
  6
CONTINUOUS
 62
    5
 10
2044.9018525230379
 20
875.40193388360808
 11
2044.9018525230379
 21
857.28702521600314
  0
LINE
  8
_0-3_Þ║_õ¢ôÒ
  6
CONTINUOUS
 62
    5
 10
1950.1850662526017
 20
882.47120822626653
 11
1932.2019275090868
 21
882.47120822626653
  0
LINE
  8
_0-3_Þ║_õ¢ôÒ
  6
CONTINUOUS
 62
    5
 10
1932.2019275090868
 20
875.47120042012921
 11
1950.1850662526017
 21
875.47120042012921
  0
LINE
  8
_0-3_Þ║_õ¢ôÒ
  6
CONTINUOUS
 62
    5
 10
1938.701833894354
 20
889.40194949588272
 11
1950.1850662526017
 21
889.40194949588272
  0
LINE
  8
_0-3_Þ║_õ¢ôÒ
  6
CONTINUOUS
 62
    5
 10
2016.4187392304761
 20
874.57586354730677
 11
2016.4187392304761
 21
889.40194949588272
  0
LINE
  8
_0-3_Þ║_õ¢ôÒ
  6
CONTINUOUS
 62
    5
 10
2019.4187531931518
 20
874.57586354730677
 11
2019.4187531931518
 21
889.40194949588272
  0
LINE
  8
_0-3_Þ║_õ¢ôÒ
  6
CONTINUOUS
 62
    5
 10
2003.4783827144665
 20
874.57586354730677
 11
2003.4783827144665
 21
889.40194949588272
  0
LINE
  8
_0-3_Þ║_õ¢ôÒ
  6
CONTINUOUS
 62
    5
 10
2006.4783966771424
 20
874.57586354730677
 11
2006.4783966771424
 21
889.40194949588272
  0
LINE
  8
_0-3_Þ║_õ¢ôÒ
  6
CONTINUOUS
 62
    5
 10
1966.1254367312868
 20
874.57586354730677
 11
1966.1254367312868
 21
889.40194949588272
  0
LINE
  8
_0-3_Þ║_õ¢ôÒ
  6
CONTINUOUS
 62
    5
 10
1963.1254227686113
 20
874.57586354730677
 11
1963.1254227686113
 21
889.40194949588272
  0
LINE
  8
_0-3_Þ║_õ¢ôÒ
  6
CONTINUOUS
 62
    5
 10
1950.1850662526017
 20
874.57586354730677
 11
1950.1850662526017
 21
889.40194949588272
  0
LINE
  8
_0-3_Þ║_õ¢ôÒ
  6
CONTINUOUS
 62
    5
 10
1953.1849315746408
 20
874.57586354730677
 11
1953.1849315746408
 21
889.40194949588272
  0
LINE
  8
_0-3_Þ║_õ¢ôÒ
  6
CONTINUOUS
 62
    5
 10
2003.4783827144665
 20
889.40194949588272
 11
1991.801917529014
 21
889.40194949588272
  0
LINE
  8
_0-3_Þ║_õ¢ôÒ
  6
CONTINUOUS
 62
    5
 10
2030.901836910763
 20
889.40194949588272
 11
2019.4187531931518
 21
889.40194949588272
  0
LINE
  8
_0-3_Þ║_õ¢ôÒ
  6
CONTINUOUS
 62
    5
 10
2016.4187392304761
 20
889.40194949588272
 11
2006.4783966771424
 21
889.40194949588272
  0
LINE
  8
_0-3_Þ║_õ¢ôÒ
  6
CONTINUOUS
 62
    5
 10
1966.1254367312868
 20
889.40194949588272
 11
1977.8019019167396
 21
889.40194949588272
  0
LINE
  8
_0-3_Þ║_õ¢ôÒ
  6
CONTINUOUS
 62
    5
 10
1990.0018794232815
 20
887.4722224349681
 11
1979.6019400224723
 21
887.4722224349681
  0
LINE
  8
_0-3_Þ║_õ¢ôÒ
  6
CONTINUOUS
 62
    5
 10
1990.80186332791
 20
888.27220633959678
 11
1990.80186332791
 21
888.40189529477857
  0
LINE
  8
_0-3_Þ║_õ¢ôÒ
  6
CONTINUOUS
 62
    5
 10
1978.8018074772074
 20
888.27220633959678
 11
1978.8018074772074
 21
888.40189529477857
  0
LINE
  8
_0-3_Þ║_õ¢ôÒ
  6
CONTINUOUS
 62
    5
 10
1953.1849315746408
 20
889.40194949588272
 11
1963.1254227686113
 21
889.40194949588272
  0
LINE
  8
_0-3_Þ║_õ¢ôÒ
  6
LONG3
 62
    5
 10
2003.4783827144665
 20
875.47120042012921
 11
1966.1254367312868
 21
875.47120042012921
  0
LINE
  8
_0-3_Þ║_õ¢ôÒ
  6
CONTINUOUS
 62
    5
 10
2006.4783966771424
 20
867.09076702456673
 11
2006.4783966771424
 21
869.42412773338515
  0
LINE
  8
_0-3_Þ║_õ¢ôÒ
  6
CONTINUOUS
 62
    5
 10
2016.4187392304761
 20
867.09076702456673
 11
2016.4187392304761
 21
869.42412773338515
  0
LINE
  8
_0-3_Þ║_õ¢ôÒ
  6
CONTINUOUS
 62
    5
 10
2019.4187531931518
 20
867.09076702456673
 11
2019.4187531931518
 21
870.70280880725522
  0
LINE
  8
_0-3_Þ║_õ¢ôÒ
  6
CONTINUOUS
 62
    5
 10
2003.4783827144665
 20
867.09076702456673
 11
2003.4783827144665
 21
870.70280880725522
  0
LINE
  8
_0-3_Þ║_õ¢ôÒ
  6
CONTINUOUS
 62
    5
 10
2019.1187963890752
 20
874.27583242291189
 11
2016.7188446751893
 21
874.27583242291189
  0
LINE
  8
_0-3_Þ║_õ¢ôÒ
  6
CONTINUOUS
 62
    5
 10
2018.9777364252159
 20
870.96753778052607
 11
2016.5777847113297
 21
869.688856706656
  0
LINE
  8
_0-3_Þ║_õ¢ôÒ
  6
CONTINUOUS
 62
    5
 10
2037.4018919366667
 20
875.47120042012921
 11
2019.4187531931518
 21
875.47120042012921
  0
LINE
  8
_0-3_Þ║_õ¢ôÒ
  6
CONTINUOUS
 62
    5
 10
2019.4187531931518
 20
882.47120822626653
 11
2037.4018919366667
 21
882.47120822626653
  0
LINE
  8
_0-3_Þ║_õ¢ôÒ
  6
CONTINUOUS
 62
    5
 10
2016.4187392304761
 20
882.47120822626653
 11
2006.4783966771424
 21
882.47120822626653
  0
LINE
  8
_0-3_Þ║_õ¢ôÒ
  6
CONTINUOUS
 62
    5
 10
2016.4187392304761
 20
875.47120042012921
 11
2006.4783966771424
 21
875.47120042012921
  0
LINE
  8
_0-3_Þ║_õ¢ôÒ
  6
CONTINUOUS
 62
    5
 10
2003.7783395185434
 20
874.27583242291189
 11
2006.1782912324293
 21
874.27583242291189
  0
LINE
  8
_0-3_Þ║_õ¢ôÒ
  6
CONTINUOUS
 62
    5
 10
2003.9193994824032
 20
870.96753778052607
 11
2006.3193511962891
 21
869.688856706656
  0
LINE
  8
_0-3_Þ║_õ¢ôÒ
  6
CONTINUOUS
 62
    5
 10
2028.0578956162146
 20
857.28702521600314
 11
2028.0578956162146
 21
852.0646850998337
  0
LINE
  8
_0-3_Þ║_õ¢ôÒ
  6
CONTINUOUS
 62
    5
 10
2028.9549418563547
 20
857.39939753705471
 11
2028.9549418563547
 21
851.95231277878224
  0
LINE
  8
_0-3_Þ║_õ¢ôÒ
  6
CONTINUOUS
 62
    5
 10
2032.1309463324235
 20
857.79730852046077
 11
2032.1309463324235
 21
851.55440179537618
  0
LINE
  8
_0-3_Þ║_õ¢ôÒ
  6
CONTINUOUS
 62
    5
 10
2032.1309463324235
 20
857.79730852046077
 11
2028.0578956162146
 21
857.28702521600314
  0
LINE
  8
_0-3_Þ║_õ¢ôÒ
  6
CONTINUOUS
 62
    5
 10
2032.1309463324235
 20
851.55440179537618
 11
2028.0578956162146
 21
852.0646850998337
  0
LINE
  8
_0-3_Þ║_õ¢ôÒ
  6
CONTINUOUS
 62
    5
 10
1963.1254227686113
 20
867.09076702456673
 11
1963.1254227686113
 21
869.42412773338515
  0
LINE
  8
_0-3_Þ║_õ¢ôÒ
  6
CONTINUOUS
 62
    5
 10
1966.1254367312868
 20
867.09076702456673
 11
1966.1254367312868
 21
870.70280880725522
  0
LINE
  8
_0-3_Þ║_õ¢ôÒ
  6
CONTINUOUS
 62
    5
 10
1950.1850662526017
 20
867.09076702456673
 11
1950.1850662526017
 21
870.70280880725522
  0
LINE
  8
_0-3_Þ║_õ¢ôÒ
  6
CONTINUOUS
 62
    5
 10
1953.1849315746408
 20
867.09076702456673
 11
1953.1849315746408
 21
869.42412773338515
  0
LINE
  8
_0-3_Þ║_õ¢ôÒ
  6
CONTINUOUS
 62
    5
 10
1953.1849315746408
 20
882.47120822626653
 11
1963.1254227686113
 21
882.47120822626653
  0
LINE
  8
_0-3_Þ║_õ¢ôÒ
  6
CONTINUOUS
 62
    5
 10
1953.1849315746408
 20
875.47120042012921
 11
1963.1254227686113
 21
875.47120042012921
  0
LINE
  8
_0-3_Þ║_õ¢ôÒ
  6
CONTINUOUS
 62
    5
 10
1965.8254799272104
 20
874.27583242291189
 11
1963.4253795726877
 21
874.27583242291189
  0
LINE
  8
_0-3_Þ║_õ¢ôÒ
  6
CONTINUOUS
 62
    5
 10
1965.6844199633506
 20
870.96753778052607
 11
1963.2843196088284
 21
869.688856706656
  0
LINE
  8
_0-3_Þ║_õ¢ôÒ
  6
CONTINUOUS
 62
    5
 10
1950.4850230566783
 20
874.27583242291189
 11
1952.8849747705644
 21
874.27583242291189
  0
LINE
  8
_0-3_Þ║_õ¢ôÒ
  6
CONTINUOUS
 62
    5
 10
1950.6260830205381
 20
870.96753778052607
 11
1953.0260347344242
 21
869.688856706656
  0
LINE
  8
_0-3_Þ║_õ¢ôÒ
  6
CONTINUOUS
 62
    5
 10
1924.7019669227157
 20
875.40193388360808
 11
1924.7019669227157
 21
857.28702521600314
  0
LINE
  8
_0-3_Þ║_õ¢ôÒ
  6
CONTINUOUS
 62
    5
 10
1924.7019669227157
 20
857.28702521600314
 11
1937.4728731133305
 21
857.79730852046077
  0
LINE
  8
_0-3_Þ║_õ¢ôÒ
  6
CONTINUOUS
 62
    5
 10
1924.7019669227157
 20
852.0646850998337
 11
1937.4728731133305
 21
851.55440179537618
  0
LINE
  8
_0-3_Þ║_õ¢ôÒ
  6
CONTINUOUS
 62
    5
 10
1940.6488775893986
 20
857.39939753705471
 11
1940.6488775893986
 21
851.95231277878224
  0
LINE
  8
_0-3_Þ║_õ¢ôÒ
  6
CONTINUOUS
 62
    5
 10
1937.4728731133305
 20
857.79730852046077
 11
1937.4728731133305
 21
851.55440179537618
  0
LINE
  8
_0-3_Þ║_õ¢ôÒ
  6
CONTINUOUS
 62
    5
 10
1941.5459238295389
 20
857.28702521600314
 11
1941.5459238295389
 21
852.0646850998337
  0
LINE
  8
_0-3_Þ║_õ¢ôÒ
  6
CONTINUOUS
 62
    5
 10
1937.4728731133305
 20
857.79730852046077
 11
1941.5459238295389
 21
857.28702521600314
  0
LINE
  8
_0-3_Þ║_õ¢ôÒ
  6
CONTINUOUS
 62
    5
 10
1937.4728731133305
 20
851.55440179537618
 11
1941.5459238295389
 21
852.0646850998337
  0
LINE
  8
_0-3_Þ║_õ¢ôÒ
  6
LONG3
 62
    5
 10
2044.9018525230379
 20
832.9019342665506
 11
1924.7019669227157
 21
832.9019342665506
  0
LINE
  8
_0-3_Þ║_õ¢ôÒ
  6
LONG3
 62
    5
 10
2044.9018525230379
 20
830.60194338058409
 11
1924.7019669227157
 21
830.60194338058409
  0
LINE
  8
_0-3_Þ║_õ¢ôÒ
  6
LONG3
 62
    5
 10
2037.4018919366667
 20
840.37120056152344
 11
1932.2019275090868
 21
840.37120056152344
  0
LINE
  8
_0-3_Þ║_õ¢ôÒ
  6
LONG3
 62
    5
 10
1932.2019275090868
 20
847.37120836766064
 11
2037.4018919366667
 21
847.37120836766064
  0
LINE
  8
_0-3_Þ║_õ¢ôÒ
  6
LONG3
 62
    5
 10
2003.4492491497494
 20
882.47120822626653
 11
1966.0963031665701
 21
882.47120822626653
  0
LINE
  8
_0-3_Þ║_õ¢ôÒ
  6
LONG3
 62
    5
 10
1470.3704167075139
 20
1300.6513490419129
 11
1470.3704167075139
 21
1319.8259911261011
  0
LINE
  8
_0-3_Þ║_õ¢ôÒ
  6
CONTINUOUS
 62
    5
 10
1533.5414980148255
 20
1322.9003254069323
 11
1530.0414569515979
 21
1322.9003254069323
  0
LINE
  8
_0-3_Þ║_õ¢ôÒ
  6
CONTINUOUS
 62
    5
 10
1526.6158848471623
 20
1326.3260461520044
 11
1526.6158848471623
 21
1329.8260872152321
  0
LINE
  8
_0-3_Þ║_õ¢ôÒ
  6
LONG3
 62
    5
 10
1504.3667598415066
 20
1266.6550059079204
 11
1523.5414019256946
 21
1266.6550059079204
  0
LINE
  8
_0-3_Þ║_õ¢ôÒ
  6
CONTINUOUS
 62
    5
 10
1504.3703272167782
 20
1266.1549788073683
 11
1523.5414019256946
 21
1266.1549788073683
  0
LINE
  8
_0-3_Þ║_õ¢ôÒ
  6
CONTINUOUS
 62
    5
 10
1469.8703896069619
 20
1300.6549164171845
 11
1469.8703896069619
 21
1319.8259911261011
  0
LINE
  8
_0-3_Þ║_õ¢ôÒ
  6
CONTINUOUS
 62
    5
 10
1452.2361104368701
 20
1297.4759391283897
 11
1283.9416146296792
 21
1297.4759391283897
  0
LINE
  8
_0-3_Þ║_õ¢ôÒ
  6
CONTINUOUS
 62
    5
 10
1504.3703272167782
 20
894.29705725121221
 11
1523.5414019256946
 21
894.29705725121221
  0
LINE
  8
_0-3_Þ║_õ¢ôÒ
  6
LONG3
 62
    5
 10
1504.3667598415066
 20
893.79703015066025
 11
1523.5414019256946
 21
893.79703015066025
  0
LINE
  8
_0-3_Þ║_õ¢ôÒ
  6
CONTINUOUS
 62
    5
 10
1501.1914985686196
 20
1080.2259808691313
 11
1501.1914985686196
 21
911.93111346034925
  0
LINE
  8
_0-3_Þ║_õ¢ôÒ
  6
LONG3
 62
    5
 10
1502.1915527697236
 20
1080.2259808691313
 11
1502.1915527697236
 21
911.93111346034925
  0
LINE
  8
_0-3_Þ║_õ¢ôÒ
  6
CONTINUOUS
 62
    5
 10
1501.1914985686196
 20
1080.2259808691313
 11
1501.1914985686196
 21
1248.520848277913
  0
LINE
  8
_0-3_Þ║_õ¢ôÒ
  6
LONG3
 62
    5
 10
1502.1915527697236
 20
1080.2259808691313
 11
1502.1915527697236
 21
1248.520848277913
  0
LINE
  8
_0-3_Þ║_õ¢ôÒ
  6
CONTINUOUS
 62
    5
 10
1528.0414971900261
 20
1320.8117758261192
 11
1528.0414971900261
 21
1080.2259808691313
  0
LINE
  8
_0-3_Þ║_õ¢ôÒ
  6
CONTINUOUS
 62
    5
 10
1533.5414980148255
 20
1080.2259808691313
 11
1533.5414980148255
 21
1322.9003254069323
  0
LINE
  8
_0-3_Þ║_õ¢ôÒ
  6
LONG3
 62
    5
 10
1097.51258959089
 20
1300.6512004012766
 11
1097.51258959089
 21
1319.8258424854646
  0
LINE
  8
_0-3_Þ║_õ¢ôÒ
  6
CONTINUOUS
 62
    5
 10
1098.012616691442
 20
1300.6547677765482
 11
1098.012616691442
 21
1319.8258424854646
  0
LINE
  8
_0-3_Þ║_õ¢ôÒ
  6
CONTINUOUS
 62
    5
 10
1034.3415082835782
 20
1322.9003254069323
 11
1037.841549346806
 21
1322.9003254069323
  0
LINE
  8
_0-3_Þ║_õ¢ôÒ
  6
CONTINUOUS
 62
    5
 10
1041.2671957715597
 20
1326.3260461520044
 11
1041.2671957715597
 21
1329.8260872152321
  0
LINE
  8
_0-3_Þ║_õ¢ôÒ
  6
LONG3
 62
    5
 10
1063.5162464568973
 20
1266.6548572672839
 11
1044.3415300523911
 21
1266.6548572672839
  0
LINE
  8
_0-3_Þ║_õ¢ôÒ
  6
CONTINUOUS
 62
    5
 10
1063.5126047613076
 20
1266.1548301667319
 11
1044.3415300523911
 21
1266.1548301667319
  0
LINE
  8
_0-3_Þ║_õ¢ôÒ
  6
CONTINUOUS
 62
    5
 10
1037.841549346806
 20
956.07121385846824
 11
1034.3415082835782
 21
956.07121385846824
  0
LINE
  8
_0-3_Þ║_õ¢ôÒ
  6
CONTINUOUS
 62
    5
 10
1063.5126047613076
 20
894.29720589184853
 11
1044.3415300523911
 21
894.29720589184853
  0
LINE
  8
_0-3_Þ║_õ¢ôÒ
  6
LONG3
 62
    5
 10
1063.5162464568973
 20
893.79717879129657
 11
1044.3415300523911
 21
893.79717879129657
  0
LINE
  8
_0-3_Þ║_õ¢ôÒ
  6
CONTINUOUS
 62
    5
 10
1037.841549346806
 20
940.38070828942261
 11
1034.3415082835782
 21
940.38070828942261
  0
LINE
  8
_0-3_Þ║_õ¢ôÒ
  6
LONG3
 62
    5
 10
1065.6916021693166
 20
911.93148506194007
 11
1065.6916021693166
 21
1080.2259808691313
  0
LINE
  8
_0-3_Þ║_õ¢ôÒ
  6
CONTINUOUS
 62
    5
 10
1066.6915820501026
 20
911.93148506194007
 11
1066.6915820501026
 21
1080.2259808691313
  0
LINE
  8
_0-3_Þ║_õ¢ôÒ
  6
CONTINUOUS
 62
    5
 10
1039.8415091083777
 20
954.17247837022467
 11
1039.8415091083777
 21
1080.2259808691313
  0
LINE
  8
_0-3_Þ║_õ¢ôÒ
  6
CONTINUOUS
 62
    5
 10
1034.3415082835782
 20
956.07121385846824
 11
1034.3415082835782
 21
1080.2259808691313
  0
LINE
  8
_0-3_Þ║_õ¢ôÒ
  6
CONTINUOUS
 62
    5
 10
1066.6915820501026
 20
1248.5205509966404
 11
1066.6915820501026
 21
1080.2259808691313
  0
LINE
  8
_0-3_Þ║_õ¢ôÒ
  6
LONG3
 62
    5
 10
1065.6916021693166
 20
1248.5205509966404
 11
1065.6916021693166
 21
1080.2259808691313
  0
LINE
  8
_0-3_Þ║_õ¢ôÒ
  6
CONTINUOUS
 62
    5
 10
1039.8415091083777
 20
1320.8119244667553
 11
1039.8415091083777
 21
1080.2259808691313
  0
LINE
  8
_0-3_Þ║_õ¢ôÒ
  6
CONTINUOUS
 62
    5
 10
1034.3415082835782
 20
1322.9003254069323
 11
1034.3415082835782
 21
1080.2259808691313
  0
LINE
  8
_0-3_Þ║_õ¢ôÒ
  6
LONG3
 62
    5
 10
1452.2361104368701
 20
1298.4759933294936
 11
1114.721013337949
 21
1298.4759933294936
  0
LINE
  8
_0-3_Þ║_õ¢ôÒ
  6
CONTINUOUS
 62
    5
 10
1526.6158848471623
 20
1329.8260872152321
 11
1041.2671957715597
 21
1329.8260872152321
  0
LINE
  8
_0-3_Þ║_õ¢ôÒ
  6
CONTINUOUS
 62
    5
 10
1524.5273352663489
 20
1324.3260863904327
 11
1043.3557453523731
 21
1324.3260863904327
  0
LINE
  8
_0-3_Þ║_õ¢ôÒ
  6
CONTINUOUS
 62
    5
 10
1059.4417093343257
 20
1322.8260050887766
 11
1508.4412969640782
 21
1322.8260050887766
  0
LINE
  8
_0-3_Þ║_õ¢ôÒ
  6
CONTINUOUS
 62
    5
 10
1059.4415606936891
 20
1320.3260182266531
 11
1508.4415942453511
 21
1320.3260182266531
  0
LINE
  8
_0-3_Þ║_õ¢ôÒ
  6
LONG3
 62
    5
 10
1059.4417093343257
 20
1319.325964025549
 11
1508.4412969640782
 21
1319.325964025549
  0
LINE
  8
_0-3_Þ║_õ¢ôÒ
  6
CONTINUOUS
 62
    5
 10
1059.4417093343257
 20
1316.3259500628733
 11
1508.4412969640782
 21
1316.3259500628733
  0
LINE
  8
_0-3_Þ║_õ¢ôÒ
  6
CONTINUOUS
 62
    5
 10
1283.9416146296792
 20
1297.4759391283897
 11
1114.721013337949
 21
1297.4759391283897
  0
LINE
  8
_0-3_Þ║_õ¢ôÒ
  6
LONG3
 62
    5
 10
1470.3704167075139
 20
859.80068701666755
 11
1470.3704167075139
 21
840.62604493247954
  0
LINE
  8
_0-3_Þ║_õ¢ôÒ
  6
CONTINUOUS
 62
    5
 10
1533.5414980148255
 20
837.55171065164814
 11
1530.0414569515979
 21
837.55171065164814
  0
LINE
  8
_0-3_Þ║_õ¢ôÒ
  6
CONTINUOUS
 62
    5
 10
1526.6158848471623
 20
834.12598990657614
 11
1526.6158848471623
 21
830.62594884334851
  0
LINE
  8
_0-3_Þ║_õ¢ôÒ
  6
CONTINUOUS
 62
    5
 10
1469.8703896069619
 20
859.79704532107803
 11
1469.8703896069619
 21
840.62604493247954
  0
LINE
  8
_0-3_Þ║_õ¢ôÒ
  6
CONTINUOUS
 62
    5
 10
1159.7867732986981
 20
834.12598990657614
 11
1159.7867732986981
 21
830.62594884334851
  0
LINE
  8
_0-3_Þ║_õ¢ôÒ
  6
CONTINUOUS
 62
    5
 10
1452.2361104368701
 20
862.97602260987264
 11
1283.9416146296792
 21
862.97602260987264
  0
LINE
  8
_0-3_Þ║_õ¢ôÒ
  6
CONTINUOUS
 62
    5
 10
1526.6158848471623
 20
830.62594884334851
 11
1159.7867732986981
 21
830.62594884334851
  0
LINE
  8
_0-3_Þ║_õ¢ôÒ
  6
CONTINUOUS
 62
    5
 10
1524.6162223668632
 20
836.12594966814788
 11
1161.786807380588
 21
836.12594966814788
  0
LINE
  8
_0-3_Þ║_õ¢ôÒ
  6
CONTINUOUS
 62
    5
 10
1098.012616691442
 20
859.79711964139597
 11
1098.012616691442
 21
840.62619357311587
  0
LINE
  8
_0-3_Þ║_õ¢ôÒ
  6
LONG3
 62
    5
 10
1097.51258959089
 20
859.80083565730376
 11
1097.51258959089
 21
840.62619357311587
  0
LINE
  8
_0-3_Þ║_õ¢ôÒ
  6
CONTINUOUS
 62
    5
 10
1144.0962677296525
 20
830.62594884334851
 11
1144.0962677296525
 21
834.12598990657614
  0
LINE
  8
_0-3_Þ║_õ¢ôÒ
  6
CONTINUOUS
 62
    5
 10
1034.3415082835782
 20
837.55171065164814
 11
1037.841549346806
 21
837.55171065164814
  0
LINE
  8
_0-3_Þ║_õ¢ôÒ
  6
CONTINUOUS
 62
    5
 10
1041.2671957715597
 20
834.12598990657614
 11
1041.2671957715597
 21
830.62594884334851
  0
LINE
  8
_0-3_Þ║_õ¢ôÒ
  6
CONTINUOUS
 62
    5
 10
1142.0963079680807
 20
836.12594966814788
 11
1043.2672298534496
 21
836.12594966814788
  0
LINE
  8
_0-3_Þ║_õ¢ôÒ
  6
CONTINUOUS
 62
    5
 10
1144.0962677296525
 20
830.62594884334851
 11
1041.2671957715597
 21
830.62594884334851
  0
LINE
  8
_0-3_Þ║_õ¢ôÒ
  6
LONG3
 62
    5
 10
1452.2361104368701
 20
861.97604272908688
 11
1115.6466729005792
 21
861.97604272908688
  0
LINE
  8
_0-3_Þ║_õ¢ôÒ
  6
CONTINUOUS
 62
    5
 10
1508.4412969640782
 20
844.12601167538924
 11
1059.4417093343257
 21
844.12601167538924
  0
LINE
  8
_0-3_Þ║_õ¢ôÒ
  6
LONG3
 62
    5
 10
1508.4412969640782
 20
841.12599771271334
 11
1059.4417093343257
 21
841.12599771271334
  0
LINE
  8
_0-3_Þ║_õ¢ôÒ
  6
CONTINUOUS
 62
    5
 10
1508.4415942453511
 20
840.12601783192747
 11
1059.4415606936891
 21
840.12601783192747
  0
LINE
  8
_0-3_Þ║_õ¢ôÒ
  6
CONTINUOUS
 62
    5
 10
1508.4412969640782
 20
837.62603096980376
 11
1059.4417093343257
 21
837.62603096980376
  0
LINE
  8
_0-3_Þ║_õ¢ôÒ
  6
CONTINUOUS
 62
    5
 10
1283.9416146296792
 20
862.97602260987264
 11
1115.6466729005792
 21
862.97602260987264
  0
LINE
  8
_0-3_Þ║_õ¢ôÒ
  6
CONTINUOUS
 62
    5
 10
1047.8414967953008
 20
855.72614989409578
 11
1047.8414967953008
 21
1304.7257375238485
  0
LINE
  8
_0-3_Þ║_õ¢ôÒ
  6
LONG3
 62
    5
 10
1044.8415571529431
 20
855.72614989409578
 11
1044.8415571529431
 21
1304.7257375238485
  0
LINE
  8
_0-3_Þ║_õ¢ôÒ
  6
CONTINUOUS
 62
    5
 10
1043.8415772721573
 20
855.72600125345957
 11
1043.8415772721573
 21
1304.7260348051211
  0
LINE
  8
_0-3_Þ║_õ¢ôÒ
  6
CONTINUOUS
 62
    5
 10
1041.3415160897157
 20
855.72614989409578
 11
1041.3415160897157
 21
1304.7257375238485
  0
LINE
  8
_0-3_Þ║_õ¢ôÒ
  6
CONTINUOUS
 62
    5
 10
1039.8415091083777
 20
839.5515960929016
 11
1039.8415091083777
 21
942.27944377766619
  0
LINE
  8
_0-3_Þ║_õ¢ôÒ
  6
CONTINUOUS
 62
    5
 10
1034.3415082835782
 20
837.55171065164814
 11
1034.3415082835782
 21
940.38070828942261
  0
LINE
  8
_0-3_Þ║_õ¢ôÒ
  6
CONTINUOUS
 62
    5
 10
1520.041509503103
 20
1304.7257375238485
 11
1520.041509503103
 21
855.72614989409578
  0
LINE
  8
_0-3_Þ║_õ¢ôÒ
  6
LONG3
 62
    5
 10
1523.0415234657787
 20
1304.7257375238485
 11
1523.0415234657787
 21
855.72614989409578
  0
LINE
  8
_0-3_Þ║_õ¢ôÒ
  6
CONTINUOUS
 62
    5
 10
1524.0415776668829
 20
1304.7260348051211
 11
1524.0415776668829
 21
855.72600125345957
  0
LINE
  8
_0-3_Þ║_õ¢ôÒ
  6
CONTINUOUS
 62
    5
 10
1526.5415645290066
 20
1304.7257375238485
 11
1526.5415645290066
 21
855.72614989409578
  0
LINE
  8
_0-3_Þ║_õ¢ôÒ
  6
CONTINUOUS
 62
    5
 10
1528.0414971900261
 20
839.5515960929016
 11
1528.0414971900261
 21
1080.2259808691313
  0
LINE
  8
_0-3_Þ║_õ¢ôÒ
  6
CONTINUOUS
 62
    5
 10
1533.5414980148255
 20
1080.2259808691313
 11
1533.5414980148255
 21
837.55171065164814
  0
LINE
  8
_0-3_Þ║_õ¢ôÒ
  6
LONG3
 62
    5
 10
1191.258306584303
 20
1046.4759352695066
 11
1191.258306584303
 21
1032.2259804272744
  0
LINE
  8
_0-3_Þ║_õ¢ôÒ
  6
CONTINUOUS
 62
    5
 10
1346.9414619239601
 20
1293.7260331555221
 11
1360.2080846366734
 21
1293.7260331555221
  0
LINE
  8
_0-3_Þ║_õ¢ôÒ
  6
CONTINUOUS
 62
    5
 10
1333.6749878518829
 20
1293.7260331555221
 11
1346.9414619239601
 21
1293.7260331555221
  0
LINE
  8
_0-3_Þ║_õ¢ôÒ
  6
CONTINUOUS
 62
    5
 10
1346.9414619239601
 20
1290.2259920922945
 11
1360.2080846366734
 21
1290.2259920922945
  0
LINE
  8
_0-3_Þ║_õ¢ôÒ
  6
CONTINUOUS
 62
    5
 10
1333.6749878518829
 20
1290.2259920922945
 11
1346.9414619239601
 21
1290.2259920922945
  0
LINE
  8
_0-3_Þ║_õ¢ôÒ
  6
CONTINUOUS
 62
    5
 10
1220.9415443744438
 20
1293.7260331555221
 11
1207.6750703023667
 21
1293.7260331555221
  0
LINE
  8
_0-3_Þ║_õ¢ôÒ
  6
CONTINUOUS
 62
    5
 10
1234.208018446521
 20
1293.7260331555221
 11
1220.9415443744438
 21
1293.7260331555221
  0
LINE
  8
_0-3_Þ║_õ¢ôÒ
  6
CONTINUOUS
 62
    5
 10
1220.9415443744438
 20
1290.2259920922945
 11
1207.6750703023667
 21
1290.2259920922945
  0
LINE
  8
_0-3_Þ║_õ¢ôÒ
  6
CONTINUOUS
 62
    5
 10
1234.208018446521
 20
1290.2259920922945
 11
1220.9415443744438
 21
1290.2259920922945
  0
LINE
  8
_0-3_Þ║_õ¢ôÒ
  6
CONTINUOUS
 62
    5
 10
1493.9415515325245
 20
1143.2259768040483
 11
1493.9415515325245
 21
1156.4925251964437
  0
LINE
  8
_0-3_Þ║_õ¢ôÒ
  6
CONTINUOUS
 62
    5
 10
1493.9415515325245
 20
1129.9595027319713
 11
1493.9415515325245
 21
1143.2259768040483
  0
LINE
  8
_0-3_Þ║_õ¢ôÒ
  6
CONTINUOUS
 62
    5
 10
1497.4415925957521
 20
1017.225984934214
 11
1497.4415925957521
 21
1003.9595108621368
  0
LINE
  8
_0-3_Þ║_õ¢ôÒ
  6
CONTINUOUS
 62
    5
 10
1497.4415925957521
 20
1030.4925333266092
 11
1497.4415925957521
 21
1017.225984934214
  0
LINE
  8
_0-3_Þ║_õ¢ôÒ
  6
CONTINUOUS
 62
    5
 10
1493.9415515325245
 20
1017.225984934214
 11
1493.9415515325245
 21
1003.9595108621368
  0
LINE
  8
_0-3_Þ║_õ¢ôÒ
  6
CONTINUOUS
 62
    5
 10
1493.9415515325245
 20
1030.4925333266092
 11
1493.9415515325245
 21
1017.225984934214
  0
LINE
  8
_0-3_Þ║_õ¢ôÒ
  6
CONTINUOUS
 62
    5
 10
1497.4415925957521
 20
1143.2259768040483
 11
1497.4415925957521
 21
1156.4925251964437
  0
LINE
  8
_0-3_Þ║_õ¢ôÒ
  6
CONTINUOUS
 62
    5
 10
1497.4415925957521
 20
1129.9595027319713
 11
1497.4415925957521
 21
1143.2259768040483
  0
LINE
  8
_0-3_Þ║_õ¢ôÒ
  6
CONTINUOUS
 62
    5
 10
1073.9416034065157
 20
1143.2259768040483
 11
1073.9416034065157
 21
1156.4925251964437
  0
LINE
  8
_0-3_Þ║_õ¢ôÒ
  6
CONTINUOUS
 62
    5
 10
1073.9416034065157
 20
1129.9595027319713
 11
1073.9416034065157
 21
1143.2259768040483
  0
LINE
  8
_0-3_Þ║_õ¢ôÒ
  6
CONTINUOUS
 62
    5
 10
1041.5415120658727
 20
946.92595006876468
 11
1041.5415120658727
 21
949.52597207912618
  0
LINE
  8
_0-3_Þ║_õ¢ôÒ
  6
CONTINUOUS
 62
    5
 10
1070.4415623432881
 20
1017.225984934214
 11
1070.4415623432881
 21
1003.9595108621368
  0
LINE
  8
_0-3_Þ║_õ¢ôÒ
  6
CONTINUOUS
 62
    5
 10
1070.4415623432881
 20
1030.4925333266092
 11
1070.4415623432881
 21
1017.225984934214
  0
LINE
  8
_0-3_Þ║_õ¢ôÒ
  6
CONTINUOUS
 62
    5
 10
1073.9416034065157
 20
1017.225984934214
 11
1073.9416034065157
 21
1003.9595108621368
  0
LINE
  8
_0-3_Þ║_õ¢ôÒ
  6
CONTINUOUS
 62
    5
 10
1073.9416034065157
 20
1030.4925333266092
 11
1073.9416034065157
 21
1017.225984934214
  0
LINE
  8
_0-3_Þ║_õ¢ôÒ
  6
CONTINUOUS
 62
    5
 10
1070.4415623432881
 20
1143.2259768040483
 11
1070.4415623432881
 21
1156.4925251964437
  0
LINE
  8
_0-3_Þ║_õ¢ôÒ
  6
CONTINUOUS
 62
    5
 10
1070.4415623432881
 20
1129.9595027319713
 11
1070.4415623432881
 21
1143.2259768040483
  0
LINE
  8
_0-3_Þ║_õ¢ôÒ
  6
CONTINUOUS
 62
    5
 10
1153.2415315193559
 20
837.82595262564291
 11
1150.6415095089947
 21
837.82595262564291
  0
LINE
  8
_0-3_Þ║_õ¢ôÒ
  6
CONTINUOUS
 62
    5
 10
1220.9415443744438
 20
866.72600290305832
 11
1207.6750703023667
 21
866.72600290305832
  0
LINE
  8
_0-3_Þ║_õ¢ôÒ
  6
CONTINUOUS
 62
    5
 10
1234.208018446521
 20
866.72600290305832
 11
1220.9415443744438
 21
866.72600290305832
  0
LINE
  8
_0-3_Þ║_õ¢ôÒ
  6
CONTINUOUS
 62
    5
 10
1220.9415443744438
 20
870.22604396628594
 11
1207.6750703023667
 21
870.22604396628594
  0
LINE
  8
_0-3_Þ║_õ¢ôÒ
  6
CONTINUOUS
 62
    5
 10
1234.208018446521
 20
870.22604396628594
 11
1220.9415443744438
 21
870.22604396628594
  0
LINE
  8
_0-3_Þ║_õ¢ôÒ
  6
CONTINUOUS
 62
    5
 10
1346.9414619239601
 20
870.22604396628594
 11
1360.2080846366734
 21
870.22604396628594
  0
LINE
  8
_0-3_Þ║_õ¢ôÒ
  6
CONTINUOUS
 62
    5
 10
1333.6749878518829
 20
870.22604396628594
 11
1346.9414619239601
 21
870.22604396628594
  0
LINE
  8
_0-3_Þ║_õ¢ôÒ
  6
CONTINUOUS
 62
    5
 10
1346.9414619239601
 20
866.72600290305832
 11
1360.2080846366734
 21
866.72600290305832
  0
LINE
  8
_0-3_Þ║_õ¢ôÒ
  6
CONTINUOUS
 62
    5
 10
1333.6749878518829
 20
866.72600290305832
 11
1346.9414619239601
 21
866.72600290305832
  0
LINE
  8
_0-3_Þ║_õ¢ôÒ
  6
CONTINUOUS
 62
    5
 10
1248.4414741781227
 20
1166.9759263145418
 11
1248.4414741781227
 21
1160.7260334795506
  0
LINE
  8
_0-3_Þ║_õ¢ôÒ
  6
CONTINUOUS
 62
    5
 10
1248.4414741781227
 20
1160.7260334795506
 11
1319.441457799963
 21
1160.7260334795506
  0
LINE
  8
_0-3_Þ║_õ¢ôÒ
  6
CONTINUOUS
 62
    5
 10
1319.441457799963
 20
1160.7260334795506
 11
1319.441457799963
 21
1173.2259677901691
  0
LINE
  8
_0-3_Þ║_õ¢ôÒ
  6
CONTINUOUS
 62
    5
 10
1319.441457799963
 20
1173.2259677901691
 11
1283.9416146296792
 21
1173.2259677901691
  0
LINE
  8
_0-3_Þ║_õ¢ôÒ
  6
CONTINUOUS
 62
    5
 10
1283.9416146296792
 20
1173.2259677901691
 11
1248.4414741781227
 21
1173.2259677901691
  0
LINE
  8
_0-3_Þ║_õ¢ôÒ
  6
CONTINUOUS
 62
    5
 10
1248.4414741781227
 20
1173.2259677901691
 11
1248.4414741781227
 21
1166.9759263145418
  0
LINE
  8
_0-3_Þ║_õ¢ôÒ
  6
CONTINUOUS
 62
    5
 10
1370.6915600750897
 20
1044.7259890582111
 11
1376.9416015507172
 21
1044.7259890582111
  0
LINE
  8
_0-3_Þ║_õ¢ôÒ
  6
CONTINUOUS
 62
    5
 10
1376.9416015507172
 20
1044.7259890582111
 11
1376.9416015507172
 21
1115.7260470003696
  0
LINE
  8
_0-3_Þ║_õ¢ôÒ
  6
CONTINUOUS
 62
    5
 10
1376.9416015507172
 20
1115.7260470003696
 11
1364.4415185994624
 21
1115.7260470003696
  0
LINE
  8
_0-3_Þ║_õ¢ôÒ
  6
CONTINUOUS
 62
    5
 10
1364.4415185994624
 20
1115.7260470003696
 11
1364.4415185994624
 21
1080.2259808691313
  0
LINE
  8
_0-3_Þ║_õ¢ôÒ
  6
CONTINUOUS
 62
    5
 10
1364.4415185994624
 20
1080.2259808691313
 11
1364.4415185994624
 21
1044.7259890582111
  0
LINE
  8
_0-3_Þ║_õ¢ôÒ
  6
CONTINUOUS
 62
    5
 10
1364.4415185994624
 20
1044.7259890582111
 11
1370.6915600750897
 21
1044.7259890582111
  0
LINE
  8
_0-3_Þ║_õ¢ôÒ
  6
CONTINUOUS
 62
    5
 10
1197.1915205436324
 20
1115.7260470003696
 11
1190.941553388323
 21
1115.7260470003696
  0
LINE
  8
_0-3_Þ║_õ¢ôÒ
  6
CONTINUOUS
 62
    5
 10
1190.941553388323
 20
1115.7260470003696
 11
1190.941553388323
 21
1044.7259890582111
  0
LINE
  8
_0-3_Þ║_õ¢ôÒ
  6
CONTINUOUS
 62
    5
 10
1190.941553388323
 20
1044.7259890582111
 11
1203.4415620192599
 21
1044.7259890582111
  0
LINE
  8
_0-3_Þ║_õ¢ôÒ
  6
CONTINUOUS
 62
    5
 10
1203.4415620192599
 20
1044.7259890582111
 11
1203.4415620192599
 21
1080.2259808691313
  0
LINE
  8
_0-3_Þ║_õ¢ôÒ
  6
CONTINUOUS
 62
    5
 10
1203.4415620192599
 20
1080.2259808691313
 11
1203.4415620192599
 21
1115.7260470003696
  0
LINE
  8
_0-3_Þ║_õ¢ôÒ
  6
CONTINUOUS
 62
    5
 10
1203.4415620192599
 20
1115.7260470003696
 11
1197.1915205436324
 21
1115.7260470003696
  0
LINE
  8
_0-3_Þ║_õ¢ôÒ
  6
CONTINUOUS
 62
    5
 10
1319.441457799963
 20
993.47596110340237
 11
1319.441457799963
 21
999.72600257902991
  0
LINE
  8
_0-3_Þ║_õ¢ôÒ
  6
CONTINUOUS
 62
    5
 10
1319.441457799963
 20
999.72600257902991
 11
1248.4414741781227
 21
999.72600257902991
  0
LINE
  8
_0-3_Þ║_õ¢ôÒ
  6
CONTINUOUS
 62
    5
 10
1248.4414741781227
 20
999.72600257902991
 11
1248.4414741781227
 21
987.22599394809322
  0
LINE
  8
_0-3_Þ║_õ¢ôÒ
  6
CONTINUOUS
 62
    5
 10
1248.4414741781227
 20
987.22599394809322
 11
1283.9416146296792
 21
987.22599394809322
  0
LINE
  8
_0-3_Þ║_õ¢ôÒ
  6
CONTINUOUS
 62
    5
 10
1283.9416146296792
 20
987.22599394809322
 11
1319.441457799963
 21
987.22599394809322
  0
LINE
  8
_0-3_Þ║_õ¢ôÒ
  6
CONTINUOUS
 62
    5
 10
1319.441457799963
 20
987.22599394809322
 11
1319.441457799963
 21
993.47596110340237
  0
LINE
  8
_0-1_MOD
  6
CONTINUOUS
 62
    5
 10
340.13306746611727
 20
698.99649015448722
 11
340.13306746611727
 21
699.49651725503918
  0
LINE
  8
_0-1_MOD
  6
CONTINUOUS
 62
    5
 10
340.13306746611727
 20
698.99649015448722
 11
335.95306981208245
 21
698.99649015448722
  0
LINE
  8
_0-1_MOD
  6
CONTINUOUS
 62
    5
 10
342.60302891970599
 20
699.49651725503918
 11
335.95306981208245
 21
699.49651725503918
  0
LINE
  8
_0-1_MOD
  6
CONTINUOUS
 62
    5
 10
345.10305294198872
 20
675.99650697450386
 11
345.10309010214792
 21
696.99653039291559
  0
LINE
  8
_0-1_MOD
  6
CONTINUOUS
 62
    5
 10
349.10304678545026
 20
671.99651313104221
 11
820.44235588869071
 21
671.99651313104221
  0
LINE
  8
_0-1_MOD
  6
CONTINUOUS
 62
    5
 10
335.95306981208245
 20
700.99652423637713
 11
833.59237002221766
 21
700.99652423637713
  0
LINE
  8
_0-1_MOD
  6
CONTINUOUS
 62
    5
 10
829.4123723681829
 20
698.99649015448722
 11
829.4123723681829
 21
699.49651725503918
  0
LINE
  8
_0-1_MOD
  6
CONTINUOUS
 62
    5
 10
829.4123723681829
 20
698.99649015448722
 11
833.59237002221766
 21
698.99649015448722
  0
LINE
  8
_0-1_MOD
  6
CONTINUOUS
 62
    5
 10
826.94241091459412
 20
699.49651725503918
 11
833.59237002221766
 21
699.49651725503918
  0
LINE
  8
_0-1_MOD
  6
CONTINUOUS
 62
    5
 10
824.44234973215225
 20
675.99650697450386
 11
824.44234973215225
 21
696.99653039291559
  0
LINE
  8
_0-2_Õ»_µ│__
  6
CONTINUOUS
 62
    5
 10
1732.5215154228063
 20
701.47247155384662
 11
1694.2786579500294
 21
701.47247155384662
  0
LINE
  8
_0-2_Õ»_µ│__
  6
CONTINUOUS
 62
    5
 10
1734.9529789515905
 20
703.57246646365604
 11
1734.9529789515905
 21
733.66520920683524
  0
LINE
  8
_0-2_Õ»_µ│__
  6
CONTINUOUS
 62
    5
 10
2234.7727258159384
 20
703.57246646365604
 11
2234.7727258159384
 21
733.66520920683524
  0
LINE
  8
_0-2_Õ»_µ│__
  6
CONTINUOUS
 62
    5
 10
1734.9529789515905
 20
733.66520920683524
 11
2234.7727258159384
 21
733.66520920683524
  0
LINE
  8
_0-2_Õ»_µ│__
  6
CONTINUOUS
 62
    5
 10
1745.7381948817188
 20
672.37249962059229
 11
1694.2786579500294
 21
672.37249962059229
  0
LINE
  8
_0-2_Õ»_µ│__
  6
CONTINUOUS
 62
    5
 10
1694.2786579500294
 20
701.47247155384662
 11
1694.2786579500294
 21
672.37249962059229
  0
LINE
  8
_0-1_MOD
  6
CONTINUOUS
 62
    5
 10
1740.1331051270472
 20
699.47251179227487
 11
1740.1331051270472
 21
699.97253889282695
  0
LINE
  8
_0-1_MOD
  6
CONTINUOUS
 62
    5
 10
1740.1331051270472
 20
699.47251179227487
 11
1735.9530331526944
 21
699.47251179227487
  0
LINE
  8
_0-1_MOD
  6
CONTINUOUS
 62
    5
 10
1742.6030665806361
 20
699.97253889282695
 11
1735.9530331526944
 21
699.97253889282695
  0
LINE
  8
_0-1_MOD
  6
CONTINUOUS
 62
    5
 10
1745.10305344276
 20
676.37249346405383
 11
1745.10305344276
 21
697.47247771038519
  0
LINE
  8
_0-1_MOD
  6
CONTINUOUS
 62
    5
 10
1749.1029729659035
 20
672.37249962059229
 11
2220.4424307097797
 21
672.37249962059229
  0
LINE
  8
_0-1_MOD
  6
CONTINUOUS
 62
    5
 10
1735.9530331526944
 20
701.47247155384662
 11
2233.5923705229889
 21
701.47247155384662
  0
LINE
  8
_0-1_MOD
  6
CONTINUOUS
 62
    5
 10
2229.4122985486356
 20
699.47251179227487
 11
2229.4122985486356
 21
699.97253889282695
  0
LINE
  8
_0-1_MOD
  6
CONTINUOUS
 62
    5
 10
2229.4122985486356
 20
699.47251179227487
 11
2233.5923705229889
 21
699.47251179227487
  0
LINE
  8
_0-1_MOD
  6
CONTINUOUS
 62
    5
 10
2226.9423370950472
 20
699.97253889282695
 11
2233.5923705229889
 21
699.97253889282695
  0
LINE
  8
_0-1_MOD
  6
CONTINUOUS
 62
    5
 10
2224.4423502329237
 20
676.37249346405383
 11
2224.4423502329237
 21
697.47247771038519
  0
LINE
  8
_0-4_µûçÕ___
  6
CONTINUOUS
 62
    5
 10
1834.7727469072379
 20
593.14202384506871
 11
2134.7726567684454
 21
593.14202384506871
  0
LINE
  8
_0-4_µûçÕ___
  6
CONTINUOUS
 62
    5
 10
2134.7726567684454
 20
593.14202384506871
 11
2134.7726567684454
 21
643.14202120865627
  0
LINE
  8
_0-4_µûçÕ___
  6
CONTINUOUS
 62
    5
 10
2134.7726567684454
 20
643.14202120865627
 11
1834.7727469072379
 21
643.14202120865627
  0
LINE
  8
_0-4_µûçÕ___
  6
CONTINUOUS
 62
    5
 10
1834.7727469072379
 20
643.14202120865627
 11
1834.7727469072379
 21
593.14202384506871
  0
LINE
  8
_0-4_µûçÕ___
  6
CONTINUOUS
 62
    5
 10
1134.7727094966931
 20
593.17238369503536
 11
1434.7727679985369
 21
593.17238369503536
  0
LINE
  8
_0-4_µûçÕ___
  6
CONTINUOUS
 62
    5
 10
1434.7727679985369
 20
593.17238369503536
 11
1434.7727679985369
 21
643.17234389846385
  0
LINE
  8
_0-4_µûçÕ___
  6
CONTINUOUS
 62
    5
 10
1434.7727679985369
 20
643.17234389846385
 11
1134.7727094966931
 21
643.17234389846385
  0
LINE
  8
_0-4_µûçÕ___
  6
CONTINUOUS
 62
    5
 10
1134.7727094966931
 20
643.17234389846385
 11
1134.7727094966931
 21
593.17238369503536
  0
LINE
  8
_0-4_µûçÕ___
  6
CONTINUOUS
 62
    5
 10
434.77270924630761
 20
593.14202384506871
 11
734.77273058799233
 21
593.14202384506871
  0
LINE
  8
_0-4_µûçÕ___
  6
CONTINUOUS
 62
    5
 10
734.77273058799233
 20
593.14202384506871
 11
734.77273058799233
 21
643.14202120865627
  0
LINE
  8
_0-4_µûçÕ___
  6
CONTINUOUS
 62
    5
 10
734.77273058799233
 20
643.14202120865627
 11
434.77270924630761
 21
643.14202120865627
  0
LINE
  8
_0-4_µûçÕ___
  6
CONTINUOUS
 62
    5
 10
434.77270924630761
 20
643.14202120865627
 11
434.77270924630761
 21
593.14202384506871
  0
CIRCLE
  8
_0-2_Õ»_µ│__
  6
CONTINUOUS
 62
    5
 10
2234.7727258159384
 20
733.66520920683524
 40
0.4999999925062693
  0
CIRCLE
  8
_0-2_Õ»_µ│__
  6
CONTINUOUS
 62
    5
 10
334.92269292117084
 20
1390.1181480378257
 40
0.4999999925062693
  0
CIRCLE
  8
_0-2_Õ»_µ│__
  6
CONTINUOUS
 62
    5
 10
834.62267259281111
 20
1390.1181480378257
 40
0.4999999925062693
  0
CIRCLE
  8
_0-2_Õ»_µ│__
  6
CONTINUOUS
 62
    5
 10
273.3775172141527
 20
830.12592174279644
 40
0.4999999925062693
  0
CIRCLE
  8
_0-2_Õ»_µ│__
  6
CONTINUOUS
 62
    5
 10
273.3775172141527
 20
1329.825938574596
 40
0.4999999925062693
  0
CIRCLE
  8
_0-2_Õ»_µ│__
  6
CONTINUOUS
 62
    5
 10
970.34465392123775
 20
830.15631875292206
 40
0.4999999925062693
  0
CIRCLE
  8
_0-2_Õ»_µ│__
  6
CONTINUOUS
 62
    5
 10
970.34465392123775
 20
1329.8562612644034
 40
0.4999999925062693
  0
CIRCLE
  8
_0-2_Õ»_µ│__
  6
CONTINUOUS
 62
    5
 10
1734.9226562617828
 20
1390.1181480378257
 40
0.4999999925062693
  0
CIRCLE
  8
_0-2_Õ»_µ│__
  6
CONTINUOUS
 62
    5
 10
2234.6227474139005
 20
1390.1181480378257
 40
0.4999999925062693
  0
CIRCLE
  8
_0-2_Õ»_µ│__
  6
CONTINUOUS
 62
    5
 10
1669.9888456484528
 20
830.12592174279644
 40
0.4999999925062693
  0
CIRCLE
  8
_0-2_Õ»_µ│__
  6
CONTINUOUS
 62
    5
 10
1669.9888456484528
 20
1329.825938574596
 40
0.4999999925062693
  0
CIRCLE
  8
_0-2_Õ»_µ│__
  6
CONTINUOUS
 62
    5
 10
1939.7727896789788
 20
798.39463894523715
 40
0.4999999925062693
  0
CIRCLE
  8
_0-2_Õ»_µ│__
  6
CONTINUOUS
 62
    5
 10
2029.7727626373407
 20
798.39463894523715
 40
0.4999999925062693
  0
CIRCLE
  8
_0-2_Õ»_µ│__
  6
CONTINUOUS
 62
    5
 10
1922.4728032999517
 20
771.69342960077825
 40
0.4999999925062693
  0
CIRCLE
  8
_0-2_Õ»_µ│__
  6
CONTINUOUS
 62
    5
 10
2047.0727490163677
 20
771.69342960077825
 40
0.4999999925062693
  0
CIRCLE
  8
_0-2_Õ»_µ│__
  6
CONTINUOUS
 62
    5
 10
1880.8453985383612
 20
874.97585549962105
 40
0.4999999925062693
  0
CIRCLE
  8
_0-2_Õ»_µ│__
  6
CONTINUOUS
 62
    5
 10
1880.8453985383612
 20
830.37586097275425
 40
0.4999999925062693
  0
CIRCLE
  8
_0-2_Õ»_µ│__
  6
CONTINUOUS
 62
    5
 10
294.27867602933787
 20
700.99652423637713
 40
0.4999999925062693
  0
CIRCLE
  8
_0-2_Õ»_µ│__
  6
CONTINUOUS
 62
    5
 10
1034.9226931715564
 20
1390.1484707276331
 40
0.4999999925062693
  0
CIRCLE
  8
_0-2_Õ»_µ│__
  6
CONTINUOUS
 62
    5
 10
1534.6227100033557
 20
1390.1484707276331
 40
0.4999999925062693
  0
CIRCLE
  8
_0-2_Õ»_µ│__
  6
CONTINUOUS
 62
    5
 10
334.95305277113755
 20
733.18918756904748
 40
0.4999999925062693
  0
CIRCLE
  8
_0-2_Õ»_µ│__
  6
CONTINUOUS
 62
    5
 10
834.77272531516769
 20
733.18918756904748
 40
0.4999999925062693
  0
CIRCLE
  8
_0-2_Õ»_µ│__
  6
CONTINUOUS
 62
    5
 10
294.27867602933787
 20
671.99651313104221
 40
0.4999999925062693
  0
ARC
  8
_0-3_Þ║_õ¢ôÒ
  6
CONTINUOUS
 62
    5
 10
342.57608780437448
 20
830.62594884334851
 40
0.4999999925062693
 50
186.37660217285156
 51
270
  0
ARC
  8
_0-3_Þ║_õ¢ôÒ
  6
CONTINUOUS
 62
    5
 10
335.4227200217228
 20
837.779279465841
 40
0.4999999925062693
 50
180
 51
263.62338256835937
  0
ARC
  8
_0-3_Þ║_õ¢ôÒ
  6
CONTINUOUS
 62
    5
 10
334.52270096885655
 20
829.72592979048204
 40
12.103500443535882
 50
2.03759765625
 51
87.962371826171875
  0
ARC
  8
_0-3_Þ║_õ¢ôÒ
  6
CONTINUOUS
 62
    5
 10
334.52270096885655
 20
829.72592979048204
 40
7.603499821484319
 50
6.3766021728515634
 51
83.623382568359375
  0
ARC
  8
_0-3_Þ║_õ¢ôÒ
  6
CONTINUOUS
 62
    5
 10
715.47271012707563
 20
829.97594334075802
 40
7.1999997179020321
 50
90
 51
155.37567138671875
  0
ARC
  8
_0-3_Þ║_õ¢ôÒ
  6
CONTINUOUS
 62
    5
 10
718.07273213743701
 20
829.97594334075802
 40
7.1999997179020321
 50
24.624313354492191
 51
89.999984741210923
  0
ARC
  8
_0-3_Þ║_õ¢ôÒ
  6
CONTINUOUS
 62
    5
 10
835.02273886544367
 20
829.72592979048204
 40
12.103500443535882
 50
92.03759765625
 51
177.96238708496094
  0
ARC
  8
_0-3_Þ║_õ¢ôÒ
  6
CONTINUOUS
 62
    5
 10
835.02273886544367
 20
829.72592979048204
 40
7.603499821484319
 50
96.376602172851563
 51
173.62338256835937
  0
ARC
  8
_0-3_Þ║_õ¢ôÒ
  6
CONTINUOUS
 62
    5
 10
826.96931486976655
 20
830.62594884334851
 40
0.4999999925062693
 50
270
 51
353.62338256835937
  0
ARC
  8
_0-3_Þ║_õ¢ôÒ
  6
CONTINUOUS
 62
    5
 10
834.1227198125772
 20
837.779279465841
 40
0.4999999925062693
 50
276.37660217285156
 51
0
  0
ARC
  8
_0-3_Þ║_õ¢ôÒ
  6
CONTINUOUS
 62
    5
 10
834.77272531516769
 20
949.2759585288502
 40
7.1999997179020321
 50
114.62431335449219
 51
180
  0
ARC
  8
_0-3_Þ║_õ¢ôÒ
  6
CONTINUOUS
 62
    5
 10
834.77272531516769
 20
946.6759365184887
 40
7.1999997179020321
 50
180
 51
245.37567138671872
  0
ARC
  8
_0-3_Þ║_õ¢ôÒ
  6
CONTINUOUS
 62
    5
 10
334.52270096885655
 20
1330.2259305269101
 40
12.103500443535882
 50
272.03759765625
 51
357.96237182617188
  0
ARC
  8
_0-3_Þ║_õ¢ôÒ
  6
CONTINUOUS
 62
    5
 10
342.57608780437448
 20
1329.3259114740438
 40
0.4999999925062693
 50
90
 51
173.62338256835937
  0
ARC
  8
_0-3_Þ║_õ¢ôÒ
  6
CONTINUOUS
 62
    5
 10
335.4227200217228
 20
1322.1725808515512
 40
0.4999999925062693
 50
96.376602172851563
 51
180
  0
ARC
  8
_0-3_Þ║_õ¢ôÒ
  6
CONTINUOUS
 62
    5
 10
334.52270096885655
 20
1330.2259305269101
 40
7.603499821484319
 50
276.37660217285156
 51
353.62338256835937
  0
ARC
  8
_0-3_Þ║_õ¢ôÒ
  6
CONTINUOUS
 62
    5
 10
835.02273886544367
 20
1330.2259305269101
 40
12.103500443535882
 50
182.03759765625
 51
267.96238708496094
  0
ARC
  8
_0-3_Þ║_õ¢ôÒ
  6
CONTINUOUS
 62
    5
 10
835.02273886544367
 20
1330.2259305269101
 40
7.603499821484319
 50
186.37660217285156
 51
263.62338256835937
  0
ARC
  8
_0-3_Þ║_õ¢ôÒ
  6
CONTINUOUS
 62
    5
 10
826.96931486976655
 20
1329.3259114740438
 40
0.4999999925062693
 50
6.3766021728515634
 51
90
  0
ARC
  8
_0-3_Þ║_õ¢ôÒ
  6
CONTINUOUS
 62
    5
 10
834.1227198125772
 20
1322.1725808515512
 40
0.4999999925062693
 50
359.99998474121088
 51
83.623382568359332
  0
ARC
  8
_0-3_Þ║_õ¢ôÒ
  6
CONTINUOUS
 62
    5
 10
2118.072732638208
 20
830.37586097275425
 40
7.1999997179020321
 50
24.624313354492191
 51
89.999984741210923
  0
ARC
  8
_0-3_Þ║_õ¢ôÒ
  6
CONTINUOUS
 62
    5
 10
2030.7726681978086
 20
875.9759097007252
 40
16.299999530711229
 50
0
 51
90
  0
ARC
  8
_0-3_Þ║_õ¢ôÒ
  6
CONTINUOUS
 62
    5
 10
2030.7726681978086
 20
875.9759097007252
 40
12.000000110464207
 50
0
 51
90
  0
ARC
  8
_0-3_Þ║_õ¢ôÒ
  6
CONTINUOUS
 62
    5
 10
2030.7726681978086
 20
875.97605834136141
 40
12.400000191563345
 50
0
 51
90
  0
ARC
  8
_0-3_Þ║_õ¢ôÒ
  6
CONTINUOUS
 62
    5
 10
2030.7726681978086
 20
875.97605834136141
 40
13.100000043173093
 50
0
 51
90
  0
ARC
  8
_0-3_Þ║_õ¢ôÒ
  6
CONTINUOUS
 62
    5
 10
1938.7727354778744
 20
875.9759097007252
 40
16.299999530711229
 50
90
 51
180
  0
ARC
  8
_0-3_Þ║_õ¢ôÒ
  6
CONTINUOUS
 62
    5
 10
1938.7727354778744
 20
875.9759097007252
 40
12.000000110464207
 50
90
 51
180
  0
ARC
  8
_0-3_Þ║_õ¢ôÒ
  6
CONTINUOUS
 62
    5
 10
1938.7727354778744
 20
875.97605834136141
 40
13.100000043173093
 50
90
 51
180
  0
ARC
  8
_0-3_Þ║_õ¢ôÒ
  6
CONTINUOUS
 62
    5
 10
1938.7727354778744
 20
875.97605834136141
 40
12.400000191563345
 50
90
 51
180
  0
ARC
  8
_0-3_Þ║_õ¢ôÒ
  6
CONTINUOUS
 62
    5
 10
1735.422683362335
 20
837.42343378251121
 40
0.4999999925062693
 50
180
 51
263.33123779296875
  0
ARC
  8
_0-3_Þ║_õ¢ôÒ
  6
CONTINUOUS
 62
    5
 10
1764.9873059246991
 20
829.87583387220229
 40
0.4999999925062693
 50
90
 51
131.40960693359375
  0
ARC
  8
_0-3_Þ║_õ¢ôÒ
  6
CONTINUOUS
 62
    5
 10
1764.3258550931128
 20
830.62587452303023
 40
0.4999999925062693
 50
270
 51
311.40960693359375
  0
ARC
  8
_0-3_Þ║_õ¢ôÒ
  6
CONTINUOUS
 62
    5
 10
1734.5228129501047
 20
829.72585547016388
 40
11.250000103560193
 50
3.312255859375
 51
86.687728881835938
  0
ARC
  8
_0-3_Þ║_õ¢ôÒ
  6
CONTINUOUS
 62
    5
 10
1734.5228129501047
 20
829.72585547016388
 40
7.2499998731962965
 50
6.6687469482421884
 51
83.33123779296875
  0
ARC
  8
_0-3_Þ║_õ¢ôÒ
  6
CONTINUOUS
 62
    5
 10
1764.3258550931128
 20
830.62587452303023
 40
0.4999999925062693
 50
270
 51
311.40960693359375
  0
ARC
  8
_0-3_Þ║_õ¢ôÒ
  6
CONTINUOUS
 62
    5
 10
1764.9873059246991
 20
829.87583387220229
 40
0.4999999925062693
 50
90
 51
131.40960693359375
  0
ARC
  8
_0-3_Þ║_õ¢ôÒ
  6
CONTINUOUS
 62
    5
 10
1742.2203169421339
 20
830.62587452303023
 40
0.4999999925062693
 50
186.66874694824216
 51
270
  0
ARC
  8
_0-3_Þ║_õ¢ôÒ
  6
CONTINUOUS
 62
    5
 10
1734.6726427115068
 20
860.19042276507639
 40
0.4999999925062693
 50
318.59037780761713
 51
359.99999999999994
  0
ARC
  8
_0-3_Þ║_õ¢ôÒ
  6
CONTINUOUS
 62
    5
 10
1734.6727913521431
 20
860.19042276507639
 40
0.4999999925062693
 50
318.59037780761713
 51
359.99999999999994
  0
ARC
  8
_0-3_Þ║_õ¢ôÒ
  6
CONTINUOUS
 62
    5
 10
1735.422683362335
 20
859.52897193348997
 40
0.4999999925062693
 50
138.59037780761719
 51
180
  0
ARC
  8
_0-3_Þ║_õ¢ôÒ
  6
CONTINUOUS
 62
    5
 10
1735.422683362335
 20
859.52897193348997
 40
0.4999999925062693
 50
138.59037780761719
 51
180
  0
CIRCLE
  8
_0-3_Þ║_õ¢ôÒ
  6
CONTINUOUS
 62
    5
 10
1933.2727346530751
 20
843.32595345044228
 40
3.750000034520065
  0
ARC
  8
_0-3_Þ║_õ¢ôÒ
  6
CONTINUOUS
 62
    5
 10
1938.7728841185108
 20
836.07585777371082
 40
0.9999999850125387
 50
270
 51
0
  0
ARC
  8
_0-3_Þ║_õ¢ôÒ
  6
CONTINUOUS
 62
    5
 10
1938.7728841185108
 20
850.57582616621914
 40
0.9999999850125387
 50
0
 51
90
  0
CIRCLE
  8
_0-3_Þ║_õ¢ôÒ
  6
CONTINUOUS
 62
    5
 10
2036.2726690226079
 20
843.32595345044228
 40
3.750000034520065
  0
ARC
  8
_0-3_Þ║_õ¢ôÒ
  6
CONTINUOUS
 62
    5
 10
2030.7728168384451
 20
836.07585777371082
 40
0.9999999850125387
 50
180
 51
270
  0
ARC
  8
_0-3_Þ║_õ¢ôÒ
  6
CONTINUOUS
 62
    5
 10
2115.4727106278465
 20
830.37586097275425
 40
7.1999997179020321
 50
90
 51
155.37567138671875
  0
ARC
  8
_0-3_Þ║_õ¢ôÒ
  6
CONTINUOUS
 62
    5
 10
2030.7728168384451
 20
850.57582616621914
 40
0.9999999850125387
 50
90
 51
180
  0
ARC
  8
_0-3_Þ║_õ¢ôÒ
  6
CONTINUOUS
 62
    5
 10
2235.0227393662144
 20
829.72585547016388
 40
11.250000103560193
 50
93.312255859375
 51
176.68772888183594
  0
ARC
  8
_0-3_Þ║_õ¢ôÒ
  6
CONTINUOUS
 62
    5
 10
2235.0227393662144
 20
829.72585547016388
 40
7.2499998731962965
 50
96.668746948242202
 51
173.33123779296875
  0
ARC
  8
_0-3_Þ║_õ¢ôÒ
  6
CONTINUOUS
 62
    5
 10
2227.3252353741855
 20
830.62587452303023
 40
0.4999999925062693
 50
269.99998474121094
 51
353.33123779296869
  0
ARC
  8
_0-3_Þ║_õ¢ôÒ
  6
CONTINUOUS
 62
    5
 10
2234.1227203133485
 20
837.42343378251121
 40
0.4999999925062693
 50
276.66874694824219
 51
359.99998474121094
  0
ARC
  8
_0-3_Þ║_õ¢ôÒ
  6
CONTINUOUS
 62
    5
 10
2234.3727338636245
 20
946.67586219817053
 40
7.1999997179020321
 50
180
 51
245.37567138671872
  0
ARC
  8
_0-3_Þ║_õ¢ôÒ
  6
CONTINUOUS
 62
    5
 10
2234.3727338636245
 20
949.27588420853192
 40
7.1999997179020321
 50
114.62431335449219
 51
180
  0
ARC
  8
_0-3_Þ║_õ¢ôÒ
  6
CONTINUOUS
 62
    5
 10
1734.6726427115068
 20
1299.7612889116795
 40
0.4999999925062693
 50
0
 51
41.40960693359375
  0
ARC
  8
_0-3_Þ║_õ¢ôÒ
  6
CONTINUOUS
 62
    5
 10
1735.422683362335
 20
1300.4227397432658
 40
0.4999999925062693
 50
179.99998474121094
 51
221.40960693359375
  0
ARC
  8
_0-3_Þ║_õ¢ôÒ
  6
CONTINUOUS
 62
    5
 10
1735.422683362335
 20
1322.5282778942446
 40
0.4999999925062693
 50
96.668746948242202
 51
179.99998474121097
  0
ARC
  8
_0-3_Þ║_õ¢ôÒ
  6
CONTINUOUS
 62
    5
 10
1734.5226643094684
 20
1330.2257818862738
 40
11.250000103560193
 50
273.312255859375
 51
356.68772888183594
  0
ARC
  8
_0-3_Þ║_õ¢ôÒ
  6
CONTINUOUS
 62
    5
 10
1742.2203169421339
 20
1329.3259114740438
 40
0.4999999925062693
 50
89.999984741210937
 51
173.33123779296875
  0
ARC
  8
_0-3_Þ║_õ¢ôÒ
  6
CONTINUOUS
 62
    5
 10
1734.5226643094684
 20
1330.2257818862738
 40
7.2499998731962965
 50
276.66874694824219
 51
353.33123779296875
  0
ARC
  8
_0-3_Þ║_õ¢ôÒ
  6
CONTINUOUS
 62
    5
 10
1764.9873059246991
 20
1330.0758034842354
 40
0.4999999925062693
 50
228.59036254882812
 51
270
  0
ARC
  8
_0-3_Þ║_õ¢ôÒ
  6
CONTINUOUS
 62
    5
 10
1764.3258550931128
 20
1329.3259114740438
 40
0.4999999925062693
 50
48.590362548828125
 51
89.999984741210923
  0
ARC
  8
_0-3_Þ║_õ¢ôÒ
  6
CONTINUOUS
 62
    5
 10
1764.3258550931128
 20
1329.3259114740438
 40
0.4999999925062693
 50
48.590377807617187
 51
89.999984741210937
  0
ARC
  8
_0-3_Þ║_õ¢ôÒ
  6
CONTINUOUS
 62
    5
 10
1764.9873059246991
 20
1330.0758034842354
 40
0.4999999925062693
 50
228.59037780761719
 51
269.99998474121094
  0
ARC
  8
_0-3_Þ║_õ¢ôÒ
  6
CONTINUOUS
 62
    5
 10
2235.0227393662144
 20
1330.2257818862738
 40
11.250000103560193
 50
183.312255859375
 51
266.68772888183594
  0
ARC
  8
_0-3_Þ║_õ¢ôÒ
  6
CONTINUOUS
 62
    5
 10
2234.8727609641765
 20
1299.7612889116795
 40
0.4999999925062693
 50
138.59037780761719
 51
180
  0
ARC
  8
_0-3_Þ║_õ¢ôÒ
  6
CONTINUOUS
 62
    5
 10
2234.1227203133485
 20
1300.4227397432658
 40
0.4999999925062693
 50
318.59037780761713
 51
359.99999999999994
  0
ARC
  8
_0-3_Þ║_õ¢ôÒ
  6
CONTINUOUS
 62
    5
 10
2235.0227393662144
 20
1330.2257818862738
 40
7.2499998731962965
 50
186.66874694824216
 51
263.33123779296875
  0
ARC
  8
_0-3_Þ║_õ¢ôÒ
  6
CONTINUOUS
 62
    5
 10
2227.3250867335491
 20
1329.3259114740438
 40
0.4999999925062693
 50
6.6687469482421884
 51
90
  0
ARC
  8
_0-3_Þ║_õ¢ôÒ
  6
CONTINUOUS
 62
    5
 10
2234.1227203133485
 20
1322.5282778942446
 40
0.4999999925062693
 50
0
 51
83.33123779296875
  0
ARC
  8
_0-3_Þ║_õ¢ôÒ
  6
CONTINUOUS
 62
    5
 10
2030.901836910763
 20
875.40193388360808
 40
14.000000515959897
 50
0
 51
90
  0
ARC
  8
_0-3_Þ║_õ¢ôÒ
  6
CONTINUOUS
 62
    5
 10
1991.801917529014
 20
888.40189529477857
 40
0.9999999850125387
 50
90
 51
180
  0
ARC
  8
_0-3_Þ║_õ¢ôÒ
  6
CONTINUOUS
 62
    5
 10
1990.0018794232815
 20
888.27220633959678
 40
0.8000000170414051
 50
270
 51
0
  0
ARC
  8
_0-3_Þ║_õ¢ôÒ
  6
CONTINUOUS
 62
    5
 10
1977.8019019167396
 20
888.40189529477857
 40
0.9999999850125387
 50
0
 51
90
  0
ARC
  8
_0-3_Þ║_õ¢ôÒ
  6
CONTINUOUS
 62
    5
 10
1979.6019400224723
 20
888.27220633959678
 40
0.8000000170414051
 50
180
 51
270
  0
ARC
  8
_0-3_Þ║_õ¢ôÒ
  6
CONTINUOUS
 62
    5
 10
2011.4486422741275
 20
867.09076702456673
 40
4.9702159849833336
 50
180
 51
0
  0
ARC
  8
_0-3_Þ║_õ¢ôÒ
  6
CONTINUOUS
 62
    5
 10
2037.4018919366667
 20
878.9711671630389
 40
3.5000001289899743
 50
270
 51
90
  0
ARC
  8
_0-3_Þ║_õ¢ôÒ
  6
CONTINUOUS
 62
    5
 10
2019.1187963890752
 20
874.57586354730677
 40
0.3000000063905269
 50
270
 51
0
  0
ARC
  8
_0-3_Þ║_õ¢ôÒ
  6
CONTINUOUS
 62
    5
 10
2019.1187963890752
 20
870.70280880725522
 40
0.3000000063905269
 50
0
 51
118.04788208007812
  0
ARC
  8
_0-3_Þ║_õ¢ôÒ
  6
CONTINUOUS
 62
    5
 10
2016.7188446751893
 20
874.57586354730677
 40
0.3000000063905269
 50
180
 51
270
  0
ARC
  8
_0-3_Þ║_õ¢ôÒ
  6
CONTINUOUS
 62
    5
 10
2016.7188446751893
 20
869.42412773338515
 40
0.3000000063905269
 50
118.04788208007812
 51
180
  0
ARC
  8
_0-3_Þ║_õ¢ôÒ
  6
CONTINUOUS
 62
    5
 10
2006.1782912324293
 20
874.57586354730677
 40
0.3000000063905269
 50
270
 51
0
  0
ARC
  8
_0-3_Þ║_õ¢ôÒ
  6
CONTINUOUS
 62
    5
 10
2003.7783395185434
 20
874.57586354730677
 40
0.3000000063905269
 50
180
 51
270
  0
ARC
  8
_0-3_Þ║_õ¢ôÒ
  6
CONTINUOUS
 62
    5
 10
2006.1782912324293
 20
869.42412773338515
 40
0.3000000063905269
 50
0
 51
61.952102661132813
  0
ARC
  8
_0-3_Þ║_õ¢ôÒ
  6
CONTINUOUS
 62
    5
 10
2003.7783395185434
 20
870.70280880725522
 40
0.3000000063905269
 50
61.952102661132813
 51
180
  0
ARC
  8
_0-3_Þ║_õ¢ôÒ
  6
CONTINUOUS
 62
    5
 10
2011.4486422741275
 20
867.09076702456673
 40
7.9702160125993853
 50
180
 51
0
  0
ARC
  8
_0-3_Þ║_õ¢ôÒ
  6
CONTINUOUS
 62
    5
 10
1958.1551771716261
 20
867.09076702456673
 40
4.9702159849833336
 50
180
 51
0
  0
ARC
  8
_0-3_Þ║_õ¢ôÒ
  6
CONTINUOUS
 62
    5
 10
1963.4253795726877
 20
874.57586354730677
 40
0.3000000063905269
 50
180
 51
270
  0
ARC
  8
_0-3_Þ║_õ¢ôÒ
  6
CONTINUOUS
 62
    5
 10
1965.8254799272104
 20
874.57586354730677
 40
0.3000000063905269
 50
270
 51
0
  0
ARC
  8
_0-3_Þ║_õ¢ôÒ
  6
CONTINUOUS
 62
    5
 10
1965.8254799272104
 20
870.70280880725522
 40
0.3000000063905269
 50
0
 51
118.04788208007812
  0
ARC
  8
_0-3_Þ║_õ¢ôÒ
  6
CONTINUOUS
 62
    5
 10
1963.4253795726877
 20
869.42412773338515
 40
0.3000000063905269
 50
118.04788208007812
 51
180
  0
ARC
  8
_0-3_Þ║_õ¢ôÒ
  6
CONTINUOUS
 62
    5
 10
1950.4850230566783
 20
874.57586354730677
 40
0.3000000063905269
 50
180
 51
270
  0
ARC
  8
_0-3_Þ║_õ¢ôÒ
  6
CONTINUOUS
 62
    5
 10
1952.8849747705644
 20
874.57586354730677
 40
0.3000000063905269
 50
270
 51
0
  0
ARC
  8
_0-3_Þ║_õ¢ôÒ
  6
CONTINUOUS
 62
    5
 10
1950.4850230566783
 20
870.70280880725522
 40
0.3000000063905269
 50
61.952102661132813
 51
180
  0
ARC
  8
_0-3_Þ║_õ¢ôÒ
  6
CONTINUOUS
 62
    5
 10
1952.8849747705644
 20
869.42412773338515
 40
0.3000000063905269
 50
0
 51
61.952102661132813
  0
ARC
  8
_0-3_Þ║_õ¢ôÒ
  6
CONTINUOUS
 62
    5
 10
1958.1551771716261
 20
867.09076702456673
 40
7.9702160125993853
 50
180
 51
0
  0
ARC
  8
_0-3_Þ║_õ¢ôÒ
  6
CONTINUOUS
 62
    5
 10
1938.701833894354
 20
875.40193388360808
 40
14.000000515959897
 50
90
 51
180
  0
ARC
  8
_0-3_Þ║_õ¢ôÒ
  6
CONTINUOUS
 62
    5
 10
1932.2019275090868
 20
878.9711671630389
 40
3.5000001289899743
 50
90
 51
270
  0
ARC
  8
_0-3_Þ║_õ¢ôÒ
  6
CONTINUOUS
 62
    5
 10
2037.4018919366667
 20
843.87116730443302
 40
3.5000001289899743
 50
270
 51
90
  0
ARC
  8
_0-3_Þ║_õ¢ôÒ
  6
CONTINUOUS
 62
    5
 10
1932.2019275090868
 20
843.87116730443302
 40
3.5000001289899743
 50
90
 51
270
  0
CIRCLE
  8
_0-3_Þ║_õ¢ôÒ
  6
CONTINUOUS
 62
    5
 10
778.2727100858358
 20
1142.9759632537723
 40
3.750000034520065
  0
CIRCLE
  8
_0-3_Þ║_õ¢ôÒ
  6
CONTINUOUS
 62
    5
 10
711.27272030745689
 20
1256.9759735932221
 40
3.750000034520065
  0
CIRCLE
  8
_0-3_Þ║_õ¢ôÒ
  6
CONTINUOUS
 62
    5
 10
648.27272437253976
 20
1272.9759489670682
 40
3.750000034520065
  0
CIRCLE
  8
_0-3_Þ║_õ¢ôÒ
  6
CONTINUOUS
 62
    5
 10
585.27269127746342
 20
1264.9759612801454
 40
3.750000034520065
  0
CIRCLE
  8
_0-3_Þ║_õ¢ôÒ
  6
CONTINUOUS
 62
    5
 10
522.27269534254629
 20
1272.9759489670682
 40
3.750000034520065
  0
CIRCLE
  8
_0-3_Þ║_õ¢ôÒ
  6
CONTINUOUS
 62
    5
 10
762.27266039167125
 20
1205.9759591886896
 40
3.750000034520065
  0
CIRCLE
  8
_0-3_Þ║_õ¢ôÒ
  6
CONTINUOUS
 62
    5
 10
695.20162038913554
 20
1189.9047849500503
 40
3.750000034520065
  0
CIRCLE
  8
_0-3_Þ║_õ¢ôÒ
  6
CONTINUOUS
 62
    5
 10
650.7142211442748
 20
1145.4174600255076
 40
3.750000034520065
  0
CIRCLE
  8
_0-3_Þ║_õ¢ôÒ
  6
CONTINUOUS
 62
    5
 10
551.52271999815707
 20
1203.9759251067997
 40
3.750000034520065
  0
CIRCLE
  8
_0-3_Þ║_õ¢ôÒ
  6
CONTINUOUS
 62
    5
 10
475.34376216579125
 20
1189.9047849500503
 40
3.750000034520065
  0
CIRCLE
  8
_0-3_Þ║_õ¢ôÒ
  6
CONTINUOUS
 62
    5
 10
585.27269127746342
 20
1127.9759677607121
 40
3.750000034520065
  0
CIRCLE
  8
_0-3_Þ║_õ¢ôÒ
  6
CONTINUOUS
 62
    5
 10
519.83119857081113
 20
1145.4174600255076
 40
3.750000034520065
  0
CIRCLE
  8
_0-3_Þ║_õ¢ôÒ
  6
CONTINUOUS
 62
    5
 10
619.02269971692886
 20
1203.9759251067997
 40
3.750000034520065
  0
CIRCLE
  8
_0-3_Þ║_õ¢ôÒ
  6
CONTINUOUS
 62
    5
 10
771.20150341490512
 20
1265.9048166164559
 40
3.750000034520065
  0
CIRCLE
  8
_0-3_Þ║_õ¢ôÒ
  6
CONTINUOUS
 62
    5
 10
778.2727100858358
 20
1016.9759713839379
 40
3.750000034520065
  0
CIRCLE
  8
_0-3_Þ║_õ¢ôÒ
  6
CONTINUOUS
 62
    5
 10
633.27272887947936
 20
1079.9759673188553
 40
3.750000034520065
  0
CIRCLE
  8
_0-3_Þ║_õ¢ôÒ
  6
CONTINUOUS
 62
    5
 10
709.2726862255671
 20
1046.225996039549
 40
3.750000034520065
  0
CIRCLE
  8
_0-3_Þ║_õ¢ôÒ
  6
CONTINUOUS
 62
    5
 10
650.7142211442748
 20
1014.5344002918847
 40
3.750000034520065
  0
CIRCLE
  8
_0-3_Þ║_õ¢ôÒ
  6
CONTINUOUS
 62
    5
 10
537.27269083560668
 20
1079.9759673188553
 40
3.750000034520065
  0
CIRCLE
  8
_0-3_Þ║_õ¢ôÒ
  6
CONTINUOUS
 62
    5
 10
585.27269127746342
 20
1031.9760411973166
 40
3.750000034520065
  0
CIRCLE
  8
_0-3_Þ║_õ¢ôÒ
  6
CONTINUOUS
 62
    5
 10
519.83119857081113
 20
1014.5344002918847
 40
3.750000034520065
  0
CIRCLE
  8
_0-3_Þ║_õ¢ôÒ
  6
CONTINUOUS
 62
    5
 10
762.27266039167125
 20
953.97597544902078
 40
3.750000034520065
  0
CIRCLE
  8
_0-3_Þ║_õ¢ôÒ
  6
CONTINUOUS
 62
    5
 10
695.20162038913554
 20
970.04714968766029
 40
3.750000034520065
  0
CIRCLE
  8
_0-3_Þ║_õ¢ôÒ
  6
CONTINUOUS
 62
    5
 10
711.27272030745689
 20
902.97596104448826
 40
3.750000034520065
  0
CIRCLE
  8
_0-3_Þ║_õ¢ôÒ
  6
CONTINUOUS
 62
    5
 10
648.27272437253976
 20
886.9759856706421
 40
3.750000034520065
  0
CIRCLE
  8
_0-3_Þ║_õ¢ôÒ
  6
CONTINUOUS
 62
    5
 10
551.52271999815707
 20
955.97593521059252
 40
3.750000034520065
  0
CIRCLE
  8
_0-3_Þ║_õ¢ôÒ
  6
CONTINUOUS
 62
    5
 10
475.34376216579125
 20
970.04714968766029
 40
3.750000034520065
  0
CIRCLE
  8
_0-3_Þ║_õ¢ôÒ
  6
CONTINUOUS
 62
    5
 10
585.27269127746342
 20
894.97604767788323
 40
3.750000034520065
  0
CIRCLE
  8
_0-3_Þ║_õ¢ôÒ
  6
CONTINUOUS
 62
    5
 10
522.27269534254629
 20
886.9759856706421
 40
3.750000034520065
  0
CIRCLE
  8
_0-3_Þ║_õ¢ôÒ
  6
CONTINUOUS
 62
    5
 10
619.02269971692886
 20
955.97593521059252
 40
3.750000034520065
  0
CIRCLE
  8
_0-3_Þ║_õ¢ôÒ
  6
CONTINUOUS
 62
    5
 10
771.20150341490512
 20
894.04704370093623
 40
3.750000034520065
  0
CIRCLE
  8
_0-3_Þ║_õ¢ôÒ
  6
CONTINUOUS
 62
    5
 10
770.27264807859444
 20
1079.9759673188553
 40
3.750000034520065
  0
CIRCLE
  8
_0-3_Þ║_õ¢ôÒ
  6
CONTINUOUS
 62
    5
 10
709.2726862255671
 20
1113.7260129184797
 40
3.750000034520065
  0
CIRCLE
  8
_0-3_Þ║_õ¢ôÒ
  6
CONTINUOUS
 62
    5
 10
399.3437676595446
 20
1265.9048166164559
 40
3.750000034520065
  0
CIRCLE
  8
_0-3_Þ║_õ¢ôÒ
  6
CONTINUOUS
 62
    5
 10
408.27272216325548
 20
1205.9759591886896
 40
3.750000034520065
  0
CIRCLE
  8
_0-3_Þ║_õ¢ôÒ
  6
CONTINUOUS
 62
    5
 10
392.27274678940933
 20
1142.9759632537723
 40
3.750000034520065
  0
CIRCLE
  8
_0-3_Þ║_õ¢ôÒ
  6
CONTINUOUS
 62
    5
 10
400.2727344763324
 20
1079.9759673188553
 40
3.750000034520065
  0
CIRCLE
  8
_0-3_Þ║_õ¢ôÒ
  6
CONTINUOUS
 62
    5
 10
392.27274678940933
 20
1016.9759713839379
 40
3.750000034520065
  0
CIRCLE
  8
_0-3_Þ║_õ¢ôÒ
  6
CONTINUOUS
 62
    5
 10
408.27272216325548
 20
953.97597544902078
 40
3.750000034520065
  0
CIRCLE
  8
_0-3_Þ║_õ¢ôÒ
  6
CONTINUOUS
 62
    5
 10
399.3437676595446
 20
894.04711802125428
 40
3.750000034520065
  0
CIRCLE
  8
_0-3_Þ║_õ¢ôÒ
  6
CONTINUOUS
 62
    5
 10
459.27269940762915
 20
902.97596104448826
 40
3.750000034520065
  0
CIRCLE
  8
_0-3_Þ║_õ¢ôÒ
  6
CONTINUOUS
 62
    5
 10
461.27269632935975
 20
1046.225996039549
 40
3.750000034520065
  0
CIRCLE
  8
_0-3_Þ║_õ¢ôÒ
  6
CONTINUOUS
 62
    5
 10
461.27269632935975
 20
1113.7260129184797
 40
3.750000034520065
  0
CIRCLE
  8
_0-3_Þ║_õ¢ôÒ
  6
CONTINUOUS
 62
    5
 10
459.27269940762915
 20
1256.9759735932221
 40
3.750000034520065
  0
ARC
  8
_0-3_Þ║_õ¢ôÒ
  6
CONTINUOUS
 62
    5
 10
1534.1915035174161
 20
1330.4759440771861
 40
7.603499821484319
 50
184.90400695800778
 51
265.09596252441406
  0
ARC
  8
_0-3_Þ║_õ¢ôÒ
  6
CONTINUOUS
 62
    5
 10
1534.1915035174161
 20
1330.4759440771861
 40
11.250000103560193
 50
183.31224060058591
 51
266.68771362304688
  0
ARC
  8
_0-3_Þ║_õ¢ôÒ
  6
CONTINUOUS
 62
    5
 10
1508.4412969640782
 20
1304.7260348051211
 40
18.099999315029866
 50
359.99998474121088
 51
89.999984741210909
  0
ARC
  8
_0-3_Þ║_õ¢ôÒ
  6
CONTINUOUS
 62
    5
 10
1508.4412969640782
 20
1304.7260348051211
 40
11.600000029365068
 50
359.99998474121088
 51
89.999984741210909
  0
ARC
  8
_0-3_Þ║_õ¢ôÒ
  6
LONG3
 62
    5
 10
1508.4412969640782
 20
1304.7260348051211
 40
14.60000005698112
 50
359.99998474121088
 51
89.999984741210909
  0
ARC
  8
_0-3_Þ║_õ¢ôÒ
  6
CONTINUOUS
 62
    5
 10
1508.4415942453511
 20
1304.7260348051211
 40
15.600000840356451
 50
359.99998474121088
 51
89.999984741210909
  0
ARC
  8
_0-3_Þ║_õ¢ôÒ
  6
CONTINUOUS
 62
    5
 10
1524.6157764449542
 20
1326.3260461520044
 40
1.9999999700250775
 50
269.99998474121094
 51
0
  0
ARC
  8
_0-3_Þ║_õ¢ôÒ
  6
CONTINUOUS
 62
    5
 10
1530.0414569515979
 20
1320.9003656453608
 40
1.9999999700250775
 50
89.999984741210937
 51
179.99998474121097
  0
ARC
  8
_0-3_Þ║_õ¢ôÒ
  6
CONTINUOUS
 62
    5
 10
1517.1914739424658
 20
1248.520848277913
 40
15.99999976020062
 50
159.562255859375
 51
180
  0
ARC
  8
_0-3_Þ║_õ¢ôÒ
  6
LONG3
 62
    5
 10
1517.1914739424658
 20
1248.520848277913
 40
15.00000013808026
 50
159.562255859375
 51
180
  0
CIRCLE
  8
_0-3_Þ║_õ¢ôÒ
  6
CONTINUOUS
 62
    5
 10
1476.9415219575742
 20
1143.2259768040483
 40
3.750000034520065
  0
ARC
  8
_0-3_Þ║_õ¢ôÒ
  6
LONG3
 62
    5
 10
1452.2361104368701
 20
1313.4759145022358
 40
15.99999976020062
 50
270
 51
290.43806457519531
  0
ARC
  8
_0-3_Þ║_õ¢ôÒ
  6
LONG3
 62
    5
 10
1452.2361104368701
 20
1313.4759145022358
 40
15.00000013808026
 50
270
 51
290.43806457519531
  0
CIRCLE
  8
_0-3_Þ║_õ¢ôÒ
  6
CONTINUOUS
 62
    5
 10
1409.9416064995135
 20
1257.2259871434981
 40
3.750000034520065
  0
CIRCLE
  8
_0-3_Þ║_õ¢ôÒ
  6
CONTINUOUS
 62
    5
 10
1346.9414619239601
 20
1273.2259625173442
 40
3.750000034520065
  0
ARC
  8
_0-3_Þ║_õ¢ôÒ
  6
CONTINUOUS
 62
    5
 10
1360.2080846366734
 20
1280.2258960031636
 40
13.49999896301726
 50
27.818115234375
 51
89.999984741210937
  0
ARC
  8
_0-3_Þ║_õ¢ôÒ
  6
CONTINUOUS
 62
    5
 10
1346.9414619239601
 20
1273.2259625173442
 40
28.500000262352494
 50
152.18183898925781
 51
27.818115234375
  0
ARC
  8
_0-3_Þ║_õ¢ôÒ
  6
CONTINUOUS
 62
    5
 10
1333.6749878518829
 20
1280.2258960031636
 40
13.49999896301726
 50
90
 51
152.18183898925781
  0
ARC
  8
_0-3_Þ║_õ¢ôÒ
  6
CONTINUOUS
 62
    5
 10
1360.2080846366734
 20
1280.2258960031636
 40
9.9999997049685145
 50
27.818115234375
 51
89.999984741210937
  0
ARC
  8
_0-3_Þ║_õ¢ôÒ
  6
CONTINUOUS
 62
    5
 10
1346.9414619239601
 20
1273.2259625173442
 40
25.000001004303748
 50
152.18183898925781
 51
27.818115234375
  0
ARC
  8
_0-3_Þ║_õ¢ôÒ
  6
CONTINUOUS
 62
    5
 10
1333.6749878518829
 20
1280.2258960031636
 40
9.9999997049685145
 50
90
 51
152.18183898925781
  0
CIRCLE
  8
_0-3_Þ║_õ¢ôÒ
  6
CONTINUOUS
 62
    5
 10
1283.9416146296792
 20
1265.2259748304214
 40
28.500000262352494
  0
CIRCLE
  8
_0-3_Þ║_õ¢ôÒ
  6
CONTINUOUS
 62
    5
 10
1283.9416146296792
 20
1265.2259748304214
 40
25.000001004303748
  0
CIRCLE
  8
_0-3_Þ║_õ¢ôÒ
  6
CONTINUOUS
 62
    5
 10
1283.9416146296792
 20
1265.2259748304214
 40
3.750000034520065
  0
CIRCLE
  8
_0-3_Þ║_õ¢ôÒ
  6
CONTINUOUS
 62
    5
 10
1220.9415443744438
 20
1273.2259625173442
 40
3.750000034520065
  0
ARC
  8
_0-3_Þ║_õ¢ôÒ
  6
CONTINUOUS
 62
    5
 10
1207.6750703023667
 20
1280.2258960031636
 40
13.49999896301726
 50
90
 51
152.18183898925781
  0
ARC
  8
_0-3_Þ║_õ¢ôÒ
  6
CONTINUOUS
 62
    5
 10
1220.9415443744438
 20
1273.2259625173442
 40
28.500000262352494
 50
152.18183898925781
 51
27.818115234375
  0
ARC
  8
_0-3_Þ║_õ¢ôÒ
  6
CONTINUOUS
 62
    5
 10
1234.208018446521
 20
1280.2258960031636
 40
13.49999896301726
 50
27.818115234375
 51
89.999984741210937
  0
ARC
  8
_0-3_Þ║_õ¢ôÒ
  6
CONTINUOUS
 62
    5
 10
1207.6750703023667
 20
1280.2258960031636
 40
9.9999997049685145
 50
90
 51
152.18183898925781
  0
ARC
  8
_0-3_Þ║_õ¢ôÒ
  6
CONTINUOUS
 62
    5
 10
1220.9415443744438
 20
1273.2259625173442
 40
25.000001004303748
 50
152.18183898925781
 51
27.818115234375
  0
ARC
  8
_0-3_Þ║_õ¢ôÒ
  6
CONTINUOUS
 62
    5
 10
1234.208018446521
 20
1280.2258960031636
 40
9.9999997049685145
 50
27.818115234375
 51
89.999984741210937
  0
CIRCLE
  8
_0-3_Þ║_õ¢ôÒ
  6
CONTINUOUS
 62
    5
 10
1460.941546583728
 20
1206.2259727389655
 40
3.750000034520065
  0
CIRCLE
  8
_0-3_Þ║_õ¢ôÒ
  6
CONTINUOUS
 62
    5
 10
1393.8704322608742
 20
1190.1548728206444
 40
4.7499999469541674
  0
CIRCLE
  8
_0-3_Þ║_õ¢ôÒ
  6
CONTINUOUS
 62
    5
 10
1349.3830330160133
 20
1145.6675478961017
 40
26.999997926034521
  0
CIRCLE
  8
_0-3_Þ║_õ¢ôÒ
  6
CONTINUOUS
 62
    5
 10
1349.3830330160133
 20
1145.6675478961017
 40
4.7499999469541674
  0
CIRCLE
  8
_0-3_Þ║_õ¢ôÒ
  6
CONTINUOUS
 62
    5
 10
1393.8704322608742
 20
1190.1548728206444
 40
26.999997926034521
  0
CIRCLE
  8
_0-3_Þ║_õ¢ôÒ
  6
CONTINUOUS
 62
    5
 10
1393.8704322608742
 20
1190.1548728206444
 40
30.499999506593213
  0
CIRCLE
  8
_0-3_Þ║_õ¢ôÒ
  6
CONTINUOUS
 62
    5
 10
1250.1915690300548
 20
1204.226012977394
 40
4.7499999469541674
  0
CIRCLE
  8
_0-3_Þ║_õ¢ôÒ
  6
CONTINUOUS
 62
    5
 10
1174.0125740375297
 20
1190.1548728206444
 40
4.7499999469541674
  0
CIRCLE
  8
_0-3_Þ║_õ¢ôÒ
  6
CONTINUOUS
 62
    5
 10
1250.1915690300548
 20
1204.226012977394
 40
26.999997926034521
  0
CIRCLE
  8
_0-3_Þ║_õ¢ôÒ
  6
CONTINUOUS
 62
    5
 10
1283.9416146296792
 20
1128.2260556313061
 40
4.7499999469541674
  0
CIRCLE
  8
_0-3_Þ║_õ¢ôÒ
  6
CONTINUOUS
 62
    5
 10
1218.5000476027087
 20
1145.6675478961017
 40
4.7499999469541674
  0
CIRCLE
  8
_0-3_Þ║_õ¢ôÒ
  6
CONTINUOUS
 62
    5
 10
1218.5000476027087
 20
1145.6675478961017
 40
26.999997926034521
  0
CIRCLE
  8
_0-3_Þ║_õ¢ôÒ
  6
CONTINUOUS
 62
    5
 10
1250.1915690300548
 20
1204.226012977394
 40
30.499999506593213
  0
CIRCLE
  8
_0-3_Þ║_õ¢ôÒ
  6
CONTINUOUS
 62
    5
 10
1317.6915115886673
 20
1204.226012977394
 40
30.499999506593213
  0
CIRCLE
  8
_0-3_Þ║_õ¢ôÒ
  6
CONTINUOUS
 62
    5
 10
1317.6915115886673
 20
1204.226012977394
 40
26.999997926034521
  0
CIRCLE
  8
_0-3_Þ║_õ¢ôÒ
  6
CONTINUOUS
 62
    5
 10
1317.6915115886673
 20
1204.226012977394
 40
4.7499999469541674
  0
CIRCLE
  8
_0-3_Þ║_õ¢ôÒ
  6
CONTINUOUS
 62
    5
 10
1409.9416064995135
 20
1257.2259871434981
 40
28.500000262352494
  0
CIRCLE
  8
_0-3_Þ║_õ¢ôÒ
  6
CONTINUOUS
 62
    5
 10
1409.9416064995135
 20
1257.2259871434981
 40
25.000001004303748
  0
CIRCLE
  8
_0-3_Þ║_õ¢ôÒ
  6
CONTINUOUS
 62
    5
 10
1469.8703896069619
 20
1266.1549788073683
 40
28.500000262352494
  0
CIRCLE
  8
_0-3_Þ║_õ¢ôÒ
  6
CONTINUOUS
 62
    5
 10
1460.941546583728
 20
1206.2259727389655
 40
25.000001004303748
  0
CIRCLE
  8
_0-3_Þ║_õ¢ôÒ
  6
CONTINUOUS
 62
    5
 10
1460.941546583728
 20
1206.2259727389655
 40
28.500000262352494
  0
ARC
  8
_0-3_Þ║_õ¢ôÒ
  6
CONTINUOUS
 62
    5
 10
1483.9414554433934
 20
1156.4925251964437
 40
9.9999997049685145
 50
0
 51
62.181838989257813
  0
ARC
  8
_0-3_Þ║_õ¢ôÒ
  6
CONTINUOUS
 62
    5
 10
1476.9415219575742
 20
1143.2259768040483
 40
25.000001004303748
 50
62.181838989257813
 51
297.818115234375
  0
ARC
  8
_0-3_Þ║_õ¢ôÒ
  6
CONTINUOUS
 62
    5
 10
1483.9414554433934
 20
1129.9595027319713
 40
9.9999997049685145
 50
297.818115234375
 51
0
  0
ARC
  8
_0-3_Þ║_õ¢ôÒ
  6
CONTINUOUS
 62
    5
 10
1469.8703896069619
 20
1266.1549788073683
 40
34.500000317584593
 50
339.562255859375
 51
110.43806457519533
  0
ARC
  8
_0-3_Þ║_õ¢ôÒ
  6
LONG3
 62
    5
 10
1469.8703896069619
 20
1266.1549788073683
 40
35.500001100959921
 50
339.562255859375
 51
110.43806457519533
  0
CIRCLE
  8
_0-3_Þ║_õ¢ôÒ
  6
CONTINUOUS
 62
    5
 10
1469.8703896069619
 20
1266.1549788073683
 40
3.750000034520065
  0
CIRCLE
  8
_0-3_Þ║_õ¢ôÒ
  6
CONTINUOUS
 62
    5
 10
1469.8703896069619
 20
1266.1549788073683
 40
25.000001004303748
  0
CIRCLE
  8
_0-3_Þ║_õ¢ôÒ
  6
CONTINUOUS
 62
    5
 10
1476.9415219575742
 20
1017.225984934214
 40
3.750000034520065
  0
ARC
  8
_0-3_Þ║_õ¢ôÒ
  6
CONTINUOUS
 62
    5
 10
1517.1914739424658
 20
911.93111346034925
 40
15.99999976020062
 50
180
 51
200.43771362304687
  0
ARC
  8
_0-3_Þ║_õ¢ôÒ
  6
LONG3
 62
    5
 10
1517.1914739424658
 20
911.93111346034925
 40
15.00000013808026
 50
180
 51
200.43771362304687
  0
CIRCLE
  8
_0-3_Þ║_õ¢ôÒ
  6
CONTINUOUS
 62
    5
 10
1331.9415407512179
 20
1080.2259808691313
 40
4.7499999469541674
  0
CIRCLE
  8
_0-3_Þ║_õ¢ôÒ
  6
CONTINUOUS
 62
    5
 10
1407.9414980973056
 20
1046.4759352695066
 40
4.7499999469541674
  0
CIRCLE
  8
_0-3_Þ║_õ¢ôÒ
  6
CONTINUOUS
 62
    5
 10
1349.3830330160133
 20
1014.784488162479
 40
4.7499999469541674
  0
CIRCLE
  8
_0-3_Þ║_õ¢ôÒ
  6
CONTINUOUS
 62
    5
 10
1407.9414980973056
 20
1046.4759352695066
 40
30.499999506593213
  0
CIRCLE
  8
_0-3_Þ║_õ¢ôÒ
  6
CONTINUOUS
 62
    5
 10
1407.9414980973056
 20
1046.4759352695066
 40
26.999997926034521
  0
CIRCLE
  8
_0-3_Þ║_õ¢ôÒ
  6
CONTINUOUS
 62
    5
 10
1235.9415398675042
 20
1080.2259808691313
 40
4.7499999469541674
  0
CIRCLE
  8
_0-3_Þ║_õ¢ôÒ
  6
CONTINUOUS
 62
    5
 10
1283.9416146296792
 20
1032.2259804272744
 40
4.7499999469541674
  0
CIRCLE
  8
_0-3_Þ║_õ¢ôÒ
  6
CONTINUOUS
 62
    5
 10
1218.5000476027087
 20
1014.784488162479
 40
4.7499999469541674
  0
CIRCLE
  8
_0-3_Þ║_õ¢ôÒ
  6
CONTINUOUS
 62
    5
 10
1235.9415398675042
 20
1080.2259808691313
 40
30.499999506593213
  0
CIRCLE
  8
_0-3_Þ║_õ¢ôÒ
  6
CONTINUOUS
 62
    5
 10
1235.9415398675042
 20
1080.2259808691313
 40
26.999997926034521
  0
CIRCLE
  8
_0-3_Þ║_õ¢ôÒ
  6
CONTINUOUS
 62
    5
 10
1283.9416146296792
 20
1032.2259804272744
 40
26.999997926034521
  0
CIRCLE
  8
_0-3_Þ║_õ¢ôÒ
  6
CONTINUOUS
 62
    5
 10
1331.9415407512179
 20
1080.2259808691313
 40
26.999997926034521
  0
CIRCLE
  8
_0-3_Þ║_õ¢ôÒ
  6
CONTINUOUS
 62
    5
 10
1331.9415407512179
 20
1080.2259808691313
 40
30.499999506593213
  0
CIRCLE
  8
_0-3_Þ║_õ¢ôÒ
  6
CONTINUOUS
 62
    5
 10
1283.9416146296792
 20
1032.2259804272744
 40
30.499999506593213
  0
CIRCLE
  8
_0-3_Þ║_õ¢ôÒ
  6
CONTINUOUS
 62
    5
 10
1460.941546583728
 20
954.22598899929676
 40
3.750000034520065
  0
CIRCLE
  8
_0-3_Þ║_õ¢ôÒ
  6
CONTINUOUS
 62
    5
 10
1393.8704322608742
 20
970.29716323793627
 40
26.999997926034521
  0
CIRCLE
  8
_0-3_Þ║_õ¢ôÒ
  6
CONTINUOUS
 62
    5
 10
1393.8704322608742
 20
970.29716323793627
 40
4.7499999469541674
  0
CIRCLE
  8
_0-3_Þ║_õ¢ôÒ
  6
CONTINUOUS
 62
    5
 10
1409.9416064995135
 20
903.2260489150824
 40
3.750000034520065
  0
CIRCLE
  8
_0-3_Þ║_õ¢ôÒ
  6
CONTINUOUS
 62
    5
 10
1346.9414619239601
 20
887.22607354123613
 40
3.750000034520065
  0
CIRCLE
  8
_0-3_Þ║_õ¢ôÒ
  6
CONTINUOUS
 62
    5
 10
1250.1915690300548
 20
956.22602308118667
 40
4.7499999469541674
  0
CIRCLE
  8
_0-3_Þ║_õ¢ôÒ
  6
CONTINUOUS
 62
    5
 10
1174.0125740375297
 20
970.29716323793627
 40
4.7499999469541674
  0
CIRCLE
  8
_0-3_Þ║_õ¢ôÒ
  6
CONTINUOUS
 62
    5
 10
1283.9416146296792
 20
895.22606122815932
 40
3.750000034520065
  0
CIRCLE
  8
_0-3_Þ║_õ¢ôÒ
  6
CONTINUOUS
 62
    5
 10
1220.9415443744438
 20
887.22607354123613
 40
3.750000034520065
  0
CIRCLE
  8
_0-3_Þ║_õ¢ôÒ
  6
CONTINUOUS
 62
    5
 10
1250.1915690300548
 20
956.22602308118667
 40
30.499999506593213
  0
CIRCLE
  8
_0-3_Þ║_õ¢ôÒ
  6
CONTINUOUS
 62
    5
 10
1250.1915690300548
 20
956.22602308118667
 40
26.999997926034521
  0
CIRCLE
  8
_0-3_Þ║_õ¢ôÒ
  6
CONTINUOUS
 62
    5
 10
1317.6915115886673
 20
956.22602308118667
 40
30.499999506593213
  0
CIRCLE
  8
_0-3_Þ║_õ¢ôÒ
  6
CONTINUOUS
 62
    5
 10
1317.6915115886673
 20
956.22602308118667
 40
26.999997926034521
  0
CIRCLE
  8
_0-3_Þ║_õ¢ôÒ
  6
CONTINUOUS
 62
    5
 10
1317.6915115886673
 20
956.22602308118667
 40
4.7499999469541674
  0
CIRCLE
  8
_0-3_Þ║_õ¢ôÒ
  6
CONTINUOUS
 62
    5
 10
1218.5000476027087
 20
1014.784488162479
 40
30.499999506593213
  0
CIRCLE
  8
_0-3_Þ║_õ¢ôÒ
  6
CONTINUOUS
 62
    5
 10
1218.5000476027087
 20
1014.784488162479
 40
26.999997926034521
  0
CIRCLE
  8
_0-3_Þ║_õ¢ôÒ
  6
CONTINUOUS
 62
    5
 10
1349.3830330160133
 20
1014.784488162479
 40
30.499999506593213
  0
CIRCLE
  8
_0-3_Þ║_õ¢ôÒ
  6
CONTINUOUS
 62
    5
 10
1349.3830330160133
 20
1014.784488162479
 40
26.999997926034521
  0
CIRCLE
  8
_0-3_Þ║_õ¢ôÒ
  6
CONTINUOUS
 62
    5
 10
1393.8704322608742
 20
970.29716323793627
 40
30.499999506593213
  0
CIRCLE
  8
_0-3_Þ║_õ¢ôÒ
  6
CONTINUOUS
 62
    5
 10
1460.941546583728
 20
954.22598899929676
 40
25.000001004303748
  0
CIRCLE
  8
_0-3_Þ║_õ¢ôÒ
  6
CONTINUOUS
 62
    5
 10
1460.941546583728
 20
954.22598899929676
 40
28.500000262352494
  0
CIRCLE
  8
_0-3_Þ║_õ¢ôÒ
  6
CONTINUOUS
 62
    5
 10
1468.9415342706511
 20
1080.2259808691313
 40
28.500000262352494
  0
CIRCLE
  8
_0-3_Þ║_õ¢ôÒ
  6
CONTINUOUS
 62
    5
 10
1468.9415342706511
 20
1080.2259808691313
 40
25.000001004303748
  0
CIRCLE
  8
_0-3_Þ║_õ¢ôÒ
  6
CONTINUOUS
 62
    5
 10
1469.8703896069619
 20
894.29705725121221
 40
3.750000034520065
  0
ARC
  8
_0-3_Þ║_õ¢ôÒ
  6
CONTINUOUS
 62
    5
 10
1483.9414554433934
 20
1003.9595108621368
 40
13.49999896301726
 50
297.818115234375
 51
359.99998474121094
  0
ARC
  8
_0-3_Þ║_õ¢ôÒ
  6
CONTINUOUS
 62
    5
 10
1476.9415219575742
 20
1017.225984934214
 40
28.500000262352494
 50
62.181838989257813
 51
297.818115234375
  0
ARC
  8
_0-3_Þ║_õ¢ôÒ
  6
CONTINUOUS
 62
    5
 10
1483.9414554433934
 20
1030.4925333266092
 40
13.49999896301726
 50
0
 51
62.181838989257813
  0
ARC
  8
_0-3_Þ║_õ¢ôÒ
  6
CONTINUOUS
 62
    5
 10
1483.9414554433934
 20
1003.9595108621368
 40
9.9999997049685145
 50
297.818115234375
 51
359.99998474121094
  0
ARC
  8
_0-3_Þ║_õ¢ôÒ
  6
CONTINUOUS
 62
    5
 10
1476.9415219575742
 20
1017.225984934214
 40
25.000001004303748
 50
62.181838989257813
 51
297.818115234375
  0
ARC
  8
_0-3_Þ║_õ¢ôÒ
  6
CONTINUOUS
 62
    5
 10
1483.9414554433934
 20
1030.4925333266092
 40
9.9999997049685145
 50
359.99998474121088
 51
62.181838989257784
  0
CIRCLE
  8
_0-3_Þ║_õ¢ôÒ
  6
CONTINUOUS
 62
    5
 10
1468.9415342706511
 20
1080.2259808691313
 40
3.750000034520065
  0
CIRCLE
  8
_0-3_Þ║_õ¢ôÒ
  6
CONTINUOUS
 62
    5
 10
1218.5000476027087
 20
1145.6675478961017
 40
30.499999506593213
  0
CIRCLE
  8
_0-3_Þ║_õ¢ôÒ
  6
CONTINUOUS
 62
    5
 10
1349.3830330160133
 20
1145.6675478961017
 40
30.499999506593213
  0
CIRCLE
  8
_0-3_Þ║_õ¢ôÒ
  6
CONTINUOUS
 62
    5
 10
1283.9416146296792
 20
1128.2260556313061
 40
30.499999506593213
  0
CIRCLE
  8
_0-3_Þ║_õ¢ôÒ
  6
CONTINUOUS
 62
    5
 10
1283.9416146296792
 20
1128.2260556313061
 40
26.999997926034521
  0
CIRCLE
  8
_0-3_Þ║_õ¢ôÒ
  6
CONTINUOUS
 62
    5
 10
1407.9414980973056
 20
1113.9759521484375
 40
30.499999506593213
  0
CIRCLE
  8
_0-3_Þ║_õ¢ôÒ
  6
CONTINUOUS
 62
    5
 10
1407.9414980973056
 20
1113.9759521484375
 40
26.999997926034521
  0
CIRCLE
  8
_0-3_Þ║_õ¢ôÒ
  6
CONTINUOUS
 62
    5
 10
1407.9414980973056
 20
1113.9759521484375
 40
4.7499999469541674
  0
ARC
  8
_0-3_Þ║_õ¢ôÒ
  6
CONTINUOUS
 62
    5
 10
1483.9414554433934
 20
1156.4925251964437
 40
13.49999896301726
 50
0
 51
62.181838989257813
  0
ARC
  8
_0-3_Þ║_õ¢ôÒ
  6
CONTINUOUS
 62
    5
 10
1476.9415219575742
 20
1143.2259768040483
 40
28.500000262352494
 50
62.181838989257813
 51
297.818115234375
  0
ARC
  8
_0-3_Þ║_õ¢ôÒ
  6
CONTINUOUS
 62
    5
 10
1483.9414554433934
 20
1129.9595027319713
 40
13.49999896301726
 50
297.818115234375
 51
359.99998474121094
  0
ARC
  8
_0-3_Þ║_õ¢ôÒ
  6
LONG3
 62
    5
 10
1114.721013337949
 20
1308.4759407779884
 40
9.9999997049685145
 50
248.45584106445312
 51
270
  0
ARC
  8
_0-3_Þ║_õ¢ôÒ
  6
LONG3
 62
    5
 10
1114.721013337949
 20
1308.4759407779884
 40
11.000000488343847
 50
248.45584106445312
 51
270
  0
ARC
  8
_0-3_Þ║_õ¢ôÒ
  6
LONG3
 62
    5
 10
1059.4417093343257
 20
1304.7260348051211
 40
14.60000005698112
 50
90
 51
179.99998474121097
  0
ARC
  8
_0-3_Þ║_õ¢ôÒ
  6
CONTINUOUS
 62
    5
 10
1059.4417093343257
 20
1304.7260348051211
 40
18.099999315029866
 50
90
 51
179.99998474121097
  0
ARC
  8
_0-3_Þ║_õ¢ôÒ
  6
CONTINUOUS
 62
    5
 10
1059.4415606936891
 20
1304.7260348051211
 40
15.600000840356451
 50
90
 51
180
  0
ARC
  8
_0-3_Þ║_õ¢ôÒ
  6
CONTINUOUS
 62
    5
 10
1059.4417093343257
 20
1304.7260348051211
 40
11.600000029365068
 50
89.999984741210937
 51
179.99998474121097
  0
ARC
  8
_0-3_Þ║_õ¢ôÒ
  6
CONTINUOUS
 62
    5
 10
1033.691502780988
 20
1330.4759440771861
 40
11.250000103560193
 50
273.31224060058594
 51
356.68772888183594
  0
ARC
  8
_0-3_Þ║_õ¢ôÒ
  6
CONTINUOUS
 62
    5
 10
1033.691502780988
 20
1330.4759440771861
 40
7.603499821484319
 50
274.90402221679687
 51
355.09596252441406
  0
ARC
  8
_0-3_Þ║_õ¢ôÒ
  6
CONTINUOUS
 62
    5
 10
1043.2672298534496
 20
1326.3260461520044
 40
1.9999999700250775
 50
179.99998474121094
 51
270
  0
ARC
  8
_0-3_Þ║_õ¢ôÒ
  6
CONTINUOUS
 62
    5
 10
1037.841549346806
 20
1320.9003656453608
 40
1.9999999700250775
 50
0
 51
90
  0
CIRCLE
  8
_0-3_Þ║_õ¢ôÒ
  6
CONTINUOUS
 62
    5
 10
1098.012616691442
 20
1266.1548301667319
 40
3.750000034520065
  0
CIRCLE
  8
_0-3_Þ║_õ¢ôÒ
  6
CONTINUOUS
 62
    5
 10
1098.012616691442
 20
1266.1548301667319
 40
3.750000034520065
  0
ARC
  8
_0-3_Þ║_õ¢ôÒ
  6
LONG3
 62
    5
 10
1050.6915323559383
 20
1248.5205509966404
 40
15.00000013808026
 50
0
 51
20.438064575195309
  0
ARC
  8
_0-3_Þ║_õ¢ôÒ
  6
CONTINUOUS
 62
    5
 10
1050.6915323559383
 20
1248.5205509966404
 40
15.99999976020062
 50
359.99998474121088
 51
20.438064575195277
  0
CIRCLE
  8
_0-3_Þ║_õ¢ôÒ
  6
CONTINUOUS
 62
    5
 10
1098.012616691442
 20
1266.1548301667319
 40
25.000001004303748
  0
ARC
  8
_0-3_Þ║_õ¢ôÒ
  6
CONTINUOUS
 62
    5
 10
1098.012616691442
 20
1266.1548301667319
 40
34.500000317584593
 50
68.455841064453125
 51
200.43806457519531
  0
ARC
  8
_0-3_Þ║_õ¢ôÒ
  6
LONG3
 62
    5
 10
1098.012616691442
 20
1266.1548301667319
 40
35.500001100959921
 50
68.455841064453125
 51
200.43806457519531
  0
CIRCLE
  8
_0-3_Þ║_õ¢ôÒ
  6
CONTINUOUS
 62
    5
 10
1098.012616691442
 20
1266.1548301667319
 40
28.500000262352494
  0
CIRCLE
  8
_0-3_Þ║_õ¢ôÒ
  6
CONTINUOUS
 62
    5
 10
1106.9416083553124
 20
1206.2259727389655
 40
25.000001004303748
  0
CIRCLE
  8
_0-3_Þ║_õ¢ôÒ
  6
CONTINUOUS
 62
    5
 10
1106.9416083553124
 20
1206.2259727389655
 40
3.750000034520065
  0
CIRCLE
  8
_0-3_Þ║_õ¢ôÒ
  6
CONTINUOUS
 62
    5
 10
1106.9416083553124
 20
1206.2259727389655
 40
28.500000262352494
  0
CIRCLE
  8
_0-3_Þ║_õ¢ôÒ
  6
CONTINUOUS
 62
    5
 10
1090.9415586611481
 20
1143.2259768040483
 40
3.750000034520065
  0
ARC
  8
_0-3_Þ║_õ¢ôÒ
  6
CONTINUOUS
 62
    5
 10
1083.9415508550105
 20
1156.4925251964437
 40
9.9999997049685145
 50
117.818115234375
 51
179.99998474121097
  0
ARC
  8
_0-3_Þ║_õ¢ôÒ
  6
CONTINUOUS
 62
    5
 10
1090.9415586611481
 20
1143.2259768040483
 40
25.000001004303748
 50
242.18183898925778
 51
117.81811523437497
  0
ARC
  8
_0-3_Þ║_õ¢ôÒ
  6
CONTINUOUS
 62
    5
 10
1083.9415508550105
 20
1129.9595027319713
 40
9.9999997049685145
 50
180
 51
242.18183898925784
  0
CIRCLE
  8
_0-3_Þ║_õ¢ôÒ
  6
CONTINUOUS
 62
    5
 10
1098.9416206683891
 20
1080.2259808691313
 40
3.750000034520065
  0
CIRCLE
  8
_0-3_Þ║_õ¢ôÒ
  6
CONTINUOUS
 62
    5
 10
1090.9415586611481
 20
1017.225984934214
 40
3.750000034520065
  0
CIRCLE
  8
_0-3_Þ║_õ¢ôÒ
  6
CONTINUOUS
 62
    5
 10
1098.9416206683891
 20
1080.2259808691313
 40
25.000001004303748
  0
CIRCLE
  8
_0-3_Þ║_õ¢ôÒ
  6
CONTINUOUS
 62
    5
 10
1098.9416206683891
 20
1080.2259808691313
 40
28.500000262352494
  0
CIRCLE
  8
_0-3_Þ║_õ¢ôÒ
  6
CONTINUOUS
 62
    5
 10
1106.9416083553124
 20
954.22598899929676
 40
3.750000034520065
  0
ARC
  8
_0-3_Þ║_õ¢ôÒ
  6
CONTINUOUS
 62
    5
 10
1037.841549346806
 20
958.07124794035803
 40
1.9999999700250775
 50
270
 51
0
  0
CIRCLE
  8
_0-3_Þ║_õ¢ôÒ
  6
CONTINUOUS
 62
    5
 10
1098.012616691442
 20
894.29720589184853
 40
3.750000034520065
  0
CIRCLE
  8
_0-3_Þ║_õ¢ôÒ
  6
CONTINUOUS
 62
    5
 10
1098.012616691442
 20
894.29720589184853
 40
3.750000034520065
  0
ARC
  8
_0-3_Þ║_õ¢ôÒ
  6
LONG3
 62
    5
 10
1050.6915323559383
 20
911.93148506194007
 40
15.00000013808026
 50
339.56190490722656
 51
0
  0
ARC
  8
_0-3_Þ║_õ¢ôÒ
  6
CONTINUOUS
 62
    5
 10
1050.6915323559383
 20
911.93148506194007
 40
15.99999976020062
 50
339.56190490722656
 51
0
  0
ARC
  8
_0-3_Þ║_õ¢ôÒ
  6
CONTINUOUS
 62
    5
 10
1037.841549346806
 20
938.38074852785087
 40
1.9999999700250775
 50
0
 51
90
  0
CIRCLE
  8
_0-3_Þ║_õ¢ôÒ
  6
CONTINUOUS
 62
    5
 10
1106.9416083553124
 20
954.22598899929676
 40
25.000001004303748
  0
CIRCLE
  8
_0-3_Þ║_õ¢ôÒ
  6
CONTINUOUS
 62
    5
 10
1106.9416083553124
 20
954.22598899929676
 40
28.500000262352494
  0
ARC
  8
_0-3_Þ║_õ¢ôÒ
  6
CONTINUOUS
 62
    5
 10
1034.3415082835782
 20
946.92595006876468
 40
7.1999997179020321
 50
294.62431335449219
 51
359.99998474121094
  0
ARC
  8
_0-3_Þ║_õ¢ôÒ
  6
CONTINUOUS
 62
    5
 10
1034.3415082835782
 20
949.52597207912618
 40
7.1999997179020321
 50
0
 51
65.37567138671875
  0
ARC
  8
_0-3_Þ║_õ¢ôÒ
  6
CONTINUOUS
 62
    5
 10
1083.9415508550105
 20
1003.9595108621368
 40
13.49999896301726
 50
180
 51
242.18183898925784
  0
ARC
  8
_0-3_Þ║_õ¢ôÒ
  6
CONTINUOUS
 62
    5
 10
1090.9415586611481
 20
1017.225984934214
 40
28.500000262352494
 50
242.18183898925778
 51
117.81811523437497
  0
ARC
  8
_0-3_Þ║_õ¢ôÒ
  6
CONTINUOUS
 62
    5
 10
1083.9415508550105
 20
1030.4925333266092
 40
13.49999896301726
 50
117.818115234375
 51
180
  0
ARC
  8
_0-3_Þ║_õ¢ôÒ
  6
CONTINUOUS
 62
    5
 10
1083.9415508550105
 20
1003.9595108621368
 40
9.9999997049685145
 50
180
 51
242.18183898925784
  0
ARC
  8
_0-3_Þ║_õ¢ôÒ
  6
CONTINUOUS
 62
    5
 10
1090.9415586611481
 20
1017.225984934214
 40
25.000001004303748
 50
242.18183898925778
 51
117.81811523437497
  0
ARC
  8
_0-3_Þ║_õ¢ôÒ
  6
CONTINUOUS
 62
    5
 10
1083.9415508550105
 20
1030.4925333266092
 40
9.9999997049685145
 50
117.818115234375
 51
179.99998474121097
  0
ARC
  8
_0-3_Þ║_õ¢ôÒ
  6
CONTINUOUS
 62
    5
 10
1083.9415508550105
 20
1156.4925251964437
 40
13.49999896301726
 50
117.818115234375
 51
180
  0
ARC
  8
_0-3_Þ║_õ¢ôÒ
  6
CONTINUOUS
 62
    5
 10
1090.9415586611481
 20
1143.2259768040483
 40
28.500000262352494
 50
242.18183898925778
 51
117.81811523437497
  0
ARC
  8
_0-3_Þ║_õ¢ôÒ
  6
CONTINUOUS
 62
    5
 10
1083.9415508550105
 20
1129.9595027319713
 40
13.49999896301726
 50
180
 51
242.18183898925784
  0
CIRCLE
  8
_0-3_Þ║_õ¢ôÒ
  6
CONTINUOUS
 62
    5
 10
1159.9415825214164
 20
1046.4759352695066
 40
30.499999506593213
  0
CIRCLE
  8
_0-3_Þ║_õ¢ôÒ
  6
CONTINUOUS
 62
    5
 10
1159.9415825214164
 20
1046.4759352695066
 40
26.999997926034521
  0
CIRCLE
  8
_0-3_Þ║_õ¢ôÒ
  6
CONTINUOUS
 62
    5
 10
1157.9415484395267
 20
903.2260489150824
 40
3.750000034520065
  0
CIRCLE
  8
_0-3_Þ║_õ¢ôÒ
  6
CONTINUOUS
 62
    5
 10
1174.0125740375297
 20
970.29716323793627
 40
26.999997926034521
  0
CIRCLE
  8
_0-3_Þ║_õ¢ôÒ
  6
CONTINUOUS
 62
    5
 10
1174.0125740375297
 20
970.29716323793627
 40
30.499999506593213
  0
CIRCLE
  8
_0-3_Þ║_õ¢ôÒ
  6
CONTINUOUS
 62
    5
 10
1159.9415825214164
 20
1046.4759352695066
 40
4.7499999469541674
  0
CIRCLE
  8
_0-3_Þ║_õ¢ôÒ
  6
CONTINUOUS
 62
    5
 10
1174.0125740375297
 20
1190.1548728206444
 40
26.999997926034521
  0
CIRCLE
  8
_0-3_Þ║_õ¢ôÒ
  6
CONTINUOUS
 62
    5
 10
1174.0125740375297
 20
1190.1548728206444
 40
30.499999506593213
  0
CIRCLE
  8
_0-3_Þ║_õ¢ôÒ
  6
CONTINUOUS
 62
    5
 10
1159.9415825214164
 20
1113.9759521484375
 40
30.499999506593213
  0
CIRCLE
  8
_0-3_Þ║_õ¢ôÒ
  6
CONTINUOUS
 62
    5
 10
1159.9415825214164
 20
1113.9759521484375
 40
26.999997926034521
  0
CIRCLE
  8
_0-3_Þ║_õ¢ôÒ
  6
CONTINUOUS
 62
    5
 10
1159.9415825214164
 20
1113.9759521484375
 40
4.7499999469541674
  0
CIRCLE
  8
_0-3_Þ║_õ¢ôÒ
  6
CONTINUOUS
 62
    5
 10
1157.9415484395267
 20
1257.2259871434981
 40
25.000001004303748
  0
CIRCLE
  8
_0-3_Þ║_õ¢ôÒ
  6
CONTINUOUS
 62
    5
 10
1157.9415484395267
 20
1257.2259871434981
 40
28.500000262352494
  0
CIRCLE
  8
_0-3_Þ║_õ¢ôÒ
  6
CONTINUOUS
 62
    5
 10
1157.9415484395267
 20
1257.2259871434981
 40
3.750000034520065
  0
ARC
  8
_0-3_Þ║_õ¢ôÒ
  6
CONTINUOUS
 62
    5
 10
1508.4412969640782
 20
855.72600125345957
 40
18.099999315029866
 50
270
 51
0
  0
ARC
  8
_0-3_Þ║_õ¢ôÒ
  6
CONTINUOUS
 62
    5
 10
1508.4412969640782
 20
855.72600125345957
 40
11.600000029365068
 50
270
 51
0
  0
ARC
  8
_0-3_Þ║_õ¢ôÒ
  6
CONTINUOUS
 62
    5
 10
1508.4415942453511
 20
855.72600125345957
 40
15.600000840356451
 50
270
 51
0
  0
ARC
  8
_0-3_Þ║_õ¢ôÒ
  6
LONG3
 62
    5
 10
1508.4412969640782
 20
855.72600125345957
 40
14.60000005698112
 50
270
 51
0
  0
ARC
  8
_0-3_Þ║_õ¢ôÒ
  6
CONTINUOUS
 62
    5
 10
1534.1915035174161
 20
829.9760176610763
 40
7.603499821484319
 50
94.904022216796875
 51
175.09596252441406
  0
ARC
  8
_0-3_Þ║_õ¢ôÒ
  6
CONTINUOUS
 62
    5
 10
1534.1915035174161
 20
829.9760176610763
 40
11.250000103560193
 50
93.312240600585938
 51
176.68772888183594
  0
ARC
  8
_0-3_Þ║_õ¢ôÒ
  6
CONTINUOUS
 62
    5
 10
1524.6157764449542
 20
834.12598990657614
 40
1.9999999700250775
 50
359.99998474121088
 51
89.999984741210909
  0
ARC
  8
_0-3_Þ║_õ¢ôÒ
  6
CONTINUOUS
 62
    5
 10
1530.0414569515979
 20
839.55167041321988
 40
1.9999999700250775
 50
180
 51
270
  0
ARC
  8
_0-3_Þ║_õ¢ôÒ
  6
CONTINUOUS
 62
    5
 10
1452.2361104368701
 20
846.97604723602649
 40
15.99999976020062
 50
69.561904907226562
 51
90
  0
ARC
  8
_0-3_Þ║_õ¢ôÒ
  6
LONG3
 62
    5
 10
1452.2361104368701
 20
846.97604723602649
 40
15.00000013808026
 50
69.561904907226562
 51
90
  0
ARC
  8
_0-3_Þ║_õ¢ôÒ
  6
CONTINUOUS
 62
    5
 10
1161.786807380588
 20
834.12598990657614
 40
1.9999999700250775
 50
90
 51
180
  0
ARC
  8
_0-3_Þ║_õ¢ôÒ
  6
CONTINUOUS
 62
    5
 10
1142.0963079680807
 20
834.12598990657614
 40
1.9999999700250775
 50
0
 51
90
  0
ARC
  8
_0-3_Þ║_õ¢ôÒ
  6
LONG3
 62
    5
 10
1115.6466729005792
 20
846.97604723602649
 40
15.00000013808026
 50
90
 51
110.43771362304687
  0
ARC
  8
_0-3_Þ║_õ¢ôÒ
  6
CONTINUOUS
 62
    5
 10
1115.6466729005792
 20
846.97604723602649
 40
15.99999976020062
 50
89.999984741210937
 51
110.43771362304687
  0
ARC
  8
_0-3_Þ║_õ¢ôÒ
  6
CONTINUOUS
 62
    5
 10
1059.4417093343257
 20
855.72600125345957
 40
18.099999315029866
 50
180
 51
270
  0
ARC
  8
_0-3_Þ║_õ¢ôÒ
  6
CONTINUOUS
 62
    5
 10
1059.4415606936891
 20
855.72600125345957
 40
15.600000840356451
 50
179.99998474121094
 51
270
  0
ARC
  8
_0-3_Þ║_õ¢ôÒ
  6
LONG3
 62
    5
 10
1059.4417093343257
 20
855.72600125345957
 40
14.60000005698112
 50
180
 51
270
  0
ARC
  8
_0-3_Þ║_õ¢ôÒ
  6
CONTINUOUS
 62
    5
 10
1059.4417093343257
 20
855.72600125345957
 40
11.600000029365068
 50
180
 51
270
  0
ARC
  8
_0-3_Þ║_õ¢ôÒ
  6
CONTINUOUS
 62
    5
 10
1033.691502780988
 20
829.9760176610763
 40
11.250000103560193
 50
3.3122406005859375
 51
86.687713623046861
  0
ARC
  8
_0-3_Þ║_õ¢ôÒ
  6
CONTINUOUS
 62
    5
 10
1043.2672298534496
 20
834.12598990657614
 40
1.9999999700250775
 50
89.999984741210937
 51
180
  0
ARC
  8
_0-3_Þ║_õ¢ôÒ
  6
CONTINUOUS
 62
    5
 10
1033.691502780988
 20
829.9760176610763
 40
7.603499821484319
 50
4.9040069580078125
 51
85.095962524414063
  0
ARC
  8
_0-3_Þ║_õ¢ôÒ
  6
CONTINUOUS
 62
    5
 10
1037.841549346806
 20
839.55167041321988
 40
1.9999999700250775
 50
269.99998474121094
 51
359.99998474121088
  0
ARC
  8
_0-3_Þ║_õ¢ôÒ
  6
CONTINUOUS
 62
    5
 10
1153.2415315193559
 20
830.62594884334851
 40
7.1999997179020321
 50
24.624298095703121
 51
90
  0
ARC
  8
_0-3_Þ║_õ¢ôÒ
  6
CONTINUOUS
 62
    5
 10
1150.6415095089947
 20
830.62602316366656
 40
7.1999997179020321
 50
90
 51
155.37567138671875
  0
CIRCLE
  8
_0-3_Þ║_õ¢ôÒ
  6
CONTINUOUS
 62
    5
 10
1469.8703896069619
 20
894.29705725121221
 40
28.500000262352494
  0
ARC
  8
_0-3_Þ║_õ¢ôÒ
  6
CONTINUOUS
 62
    5
 10
1207.6750703023667
 20
880.22599141478076
 40
13.49999896301726
 50
207.818115234375
 51
269.99998474121094
  0
ARC
  8
_0-3_Þ║_õ¢ôÒ
  6
CONTINUOUS
 62
    5
 10
1220.9415443744438
 20
887.22607354123613
 40
28.500000262352494
 50
332.18183898925781
 51
207.81811523437497
  0
ARC
  8
_0-3_Þ║_õ¢ôÒ
  6
CONTINUOUS
 62
    5
 10
1234.208018446521
 20
880.22599141478076
 40
13.49999896301726
 50
270
 51
332.18183898925781
  0
ARC
  8
_0-3_Þ║_õ¢ôÒ
  6
CONTINUOUS
 62
    5
 10
1207.6750703023667
 20
880.22599141478076
 40
9.9999997049685145
 50
207.818115234375
 51
269.99998474121094
  0
ARC
  8
_0-3_Þ║_õ¢ôÒ
  6
CONTINUOUS
 62
    5
 10
1220.9415443744438
 20
887.22607354123613
 40
25.000001004303748
 50
332.18183898925781
 51
207.81811523437497
  0
ARC
  8
_0-3_Þ║_õ¢ôÒ
  6
CONTINUOUS
 62
    5
 10
1234.208018446521
 20
880.22599141478076
 40
9.9999997049685145
 50
270
 51
332.18183898925781
  0
ARC
  8
_0-3_Þ║_õ¢ôÒ
  6
CONTINUOUS
 62
    5
 10
1098.012616691442
 20
894.29720589184853
 40
34.500000317584593
 50
159.56190490722656
 51
290.43771362304687
  0
ARC
  8
_0-3_Þ║_õ¢ôÒ
  6
LONG3
 62
    5
 10
1098.012616691442
 20
894.29720589184853
 40
35.500001100959921
 50
159.56190490722656
 51
290.43771362304687
  0
CIRCLE
  8
_0-3_Þ║_õ¢ôÒ
  6
CONTINUOUS
 62
    5
 10
1098.012616691442
 20
894.29720589184853
 40
25.000001004303748
  0
CIRCLE
  8
_0-3_Þ║_õ¢ôÒ
  6
CONTINUOUS
 62
    5
 10
1098.012616691442
 20
894.29720589184853
 40
28.500000262352494
  0
CIRCLE
  8
_0-3_Þ║_õ¢ôÒ
  6
CONTINUOUS
 62
    5
 10
1157.9415484395267
 20
903.2260489150824
 40
25.000001004303748
  0
CIRCLE
  8
_0-3_Þ║_õ¢ôÒ
  6
CONTINUOUS
 62
    5
 10
1157.9415484395267
 20
903.2260489150824
 40
28.500000262352494
  0
ARC
  8
_0-3_Þ║_õ¢ôÒ
  6
CONTINUOUS
 62
    5
 10
1360.2080846366734
 20
880.22599141478076
 40
9.9999997049685145
 50
270
 51
332.18183898925781
  0
ARC
  8
_0-3_Þ║_õ¢ôÒ
  6
CONTINUOUS
 62
    5
 10
1346.9414619239601
 20
887.22607354123613
 40
25.000001004303748
 50
332.18183898925781
 51
207.81811523437497
  0
ARC
  8
_0-3_Þ║_õ¢ôÒ
  6
CONTINUOUS
 62
    5
 10
1333.6749878518829
 20
880.22599141478076
 40
9.9999997049685145
 50
207.818115234375
 51
269.99998474121094
  0
ARC
  8
_0-3_Þ║_õ¢ôÒ
  6
CONTINUOUS
 62
    5
 10
1360.2080846366734
 20
880.22599141478076
 40
13.49999896301726
 50
270
 51
332.18183898925781
  0
ARC
  8
_0-3_Þ║_õ¢ôÒ
  6
CONTINUOUS
 62
    5
 10
1346.9414619239601
 20
887.22607354123613
 40
28.500000262352494
 50
332.18183898925781
 51
207.81811523437497
  0
ARC
  8
_0-3_Þ║_õ¢ôÒ
  6
CONTINUOUS
 62
    5
 10
1333.6749878518829
 20
880.22599141478076
 40
13.49999896301726
 50
207.818115234375
 51
269.99998474121094
  0
CIRCLE
  8
_0-3_Þ║_õ¢ôÒ
  6
CONTINUOUS
 62
    5
 10
1283.9416146296792
 20
895.22606122815932
 40
28.500000262352494
  0
CIRCLE
  8
_0-3_Þ║_õ¢ôÒ
  6
CONTINUOUS
 62
    5
 10
1283.9416146296792
 20
895.22606122815932
 40
25.000001004303748
  0
CIRCLE
  8
_0-3_Þ║_õ¢ôÒ
  6
CONTINUOUS
 62
    5
 10
1409.9416064995135
 20
903.2260489150824
 40
25.000001004303748
  0
CIRCLE
  8
_0-3_Þ║_õ¢ôÒ
  6
CONTINUOUS
 62
    5
 10
1409.9416064995135
 20
903.2260489150824
 40
28.500000262352494
  0
ARC
  8
_0-3_Þ║_õ¢ôÒ
  6
CONTINUOUS
 62
    5
 10
1469.8703896069619
 20
894.29705725121221
 40
34.500000317584593
 50
249.56190490722656
 51
20.437713623046861
  0
ARC
  8
_0-3_Þ║_õ¢ôÒ
  6
LONG3
 62
    5
 10
1469.8703896069619
 20
894.29705725121221
 40
35.500001100959921
 50
249.56190490722656
 51
20.437713623046861
  0
CIRCLE
  8
_0-3_Þ║_õ¢ôÒ
  6
CONTINUOUS
 62
    5
 10
1469.8703896069619
 20
894.29705725121221
 40
25.000001004303748
  0
CIRCLE
  8
_0-3_Þ║_õ¢ôÒ
  6
CONTINUOUS
 62
    5
 10
1798.8437782199226
 20
894.04711802125428
 40
3.750000034520065
  0
CIRCLE
  8
_0-3_Þ║_õ¢ôÒ
  6
CONTINUOUS
 62
    5
 10
1867.7176061799628
 20
899.61809474989252
 40
3.750000034520065
  0
CIRCLE
  8
_0-3_Þ║_õ¢ôÒ
  6
CONTINUOUS
 62
    5
 10
1860.7726697295789
 20
1046.2259217192307
 40
3.750000034520065
  0
CIRCLE
  8
_0-3_Þ║_õ¢ôÒ
  6
CONTINUOUS
 62
    5
 10
1807.7727698837928
 20
1079.9759673188553
 40
3.750000034520065
  0
CIRCLE
  8
_0-3_Þ║_õ¢ôÒ
  6
CONTINUOUS
 62
    5
 10
1799.7727821968697
 20
1016.9758970636199
 40
3.750000034520065
  0
CIRCLE
  8
_0-3_Þ║_õ¢ôÒ
  6
CONTINUOUS
 62
    5
 10
1874.8437355660103
 20
970.04707536734213
 40
3.750000034520065
  0
CIRCLE
  8
_0-3_Þ║_õ¢ôÒ
  6
CONTINUOUS
 62
    5
 10
1919.3311348108712
 20
1014.5344002918847
 40
3.750000034520065
  0
CIRCLE
  8
_0-3_Þ║_õ¢ôÒ
  6
CONTINUOUS
 62
    5
 10
1807.7727698837928
 20
953.97597544902078
 40
3.750000034520065
  0
CIRCLE
  8
_0-3_Þ║_õ¢ôÒ
  6
CONTINUOUS
 62
    5
 10
1951.022656238217
 20
955.97593521059252
 40
3.750000034520065
  0
CIRCLE
  8
_0-3_Þ║_õ¢ôÒ
  6
CONTINUOUS
 62
    5
 10
1951.022656238217
 20
1203.9759251067997
 40
3.750000034520065
  0
CIRCLE
  8
_0-3_Þ║_õ¢ôÒ
  6
CONTINUOUS
 62
    5
 10
1936.7727757163029
 20
1079.9759673188553
 40
3.750000034520065
  0
CIRCLE
  8
_0-3_Þ║_õ¢ôÒ
  6
CONTINUOUS
 62
    5
 10
1919.3311348108712
 20
1145.4174600255076
 40
3.750000034520065
  0
CIRCLE
  8
_0-3_Þ║_õ¢ôÒ
  6
CONTINUOUS
 62
    5
 10
1860.7726697295789
 20
1113.7258642778434
 40
3.750000034520065
  0
CIRCLE
  8
_0-3_Þ║_õ¢ôÒ
  6
CONTINUOUS
 62
    5
 10
1874.8437355660103
 20
1189.9047106297319
 40
3.750000034520065
  0
CIRCLE
  8
_0-3_Þ║_õ¢ôÒ
  6
CONTINUOUS
 62
    5
 10
1799.7727821968697
 20
1142.9758889334541
 40
3.750000034520065
  0
CIRCLE
  8
_0-3_Þ║_õ¢ôÒ
  6
CONTINUOUS
 62
    5
 10
1807.7727698837928
 20
1205.9759591886896
 40
3.750000034520065
  0
CIRCLE
  8
_0-3_Þ║_õ¢ôÒ
  6
CONTINUOUS
 62
    5
 10
1798.8437782199226
 20
1265.9048166164559
 40
3.750000034520065
  0
CIRCLE
  8
_0-3_Þ║_õ¢ôÒ
  6
CONTINUOUS
 62
    5
 10
1858.7727099680073
 20
1256.9759735932221
 40
3.750000034520065
  0
CIRCLE
  8
_0-3_Þ║_õ¢ôÒ
  6
CONTINUOUS
 62
    5
 10
1921.7727059029244
 20
1264.9758126395088
 40
3.750000034520065
  0
CIRCLE
  8
_0-3_Þ║_õ¢ôÒ
  6
CONTINUOUS
 62
    5
 10
2101.8277974957205
 20
899.61809474989252
 40
3.750000034520065
  0
CIRCLE
  8
_0-3_Þ║_õ¢ôÒ
  6
CONTINUOUS
 62
    5
 10
2170.7016254557607
 20
894.04711802125428
 40
3.750000034520065
  0
CIRCLE
  8
_0-3_Þ║_õ¢ôÒ
  6
CONTINUOUS
 62
    5
 10
1984.7727018378414
 20
1256.9759735932221
 40
3.750000034520065
  0
CIRCLE
  8
_0-3_Þ║_õ¢ôÒ
  6
CONTINUOUS
 62
    5
 10
2047.7726977727586
 20
1264.9758126395088
 40
3.750000034520065
  0
CIRCLE
  8
_0-3_Þ║_õ¢ôÒ
  6
CONTINUOUS
 62
    5
 10
2110.7726937076759
 20
1256.9759735932221
 40
3.750000034520065
  0
CIRCLE
  8
_0-3_Þ║_õ¢ôÒ
  6
CONTINUOUS
 62
    5
 10
2170.7016254557607
 20
1265.9048166164559
 40
3.750000034520065
  0
CIRCLE
  8
_0-3_Þ║_õ¢ôÒ
  6
CONTINUOUS
 62
    5
 10
2161.7726337918903
 20
1205.9759591886896
 40
3.750000034520065
  0
CIRCLE
  8
_0-3_Þ║_õ¢ôÒ
  6
CONTINUOUS
 62
    5
 10
2169.7726214788136
 20
1142.9758889334541
 40
3.750000034520065
  0
CIRCLE
  8
_0-3_Þ║_õ¢ôÒ
  6
CONTINUOUS
 62
    5
 10
2094.7016681096729
 20
1189.9047106297319
 40
3.750000034520065
  0
CIRCLE
  8
_0-3_Þ║_õ¢ôÒ
  6
CONTINUOUS
 62
    5
 10
2108.7727339461044
 20
1113.7258642778434
 40
3.750000034520065
  0
CIRCLE
  8
_0-3_Þ║_õ¢ôÒ
  6
CONTINUOUS
 62
    5
 10
2050.2142688648123
 20
1145.4174600255076
 40
3.750000034520065
  0
CIRCLE
  8
_0-3_Þ║_õ¢ôÒ
  6
CONTINUOUS
 62
    5
 10
2032.7727766000164
 20
1079.9759673188553
 40
3.750000034520065
  0
CIRCLE
  8
_0-3_Þ║_õ¢ôÒ
  6
CONTINUOUS
 62
    5
 10
1984.7727018378414
 20
1127.9759677607121
 40
3.750000034520065
  0
CIRCLE
  8
_0-3_Þ║_õ¢ôÒ
  6
CONTINUOUS
 62
    5
 10
2018.522747437466
 20
1203.9759251067997
 40
3.750000034520065
  0
CIRCLE
  8
_0-3_Þ║_õ¢ôÒ
  6
CONTINUOUS
 62
    5
 10
1984.7727018378414
 20
1031.9758925566803
 40
3.750000034520065
  0
CIRCLE
  8
_0-3_Þ║_õ¢ôÒ
  6
CONTINUOUS
 62
    5
 10
2018.522747437466
 20
955.97593521059252
 40
3.750000034520065
  0
CIRCLE
  8
_0-3_Þ║_õ¢ôÒ
  6
CONTINUOUS
 62
    5
 10
2161.7726337918903
 20
953.97597544902078
 40
3.750000034520065
  0
CIRCLE
  8
_0-3_Þ║_õ¢ôÒ
  6
CONTINUOUS
 62
    5
 10
2050.2142688648123
 20
1014.5344002918847
 40
3.750000034520065
  0
CIRCLE
  8
_0-3_Þ║_õ¢ôÒ
  6
CONTINUOUS
 62
    5
 10
2094.7016681096729
 20
970.04707536734213
 40
3.750000034520065
  0
CIRCLE
  8
_0-3_Þ║_õ¢ôÒ
  6
CONTINUOUS
 62
    5
 10
2169.7726214788136
 20
1016.9758970636199
 40
3.750000034520065
  0
CIRCLE
  8
_0-3_Þ║_õ¢ôÒ
  6
CONTINUOUS
 62
    5
 10
2161.7726337918903
 20
1079.9759673188553
 40
3.750000034520065
  0
CIRCLE
  8
_0-3_Þ║_õ¢ôÒ
  6
CONTINUOUS
 62
    5
 10
2108.7727339461044
 20
1046.2259217192307
 40
3.750000034520065
  0
ARC
  8
_0-1_MOD
  6
CONTINUOUS
 62
    5
 10
349.10304678545026
 20
675.99650697450386
 40
3.9999999400501549
 50
180
 51
270
  0
ARC
  8
_0-1_MOD
  6
CONTINUOUS
 62
    5
 10
342.60302891970599
 20
696.99653039291559
 40
2.4999999262421286
 50
0
 51
90
  0
ARC
  8
_0-1_MOD
  6
CONTINUOUS
 62
    5
 10
335.95306981208245
 20
699.99654435559125
 40
0.9999999850125387
 50
90
 51
270
  0
ARC
  8
_0-1_MOD
  6
CONTINUOUS
 62
    5
 10
820.44235588869071
 20
675.99650697450386
 40
3.9999999400501549
 50
269.99998474121094
 51
0
  0
ARC
  8
_0-1_MOD
  6
CONTINUOUS
 62
    5
 10
826.94241091459412
 20
696.99653039291559
 40
2.4999999262421286
 50
90
 51
180
  0
ARC
  8
_0-1_MOD
  6
CONTINUOUS
 62
    5
 10
833.59237002221766
 20
699.99654435559125
 40
0.9999999850125387
 50
270
 51
90
  0
CIRCLE
  8
_0-2_Õ»_µ│__
  6
CONTINUOUS
 62
    5
 10
1694.2786579500294
 20
701.47247155384662
 40
0.4999999925062693
  0
CIRCLE
  8
_0-2_Õ»_µ│__
  6
CONTINUOUS
 62
    5
 10
1734.9529789515905
 20
733.66520920683524
 40
0.4999999925062693
  0
CIRCLE
  8
_0-2_Õ»_µ│__
  6
CONTINUOUS
 62
    5
 10
1694.2786579500294
 20
672.37249962059229
 40
0.4999999925062693
  0
ARC
  8
_0-1_MOD
  6
CONTINUOUS
 62
    5
 10
1749.1029729659035
 20
676.37249346405383
 40
3.9999999400501549
 50
180
 51
270
  0
ARC
  8
_0-1_MOD
  6
CONTINUOUS
 62
    5
 10
1742.6030665806361
 20
697.47247771038519
 40
2.4999999262421286
 50
0
 51
90
  0
ARC
  8
_0-1_MOD
  6
CONTINUOUS
 62
    5
 10
1735.9530331526944
 20
700.47249167306086
 40
0.9999999850125387
 50
90
 51
270
  0
ARC
  8
_0-1_MOD
  6
CONTINUOUS
 62
    5
 10
2220.4424307097797
 20
676.37249346405383
 40
3.9999999400501549
 50
269.99996948242187
 51
0
  0
ARC
  8
_0-1_MOD
  6
CONTINUOUS
 62
    5
 10
2226.9423370950472
 20
697.47247771038519
 40
2.4999999262421286
 50
90
 51
180
  0
ARC
  8
_0-1_MOD
  6
CONTINUOUS
 62
    5
 10
2233.5923705229889
 20
700.47249167306086
 40
0.9999999850125387
 50
270
 51
90
  0
TEXT
  8
_0-2_Õ»_µ│__
 62
    7
 10
577.27270133707043
 20
1395.1181217620731
 40
9
 41
1
 50
0
  1
500
  0
TEXT
  8
_0-2_Õ»_µ│__
 62
    7
 10
268.37750665758165
 20
1072.4759301586962
 40
9
 41
1
 50
90.000002504478459
  1
500
  0
TEXT
  8
_0-2_Õ»_µ│__
 62
    7
 10
965.34468052482566
 20
1072.5062528485037
 40
9
 41
1
 50
90.000002504478147
  1
500
  0
TEXT
  8
_0-2_Õ»_µ│__
 62
    7
 10
1977.2727018378414
 20
1395.1181217620731
 40
9
 41
1
 50
0
  1
500
  0
TEXT
  8
_0-2_Õ»_µ│__
 62
    7
 10
1664.9888722520409
 20
1072.4759301586962
 40
9
 41
1
 50
90.000002504478147
  1
500
  0
TEXT
  8
_0-2_Õ»_µ│__
 62
    7
 10
1979.77284370334
 20
803.39468698980261
 40
9
 41
1
 50
0
  1
90
  0
TEXT
  8
_0-2_Õ»_µ│__
 62
    7
 10
1977.2727018378414
 20
776.69347764534382
 40
9
 41
1
 50
0
  1
125
  0
TEXT
  8
_0-2_Õ»_µ│__
 62
    7
 10
1875.8454250272066
 20
847.67585146104977
 40
9
 41
1
 50
90.000002504478232
  1
45
  0
TEXT
  8
_0-2_Õ»_µ│__
 62
    7
 10
1277.2727387476152
 20
1395.1484444518806
 40
9
 41
1
 50
0
  1
500
  0
TEXT
  8
_0-2_Õ»_µ│__
 62
    7
 10
577.27270133707043
 20
738.18923561361305
 40
9
 41
1
 50
0
  1
500
  0
TEXT
  8
_0-2_Õ»_µ│__
 62
    7
 10
289.27868416758872
 20
672.89912477883593
 40
9
 41
1
 50
90.00000250447836
  1
29.0
  0
TEXT
  8
_0-2_Õ»_µ│__
 62
    7
 10
1977.2727018378414
 20
738.66518293108254
 40
9
 41
1
 50
0
  1
500
  0
TEXT
  8
_0-2_Õ»_µ│__
 62
    7
 10
1689.2786846683598
 20
673.37510925646461
 40
9
 41
1
 50
90.000002504478118
  1
29.1
  0
TEXT
  8
_0-4_µûçÕ___
 62
    2
 10
483.52268861159405
 20
606.89202590706725
 40
21
 41
1
 50
0
  1
âpâlâïò\û╩üiòWÅÇüj
  0
TEXT
  8
_0-4_µûçÕ___
 62
    2
 10
1883.5226891123648
 20
606.89202590706725
 40
21
 41
1
 50
0
  1
âpâlâïò\û╩üiÉ¦ö§üj
  0
TEXT
  8
_0-4_µûçÕ___
 62
    2
 10
1183.5226517018205
 20
606.92238575703391
 40
21
 41
1
 50
0
  1
âpâlâïùáû╩üiòWÅÇüj
  0
TEXT
  8
_0-4_µûçÕ___
 62
    6
 10
332.62994367091358
 20
1439.9493267987225
 40
30
 41
1
 50
0
  1
üyâTâôâAâNâZâX éRéOéOésüiâéâïâ^âïÅ[ôUâ^âCâvüj âpâlâïüF3,000Nüz
  0
POINT
  8
_0-3_Þ║_õ¢ôÒ
 62
    9
 10
1283.9416146296792
 20
1080.2259808691313
  0
ENDSEC
  0
EOF
