  0
SECTION
  2
HEADER
  9
$ACADVER
  1
AC1009
  9
$INSBASE
 10
0
 20
0
 30
0
  9
$EXTMIN
 10
0
 20
0
  9
$EXTMAX
 10
4205
 20
2970
  9
$LIMMIN
 10
0
 20
0
  9
$LIMMAX
 10
4205
 20
2970
  9
$LTSCALE
 40
5
  0
ENDSEC
  0
SECTION
  2
TABLES
  0
TABLE
  2
LTYPE
 70
     9
  0
LTYPE
  2
CONTINUOUS
 70
    64
  3
実線
 72
    65
 73
     0
 40
0.0
  0
LTYPE
  2
DASHED1
 70
    64
  3
--  --  --  --  --  --  --  --  
 72
    65
 73
     2
 40
2.5
 49
1.25
 49
-1.25
  0
LTYPE
  2
DASHED2
 70
    64
  3
----    ----    ----    ----    
 72
    65
 73
     2
 40
5.0
 49
2.5
 49
-2.5
  0
LTYPE
  2
DASHED3
 70
    64
  3
------  ------  ------  ------  
 72
    65
 73
     2
 40
5.0
 49
3.75
 49
-1.25
  0
LTYPE
  2
CENTER1
 70
    64
  3
----- - ----- - ----- - ----- - 
 72
    65
 73
     4
 40
10.0
 49
6.25
 49
-1.25
 49
1.25
 49
-1.25
  0
LTYPE
  2
CENTER2
 70
    64
  3
----------  --  ----------  --  
 72
    65
 73
     4
 40
20.0
 49
12.5
 49
-2.5
 49
2.5
 49
-2.5
  0
LTYPE
  2
PHANTOM1
 70
    64
  3
--- - - --- - - --- - - --- - - 
 72
    65
 73
     6
 40
10.0
 49
3.25
 49
-1.25
 49
1.25
 49
-1.25
 49
1.25
 49
-1.25
  0
LTYPE
  2
PHANTOM2
 70
    64
  3
--------  -  -  --------  -  -  
 72
    65
 73
     6
 40
20.0
 49
10.0
 49
-2.5
 49
1.25
 49
-2.5
 49
1.25
 49
-2.5
  0
LTYPE
  2
DOT
 70
    64
  3
-   -   -   -   -   -   -   -   
 72
    65
 73
     2
 40
2.5
 49
0.625
 49
-1.875
  0
LTYPE
  2
DUMMY
 70
    64
  3
ダミー
 72
    65
 73
     0
 40
0.0
  0
LTYPE
  2
RAND1
 70
    64
  3
ランダム線1
 72
    65
 73
     4
 40
10.0
 49
1.0
 49
-2.0
 49
3.0
 49
-4.0
  0
LTYPE
  2
RAND2
 70
    64
  3
ランダム線2
 72
    65
 73
     4
 40
14.0
 49
2.0
 49
-3.0
 49
4.0
 49
-5.0
  0
LTYPE
  2
RAND3
 70
    64
  3
ランダム線3
 72
    65
 73
     4
 40
18.0
 49
3.0
 49
-4.0
 49
5.0
 49
-6.0
  0
LTYPE
  2
RAND4
 70
    64
  3
ランダム線4
 72
    65
 73
     4
 40
22.0
 49
4.0
 49
-5.0
 49
6.0
 49
-7.0
  0
LTYPE
  2
RAND5
 70
    64
  3
ランダム線5
 72
    65
 73
     4
 40
26.0
 49
5.0
 49
-6.0
 49
7.0
 49
-8.0
  0
LTYPE
  2
LONG1
 70
    64
  3
----------  --  ----------  --  
 72
    65
 73
     4
 40
40.0
 49
32.5
 49
-2.5
 49
2.5
 49
-2.5
  0
LTYPE
  2
LONG2
 70
    64
  3
--------  -  -  --------  -  -  
 72
    65
 73
     6
 40
40.0
 49
30.0
 49
-2.5
 49
1.25
 49
-2.5
 49
1.25
 49
-2.5
  0
LTYPE
  2
LONG3
 70
    64
  3
+++++++++++++++..+++++++++++++++
 72
    65
 73
     2
 40
40.0
 49
37.5
 49
-2.5
  0
LTYPE
  2
LONG4
 70
    64
  3
+++++++++++++++..+++++++++++++++
 72
    65
 73
     2
 40
80.0
 49
75.0
 49
-5.0
  0
LTYPE
  2
LONG5
 70
    64
  3
----------  --  ----------  --  
 72
    65
 73
     4
 40
60.0
 49
37.5
 49
-7.5
 49
7.5
 49
-7.5
  0
LTYPE
  2
dashed
 70
   64
  3
-------   -------------   ------
 72
   65
 73
    2
 40
7.5
 49
6
 49
-1.5
  0
LTYPE
  2
dashed_spaced
 70
   64
  3
----        --------        ----
 72
   65
 73
    2
 40
12
 49
6
 49
-6
  0
LTYPE
  2
long_dashed_dotted
 70
   64
  3
------------- --- --------------
 72
   65
 73
    4
 40
15.25
 49
12
 49
-1.5
 49
0.25
 49
-1.5
  0
LTYPE
  2
long_dashed_double-dotted
 70
   64
  3
----------- --- --- ------------
 72
   65
 73
    6
 40
17
 49
12
 49
-1.5
 49
0.25
 49
-1.5
 49
0.25
 49
-1.5
  0
LTYPE
  2
long_dashed_triplicate-dotted
 70
   64
  3
--------- --- --- --- ----------
 72
   65
 73
    8
 40
18.75
 49
12
 49
-1.5
 49
0.25
 49
-1.5
 49
0.25
 49
-1.5
 49
0.25
 49
-1.5
  0
LTYPE
  2
dotted
 70
   64
  3
   -       -       -       -    
 72
   65
 73
    2
 40
1.75
 49
0.25
 49
-1.5
  0
LTYPE
  2
chain
 70
   64
  3
-------------- -- --------------
 72
   65
 73
    4
 40
18.5
 49
12
 49
-1.5
 49
3.5
 49
-1.5
  0
LTYPE
  2
chain_double_dash
 70
   64
  3
------------ -- -- -------------
 72
   65
 73
    6
 40
23.5
 49
12
 49
-1.5
 49
3.5
 49
-1.5
 49
3.5
 49
-1.5
  0
LTYPE
  2
dashed_dotted
 70
   64
  3
-----------     -     ----------
 72
   65
 73
    4
 40
9.25
 49
6
 49
-1.5
 49
0.25
 49
-1.5
  0
LTYPE
  2
double-dashed_dotted
 70
   64
  3
------   -----------   -   -----
 72
   65
 73
    6
 40
16.75
 49
6
 49
-1.5
 49
6
 49
-1.5
 49
0.25
 49
-1.5
  0
LTYPE
  2
dashed_double-dotted
 70
   64
  3
---------    -    -    ---------
 72
   65
 73
    6
 40
11
 49
6
 49
-1.5
 49
0.25
 49
-1.5
 49
0.25
 49
-1.5
  0
LTYPE
  2
double-dashed_double-dotted
 70
   64
  3
-----   ---------   -   -   ----
 72
   65
 73
    8
 40
18.5
 49
6
 49
-1.5
 49
6
 49
-1.5
 49
0.25
 49
-1.5
 49
0.25
 49
-1.5
  0
LTYPE
  2
dashed_triplicate-dotted
 70
   64
  3
-------    -    -    -    ------
 72
   65
 73
    8
 40
12.75
 49
6
 49
-1.5
 49
0.25
 49
-1.5
 49
0.25
 49
-1.5
 49
0.25
 49
-1.5
  0
LTYPE
  2
double-dashed_triplicate-dotted
 70
   64
  3
-----  ---------  -  -  -  -----
 72
   65
 73
   10
 40
20.25
 49
6
 49
-1.5
 49
6
 49
-1.5
 49
0.25
 49
-1.5
 49
0.25
 49
-1.5
 49
0.25
 49
-1.5
  0
LTYPE
  2
undefined
 70
   64
  3
--------------------------------
 72
   65
 73
    0
 40
0
  0
LTYPE
  2
PLINE3
 70
   64
  3
------------   ---   -----------
 72
   65
 73
    4
 40
10
 49
7
 49
-1
 49
1
 49
-1
  0
LTYPE
  2
HASEN
 70
   64
  3
-----      ----------      -----
 72
   65
 73
    2
 40
2.5
 49
1.5
 49
-1
  0
LTYPE
  2
CHAIN
 70
   64
  3
----------    ----    ----------
 72
   65
 73
    4
 40
7.5
 49
4.5
 49
-1
 49
1
 49
-1
  0
ENDTAB
  0
TABLE
  2
STYLE
  5
3
100
AcDbSymbolTable
 70
     1
  0
STYLE
  5
10
100
AcDbSymbolTableRecord
100
AcDbTextStyleTableRecord
  2
STANDARD
 70
     0
 40
0.0
 41
1.0
 50
0.0
 71
     0
 42
0.2
  3
txt
  4
bigfont.shx
  0
STYLE
  5
26
100
AcDbSymbolTableRecord
100
AcDbTextStyleTableRecord
  2
TATEGAKI
 70
    68
 40
0.0
 41
1.0
 50
0.0
 71
     0
 42
1.0
  3
txt
  4
bigfont.shx
  0
ENDTAB
  0
TABLE
  2
LAYER
 70
    5
  0
LAYER
  2
_0-2_寸法
 70
   64
 62
    7
  6
CONTINUOUS
  0
LAYER
  2
_0-3_躯体と製品
 70
   64
 62
    7
  6
CONTINUOUS
  0
LAYER
  2
_0-4_文字-記号
 70
   64
 62
    7
  6
CONTINUOUS
  0
LAYER
  2
_0-5_中心線
 70
   64
 62
    7
  6
CONTINUOUS
  0
LAYER
  2
ADD_LINE
 70
   64
 62
    7
  6
CONTINUOUS
  0
ENDTAB
  0
ENDSEC
  0
SECTION
  2
BLOCKS
  0
BLOCK
  2
-000-_Small
 70
   64
 10
0
 20
0
 30
0
  0
CIRCLE
  8
_0-0_0
  6
CONTINUOUS
 62
    7
 10
0
 20
0
 40
0.25
  0
ENDBLK
  0
ENDSEC
  0
SECTION
  2
ENTITIES
  0
LINE
  8
_0-3_躯体と製品
  6
CONTINUOUS
 62
    3
 10
1068.5693486965301
 20
1250.1596825367237
 11
1068.5693486965301
 21
1319.3596825283657
  0
LINE
  8
_0-3_躯体と製品
  6
CONTINUOUS
 62
    3
 10
1058.5693486842501
 20
1250.1596825367237
 11
1058.5693486842501
 21
1319.3596825283657
  0
LINE
  8
_0-3_躯体と製品
  6
CONTINUOUS
 62
    3
 10
1070.5693486989803
 20
1250.1596825367237
 11
1070.5693486989803
 21
1319.3596825283657
  0
LINE
  8
_0-3_躯体と製品
  6
CONTINUOUS
 62
    3
 10
1056.569348681749
 20
1250.1596825367237
 11
1056.569348681749
 21
1319.3596825283657
  0
LINE
  8
_0-3_躯体と製品
  6
CONTINUOUS
 62
    3
 10
1101.0693487365206
 20
1245.35968253082
 11
1101.0693487365206
 21
1243.3596825283607
  0
LINE
  8
_0-3_躯体と製品
  6
CONTINUOUS
 62
    3
 10
1026.0693486442597
 20
1245.35968253082
 11
1026.0693486442597
 21
1243.3596825283607
  0
LINE
  8
_0-3_躯体と製品
  6
CONTINUOUS
 62
    3
 10
1026.0693486442597
 20
1243.3596825283607
 11
1101.0693487365206
 21
1243.3596825283607
  0
LINE
  8
_0-3_躯体と製品
  6
CONTINUOUS
 62
    3
 10
1051.7290611414701
 20
1250.1596825367237
 11
1076.4262447750407
 21
1250.1596825367237
  0
LINE
  8
_0-3_躯体と製品
  6
CONTINUOUS
 62
    3
 10
1035.170917320449
 20
1247.359682533287
 11
1091.0761669060194
 21
1247.359682533287
  0
LINE
  8
_0-3_躯体と製品
  6
CONTINUOUS
 62
    3
 10
1026.0693486442597
 20
1245.35968253082
 11
1101.0693487365206
 21
1245.35968253082
  0
LINE
  8
_0-3_躯体と製品
  6
CONTINUOUS
 62
    3
 10
1051.7290611414701
 20
1247.359682533287
 11
1051.7290611414701
 21
1250.1596825367237
  0
LINE
  8
_0-3_躯体と製品
  6
CONTINUOUS
 62
    3
 10
1039.3193486605596
 20
1246.4596825321801
 11
1040.7013490497193
 21
1245.35968253082
  0
LINE
  8
_0-3_躯体と製品
  6
CONTINUOUS
 62
    3
 10
1039.3193486605596
 20
1246.4596825321801
 11
1030.3193486495002
 21
1246.4596825321801
  0
LINE
  8
_0-3_躯体と製品
  6
CONTINUOUS
 62
    3
 10
1030.3193486495002
 20
1246.4596825321801
 11
1028.9373486477707
 21
1245.35968253082
  0
LINE
  8
_0-3_躯体と製品
  6
CONTINUOUS
 62
    3
 10
1034.5490991378592
 20
1246.4596825321801
 11
1035.170917320449
 21
1247.359682533287
  0
LINE
  8
_0-3_躯体と製品
  6
CONTINUOUS
 62
    3
 10
1076.4262447750407
 20
1247.359682533287
 11
1076.4262447750407
 21
1250.1596825367237
  0
LINE
  8
_0-3_躯体と製品
  6
CONTINUOUS
 62
    3
 10
1096.8193487312801
 20
1246.4596825321801
 11
1098.2013487329605
 21
1245.35968253082
  0
LINE
  8
_0-3_躯体と製品
  6
CONTINUOUS
 62
    3
 10
1087.8193487202207
 20
1246.4596825321801
 11
1086.4373483310701
 21
1245.35968253082
  0
LINE
  8
_0-3_躯体と製品
  6
CONTINUOUS
 62
    3
 10
1091.0761669060194
 20
1247.359682533287
 11
1091.6979850886
 21
1246.4596825321801
  0
LINE
  8
_0-3_躯体と製品
  6
CONTINUOUS
 62
    3
 10
1087.8193487202207
 20
1246.4596825321801
 11
1096.8193487312801
 21
1246.4596825321801
  0
LINE
  8
_0-3_躯体と製品
  6
CONTINUOUS
 62
    3
 10
1074.5693486903892
 20
1326.8596825283657
 11
1074.5693486903892
 21
1350.8596825283657
  0
LINE
  8
_0-3_躯体と製品
  6
CONTINUOUS
 62
    3
 10
1052.5693486903892
 20
1326.8596825283657
 11
1052.5693486903892
 21
1350.8596825283657
  0
LINE
  8
_0-3_躯体と製品
  6
CONTINUOUS
 62
    3
 10
1052.5693486903892
 20
1326.8596825283657
 11
1074.5693486903892
 21
1326.8596825283657
  0
LINE
  8
_0-3_躯体と製品
  6
CONTINUOUS
 62
    3
 10
1098.5693486903892
 20
1357.8596825283657
 11
1028.5693486903892
 21
1357.8596825283657
  0
LINE
  8
_0-3_躯体と製品
  6
CONTINUOUS
 62
    3
 10
1053.5693486904493
 20
1377.3596825283657
 11
1053.5693486904493
 21
1357.8596825283657
  0
LINE
  8
_0-3_躯体と製品
  6
CONTINUOUS
 62
    3
 10
1070.5693469318394
 20
1358.8378668981218
 11
1070.0944162449905
 21
1381.3813743699261
  0
LINE
  8
_0-3_躯体と製品
  6
CONTINUOUS
 62
    3
 10
1056.5693486888595
 20
1358.8378670109869
 11
1057.0442838168092
 21
1381.3814974134129
  0
LINE
  8
_0-3_躯体と製品
  6
CONTINUOUS
 62
    3
 10
1037.0693486904092
 20
1350.8596825283657
 11
1037.0693486904092
 21
1354.8596825283657
  0
LINE
  8
_0-3_躯体と製品
  6
CONTINUOUS
 62
    3
 10
1098.5693486903892
 20
1350.8596825283657
 11
1028.5693486903892
 21
1350.8596825283657
  0
LINE
  8
_0-3_躯体と製品
  6
CONTINUOUS
 62
    3
 10
1028.5693486903892
 20
1354.8596825283657
 11
1098.5693486903892
 21
1354.8596825283657
  0
LINE
  8
_0-3_躯体と製品
  6
CONTINUOUS
 62
    3
 10
1028.5693486903892
 20
1350.8596825283657
 11
1028.5693486903892
 21
1357.8596825283657
  0
LINE
  8
_0-3_躯体と製品
  6
CONTINUOUS
 62
    3
 10
1090.0693486904092
 20
1354.8596825283657
 11
1090.0693486904092
 21
1350.8596825283657
  0
LINE
  8
_0-3_躯体と製品
  6
CONTINUOUS
 62
    3
 10
1056.6720662523694
 20
1357.8596819399299
 11
1056.6965172862892
 21
1357.860431668114
  0
ARC
  8
_0-3_躯体と製品
  6
CONTINUOUS
 62
    3
 10
1055.5695637394492
 20
1358.8597033140891
 40
1.0000213744606741
 50
270.00141269522987
 51
358.74880180357087
  0
ARC
  8
_0-3_躯体と製品
  6
CONTINUOUS
 62
    3
 10
1071.5691318929494
 20
1358.859703464097
 40
1.0000216427943811
 50
181.25121323943884
 51
269.99862594469778
  0
LINE
  8
_0-3_躯体と製品
  6
CONTINUOUS
 62
    3
 10
1073.5693486904493
 20
1377.3585006031039
 11
1073.5693486904493
 21
1357.8596825283657
  0
LINE
  8
_0-3_躯体と製品
  6
CONTINUOUS
 62
    3
 10
1098.5693486903892
 20
1350.8596825283657
 11
1098.5693486903892
 21
1357.8596825283657
  0
LINE
  8
_0-3_躯体と製品
  6
CONTINUOUS
 62
    3
 10
1093.0693427524002
 20
1358.8378660936337
 11
1093.0693427524002
 21
1377.3585006031039
  0
ARC
  8
_0-3_躯体と製品
  6
CONTINUOUS
 62
    3
 10
1080.0695578029899
 20
1358.8597033140891
 40
1.0000213744606741
 50
270.00141269522987
 51
358.74880180357087
  0
ARC
  8
_0-3_躯体と製品
  6
CONTINUOUS
 62
    3
 10
1094.0691259549494
 20
1358.859702621236
 40
1.0000216427943811
 50
181.25121323943884
 51
269.99862594469778
  0
LINE
  8
_0-3_躯体と製品
  6
CONTINUOUS
 62
    3
 10
1081.0693427524002
 20
1358.8378635744648
 11
1081.0693427524002
 21
1377.3585006031039
  0
LINE
  8
_0-3_躯体と製品
  6
CONTINUOUS
 62
    3
 10
1034.0693546283892
 20
1358.8378660936337
 11
1034.0693546283892
 21
1377.3585006031039
  0
ARC
  8
_0-3_躯体と製品
  6
CONTINUOUS
 62
    3
 10
1047.0691395777994
 20
1358.8597033140891
 40
1.0000213744606741
 50
181.25119819642921
 51
269.99858730477013
  0
ARC
  8
_0-3_躯体と製品
  6
CONTINUOUS
 62
    3
 10
1033.0695714258291
 20
1358.859702621236
 40
1.0000216427943811
 50
270.00137405530222
 51
358.74878676056119
  0
LINE
  8
_0-3_躯体と製品
  6
CONTINUOUS
 62
    3
 10
1046.0693546283892
 20
1358.8378635744648
 11
1046.0693546283892
 21
1377.3585006031039
  0
LINE
  8
_0-3_躯体と製品
  6
CONTINUOUS
 62
    3
 10
1093.0693427348197
 20
1358.8378668981218
 11
1081.0693407395793
 21
1358.8378668981218
  0
LINE
  8
_0-3_躯体と製品
  6
CONTINUOUS
 62
    3
 10
1070.5693486912205
 20
1358.8378668981218
 11
1056.5693466760404
 21
1358.8378668981218
  0
LINE
  8
_0-3_躯体と製品
  6
CONTINUOUS
 62
    3
 10
1034.0693546459497
 20
1358.8378668981218
 11
1046.0693566411992
 21
1358.8378668981218
  0
LINE
  8
_0-3_躯体と製品
  6
CONTINUOUS
 62
    3
 10
1044.0693486904092
 20
1350.8596825283657
 11
1044.0693486904092
 21
1354.8596825283657
  0
LINE
  8
_0-3_躯体と製品
  6
CONTINUOUS
 62
    3
 10
1083.0693486904092
 20
1354.8596825283657
 11
1083.0693486904092
 21
1350.8596825283657
  0
ARC
  8
_0-3_躯体と製品
  6
CONTINUOUS
 62
    3
 10
1058.0440766826796
 20
1381.3596510089828
 40
1.000031519520032
 50
90.000914411585455
 51
178.74823310219011
  0
ARC
  8
_0-3_躯体と製品
  6
CONTINUOUS
 62
    3
 10
1069.0946206980898
 20
1381.3596510089751
 40
1.000031519520032
 50
1.2517668978098311
 51
89.999085588414502
  0
LINE
  8
_0-3_躯体と製品
  6
CONTINUOUS
 62
    4
 10
1054.8193486903892
 20
1382.8596825283657
 11
1054.8193486903892
 21
1377.3596825283657
  0
LINE
  8
_0-3_躯体と製品
  6
CONTINUOUS
 62
    4
 10
1033.6730497120298
 20
1377.3585006031039
 11
1056.3193486903892
 21
1377.3585006031039
  0
LINE
  8
_0-3_躯体と製品
  6
CONTINUOUS
 62
    4
 10
1063.3193486903892
 20
1386.8596825283198
 11
1063.8193486903892
 21
1386.8596825283198
  0
LINE
  8
_0-3_躯体と製品
  6
CONTINUOUS
 62
    4
 10
1063.8193486903892
 20
1386.8596825283198
 11
1063.8193486903892
 21
1382.8596825283657
  0
LINE
  8
_0-3_躯体と製品
  6
CONTINUOUS
 62
    4
 10
1063.3193486903892
 20
1386.8596825283198
 11
1063.3193486903892
 21
1382.8596825283657
  0
LINE
  8
_0-3_躯体と製品
  6
CONTINUOUS
 62
    4
 10
1056.3193486903892
 20
1382.3596825283648
 11
1056.3193486903892
 21
1377.3585006031039
  0
LINE
  8
_0-3_躯体と製品
  6
CONTINUOUS
 62
    4
 10
1056.3193486903892
 20
1382.3596825283648
 11
1070.8193486903892
 21
1382.3596825283648
  0
LINE
  8
_0-3_躯体と製品
  6
CONTINUOUS
 62
    4
 10
1093.4656476687505
 20
1377.3585006031039
 11
1070.8193486903892
 21
1377.3585006031039
  0
LINE
  8
_0-3_躯体と製品
  6
CONTINUOUS
 62
    4
 10
1070.8193486903892
 20
1382.3596825283648
 11
1070.8193486903892
 21
1377.3557619907569
  0
LINE
  8
_0-3_躯体と製品
  6
CONTINUOUS
 62
    4
 10
1094.0693486903892
 20
1382.8596825283657
 11
1033.0693486903892
 21
1382.8596825283657
  0
LINE
  8
_0-3_躯体と製品
  6
CONTINUOUS
 62
    4
 10
1077.0693486903892
 20
1382.8596825283657
 11
1077.0693486903892
 21
1386.8596825283198
  0
LINE
  8
_0-3_躯体と製品
  6
CONTINUOUS
 62
    4
 10
1072.3193486903892
 20
1382.8596825283657
 11
1072.3193486903892
 21
1377.3596825283657
  0
LINE
  8
_0-3_躯体と製品
  6
CONTINUOUS
 62
    4
 10
1085.8193486903892
 20
1386.8596825283198
 11
1077.0693486903892
 21
1386.8596825283198
  0
LINE
  8
_0-3_躯体と製品
  6
CONTINUOUS
 62
    4
 10
1085.8193486903892
 20
1382.8596825283657
 11
1085.8193486903892
 21
1386.8596825283198
  0
LINE
  8
_0-3_躯体と製品
  6
CONTINUOUS
 62
    4
 10
1048.4139041241597
 20
1382.8596825283657
 11
1048.4139041241597
 21
1377.3596825283657
  0
LINE
  8
_0-3_躯体と製品
  6
CONTINUOUS
 62
    4
 10
1078.7247932566097
 20
1382.8596825283657
 11
1078.7247932566097
 21
1377.3596825283657
  0
LINE
  8
_0-3_躯体と製品
  6
CONTINUOUS
 62
    4
 10
1050.0693486903892
 20
1382.8596825283657
 11
1050.0693486903892
 21
1386.8596825283198
  0
LINE
  8
_0-3_躯体と製品
  6
CONTINUOUS
 62
    4
 10
1041.3193486903892
 20
1386.8596825283198
 11
1050.0693486903892
 21
1386.8596825283198
  0
LINE
  8
_0-3_躯体と製品
  6
CONTINUOUS
 62
    4
 10
1041.3193486903892
 20
1382.8596825283657
 11
1041.3193486903892
 21
1386.8596825283198
  0
LINE
  8
_0-3_躯体と製品
  6
CONTINUOUS
 62
    4
 10
1033.0693486903892
 20
1386.8596825283198
 11
1038.8193486903892
 21
1386.8596825283198
  0
LINE
  8
_0-3_躯体と製品
  6
CONTINUOUS
 62
    4
 10
1038.8193486903892
 20
1382.8596825283657
 11
1038.8193486903892
 21
1386.8596825283198
  0
LINE
  8
_0-3_躯体と製品
  6
CONTINUOUS
 62
    4
 10
1033.0693486903892
 20
1382.3596825283648
 11
1033.0693486903892
 21
1386.8596825283198
  0
LINE
  8
_0-3_躯体と製品
  6
CONTINUOUS
 62
    4
 10
1034.0693486903892
 20
1382.8596825283657
 11
1034.0693486903892
 21
1377.3585006031039
  0
LINE
  8
_0-3_躯体と製品
  6
CONTINUOUS
 62
    4
 10
1033.6730497120298
 20
1382.3596825283648
 11
1033.0693486903892
 21
1382.3596825283648
  0
LINE
  8
_0-3_躯体と製品
  6
CONTINUOUS
 62
    4
 10
1033.6730497120298
 20
1382.3596825283648
 11
1033.6730497120298
 21
1377.3585006031039
  0
LINE
  8
_0-3_躯体と製品
  6
CONTINUOUS
 62
    4
 10
1094.0693486903892
 20
1386.8596825283198
 11
1088.3193486903892
 21
1386.8596825283198
  0
LINE
  8
_0-3_躯体と製品
  6
CONTINUOUS
 62
    4
 10
1088.3193486903892
 20
1382.8596825283657
 11
1088.3193486903892
 21
1386.8596825283198
  0
LINE
  8
_0-3_躯体と製品
  6
CONTINUOUS
 62
    4
 10
1094.0693486903892
 20
1382.3596825283648
 11
1094.0693486903892
 21
1386.8596825283198
  0
LINE
  8
_0-3_躯体と製品
  6
CONTINUOUS
 62
    4
 10
1093.0693486903892
 20
1382.8596825283657
 11
1093.0693486903892
 21
1377.3585006031039
  0
LINE
  8
_0-3_躯体と製品
  6
CONTINUOUS
 62
    4
 10
1093.4656476687505
 20
1382.3596825283648
 11
1094.0693486903892
 21
1382.3596825283648
  0
LINE
  8
_0-3_躯体と製品
  6
CONTINUOUS
 62
    4
 10
1093.4656476687505
 20
1382.3596825283648
 11
1093.4656476687505
 21
1377.3585006031039
  0
LINE
  8
_0-5_中心線
  6
CENTER1
 62
    7
 10
1063.5693486903892
 20
1392.5288429023308
 11
1063.5693486903892
 21
1239.9792964460439
  0
LINE
  8
_0-3_躯体と製品
  6
CONTINUOUS
 62
    6
 10
1076.5693486903601
 20
1323.1564881577629
 11
1076.5693486903601
 21
1320.3596825283657
  0
LINE
  8
_0-3_躯体と製品
  6
CONTINUOUS
 62
    6
 10
1076.5693486903601
 20
1320.3596825283657
 11
1014.5693486903601
 21
1320.3596825283657
  0
LINE
  8
_0-3_躯体と製品
  6
CONTINUOUS
 62
    6
 10
1014.5693486903601
 20
1320.3596825283657
 11
1014.5693486903601
 21
1323.1564881577629
  0
ARC
  8
_0-3_躯体と製品
  6
CONTINUOUS
 62
    6
 10
1015.7725430609664
 20
1323.1564881577594
 40
1.2031943706062973
 50
89.99999999983757
 51
179.9999999998376
  0
LINE
  8
_0-3_躯体と製品
  6
CONTINUOUS
 62
    6
 10
1015.7725430609698
 20
1324.3596825283657
 11
1075.3661543197504
 21
1324.3596825283657
  0
LINE
  8
_0-3_躯体と製品
  6
CONTINUOUS
 62
    6
 10
1075.3661543197504
 20
1324.3596825283657
 11
1076.5693486903601
 21
1323.1564881577629
  0
LINE
  8
_0-3_躯体と製品
  6
CONTINUOUS
 62
    6
 10
1056.0693486903601
 20
1320.3596825283657
 11
1056.0693486903601
 21
1319.3596825283657
  0
LINE
  8
_0-3_躯体と製品
  6
CONTINUOUS
 62
    6
 10
1056.0693486903601
 20
1319.3596825283657
 11
1071.0693486903601
 21
1319.3596825283657
  0
LINE
  8
_0-3_躯体と製品
  6
CONTINUOUS
 62
    6
 10
1071.0693486903601
 20
1319.3596825283657
 11
1071.0693486903601
 21
1320.3596825283657
  0
LINE
  8
_0-3_躯体と製品
  6
CONTINUOUS
 62
    6
 10
1076.5693486903601
 20
1326.3389945283689
 11
1076.5693486904001
 21
1324.8803705283617
  0
ARC
  8
_0-3_躯体と製品
  6
CONTINUOUS
 62
    6
 10
1076.0486606904019
 20
1324.880370528364
 40
0.5206879999982659
 50
269.99999999974585
 51
359.99999999974591
  0
LINE
  8
_0-3_躯体と製品
  6
CONTINUOUS
 62
    6
 10
1076.0486606903996
 20
1324.3596825283657
 11
1051.0900366903807
 21
1324.3596825283657
  0
ARC
  8
_0-3_躯体と製品
  6
CONTINUOUS
 62
    6
 10
1051.0900366903684
 20
1324.880370528374
 40
0.5206880000082135
 50
180.00000000134875
 51
270.00000000134878
  0
LINE
  8
_0-3_躯体と製品
  6
CONTINUOUS
 62
    6
 10
1050.5693486903601
 20
1324.8803705283617
 11
1050.5693486903892
 21
1326.3389945283689
  0
ARC
  8
_0-3_躯体と製品
  6
CONTINUOUS
 62
    6
 10
1051.0900366903834
 20
1326.3389945283716
 40
0.5206879999941095
 50
90.000000000304908
 51
180.00000000030494
  0
LINE
  8
_0-3_躯体と製品
  6
CONTINUOUS
 62
    6
 10
1051.0900366903807
 20
1326.8596825283657
 11
1076.0486606903996
 21
1326.8596825283657
  0
LINE
  8
_0-3_躯体と製品
  6
CONTINUOUS
 62
    6
 10
1076.0486606903996
 20
1326.8596825283657
 11
1076.5693486903601
 21
1326.3389945283689
  0
LINE
  8
_0-3_躯体と製品
  6
CONTINUOUS
 62
    3
 10
563.56934869038923
 20
1393.3596825283607
 11
1738.5693486903892
 21
1393.3596825283607
  0
LINE
  8
_0-3_躯体と製品
  6
CONTINUOUS
 62
    3
 10
563.56934869038923
 20
1386.8596825283621
 11
1738.5693486903892
 21
1386.8596825283657
  0
LINE
  8
_0-3_躯体と製品
  6
CONTINUOUS
 62
    3
 10
1568.5693486965301
 20
1250.1596825367237
 11
1568.5693486965301
 21
1319.3596825283657
  0
LINE
  8
_0-3_躯体と製品
  6
CONTINUOUS
 62
    3
 10
1558.5693486842501
 20
1250.1596825367237
 11
1558.5693486842501
 21
1319.3596825283657
  0
LINE
  8
_0-3_躯体と製品
  6
CONTINUOUS
 62
    3
 10
1570.5693486989803
 20
1250.1596825367237
 11
1570.5693486989803
 21
1319.3596825283657
  0
LINE
  8
_0-3_躯体と製品
  6
CONTINUOUS
 62
    3
 10
1556.569348681749
 20
1250.1596825367237
 11
1556.569348681749
 21
1319.3596825283657
  0
LINE
  8
_0-3_躯体と製品
  6
CONTINUOUS
 62
    3
 10
1601.0693487365206
 20
1245.35968253082
 11
1601.0693487365206
 21
1243.3596825283607
  0
LINE
  8
_0-3_躯体と製品
  6
CONTINUOUS
 62
    3
 10
1526.0693486442597
 20
1245.35968253082
 11
1526.0693486442597
 21
1243.3596825283607
  0
LINE
  8
_0-3_躯体と製品
  6
CONTINUOUS
 62
    3
 10
1526.0693486442597
 20
1243.3596825283607
 11
1601.0693487365206
 21
1243.3596825283607
  0
LINE
  8
_0-3_躯体と製品
  6
CONTINUOUS
 62
    3
 10
1551.7290611414701
 20
1250.1596825367237
 11
1576.4262447750407
 21
1250.1596825367237
  0
LINE
  8
_0-3_躯体と製品
  6
CONTINUOUS
 62
    3
 10
1535.1709173204399
 20
1247.359682533287
 11
1591.0761669060194
 21
1247.359682533287
  0
LINE
  8
_0-3_躯体と製品
  6
CONTINUOUS
 62
    3
 10
1526.0693486442597
 20
1245.35968253082
 11
1601.0693487365206
 21
1245.35968253082
  0
LINE
  8
_0-3_躯体と製品
  6
CONTINUOUS
 62
    3
 10
1551.7290611414701
 20
1247.359682533287
 11
1551.7290611414701
 21
1250.1596825367237
  0
LINE
  8
_0-3_躯体と製品
  6
CONTINUOUS
 62
    3
 10
1539.3193486605596
 20
1246.4596825321801
 11
1540.7013490497193
 21
1245.35968253082
  0
LINE
  8
_0-3_躯体と製品
  6
CONTINUOUS
 62
    3
 10
1539.3193486605596
 20
1246.4596825321801
 11
1530.3193486495002
 21
1246.4596825321801
  0
LINE
  8
_0-3_躯体と製品
  6
CONTINUOUS
 62
    3
 10
1530.3193486495002
 20
1246.4596825321801
 11
1528.9373486477707
 21
1245.35968253082
  0
LINE
  8
_0-3_躯体と製品
  6
CONTINUOUS
 62
    3
 10
1534.5490991378592
 20
1246.4596825321801
 11
1535.1709173204399
 21
1247.359682533287
  0
LINE
  8
_0-3_躯体と製品
  6
CONTINUOUS
 62
    3
 10
1576.4262447750407
 20
1247.359682533287
 11
1576.4262447750407
 21
1250.1596825367237
  0
LINE
  8
_0-3_躯体と製品
  6
CONTINUOUS
 62
    3
 10
1596.8193487312801
 20
1246.4596825321801
 11
1598.2013487329496
 21
1245.35968253082
  0
LINE
  8
_0-3_躯体と製品
  6
CONTINUOUS
 62
    3
 10
1587.8193487202207
 20
1246.4596825321801
 11
1586.4373483310592
 21
1245.35968253082
  0
LINE
  8
_0-3_躯体と製品
  6
CONTINUOUS
 62
    3
 10
1591.0761669060194
 20
1247.359682533287
 11
1591.6979850886
 21
1246.4596825321801
  0
LINE
  8
_0-3_躯体と製品
  6
CONTINUOUS
 62
    3
 10
1587.8193487202207
 20
1246.4596825321801
 11
1596.8193487312801
 21
1246.4596825321801
  0
LINE
  8
_0-3_躯体と製品
  6
CONTINUOUS
 62
    3
 10
1574.5693486903892
 20
1326.8596825283657
 11
1574.5693486903892
 21
1350.8596825283657
  0
LINE
  8
_0-3_躯体と製品
  6
CONTINUOUS
 62
    3
 10
1552.5693486903892
 20
1326.8596825283657
 11
1552.5693486903892
 21
1350.8596825283657
  0
LINE
  8
_0-3_躯体と製品
  6
CONTINUOUS
 62
    3
 10
1552.5693486903892
 20
1326.8596825283657
 11
1574.5693486903892
 21
1326.8596825283657
  0
LINE
  8
_0-3_躯体と製品
  6
CONTINUOUS
 62
    3
 10
1598.5693486903892
 20
1357.8596825283657
 11
1528.5693486903892
 21
1357.8596825283657
  0
LINE
  8
_0-3_躯体と製品
  6
CONTINUOUS
 62
    3
 10
1553.5693486904493
 20
1377.3596825283657
 11
1553.5693486904493
 21
1357.8596825283657
  0
LINE
  8
_0-3_躯体と製品
  6
CONTINUOUS
 62
    3
 10
1570.5693469318394
 20
1358.8378668981218
 11
1570.0944162449905
 21
1381.3813743699261
  0
LINE
  8
_0-3_躯体と製品
  6
CONTINUOUS
 62
    3
 10
1556.5693486888595
 20
1358.8378670109869
 11
1557.0442838168092
 21
1381.3814974134129
  0
LINE
  8
_0-3_躯体と製品
  6
CONTINUOUS
 62
    3
 10
1537.0693486904092
 20
1350.8596825283657
 11
1537.0693486904092
 21
1354.8596825283657
  0
LINE
  8
_0-3_躯体と製品
  6
CONTINUOUS
 62
    3
 10
1598.5693486903892
 20
1350.8596825283657
 11
1528.5693486903892
 21
1350.8596825283657
  0
LINE
  8
_0-3_躯体と製品
  6
CONTINUOUS
 62
    3
 10
1528.5693486903892
 20
1354.8596825283657
 11
1598.5693486903892
 21
1354.8596825283657
  0
LINE
  8
_0-3_躯体と製品
  6
CONTINUOUS
 62
    3
 10
1528.5693486903892
 20
1350.8596825283657
 11
1528.5693486903892
 21
1357.8596825283657
  0
LINE
  8
_0-3_躯体と製品
  6
CONTINUOUS
 62
    3
 10
1590.0693486904092
 20
1354.8596825283657
 11
1590.0693486904092
 21
1350.8596825283657
  0
LINE
  8
_0-3_躯体と製品
  6
CONTINUOUS
 62
    3
 10
1556.6720662523694
 20
1357.8596819399299
 11
1556.6965172862892
 21
1357.860431668114
  0
ARC
  8
_0-3_躯体と製品
  6
CONTINUOUS
 62
    3
 10
1555.5695637394601
 20
1358.8597033140891
 40
1.0000213744606741
 50
270.00141269522987
 51
358.74880180357087
  0
ARC
  8
_0-3_躯体と製品
  6
CONTINUOUS
 62
    3
 10
1571.5691318929494
 20
1358.859703464097
 40
1.0000216427943811
 50
181.25121323943884
 51
269.99862594469778
  0
LINE
  8
_0-3_躯体と製品
  6
CONTINUOUS
 62
    3
 10
1573.5693486904493
 20
1377.3585006031039
 11
1573.5693486904493
 21
1357.8596825283657
  0
LINE
  8
_0-3_躯体と製品
  6
CONTINUOUS
 62
    3
 10
1598.5693486903892
 20
1350.8596825283657
 11
1598.5693486903892
 21
1357.8596825283657
  0
LINE
  8
_0-3_躯体と製品
  6
CONTINUOUS
 62
    3
 10
1593.0693427524002
 20
1358.8378660936337
 11
1593.0693427524002
 21
1377.3585006031039
  0
ARC
  8
_0-3_躯体と製品
  6
CONTINUOUS
 62
    3
 10
1580.0695578029899
 20
1358.8597033140891
 40
1.0000213744606741
 50
270.00141269522987
 51
358.74880180357087
  0
ARC
  8
_0-3_躯体と製品
  6
CONTINUOUS
 62
    3
 10
1594.0691259549494
 20
1358.859702621236
 40
1.0000216427943811
 50
181.25121323943884
 51
269.99862594469778
  0
LINE
  8
_0-3_躯体と製品
  6
CONTINUOUS
 62
    3
 10
1581.0693427524002
 20
1358.8378635744648
 11
1581.0693427524002
 21
1377.3585006031039
  0
LINE
  8
_0-3_躯体と製品
  6
CONTINUOUS
 62
    3
 10
1534.0693546283892
 20
1358.8378660936337
 11
1534.0693546283892
 21
1377.3585006031039
  0
ARC
  8
_0-3_躯体と製品
  6
CONTINUOUS
 62
    3
 10
1547.0691395777994
 20
1358.8597033140891
 40
1.0000213744606741
 50
181.25119819642921
 51
269.99858730477013
  0
ARC
  8
_0-3_躯体と製品
  6
CONTINUOUS
 62
    3
 10
1533.0695714258291
 20
1358.859702621236
 40
1.0000216427943811
 50
270.00137405530222
 51
358.74878676056119
  0
LINE
  8
_0-3_躯体と製品
  6
CONTINUOUS
 62
    3
 10
1546.0693546283892
 20
1358.8378635744648
 11
1546.0693546283892
 21
1377.3585006031039
  0
LINE
  8
_0-3_躯体と製品
  6
CONTINUOUS
 62
    3
 10
1593.0693427348197
 20
1358.8378668981218
 11
1581.0693407395793
 21
1358.8378668981218
  0
LINE
  8
_0-3_躯体と製品
  6
CONTINUOUS
 62
    3
 10
1570.5693486912205
 20
1358.8378668981218
 11
1556.5693466760404
 21
1358.8378668981218
  0
LINE
  8
_0-3_躯体と製品
  6
CONTINUOUS
 62
    3
 10
1534.0693546459497
 20
1358.8378668981218
 11
1546.0693566411901
 21
1358.8378668981218
  0
LINE
  8
_0-3_躯体と製品
  6
CONTINUOUS
 62
    3
 10
1544.0693486904092
 20
1350.8596825283657
 11
1544.0693486904092
 21
1354.8596825283657
  0
LINE
  8
_0-3_躯体と製品
  6
CONTINUOUS
 62
    3
 10
1583.0693486904092
 20
1354.8596825283657
 11
1583.0693486904092
 21
1350.8596825283657
  0
ARC
  8
_0-3_躯体と製品
  6
CONTINUOUS
 62
    3
 10
1558.0440766826796
 20
1381.3596510089828
 40
1.000031519520032
 50
90.000914411585455
 51
178.74823310219011
  0
ARC
  8
_0-3_躯体と製品
  6
CONTINUOUS
 62
    3
 10
1569.0946206980898
 20
1381.3596510089751
 40
1.000031519520032
 50
1.2517668978098311
 51
89.999085588414502
  0
LINE
  8
_0-3_躯体と製品
  6
CONTINUOUS
 62
    4
 10
1554.8193486903892
 20
1382.8596825283657
 11
1554.8193486903892
 21
1377.3596825283657
  0
LINE
  8
_0-3_躯体と製品
  6
CONTINUOUS
 62
    4
 10
1533.6730497120298
 20
1377.3585006031039
 11
1556.3193486903892
 21
1377.3585006031039
  0
LINE
  8
_0-3_躯体と製品
  6
CONTINUOUS
 62
    4
 10
1563.3193486903892
 20
1386.8596825283198
 11
1563.8193486903892
 21
1386.8596825283198
  0
LINE
  8
_0-3_躯体と製品
  6
CONTINUOUS
 62
    4
 10
1563.8193486903892
 20
1386.8596825283198
 11
1563.8193486903892
 21
1382.8596825283657
  0
LINE
  8
_0-3_躯体と製品
  6
CONTINUOUS
 62
    4
 10
1563.3193486903892
 20
1386.8596825283198
 11
1563.3193486903892
 21
1382.8596825283657
  0
LINE
  8
_0-3_躯体と製品
  6
CONTINUOUS
 62
    4
 10
1556.3193486903892
 20
1382.3596825283648
 11
1556.3193486903892
 21
1377.3585006031039
  0
LINE
  8
_0-3_躯体と製品
  6
CONTINUOUS
 62
    4
 10
1556.3193486903892
 20
1382.3596825283648
 11
1570.8193486903892
 21
1382.3596825283648
  0
LINE
  8
_0-3_躯体と製品
  6
CONTINUOUS
 62
    4
 10
1593.4656476687505
 20
1377.3585006031039
 11
1570.8193486903892
 21
1377.3585006031039
  0
LINE
  8
_0-3_躯体と製品
  6
CONTINUOUS
 62
    4
 10
1570.8193486903892
 20
1382.3596825283648
 11
1570.8193486903892
 21
1377.3557619907569
  0
LINE
  8
_0-3_躯体と製品
  6
CONTINUOUS
 62
    4
 10
1594.0693486903892
 20
1382.8596825283657
 11
1533.0693486903892
 21
1382.8596825283657
  0
LINE
  8
_0-3_躯体と製品
  6
CONTINUOUS
 62
    4
 10
1577.0693486903892
 20
1382.8596825283657
 11
1577.0693486903892
 21
1386.8596825283198
  0
LINE
  8
_0-3_躯体と製品
  6
CONTINUOUS
 62
    4
 10
1572.3193486903892
 20
1382.8596825283657
 11
1572.3193486903892
 21
1377.3596825283657
  0
LINE
  8
_0-3_躯体と製品
  6
CONTINUOUS
 62
    4
 10
1585.8193486903892
 20
1386.8596825283198
 11
1577.0693486903892
 21
1386.8596825283198
  0
LINE
  8
_0-3_躯体と製品
  6
CONTINUOUS
 62
    4
 10
1585.8193486903892
 20
1382.8596825283657
 11
1585.8193486903892
 21
1386.8596825283198
  0
LINE
  8
_0-3_躯体と製品
  6
CONTINUOUS
 62
    4
 10
1548.4139041241597
 20
1382.8596825283657
 11
1548.4139041241597
 21
1377.3596825283657
  0
LINE
  8
_0-3_躯体と製品
  6
CONTINUOUS
 62
    4
 10
1578.7247932566097
 20
1382.8596825283657
 11
1578.7247932566097
 21
1377.3596825283657
  0
LINE
  8
_0-3_躯体と製品
  6
CONTINUOUS
 62
    4
 10
1550.0693486903892
 20
1382.8596825283657
 11
1550.0693486903892
 21
1386.8596825283198
  0
LINE
  8
_0-3_躯体と製品
  6
CONTINUOUS
 62
    4
 10
1541.3193486903892
 20
1386.8596825283198
 11
1550.0693486903892
 21
1386.8596825283198
  0
LINE
  8
_0-3_躯体と製品
  6
CONTINUOUS
 62
    4
 10
1541.3193486903892
 20
1382.8596825283657
 11
1541.3193486903892
 21
1386.8596825283198
  0
LINE
  8
_0-3_躯体と製品
  6
CONTINUOUS
 62
    4
 10
1533.0693486903892
 20
1386.8596825283198
 11
1538.8193486903892
 21
1386.8596825283198
  0
LINE
  8
_0-3_躯体と製品
  6
CONTINUOUS
 62
    4
 10
1538.8193486903892
 20
1382.8596825283657
 11
1538.8193486903892
 21
1386.8596825283198
  0
LINE
  8
_0-3_躯体と製品
  6
CONTINUOUS
 62
    4
 10
1533.0693486903892
 20
1382.3596825283648
 11
1533.0693486903892
 21
1386.8596825283198
  0
LINE
  8
_0-3_躯体と製品
  6
CONTINUOUS
 62
    4
 10
1534.0693486903892
 20
1382.8596825283657
 11
1534.0693486903892
 21
1377.3585006031039
  0
LINE
  8
_0-3_躯体と製品
  6
CONTINUOUS
 62
    4
 10
1533.6730497120298
 20
1382.3596825283648
 11
1533.0693486903892
 21
1382.3596825283648
  0
LINE
  8
_0-3_躯体と製品
  6
CONTINUOUS
 62
    4
 10
1533.6730497120298
 20
1382.3596825283648
 11
1533.6730497120298
 21
1377.3585006031039
  0
LINE
  8
_0-3_躯体と製品
  6
CONTINUOUS
 62
    4
 10
1594.0693486903801
 20
1386.8596825283198
 11
1588.3193486903892
 21
1386.8596825283198
  0
LINE
  8
_0-3_躯体と製品
  6
CONTINUOUS
 62
    4
 10
1588.3193486903892
 20
1382.8596825283657
 11
1588.3193486903892
 21
1386.8596825283198
  0
LINE
  8
_0-3_躯体と製品
  6
CONTINUOUS
 62
    4
 10
1594.0693486903801
 20
1382.3596825283648
 11
1594.0693486903801
 21
1386.8596825283198
  0
LINE
  8
_0-3_躯体と製品
  6
CONTINUOUS
 62
    4
 10
1593.0693486903892
 20
1382.8596825283657
 11
1593.0693486903892
 21
1377.3585006031039
  0
LINE
  8
_0-3_躯体と製品
  6
CONTINUOUS
 62
    4
 10
1593.4656476687505
 20
1382.3596825283648
 11
1594.0693486903892
 21
1382.3596825283648
  0
LINE
  8
_0-3_躯体と製品
  6
CONTINUOUS
 62
    4
 10
1593.4656476687505
 20
1382.3596825283648
 11
1593.4656476687505
 21
1377.3585006031039
  0
LINE
  8
_0-5_中心線
  6
CENTER1
 62
    7
 10
1563.5693486903892
 20
1392.5288429023308
 11
1563.5693486903892
 21
1239.9792964460439
  0
LINE
  8
_0-3_躯体と製品
  6
CONTINUOUS
 62
    6
 10
1576.5693486903601
 20
1323.1564881577629
 11
1576.5693486903601
 21
1320.3596825283657
  0
LINE
  8
_0-3_躯体と製品
  6
CONTINUOUS
 62
    6
 10
1576.5693486903601
 20
1320.3596825283657
 11
1514.5693486903601
 21
1320.3596825283657
  0
LINE
  8
_0-3_躯体と製品
  6
CONTINUOUS
 62
    6
 10
1514.5693486903601
 20
1320.3596825283657
 11
1514.5693486903601
 21
1323.1564881577629
  0
ARC
  8
_0-3_躯体と製品
  6
CONTINUOUS
 62
    6
 10
1515.7725430609664
 20
1323.1564881577594
 40
1.2031943706062973
 50
89.99999999983757
 51
179.9999999998376
  0
LINE
  8
_0-3_躯体と製品
  6
CONTINUOUS
 62
    6
 10
1515.7725430609698
 20
1324.3596825283657
 11
1575.3661543197504
 21
1324.3596825283657
  0
LINE
  8
_0-3_躯体と製品
  6
CONTINUOUS
 62
    6
 10
1575.3661543197504
 20
1324.3596825283657
 11
1576.5693486903601
 21
1323.1564881577629
  0
LINE
  8
_0-3_躯体と製品
  6
CONTINUOUS
 62
    6
 10
1556.0693486903601
 20
1320.3596825283657
 11
1556.0693486903601
 21
1319.3596825283657
  0
LINE
  8
_0-3_躯体と製品
  6
CONTINUOUS
 62
    6
 10
1556.0693486903601
 20
1319.3596825283657
 11
1571.0693486903601
 21
1319.3596825283657
  0
LINE
  8
_0-3_躯体と製品
  6
CONTINUOUS
 62
    6
 10
1571.0693486903601
 20
1319.3596825283657
 11
1571.0693486903601
 21
1320.3596825283657
  0
LINE
  8
_0-3_躯体と製品
  6
CONTINUOUS
 62
    6
 10
1576.5693486903601
 20
1326.3389945283689
 11
1576.5693486904001
 21
1324.8803705283617
  0
ARC
  8
_0-3_躯体と製品
  6
CONTINUOUS
 62
    6
 10
1576.0486606904019
 20
1324.880370528364
 40
0.5206879999982305
 50
269.99999999974978
 51
359.99999999974978
  0
LINE
  8
_0-3_躯体と製品
  6
CONTINUOUS
 62
    6
 10
1576.0486606903996
 20
1324.3596825283657
 11
1551.0900366903807
 21
1324.3596825283657
  0
ARC
  8
_0-3_躯体と製品
  6
CONTINUOUS
 62
    6
 10
1551.0900366903684
 20
1324.880370528374
 40
0.5206880000082491
 50
180.00000000135262
 51
270.00000000135265
  0
LINE
  8
_0-3_躯体と製品
  6
CONTINUOUS
 62
    6
 10
1550.5693486903601
 20
1324.8803705283617
 11
1550.5693486903892
 21
1326.3389945283689
  0
ARC
  8
_0-3_躯体と製品
  6
CONTINUOUS
 62
    6
 10
1551.0900366903834
 20
1326.3389945283716
 40
0.5206879999941448
 50
90.000000000300986
 51
180.00000000030101
  0
LINE
  8
_0-3_躯体と製品
  6
CONTINUOUS
 62
    6
 10
1551.0900366903807
 20
1326.8596825283657
 11
1576.0486606903996
 21
1326.8596825283657
  0
LINE
  8
_0-3_躯体と製品
  6
CONTINUOUS
 62
    6
 10
1576.0486606903996
 20
1326.8596825283657
 11
1576.5693486903601
 21
1326.3389945283689
  0
LINE
  8
_0-3_躯体と製品
  6
CONTINUOUS
 62
    7
 10
487.76934869038996
 20
1243.3596825283607
 11
1738.5693486903892
 21
1243.3596825283607
  0
LINE
  8
_0-3_躯体と製品
  6
CONTINUOUS
 62
    3
 10
618.56934869653003
 20
1250.1596825367237
 11
618.56934869653003
 21
1318.3596825283648
  0
LINE
  8
_0-3_躯体と製品
  6
CONTINUOUS
 62
    3
 10
608.56934868425014
 20
1250.1596825367237
 11
608.56934868425014
 21
1318.3596825283648
  0
LINE
  8
_0-3_躯体と製品
  6
CONTINUOUS
 62
    3
 10
620.56934869898043
 20
1250.1596825367237
 11
620.56934869898043
 21
1318.3596825283648
  0
LINE
  8
_0-3_躯体と製品
  6
CONTINUOUS
 62
    3
 10
606.56934868174915
 20
1250.1596825367237
 11
606.56934868174915
 21
1318.3596825283648
  0
LINE
  8
_0-3_躯体と製品
  6
CONTINUOUS
 62
    3
 10
651.06934873652051
 20
1245.35968253082
 11
651.06934873652051
 21
1243.3596825283607
  0
LINE
  8
_0-3_躯体と製品
  6
CONTINUOUS
 62
    3
 10
576.06934864425966
 20
1245.35968253082
 11
576.06934864425966
 21
1243.3596825283607
  0
LINE
  8
_0-3_躯体と製品
  6
CONTINUOUS
 62
    3
 10
576.06934864425966
 20
1243.3596825283607
 11
651.06934873652051
 21
1243.3596825283607
  0
LINE
  8
_0-3_躯体と製品
  6
CONTINUOUS
 62
    3
 10
601.72906114146997
 20
1250.1596825367237
 11
626.42624477504057
 21
1250.1596825367237
  0
LINE
  8
_0-3_躯体と製品
  6
CONTINUOUS
 62
    3
 10
585.1709173204398
 20
1247.359682533287
 11
641.07616690601935
 21
1247.359682533287
  0
LINE
  8
_0-3_躯体と製品
  6
CONTINUOUS
 62
    3
 10
576.06934864425966
 20
1245.35968253082
 11
651.06934873652051
 21
1245.35968253082
  0
LINE
  8
_0-3_躯体と製品
  6
CONTINUOUS
 62
    3
 10
601.72906114146997
 20
1247.359682533287
 11
601.72906114146997
 21
1250.1596825367237
  0
LINE
  8
_0-3_躯体と製品
  6
CONTINUOUS
 62
    3
 10
589.31934866055963
 20
1246.4596825321801
 11
590.70134904971928
 21
1245.35968253082
  0
LINE
  8
_0-3_躯体と製品
  6
CONTINUOUS
 62
    3
 10
589.31934866055963
 20
1246.4596825321801
 11
580.31934864950017
 21
1246.4596825321801
  0
LINE
  8
_0-3_躯体と製品
  6
CONTINUOUS
 62
    3
 10
580.31934864950017
 20
1246.4596825321801
 11
578.93734864777059
 21
1245.35968253082
  0
LINE
  8
_0-3_躯体と製品
  6
CONTINUOUS
 62
    3
 10
584.54909913785912
 20
1246.4596825321801
 11
585.1709173204398
 21
1247.359682533287
  0
LINE
  8
_0-3_躯体と製品
  6
CONTINUOUS
 62
    3
 10
626.42624477504057
 20
1247.359682533287
 11
626.42624477504057
 21
1250.1596825367237
  0
LINE
  8
_0-3_躯体と製品
  6
CONTINUOUS
 62
    3
 10
646.81934873128
 20
1246.4596825321801
 11
648.20134873294955
 21
1245.35968253082
  0
LINE
  8
_0-3_躯体と製品
  6
CONTINUOUS
 62
    3
 10
637.81934872022077
 20
1246.4596825321801
 11
636.43734833105918
 21
1245.35968253082
  0
LINE
  8
_0-3_躯体と製品
  6
CONTINUOUS
 62
    3
 10
641.07616690601935
 20
1247.359682533287
 11
641.69798508860003
 21
1246.4596825321801
  0
LINE
  8
_0-3_躯体と製品
  6
CONTINUOUS
 62
    3
 10
637.81934872022077
 20
1246.4596825321801
 11
646.81934873128
 21
1246.4596825321801
  0
LINE
  8
_0-5_中心線
  6
CENTER1
 62
    7
 10
613.56934869038923
 20
1392.5288429023331
 11
613.56934869038923
 21
1239.9792964460439
  0
LINE
  8
_0-3_躯体と製品
  6
CONTINUOUS
 62
    6
 10
600.56934869042016
 20
1322.1564881577629
 11
600.56934869042016
 21
1319.3596825283648
  0
LINE
  8
_0-3_躯体と製品
  6
CONTINUOUS
 62
    6
 10
600.56934869042016
 20
1319.3596825283648
 11
662.56934869042027
 21
1319.3596825283648
  0
LINE
  8
_0-3_躯体と製品
  6
CONTINUOUS
 62
    6
 10
662.56934869042027
 20
1319.3596825283648
 11
662.56934869042027
 21
1322.1564881577629
  0
ARC
  8
_0-3_躯体と製品
  6
CONTINUOUS
 62
    6
 10
661.36615431981454
 20
1322.156488157759
 40
1.2031943706058532
 50
0.0000000001835634
 51
90.000000000183576
  0
LINE
  8
_0-3_躯体と製品
  6
CONTINUOUS
 62
    6
 10
661.36615431981056
 20
1323.3596825283648
 11
601.77254306102986
 21
1323.3596825283648
  0
LINE
  8
_0-3_躯体と製品
  6
CONTINUOUS
 62
    6
 10
601.77254306102986
 20
1323.3596825283648
 11
600.56934869042016
 21
1322.1564881577629
  0
LINE
  8
_0-3_躯体と製品
  6
CONTINUOUS
 62
    6
 10
621.06934869042016
 20
1319.3596825283648
 11
621.06934869042016
 21
1318.3596825283648
  0
LINE
  8
_0-3_躯体と製品
  6
CONTINUOUS
 62
    6
 10
621.06934869042016
 20
1318.3596825283648
 11
606.06934869042016
 21
1318.3596825283648
  0
LINE
  8
_0-3_躯体と製品
  6
CONTINUOUS
 62
    6
 10
606.06934869042016
 20
1318.3596825283648
 11
606.06934869042016
 21
1319.3596825283648
  0
LINE
  8
_0-3_躯体と製品
  6
CONTINUOUS
 62
    6
 10
600.56934869042016
 20
1325.3389945283679
 11
600.56934869038912
 21
1323.8803705283617
  0
ARC
  8
_0-3_躯体と製品
  6
CONTINUOUS
 62
    6
 10
601.09003669038339
 20
1323.880370528359
 40
0.5206879999941804
 50
179.99999999970288
 51
269.99999999970294
  0
LINE
  8
_0-3_躯体と製品
  6
CONTINUOUS
 62
    6
 10
601.09003669038066
 20
1323.3596825283648
 11
626.04866069039963
 21
1323.3596825283648
  0
ARC
  8
_0-3_躯体と製品
  6
CONTINUOUS
 62
    6
 10
626.04866069041145
 20
1323.8803705283735
 40
0.5206880000086754
 50
269.99999999870209
 51
359.99999999870209
  0
LINE
  8
_0-3_躯体と製品
  6
CONTINUOUS
 62
    6
 10
626.56934869042004
 20
1323.8803705283617
 11
626.56934869040015
 21
1325.3389945283679
  0
ARC
  8
_0-3_躯体と製品
  6
CONTINUOUS
 62
    6
 10
626.04866069040156
 20
1325.3389945283661
 40
0.5206879999987278
 50
0.0000000002032916
 51
90.0000000002033
  0
LINE
  8
_0-3_躯体と製品
  6
CONTINUOUS
 62
    6
 10
626.04866069039963
 20
1325.8596825283648
 11
601.09003669038066
 21
1325.8596825283648
  0
LINE
  8
_0-3_躯体と製品
  6
CONTINUOUS
 62
    6
 10
601.09003669038066
 20
1325.8596825283648
 11
600.56934869042016
 21
1325.3389945283679
  0
LINE
  8
_0-3_躯体と製品
  6
CONTINUOUS
 62
    3
 10
624.56934869038923
 20
1325.8596825283648
 11
624.56934869038923
 21
1349.8596825283648
  0
LINE
  8
_0-3_躯体と製品
  6
CONTINUOUS
 62
    3
 10
602.56934869038923
 20
1325.8596825283648
 11
602.56934869038923
 21
1349.8596825283648
  0
LINE
  8
_0-3_躯体と製品
  6
CONTINUOUS
 62
    3
 10
602.56934869038923
 20
1325.8596825283648
 11
624.56934869038923
 21
1325.8596825283648
  0
LINE
  8
_0-3_躯体と製品
  6
CONTINUOUS
 62
    4
 10
576.86934869037941
 20
1356.8596825283648
 11
650.26934869039906
 21
1356.8596825283648
  0
LINE
  8
_0-3_躯体と製品
  6
CONTINUOUS
 62
    4
 10
650.26934869039906
 20
1356.8596825283648
 11
650.26934869039906
 21
1357.8596825283648
  0
LINE
  8
_0-3_躯体と製品
  6
CONTINUOUS
 62
    4
 10
650.26934869039906
 20
1357.8596825283648
 11
576.86934869037941
 21
1357.8596825283648
  0
LINE
  8
_0-3_躯体と製品
  6
CONTINUOUS
 62
    4
 10
576.86934869037941
 20
1357.8596825283648
 11
576.86934869037941
 21
1356.8596825283648
  0
LINE
  8
_0-3_躯体と製品
  6
CONTINUOUS
 62
    3
 10
648.56934869038923
 20
1349.8596825283648
 11
578.56934869038923
 21
1349.8596825283648
  0
LINE
  8
_0-3_躯体と製品
  6
CONTINUOUS
 62
    3
 10
578.56934869038923
 20
1353.8596825283648
 11
603.06934869038912
 21
1353.8596825283648
  0
LINE
  8
_0-3_躯体と製品
  6
CONTINUOUS
 62
    3
 10
606.06934869038923
 20
1353.8596825283648
 11
621.06934869038923
 21
1353.8596825283648
  0
LINE
  8
_0-3_躯体と製品
  6
CONTINUOUS
 62
    3
 10
624.06934869038935
 20
1353.8596825283648
 11
648.56934869038923
 21
1353.8596825283648
  0
LINE
  8
_0-3_躯体と製品
  6
CONTINUOUS
 62
    3
 10
578.56934869038923
 20
1349.8596825283648
 11
578.56934869038923
 21
1356.8596825283648
  0
LINE
  8
_0-3_躯体と製品
  6
CONTINUOUS
 62
    3
 10
648.56934869038923
 20
1349.8596825283648
 11
648.56934869038923
 21
1356.8596825283648
  0
LINE
  8
_0-3_躯体と製品
  6
CONTINUOUS
 62
    4
 10
590.59434869035977
 20
1353.8596825283648
 11
590.59434869035977
 21
1351.0596825283701
  0
LINE
  8
_0-3_躯体と製品
  6
CONTINUOUS
 62
    4
 10
590.59434869035977
 20
1351.0596825283701
 11
585.54434869036959
 21
1351.0596825283701
  0
LINE
  8
_0-3_躯体と製品
  6
CONTINUOUS
 62
    4
 10
585.54434869036959
 20
1353.8596825283648
 11
585.54434869036959
 21
1351.0596825283701
  0
LINE
  8
_0-3_躯体と製品
  6
CONTINUOUS
 62
    4
 10
636.54434869042973
 20
1353.8596825283648
 11
636.54434869042973
 21
1351.0596825283701
  0
LINE
  8
_0-3_躯体と製品
  6
CONTINUOUS
 62
    4
 10
636.54434869042973
 20
1351.0596825283701
 11
641.59434869041979
 21
1351.0596825283701
  0
LINE
  8
_0-3_躯体と製品
  6
CONTINUOUS
 62
    4
 10
641.59434869041979
 20
1353.8596825283648
 11
641.59434869041979
 21
1351.0596825283701
  0
LINE
  8
_0-3_躯体と製品
  6
CONTINUOUS
 62
    3
 10
621.06934869038923
 20
1353.8596825283648
 11
621.31934869038923
 21
1349.8596825283648
  0
LINE
  8
_0-3_躯体と製品
  6
CONTINUOUS
 62
    3
 10
621.31934869038923
 20
1349.8596825283648
 11
623.81934869038923
 21
1349.8596825283648
  0
LINE
  8
_0-3_躯体と製品
  6
CONTINUOUS
 62
    3
 10
623.81934869038923
 20
1349.8596825283648
 11
624.06934869038935
 21
1353.8596825283648
  0
LINE
  8
_0-3_躯体と製品
  6
CONTINUOUS
 62
    3
 10
606.06934869038923
 20
1353.8596825283648
 11
605.81934869038923
 21
1349.8596825283648
  0
LINE
  8
_0-3_躯体と製品
  6
CONTINUOUS
 62
    3
 10
605.81934869038923
 20
1349.8596825283648
 11
603.31934869038923
 21
1349.8596825283648
  0
LINE
  8
_0-3_躯体と製品
  6
CONTINUOUS
 62
    3
 10
603.31934869038923
 20
1349.8596825283648
 11
603.06934869038912
 21
1353.8596825283648
  0
LINE
  8
_0-3_躯体と製品
  6
CONTINUOUS
 62
    4
 10
849.77541651664978
 20
1243.3596825283607
 11
819.77541651664978
 21
1213.3596825283621
  0
LINE
  8
_0-3_躯体と製品
  6
CONTINUOUS
 62
    4
 10
859.77541651664978
 20
1243.3596825283607
 11
829.77541651664978
 21
1213.3596825283621
  0
LINE
  8
_0-3_躯体と製品
  6
CONTINUOUS
 62
    4
 10
869.77541651664978
 20
1243.3596825283607
 11
839.77541651664978
 21
1213.3596825283621
  0
LINE
  8
_0-3_躯体と製品
  6
CONTINUOUS
 62
    4
 10
1049.505051112219
 20
1243.3596825283607
 11
1019.5050511122299
 21
1213.3596825283621
  0
LINE
  8
_0-3_躯体と製品
  6
CONTINUOUS
 62
    4
 10
1059.505051112219
 20
1243.3596825283607
 11
1029.505051112219
 21
1213.3596825283621
  0
LINE
  8
_0-3_躯体と製品
  6
CONTINUOUS
 62
    4
 10
1069.505051112219
 20
1243.3596825283607
 11
1039.505051112219
 21
1213.3596825283621
  0
LINE
  8
_0-3_躯体と製品
  6
CONTINUOUS
 62
    4
 10
1249.505051112219
 20
1243.3596825283607
 11
1219.5050511122299
 21
1213.3596825283621
  0
LINE
  8
_0-3_躯体と製品
  6
CONTINUOUS
 62
    4
 10
1259.505051112219
 20
1243.3596825283607
 11
1229.505051112219
 21
1213.3596825283621
  0
LINE
  8
_0-3_躯体と製品
  6
CONTINUOUS
 62
    4
 10
1269.505051112219
 20
1243.3596825283607
 11
1239.505051112219
 21
1213.3596825283621
  0
LINE
  8
_0-3_躯体と製品
  6
CONTINUOUS
 62
    4
 10
1449.505051112219
 20
1243.3596825283607
 11
1419.5050511122299
 21
1213.3596825283621
  0
LINE
  8
_0-3_躯体と製品
  6
CONTINUOUS
 62
    4
 10
1459.505051112219
 20
1243.3596825283607
 11
1429.505051112219
 21
1213.3596825283621
  0
LINE
  8
_0-3_躯体と製品
  6
CONTINUOUS
 62
    4
 10
1469.505051112219
 20
1243.3596825283607
 11
1439.505051112219
 21
1213.3596825283621
  0
LINE
  8
_0-3_躯体と製品
  6
CONTINUOUS
 62
    4
 10
1649.7754165166498
 20
1243.3596825283607
 11
1619.7754165166607
 21
1213.3596825283621
  0
LINE
  8
_0-3_躯体と製品
  6
CONTINUOUS
 62
    4
 10
1659.7754165166498
 20
1243.3596825283607
 11
1629.7754165166498
 21
1213.3596825283621
  0
LINE
  8
_0-3_躯体と製品
  6
CONTINUOUS
 62
    4
 10
1669.7754165166498
 20
1243.3596825283607
 11
1639.7754165166607
 21
1213.3596825283621
  0
LINE
  8
_0-4_文字-記号
  6
CONTINUOUS
 62
    7
 10
1313.9645597946401
 20
1359.4941971989078
 11
1333.5256438505203
 21
1325.6134057630011
  0
LINE
  8
_0-4_文字-記号
  6
CONTINUOUS
 62
    7
 10
1333.5256438505203
 20
1325.6134057630011
 11
1463.2099339933102
 21
1325.6134057630011
  0
TEXT
  8
_0-4_文字-記号
 62
    7
 10
1339.24301890692
 20
1328.0249592286618
 40
10
 41
1
 50
0
  1
ＯＡパネル ５００角
  0
TEXT
  8
_0-4_文字-記号
 62
    7
 10
1097.4292122705501
 20
1296.86606606948
 40
10
 41
1
 50
0
  1
標準支持脚
  0
TEXT
  8
_0-4_文字-記号
 62
    7
 10
647.42737517271962
 20
1297.8250099321208
 40
10
 41
1
 50
0
  1
端部支持脚
  0
TEXT
  8
_0-4_文字-記号
 62
    7
 10
1112.0267579126794
 20
1196.2466536062448
 40
10
 41
1
 50
0
  1
接着固定 ピタワン（F☆☆☆☆品）
  0
LINE
  8
_0-4_文字-記号
  6
CONTINUOUS
 62
    7
 10
1073.0107763228607
 20
1243.3596825283671
 11
1103.0844408581706
 21
1191.27056758343
  0
LINE
  8
_0-4_文字-記号
  6
CONTINUOUS
 62
    7
 10
1103.0844408581706
 20
1191.27056758343
 11
1301.5725701906904
 21
1191.27056758343
  0
TEXT
  8
_0-4_文字-記号
 62
    7
 10
1091.8844079252103
 20
1428.8442424216519
 40
10
 41
1
 50
0
  1
ビス留め
  0
LINE
  8
_0-4_文字-記号
  6
CONTINUOUS
 62
    7
 10
1063.5693486903892
 20
1386.8596825283621
 11
1086.4724067763491
 21
1426.5289427819457
  0
LINE
  8
_0-4_文字-記号
  6
CONTINUOUS
 62
    7
 10
1086.4724067763491
 20
1426.5289427819457
 11
1148.4745759516591
 21
1426.5289427819457
  0
TEXT
  8
_0-4_文字-記号
 62
    7
 10
1248.5529756179603
 20
1428.8442424216519
 40
10
 41
1
 50
0
  1
タイルカーペット
  0
LINE
  8
_0-4_文字-記号
  6
CONTINUOUS
 62
    7
 10
1223.9799232623791
 20
1393.341028565475
 11
1243.1409744690991
 21
1426.5289427819457
  0
LINE
  8
_0-4_文字-記号
  6
CONTINUOUS
 62
    7
 10
1243.1409744690991
 20
1426.5289427819457
 11
1347.598692152289
 21
1426.5289427819457
  0
LINE
  8
_0-3_躯体と製品
  6
CONTINUOUS
 62
    7
 10
553.56934869038923
 20
1244.1596825283609
 11
488.56934869038923
 21
1244.1596825283609
  0
LINE
  8
_0-3_躯体と製品
  6
CONTINUOUS
 62
    7
 10
487.76934869038996
 20
1243.3596825283607
 11
487.76934869038996
 21
1283.3596825283607
  0
LINE
  8
_0-3_躯体と製品
  6
CONTINUOUS
 62
    7
 10
495.56934869038912
 20
1244.1596825283609
 11
495.56934869038912
 21
1529.9941971989588
  0
LINE
  8
_0-3_躯体と製品
  6
CONTINUOUS
 62
    7
 10
488.56934869038923
 20
1244.1596825283609
 11
488.56934869038923
 21
1529.9941971989588
  0
LINE
  8
_0-3_躯体と製品
  6
CONTINUOUS
 62
    7
 10
488.56934869038923
 20
1283.3596825283607
 11
487.76934869038996
 21
1283.3596825283607
  0
LINE
  8
_0-3_躯体と製品
  6
CONTINUOUS
 62
    7
 10
554.36934869039021
 20
1243.3596825283607
 11
554.36934869039021
 21
1283.3596825283607
  0
LINE
  8
_0-3_躯体と製品
  6
CONTINUOUS
 62
    7
 10
563.56934869038923
 20
1243.3596825283607
 11
563.56934869038923
 21
1529.9941971989588
  0
LINE
  8
_0-3_躯体と製品
  6
CONTINUOUS
 62
    7
 10
546.56934869038935
 20
1244.1596825283609
 11
546.56934869038935
 21
1529.9941971989588
  0
LINE
  8
_0-3_躯体と製品
  6
CONTINUOUS
 62
    7
 10
553.56934869038923
 20
1244.1596825283609
 11
553.56934869038923
 21
1529.9941971989588
  0
LINE
  8
_0-3_躯体と製品
  6
CONTINUOUS
 62
    7
 10
567.56934869038923
 20
1464.4941971989588
 11
567.56934869038923
 21
1396.4941971989588
  0
ARC
  8
_0-3_躯体と製品
  6
CONTINUOUS
 62
    7
 10
569.56934869038923
 20
1399.4941971989588
 40
6
 50
180
 51
270
  0
LINE
  8
_0-3_躯体と製品
  6
CONTINUOUS
 62
    7
 10
569.56934869038923
 20
1394.4941971989588
 11
569.56934869038923
 21
1393.4941971989588
  0
ARC
  8
_0-3_躯体と製品
  6
CONTINUOUS
 62
    7
 10
569.56934869038923
 20
1396.4941971989588
 40
2
 50
180
 51
270
  0
TEXT
  8
_0-4_文字-記号
 62
    7
 10
584.88985869039061
 20
1455.015096803801
 40
10
 41
1
 50
0
  1
巾　木
  0
LINE
  8
_0-3_躯体と製品
  6
CONTINUOUS
 62
    7
 10
553.56934869038923
 20
1283.3596825283607
 11
554.36934869039021
 21
1283.3596825283607
  0
LINE
  8
_0-4_文字-記号
  6
CONTINUOUS
 62
    7
 10
567.56934869038923
 20
1421.015096803801
 11
584.88985869039061
 21
1451.015096803801
  0
LINE
  8
_0-4_文字-記号
  6
CONTINUOUS
 62
    7
 10
584.88985869039061
 20
1451.015096803801
 11
621.00985869038959
 21
1451.015096803801
  0
ARC
  8
_0-3_躯体と製品
  6
CONTINUOUS
 62
    7
 10
563.56934869038923
 20
1464.4941971989588
 40
4
 50
0
 51
90
  0
LINE
  8
_0-4_文字-記号
  6
CONTINUOUS
 62
    7
 10
620.83528241396925
 20
1330.9446343712548
 11
641.60266303299977
 21
1294.9744759989799
  0
LINE
  8
_0-4_文字-記号
  6
CONTINUOUS
 62
    7
 10
641.60266303299977
 20
1294.9744759989799
 11
710.0011821031203
 21
1294.9909456077257
  0
LINE
  8
_0-4_文字-記号
  6
CONTINUOUS
 62
    7
 10
1072.1059541535396
 20
1329.4446343713007
 11
1092.8733347725702
 21
1293.4744759990249
  0
LINE
  8
_0-4_文字-記号
  6
CONTINUOUS
 62
    7
 10
1092.8733347725702
 20
1293.4744759990249
 11
1161.2718538426998
 21
1293.4909456077708
  0
TEXT
  8
_0-4_文字-記号
 62
    7
 10
1594.2280137771304
 20
1296.86606606948
 40
10
 41
1
 50
0
  1
標準支持脚
  0
LINE
  8
_0-4_文字-記号
  6
CONTINUOUS
 62
    7
 10
1568.904755660129
 20
1329.4446343713007
 11
1589.6721362791595
 21
1293.4744759990249
  0
LINE
  8
_0-4_文字-記号
  6
CONTINUOUS
 62
    7
 10
1589.6721362791595
 20
1293.4744759990249
 11
1658.0706553492801
 21
1293.4909456077708
  0
LINE
  8
_0-3_躯体と製品
  6
CONTINUOUS
 62
    3
 10
1068.5693486965301
 20
839.34570645720896
 11
1068.5693486965301
 21
908.54570644880505
  0
LINE
  8
_0-3_躯体と製品
  6
CONTINUOUS
 62
    3
 10
1058.5693486842501
 20
839.34570645720896
 11
1058.5693486842501
 21
908.54570644880505
  0
LINE
  8
_0-3_躯体と製品
  6
CONTINUOUS
 62
    3
 10
1070.5693486989803
 20
839.34570645720896
 11
1070.5693486989803
 21
908.54570644880505
  0
LINE
  8
_0-3_躯体と製品
  6
CONTINUOUS
 62
    3
 10
1056.569348681749
 20
839.34570645720896
 11
1056.569348681749
 21
908.54570644880505
  0
LINE
  8
_0-3_躯体と製品
  6
CONTINUOUS
 62
    3
 10
1101.0693487365206
 20
834.5457064513057
 11
1101.0693487365206
 21
832.54570644884598
  0
LINE
  8
_0-3_躯体と製品
  6
CONTINUOUS
 62
    3
 10
1026.0693486442597
 20
834.5457064513057
 11
1026.0693486442597
 21
832.54570644884598
  0
LINE
  8
_0-3_躯体と製品
  6
CONTINUOUS
 62
    3
 10
1026.0693486442597
 20
832.54570644884598
 11
1101.0693487365206
 21
832.54570644884598
  0
LINE
  8
_0-3_躯体と製品
  6
CONTINUOUS
 62
    3
 10
1051.7290611414701
 20
839.34570645720896
 11
1076.4262447750407
 21
839.34570645720896
  0
LINE
  8
_0-3_躯体と製品
  6
CONTINUOUS
 62
    3
 10
1035.170917320449
 20
836.5457064537718
 11
1091.0761669060194
 21
836.5457064537718
  0
LINE
  8
_0-3_躯体と製品
  6
CONTINUOUS
 62
    3
 10
1026.0693486442597
 20
834.5457064513057
 11
1101.0693487365206
 21
834.5457064513057
  0
LINE
  8
_0-3_躯体と製品
  6
CONTINUOUS
 62
    3
 10
1051.7290611414701
 20
836.5457064537718
 11
1051.7290611414701
 21
839.34570645720896
  0
LINE
  8
_0-3_躯体と製品
  6
CONTINUOUS
 62
    3
 10
1039.3193486605596
 20
835.64570645266485
 11
1040.7013490497193
 21
834.5457064513057
  0
LINE
  8
_0-3_躯体と製品
  6
CONTINUOUS
 62
    3
 10
1039.3193486605596
 20
835.64570645266485
 11
1030.3193486495002
 21
835.64570645266485
  0
LINE
  8
_0-3_躯体と製品
  6
CONTINUOUS
 62
    3
 10
1030.3193486495002
 20
835.64570645266485
 11
1028.9373486477707
 21
834.5457064513057
  0
LINE
  8
_0-3_躯体と製品
  6
CONTINUOUS
 62
    3
 10
1034.5490991378592
 20
835.64570645266485
 11
1035.170917320449
 21
836.5457064537718
  0
LINE
  8
_0-3_躯体と製品
  6
CONTINUOUS
 62
    3
 10
1076.4262447750407
 20
836.5457064537718
 11
1076.4262447750407
 21
839.34570645720896
  0
LINE
  8
_0-3_躯体と製品
  6
CONTINUOUS
 62
    3
 10
1096.8193487312801
 20
835.64570645266485
 11
1098.2013487329605
 21
834.5457064513057
  0
LINE
  8
_0-3_躯体と製品
  6
CONTINUOUS
 62
    3
 10
1087.8193487202207
 20
835.64570645266485
 11
1086.4373483310701
 21
834.5457064513057
  0
LINE
  8
_0-3_躯体と製品
  6
CONTINUOUS
 62
    3
 10
1091.0761669060194
 20
836.5457064537718
 11
1091.6979850886
 21
835.64570645266485
  0
LINE
  8
_0-3_躯体と製品
  6
CONTINUOUS
 62
    3
 10
1087.8193487202207
 20
835.64570645266485
 11
1096.8193487312801
 21
835.64570645266485
  0
LINE
  8
_0-3_躯体と製品
  6
CONTINUOUS
 62
    3
 10
1074.5693486903892
 20
916.04570644880505
 11
1074.5693486903892
 21
940.04570644880505
  0
LINE
  8
_0-3_躯体と製品
  6
CONTINUOUS
 62
    3
 10
1052.5693486903892
 20
916.04570644880505
 11
1052.5693486903892
 21
940.04570644880505
  0
LINE
  8
_0-3_躯体と製品
  6
CONTINUOUS
 62
    3
 10
1052.5693486903892
 20
916.04570644880505
 11
1074.5693486903892
 21
916.04570644880505
  0
LINE
  8
_0-3_躯体と製品
  6
CONTINUOUS
 62
    3
 10
1098.5693486903892
 20
947.04570644880505
 11
1028.5693486903892
 21
947.04570644880505
  0
LINE
  8
_0-3_躯体と製品
  6
CONTINUOUS
 62
    3
 10
1053.5693486904493
 20
966.54570644880505
 11
1053.5693486904493
 21
947.04570644880505
  0
LINE
  8
_0-3_躯体と製品
  6
CONTINUOUS
 62
    3
 10
1070.5693469318394
 20
948.02389081856199
 11
1070.0944162449905
 21
970.56739829036587
  0
LINE
  8
_0-3_躯体と製品
  6
CONTINUOUS
 62
    3
 10
1056.5693486888595
 20
948.02389093142574
 11
1057.0442838168092
 21
970.5675213338518
  0
LINE
  8
_0-3_躯体と製品
  6
CONTINUOUS
 62
    3
 10
1037.0693486904092
 20
940.04570644880505
 11
1037.0693486904092
 21
944.04570644880505
  0
LINE
  8
_0-3_躯体と製品
  6
CONTINUOUS
 62
    3
 10
1098.5693486903892
 20
940.04570644880505
 11
1028.5693486903892
 21
940.04570644880505
  0
LINE
  8
_0-3_躯体と製品
  6
CONTINUOUS
 62
    3
 10
1028.5693486903892
 20
944.04570644880505
 11
1098.5693486903892
 21
944.04570644880505
  0
LINE
  8
_0-3_躯体と製品
  6
CONTINUOUS
 62
    3
 10
1028.5693486903892
 20
940.04570644880505
 11
1028.5693486903892
 21
947.04570644880505
  0
LINE
  8
_0-3_躯体と製品
  6
CONTINUOUS
 62
    3
 10
1090.0693486904092
 20
944.04570644880505
 11
1090.0693486904092
 21
940.04570644880505
  0
LINE
  8
_0-3_躯体と製品
  6
CONTINUOUS
 62
    3
 10
1056.6720662523694
 20
947.04570586036971
 11
1056.6965172862892
 21
947.04645558855373
  0
ARC
  8
_0-3_躯体と製品
  6
CONTINUOUS
 62
    3
 10
1055.5695637394492
 20
948.04572723452793
 40
1.0000213744606741
 50
270.00141269522987
 51
358.74880180357087
  0
ARC
  8
_0-3_躯体と製品
  6
CONTINUOUS
 62
    3
 10
1071.5691318929494
 20
948.0457273845368
 40
1.0000216427943811
 50
181.25121323943884
 51
269.99862594469778
  0
LINE
  8
_0-3_躯体と製品
  6
CONTINUOUS
 62
    3
 10
1073.5693486904493
 20
966.54452452354371
 11
1073.5693486904493
 21
947.04570644880505
  0
LINE
  8
_0-3_躯体と製品
  6
CONTINUOUS
 62
    3
 10
1098.5693486903892
 20
940.04570644880505
 11
1098.5693486903892
 21
947.04570644880505
  0
LINE
  8
_0-3_躯体と製品
  6
CONTINUOUS
 62
    3
 10
1093.0693427524002
 20
948.02389001407391
 11
1093.0693427524002
 21
966.54452452354371
  0
ARC
  8
_0-3_躯体と製品
  6
CONTINUOUS
 62
    3
 10
1080.0695578029899
 20
948.04572723452793
 40
1.0000213744606741
 50
270.00141269522987
 51
358.74880180357087
  0
ARC
  8
_0-3_躯体と製品
  6
CONTINUOUS
 62
    3
 10
1094.0691259549494
 20
948.04572654167487
 40
1.0000216427943811
 50
181.25121323943884
 51
269.99862594469778
  0
LINE
  8
_0-3_躯体と製品
  6
CONTINUOUS
 62
    3
 10
1081.0693427524002
 20
948.02388749490501
 11
1081.0693427524002
 21
966.54452452354371
  0
LINE
  8
_0-3_躯体と製品
  6
CONTINUOUS
 62
    3
 10
1034.0693546283892
 20
948.02389001407391
 11
1034.0693546283892
 21
966.54452452354371
  0
ARC
  8
_0-3_躯体と製品
  6
CONTINUOUS
 62
    3
 10
1047.0691395777994
 20
948.04572723452793
 40
1.0000213744606741
 50
181.25119819642921
 51
269.99858730477013
  0
ARC
  8
_0-3_躯体と製品
  6
CONTINUOUS
 62
    3
 10
1033.0695714258291
 20
948.04572654167487
 40
1.0000216427943811
 50
270.00137405530222
 51
358.74878676056119
  0
LINE
  8
_0-3_躯体と製品
  6
CONTINUOUS
 62
    3
 10
1046.0693546283892
 20
948.02388749490501
 11
1046.0693546283892
 21
966.54452452354371
  0
LINE
  8
_0-3_躯体と製品
  6
CONTINUOUS
 62
    3
 10
1093.0693427348197
 20
948.02389081856199
 11
1081.0693407395793
 21
948.02389081856199
  0
LINE
  8
_0-3_躯体と製品
  6
CONTINUOUS
 62
    3
 10
1070.5693486912205
 20
948.02389081856199
 11
1056.5693466760404
 21
948.02389081856199
  0
LINE
  8
_0-3_躯体と製品
  6
CONTINUOUS
 62
    3
 10
1034.0693546459497
 20
948.02389081856199
 11
1046.0693566411992
 21
948.02389081856199
  0
LINE
  8
_0-3_躯体と製品
  6
CONTINUOUS
 62
    3
 10
1044.0693486904092
 20
940.04570644880505
 11
1044.0693486904092
 21
944.04570644880505
  0
LINE
  8
_0-3_躯体と製品
  6
CONTINUOUS
 62
    3
 10
1083.0693486904092
 20
944.04570644880505
 11
1083.0693486904092
 21
940.04570644880505
  0
ARC
  8
_0-3_躯体と製品
  6
CONTINUOUS
 62
    3
 10
1058.0440766826796
 20
970.54567492942306
 40
1.000031519520032
 50
90.000914411585455
 51
178.74823310219011
  0
ARC
  8
_0-3_躯体と製品
  6
CONTINUOUS
 62
    3
 10
1069.0946206980898
 20
970.54567492941487
 40
1.000031519520032
 50
1.2517668978098311
 51
89.999085588414502
  0
LINE
  8
_0-3_躯体と製品
  6
CONTINUOUS
 62
    4
 10
1054.8193486903892
 20
972.04570644880505
 11
1054.8193486903892
 21
966.54570644880505
  0
LINE
  8
_0-3_躯体と製品
  6
CONTINUOUS
 62
    4
 10
1033.6730497120298
 20
966.54452452354371
 11
1056.3193486903892
 21
966.54452452354371
  0
LINE
  8
_0-3_躯体と製品
  6
CONTINUOUS
 62
    4
 10
1063.3193486903892
 20
976.04570644880505
 11
1063.8193486903892
 21
976.04570644880505
  0
LINE
  8
_0-3_躯体と製品
  6
CONTINUOUS
 62
    4
 10
1063.8193486903892
 20
976.04570644880505
 11
1063.8193486903892
 21
972.04570644880505
  0
LINE
  8
_0-3_躯体と製品
  6
CONTINUOUS
 62
    4
 10
1063.3193486903892
 20
976.04570644880505
 11
1063.3193486903892
 21
972.04570644880505
  0
LINE
  8
_0-3_躯体と製品
  6
CONTINUOUS
 62
    4
 10
1056.3193486903892
 20
971.54570644880596
 11
1056.3193486903892
 21
966.54452452354371
  0
LINE
  8
_0-3_躯体と製品
  6
CONTINUOUS
 62
    4
 10
1056.3193486903892
 20
971.54570644880596
 11
1070.8193486903892
 21
971.54570644880596
  0
LINE
  8
_0-3_躯体と製品
  6
CONTINUOUS
 62
    4
 10
1093.4656476687505
 20
966.54452452354371
 11
1070.8193486903892
 21
966.54452452354371
  0
LINE
  8
_0-3_躯体と製品
  6
CONTINUOUS
 62
    4
 10
1070.8193486903892
 20
971.54570644880596
 11
1070.8193486903892
 21
966.54178591119671
  0
LINE
  8
_0-3_躯体と製品
  6
CONTINUOUS
 62
    4
 10
1094.0693486903892
 20
972.04570644880505
 11
1033.0693486903892
 21
972.04570644880505
  0
LINE
  8
_0-3_躯体と製品
  6
CONTINUOUS
 62
    4
 10
1077.0693486903892
 20
972.04570644880505
 11
1077.0693486903892
 21
976.04570644880505
  0
LINE
  8
_0-3_躯体と製品
  6
CONTINUOUS
 62
    4
 10
1072.3193486903892
 20
972.04570644880505
 11
1072.3193486903892
 21
966.54570644880505
  0
LINE
  8
_0-3_躯体と製品
  6
CONTINUOUS
 62
    4
 10
1085.8193486903892
 20
976.04570644880505
 11
1077.0693486903892
 21
976.04570644880505
  0
LINE
  8
_0-3_躯体と製品
  6
CONTINUOUS
 62
    4
 10
1085.8193486903892
 20
972.04570644880505
 11
1085.8193486903892
 21
976.04570644880505
  0
LINE
  8
_0-3_躯体と製品
  6
CONTINUOUS
 62
    4
 10
1048.4139041241597
 20
972.04570644880505
 11
1048.4139041241597
 21
966.54570644880505
  0
LINE
  8
_0-3_躯体と製品
  6
CONTINUOUS
 62
    4
 10
1078.7247932566097
 20
972.04570644880505
 11
1078.7247932566097
 21
966.54570644880505
  0
LINE
  8
_0-3_躯体と製品
  6
CONTINUOUS
 62
    4
 10
1050.0693486903892
 20
972.04570644880505
 11
1050.0693486903892
 21
976.04570644880505
  0
LINE
  8
_0-3_躯体と製品
  6
CONTINUOUS
 62
    4
 10
1041.3193486903892
 20
976.04570644880505
 11
1050.0693486903892
 21
976.04570644880505
  0
LINE
  8
_0-3_躯体と製品
  6
CONTINUOUS
 62
    4
 10
1041.3193486903892
 20
972.04570644880505
 11
1041.3193486903892
 21
976.04570644880505
  0
LINE
  8
_0-3_躯体と製品
  6
CONTINUOUS
 62
    4
 10
1033.0693486903892
 20
976.04570644880505
 11
1038.8193486903892
 21
976.04570644880505
  0
LINE
  8
_0-3_躯体と製品
  6
CONTINUOUS
 62
    4
 10
1038.8193486903892
 20
972.04570644880505
 11
1038.8193486903892
 21
976.04570644880505
  0
LINE
  8
_0-3_躯体と製品
  6
CONTINUOUS
 62
    4
 10
1033.0693486903892
 20
971.54570644880596
 11
1033.0693486903892
 21
976.04570644880505
  0
LINE
  8
_0-3_躯体と製品
  6
CONTINUOUS
 62
    4
 10
1034.0693486903892
 20
972.04570644880505
 11
1034.0693486903892
 21
966.54452452354371
  0
LINE
  8
_0-3_躯体と製品
  6
CONTINUOUS
 62
    4
 10
1033.6730497120298
 20
971.54570644880596
 11
1033.0693486903892
 21
971.54570644880596
  0
LINE
  8
_0-3_躯体と製品
  6
CONTINUOUS
 62
    4
 10
1033.6730497120298
 20
971.54570644880596
 11
1033.6730497120298
 21
966.54452452354371
  0
LINE
  8
_0-3_躯体と製品
  6
CONTINUOUS
 62
    4
 10
1094.0693486903892
 20
976.04570644880505
 11
1088.3193486903892
 21
976.04570644880505
  0
LINE
  8
_0-3_躯体と製品
  6
CONTINUOUS
 62
    4
 10
1088.3193486903892
 20
972.04570644880505
 11
1088.3193486903892
 21
976.04570644880505
  0
LINE
  8
_0-3_躯体と製品
  6
CONTINUOUS
 62
    4
 10
1094.0693486903892
 20
971.54570644880596
 11
1094.0693486903892
 21
976.04570644880505
  0
LINE
  8
_0-3_躯体と製品
  6
CONTINUOUS
 62
    4
 10
1093.0693486903892
 20
972.04570644880505
 11
1093.0693486903892
 21
966.54452452354371
  0
LINE
  8
_0-3_躯体と製品
  6
CONTINUOUS
 62
    4
 10
1093.4656476687505
 20
971.54570644880596
 11
1094.0693486903892
 21
971.54570644880596
  0
LINE
  8
_0-3_躯体と製品
  6
CONTINUOUS
 62
    4
 10
1093.4656476687505
 20
971.54570644880596
 11
1093.4656476687505
 21
966.54452452354371
  0
LINE
  8
_0-5_中心線
  6
CENTER1
 62
    7
 10
1063.5693486903892
 20
981.71486682281602
 11
1063.5693486903892
 21
829.1653203665287
  0
LINE
  8
_0-3_躯体と製品
  6
CONTINUOUS
 62
    6
 10
1076.5693486903601
 20
912.34251207820307
 11
1076.5693486903601
 21
909.54570644880505
  0
LINE
  8
_0-3_躯体と製品
  6
CONTINUOUS
 62
    6
 10
1076.5693486903601
 20
909.54570644880505
 11
1014.5693486903601
 21
909.54570644880505
  0
LINE
  8
_0-3_躯体と製品
  6
CONTINUOUS
 62
    6
 10
1014.5693486903601
 20
909.54570644880505
 11
1014.5693486903601
 21
912.34251207820307
  0
ARC
  8
_0-3_躯体と製品
  6
CONTINUOUS
 62
    6
 10
1015.7725430609661
 20
912.34251207819921
 40
1.2031943706058355
 50
89.999999999815586
 51
179.9999999998156
  0
LINE
  8
_0-3_躯体と製品
  6
CONTINUOUS
 62
    6
 10
1015.7725430609698
 20
913.54570644880505
 11
1075.3661543197504
 21
913.54570644880505
  0
LINE
  8
_0-3_躯体と製品
  6
CONTINUOUS
 62
    6
 10
1075.3661543197504
 20
913.54570644880505
 11
1076.5693486903601
 21
912.34251207820307
  0
LINE
  8
_0-3_躯体と製品
  6
CONTINUOUS
 62
    6
 10
1056.0693486903601
 20
909.54570644880505
 11
1056.0693486903601
 21
908.54570644880505
  0
LINE
  8
_0-3_躯体と製品
  6
CONTINUOUS
 62
    6
 10
1056.0693486903601
 20
908.54570644880505
 11
1071.0693486903601
 21
908.54570644880505
  0
LINE
  8
_0-3_躯体と製品
  6
CONTINUOUS
 62
    6
 10
1071.0693486903601
 20
908.54570644880505
 11
1071.0693486903601
 21
909.54570644880505
  0
LINE
  8
_0-3_躯体と製品
  6
CONTINUOUS
 62
    6
 10
1076.5693486903601
 20
915.52501844880771
 11
1076.5693486904001
 21
914.06639444880193
  0
ARC
  8
_0-3_躯体と製品
  6
CONTINUOUS
 62
    6
 10
1076.0486606904014
 20
914.06639444880375
 40
0.5206879999987278
 50
269.99999999979673
 51
359.99999999979673
  0
LINE
  8
_0-3_躯体と製品
  6
CONTINUOUS
 62
    6
 10
1076.0486606903996
 20
913.54570644880505
 11
1051.0900366903807
 21
913.54570644880505
  0
ARC
  8
_0-3_躯体と製品
  6
CONTINUOUS
 62
    6
 10
1051.0900366903688
 20
914.06639444881364
 40
0.5206880000086754
 50
180.00000000129793
 51
270.00000000129791
  0
LINE
  8
_0-3_躯体と製品
  6
CONTINUOUS
 62
    6
 10
1050.5693486903601
 20
914.06639444880193
 11
1050.5693486903892
 21
915.52501844880771
  0
ARC
  8
_0-3_躯体と製品
  6
CONTINUOUS
 62
    6
 10
1051.0900366903836
 20
915.52501844881078
 40
0.5206879999943224
 50
90.000000000328384
 51
180.00000000032838
  0
LINE
  8
_0-3_躯体と製品
  6
CONTINUOUS
 62
    6
 10
1051.0900366903807
 20
916.04570644880505
 11
1076.0486606903996
 21
916.04570644880505
  0
LINE
  8
_0-3_躯体と製品
  6
CONTINUOUS
 62
    6
 10
1076.0486606903996
 20
916.04570644880505
 11
1076.5693486903601
 21
915.52501844880771
  0
LINE
  8
_0-3_躯体と製品
  6
CONTINUOUS
 62
    3
 10
1568.5693486965301
 20
839.34570645720896
 11
1568.5693486965301
 21
908.54570644880505
  0
LINE
  8
_0-3_躯体と製品
  6
CONTINUOUS
 62
    3
 10
1558.5693486842501
 20
839.34570645720896
 11
1558.5693486842501
 21
908.54570644880505
  0
LINE
  8
_0-3_躯体と製品
  6
CONTINUOUS
 62
    3
 10
1570.5693486989803
 20
839.34570645720896
 11
1570.5693486989803
 21
908.54570644880505
  0
LINE
  8
_0-3_躯体と製品
  6
CONTINUOUS
 62
    3
 10
1556.569348681749
 20
839.34570645720896
 11
1556.569348681749
 21
908.54570644880505
  0
LINE
  8
_0-3_躯体と製品
  6
CONTINUOUS
 62
    3
 10
1601.0693487365206
 20
834.5457064513057
 11
1601.0693487365206
 21
832.54570644884598
  0
LINE
  8
_0-3_躯体と製品
  6
CONTINUOUS
 62
    3
 10
1526.0693486442597
 20
834.5457064513057
 11
1526.0693486442597
 21
832.54570644884598
  0
LINE
  8
_0-3_躯体と製品
  6
CONTINUOUS
 62
    3
 10
1526.0693486442597
 20
832.54570644884598
 11
1601.0693487365206
 21
832.54570644884598
  0
LINE
  8
_0-3_躯体と製品
  6
CONTINUOUS
 62
    3
 10
1551.7290611414701
 20
839.34570645720896
 11
1576.4262447750407
 21
839.34570645720896
  0
LINE
  8
_0-3_躯体と製品
  6
CONTINUOUS
 62
    3
 10
1535.1709173204399
 20
836.5457064537718
 11
1591.0761669060194
 21
836.5457064537718
  0
LINE
  8
_0-3_躯体と製品
  6
CONTINUOUS
 62
    3
 10
1526.0693486442597
 20
834.5457064513057
 11
1601.0693487365206
 21
834.5457064513057
  0
LINE
  8
_0-3_躯体と製品
  6
CONTINUOUS
 62
    3
 10
1551.7290611414701
 20
836.5457064537718
 11
1551.7290611414701
 21
839.34570645720896
  0
LINE
  8
_0-3_躯体と製品
  6
CONTINUOUS
 62
    3
 10
1539.3193486605596
 20
835.64570645266485
 11
1540.7013490497193
 21
834.5457064513057
  0
LINE
  8
_0-3_躯体と製品
  6
CONTINUOUS
 62
    3
 10
1539.3193486605596
 20
835.64570645266485
 11
1530.3193486495002
 21
835.64570645266485
  0
LINE
  8
_0-3_躯体と製品
  6
CONTINUOUS
 62
    3
 10
1530.3193486495002
 20
835.64570645266485
 11
1528.9373486477707
 21
834.5457064513057
  0
LINE
  8
_0-3_躯体と製品
  6
CONTINUOUS
 62
    3
 10
1534.5490991378592
 20
835.64570645266485
 11
1535.1709173204399
 21
836.5457064537718
  0
LINE
  8
_0-3_躯体と製品
  6
CONTINUOUS
 62
    3
 10
1576.4262447750407
 20
836.5457064537718
 11
1576.4262447750407
 21
839.34570645720896
  0
LINE
  8
_0-3_躯体と製品
  6
CONTINUOUS
 62
    3
 10
1596.8193487312801
 20
835.64570645266485
 11
1598.2013487329496
 21
834.5457064513057
  0
LINE
  8
_0-3_躯体と製品
  6
CONTINUOUS
 62
    3
 10
1587.8193487202207
 20
835.64570645266485
 11
1586.4373483310592
 21
834.5457064513057
  0
LINE
  8
_0-3_躯体と製品
  6
CONTINUOUS
 62
    3
 10
1591.0761669060194
 20
836.5457064537718
 11
1591.6979850886
 21
835.64570645266485
  0
LINE
  8
_0-3_躯体と製品
  6
CONTINUOUS
 62
    3
 10
1587.8193487202207
 20
835.64570645266485
 11
1596.8193487312801
 21
835.64570645266485
  0
LINE
  8
_0-3_躯体と製品
  6
CONTINUOUS
 62
    3
 10
1574.5693486903892
 20
916.04570644880505
 11
1574.5693486903892
 21
940.04570644880505
  0
LINE
  8
_0-3_躯体と製品
  6
CONTINUOUS
 62
    3
 10
1552.5693486903892
 20
916.04570644880505
 11
1552.5693486903892
 21
940.04570644880505
  0
LINE
  8
_0-3_躯体と製品
  6
CONTINUOUS
 62
    3
 10
1552.5693486903892
 20
916.04570644880505
 11
1574.5693486903892
 21
916.04570644880505
  0
LINE
  8
_0-3_躯体と製品
  6
CONTINUOUS
 62
    3
 10
1598.5693486903892
 20
947.04570644880505
 11
1528.5693486903892
 21
947.04570644880505
  0
LINE
  8
_0-3_躯体と製品
  6
CONTINUOUS
 62
    3
 10
1553.5693486904493
 20
966.54570644880505
 11
1553.5693486904493
 21
947.04570644880505
  0
LINE
  8
_0-3_躯体と製品
  6
CONTINUOUS
 62
    3
 10
1570.5693469318394
 20
948.02389081856199
 11
1570.0944162449905
 21
970.56739829036587
  0
LINE
  8
_0-3_躯体と製品
  6
CONTINUOUS
 62
    3
 10
1556.5693486888595
 20
948.02389093142574
 11
1557.0442838168092
 21
970.5675213338518
  0
LINE
  8
_0-3_躯体と製品
  6
CONTINUOUS
 62
    3
 10
1537.0693486904092
 20
940.04570644880505
 11
1537.0693486904092
 21
944.04570644880505
  0
LINE
  8
_0-3_躯体と製品
  6
CONTINUOUS
 62
    3
 10
1598.5693486903892
 20
940.04570644880505
 11
1528.5693486903892
 21
940.04570644880505
  0
LINE
  8
_0-3_躯体と製品
  6
CONTINUOUS
 62
    3
 10
1528.5693486903892
 20
944.04570644880505
 11
1598.5693486903892
 21
944.04570644880505
  0
LINE
  8
_0-3_躯体と製品
  6
CONTINUOUS
 62
    3
 10
1528.5693486903892
 20
940.04570644880505
 11
1528.5693486903892
 21
947.04570644880505
  0
LINE
  8
_0-3_躯体と製品
  6
CONTINUOUS
 62
    3
 10
1590.0693486904092
 20
944.04570644880505
 11
1590.0693486904092
 21
940.04570644880505
  0
LINE
  8
_0-3_躯体と製品
  6
CONTINUOUS
 62
    3
 10
1556.6720662523694
 20
947.04570586036971
 11
1556.6965172862892
 21
947.04645558855373
  0
ARC
  8
_0-3_躯体と製品
  6
CONTINUOUS
 62
    3
 10
1555.5695637394601
 20
948.04572723452793
 40
1.0000213744606741
 50
270.00141269522987
 51
358.74880180357087
  0
ARC
  8
_0-3_躯体と製品
  6
CONTINUOUS
 62
    3
 10
1571.5691318929494
 20
948.0457273845368
 40
1.0000216427943811
 50
181.25121323943884
 51
269.99862594469778
  0
LINE
  8
_0-3_躯体と製品
  6
CONTINUOUS
 62
    3
 10
1573.5693486904493
 20
966.54452452354371
 11
1573.5693486904493
 21
947.04570644880505
  0
LINE
  8
_0-3_躯体と製品
  6
CONTINUOUS
 62
    3
 10
1598.5693486903892
 20
940.04570644880505
 11
1598.5693486903892
 21
947.04570644880505
  0
LINE
  8
_0-3_躯体と製品
  6
CONTINUOUS
 62
    3
 10
1593.0693427524002
 20
948.02389001407391
 11
1593.0693427524002
 21
966.54452452354371
  0
ARC
  8
_0-3_躯体と製品
  6
CONTINUOUS
 62
    3
 10
1580.0695578029899
 20
948.04572723452793
 40
1.0000213744606741
 50
270.00141269522987
 51
358.74880180357087
  0
ARC
  8
_0-3_躯体と製品
  6
CONTINUOUS
 62
    3
 10
1594.0691259549494
 20
948.04572654167487
 40
1.0000216427943811
 50
181.25121323943884
 51
269.99862594469778
  0
LINE
  8
_0-3_躯体と製品
  6
CONTINUOUS
 62
    3
 10
1581.0693427524002
 20
948.02388749490501
 11
1581.0693427524002
 21
966.54452452354371
  0
LINE
  8
_0-3_躯体と製品
  6
CONTINUOUS
 62
    3
 10
1534.0693546283892
 20
948.02389001407391
 11
1534.0693546283892
 21
966.54452452354371
  0
ARC
  8
_0-3_躯体と製品
  6
CONTINUOUS
 62
    3
 10
1547.0691395777994
 20
948.04572723452793
 40
1.0000213744606741
 50
181.25119819642921
 51
269.99858730477013
  0
ARC
  8
_0-3_躯体と製品
  6
CONTINUOUS
 62
    3
 10
1533.0695714258291
 20
948.04572654167487
 40
1.0000216427943811
 50
270.00137405530222
 51
358.74878676056119
  0
LINE
  8
_0-3_躯体と製品
  6
CONTINUOUS
 62
    3
 10
1546.0693546283892
 20
948.02388749490501
 11
1546.0693546283892
 21
966.54452452354371
  0
LINE
  8
_0-3_躯体と製品
  6
CONTINUOUS
 62
    3
 10
1593.0693427348197
 20
948.02389081856199
 11
1581.0693407395793
 21
948.02389081856199
  0
LINE
  8
_0-3_躯体と製品
  6
CONTINUOUS
 62
    3
 10
1570.5693486912205
 20
948.02389081856199
 11
1556.5693466760404
 21
948.02389081856199
  0
LINE
  8
_0-3_躯体と製品
  6
CONTINUOUS
 62
    3
 10
1534.0693546459497
 20
948.02389081856199
 11
1546.0693566411901
 21
948.02389081856199
  0
LINE
  8
_0-3_躯体と製品
  6
CONTINUOUS
 62
    3
 10
1544.0693486904092
 20
940.04570644880505
 11
1544.0693486904092
 21
944.04570644880505
  0
LINE
  8
_0-3_躯体と製品
  6
CONTINUOUS
 62
    3
 10
1583.0693486904092
 20
944.04570644880505
 11
1583.0693486904092
 21
940.04570644880505
  0
ARC
  8
_0-3_躯体と製品
  6
CONTINUOUS
 62
    3
 10
1558.0440766826796
 20
970.54567492942306
 40
1.000031519520032
 50
90.000914411585455
 51
178.74823310219011
  0
ARC
  8
_0-3_躯体と製品
  6
CONTINUOUS
 62
    3
 10
1569.0946206980898
 20
970.54567492941487
 40
1.000031519520032
 50
1.2517668978098311
 51
89.999085588414502
  0
LINE
  8
_0-3_躯体と製品
  6
CONTINUOUS
 62
    4
 10
1554.8193486903892
 20
972.04570644880505
 11
1554.8193486903892
 21
966.54570644880505
  0
LINE
  8
_0-3_躯体と製品
  6
CONTINUOUS
 62
    4
 10
1533.6730497120298
 20
966.54452452354371
 11
1556.3193486903892
 21
966.54452452354371
  0
LINE
  8
_0-3_躯体と製品
  6
CONTINUOUS
 62
    4
 10
1563.3193486903892
 20
976.04570644880505
 11
1563.8193486903892
 21
976.04570644880505
  0
LINE
  8
_0-3_躯体と製品
  6
CONTINUOUS
 62
    4
 10
1563.8193486903892
 20
976.04570644880505
 11
1563.8193486903892
 21
972.04570644880505
  0
LINE
  8
_0-3_躯体と製品
  6
CONTINUOUS
 62
    4
 10
1563.3193486903892
 20
976.04570644880505
 11
1563.3193486903892
 21
972.04570644880505
  0
LINE
  8
_0-3_躯体と製品
  6
CONTINUOUS
 62
    4
 10
1556.3193486903892
 20
971.54570644880596
 11
1556.3193486903892
 21
966.54452452354371
  0
LINE
  8
_0-3_躯体と製品
  6
CONTINUOUS
 62
    4
 10
1556.3193486903892
 20
971.54570644880596
 11
1570.8193486903892
 21
971.54570644880596
  0
LINE
  8
_0-3_躯体と製品
  6
CONTINUOUS
 62
    4
 10
1593.4656476687505
 20
966.54452452354371
 11
1570.8193486903892
 21
966.54452452354371
  0
LINE
  8
_0-3_躯体と製品
  6
CONTINUOUS
 62
    4
 10
1570.8193486903892
 20
971.54570644880596
 11
1570.8193486903892
 21
966.54178591119671
  0
LINE
  8
_0-3_躯体と製品
  6
CONTINUOUS
 62
    4
 10
1594.0693486903892
 20
972.04570644880505
 11
1533.0693486903892
 21
972.04570644880505
  0
LINE
  8
_0-3_躯体と製品
  6
CONTINUOUS
 62
    4
 10
1577.0693486903892
 20
972.04570644880505
 11
1577.0693486903892
 21
976.04570644880505
  0
LINE
  8
_0-3_躯体と製品
  6
CONTINUOUS
 62
    4
 10
1572.3193486903892
 20
972.04570644880505
 11
1572.3193486903892
 21
966.54570644880505
  0
LINE
  8
_0-3_躯体と製品
  6
CONTINUOUS
 62
    4
 10
1585.8193486903892
 20
976.04570644880505
 11
1577.0693486903892
 21
976.04570644880505
  0
LINE
  8
_0-3_躯体と製品
  6
CONTINUOUS
 62
    4
 10
1585.8193486903892
 20
972.04570644880505
 11
1585.8193486903892
 21
976.04570644880505
  0
LINE
  8
_0-3_躯体と製品
  6
CONTINUOUS
 62
    4
 10
1548.4139041241597
 20
972.04570644880505
 11
1548.4139041241597
 21
966.54570644880505
  0
LINE
  8
_0-3_躯体と製品
  6
CONTINUOUS
 62
    4
 10
1578.7247932566097
 20
972.04570644880505
 11
1578.7247932566097
 21
966.54570644880505
  0
LINE
  8
_0-3_躯体と製品
  6
CONTINUOUS
 62
    4
 10
1550.0693486903892
 20
972.04570644880505
 11
1550.0693486903892
 21
976.04570644880505
  0
LINE
  8
_0-3_躯体と製品
  6
CONTINUOUS
 62
    4
 10
1541.3193486903892
 20
976.04570644880505
 11
1550.0693486903892
 21
976.04570644880505
  0
LINE
  8
_0-3_躯体と製品
  6
CONTINUOUS
 62
    4
 10
1541.3193486903892
 20
972.04570644880505
 11
1541.3193486903892
 21
976.04570644880505
  0
LINE
  8
_0-3_躯体と製品
  6
CONTINUOUS
 62
    4
 10
1533.0693486903892
 20
976.04570644880505
 11
1538.8193486903892
 21
976.04570644880505
  0
LINE
  8
_0-3_躯体と製品
  6
CONTINUOUS
 62
    4
 10
1538.8193486903892
 20
972.04570644880505
 11
1538.8193486903892
 21
976.04570644880505
  0
LINE
  8
_0-3_躯体と製品
  6
CONTINUOUS
 62
    4
 10
1533.0693486903892
 20
971.54570644880596
 11
1533.0693486903892
 21
976.04570644880505
  0
LINE
  8
_0-3_躯体と製品
  6
CONTINUOUS
 62
    4
 10
1534.0693486903892
 20
972.04570644880505
 11
1534.0693486903892
 21
966.54452452354371
  0
LINE
  8
_0-3_躯体と製品
  6
CONTINUOUS
 62
    4
 10
1533.6730497120298
 20
971.54570644880596
 11
1533.0693486903892
 21
971.54570644880596
  0
LINE
  8
_0-3_躯体と製品
  6
CONTINUOUS
 62
    4
 10
1533.6730497120298
 20
971.54570644880596
 11
1533.6730497120298
 21
966.54452452354371
  0
LINE
  8
_0-3_躯体と製品
  6
CONTINUOUS
 62
    4
 10
1594.0693486903801
 20
976.04570644880505
 11
1588.3193486903892
 21
976.04570644880505
  0
LINE
  8
_0-3_躯体と製品
  6
CONTINUOUS
 62
    4
 10
1588.3193486903892
 20
972.04570644880505
 11
1588.3193486903892
 21
976.04570644880505
  0
LINE
  8
_0-3_躯体と製品
  6
CONTINUOUS
 62
    4
 10
1594.0693486903801
 20
971.54570644880596
 11
1594.0693486903801
 21
976.04570644880505
  0
LINE
  8
_0-3_躯体と製品
  6
CONTINUOUS
 62
    4
 10
1593.0693486903892
 20
972.04570644880505
 11
1593.0693486903892
 21
966.54452452354371
  0
LINE
  8
_0-3_躯体と製品
  6
CONTINUOUS
 62
    4
 10
1593.4656476687505
 20
971.54570644880596
 11
1594.0693486903892
 21
971.54570644880596
  0
LINE
  8
_0-3_躯体と製品
  6
CONTINUOUS
 62
    4
 10
1593.4656476687505
 20
971.54570644880596
 11
1593.4656476687505
 21
966.54452452354371
  0
LINE
  8
_0-5_中心線
  6
CENTER1
 62
    7
 10
1563.5693486903892
 20
981.71486682281602
 11
1563.5693486903892
 21
829.1653203665287
  0
LINE
  8
_0-3_躯体と製品
  6
CONTINUOUS
 62
    6
 10
1576.5693486903601
 20
912.34251207820307
 11
1576.5693486903601
 21
909.54570644880505
  0
LINE
  8
_0-3_躯体と製品
  6
CONTINUOUS
 62
    6
 10
1576.5693486903601
 20
909.54570644880505
 11
1514.5693486903601
 21
909.54570644880505
  0
LINE
  8
_0-3_躯体と製品
  6
CONTINUOUS
 62
    6
 10
1514.5693486903601
 20
909.54570644880505
 11
1514.5693486903601
 21
912.34251207820307
  0
ARC
  8
_0-3_躯体と製品
  6
CONTINUOUS
 62
    6
 10
1515.772543060966
 20
912.34251207819921
 40
1.2031943706058355
 50
89.999999999815586
 51
179.9999999998156
  0
LINE
  8
_0-3_躯体と製品
  6
CONTINUOUS
 62
    6
 10
1515.7725430609698
 20
913.54570644880505
 11
1575.3661543197504
 21
913.54570644880505
  0
LINE
  8
_0-3_躯体と製品
  6
CONTINUOUS
 62
    6
 10
1575.3661543197504
 20
913.54570644880505
 11
1576.5693486903601
 21
912.34251207820307
  0
LINE
  8
_0-3_躯体と製品
  6
CONTINUOUS
 62
    6
 10
1556.0693486903601
 20
909.54570644880505
 11
1556.0693486903601
 21
908.54570644880505
  0
LINE
  8
_0-3_躯体と製品
  6
CONTINUOUS
 62
    6
 10
1556.0693486903601
 20
908.54570644880505
 11
1571.0693486903601
 21
908.54570644880505
  0
LINE
  8
_0-3_躯体と製品
  6
CONTINUOUS
 62
    6
 10
1571.0693486903601
 20
908.54570644880505
 11
1571.0693486903601
 21
909.54570644880505
  0
LINE
  8
_0-3_躯体と製品
  6
CONTINUOUS
 62
    6
 10
1576.5693486903601
 20
915.52501844880771
 11
1576.5693486904001
 21
914.06639444880193
  0
ARC
  8
_0-3_躯体と製品
  6
CONTINUOUS
 62
    6
 10
1576.0486606904014
 20
914.06639444880375
 40
0.5206879999986925
 50
269.99999999980059
 51
359.99999999980059
  0
LINE
  8
_0-3_躯体と製品
  6
CONTINUOUS
 62
    6
 10
1576.0486606903996
 20
913.54570644880505
 11
1551.0900366903807
 21
913.54570644880505
  0
ARC
  8
_0-3_躯体と製品
  6
CONTINUOUS
 62
    6
 10
1551.0900366903688
 20
914.06639444881375
 40
0.5206880000087111
 50
180.00000000130183
 51
270.00000000130183
  0
LINE
  8
_0-3_躯体と製品
  6
CONTINUOUS
 62
    6
 10
1550.5693486903601
 20
914.06639444880193
 11
1550.5693486903892
 21
915.52501844880771
  0
ARC
  8
_0-3_躯体と製品
  6
CONTINUOUS
 62
    6
 10
1551.0900366903838
 20
915.52501844881078
 40
0.520687999994358
 50
90.000000000324462
 51
180.00000000032446
  0
LINE
  8
_0-3_躯体と製品
  6
CONTINUOUS
 62
    6
 10
1551.0900366903807
 20
916.04570644880505
 11
1576.0486606903996
 21
916.04570644880505
  0
LINE
  8
_0-3_躯体と製品
  6
CONTINUOUS
 62
    6
 10
1576.0486606903996
 20
916.04570644880505
 11
1576.5693486903601
 21
915.52501844880771
  0
LINE
  8
_0-3_躯体と製品
  6
CONTINUOUS
 62
    7
 10
657.7693489991799
 20
832.54570644884598
 11
1738.5693486903892
 21
832.54570644884598
  0
LINE
  8
_0-3_躯体と製品
  6
CONTINUOUS
 62
    2
 10
738.56934869038923
 20
947.04570644880687
 11
738.56934869038923
 21
976.04570644885098
  0
LINE
  8
_0-3_躯体と製品
  6
CONTINUOUS
 62
    3
 10
793.56934869653003
 20
839.34570645720896
 11
793.56934869653003
 21
907.54570644880687
  0
LINE
  8
_0-3_躯体と製品
  6
CONTINUOUS
 62
    3
 10
783.56934868425014
 20
839.34570645720896
 11
783.56934868425014
 21
907.54570644880687
  0
LINE
  8
_0-3_躯体と製品
  6
CONTINUOUS
 62
    3
 10
795.56934869898043
 20
839.34570645720896
 11
795.56934869898043
 21
907.54570644880687
  0
LINE
  8
_0-3_躯体と製品
  6
CONTINUOUS
 62
    3
 10
781.56934868174915
 20
839.34570645720896
 11
781.56934868174915
 21
907.54570644880687
  0
LINE
  8
_0-3_躯体と製品
  6
CONTINUOUS
 62
    3
 10
826.06934873652062
 20
834.5457064513057
 11
826.06934873652062
 21
832.54570644884598
  0
LINE
  8
_0-3_躯体と製品
  6
CONTINUOUS
 62
    3
 10
751.06934864425966
 20
834.5457064513057
 11
751.06934864425966
 21
832.54570644884598
  0
LINE
  8
_0-3_躯体と製品
  6
CONTINUOUS
 62
    3
 10
751.06934864425966
 20
832.54570644884598
 11
826.06934873652062
 21
832.54570644884598
  0
LINE
  8
_0-3_躯体と製品
  6
CONTINUOUS
 62
    3
 10
776.72906114146997
 20
839.34570645720896
 11
801.42624477504057
 21
839.34570645720896
  0
LINE
  8
_0-3_躯体と製品
  6
CONTINUOUS
 62
    3
 10
760.17091732044889
 20
836.5457064537718
 11
816.07616690601935
 21
836.5457064537718
  0
LINE
  8
_0-3_躯体と製品
  6
CONTINUOUS
 62
    3
 10
751.06934864425966
 20
834.5457064513057
 11
826.06934873652062
 21
834.5457064513057
  0
LINE
  8
_0-3_躯体と製品
  6
CONTINUOUS
 62
    3
 10
776.72906114146997
 20
836.5457064537718
 11
776.72906114146997
 21
839.34570645720896
  0
LINE
  8
_0-3_躯体と製品
  6
CONTINUOUS
 62
    3
 10
764.31934866055963
 20
835.64570645266485
 11
765.70134904971928
 21
834.5457064513057
  0
LINE
  8
_0-3_躯体と製品
  6
CONTINUOUS
 62
    3
 10
764.31934866055963
 20
835.64570645266485
 11
755.31934864950017
 21
835.64570645266485
  0
LINE
  8
_0-3_躯体と製品
  6
CONTINUOUS
 62
    3
 10
755.31934864950017
 20
835.64570645266485
 11
753.93734864777059
 21
834.5457064513057
  0
LINE
  8
_0-3_躯体と製品
  6
CONTINUOUS
 62
    3
 10
759.54909913785912
 20
835.64570645266485
 11
760.17091732044889
 21
836.5457064537718
  0
LINE
  8
_0-3_躯体と製品
  6
CONTINUOUS
 62
    3
 10
801.42624477504057
 20
836.5457064537718
 11
801.42624477504057
 21
839.34570645720896
  0
LINE
  8
_0-3_躯体と製品
  6
CONTINUOUS
 62
    3
 10
821.81934873128
 20
835.64570645266485
 11
823.20134873294955
 21
834.5457064513057
  0
LINE
  8
_0-3_躯体と製品
  6
CONTINUOUS
 62
    3
 10
812.81934872022077
 20
835.64570645266485
 11
811.43734833105918
 21
834.5457064513057
  0
LINE
  8
_0-3_躯体と製品
  6
CONTINUOUS
 62
    3
 10
816.07616690601935
 20
836.5457064537718
 11
816.69798508860003
 21
835.64570645266485
  0
LINE
  8
_0-3_躯体と製品
  6
CONTINUOUS
 62
    3
 10
812.81934872022077
 20
835.64570645266485
 11
821.81934873128
 21
835.64570645266485
  0
LINE
  8
_0-5_中心線
  6
CENTER1
 62
    7
 10
788.56934869038923
 20
981.71486682281784
 11
788.56934869038923
 21
829.1653203665287
  0
LINE
  8
_0-3_躯体と製品
  6
CONTINUOUS
 62
    6
 10
775.56934869042016
 20
911.34251207820489
 11
775.56934869042016
 21
908.54570644880687
  0
LINE
  8
_0-3_躯体と製品
  6
CONTINUOUS
 62
    6
 10
775.56934869042016
 20
908.54570644880687
 11
837.56934869042016
 21
908.54570644880687
  0
LINE
  8
_0-3_躯体と製品
  6
CONTINUOUS
 62
    6
 10
837.56934869042016
 20
908.54570644880687
 11
837.56934869042016
 21
911.34251207820489
  0
ARC
  8
_0-3_躯体と製品
  6
CONTINUOUS
 62
    6
 10
836.36615431981386
 20
911.34251207820148
 40
1.2031943706062973
 50
0.0000000001624184
 51
90.00000000016243
  0
LINE
  8
_0-3_躯体と製品
  6
CONTINUOUS
 62
    6
 10
836.36615431981045
 20
912.54570644880778
 11
776.77254306102986
 21
912.54570644880778
  0
LINE
  8
_0-3_躯体と製品
  6
CONTINUOUS
 62
    6
 10
776.77254306102986
 20
912.54570644880778
 11
775.56934869042016
 21
911.34251207820489
  0
LINE
  8
_0-3_躯体と製品
  6
CONTINUOUS
 62
    6
 10
796.06934869042016
 20
908.54570644880687
 11
796.06934869042016
 21
907.54570644880687
  0
LINE
  8
_0-3_躯体と製品
  6
CONTINUOUS
 62
    6
 10
796.06934869042016
 20
907.54570644880687
 11
781.06934869042016
 21
907.54570644880687
  0
LINE
  8
_0-3_躯体と製品
  6
CONTINUOUS
 62
    6
 10
781.06934869042016
 20
907.54570644880687
 11
781.06934869042016
 21
908.54570644880687
  0
LINE
  8
_0-3_躯体と製品
  6
CONTINUOUS
 62
    6
 10
775.56934869042016
 20
914.5250184488109
 11
775.56934869038002
 21
913.06639444880375
  0
ARC
  8
_0-3_躯体と製品
  6
CONTINUOUS
 62
    6
 10
776.09003669037838
 20
913.06639444880602
 40
0.5206879999982659
 50
180.00000000025412
 51
270.00000000025415
  0
LINE
  8
_0-3_躯体と製品
  6
CONTINUOUS
 62
    6
 10
776.09003669038066
 20
912.54570644880778
 11
801.04866069039963
 21
912.54570644880778
  0
ARC
  8
_0-3_躯体と製品
  6
CONTINUOUS
 62
    6
 10
801.04866069041179
 20
913.06639444881603
 40
0.5206880000082135
 50
269.99999999865128
 51
359.99999999865128
  0
LINE
  8
_0-3_躯体と製品
  6
CONTINUOUS
 62
    6
 10
801.56934869042004
 20
913.06639444880375
 11
801.56934869040015
 21
914.5250184488109
  0
ARC
  8
_0-3_躯体と製品
  6
CONTINUOUS
 62
    6
 10
801.04866069040156
 20
914.52501844880908
 40
0.5206879999987278
 50
0.0000000002032916
 51
90.0000000002033
  0
LINE
  8
_0-3_躯体と製品
  6
CONTINUOUS
 62
    6
 10
801.04866069039963
 20
915.04570644880778
 11
776.09003669038066
 21
915.04570644880778
  0
LINE
  8
_0-3_躯体と製品
  6
CONTINUOUS
 62
    6
 10
776.09003669038066
 20
915.04570644880778
 11
775.56934869042016
 21
914.5250184488109
  0
LINE
  8
_0-3_躯体と製品
  6
CONTINUOUS
 62
    3
 10
799.56934869038923
 20
915.04570644880778
 11
799.56934869038923
 21
939.04570644880687
  0
LINE
  8
_0-3_躯体と製品
  6
CONTINUOUS
 62
    3
 10
777.56934869038923
 20
915.04570644880778
 11
777.56934869038923
 21
939.04570644880687
  0
LINE
  8
_0-3_躯体と製品
  6
CONTINUOUS
 62
    3
 10
777.56934869038923
 20
915.04570644880778
 11
799.56934869038923
 21
915.04570644880778
  0
LINE
  8
_0-3_躯体と製品
  6
CONTINUOUS
 62
    4
 10
751.86934869037941
 20
946.04570644880687
 11
825.26934869039906
 21
946.04570644880687
  0
LINE
  8
_0-3_躯体と製品
  6
CONTINUOUS
 62
    4
 10
825.26934869039906
 20
946.04570644880687
 11
825.26934869039906
 21
947.04570644880687
  0
LINE
  8
_0-3_躯体と製品
  6
CONTINUOUS
 62
    4
 10
825.26934869039906
 20
947.04570644880687
 11
751.86934869037941
 21
947.04570644880687
  0
LINE
  8
_0-3_躯体と製品
  6
CONTINUOUS
 62
    4
 10
751.86934869037941
 20
947.04570644880687
 11
751.86934869037941
 21
946.04570644880687
  0
LINE
  8
_0-3_躯体と製品
  6
CONTINUOUS
 62
    3
 10
823.56934869038923
 20
939.04570644880687
 11
753.56934869038923
 21
939.04570644880687
  0
LINE
  8
_0-3_躯体と製品
  6
CONTINUOUS
 62
    3
 10
753.56934869038923
 20
943.04570644880778
 11
778.06934869038912
 21
943.04570644880778
  0
LINE
  8
_0-3_躯体と製品
  6
CONTINUOUS
 62
    3
 10
781.06934869038923
 20
943.04570644880778
 11
796.06934869038923
 21
943.04570644880778
  0
LINE
  8
_0-3_躯体と製品
  6
CONTINUOUS
 62
    3
 10
799.06934869038935
 20
943.04570644880778
 11
823.56934869038923
 21
943.04570644880778
  0
LINE
  8
_0-3_躯体と製品
  6
CONTINUOUS
 62
    3
 10
753.56934869038923
 20
939.04570644880687
 11
753.56934869038923
 21
946.04570644880687
  0
LINE
  8
_0-3_躯体と製品
  6
CONTINUOUS
 62
    3
 10
823.56934869038923
 20
939.04570644880687
 11
823.56934869038923
 21
946.04570644880687
  0
LINE
  8
_0-3_躯体と製品
  6
CONTINUOUS
 62
    4
 10
765.59434869035977
 20
943.04570644880778
 11
765.59434869035977
 21
940.24570644881169
  0
LINE
  8
_0-3_躯体と製品
  6
CONTINUOUS
 62
    4
 10
765.59434869035977
 20
940.24570644881169
 11
760.54434869036959
 21
940.24570644881169
  0
LINE
  8
_0-3_躯体と製品
  6
CONTINUOUS
 62
    4
 10
760.54434869036959
 20
943.04570644880778
 11
760.54434869036959
 21
940.24570644881169
  0
LINE
  8
_0-3_躯体と製品
  6
HASEN
 62
    2
 10
765.59434869035977
 20
943.57058964396083
 11
760.54434869036959
 21
943.57058964396083
  0
LINE
  8
_0-3_躯体と製品
  6
HASEN
 62
    2
 10
765.59434869035977
 20
943.07058964396083
 11
760.54434869036959
 21
943.07058964396083
  0
ARC
  8
_0-3_躯体と製品
  6
HASEN
 62
    2
 10
765.53809869038923
 20
943.32058964396083
 40
0.2562499999998978
 50
282.68038349357067
 51
77.319616506429071
  0
ARC
  8
_0-3_躯体と製品
  6
HASEN
 62
    2
 10
760.60059869038923
 20
943.32058964396083
 40
0.2562500000005634
 50
102.68038349357069
 51
257.31961650642921
  0
LINE
  8
_0-3_躯体と製品
  6
HASEN
 62
    2
 10
765.59434869035977
 20
943.04570644880778
 11
765.59434869035067
 21
943.07058964396083
  0
LINE
  8
_0-3_躯体と製品
  6
HASEN
 62
    2
 10
765.59434869035067
 20
943.57058964396083
 11
765.59434869035067
 21
946.04570644880687
  0
LINE
  8
_0-3_躯体と製品
  6
HASEN
 62
    2
 10
760.54434869036049
 20
943.04570644880778
 11
760.54434869036049
 21
943.07058964396083
  0
LINE
  8
_0-3_躯体と製品
  6
HASEN
 62
    2
 10
760.54434869036049
 20
943.57058964396083
 11
760.54434869036049
 21
946.04570644880687
  0
LINE
  8
_0-3_躯体と製品
  6
CONTINUOUS
 62
    4
 10
811.54434869042973
 20
943.04570644880778
 11
811.54434869042973
 21
940.24570644881169
  0
LINE
  8
_0-3_躯体と製品
  6
CONTINUOUS
 62
    4
 10
811.54434869042973
 20
940.24570644881169
 11
816.5943486904107
 21
940.24570644881169
  0
LINE
  8
_0-3_躯体と製品
  6
CONTINUOUS
 62
    4
 10
816.5943486904107
 20
943.04570644880778
 11
816.5943486904107
 21
940.24570644881169
  0
LINE
  8
_0-3_躯体と製品
  6
HASEN
 62
    2
 10
811.54434869042973
 20
943.57058964396083
 11
816.5943486904107
 21
943.57058964396083
  0
LINE
  8
_0-3_躯体と製品
  6
HASEN
 62
    2
 10
811.54434869042973
 20
943.07058964396083
 11
816.5943486904107
 21
943.07058964396083
  0
ARC
  8
_0-3_躯体と製品
  6
HASEN
 62
    2
 10
811.60059869038923
 20
943.32058964396083
 40
0.2562499999998978
 50
102.68038349357069
 51
257.31961650642921
  0
ARC
  8
_0-3_躯体と製品
  6
HASEN
 62
    2
 10
816.53809869038923
 20
943.32058964396083
 40
0.2562500000005634
 50
282.68038349357067
 51
77.319616506429071
  0
LINE
  8
_0-3_躯体と製品
  6
HASEN
 62
    2
 10
811.54434869042973
 20
943.04570644880778
 11
811.54434869042973
 21
943.07058964396083
  0
LINE
  8
_0-3_躯体と製品
  6
HASEN
 62
    2
 10
811.54434869042973
 20
943.57058964396083
 11
811.54434869042973
 21
946.04570644880687
  0
LINE
  8
_0-3_躯体と製品
  6
HASEN
 62
    2
 10
816.5943486904107
 20
943.04570644880778
 11
816.5943486904107
 21
943.07058964396083
  0
LINE
  8
_0-3_躯体と製品
  6
HASEN
 62
    2
 10
816.5943486904107
 20
943.57058964396083
 11
816.5943486904107
 21
946.04570644880687
  0
LINE
  8
_0-3_躯体と製品
  6
CONTINUOUS
 62
    3
 10
796.06934869038923
 20
943.04570644880778
 11
796.31934869038923
 21
939.04570644880687
  0
LINE
  8
_0-3_躯体と製品
  6
CONTINUOUS
 62
    3
 10
796.31934869038923
 20
939.04570644880687
 11
798.81934869038923
 21
939.04570644880687
  0
LINE
  8
_0-3_躯体と製品
  6
CONTINUOUS
 62
    3
 10
798.81934869038923
 20
939.04570644880687
 11
799.06934869038935
 21
943.04570644880778
  0
LINE
  8
_0-3_躯体と製品
  6
CONTINUOUS
 62
    3
 10
781.06934869038923
 20
943.04570644880778
 11
780.81934869038923
 21
939.04570644880687
  0
LINE
  8
_0-3_躯体と製品
  6
CONTINUOUS
 62
    3
 10
780.81934869038923
 20
939.04570644880687
 11
778.31934869038923
 21
939.04570644880687
  0
LINE
  8
_0-3_躯体と製品
  6
CONTINUOUS
 62
    3
 10
778.31934869038923
 20
939.04570644880687
 11
778.06934869038912
 21
943.04570644880778
  0
LINE
  8
_0-3_躯体と製品
  6
CONTINUOUS
 62
    4
 10
849.77541651664978
 20
832.54570644884598
 11
819.77541651664978
 21
802.54570644884598
  0
LINE
  8
_0-3_躯体と製品
  6
CONTINUOUS
 62
    4
 10
859.77541651664978
 20
832.54570644884598
 11
829.77541651664978
 21
802.54570644884598
  0
LINE
  8
_0-3_躯体と製品
  6
CONTINUOUS
 62
    4
 10
869.77541651664978
 20
832.54570644884598
 11
839.77541651664978
 21
802.54570644884598
  0
LINE
  8
_0-3_躯体と製品
  6
CONTINUOUS
 62
    4
 10
1049.505051112219
 20
832.54570644884598
 11
1019.5050511122299
 21
802.54570644884598
  0
LINE
  8
_0-3_躯体と製品
  6
CONTINUOUS
 62
    4
 10
1059.505051112219
 20
832.54570644884598
 11
1029.505051112219
 21
802.54570644884598
  0
LINE
  8
_0-3_躯体と製品
  6
CONTINUOUS
 62
    4
 10
1069.505051112219
 20
832.54570644884598
 11
1039.505051112219
 21
802.54570644884598
  0
LINE
  8
_0-3_躯体と製品
  6
CONTINUOUS
 62
    4
 10
1249.505051112219
 20
832.54570644884598
 11
1219.5050511122299
 21
802.54570644884598
  0
LINE
  8
_0-3_躯体と製品
  6
CONTINUOUS
 62
    4
 10
1259.505051112219
 20
832.54570644884598
 11
1229.505051112219
 21
802.54570644884598
  0
LINE
  8
_0-3_躯体と製品
  6
CONTINUOUS
 62
    4
 10
1269.505051112219
 20
832.54570644884598
 11
1239.505051112219
 21
802.54570644884598
  0
LINE
  8
_0-3_躯体と製品
  6
CONTINUOUS
 62
    4
 10
1449.505051112219
 20
832.54570644884598
 11
1419.5050511122299
 21
802.54570644884598
  0
LINE
  8
_0-3_躯体と製品
  6
CONTINUOUS
 62
    4
 10
1459.505051112219
 20
832.54570644884598
 11
1429.505051112219
 21
802.54570644884598
  0
LINE
  8
_0-3_躯体と製品
  6
CONTINUOUS
 62
    4
 10
1469.505051112219
 20
832.54570644884598
 11
1439.505051112219
 21
802.54570644884598
  0
LINE
  8
_0-3_躯体と製品
  6
CONTINUOUS
 62
    4
 10
1649.7754165166498
 20
832.54570644884598
 11
1619.7754165166607
 21
802.54570644884598
  0
LINE
  8
_0-3_躯体と製品
  6
CONTINUOUS
 62
    4
 10
1659.7754165166498
 20
832.54570644884598
 11
1629.7754165166498
 21
802.54570644884598
  0
LINE
  8
_0-3_躯体と製品
  6
CONTINUOUS
 62
    4
 10
1669.7754165166498
 20
832.54570644884598
 11
1639.7754165166607
 21
802.54570644884598
  0
LINE
  8
_0-4_文字-記号
  6
CONTINUOUS
 62
    7
 10
1313.9645597946401
 20
948.68022111939308
 11
1333.5256438505203
 21
914.79942968348678
  0
LINE
  8
_0-4_文字-記号
  6
CONTINUOUS
 62
    7
 10
1333.5256438505203
 20
914.79942968348678
 11
1463.2099339933102
 21
914.79942968348678
  0
TEXT
  8
_0-4_文字-記号
 62
    7
 10
1339.24301890692
 20
917.21098314914707
 40
10
 41
1
 50
0
  1
ＯＡパネル ５００角
  0
TEXT
  8
_0-4_文字-記号
 62
    7
 10
1097.4292122705501
 20
886.05208998991884
 40
10
 41
1
 50
0
  1
標準支持脚
  0
TEXT
  8
_0-4_文字-記号
 62
    7
 10
822.42737517271962
 20
885.51103385260603
 40
10
 41
1
 50
0
  1
端部支持脚
  0
TEXT
  8
_0-4_文字-記号
 62
    7
 10
1112.0267579126794
 20
785.43267752673
 40
10
 41
1
 50
0
  1
接着固定 ピタワン（F☆☆☆☆品）
  0
LINE
  8
_0-4_文字-記号
  6
CONTINUOUS
 62
    7
 10
1073.0107763228607
 20
832.54570644885189
 11
1103.0844408581706
 21
780.45659150391612
  0
LINE
  8
_0-4_文字-記号
  6
CONTINUOUS
 62
    7
 10
1103.0844408581706
 20
780.45659150391612
 11
1301.5725701906904
 21
780.45659150391612
  0
TEXT
  8
_0-4_文字-記号
 62
    7
 10
1091.8844079252103
 20
1018.0302663421371
 40
10
 41
1
 50
0
  1
ビス留め
  0
LINE
  8
_0-4_文字-記号
  6
CONTINUOUS
 62
    7
 10
1063.5693486903892
 20
976.04570644884689
 11
1086.4724067763491
 21
1015.714966702431
  0
LINE
  8
_0-4_文字-記号
  6
CONTINUOUS
 62
    7
 10
1086.4724067763491
 20
1015.714966702431
 11
1148.4745759516591
 21
1015.714966702431
  0
TEXT
  8
_0-4_文字-記号
 62
    7
 10
1248.5529756179603
 20
1018.0302663421371
 40
10
 41
1
 50
0
  1
タイルカーペット
  0
LINE
  8
_0-4_文字-記号
  6
CONTINUOUS
 62
    7
 10
1223.9799232623791
 20
982.52705248595976
 11
1243.1409744690991
 21
1015.714966702431
  0
LINE
  8
_0-4_文字-記号
  6
CONTINUOUS
 62
    7
 10
1243.1409744690991
 20
1015.714966702431
 11
1347.598692152289
 21
1015.714966702431
  0
LINE
  8
_0-3_躯体と製品
  6
CONTINUOUS
 62
    7
 10
723.56934899917917
 20
833.34570644884707
 11
658.56934899917917
 21
833.34570644884707
  0
LINE
  8
_0-3_躯体と製品
  6
CONTINUOUS
 62
    7
 10
657.7693489991799
 20
832.54570644884598
 11
657.7693489991799
 21
872.54570644884598
  0
LINE
  8
_0-3_躯体と製品
  6
CONTINUOUS
 62
    7
 10
665.56934899917906
 20
833.34570644884707
 11
665.56934899917906
 21
1119.1802211194449
  0
LINE
  8
_0-3_躯体と製品
  6
CONTINUOUS
 62
    7
 10
658.56934899917917
 20
833.34570644884707
 11
658.56934899917917
 21
1119.1802211194449
  0
LINE
  8
_0-3_躯体と製品
  6
CONTINUOUS
 62
    7
 10
658.56934899917917
 20
872.54570644884598
 11
657.7693489991799
 21
872.54570644884598
  0
LINE
  8
_0-3_躯体と製品
  6
CONTINUOUS
 62
    7
 10
724.36934899918015
 20
832.54570644884598
 11
724.36934899918015
 21
872.54570644884598
  0
LINE
  8
_0-3_躯体と製品
  6
CONTINUOUS
 62
    7
 10
733.56934899917917
 20
832.54570644884598
 11
733.56934899917917
 21
1119.1802211194449
  0
LINE
  8
_0-3_躯体と製品
  6
CONTINUOUS
 62
    7
 10
716.56934899917906
 20
833.34570644884707
 11
716.56934899917906
 21
1119.1802211194449
  0
LINE
  8
_0-3_躯体と製品
  6
CONTINUOUS
 62
    7
 10
723.56934899917917
 20
833.34570644884707
 11
723.56934899917917
 21
1119.1802211194449
  0
LINE
  8
_0-3_躯体と製品
  6
CONTINUOUS
 62
    7
 10
737.56934899917894
 20
1053.680221119444
 11
737.56934899917894
 21
985.68022111944401
  0
ARC
  8
_0-3_躯体と製品
  6
CONTINUOUS
 62
    7
 10
739.56934899917906
 20
988.68022111944492
 40
6
 50
180
 51
270
  0
LINE
  8
_0-3_躯体と製品
  6
CONTINUOUS
 62
    7
 10
739.56934899917906
 20
983.68022111944401
 11
739.56934899917906
 21
982.68022111944492
  0
ARC
  8
_0-3_躯体と製品
  6
CONTINUOUS
 62
    7
 10
739.56934899917906
 20
985.68022111944401
 40
2
 50
180
 51
270
  0
TEXT
  8
_0-4_文字-記号
 62
    7
 10
754.88985899918043
 20
1044.2011207242867
 40
10
 41
1
 50
0
  1
巾　木
  0
LINE
  8
_0-3_躯体と製品
  6
CONTINUOUS
 62
    7
 10
723.56934899917917
 20
872.54570644884598
 11
724.36934899918015
 21
872.54570644884598
  0
LINE
  8
_0-4_文字-記号
  6
CONTINUOUS
 62
    7
 10
737.56934899917894
 20
1010.2011207242858
 11
754.88985899918043
 21
1040.2011207242867
  0
LINE
  8
_0-4_文字-記号
  6
CONTINUOUS
 62
    7
 10
754.88985899918043
 20
1040.2011207242867
 11
791.0098589991793
 21
1040.2011207242867
  0
ARC
  8
_0-3_躯体と製品
  6
CONTINUOUS
 62
    7
 10
733.56934899917917
 20
1053.680221119444
 40
4
 50
0
 51
90
  0
LINE
  8
_0-4_文字-記号
  6
CONTINUOUS
 62
    7
 10
795.83528241396925
 20
918.63065829174002
 11
816.60266303299977
 21
882.66049991946511
  0
LINE
  8
_0-4_文字-記号
  6
CONTINUOUS
 62
    7
 10
816.60266303299977
 20
882.66049991946511
 11
885.0011821031203
 21
882.67696952821098
  0
LINE
  8
_0-4_文字-記号
  6
CONTINUOUS
 62
    7
 10
1072.1059541535396
 20
918.63065829174002
 11
1092.8733347725702
 21
882.66049991946511
  0
LINE
  8
_0-4_文字-記号
  6
CONTINUOUS
 62
    7
 10
1092.8733347725702
 20
882.66049991946511
 11
1161.2718538426998
 21
882.67696952821098
  0
TEXT
  8
_0-4_文字-記号
 62
    7
 10
1594.2280137771304
 20
886.05208998991884
 40
10
 41
1
 50
0
  1
標準支持脚
  0
LINE
  8
_0-4_文字-記号
  6
CONTINUOUS
 62
    7
 10
1568.904755660129
 20
918.63065829174002
 11
1589.6721362791595
 21
882.66049991946511
  0
LINE
  8
_0-4_文字-記号
  6
CONTINUOUS
 62
    7
 10
1589.6721362791595
 20
882.66049991946511
 11
1658.0706553492801
 21
882.67696952821098
  0
TEXT
  8
_0-4_文字-記号
 62
    7
 10
1097.4427000390497
 20
1143.2318894441901
 40
15
 41
1
 50
0
  1
張りはじめ部断面図
  0
LINE
  8
_0-4_文字-記号
  6
CONTINUOUS
 62
    7
 10
1277.3364266055396
 20
1165.8920696320438
 11
1277.3364266055396
 21
1136.8744042324411
  0
LINE
  8
_0-4_文字-記号
  6
CONTINUOUS
 62
    7
 10
1277.3364266055396
 20
1136.8744042324411
 11
1080.6648453889993
 21
1136.8744042324411
  0
LINE
  8
_0-4_文字-記号
  6
CONTINUOUS
 62
    7
 10
1080.6648453889993
 20
1136.8744042324411
 11
1080.6648453889993
 21
1165.8920696320438
  0
LINE
  8
_0-4_文字-記号
  6
CONTINUOUS
 62
    7
 10
1080.6648453889993
 20
1165.8920696320438
 11
1277.3364266055396
 21
1165.8920696320438
  0
TEXT
  8
_0-4_文字-記号
 62
    7
 10
478.74875561862979
 20
1551.0872487374927
 40
15
 41
1
 50
0
  1
【壁まわり断面図（サンアクセスフロア ３００Ｌ：中空タイプ）】
  0
TEXT
  8
_0-4_文字-記号
 62
    7
 10
1452.5997625510299
 20
869.45921030121872
 40
10
 41
1
 50
0
  1
固定金具
  0
LINE
  8
_0-4_文字-記号
  6
CONTINUOUS
 62
    7
 10
1536.0083410130301
 20
909.54570644880505
 11
1507.4075258784796
 21
864.31935781191896
  0
LINE
  8
_0-4_文字-記号
  6
CONTINUOUS
 62
    7
 10
1507.4075258784796
 20
864.31935781191896
 11
1445.8781956110506
 21
864.31935781191896
  0
TEXT
  8
_0-4_文字-記号
 62
    7
 10
952.59976255102993
 20
1280.273186380779
 40
10
 41
1
 50
0
  1
固定金具
  0
LINE
  8
_0-4_文字-記号
  6
CONTINUOUS
 62
    7
 10
1036.0083410130301
 20
1320.3596825283657
 11
1007.4075258784796
 21
1275.1333338914787
  0
LINE
  8
_0-4_文字-記号
  6
CONTINUOUS
 62
    7
 10
1007.4075258784796
 20
1275.1333338914787
 11
945.87819561105061
 21
1275.1333338914787
  0
LINE
  8
_0-3_躯体と製品
  6
CONTINUOUS
 62
    3
 10
563.56934869038923
 20
1387.8596825283621
 11
1738.5693486903892
 21
1387.8596825283657
  0
LINE
  8
_0-3_躯体と製品
  6
CONTINUOUS
 62
    3
 10
563.56934869038923
 20
1388.8596825283621
 11
1738.5693486903892
 21
1388.8596825283657
  0
LINE
  8
_0-3_躯体と製品
  6
CONTINUOUS
 62
    3
 10
733.56934899917917
 20
982.54570644884598
 11
1738.5693486903892
 21
982.54570644884598
  0
LINE
  8
_0-3_躯体と製品
  6
CONTINUOUS
 62
    3
 10
733.56934899917917
 20
976.0457064488478
 11
1738.5693486903892
 21
976.04570644885098
  0
LINE
  8
_0-3_躯体と製品
  6
CONTINUOUS
 62
    3
 10
733.56934899917917
 20
977.0457064488478
 11
1738.5693486903892
 21
977.04570644885098
  0
LINE
  8
_0-3_躯体と製品
  6
CONTINUOUS
 62
    3
 10
733.56934899917917
 20
978.0457064488478
 11
1738.5693486903892
 21
978.04570644885098
  0
LINE
  8
_0-3_躯体と製品
  6
CONTINUOUS
 62
    4
 10
650.04578192108056
 20
1243.3596825283607
 11
620.04578192108056
 21
1213.3596825283621
  0
LINE
  8
_0-3_躯体と製品
  6
CONTINUOUS
 62
    4
 10
660.04578192108056
 20
1243.3596825283607
 11
630.04578192108056
 21
1213.3596825283621
  0
LINE
  8
_0-3_躯体と製品
  6
CONTINUOUS
 62
    4
 10
670.04578192108056
 20
1243.3596825283607
 11
640.04578192108056
 21
1213.3596825283621
  0
LINE
  8
_0-3_躯体と製品
  6
CONTINUOUS
 62
    4
 10
1063.3193486903892
 20
566.03173036929093
 11
1063.8193486903892
 21
566.03173036929093
  0
LINE
  8
_0-3_躯体と製品
  6
CONTINUOUS
 62
    4
 10
1041.3193486903892
 20
566.03173036929093
 11
1050.0693486903892
 21
566.03173036929093
  0
LINE
  8
_0-3_躯体と製品
  6
CONTINUOUS
 62
    4
 10
1033.0693486903892
 20
566.03173036929093
 11
1038.8193486903892
 21
566.03173036929093
  0
LINE
  8
_0-5_中心線
  6
CENTER1
 62
    7
 10
1063.5693486903892
 20
571.7008907433019
 11
1063.5693486903892
 21
419.15134428701504
  0
LINE
  8
_0-3_躯体と製品
  6
CONTINUOUS
 62
    3
 10
1568.5693486965301
 20
429.33173037769478
 11
1568.5693486965301
 21
498.53173036929093
  0
LINE
  8
_0-3_躯体と製品
  6
CONTINUOUS
 62
    3
 10
1558.5693486842501
 20
429.33173037769478
 11
1558.5693486842501
 21
498.53173036929093
  0
LINE
  8
_0-3_躯体と製品
  6
CONTINUOUS
 62
    3
 10
1570.5693486989803
 20
429.33173037769478
 11
1570.5693486989803
 21
498.53173036929093
  0
LINE
  8
_0-3_躯体と製品
  6
CONTINUOUS
 62
    3
 10
1556.569348681749
 20
429.33173037769478
 11
1556.569348681749
 21
498.53173036929093
  0
LINE
  8
_0-3_躯体と製品
  6
CONTINUOUS
 62
    3
 10
1601.0693487365206
 20
424.53173037179113
 11
1601.0693487365206
 21
422.53173036933191
  0
LINE
  8
_0-3_躯体と製品
  6
CONTINUOUS
 62
    3
 10
1526.0693486442597
 20
424.53173037179113
 11
1526.0693486442597
 21
422.53173036933191
  0
LINE
  8
_0-3_躯体と製品
  6
CONTINUOUS
 62
    3
 10
1526.0693486442597
 20
422.53173036933191
 11
1601.0693487365206
 21
422.53173036933191
  0
LINE
  8
_0-3_躯体と製品
  6
CONTINUOUS
 62
    3
 10
1551.7290611414701
 20
429.33173037769478
 11
1576.4262447750407
 21
429.33173037769478
  0
LINE
  8
_0-3_躯体と製品
  6
CONTINUOUS
 62
    3
 10
1535.1709173204399
 20
426.53173037425773
 11
1591.0761669060194
 21
426.53173037425773
  0
LINE
  8
_0-3_躯体と製品
  6
CONTINUOUS
 62
    3
 10
1526.0693486442597
 20
424.53173037179113
 11
1601.0693487365206
 21
424.53173037179113
  0
LINE
  8
_0-3_躯体と製品
  6
CONTINUOUS
 62
    3
 10
1551.7290611414701
 20
426.53173037425773
 11
1551.7290611414701
 21
429.33173037769478
  0
LINE
  8
_0-3_躯体と製品
  6
CONTINUOUS
 62
    3
 10
1539.3193486605596
 20
425.63173037314982
 11
1540.7013490497193
 21
424.53173037179113
  0
LINE
  8
_0-3_躯体と製品
  6
CONTINUOUS
 62
    3
 10
1539.3193486605596
 20
425.63173037314982
 11
1530.3193486495002
 21
425.63173037314982
  0
LINE
  8
_0-3_躯体と製品
  6
CONTINUOUS
 62
    3
 10
1530.3193486495002
 20
425.63173037314982
 11
1528.9373486477707
 21
424.53173037179113
  0
LINE
  8
_0-3_躯体と製品
  6
CONTINUOUS
 62
    3
 10
1534.5490991378592
 20
425.63173037314982
 11
1535.1709173204399
 21
426.53173037425773
  0
LINE
  8
_0-3_躯体と製品
  6
CONTINUOUS
 62
    3
 10
1576.4262447750407
 20
426.53173037425773
 11
1576.4262447750407
 21
429.33173037769478
  0
LINE
  8
_0-3_躯体と製品
  6
CONTINUOUS
 62
    3
 10
1596.8193487312801
 20
425.63173037314982
 11
1598.2013487329496
 21
424.53173037179113
  0
LINE
  8
_0-3_躯体と製品
  6
CONTINUOUS
 62
    3
 10
1587.8193487202207
 20
425.63173037314982
 11
1586.4373483310592
 21
424.53173037179113
  0
LINE
  8
_0-3_躯体と製品
  6
CONTINUOUS
 62
    3
 10
1591.0761669060194
 20
426.53173037425773
 11
1591.6979850886
 21
425.63173037314982
  0
LINE
  8
_0-3_躯体と製品
  6
CONTINUOUS
 62
    3
 10
1587.8193487202207
 20
425.63173037314982
 11
1596.8193487312801
 21
425.63173037314982
  0
LINE
  8
_0-3_躯体と製品
  6
CONTINUOUS
 62
    3
 10
1574.5693486903892
 20
506.03173036929007
 11
1574.5693486903892
 21
530.03173036929093
  0
LINE
  8
_0-3_躯体と製品
  6
CONTINUOUS
 62
    3
 10
1552.5693486903892
 20
506.03173036929007
 11
1552.5693486903892
 21
530.03173036929093
  0
LINE
  8
_0-3_躯体と製品
  6
CONTINUOUS
 62
    3
 10
1552.5693486903892
 20
506.03173036929007
 11
1574.5693486903892
 21
506.03173036929007
  0
LINE
  8
_0-3_躯体と製品
  6
CONTINUOUS
 62
    3
 10
1598.5693486903892
 20
537.03173036929093
 11
1528.5693486903892
 21
537.03173036929093
  0
LINE
  8
_0-3_躯体と製品
  6
CONTINUOUS
 62
    3
 10
1553.5693486904493
 20
556.53173036929093
 11
1553.5693486904493
 21
537.03173036929093
  0
LINE
  8
_0-3_躯体と製品
  6
CONTINUOUS
 62
    3
 10
1570.5693469318394
 20
538.00991473904787
 11
1570.0944162449905
 21
560.55342221085175
  0
LINE
  8
_0-3_躯体と製品
  6
CONTINUOUS
 62
    3
 10
1556.5693486888595
 20
538.00991485191207
 11
1557.0442838168092
 21
560.55354525433768
  0
LINE
  8
_0-3_躯体と製品
  6
CONTINUOUS
 62
    3
 10
1537.0693486904092
 20
530.03173036929093
 11
1537.0693486904092
 21
534.03173036929093
  0
LINE
  8
_0-3_躯体と製品
  6
CONTINUOUS
 62
    3
 10
1598.5693486903892
 20
530.03173036929093
 11
1528.5693486903892
 21
530.03173036929093
  0
LINE
  8
_0-3_躯体と製品
  6
CONTINUOUS
 62
    3
 10
1528.5693486903892
 20
534.03173036929093
 11
1598.5693486903892
 21
534.03173036929093
  0
LINE
  8
_0-3_躯体と製品
  6
CONTINUOUS
 62
    3
 10
1528.5693486903892
 20
530.03173036929093
 11
1528.5693486903892
 21
537.03173036929093
  0
LINE
  8
_0-3_躯体と製品
  6
CONTINUOUS
 62
    3
 10
1590.0693486904092
 20
534.03173036929093
 11
1590.0693486904092
 21
530.03173036929093
  0
LINE
  8
_0-3_躯体と製品
  6
CONTINUOUS
 62
    3
 10
1556.6720662523694
 20
537.03172978085468
 11
1556.6965172862892
 21
537.03247950903869
  0
ARC
  8
_0-3_躯体と製品
  6
CONTINUOUS
 62
    3
 10
1555.5695637394601
 20
538.03175115501381
 40
1.0000213744606741
 50
270.00141269522987
 51
358.74880180357087
  0
ARC
  8
_0-3_躯体と製品
  6
CONTINUOUS
 62
    3
 10
1571.5691318929494
 20
538.03175130502177
 40
1.0000216427943811
 50
181.25121323943884
 51
269.99862594469778
  0
LINE
  8
_0-3_躯体と製品
  6
CONTINUOUS
 62
    3
 10
1573.5693486904493
 20
556.53054844403005
 11
1573.5693486904493
 21
537.03173036929093
  0
LINE
  8
_0-3_躯体と製品
  6
CONTINUOUS
 62
    3
 10
1598.5693486903892
 20
530.03173036929093
 11
1598.5693486903892
 21
537.03173036929093
  0
LINE
  8
_0-3_躯体と製品
  6
CONTINUOUS
 62
    3
 10
1593.0693427524002
 20
538.00991393455888
 11
1593.0693427524002
 21
556.53054844403005
  0
ARC
  8
_0-3_躯体と製品
  6
CONTINUOUS
 62
    3
 10
1580.0695578029899
 20
538.03175115501381
 40
1.0000213744606741
 50
270.00141269522987
 51
358.74880180357087
  0
ARC
  8
_0-3_躯体と製品
  6
CONTINUOUS
 62
    3
 10
1594.0691259549494
 20
538.03175046216074
 40
1.0000216427943811
 50
181.25121323943884
 51
269.99862594469778
  0
LINE
  8
_0-3_躯体と製品
  6
CONTINUOUS
 62
    3
 10
1581.0693427524002
 20
538.00991141538998
 11
1581.0693427524002
 21
556.53054844403005
  0
LINE
  8
_0-3_躯体と製品
  6
CONTINUOUS
 62
    3
 10
1534.0693546283892
 20
538.00991393455888
 11
1534.0693546283892
 21
556.53054844403005
  0
ARC
  8
_0-3_躯体と製品
  6
CONTINUOUS
 62
    3
 10
1547.0691395777994
 20
538.03175115501381
 40
1.0000213744606741
 50
181.25119819642921
 51
269.99858730477013
  0
ARC
  8
_0-3_躯体と製品
  6
CONTINUOUS
 62
    3
 10
1533.0695714258291
 20
538.03175046216074
 40
1.0000216427943811
 50
270.00137405530222
 51
358.74878676056119
  0
LINE
  8
_0-3_躯体と製品
  6
CONTINUOUS
 62
    3
 10
1546.0693546283892
 20
538.00991141538998
 11
1546.0693546283892
 21
556.53054844403005
  0
LINE
  8
_0-3_躯体と製品
  6
CONTINUOUS
 62
    3
 10
1593.0693427348197
 20
538.00991473904787
 11
1581.0693407395793
 21
538.00991473904787
  0
LINE
  8
_0-3_躯体と製品
  6
CONTINUOUS
 62
    3
 10
1570.5693486912205
 20
538.00991473904787
 11
1556.5693466760404
 21
538.00991473904787
  0
LINE
  8
_0-3_躯体と製品
  6
CONTINUOUS
 62
    3
 10
1534.0693546459497
 20
538.00991473904787
 11
1546.0693566411901
 21
538.00991473904787
  0
LINE
  8
_0-3_躯体と製品
  6
CONTINUOUS
 62
    3
 10
1544.0693486904092
 20
530.03173036929093
 11
1544.0693486904092
 21
534.03173036929093
  0
LINE
  8
_0-3_躯体と製品
  6
CONTINUOUS
 62
    3
 10
1583.0693486904092
 20
534.03173036929093
 11
1583.0693486904092
 21
530.03173036929093
  0
ARC
  8
_0-3_躯体と製品
  6
CONTINUOUS
 62
    3
 10
1558.0440766826796
 20
560.53169884990803
 40
1.000031519520032
 50
90.000914411585455
 51
178.74823310219011
  0
ARC
  8
_0-3_躯体と製品
  6
CONTINUOUS
 62
    3
 10
1569.0946206980898
 20
560.53169884990075
 40
1.000031519520032
 50
1.2517668978098311
 51
89.999085588414502
  0
LINE
  8
_0-3_躯体と製品
  6
CONTINUOUS
 62
    4
 10
1554.8193486903892
 20
562.03173036929093
 11
1554.8193486903892
 21
556.53173036929093
  0
LINE
  8
_0-3_躯体と製品
  6
CONTINUOUS
 62
    4
 10
1533.6730497120298
 20
556.53054844403005
 11
1556.3193486903892
 21
556.53054844403005
  0
LINE
  8
_0-3_躯体と製品
  6
CONTINUOUS
 62
    4
 10
1563.3193486903892
 20
566.03173036929093
 11
1563.8193486903892
 21
566.03173036929093
  0
LINE
  8
_0-3_躯体と製品
  6
CONTINUOUS
 62
    4
 10
1563.8193486903892
 20
566.03173036929093
 11
1563.8193486903892
 21
562.03173036929093
  0
LINE
  8
_0-3_躯体と製品
  6
CONTINUOUS
 62
    4
 10
1563.3193486903892
 20
566.03173036929093
 11
1563.3193486903892
 21
562.03173036929093
  0
LINE
  8
_0-3_躯体と製品
  6
CONTINUOUS
 62
    4
 10
1556.3193486903892
 20
561.53173036929093
 11
1556.3193486903892
 21
556.53054844403005
  0
LINE
  8
_0-3_躯体と製品
  6
CONTINUOUS
 62
    4
 10
1556.3193486903892
 20
561.53173036929093
 11
1570.8193486903892
 21
561.53173036929093
  0
LINE
  8
_0-3_躯体と製品
  6
CONTINUOUS
 62
    4
 10
1593.4656476687505
 20
556.53054844403005
 11
1570.8193486903892
 21
556.53054844403005
  0
LINE
  8
_0-3_躯体と製品
  6
CONTINUOUS
 62
    4
 10
1570.8193486903892
 20
561.53173036929093
 11
1570.8193486903892
 21
556.52780983168168
  0
LINE
  8
_0-3_躯体と製品
  6
CONTINUOUS
 62
    4
 10
1594.0693486903892
 20
562.03173036929093
 11
1533.0693486903892
 21
562.03173036929093
  0
LINE
  8
_0-3_躯体と製品
  6
CONTINUOUS
 62
    4
 10
1577.0693486903892
 20
562.03173036929093
 11
1577.0693486903892
 21
566.03173036929093
  0
LINE
  8
_0-3_躯体と製品
  6
CONTINUOUS
 62
    4
 10
1572.3193486903892
 20
562.03173036929093
 11
1572.3193486903892
 21
556.53173036929093
  0
LINE
  8
_0-3_躯体と製品
  6
CONTINUOUS
 62
    4
 10
1585.8193486903892
 20
566.03173036929093
 11
1577.0693486903892
 21
566.03173036929093
  0
LINE
  8
_0-3_躯体と製品
  6
CONTINUOUS
 62
    4
 10
1585.8193486903892
 20
562.03173036929093
 11
1585.8193486903892
 21
566.03173036929093
  0
LINE
  8
_0-3_躯体と製品
  6
CONTINUOUS
 62
    4
 10
1548.4139041241597
 20
562.03173036929093
 11
1548.4139041241597
 21
556.53173036929093
  0
LINE
  8
_0-3_躯体と製品
  6
CONTINUOUS
 62
    4
 10
1578.7247932566097
 20
562.03173036929093
 11
1578.7247932566097
 21
556.53173036929093
  0
LINE
  8
_0-3_躯体と製品
  6
CONTINUOUS
 62
    4
 10
1550.0693486903892
 20
562.03173036929093
 11
1550.0693486903892
 21
566.03173036929093
  0
LINE
  8
_0-3_躯体と製品
  6
CONTINUOUS
 62
    4
 10
1541.3193486903892
 20
566.03173036929093
 11
1550.0693486903892
 21
566.03173036929093
  0
LINE
  8
_0-3_躯体と製品
  6
CONTINUOUS
 62
    4
 10
1541.3193486903892
 20
562.03173036929093
 11
1541.3193486903892
 21
566.03173036929093
  0
LINE
  8
_0-3_躯体と製品
  6
CONTINUOUS
 62
    4
 10
1533.0693486903892
 20
566.03173036929093
 11
1538.8193486903892
 21
566.03173036929093
  0
LINE
  8
_0-3_躯体と製品
  6
CONTINUOUS
 62
    4
 10
1538.8193486903892
 20
562.03173036929093
 11
1538.8193486903892
 21
566.03173036929093
  0
LINE
  8
_0-3_躯体と製品
  6
CONTINUOUS
 62
    4
 10
1533.0693486903892
 20
561.53173036929093
 11
1533.0693486903892
 21
566.03173036929093
  0
LINE
  8
_0-3_躯体と製品
  6
CONTINUOUS
 62
    4
 10
1534.0693486903892
 20
562.03173036929093
 11
1534.0693486903892
 21
556.53054844403005
  0
LINE
  8
_0-3_躯体と製品
  6
CONTINUOUS
 62
    4
 10
1533.6730497120298
 20
561.53173036929093
 11
1533.0693486903892
 21
561.53173036929093
  0
LINE
  8
_0-3_躯体と製品
  6
CONTINUOUS
 62
    4
 10
1533.6730497120298
 20
561.53173036929093
 11
1533.6730497120298
 21
556.53054844403005
  0
LINE
  8
_0-3_躯体と製品
  6
CONTINUOUS
 62
    4
 10
1594.0693486903801
 20
566.03173036929093
 11
1588.3193486903892
 21
566.03173036929093
  0
LINE
  8
_0-3_躯体と製品
  6
CONTINUOUS
 62
    4
 10
1588.3193486903892
 20
562.03173036929093
 11
1588.3193486903892
 21
566.03173036929093
  0
LINE
  8
_0-3_躯体と製品
  6
CONTINUOUS
 62
    4
 10
1594.0693486903801
 20
561.53173036929093
 11
1594.0693486903801
 21
566.03173036929093
  0
LINE
  8
_0-3_躯体と製品
  6
CONTINUOUS
 62
    4
 10
1593.0693486903892
 20
562.03173036929093
 11
1593.0693486903892
 21
556.53054844403005
  0
LINE
  8
_0-3_躯体と製品
  6
CONTINUOUS
 62
    4
 10
1593.4656476687505
 20
561.53173036929093
 11
1594.0693486903892
 21
561.53173036929093
  0
LINE
  8
_0-3_躯体と製品
  6
CONTINUOUS
 62
    4
 10
1593.4656476687505
 20
561.53173036929093
 11
1593.4656476687505
 21
556.53054844403005
  0
LINE
  8
_0-5_中心線
  6
CENTER1
 62
    7
 10
1563.5693486903892
 20
571.7008907433019
 11
1563.5693486903892
 21
419.15134428701504
  0
LINE
  8
_0-3_躯体と製品
  6
CONTINUOUS
 62
    6
 10
1576.5693486903601
 20
502.32853599868804
 11
1576.5693486903601
 21
499.53173036929087
  0
LINE
  8
_0-3_躯体と製品
  6
CONTINUOUS
 62
    6
 10
1576.5693486903601
 20
499.53173036929087
 11
1514.5693486903601
 21
499.53173036929087
  0
LINE
  8
_0-3_躯体と製品
  6
CONTINUOUS
 62
    6
 10
1514.5693486903601
 20
499.53173036929087
 11
1514.5693486903601
 21
502.32853599868804
  0
ARC
  8
_0-3_躯体と製品
  6
CONTINUOUS
 62
    6
 10
1515.7725430609664
 20
502.32853599868463
 40
1.2031943706062973
 50
89.99999999983757
 51
179.9999999998376
  0
LINE
  8
_0-3_躯体と製品
  6
CONTINUOUS
 62
    6
 10
1515.7725430609698
 20
503.53173036929093
 11
1575.3661543197504
 21
503.53173036929093
  0
LINE
  8
_0-3_躯体と製品
  6
CONTINUOUS
 62
    6
 10
1575.3661543197504
 20
503.53173036929093
 11
1576.5693486903601
 21
502.32853599868804
  0
LINE
  8
_0-3_躯体と製品
  6
CONTINUOUS
 62
    6
 10
1556.0693486903601
 20
499.53173036929087
 11
1556.0693486903601
 21
498.53173036929093
  0
LINE
  8
_0-3_躯体と製品
  6
CONTINUOUS
 62
    6
 10
1556.0693486903601
 20
498.53173036929093
 11
1571.0693486903601
 21
498.53173036929093
  0
LINE
  8
_0-3_躯体と製品
  6
CONTINUOUS
 62
    6
 10
1571.0693486903601
 20
498.53173036929093
 11
1571.0693486903601
 21
499.53173036929087
  0
LINE
  8
_0-3_躯体と製品
  6
CONTINUOUS
 62
    6
 10
1576.5693486903601
 20
505.51104236929405
 11
1576.5693486904001
 21
504.05241836928695
  0
ARC
  8
_0-3_躯体と製品
  6
CONTINUOUS
 62
    6
 10
1576.0486606904019
 20
504.05241836928923
 40
0.520687999998266
 50
269.9999999997537
 51
359.9999999997537
  0
LINE
  8
_0-3_躯体と製品
  6
CONTINUOUS
 62
    6
 10
1576.0486606903996
 20
503.53173036929093
 11
1551.0900366903807
 21
503.53173036929093
  0
ARC
  8
_0-3_躯体と製品
  6
CONTINUOUS
 62
    6
 10
1551.0900366903684
 20
504.05241836929918
 40
0.5206880000082846
 50
180.00000000134875
 51
270.00000000134878
  0
LINE
  8
_0-3_躯体と製品
  6
CONTINUOUS
 62
    6
 10
1550.5693486903601
 20
504.05241836928695
 11
1550.5693486903892
 21
505.51104236929405
  0
ARC
  8
_0-3_躯体と製品
  6
CONTINUOUS
 62
    6
 10
1551.0900366903829
 20
505.51104236929632
 40
0.5206879999937185
 50
90.00000000025409
 51
180.00000000025412
  0
LINE
  8
_0-3_躯体と製品
  6
CONTINUOUS
 62
    6
 10
1551.0900366903807
 20
506.03173036929007
 11
1576.0486606903996
 21
506.03173036929007
  0
LINE
  8
_0-3_躯体と製品
  6
CONTINUOUS
 62
    6
 10
1576.0486606903996
 20
506.03173036929007
 11
1576.5693486903601
 21
505.51104236929405
  0
LINE
  8
_0-3_躯体と製品
  6
CONTINUOUS
 62
    7
 10
657.7693489991799
 20
422.53173036933191
 11
1738.5693486903892
 21
422.53173036933191
  0
LINE
  8
_0-3_躯体と製品
  6
CONTINUOUS
 62
    3
 10
793.56934869653003
 20
429.33173037769478
 11
793.56934869653003
 21
501.53173036933094
  0
LINE
  8
_0-3_躯体と製品
  6
CONTINUOUS
 62
    3
 10
783.56934868425014
 20
429.33173037769478
 11
783.56934868425014
 21
501.53173036933094
  0
LINE
  8
_0-3_躯体と製品
  6
CONTINUOUS
 62
    3
 10
795.56934869898043
 20
429.33173037769478
 11
795.56934869898043
 21
501.53173036933094
  0
LINE
  8
_0-3_躯体と製品
  6
CONTINUOUS
 62
    3
 10
781.56934868174915
 20
429.33173037769478
 11
781.56934868174915
 21
501.53173036933094
  0
LINE
  8
_0-3_躯体と製品
  6
CONTINUOUS
 62
    3
 10
826.06934873652062
 20
424.53173037179113
 11
826.06934873652062
 21
422.53173036933191
  0
LINE
  8
_0-3_躯体と製品
  6
CONTINUOUS
 62
    3
 10
751.06934864425966
 20
424.53173037179113
 11
751.06934864425966
 21
422.53173036933191
  0
LINE
  8
_0-3_躯体と製品
  6
CONTINUOUS
 62
    3
 10
751.06934864425966
 20
422.53173036933191
 11
826.06934873652062
 21
422.53173036933191
  0
LINE
  8
_0-3_躯体と製品
  6
CONTINUOUS
 62
    3
 10
776.72906114146997
 20
429.33173037769478
 11
801.42624477504057
 21
429.33173037769478
  0
LINE
  8
_0-3_躯体と製品
  6
CONTINUOUS
 62
    3
 10
760.17091732044889
 20
426.53173037425773
 11
816.07616690601935
 21
426.53173037425773
  0
LINE
  8
_0-3_躯体と製品
  6
CONTINUOUS
 62
    3
 10
751.06934864425966
 20
424.53173037179113
 11
826.06934873652062
 21
424.53173037179113
  0
LINE
  8
_0-3_躯体と製品
  6
CONTINUOUS
 62
    3
 10
776.72906114146997
 20
426.53173037425773
 11
776.72906114146997
 21
429.33173037769478
  0
LINE
  8
_0-3_躯体と製品
  6
CONTINUOUS
 62
    3
 10
764.31934866055963
 20
425.63173037314982
 11
765.70134904971928
 21
424.53173037179113
  0
LINE
  8
_0-3_躯体と製品
  6
CONTINUOUS
 62
    3
 10
764.31934866055963
 20
425.63173037314982
 11
755.31934864950017
 21
425.63173037314982
  0
LINE
  8
_0-3_躯体と製品
  6
CONTINUOUS
 62
    3
 10
755.31934864950017
 20
425.63173037314982
 11
753.93734864777059
 21
424.53173037179113
  0
LINE
  8
_0-3_躯体と製品
  6
CONTINUOUS
 62
    3
 10
759.54909913785912
 20
425.63173037314982
 11
760.17091732044889
 21
426.53173037425773
  0
LINE
  8
_0-3_躯体と製品
  6
CONTINUOUS
 62
    3
 10
801.42624477504057
 20
426.53173037425773
 11
801.42624477504057
 21
429.33173037769478
  0
LINE
  8
_0-3_躯体と製品
  6
CONTINUOUS
 62
    3
 10
821.81934873128
 20
425.63173037314982
 11
823.20134873294955
 21
424.53173037179113
  0
LINE
  8
_0-3_躯体と製品
  6
CONTINUOUS
 62
    3
 10
812.81934872022077
 20
425.63173037314982
 11
811.43734833105918
 21
424.53173037179113
  0
LINE
  8
_0-3_躯体と製品
  6
CONTINUOUS
 62
    3
 10
816.07616690601935
 20
426.53173037425773
 11
816.69798508860003
 21
425.63173037314982
  0
LINE
  8
_0-3_躯体と製品
  6
CONTINUOUS
 62
    3
 10
812.81934872022077
 20
425.63173037314982
 11
821.81934873128
 21
425.63173037314982
  0
LINE
  8
_0-5_中心線
  6
CENTER1
 62
    7
 10
788.56934869038923
 20
571.70089074330281
 11
788.56934869038923
 21
419.15134428701504
  0
LINE
  8
_0-3_躯体と製品
  6
CONTINUOUS
 62
    6
 10
775.56934869042016
 20
505.32853599872806
 11
775.56934869042016
 21
502.53173036933094
  0
LINE
  8
_0-3_躯体と製品
  6
CONTINUOUS
 62
    6
 10
775.56934869042016
 20
502.53173036933094
 11
837.56934869042016
 21
502.53173036933094
  0
LINE
  8
_0-3_躯体と製品
  6
CONTINUOUS
 62
    6
 10
837.56934869042016
 20
502.53173036933094
 11
837.56934869042016
 21
505.32853599872806
  0
ARC
  8
_0-3_躯体と製品
  6
CONTINUOUS
 62
    6
 10
836.36615431981386
 20
505.32853599872465
 40
1.2031943706062973
 50
0.0000000001624184
 51
90.00000000016243
  0
LINE
  8
_0-3_躯体と製品
  6
CONTINUOUS
 62
    6
 10
836.36615431981045
 20
506.53173036933094
 11
776.77254306102986
 21
506.53173036933094
  0
LINE
  8
_0-3_躯体と製品
  6
CONTINUOUS
 62
    6
 10
776.77254306102986
 20
506.53173036933094
 11
775.56934869042016
 21
505.32853599872806
  0
LINE
  8
_0-3_躯体と製品
  6
CONTINUOUS
 62
    6
 10
796.06934869042016
 20
502.53173036933094
 11
796.06934869042016
 21
501.53173036933094
  0
LINE
  8
_0-3_躯体と製品
  6
CONTINUOUS
 62
    6
 10
796.06934869042016
 20
501.53173036933094
 11
781.06934869042016
 21
501.53173036933094
  0
LINE
  8
_0-3_躯体と製品
  6
CONTINUOUS
 62
    6
 10
781.06934869042016
 20
501.53173036933094
 11
781.06934869042016
 21
502.53173036933094
  0
LINE
  8
_0-3_躯体と製品
  6
CONTINUOUS
 62
    6
 10
775.56934869042016
 20
508.51104236933406
 11
775.56934869038002
 21
507.05241836932686
  0
ARC
  8
_0-3_躯体と製品
  6
CONTINUOUS
 62
    6
 10
776.09003669037838
 20
507.05241836932913
 40
0.5206879999982305
 50
180.00000000025801
 51
270.00000000025801
  0
LINE
  8
_0-3_躯体と製品
  6
CONTINUOUS
 62
    6
 10
776.09003669038066
 20
506.53173036933094
 11
801.04866069039963
 21
506.53173036933094
  0
ARC
  8
_0-3_躯体と製品
  6
CONTINUOUS
 62
    6
 10
801.04866069041179
 20
507.05241836933908
 40
0.520688000008178
 50
269.99999999864735
 51
359.99999999864741
  0
LINE
  8
_0-3_躯体と製品
  6
CONTINUOUS
 62
    6
 10
801.56934869042004
 20
507.05241836932686
 11
801.56934869040015
 21
508.51104236933406
  0
ARC
  8
_0-3_躯体と製品
  6
CONTINUOUS
 62
    6
 10
801.04866069040156
 20
508.51104236933224
 40
0.5206879999987278
 50
0.0000000002032916
 51
90.0000000002033
  0
LINE
  8
_0-3_躯体と製品
  6
CONTINUOUS
 62
    6
 10
801.04866069039963
 20
509.03173036933094
 11
776.09003669038066
 21
509.03173036933094
  0
LINE
  8
_0-3_躯体と製品
  6
CONTINUOUS
 62
    6
 10
776.09003669038066
 20
509.03173036933094
 11
775.56934869042016
 21
508.51104236933406
  0
LINE
  8
_0-3_躯体と製品
  6
CONTINUOUS
 62
    3
 10
799.56934869038923
 20
509.03173036933094
 11
799.56934869038923
 21
533.03173036933094
  0
LINE
  8
_0-3_躯体と製品
  6
CONTINUOUS
 62
    3
 10
777.56934869038923
 20
509.03173036933094
 11
777.56934869038923
 21
533.03173036933094
  0
LINE
  8
_0-3_躯体と製品
  6
CONTINUOUS
 62
    3
 10
777.56934869038923
 20
509.03173036933094
 11
799.56934869038923
 21
509.03173036933094
  0
LINE
  8
_0-3_躯体と製品
  6
CONTINUOUS
 62
    4
 10
751.86934869037941
 20
540.03173036933094
 11
825.26934869039906
 21
540.03173036933094
  0
LINE
  8
_0-3_躯体と製品
  6
CONTINUOUS
 62
    4
 10
825.26934869039906
 20
540.03173036933094
 11
825.26934869039906
 21
541.03173036933094
  0
LINE
  8
_0-3_躯体と製品
  6
CONTINUOUS
 62
    4
 10
825.26934869039906
 20
541.03173036933094
 11
751.86934869037941
 21
541.03173036933094
  0
LINE
  8
_0-3_躯体と製品
  6
CONTINUOUS
 62
    4
 10
751.86934869037941
 20
541.03173036933094
 11
751.86934869037941
 21
540.03173036933094
  0
LINE
  8
_0-3_躯体と製品
  6
CONTINUOUS
 62
    3
 10
823.56934869038923
 20
533.03173036933094
 11
753.56934869038923
 21
533.03173036933094
  0
LINE
  8
_0-3_躯体と製品
  6
CONTINUOUS
 62
    3
 10
753.56934869038923
 20
537.03173036933094
 11
778.06934869038912
 21
537.03173036933094
  0
LINE
  8
_0-3_躯体と製品
  6
CONTINUOUS
 62
    3
 10
781.06934869038923
 20
537.03173036933094
 11
796.06934869038923
 21
537.03173036933094
  0
LINE
  8
_0-3_躯体と製品
  6
CONTINUOUS
 62
    3
 10
799.06934869038935
 20
537.03173036933094
 11
823.56934869038923
 21
537.03173036933094
  0
LINE
  8
_0-3_躯体と製品
  6
CONTINUOUS
 62
    3
 10
753.56934869038923
 20
533.03173036933094
 11
753.56934869038923
 21
540.03173036933094
  0
LINE
  8
_0-3_躯体と製品
  6
CONTINUOUS
 62
    3
 10
823.56934869038923
 20
533.03173036933094
 11
823.56934869038923
 21
540.03173036933094
  0
LINE
  8
_0-3_躯体と製品
  6
CONTINUOUS
 62
    4
 10
765.59434869035977
 20
537.03173036933094
 11
765.59434869035977
 21
534.23173036933485
  0
LINE
  8
_0-3_躯体と製品
  6
CONTINUOUS
 62
    4
 10
765.59434869035977
 20
534.23173036933485
 11
760.54434869036959
 21
534.23173036933485
  0
LINE
  8
_0-3_躯体と製品
  6
CONTINUOUS
 62
    4
 10
760.54434869036959
 20
537.03173036933094
 11
760.54434869036959
 21
534.23173036933485
  0
LINE
  8
_0-3_躯体と製品
  6
HASEN
 62
    2
 10
765.59434869035977
 20
537.55661356448491
 11
760.54434869036959
 21
537.55661356448491
  0
LINE
  8
_0-3_躯体と製品
  6
HASEN
 62
    2
 10
765.59434869035977
 20
537.056613564484
 11
760.54434869036959
 21
537.056613564484
  0
ARC
  8
_0-3_躯体と製品
  6
HASEN
 62
    2
 10
765.53809869038923
 20
537.30661356448491
 40
0.2562499999998978
 50
282.68038349357067
 51
77.319616506429071
  0
ARC
  8
_0-3_躯体と製品
  6
HASEN
 62
    2
 10
760.60059869038923
 20
537.30661356448491
 40
0.2562500000005634
 50
102.68038349357069
 51
257.31961650642921
  0
LINE
  8
_0-3_躯体と製品
  6
HASEN
 62
    2
 10
765.59434869035977
 20
537.03173036933094
 11
765.59434869035067
 21
537.056613564484
  0
LINE
  8
_0-3_躯体と製品
  6
HASEN
 62
    2
 10
765.59434869035067
 20
537.55661356448491
 11
765.59434869035067
 21
540.03173036933094
  0
LINE
  8
_0-3_躯体と製品
  6
HASEN
 62
    2
 10
760.54434869036049
 20
537.03173036933094
 11
760.54434869036049
 21
537.056613564484
  0
LINE
  8
_0-3_躯体と製品
  6
HASEN
 62
    2
 10
760.54434869036049
 20
537.55661356448491
 11
760.54434869036049
 21
540.03173036933094
  0
LINE
  8
_0-3_躯体と製品
  6
CONTINUOUS
 62
    4
 10
811.54434869042973
 20
537.03173036933094
 11
811.54434869042973
 21
534.23173036933485
  0
LINE
  8
_0-3_躯体と製品
  6
CONTINUOUS
 62
    4
 10
811.54434869042973
 20
534.23173036933485
 11
816.5943486904107
 21
534.23173036933485
  0
LINE
  8
_0-3_躯体と製品
  6
CONTINUOUS
 62
    4
 10
816.5943486904107
 20
537.03173036933094
 11
816.5943486904107
 21
534.23173036933485
  0
LINE
  8
_0-3_躯体と製品
  6
HASEN
 62
    2
 10
811.54434869042973
 20
537.55661356448491
 11
816.5943486904107
 21
537.55661356448491
  0
LINE
  8
_0-3_躯体と製品
  6
HASEN
 62
    2
 10
811.54434869042973
 20
537.056613564484
 11
816.5943486904107
 21
537.056613564484
  0
ARC
  8
_0-3_躯体と製品
  6
HASEN
 62
    2
 10
811.60059869038923
 20
537.30661356448491
 40
0.2562499999998978
 50
102.68038349357069
 51
257.31961650642921
  0
ARC
  8
_0-3_躯体と製品
  6
HASEN
 62
    2
 10
816.53809869038923
 20
537.30661356448491
 40
0.2562500000005634
 50
282.68038349357067
 51
77.319616506429071
  0
LINE
  8
_0-3_躯体と製品
  6
HASEN
 62
    2
 10
811.54434869042973
 20
537.03173036933094
 11
811.54434869042973
 21
537.056613564484
  0
LINE
  8
_0-3_躯体と製品
  6
HASEN
 62
    2
 10
811.54434869042973
 20
537.55661356448491
 11
811.54434869042973
 21
540.03173036933094
  0
LINE
  8
_0-3_躯体と製品
  6
HASEN
 62
    2
 10
816.5943486904107
 20
537.03173036933094
 11
816.5943486904107
 21
537.056613564484
  0
LINE
  8
_0-3_躯体と製品
  6
HASEN
 62
    2
 10
816.5943486904107
 20
537.55661356448491
 11
816.5943486904107
 21
540.03173036933094
  0
LINE
  8
_0-3_躯体と製品
  6
CONTINUOUS
 62
    3
 10
796.06934869038923
 20
537.03173036933094
 11
796.31934869038923
 21
533.03173036933094
  0
LINE
  8
_0-3_躯体と製品
  6
CONTINUOUS
 62
    3
 10
796.31934869038923
 20
533.03173036933094
 11
798.81934869038923
 21
533.03173036933094
  0
LINE
  8
_0-3_躯体と製品
  6
CONTINUOUS
 62
    3
 10
798.81934869038923
 20
533.03173036933094
 11
799.06934869038935
 21
537.03173036933094
  0
LINE
  8
_0-3_躯体と製品
  6
CONTINUOUS
 62
    3
 10
781.06934869038923
 20
537.03173036933094
 11
780.81934869038923
 21
533.03173036933094
  0
LINE
  8
_0-3_躯体と製品
  6
CONTINUOUS
 62
    3
 10
780.81934869038923
 20
533.03173036933094
 11
778.31934869038923
 21
533.03173036933094
  0
LINE
  8
_0-3_躯体と製品
  6
CONTINUOUS
 62
    3
 10
778.31934869038923
 20
533.03173036933094
 11
778.06934869038912
 21
537.03173036933094
  0
LINE
  8
_0-3_躯体と製品
  6
CONTINUOUS
 62
    4
 10
849.77541651664978
 20
422.53173036933191
 11
819.77541651664978
 21
392.53173036933191
  0
LINE
  8
_0-3_躯体と製品
  6
CONTINUOUS
 62
    4
 10
859.77541651664978
 20
422.53173036933191
 11
829.77541651664978
 21
392.53173036933191
  0
LINE
  8
_0-3_躯体と製品
  6
CONTINUOUS
 62
    4
 10
869.77541651664978
 20
422.53173036933191
 11
839.77541651664978
 21
392.53173036933191
  0
LINE
  8
_0-3_躯体と製品
  6
CONTINUOUS
 62
    4
 10
1049.505051112219
 20
422.53173036933191
 11
1019.5050511122299
 21
392.53173036933191
  0
LINE
  8
_0-3_躯体と製品
  6
CONTINUOUS
 62
    4
 10
1059.505051112219
 20
422.53173036933191
 11
1029.505051112219
 21
392.53173036933191
  0
LINE
  8
_0-3_躯体と製品
  6
CONTINUOUS
 62
    4
 10
1069.505051112219
 20
422.53173036933191
 11
1039.505051112219
 21
392.53173036933191
  0
LINE
  8
_0-3_躯体と製品
  6
CONTINUOUS
 62
    4
 10
1249.505051112219
 20
422.53173036933191
 11
1219.5050511122299
 21
392.53173036933191
  0
LINE
  8
_0-3_躯体と製品
  6
CONTINUOUS
 62
    4
 10
1259.505051112219
 20
422.53173036933191
 11
1229.505051112219
 21
392.53173036933191
  0
LINE
  8
_0-3_躯体と製品
  6
CONTINUOUS
 62
    4
 10
1269.505051112219
 20
422.53173036933191
 11
1239.505051112219
 21
392.53173036933191
  0
LINE
  8
_0-3_躯体と製品
  6
CONTINUOUS
 62
    4
 10
1449.505051112219
 20
422.53173036933191
 11
1419.5050511122299
 21
392.53173036933191
  0
LINE
  8
_0-3_躯体と製品
  6
CONTINUOUS
 62
    4
 10
1459.505051112219
 20
422.53173036933191
 11
1429.505051112219
 21
392.53173036933191
  0
LINE
  8
_0-3_躯体と製品
  6
CONTINUOUS
 62
    4
 10
1469.505051112219
 20
422.53173036933191
 11
1439.505051112219
 21
392.53173036933191
  0
LINE
  8
_0-3_躯体と製品
  6
CONTINUOUS
 62
    4
 10
1649.7754165166498
 20
422.53173036933191
 11
1619.7754165166607
 21
392.53173036933191
  0
LINE
  8
_0-3_躯体と製品
  6
CONTINUOUS
 62
    4
 10
1659.7754165166498
 20
422.53173036933191
 11
1629.7754165166498
 21
392.53173036933191
  0
LINE
  8
_0-3_躯体と製品
  6
CONTINUOUS
 62
    4
 10
1669.7754165166498
 20
422.53173036933191
 11
1639.7754165166607
 21
392.53173036933191
  0
LINE
  8
_0-4_文字-記号
  6
CONTINUOUS
 62
    7
 10
1313.9645597946401
 20
537.16624503987896
 11
1333.5256438505203
 21
503.28545360397175
  0
LINE
  8
_0-4_文字-記号
  6
CONTINUOUS
 62
    7
 10
1333.5256438505203
 20
503.28545360397175
 11
1463.2099339933102
 21
503.28545360397175
  0
TEXT
  8
_0-4_文字-記号
 62
    7
 10
1339.24301890692
 20
505.69700706963204
 40
10
 41
1
 50
0
  1
ＯＡパネル ５００角
  0
TEXT
  8
_0-4_文字-記号
 62
    7
 10
822.42737517271962
 20
479.49705777313011
 40
10
 41
1
 50
0
  1
端部支持脚
  0
LINE
  8
_0-2_寸法
  6
CONTINUOUS
 62
    4
 10
1743.5693486903892
 20
566.03173036933185
 11
1772.2326051813598
 21
566.03173036933185
  0
LINE
  8
_0-2_寸法
  6
CONTINUOUS
 62
    4
 10
1743.5693486903892
 20
572.53173036933185
 11
1798.5139758818896
 21
572.53173036933185
  0
LINE
  8
_0-2_寸法
  6
CONTINUOUS
 62
    4
 10
1798.5139404331003
 20
572.53173036933185
 11
1798.5139404331003
 21
574.53173036933185
  0
TEXT
  8
_0-2_寸法
 62
    7
 10
1793.5139404331003
 20
576.36859346759911
 40
10
 41
1
 50
90
  1
6.5
  0
LINE
  8
_0-2_寸法
  6
CONTINUOUS
 62
    4
 10
1798.5139404331003
 20
574.53173036933185
 11
1798.5146139601693
 21
536.53173036929275
  0
TEXT
  8
_0-4_文字-記号
 62
    7
 10
1112.0267579126794
 20
375.41870144721497
 40
10
 41
1
 50
0
  1
接着固定 ピタワン（F☆☆☆☆品）
  0
LINE
  8
_0-4_文字-記号
  6
CONTINUOUS
 62
    7
 10
1073.0107763228607
 20
422.53173036933777
 11
1103.0844408581706
 21
370.44261542440108
  0
LINE
  8
_0-4_文字-記号
  6
CONTINUOUS
 62
    7
 10
1103.0844408581706
 20
370.44261542440108
 11
1301.5725701906904
 21
370.44261542440108
  0
TEXT
  8
_0-4_文字-記号
 62
    7
 10
1591.8844079252103
 20
608.01629026262208
 40
10
 41
1
 50
0
  1
ビス留め
  0
LINE
  8
_0-4_文字-記号
  6
CONTINUOUS
 62
    7
 10
1563.5693486903892
 20
566.03173036933276
 11
1586.4724067763491
 21
605.70099062291683
  0
LINE
  8
_0-4_文字-記号
  6
CONTINUOUS
 62
    7
 10
1586.4724067763491
 20
605.70099062291683
 11
1648.4745759516591
 21
605.70099062291683
  0
TEXT
  8
_0-4_文字-記号
 62
    7
 10
1248.5529756179603
 20
608.01629026262208
 40
10
 41
1
 50
0
  1
タイルカーペット
  0
LINE
  8
_0-4_文字-記号
  6
CONTINUOUS
 62
    7
 10
1223.9799232623791
 20
572.51307640644472
 11
1243.1409744690991
 21
605.70099062291683
  0
LINE
  8
_0-4_文字-記号
  6
CONTINUOUS
 62
    7
 10
1243.1409744690991
 20
605.70099062291683
 11
1347.598692152289
 21
605.70099062291683
  0
LINE
  8
_0-3_躯体と製品
  6
CONTINUOUS
 62
    7
 10
723.56934899917917
 20
423.33173036933204
 11
658.56934899917917
 21
423.33173036933204
  0
LINE
  8
_0-3_躯体と製品
  6
CONTINUOUS
 62
    7
 10
657.7693489991799
 20
422.53173036933191
 11
657.7693489991799
 21
462.53173036933094
  0
LINE
  8
_0-3_躯体と製品
  6
CONTINUOUS
 62
    7
 10
665.56934899917906
 20
423.33173036933204
 11
665.56934899917906
 21
709.16624503992989
  0
LINE
  8
_0-3_躯体と製品
  6
CONTINUOUS
 62
    7
 10
658.56934899917917
 20
423.33173036933204
 11
658.56934899917917
 21
709.16624503992989
  0
LINE
  8
_0-3_躯体と製品
  6
CONTINUOUS
 62
    7
 10
658.56934899917917
 20
462.53173036933094
 11
657.7693489991799
 21
462.53173036933094
  0
LINE
  8
_0-3_躯体と製品
  6
CONTINUOUS
 62
    7
 10
724.36934899918015
 20
422.53173036933191
 11
724.36934899918015
 21
462.53173036933094
  0
LINE
  8
_0-3_躯体と製品
  6
CONTINUOUS
 62
    7
 10
733.56934899917917
 20
422.53173036933191
 11
733.56934899917917
 21
709.16624503992989
  0
LINE
  8
_0-3_躯体と製品
  6
CONTINUOUS
 62
    7
 10
716.56934899917906
 20
423.33173036933204
 11
716.56934899917906
 21
709.16624503992989
  0
LINE
  8
_0-3_躯体と製品
  6
CONTINUOUS
 62
    7
 10
723.56934899917917
 20
423.33173036933204
 11
723.56934899917917
 21
709.16624503992989
  0
LINE
  8
_0-3_躯体と製品
  6
CONTINUOUS
 62
    7
 10
737.56934899917894
 20
643.66624503992989
 11
737.56934899917894
 21
575.66624503992989
  0
ARC
  8
_0-3_躯体と製品
  6
CONTINUOUS
 62
    7
 10
739.56934899917906
 20
578.66624503992989
 40
6
 50
180
 51
270
  0
LINE
  8
_0-3_躯体と製品
  6
CONTINUOUS
 62
    7
 10
739.56934899917906
 20
573.66624503992898
 11
739.56934899917906
 21
572.66624503992989
  0
ARC
  8
_0-3_躯体と製品
  6
CONTINUOUS
 62
    7
 10
739.56934899917906
 20
575.66624503992989
 40
2
 50
180
 51
270
  0
TEXT
  8
_0-4_文字-記号
 62
    7
 10
754.88985899918043
 20
634.18714464477171
 40
10
 41
1
 50
0
  1
巾　木
  0
LINE
  8
_0-3_躯体と製品
  6
CONTINUOUS
 62
    7
 10
723.56934899917917
 20
462.53173036933094
 11
724.36934899918015
 21
462.53173036933094
  0
LINE
  8
_0-4_文字-記号
  6
CONTINUOUS
 62
    7
 10
737.56934899917894
 20
600.18714464477171
 11
754.88985899918043
 21
630.18714464477171
  0
LINE
  8
_0-4_文字-記号
  6
CONTINUOUS
 62
    7
 10
754.88985899918043
 20
630.18714464477171
 11
791.0098589991793
 21
630.18714464477171
  0
ARC
  8
_0-3_躯体と製品
  6
CONTINUOUS
 62
    7
 10
733.56934899917917
 20
643.66624503992989
 40
4
 50
0
 51
90
  0
LINE
  8
_0-4_文字-記号
  6
CONTINUOUS
 62
    7
 10
795.83528241396925
 20
512.6166822122641
 11
816.60266303299977
 21
476.64652383998782
  0
LINE
  8
_0-4_文字-記号
  6
CONTINUOUS
 62
    7
 10
816.60266303299977
 20
476.64652383998782
 11
885.0011821031203
 21
476.66299344873369
  0
TEXT
  8
_0-4_文字-記号
 62
    7
 10
1594.2280137771304
 20
476.03811391040466
 40
10
 41
1
 50
0
  1
標準支持脚
  0
LINE
  8
_0-4_文字-記号
  6
CONTINUOUS
 62
    7
 10
1568.904755660129
 20
508.6166822122259
 11
1589.6721362791595
 21
472.64652383995099
  0
LINE
  8
_0-4_文字-記号
  6
CONTINUOUS
 62
    7
 10
1589.6721362791595
 20
472.64652383995099
 11
1658.0706553492801
 21
472.66299344869594
  0
TEXT
  8
_0-4_文字-記号
 62
    7
 10
1107.4698206402099
 20
322.09910908799611
 40
15
 41
1
 50
0
  1
ボーダー部断面図（パーチの場合）
  0
LINE
  8
_0-4_文字-記号
  6
CONTINUOUS
 62
    7
 10
1398.370823736599
 20
344.33668595101466
 11
1398.370823736599
 21
315.3190205514129
  0
LINE
  8
_0-4_文字-記号
  6
CONTINUOUS
 62
    7
 10
1398.370823736599
 20
315.3190205514129
 11
1089.4231132713503
 21
315.3190205514129
  0
LINE
  8
_0-4_文字-記号
  6
CONTINUOUS
 62
    7
 10
1089.4231132713503
 20
315.3190205514129
 11
1089.4231132713503
 21
344.33668595101466
  0
LINE
  8
_0-4_文字-記号
  6
CONTINUOUS
 62
    7
 10
1089.4231132713503
 20
344.33668595101466
 11
1398.370823736599
 21
344.33668595101466
  0
TEXT
  8
_0-4_文字-記号
 62
    7
 10
1452.5997625510299
 20
459.44523422170278
 40
10
 41
1
 50
0
  1
固定金具
  0
LINE
  8
_0-4_文字-記号
  6
CONTINUOUS
 62
    7
 10
1536.0083410130301
 20
499.53173036929087
 11
1507.4075258784796
 21
454.30538173240478
  0
LINE
  8
_0-4_文字-記号
  6
CONTINUOUS
 62
    7
 10
1507.4075258784796
 20
454.30538173240478
 11
1445.8781956110506
 21
454.30538173240478
  0
LINE
  8
_0-3_躯体と製品
  6
CONTINUOUS
 62
    3
 10
733.56934899917917
 20
572.53173036933185
 11
1738.5693486903892
 21
572.53173036933185
  0
LINE
  8
_0-3_躯体と製品
  6
CONTINUOUS
 62
    3
 10
733.56934899917917
 20
566.03173036933413
 11
1738.5693486903892
 21
566.03173036933595
  0
LINE
  8
_0-3_躯体と製品
  6
CONTINUOUS
 62
    3
 10
733.56934899917917
 20
567.03173036933276
 11
1738.5693486903892
 21
567.03173036933595
  0
LINE
  8
_0-3_躯体と製品
  6
CONTINUOUS
 62
    3
 10
733.56934899917917
 20
568.03173036933413
 11
1738.5693486903892
 21
568.03173036933595
  0
LINE
  8
_0-3_躯体と製品
  6
CONTINUOUS
 62
    3
 10
1068.5693486965301
 20
429.33173037769478
 11
1068.5693486965301
 21
497.53173036929098
  0
LINE
  8
_0-3_躯体と製品
  6
CONTINUOUS
 62
    3
 10
1058.5693486842501
 20
429.33173037769478
 11
1058.5693486842501
 21
497.53173036929098
  0
LINE
  8
_0-3_躯体と製品
  6
CONTINUOUS
 62
    3
 10
1070.5693486989803
 20
429.33173037769478
 11
1070.5693486989803
 21
497.53173036929098
  0
LINE
  8
_0-3_躯体と製品
  6
CONTINUOUS
 62
    3
 10
1056.569348681749
 20
429.33173037769478
 11
1056.569348681749
 21
497.53173036929098
  0
LINE
  8
_0-3_躯体と製品
  6
CONTINUOUS
 62
    3
 10
1101.0693487365206
 20
424.53173037179113
 11
1101.0693487365206
 21
422.53173036933191
  0
LINE
  8
_0-3_躯体と製品
  6
CONTINUOUS
 62
    3
 10
1026.0693486442597
 20
424.53173037179113
 11
1026.0693486442597
 21
422.53173036933191
  0
LINE
  8
_0-3_躯体と製品
  6
CONTINUOUS
 62
    3
 10
1026.0693486442597
 20
422.53173036933191
 11
1101.0693487365206
 21
422.53173036933191
  0
LINE
  8
_0-3_躯体と製品
  6
CONTINUOUS
 62
    3
 10
1051.7290611414701
 20
429.33173037769478
 11
1076.4262447750407
 21
429.33173037769478
  0
LINE
  8
_0-3_躯体と製品
  6
CONTINUOUS
 62
    3
 10
1035.170917320449
 20
426.53173037425773
 11
1091.0761669060194
 21
426.53173037425773
  0
LINE
  8
_0-3_躯体と製品
  6
CONTINUOUS
 62
    3
 10
1026.0693486442597
 20
424.53173037179113
 11
1101.0693487365206
 21
424.53173037179113
  0
LINE
  8
_0-3_躯体と製品
  6
CONTINUOUS
 62
    3
 10
1051.7290611414701
 20
426.53173037425773
 11
1051.7290611414701
 21
429.33173037769478
  0
LINE
  8
_0-3_躯体と製品
  6
CONTINUOUS
 62
    3
 10
1039.3193486605596
 20
425.63173037314982
 11
1040.7013490497193
 21
424.53173037179113
  0
LINE
  8
_0-3_躯体と製品
  6
CONTINUOUS
 62
    3
 10
1039.3193486605596
 20
425.63173037314982
 11
1030.3193486495002
 21
425.63173037314982
  0
LINE
  8
_0-3_躯体と製品
  6
CONTINUOUS
 62
    3
 10
1030.3193486495002
 20
425.63173037314982
 11
1028.9373486477707
 21
424.53173037179113
  0
LINE
  8
_0-3_躯体と製品
  6
CONTINUOUS
 62
    3
 10
1034.5490991378592
 20
425.63173037314982
 11
1035.170917320449
 21
426.53173037425773
  0
LINE
  8
_0-3_躯体と製品
  6
CONTINUOUS
 62
    3
 10
1076.4262447750407
 20
426.53173037425773
 11
1076.4262447750407
 21
429.33173037769478
  0
LINE
  8
_0-3_躯体と製品
  6
CONTINUOUS
 62
    3
 10
1096.8193487312801
 20
425.63173037314982
 11
1098.2013487329605
 21
424.53173037179113
  0
LINE
  8
_0-3_躯体と製品
  6
CONTINUOUS
 62
    3
 10
1087.8193487202207
 20
425.63173037314982
 11
1086.4373483310701
 21
424.53173037179113
  0
LINE
  8
_0-3_躯体と製品
  6
CONTINUOUS
 62
    3
 10
1091.0761669060194
 20
426.53173037425773
 11
1091.6979850886
 21
425.63173037314982
  0
LINE
  8
_0-3_躯体と製品
  6
CONTINUOUS
 62
    3
 10
1087.8193487202207
 20
425.63173037314982
 11
1096.8193487312801
 21
425.63173037314982
  0
LINE
  8
_0-3_躯体と製品
  6
CONTINUOUS
 62
    6
 10
1050.5693486904202
 20
501.3285359986881
 11
1050.5693486904202
 21
498.53173036929007
  0
LINE
  8
_0-3_躯体と製品
  6
CONTINUOUS
 62
    6
 10
1050.5693486904202
 20
498.53173036929007
 11
1112.5693486904202
 21
498.53173036929007
  0
LINE
  8
_0-3_躯体と製品
  6
CONTINUOUS
 62
    6
 10
1112.5693486904202
 20
498.53173036929007
 11
1112.5693486904202
 21
501.3285359986881
  0
ARC
  8
_0-3_躯体と製品
  6
CONTINUOUS
 62
    6
 10
1111.3661543198143
 20
501.32853599868429
 40
1.2031943706057999
 50
0.0000000001861048
 51
90.00000000018612
  0
LINE
  8
_0-3_躯体と製品
  6
CONTINUOUS
 62
    6
 10
1111.3661543198104
 20
502.53173036929002
 11
1051.7725430610299
 21
502.53173036929002
  0
LINE
  8
_0-3_躯体と製品
  6
CONTINUOUS
 62
    6
 10
1051.7725430610299
 20
502.53173036929002
 11
1050.5693486904202
 21
501.3285359986881
  0
LINE
  8
_0-3_躯体と製品
  6
CONTINUOUS
 62
    6
 10
1071.0693486904202
 20
498.53173036929007
 11
1071.0693486904202
 21
497.53173036929098
  0
LINE
  8
_0-3_躯体と製品
  6
CONTINUOUS
 62
    6
 10
1071.0693486904202
 20
497.53173036929098
 11
1056.0693486904202
 21
497.53173036929098
  0
LINE
  8
_0-3_躯体と製品
  6
CONTINUOUS
 62
    6
 10
1056.0693486904202
 20
497.53173036929098
 11
1056.0693486904202
 21
498.53173036929007
  0
LINE
  8
_0-3_躯体と製品
  6
CONTINUOUS
 62
    6
 10
1050.5693486904202
 20
504.51104236929268
 11
1050.5693486903892
 21
503.0524183692869
  0
ARC
  8
_0-3_躯体と製品
  6
CONTINUOUS
 62
    6
 10
1051.0900366903834
 20
503.05241836928406
 40
0.5206879999941095
 50
179.99999999969506
 51
269.99999999969509
  0
LINE
  8
_0-3_躯体と製品
  6
CONTINUOUS
 62
    6
 10
1051.0900366903807
 20
502.53173036929002
 11
1076.0486606903996
 21
502.53173036929002
  0
ARC
  8
_0-3_躯体と製品
  6
CONTINUOUS
 62
    6
 10
1076.0486606904115
 20
503.05241836929866
 40
0.5206880000087464
 50
269.99999999869431
 51
359.99999999869431
  0
LINE
  8
_0-3_躯体と製品
  6
CONTINUOUS
 62
    6
 10
1076.5693486904202
 20
503.0524183692869
 11
1076.5693486904001
 21
504.51104236929268
  0
ARC
  8
_0-3_躯体と製品
  6
CONTINUOUS
 62
    6
 10
1076.0486606904012
 20
504.51104236929109
 40
0.520687999998941
 50
0.0000000001798346
 51
90.000000000179838
  0
LINE
  8
_0-3_躯体と製品
  6
CONTINUOUS
 62
    6
 10
1076.0486606903996
 20
505.03173036929002
 11
1051.0900366903807
 21
505.03173036929002
  0
LINE
  8
_0-3_躯体と製品
  6
CONTINUOUS
 62
    6
 10
1051.0900366903807
 20
505.03173036929002
 11
1050.5693486904202
 21
504.51104236929268
  0
LINE
  8
_0-3_躯体と製品
  6
CONTINUOUS
 62
    3
 10
1074.5693486903892
 20
505.03173036929002
 11
1074.5693486903892
 21
529.03173036929002
  0
LINE
  8
_0-3_躯体と製品
  6
CONTINUOUS
 62
    3
 10
1052.5693486903892
 20
505.03173036929002
 11
1052.5693486903892
 21
529.03173036929002
  0
LINE
  8
_0-3_躯体と製品
  6
CONTINUOUS
 62
    3
 10
1052.5693486903892
 20
505.03173036929002
 11
1074.5693486903892
 21
505.03173036929002
  0
LINE
  8
_0-3_躯体と製品
  6
CONTINUOUS
 62
    4
 10
1026.8693486903794
 20
536.03173036929002
 11
1100.2693486903991
 21
536.03173036929002
  0
LINE
  8
_0-3_躯体と製品
  6
CONTINUOUS
 62
    4
 10
1100.2693486903991
 20
536.03173036929002
 11
1100.2693486903991
 21
537.03173036929002
  0
LINE
  8
_0-3_躯体と製品
  6
CONTINUOUS
 62
    4
 10
1100.2693486903991
 20
537.03173036929002
 11
1026.8693486903794
 21
537.03173036929002
  0
LINE
  8
_0-3_躯体と製品
  6
CONTINUOUS
 62
    4
 10
1026.8693486903794
 20
537.03173036929002
 11
1026.8693486903794
 21
536.03173036929002
  0
LINE
  8
_0-3_躯体と製品
  6
CONTINUOUS
 62
    3
 10
1098.5693486903892
 20
529.03173036929002
 11
1028.5693486903892
 21
529.03173036929002
  0
LINE
  8
_0-3_躯体と製品
  6
CONTINUOUS
 62
    3
 10
1028.5693486903892
 20
533.03173036929002
 11
1053.0693486903892
 21
533.03173036929002
  0
LINE
  8
_0-3_躯体と製品
  6
CONTINUOUS
 62
    3
 10
1081.0693486903892
 20
533.03173036929002
 11
1096.0693486903892
 21
533.03173036929002
  0
LINE
  8
_0-3_躯体と製品
  6
CONTINUOUS
 62
    3
 10
1074.0693486903892
 20
533.03173036929002
 11
1098.5693486903892
 21
533.03173036929002
  0
LINE
  8
_0-3_躯体と製品
  6
CONTINUOUS
 62
    3
 10
1028.5693486903892
 20
529.03173036929002
 11
1028.5693486903892
 21
536.03173036929002
  0
LINE
  8
_0-3_躯体と製品
  6
CONTINUOUS
 62
    3
 10
1098.5693486903892
 20
529.03173036929002
 11
1098.5693486903892
 21
536.03173036929002
  0
LINE
  8
_0-3_躯体と製品
  6
CONTINUOUS
 62
    4
 10
1040.5943486903598
 20
533.03173036929002
 11
1040.5943486903598
 21
530.23173036929393
  0
LINE
  8
_0-3_躯体と製品
  6
CONTINUOUS
 62
    4
 10
1040.5943486903598
 20
530.23173036929393
 11
1035.5443486903696
 21
530.23173036929393
  0
LINE
  8
_0-3_躯体と製品
  6
CONTINUOUS
 62
    4
 10
1035.5443486903696
 20
533.03173036929002
 11
1035.5443486903696
 21
530.23173036929393
  0
LINE
  8
_0-3_躯体と製品
  6
HASEN
 62
    2
 10
1040.5943486903598
 20
533.55661356444398
 11
1035.5443486903696
 21
533.55661356444398
  0
LINE
  8
_0-3_躯体と製品
  6
HASEN
 62
    2
 10
1040.5943486903598
 20
533.05661356444398
 11
1035.5443486903696
 21
533.05661356444398
  0
ARC
  8
_0-3_躯体と製品
  6
HASEN
 62
    2
 10
1040.5380986903892
 20
533.30661356444489
 40
0.2562499999998978
 50
282.68038349357067
 51
77.319616506429071
  0
ARC
  8
_0-3_躯体と製品
  6
HASEN
 62
    2
 10
1035.6005986903892
 20
533.30661356444489
 40
0.2562500000005634
 50
102.68038349357069
 51
257.31961650642921
  0
LINE
  8
_0-3_躯体と製品
  6
HASEN
 62
    2
 10
1040.5943486903598
 20
533.03173036929002
 11
1040.5943486903507
 21
533.05661356444398
  0
LINE
  8
_0-3_躯体と製品
  6
HASEN
 62
    2
 10
1040.5943486903507
 20
533.55661356444398
 11
1040.5943486903507
 21
536.03173036929002
  0
LINE
  8
_0-3_躯体と製品
  6
HASEN
 62
    2
 10
1035.5443486903605
 20
533.03173036929002
 11
1035.5443486903605
 21
533.05661356444398
  0
LINE
  8
_0-3_躯体と製品
  6
HASEN
 62
    2
 10
1035.5443486903605
 20
533.55661356444398
 11
1035.5443486903605
 21
536.03173036929002
  0
LINE
  8
_0-3_躯体と製品
  6
CONTINUOUS
 62
    4
 10
1086.5443486904296
 20
533.03173036929002
 11
1086.5443486904296
 21
530.23173036929393
  0
LINE
  8
_0-3_躯体と製品
  6
CONTINUOUS
 62
    4
 10
1086.5443486904296
 20
530.23173036929393
 11
1091.5943486904198
 21
530.23173036929393
  0
LINE
  8
_0-3_躯体と製品
  6
CONTINUOUS
 62
    4
 10
1091.5943486904198
 20
533.03173036929002
 11
1091.5943486904198
 21
530.23173036929393
  0
LINE
  8
_0-3_躯体と製品
  6
CONTINUOUS
 62
    3
 10
1071.0693486903892
 20
533.03173036929002
 11
1071.3193486903892
 21
529.03173036929002
  0
LINE
  8
_0-3_躯体と製品
  6
CONTINUOUS
 62
    3
 10
1071.3193486903892
 20
529.03173036929002
 11
1073.8193486903892
 21
529.03173036929002
  0
LINE
  8
_0-3_躯体と製品
  6
CONTINUOUS
 62
    3
 10
1073.8193486903892
 20
529.03173036929002
 11
1074.0693486903892
 21
533.03173036929002
  0
LINE
  8
_0-3_躯体と製品
  6
CONTINUOUS
 62
    3
 10
1056.0693486903892
 20
533.03173036929002
 11
1055.8193486903892
 21
529.03173036929002
  0
LINE
  8
_0-3_躯体と製品
  6
CONTINUOUS
 62
    3
 10
1055.8193486903892
 20
529.03173036929002
 11
1053.3193486903892
 21
529.03173036929002
  0
LINE
  8
_0-3_躯体と製品
  6
CONTINUOUS
 62
    3
 10
1053.3193486903892
 20
529.03173036929002
 11
1053.0693486903892
 21
533.03173036929002
  0
TEXT
  8
_0-4_文字-記号
 62
    7
 10
1097.4273751727196
 20
475.49705777309015
 40
10
 41
1
 50
0
  1
端部支持脚
  0
LINE
  8
_0-4_文字-記号
  6
CONTINUOUS
 62
    7
 10
1070.8352824139693
 20
508.61668221222271
 11
1091.6026630329998
 21
472.64652383994786
  0
LINE
  8
_0-4_文字-記号
  6
CONTINUOUS
 62
    7
 10
1091.6026630329998
 20
472.64652383994786
 11
1160.0011821031203
 21
472.66299344869412
  0
LINE
  8
_0-3_躯体と製品
  6
CONTINUOUS
 62
    2
 10
738.56934869038923
 20
541.03173036933094
 11
1063.0722333795893
 21
541.03173036933094
  0
LINE
  8
_0-3_躯体と製品
  6
CONTINUOUS
 62
    2
 10
1063.0722333795893
 20
541.03173036933094
 11
1063.0722333795893
 21
566.03173036932913
  0
LINE
  8
_0-3_躯体と製品
  6
CONTINUOUS
 62
    2
 10
1063.0722333795893
 20
566.03173036932913
 11
738.56934869038923
 21
566.03173036932913
  0
LINE
  8
_0-3_躯体と製品
  6
CONTINUOUS
 62
    2
 10
738.56934869038923
 20
566.03173036932913
 11
738.56934869038923
 21
541.03173036933094
  0
LINE
  8
_0-3_躯体と製品
  6
CONTINUOUS
 62
    7
 10
1034.8693486903794
 20
537.03173036929002
 11
1057.8693486903794
 21
537.03173036929002
  0
LINE
  8
_0-3_躯体と製品
  6
CONTINUOUS
 62
    7
 10
1057.8693486903794
 20
537.03173036929002
 11
1057.8693486903794
 21
541.03173036933094
  0
LINE
  8
_0-3_躯体と製品
  6
CONTINUOUS
 62
    7
 10
1057.8693486903794
 20
541.03173036933094
 11
1034.8693486903794
 21
541.03173036933094
  0
LINE
  8
_0-3_躯体と製品
  6
CONTINUOUS
 62
    7
 10
1034.8693486903794
 20
541.03173036933094
 11
1034.8693486903794
 21
537.03173036929002
  0
LINE
  8
_0-4_文字-記号
  6
CONTINUOUS
 62
    7
 10
839.61280453387917
 20
559.09185460736171
 11
863.99146267547076
 21
601.31692912896278
  0
LINE
  8
_0-4_文字-記号
  6
CONTINUOUS
 62
    7
 10
863.99146267547076
 20
601.31692912896278
 11
1001.0249872371496
 21
601.31692912896278
  0
TEXT
  8
_0-4_文字-記号
 62
    7
 10
868.42231108212945
 20
616.8287735417357
 40
10
 41
0.8
 50
0
  1
パーティクルボード ｔ=２５
  0
CIRCLE
  8
_0-3_躯体と製品
  6
CONTINUOUS
 62
    2
 10
1025.050054146579
 20
559.64765367955988
 40
0.9999999959999995
  0
CIRCLE
  8
_0-3_躯体と製品
  6
CONTINUOUS
 62
    2
 10
1006.5845992204504
 20
561.13748367359904
 40
1.9999999919999989
  0
CIRCLE
  8
_0-3_躯体と製品
  6
CONTINUOUS
 62
    2
 10
986.34796705424924
 20
562.4746936682568
 40
0.9999999959999995
  0
CIRCLE
  8
_0-3_躯体と製品
  6
CONTINUOUS
 62
    2
 10
992.25904203062964
 20
556.82061869087192
 40
1.9999999919999989
  0
CIRCLE
  8
_0-3_躯体と製品
  6
CONTINUOUS
 62
    2
 10
1011.8504394673801
 20
551.93755371039879
 40
1.9999999919999989
  0
CIRCLE
  8
_0-3_躯体と製品
  6
CONTINUOUS
 62
    2
 10
971.95578211181964
 20
560.93267367443286
 40
1.9999999919999989
  0
CIRCLE
  8
_0-3_躯体と製品
  6
CONTINUOUS
 62
    2
 10
1022.4001428031097
 20
546.02647873403475
 40
0.9999999959999995
  0
CIRCLE
  8
_0-3_躯体と製品
  6
CONTINUOUS
 62
    2
 10
979.4088770820199
 20
548.08250372581097
 40
1.9999999919999989
  0
CIRCLE
  8
_0-3_躯体と製品
  6
CONTINUOUS
 62
    2
 10
995.08608201929019
 20
548.08250372581097
 40
0.9999999959999995
  0
CIRCLE
  8
_0-3_躯体と製品
  6
CONTINUOUS
 62
    2
 10
968.87173712412914
 20
548.8535137227218
 40
0.9999999959999995
  0
CIRCLE
  8
_0-3_躯体と製品
  6
CONTINUOUS
 62
    2
 10
936.17605490407004
 20
547.05448872993975
 40
0.9999999959999995
  0
CIRCLE
  8
_0-3_躯体と製品
  6
CONTINUOUS
 62
    2
 10
947.99820985675069
 20
547.82549872685104
 40
1.9999999919999989
  0
CIRCLE
  8
_0-3_躯体と製品
  6
CONTINUOUS
 62
    2
 10
958.2783448156697
 20
548.59650872376369
 40
0.9999999959999995
  0
CIRCLE
  8
_0-3_躯体と製品
  6
CONTINUOUS
 62
    2
 10
960.07736480847962
 20
561.18967367338291
 40
0.9999999959999995
  0
CIRCLE
  8
_0-3_躯体と製品
  6
CONTINUOUS
 62
    2
 10
926.40992994310909
 20
559.64765367955988
 40
0.9999999959999995
  0
CIRCLE
  8
_0-3_躯体と製品
  6
CONTINUOUS
 62
    2
 10
932.3210049194895
 20
555.79260369497206
 40
1.9999999919999989
  0
CIRCLE
  8
_0-3_躯体と製品
  6
CONTINUOUS
 62
    2
 10
945.68517986598999
 20
558.10563368573594
 40
0.9999999959999995
  0
CIRCLE
  8
_0-3_躯体と製品
  6
CONTINUOUS
 62
    2
 10
897.43840634614025
 20
547.82549872685104
 40
1.9999999919999989
  0
CIRCLE
  8
_0-3_躯体と製品
  6
CONTINUOUS
 62
    2
 10
830.26892561406021
 20
548.8535137227218
 40
0.9999999959999995
  0
CIRCLE
  8
_0-3_躯体と製品
  6
CONTINUOUS
 62
    2
 10
856.48327050921944
 20
548.08250372581097
 40
0.9999999959999995
  0
CIRCLE
  8
_0-3_躯体と製品
  6
CONTINUOUS
 62
    2
 10
840.80606557194915
 20
548.08250372581097
 40
1.9999999919999989
  0
CIRCLE
  8
_0-3_躯体と製品
  6
CONTINUOUS
 62
    2
 10
883.79733129304987
 20
546.02647873403475
 40
0.9999999959999995
  0
CIRCLE
  8
_0-3_躯体と製品
  6
CONTINUOUS
 62
    2
 10
892.22848507984054
 20
546.02647873403475
 40
0.9999999959999995
  0
CIRCLE
  8
_0-3_躯体と製品
  6
CONTINUOUS
 62
    2
 10
823.07283564283898
 20
555.79260369497206
 40
0.9999999959999995
  0
CIRCLE
  8
_0-3_躯体と製品
  6
CONTINUOUS
 62
    2
 10
833.35297060175071
 20
560.93267367443286
 40
1.9999999919999989
  0
CIRCLE
  8
_0-3_躯体と製品
  6
CONTINUOUS
 62
    2
 10
873.24762795730931
 20
551.93755371039879
 40
1.9999999919999989
  0
CIRCLE
  8
_0-3_躯体と製品
  6
CONTINUOUS
 62
    2
 10
853.65623052056981
 20
556.82061869087192
 40
1.9999999919999989
  0
CIRCLE
  8
_0-3_躯体と製品
  6
CONTINUOUS
 62
    2
 10
847.7451555441894
 20
562.4746936682568
 40
0.9999999959999995
  0
CIRCLE
  8
_0-3_躯体と製品
  6
CONTINUOUS
 62
    2
 10
867.98178771037965
 20
561.13748367359904
 40
1.9999999919999989
  0
CIRCLE
  8
_0-3_躯体と製品
  6
CONTINUOUS
 62
    2
 10
880.96769060135011
 20
559.64765367955988
 40
0.9999999959999995
  0
CIRCLE
  8
_0-3_躯体と製品
  6
CONTINUOUS
 62
    2
 10
894.02751007263942
 20
558.61964368366898
 40
0.9999999959999995
  0
CIRCLE
  8
_0-3_躯体と製品
  6
CONTINUOUS
 62
    2
 10
1055.8008296655698
 20
559.1336486816067
 40
0.9999999959999995
  0
CIRCLE
  8
_0-3_躯体と製品
  6
CONTINUOUS
 62
    2
 10
1041.4086447231402
 20
556.04960869395973
 40
0.9999999959999995
  0
CIRCLE
  8
_0-3_躯体と製品
  6
CONTINUOUS
 62
    2
 10
1035.8213647454504
 20
558.48605368420885
 40
1.9999999919999989
  0
CIRCLE
  8
_0-3_躯体と製品
  6
CONTINUOUS
 62
    2
 10
1054.001809672749
 20
546.54048373198793
 40
0.9999999959999995
  0
CIRCLE
  8
_0-3_躯体と製品
  6
CONTINUOUS
 62
    2
 10
1034.7265547498391
 20
546.02647873403475
 40
1.9999999919999989
  0
CIRCLE
  8
_0-3_躯体と製品
  6
CONTINUOUS
 62
    2
 10
824.64390130862921
 20
562.4746936682568
 40
0.9999999959999995
  0
CIRCLE
  8
_0-3_躯体と製品
  6
CONTINUOUS
 62
    2
 10
810.25171636619973
 20
560.93267367443286
 40
1.9999999919999989
  0
CIRCLE
  8
_0-3_躯体と製品
  6
CONTINUOUS
 62
    2
 10
817.70481133639976
 20
548.08250372581097
 40
1.9999999919999989
  0
CIRCLE
  8
_0-3_躯体と製品
  6
CONTINUOUS
 62
    2
 10
807.16767137850923
 20
548.8535137227218
 40
0.9999999959999995
  0
CIRCLE
  8
_0-3_躯体と製品
  6
CONTINUOUS
 62
    2
 10
774.47198915845001
 20
547.05448872993975
 40
0.9999999959999995
  0
CIRCLE
  8
_0-3_躯体と製品
  6
CONTINUOUS
 62
    2
 10
786.29414411113066
 20
547.82549872685104
 40
1.9999999919999989
  0
CIRCLE
  8
_0-3_躯体と製品
  6
CONTINUOUS
 62
    2
 10
796.57427907004057
 20
548.59650872376369
 40
0.9999999959999995
  0
CIRCLE
  8
_0-3_躯体と製品
  6
CONTINUOUS
 62
    2
 10
798.37329906285959
 20
561.18967367338291
 40
0.9999999959999995
  0
CIRCLE
  8
_0-3_躯体と製品
  6
CONTINUOUS
 62
    2
 10
751.50624951827922
 20
551.93755371039879
 40
1.9999999919999989
  0
CIRCLE
  8
_0-3_躯体と製品
  6
CONTINUOUS
 62
    2
 10
746.24040927134956
 20
561.13748367359904
 40
1.9999999919999989
  0
CIRCLE
  8
_0-3_躯体と製品
  6
CONTINUOUS
 62
    2
 10
764.70586419747997
 20
559.64765367955988
 40
0.9999999959999995
  0
CIRCLE
  8
_0-3_躯体と製品
  6
CONTINUOUS
 62
    2
 10
770.61693917386037
 20
555.79260369497206
 40
1.9999999919999989
  0
CIRCLE
  8
_0-3_躯体と製品
  6
CONTINUOUS
 62
    2
 10
783.98111412036997
 20
558.10563368573594
 40
0.9999999959999995
  0
CIRCLE
  8
_0-3_躯体と製品
  6
CONTINUOUS
 62
    2
 10
762.90327362762946
 20
547.82549872685104
 40
1.9999999919999989
  0
CIRCLE
  8
_0-3_躯体と製品
  6
CONTINUOUS
 62
    2
 10
757.69335236132974
 20
546.02647873403475
 40
0.9999999959999995
  0
CIRCLE
  8
_0-3_躯体と製品
  6
CONTINUOUS
 62
    2
 10
744.23543860919017
 20
546.02647873403475
 40
0.9999999959999995
  0
TEXT
  8
_0-4_文字-記号
 62
    7
 10
906.81910963347946
 20
604.46068308511212
 40
10
 41
0.8
 50
0
  1
（現場カット合わせ）
  0
CIRCLE
  8
_0-3_躯体と製品
  6
CONTINUOUS
 62
    2
 10
923.06625215572058
 20
548.05964907883481
 40
0.9999999959999995
  0
LINE
  8
_0-4_文字-記号
  6
CONTINUOUS
 62
    7
 10
1046.2036286469101
 20
538.28173036930912
 11
1026.7468034432895
 21
504.58152056264908
  0
LINE
  8
_0-4_文字-記号
  6
CONTINUOUS
 62
    7
 10
1026.7468034432895
 20
504.58152056264908
 11
928.32975897789947
 21
504.58152056264908
  0
TEXT
  8
_0-4_文字-記号
 62
    7
 10
931.21522521535917
 20
519.81920268399608
 40
10
 41
0.8
 50
0
  1
Ｐパッキン
  0
TEXT
  8
_0-4_文字-記号
 62
    7
 10
1118.1904942564906
 20
732.11308516751069
 40
15
 41
1
 50
0
  1
ボーダー部断面図（同材カットの場合）
  0
LINE
  8
_0-4_文字-記号
  6
CONTINUOUS
 62
    7
 10
1447.2447416114301
 20
754.35066203052975
 11
1447.2447416114301
 21
725.33299663092703
  0
LINE
  8
_0-4_文字-記号
  6
CONTINUOUS
 62
    7
 10
1447.2447416114301
 20
725.33299663092703
 11
1100.1437868876201
 21
725.33299663092703
  0
LINE
  8
_0-4_文字-記号
  6
CONTINUOUS
 62
    7
 10
1100.1437868876201
 20
725.33299663092703
 11
1100.1437868876201
 21
754.35066203052975
  0
LINE
  8
_0-4_文字-記号
  6
CONTINUOUS
 62
    7
 10
1100.1437868876201
 20
754.35066203052975
 11
1447.2447416114301
 21
754.35066203052975
  0
ARC
  8
_0-3_躯体と製品
  6
CONTINUOUS
 62
    2
 10
1064.76934869039
 20
1386.1596825283709
 40
0.6999999999999999
 50
90
 51
270
  0
LINE
  8
_0-3_躯体と製品
  6
CONTINUOUS
 62
    2
 10
1064.76934869039
 20
1386.8596825283607
 11
1562.3693486903903
 21
1386.8596825283607
  0
LINE
  8
_0-3_躯体と製品
  6
CONTINUOUS
 62
    2
 10
1562.3693486903903
 20
1385.4596825283711
 11
1550.0693486903892
 21
1385.4596825283711
  0
ARC
  8
_0-3_躯体と製品
  6
CONTINUOUS
 62
    2
 10
1064.76934869039
 20
1386.1596825283709
 40
0.6999999999999999
 50
90
 51
270
  0
LINE
  8
_0-3_躯体と製品
  6
CONTINUOUS
 62
    2
 10
1490.8693486903903
 20
1359.8596825283648
 11
1136.26934869039
 21
1359.8596825283648
  0
ARC
  8
_0-3_躯体と製品
  6
CONTINUOUS
 62
    2
 10
1077.0693486904001
 20
1361.3596825283648
 40
3.5
 50
180
 51
270
  0
LINE
  8
_0-3_躯体と製品
  6
CONTINUOUS
 62
    2
 10
1073.5693486904001
 20
1361.3596825283648
 11
1073.5693486904001
 21
1377.3585006031039
  0
LINE
  8
_0-3_躯体と製品
  6
CONTINUOUS
 62
    2
 10
1550.0693486904001
 20
1357.8596825283648
 11
1077.0693486904001
 21
1357.8596825283648
  0
LINE
  8
_0-3_躯体と製品
  6
CONTINUOUS
 62
    2
 10
1136.26934869039
 20
1359.859682528373
 11
1136.26934869039
 21
1357.8596825283648
  0
LINE
  8
_0-3_躯体と製品
  6
CONTINUOUS
 62
    2
 10
1490.8693486903903
 20
1357.8596825283648
 11
1490.8693486903903
 21
1359.859682528373
  0
ARC
  8
_0-3_躯体と製品
  6
CONTINUOUS
 62
    2
 10
1550.0693486904001
 20
1361.3596825283648
 40
3.5
 50
270
 51
0
  0
LINE
  8
_0-3_躯体と製品
  6
CONTINUOUS
 62
    2
 10
1553.5693486904001
 20
1384.4596825283711
 11
1553.5693486904001
 21
1382.8596825283657
  0
ARC
  8
_0-3_躯体と製品
  6
CONTINUOUS
 62
    2
 10
1072.5693486903981
 20
1384.45968252837
 40
1.0000000000020943
 50
0.0000000000672778
 51
89.999999999884906
  0
ARC
  8
_0-3_躯体と製品
  6
CONTINUOUS
 62
    2
 10
1562.3693486903903
 20
1386.1596825283709
 40
0.6999999999999999
 50
270
 51
90
  0
ARC
  8
_0-3_躯体と製品
  6
CONTINUOUS
 62
    2
 10
1562.3693486903903
 20
1386.1596825283709
 40
0.6999999999999999
 50
270
 51
90
  0
ARC
  8
_0-3_躯体と製品
  6
CONTINUOUS
 62
    2
 10
1554.5693486903911
 20
1384.45968252837
 40
1.0000000000020588
 50
90.00000000011714
 51
179.99999999993477
  0
ARC
  8
_0-3_躯体と製品
  6
CONTINUOUS
 62
    2
 10
564.76934869038985
 20
1386.1596825283709
 40
0.6999999999999999
 50
90
 51
270
  0
LINE
  8
_0-3_躯体と製品
  6
CONTINUOUS
 62
    2
 10
564.76934869038985
 20
1386.8596825283607
 11
1062.3693486903903
 21
1386.8596825283607
  0
LINE
  8
_0-3_躯体と製品
  6
CONTINUOUS
 62
    2
 10
1062.3693486903903
 20
1385.4596825283711
 11
1050.0693486903892
 21
1385.4596825283711
  0
ARC
  8
_0-3_躯体と製品
  6
CONTINUOUS
 62
    2
 10
564.76934869038985
 20
1386.1596825283709
 40
0.6999999999999999
 50
90
 51
270
  0
LINE
  8
_0-3_躯体と製品
  6
CONTINUOUS
 62
    2
 10
990.86934869039032
 20
1359.8596825283648
 11
636.26934869038996
 21
1359.8596825283648
  0
ARC
  8
_0-3_躯体と製品
  6
CONTINUOUS
 62
    2
 10
577.06934869040026
 20
1361.3596825283648
 40
3.5
 50
180
 51
270
  0
LINE
  8
_0-3_躯体と製品
  6
CONTINUOUS
 62
    2
 10
573.56934869040003
 20
1361.3596825283648
 11
573.56934869040003
 21
1384.4596825283711
  0
LINE
  8
_0-3_躯体と製品
  6
CONTINUOUS
 62
    2
 10
1050.0693486904001
 20
1357.8596825283648
 11
577.06934869040026
 21
1357.8596825283648
  0
LINE
  8
_0-3_躯体と製品
  6
CONTINUOUS
 62
    2
 10
636.26934869038996
 20
1359.859682528373
 11
636.26934869038996
 21
1357.8596825283648
  0
LINE
  8
_0-3_躯体と製品
  6
CONTINUOUS
 62
    2
 10
990.86934869039032
 20
1357.8596825283648
 11
990.86934869039032
 21
1359.859682528373
  0
ARC
  8
_0-3_躯体と製品
  6
CONTINUOUS
 62
    2
 10
1050.0693486904001
 20
1361.3596825283648
 40
3.5
 50
270
 51
0
  0
LINE
  8
_0-3_躯体と製品
  6
CONTINUOUS
 62
    2
 10
1053.5693486904001
 20
1384.4596825283711
 11
1053.5693486904001
 21
1382.8596825283657
  0
ARC
  8
_0-3_躯体と製品
  6
CONTINUOUS
 62
    2
 10
572.5693486903981
 20
1384.45968252837
 40
1.0000000000020233
 50
0.0000000000632116
 51
89.999999999880842
  0
ARC
  8
_0-3_躯体と製品
  6
CONTINUOUS
 62
    2
 10
1062.3693486903903
 20
1386.1596825283709
 40
0.6999999999999999
 50
270
 51
90
  0
ARC
  8
_0-3_躯体と製品
  6
CONTINUOUS
 62
    2
 10
1062.3693486903903
 20
1386.1596825283709
 40
0.6999999999999999
 50
270
 51
90
  0
ARC
  8
_0-3_躯体と製品
  6
CONTINUOUS
 62
    2
 10
1054.5693486903913
 20
1384.45968252837
 40
1.0000000000020233
 50
90.000000000119172
 51
179.99999999993679
  0
LINE
  8
_0-3_躯体と製品
  6
CONTINUOUS
 62
    2
 10
1088.3193486903892
 20
1385.4596825283711
 11
1085.8193486903892
 21
1385.4596825283711
  0
LINE
  8
_0-3_躯体と製品
  6
CONTINUOUS
 62
    2
 10
1077.0693486903892
 20
1385.4596825283711
 11
1064.76934869039
 21
1385.4596825283711
  0
LINE
  8
_0-3_躯体と製品
  6
CONTINUOUS
 62
    2
 10
1053.5693486904001
 20
1377.3585006031039
 11
1053.5693486904001
 21
1361.3596825283648
  0
LINE
  8
_0-3_躯体と製品
  6
CONTINUOUS
 62
    2
 10
1073.5693486904001
 20
1382.8596825283657
 11
1073.5693486904001
 21
1384.4596825283711
  0
LINE
  8
_0-3_躯体と製品
  6
CONTINUOUS
 62
    2
 10
1033.0693486903892
 20
1385.4596825283711
 11
564.76934869038985
 21
1385.4596825283711
  0
LINE
  8
_0-3_躯体と製品
  6
CONTINUOUS
 62
    2
 10
1041.3193486903892
 20
1385.4596825283711
 11
1038.8193486904001
 21
1385.4596825283711
  0
LINE
  8
_0-3_躯体と製品
  6
CONTINUOUS
 62
    2
 10
1533.0693486903892
 20
1385.4596825283711
 11
1094.0693486903892
 21
1385.4596825283711
  0
LINE
  8
_0-3_躯体と製品
  6
CONTINUOUS
 62
    2
 10
1541.3193486903892
 20
1385.4596825283711
 11
1538.8193486903892
 21
1385.459682528372
  0
LINE
  8
_0-3_躯体と製品
  6
CONTINUOUS
 62
    2
 10
1553.5693486904001
 20
1377.3585006031039
 11
1553.5693486904001
 21
1361.3596825283648
  0
LINE
  8
_0-3_躯体と製品
  6
CONTINUOUS
 62
    2
 10
1738.5693486903892
 20
1386.8596825283607
 11
1564.76934869039
 21
1386.8596825283607
  0
LINE
  8
_0-3_躯体と製品
  6
CONTINUOUS
 62
    2
 10
1564.76934869039
 20
1385.4596825283711
 11
1577.0693486903892
 21
1385.4596825283711
  0
LINE
  8
_0-3_躯体と製品
  6
CONTINUOUS
 62
    2
 10
1585.8193486903892
 20
1385.4596825283711
 11
1588.3193486903892
 21
1385.459682528372
  0
LINE
  8
_0-3_躯体と製品
  6
CONTINUOUS
 62
    2
 10
1594.0693486903892
 20
1385.4596825283711
 11
1738.5693486903892
 21
1385.4596825283711
  0
LINE
  8
_0-3_躯体と製品
  6
CONTINUOUS
 62
    2
 10
1636.26934869039
 20
1359.8596825283648
 11
1738.5693486903892
 21
1359.8596825283648
  0
LINE
  8
_0-3_躯体と製品
  6
CONTINUOUS
 62
    2
 10
1577.0693486903892
 20
1357.8596825283648
 11
1738.5693486903892
 21
1357.8596825283648
  0
LINE
  8
_0-3_躯体と製品
  6
CONTINUOUS
 62
    2
 10
1636.26934869039
 20
1357.8596825283648
 11
1636.26934869039
 21
1359.859682528373
  0
ARC
  8
_0-3_躯体と製品
  6
CONTINUOUS
 62
    2
 10
1577.0693486903892
 20
1361.3596825283648
 40
3.5
 50
180
 51
270
  0
LINE
  8
_0-3_躯体と製品
  6
CONTINUOUS
 62
    2
 10
1573.5693486903892
 20
1384.4596825283711
 11
1573.5693486903892
 21
1382.8596825283657
  0
LINE
  8
_0-3_躯体と製品
  6
CONTINUOUS
 62
    2
 10
1573.5693486903892
 20
1377.3585006031039
 11
1573.5693486903892
 21
1361.3596825283648
  0
ARC
  8
_0-3_躯体と製品
  6
CONTINUOUS
 62
    2
 10
1564.76934869039
 20
1386.1596825283709
 40
0.6999999999999999
 50
90
 51
270
  0
ARC
  8
_0-3_躯体と製品
  6
CONTINUOUS
 62
    2
 10
1564.76934869039
 20
1386.1596825283709
 40
0.6999999999999999
 50
90
 51
270
  0
ARC
  8
_0-3_躯体と製品
  6
CONTINUOUS
 62
    2
 10
1572.5693486903981
 20
1384.45968252837
 40
1.0000000000020588
 50
0.0000000000652447
 51
89.99999999988286
  0
LINE
  8
_0-3_躯体と製品
  6
HASEN
 62
    2
 10
590.59434869035977
 20
1354.3845657235188
 11
585.54434869036959
 21
1354.3845657235188
  0
LINE
  8
_0-3_躯体と製品
  6
HASEN
 62
    2
 10
590.59434869035977
 20
1353.8845657235188
 11
585.54434869036959
 21
1353.8845657235188
  0
ARC
  8
_0-3_躯体と製品
  6
HASEN
 62
    2
 10
590.53809869038923
 20
1354.1345657235188
 40
0.2562499999998978
 50
282.6803834935705
 51
77.319616506429497
  0
ARC
  8
_0-3_躯体と製品
  6
HASEN
 62
    2
 10
585.60059869038923
 20
1354.1345657235188
 40
0.2562500000005634
 50
102.6803834935705
 51
257.3196165064295
  0
LINE
  8
_0-3_躯体と製品
  6
HASEN
 62
    2
 10
590.59434869035977
 20
1353.8596825283648
 11
590.59434869035067
 21
1353.8845657235188
  0
LINE
  8
_0-3_躯体と製品
  6
HASEN
 62
    2
 10
590.59434869035067
 20
1354.3845657235188
 11
590.59434869035067
 21
1356.8596825283648
  0
LINE
  8
_0-3_躯体と製品
  6
HASEN
 62
    2
 10
585.54434869036049
 20
1353.8596825283648
 11
585.54434869036049
 21
1353.8845657235188
  0
LINE
  8
_0-3_躯体と製品
  6
HASEN
 62
    2
 10
585.54434869036049
 20
1354.3845657235188
 11
585.54434869036049
 21
1356.8596825283648
  0
LINE
  8
_0-3_躯体と製品
  6
HASEN
 62
    2
 10
636.54434869042973
 20
1354.3845657235188
 11
641.59434869041979
 21
1354.3845657235188
  0
LINE
  8
_0-3_躯体と製品
  6
HASEN
 62
    2
 10
636.54434869042973
 20
1353.8845657235188
 11
641.59434869041979
 21
1353.8845657235188
  0
ARC
  8
_0-3_躯体と製品
  6
HASEN
 62
    2
 10
636.60059869038923
 20
1354.1345657235188
 40
0.2562499999998978
 50
102.6803834935705
 51
257.3196165064295
  0
ARC
  8
_0-3_躯体と製品
  6
HASEN
 62
    2
 10
641.53809869038923
 20
1354.1345657235188
 40
0.2562500000005634
 50
282.6803834935705
 51
77.319616506429497
  0
LINE
  8
_0-3_躯体と製品
  6
HASEN
 62
    2
 10
636.54434869042973
 20
1353.8596825283648
 11
636.54434869042973
 21
1353.8845657235188
  0
LINE
  8
_0-3_躯体と製品
  6
HASEN
 62
    2
 10
636.54434869042973
 20
1354.3845657235188
 11
636.54434869042973
 21
1356.8596825283648
  0
LINE
  8
_0-3_躯体と製品
  6
HASEN
 62
    2
 10
641.59434869041979
 20
1353.8596825283648
 11
641.59434869041979
 21
1353.8845657235188
  0
LINE
  8
_0-3_躯体と製品
  6
HASEN
 62
    2
 10
641.59434869041979
 20
1354.3845657235188
 11
641.59434869041979
 21
1356.8596825283648
  0
ARC
  8
_0-3_躯体と製品
  6
CONTINUOUS
 62
    2
 10
1064.76934869039
 20
975.34570644880978
 40
0.6999999999999999
 50
90
 51
270
  0
LINE
  8
_0-3_躯体と製品
  6
CONTINUOUS
 62
    2
 10
1064.76934869039
 20
976.04570644880096
 11
1562.3693486903903
 21
976.04570644880096
  0
LINE
  8
_0-3_躯体と製品
  6
CONTINUOUS
 62
    2
 10
1562.3693486903903
 20
974.64570644881087
 11
1550.0693486903892
 21
974.64570644881087
  0
LINE
  8
_0-3_躯体と製品
  6
CONTINUOUS
 62
    2
 10
1541.3193486903892
 20
974.64570644881087
 11
1538.8193486903892
 21
974.64570644881087
  0
LINE
  8
_0-3_躯体と製品
  6
CONTINUOUS
 62
    2
 10
1533.0693486903892
 20
974.64570644881087
 11
1094.0693486903892
 21
974.64570644881087
  0
LINE
  8
_0-3_躯体と製品
  6
CONTINUOUS
 62
    2
 10
1088.3193486903892
 20
974.64570644881087
 11
1085.8193486903892
 21
974.64570644880996
  0
LINE
  8
_0-3_躯体と製品
  6
CONTINUOUS
 62
    2
 10
1077.0693486903892
 20
974.64570644880996
 11
1064.76934869039
 21
974.64570644881087
  0
ARC
  8
_0-3_躯体と製品
  6
CONTINUOUS
 62
    2
 10
1064.76934869039
 20
975.34570644880978
 40
0.6999999999999999
 50
90
 51
270
  0
LINE
  8
_0-3_躯体と製品
  6
CONTINUOUS
 62
    2
 10
1490.8693486903903
 20
949.04570644880505
 11
1136.26934869039
 21
949.04570644880505
  0
ARC
  8
_0-3_躯体と製品
  6
CONTINUOUS
 62
    2
 10
1077.0693486904001
 20
950.54570644880505
 40
3.5
 50
180
 51
270
  0
LINE
  8
_0-3_躯体と製品
  6
CONTINUOUS
 62
    2
 10
1073.5693486904001
 20
950.54570644880505
 11
1073.5693486904001
 21
966.54452452354371
  0
LINE
  8
_0-3_躯体と製品
  6
CONTINUOUS
 62
    2
 10
1073.5693486904001
 20
972.04570644880505
 11
1073.5693486904001
 21
973.64570644881087
  0
LINE
  8
_0-3_躯体と製品
  6
CONTINUOUS
 62
    2
 10
1550.0693486904001
 20
947.04570644880505
 11
1077.0693486904001
 21
947.04570644880505
  0
LINE
  8
_0-3_躯体と製品
  6
CONTINUOUS
 62
    2
 10
1136.26934869039
 20
949.04570644881187
 11
1136.26934869039
 21
947.04570644880505
  0
LINE
  8
_0-3_躯体と製品
  6
CONTINUOUS
 62
    2
 10
1490.8693486903903
 20
947.04570644880505
 11
1490.8693486903903
 21
949.04570644881187
  0
ARC
  8
_0-3_躯体と製品
  6
CONTINUOUS
 62
    2
 10
1550.0693486904001
 20
950.54570644880505
 40
3.5
 50
270
 51
0
  0
LINE
  8
_0-3_躯体と製品
  6
CONTINUOUS
 62
    2
 10
1553.5693486904001
 20
973.64570644881087
 11
1553.5693486904001
 21
972.04570644880505
  0
LINE
  8
_0-3_躯体と製品
  6
CONTINUOUS
 62
    2
 10
1553.5693486904001
 20
966.54452452354371
 11
1553.5693486904001
 21
950.54570644880505
  0
ARC
  8
_0-3_躯体と製品
  6
CONTINUOUS
 62
    2
 10
1072.5693486903986
 20
973.64570644880928
 40
1.0000000000016414
 50
0.0000000000932312
 51
89.999999999910855
  0
ARC
  8
_0-3_躯体と製品
  6
CONTINUOUS
 62
    2
 10
1562.3693486903903
 20
975.34570644880978
 40
0.6999999999999999
 50
270
 51
90
  0
ARC
  8
_0-3_躯体と製品
  6
CONTINUOUS
 62
    2
 10
1562.3693486903903
 20
975.34570644880978
 40
0.6999999999999999
 50
270
 51
90
  0
ARC
  8
_0-3_躯体と製品
  6
CONTINUOUS
 62
    2
 10
1554.5693486903908
 20
973.64570644880928
 40
1.0000000000016058
 50
90.000000000091177
 51
179.99999999990879
  0
LINE
  8
_0-3_躯体と製品
  6
CONTINUOUS
 62
    2
 10
738.56934869038923
 20
976.04570644880096
 11
1062.3693486903903
 21
976.04570644880096
  0
LINE
  8
_0-3_躯体と製品
  6
CONTINUOUS
 62
    2
 10
1062.3693486903903
 20
974.64570644881087
 11
1050.0693486903892
 21
974.64570644881087
  0
LINE
  8
_0-3_躯体と製品
  6
CONTINUOUS
 62
    2
 10
1041.3193486903892
 20
974.64570644881087
 11
1038.8193486904001
 21
974.64570644881087
  0
LINE
  8
_0-3_躯体と製品
  6
CONTINUOUS
 62
    2
 10
1033.0693486903892
 20
974.64570644881087
 11
738.56934869038923
 21
974.64570644881087
  0
LINE
  8
_0-3_躯体と製品
  6
CONTINUOUS
 62
    2
 10
990.86934869039032
 20
949.04570644880505
 11
738.56934869038923
 21
949.04570644880505
  0
LINE
  8
_0-3_躯体と製品
  6
CONTINUOUS
 62
    2
 10
1050.0693486904001
 20
947.04570644880505
 11
738.56934869038923
 21
947.04570644880505
  0
LINE
  8
_0-3_躯体と製品
  6
CONTINUOUS
 62
    2
 10
990.86934869039032
 20
947.04570644880505
 11
990.86934869039032
 21
949.04570644881187
  0
ARC
  8
_0-3_躯体と製品
  6
CONTINUOUS
 62
    2
 10
1050.0693486904001
 20
950.54570644880505
 40
3.5
 50
270
 51
0
  0
LINE
  8
_0-3_躯体と製品
  6
CONTINUOUS
 62
    2
 10
1053.5693486904001
 20
973.64570644881087
 11
1053.5693486904001
 21
972.04570644880505
  0
LINE
  8
_0-3_躯体と製品
  6
CONTINUOUS
 62
    2
 10
1053.5693486904001
 20
966.54452452354371
 11
1053.5693486904001
 21
950.54570644880505
  0
ARC
  8
_0-3_躯体と製品
  6
CONTINUOUS
 62
    2
 10
1062.3693486903903
 20
975.34570644880978
 40
0.6999999999999999
 50
270
 51
90
  0
ARC
  8
_0-3_躯体と製品
  6
CONTINUOUS
 62
    2
 10
1062.3693486903903
 20
975.34570644880978
 40
0.6999999999999999
 50
270
 51
90
  0
ARC
  8
_0-3_躯体と製品
  6
CONTINUOUS
 62
    2
 10
1054.5693486903908
 20
973.64570644880928
 40
1.0000000000015703
 50
90.000000000093209
 51
179.99999999991084
  0
LINE
  8
_0-3_躯体と製品
  6
CONTINUOUS
 62
    2
 10
1738.5693486903892
 20
976.04570644880096
 11
1564.76934869039
 21
976.04570644880096
  0
LINE
  8
_0-3_躯体と製品
  6
CONTINUOUS
 62
    2
 10
1564.76934869039
 20
974.64570644881087
 11
1577.0693486903892
 21
974.64570644881087
  0
LINE
  8
_0-3_躯体と製品
  6
CONTINUOUS
 62
    2
 10
1585.8193486903892
 20
974.64570644881087
 11
1588.3193486903892
 21
974.64570644881087
  0
LINE
  8
_0-3_躯体と製品
  6
CONTINUOUS
 62
    2
 10
1594.0693486903892
 20
974.64570644881087
 11
1738.5693486903892
 21
974.64570644881087
  0
LINE
  8
_0-3_躯体と製品
  6
CONTINUOUS
 62
    2
 10
1636.26934869039
 20
949.04570644880505
 11
1738.5693486903892
 21
949.04570644880505
  0
LINE
  8
_0-3_躯体と製品
  6
CONTINUOUS
 62
    2
 10
1577.0693486903892
 20
947.04570644880505
 11
1738.5693486903892
 21
947.04570644880505
  0
LINE
  8
_0-3_躯体と製品
  6
CONTINUOUS
 62
    2
 10
1636.26934869039
 20
947.04570644880505
 11
1636.26934869039
 21
949.04570644881187
  0
ARC
  8
_0-3_躯体と製品
  6
CONTINUOUS
 62
    2
 10
1577.0693486903892
 20
950.54570644880505
 40
3.5
 50
180
 51
270
  0
LINE
  8
_0-3_躯体と製品
  6
CONTINUOUS
 62
    2
 10
1573.5693486903892
 20
973.64570644881087
 11
1573.5693486903892
 21
972.04570644880505
  0
LINE
  8
_0-3_躯体と製品
  6
CONTINUOUS
 62
    2
 10
1573.5693486903892
 20
966.54452452354371
 11
1573.5693486903892
 21
950.54570644880505
  0
ARC
  8
_0-3_躯体と製品
  6
CONTINUOUS
 62
    2
 10
1564.76934869039
 20
975.34570644880978
 40
0.6999999999999999
 50
90
 51
270
  0
ARC
  8
_0-3_躯体と製品
  6
CONTINUOUS
 62
    2
 10
1564.76934869039
 20
975.34570644880978
 40
0.6999999999999999
 50
90
 51
270
  0
ARC
  8
_0-3_躯体と製品
  6
CONTINUOUS
 62
    2
 10
1572.5693486903988
 20
973.64570644880928
 40
1.0000000000016058
 50
0.0000000000911981
 51
89.999999999908823
  0
TEXT
  8
_0-4_文字-記号
 62
    7
 10
923.01433318702948
 20
1020.398118541988
 40
10
 41
1
 50
0
  1
カットパネル
  0
LINE
  8
_0-4_文字-記号
  6
CONTINUOUS
 62
    7
 10
886.54482041765004
 20
966.40473838619573
 11
915.5021911283402
 21
1016.5603757107187
  0
LINE
  8
_0-4_文字-記号
  6
CONTINUOUS
 62
    7
 10
915.5021911283402
 20
1016.5603757107187
 11
996.00623069829999
 21
1016.5603757107187
  0
ARC
  8
_0-3_躯体と製品
  6
CONTINUOUS
 62
    2
 10
1564.76934869039
 20
565.33173036929611
 40
0.6999999999999999
 50
90
 51
270
  0
LINE
  8
_0-3_躯体と製品
  6
CONTINUOUS
 62
    2
 10
1564.76934869039
 20
566.03173036928683
 11
1738.5693486903892
 21
566.03173036928683
  0
LINE
  8
_0-3_躯体と製品
  6
CONTINUOUS
 62
    2
 10
1738.5693486903892
 20
564.63173036929584
 11
1594.0693486903801
 21
564.63173036929584
  0
LINE
  8
_0-3_躯体と製品
  6
CONTINUOUS
 62
    2
 10
1588.3193486903892
 20
564.63173036929584
 11
1585.8193486903892
 21
564.63173036929584
  0
LINE
  8
_0-3_躯体と製品
  6
CONTINUOUS
 62
    2
 10
1577.0693486904001
 20
564.63173036929584
 11
1564.76934869039
 21
564.63173036929584
  0
ARC
  8
_0-3_躯体と製品
  6
CONTINUOUS
 62
    2
 10
1564.76934869039
 20
565.33173036929611
 40
0.6999999999999999
 50
90
 51
270
  0
LINE
  8
_0-3_躯体と製品
  6
CONTINUOUS
 62
    2
 10
1738.5693486903892
 20
539.03173036929002
 11
1636.26934869039
 21
539.03173036929002
  0
ARC
  8
_0-3_躯体と製品
  6
CONTINUOUS
 62
    2
 10
1577.0693486904001
 20
540.53173036929002
 40
3.5
 50
180
 51
270
  0
LINE
  8
_0-3_躯体と製品
  6
CONTINUOUS
 62
    2
 10
1573.5693486904001
 20
540.53173036929002
 11
1573.5693486904001
 21
556.53054844402868
  0
LINE
  8
_0-3_躯体と製品
  6
CONTINUOUS
 62
    2
 10
1573.5693486904001
 20
562.03173036929093
 11
1573.5693486904001
 21
563.63173036929675
  0
LINE
  8
_0-3_躯体と製品
  6
CONTINUOUS
 62
    2
 10
1738.5693486903892
 20
537.03173036929002
 11
1577.0693486904001
 21
537.03173036929002
  0
LINE
  8
_0-3_躯体と製品
  6
CONTINUOUS
 62
    2
 10
1636.26934869039
 20
539.03173036929684
 11
1636.26934869039
 21
537.03173036929002
  0
ARC
  8
_0-3_躯体と製品
  6
CONTINUOUS
 62
    2
 10
1572.5693486903988
 20
563.63173036929527
 40
1.0000000000015703
 50
0.0000000000932312
 51
89.999999999910855
  0
ARC
  8
_0-3_躯体と製品
  6
CONTINUOUS
 62
    2
 10
1064.76934869039
 20
565.33173036929611
 40
0.6999999999999999
 50
90
 51
270
  0
LINE
  8
_0-3_躯体と製品
  6
CONTINUOUS
 62
    2
 10
1064.76934869039
 20
566.03173036928683
 11
1562.3693486903903
 21
566.03173036928683
  0
LINE
  8
_0-3_躯体と製品
  6
CONTINUOUS
 62
    2
 10
1562.3693486903903
 20
564.63173036929584
 11
1550.0693486903892
 21
564.63173036929584
  0
LINE
  8
_0-3_躯体と製品
  6
CONTINUOUS
 62
    2
 10
1541.3193486903892
 20
564.63173036929584
 11
1538.8193486903892
 21
564.63173036929584
  0
LINE
  8
_0-3_躯体と製品
  6
CONTINUOUS
 62
    2
 10
1533.0693486903892
 20
564.63173036929584
 11
1064.76934869039
 21
564.63173036929584
  0
ARC
  8
_0-3_躯体と製品
  6
CONTINUOUS
 62
    2
 10
1064.76934869039
 20
565.33173036929611
 40
0.6999999999999999
 50
90
 51
270
  0
LINE
  8
_0-3_躯体と製品
  6
CONTINUOUS
 62
    2
 10
1490.8693486903903
 20
539.03173036929002
 11
1136.26934869039
 21
539.03173036929002
  0
ARC
  8
_0-3_躯体と製品
  6
CONTINUOUS
 62
    2
 10
1077.0693486904001
 20
540.53173036929002
 40
3.5
 50
180
 51
270
  0
LINE
  8
_0-3_躯体と製品
  6
CONTINUOUS
 62
    2
 10
1073.5693486904001
 20
540.53173036929002
 11
1073.5693486904001
 21
563.63173036929675
  0
LINE
  8
_0-3_躯体と製品
  6
CONTINUOUS
 62
    2
 10
1550.0693486904001
 20
537.03173036929002
 11
1077.0693486904001
 21
537.03173036929002
  0
LINE
  8
_0-3_躯体と製品
  6
CONTINUOUS
 62
    2
 10
1136.26934869039
 20
539.03173036929684
 11
1136.26934869039
 21
537.03173036929002
  0
LINE
  8
_0-3_躯体と製品
  6
CONTINUOUS
 62
    2
 10
1490.8693486903903
 20
537.03173036929002
 11
1490.8693486903903
 21
539.03173036929684
  0
ARC
  8
_0-3_躯体と製品
  6
CONTINUOUS
 62
    2
 10
1550.0693486904001
 20
540.53173036929002
 40
3.5
 50
270
 51
0
  0
LINE
  8
_0-3_躯体と製品
  6
CONTINUOUS
 62
    2
 10
1553.5693486904001
 20
563.63173036929675
 11
1553.5693486904001
 21
562.03173036929093
  0
LINE
  8
_0-3_躯体と製品
  6
CONTINUOUS
 62
    2
 10
1553.5693486904001
 20
556.53054844402868
 11
1553.5693486904001
 21
540.53173036929002
  0
ARC
  8
_0-3_躯体と製品
  6
CONTINUOUS
 62
    2
 10
1072.5693486903986
 20
563.63173036929516
 40
1.0000000000016058
 50
0.0000000000952688
 51
89.999999999912887
  0
ARC
  8
_0-3_躯体と製品
  6
CONTINUOUS
 62
    2
 10
1562.3693486903903
 20
565.33173036929611
 40
0.6999999999999999
 50
270
 51
90
  0
ARC
  8
_0-3_躯体と製品
  6
CONTINUOUS
 62
    2
 10
1562.3693486903903
 20
565.33173036929611
 40
0.6999999999999999
 50
270
 51
90
  0
ARC
  8
_0-3_躯体と製品
  6
CONTINUOUS
 62
    2
 10
1554.5693486903908
 20
563.63173036929527
 40
1.0000000000015703
 50
90.000000000089145
 51
179.99999999990678
  0
LINE
  8
_0-3_躯体と製品
  6
HASEN
 62
    2
 10
1091.5943486904198
 20
533.55661356444398
 11
1086.5443486904296
 21
533.55661356444398
  0
LINE
  8
_0-3_躯体と製品
  6
HASEN
 62
    2
 10
1091.5943486904198
 20
533.05661356444398
 11
1086.5443486904296
 21
533.05661356444398
  0
ARC
  8
_0-3_躯体と製品
  6
HASEN
 62
    2
 10
1091.5380986904493
 20
533.30661356444489
 40
0.2562499999998978
 50
282.68038349357067
 51
77.319616506429327
  0
ARC
  8
_0-3_躯体と製品
  6
HASEN
 62
    2
 10
1086.6005986904493
 20
533.30661356444489
 40
0.2562500000005634
 50
102.6803834935706
 51
257.31961650642916
  0
LINE
  8
_0-3_躯体と製品
  6
HASEN
 62
    2
 10
1091.5943486904198
 20
533.03173036929002
 11
1091.5943486904107
 21
533.05661356444398
  0
LINE
  8
_0-3_躯体と製品
  6
HASEN
 62
    2
 10
1091.5943486904107
 20
533.55661356444398
 11
1091.5943486904107
 21
536.03173036929002
  0
LINE
  8
_0-3_躯体と製品
  6
HASEN
 62
    2
 10
1086.5443486904205
 20
533.03173036929002
 11
1086.5443486904205
 21
533.05661356444398
  0
LINE
  8
_0-3_躯体と製品
  6
HASEN
 62
    2
 10
1086.5443486904205
 20
533.55661356444398
 11
1086.5443486904205
 21
536.03173036929002
  0
LINE
  8
_0-3_躯体と製品
  6
CONTINUOUS
 62
    3
 10
1056.0693486903892
 20
533.03173036929002
 11
1071.0693486903892
 21
533.03173036929002
  0
LINE
  8
_0-2_寸法
  6
CONTINUOUS
 62
    4
 10
1743.5693486903892
 20
976.04570644884689
 11
1772.2326051813598
 21
976.04570644884689
  0
LINE
  8
_0-2_寸法
  6
CONTINUOUS
 62
    4
 10
1743.5693486903892
 20
982.54570644884598
 11
1798.5139404331003
 21
982.54570644884598
  0
LINE
  8
_0-2_寸法
  6
CONTINUOUS
 62
    4
 10
1798.5139404331003
 20
982.54570644884598
 11
1798.5139404331003
 21
984.54570644884598
  0
TEXT
  8
_0-2_寸法
 62
    7
 10
1793.5139404331003
 20
986.38256954711278
 40
10
 41
1
 50
90
  1
6.5
  0
LINE
  8
_0-2_寸法
  6
CONTINUOUS
 62
    4
 10
1798.5139404331003
 20
984.54570644884598
 11
1798.5146139601693
 21
946.54570644880687
  0
LINE
  8
_0-2_寸法
  6
CONTINUOUS
 62
    4
 10
1743.5693486903892
 20
1386.8596825283607
 11
1772.2326051813598
 21
1386.8596825283607
  0
LINE
  8
_0-2_寸法
  6
CONTINUOUS
 62
    4
 10
1743.5693486903892
 20
1393.3596825283607
 11
1798.5139758818896
 21
1393.3596825283607
  0
LINE
  8
_0-2_寸法
  6
CONTINUOUS
 62
    4
 10
1798.5139404331003
 20
1393.3596825283607
 11
1798.5139404331003
 21
1395.3596825283607
  0
TEXT
  8
_0-2_寸法
 62
    7
 10
1793.5139404331003
 20
1397.196545626628
 40
10
 41
1
 50
90
  1
6.5
  0
LINE
  8
_0-2_寸法
  6
CONTINUOUS
 62
    4
 10
1798.5139404331003
 20
1395.3596825283607
 11
1798.5146139601693
 21
1357.3596825283221
  0
LINE
  8
_0-2_寸法
  6
CONTINUOUS
 62
    4
 10
1563.5693486903892
 20
1392.5288429023312
 11
1563.5693486903892
 21
1481.721957483652
  0
LINE
  8
_0-2_寸法
  6
CONTINUOUS
 62
    4
 10
1063.5693486903892
 20
1392.5288429023312
 11
1063.5693486903892
 21
1481.721957483652
  0
LINE
  8
_0-2_寸法
  6
CONTINUOUS
 62
    4
 10
1563.5693486903892
 20
1481.721957483652
 11
1063.5693486903892
 21
1481.721957483652
  0
INSERT
  2
-000-_Small
  8
_0-2_寸法
 10
1563.5693486903892
 20
1481.721957483652
 41
2
 42
2
 50
0
  0
INSERT
  2
-000-_Small
  8
_0-2_寸法
 10
1063.5693486903892
 20
1481.721957483652
 41
2
 42
2
 50
180
  0
TEXT
  8
_0-2_寸法
 62
    7
 10
1306.0693486903892
 20
1486.721957483652
 40
10
 41
1
 50
0
  1
500
  0
POINT
  8
_0-2_寸法
 62
    7
 10
1563.5693486903892
 20
1392.5288429023312
  0
POINT
  8
_0-2_寸法
 62
    7
 10
1063.5693486903892
 20
1392.5288429023312
  0
POINT
  8
_0-2_寸法
 62
    7
 10
1063.5693486903892
 20
1481.721957483652
  0
LINE
  8
_0-2_寸法
  6
CONTINUOUS
 62
    4
 10
1563.5693486903892
 20
981.71486682281625
 11
1563.5693486903892
 21
1070.907981404137
  0
LINE
  8
_0-2_寸法
  6
CONTINUOUS
 62
    4
 10
1063.5693486903892
 20
981.71486682281625
 11
1063.5693486903892
 21
1070.907981404137
  0
LINE
  8
_0-2_寸法
  6
CONTINUOUS
 62
    4
 10
1563.5693486903892
 20
1070.907981404137
 11
1063.5693486903892
 21
1070.907981404137
  0
INSERT
  2
-000-_Small
  8
_0-2_寸法
 10
1563.5693486903892
 20
1070.907981404137
 41
2
 42
2
 50
0
  0
INSERT
  2
-000-_Small
  8
_0-2_寸法
 10
1063.5693486903892
 20
1070.907981404137
 41
2
 42
2
 50
180
  0
TEXT
  8
_0-2_寸法
 62
    7
 10
1306.0693486903892
 20
1075.907981404137
 40
10
 41
1
 50
0
  1
500
  0
POINT
  8
_0-2_寸法
 62
    7
 10
1563.5693486903892
 20
981.71486682281625
  0
POINT
  8
_0-2_寸法
 62
    7
 10
1063.5693486903892
 20
981.71486682281625
  0
POINT
  8
_0-2_寸法
 62
    7
 10
1063.5693486903892
 20
1070.907981404137
  0
LINE
  8
_0-2_寸法
  6
CONTINUOUS
 62
    4
 10
1063.5693486903892
 20
981.71486682281625
 11
1063.5693486903892
 21
1070.907981404137
  0
LINE
  8
_0-2_寸法
  6
CONTINUOUS
 62
    4
 10
733.57511759352064
 20
1079.4711653678871
 11
733.57511759352064
 21
1070.907981404137
  0
LINE
  8
_0-2_寸法
  6
CONTINUOUS
 62
    4
 10
1063.5693486903892
 20
1070.907981404137
 11
733.57511759352064
 21
1070.907981404137
  0
INSERT
  2
-000-_Small
  8
_0-2_寸法
 10
1063.5693486903892
 20
1070.907981404137
 41
2
 42
2
 50
0
  0
INSERT
  2
-000-_Small
  8
_0-2_寸法
 10
733.57511759352064
 20
1070.907981404137
 41
2
 42
2
 50
180
  0
TEXT
  8
_0-2_寸法
 62
    7
 10
848.57223314196062
 20
1075.907981404137
 40
10
 41
1
 50
0
  1
ボーダーカットパネル
  0
POINT
  8
_0-2_寸法
 62
    7
 10
1063.5693486903892
 20
981.71486682281625
  0
POINT
  8
_0-2_寸法
 62
    7
 10
733.57511759352064
 20
1079.4711653678871
  0
POINT
  8
_0-2_寸法
 62
    7
 10
733.57511759352064
 20
1070.907981404137
  0
LINE
  8
_0-2_寸法
  6
CONTINUOUS
 62
    4
 10
563.56934869038923
 20
1392.5288429023312
 11
563.56934869038923
 21
1481.721957483652
  0
LINE
  8
_0-2_寸法
  6
CONTINUOUS
 62
    4
 10
1063.5693486903892
 20
1392.5288429023312
 11
1063.5693486903892
 21
1481.721957483652
  0
LINE
  8
_0-2_寸法
  6
CONTINUOUS
 62
    4
 10
563.56934869038923
 20
1481.721957483652
 11
1063.5693486903892
 21
1481.721957483652
  0
INSERT
  2
-000-_Small
  8
_0-2_寸法
 10
563.56934869038923
 20
1481.721957483652
 41
2
 42
2
 50
180
  0
INSERT
  2
-000-_Small
  8
_0-2_寸法
 10
1063.5693486903892
 20
1481.721957483652
 41
2
 42
2
 50
0
  0
TEXT
  8
_0-2_寸法
 62
    7
 10
806.06934869038923
 20
1486.721957483652
 40
10
 41
1
 50
0
  1
500
  0
POINT
  8
_0-2_寸法
 62
    7
 10
563.56934869038923
 20
1392.5288429023312
  0
POINT
  8
_0-2_寸法
 62
    7
 10
1063.5693486903892
 20
1392.5288429023312
  0
POINT
  8
_0-2_寸法
 62
    7
 10
1063.5693486903892
 20
1481.721957483652
  0
LINE
  8
_0-2_寸法
  6
CONTINUOUS
 62
    4
 10
1563.5693486903892
 20
571.70089074330178
 11
1563.5693486903892
 21
660.89400532462207
  0
LINE
  8
_0-2_寸法
  6
CONTINUOUS
 62
    4
 10
1063.5693486903892
 20
571.70089074330178
 11
1063.5693486903892
 21
660.89400532462207
  0
LINE
  8
_0-2_寸法
  6
CONTINUOUS
 62
    4
 10
1563.5693486903892
 20
660.89400532462207
 11
1063.5693486903892
 21
660.89400532462207
  0
INSERT
  2
-000-_Small
  8
_0-2_寸法
 10
1563.5693486903892
 20
660.89400532462207
 41
2
 42
2
 50
0
  0
INSERT
  2
-000-_Small
  8
_0-2_寸法
 10
1063.5693486903892
 20
660.89400532462207
 41
2
 42
2
 50
180
  0
TEXT
  8
_0-2_寸法
 62
    7
 10
1306.0693486903892
 20
665.89400532462321
 40
10
 41
1
 50
0
  1
500
  0
POINT
  8
_0-2_寸法
 62
    7
 10
1563.5693486903892
 20
571.70089074330178
  0
POINT
  8
_0-2_寸法
 62
    7
 10
1063.5693486903892
 20
571.70089074330178
  0
POINT
  8
_0-2_寸法
 62
    7
 10
1063.5693486903892
 20
660.89400532462207
  0
LINE
  8
_0-2_寸法
  6
CONTINUOUS
 62
    4
 10
1063.5693486903892
 20
571.70089074330178
 11
1063.5693486903892
 21
660.89400532462207
  0
LINE
  8
_0-2_寸法
  6
CONTINUOUS
 62
    4
 10
733.57511759352064
 20
669.45718928837209
 11
733.57511759352064
 21
660.89400532462207
  0
LINE
  8
_0-2_寸法
  6
CONTINUOUS
 62
    4
 10
1063.5693486903892
 20
660.89400532462207
 11
733.57511759352064
 21
660.89400532462207
  0
INSERT
  2
-000-_Small
  8
_0-2_寸法
 10
1063.5693486903892
 20
660.89400532462207
 41
2
 42
2
 50
0
  0
INSERT
  2
-000-_Small
  8
_0-2_寸法
 10
733.57511759352064
 20
660.89400532462207
 41
2
 42
2
 50
180
  0
TEXT
  8
_0-2_寸法
 62
    7
 10
848.57223314196062
 20
665.89400532462321
 40
10
 41
1
 50
0
  1
ボーダーカットパネル
  0
POINT
  8
_0-2_寸法
 62
    7
 10
1063.5693486903892
 20
571.70089074330178
  0
POINT
  8
_0-2_寸法
 62
    7
 10
733.57511759352064
 20
669.45718928837209
  0
POINT
  8
_0-2_寸法
 62
    7
 10
733.57511759352064
 20
660.89400532462207
  0
LINE
  8
_0-2_寸法
  6
CONTINUOUS
 62
    4
 10
1743.5693486903892
 20
537.03173036929115
 11
1772.2332787084201
 21
537.03173036929115
  0
LINE
  8
_0-2_寸法
  6
CONTINUOUS
 62
    4
 10
1743.5693486903892
 20
566.03173036933185
 11
1772.2332787084201
 21
566.03173036933185
  0
LINE
  8
_0-2_寸法
  6
CONTINUOUS
 62
    4
 10
1772.2332787084201
 20
537.03173036929115
 11
1772.2332787084201
 21
566.03173036933185
  0
INSERT
  2
-000-_Small
  8
_0-2_寸法
 10
1772.2332787084201
 20
537.03173036929115
 41
2
 42
2
 50
270
  0
INSERT
  2
-000-_Small
  8
_0-2_寸法
 10
1772.2332787084201
 20
566.03173036933185
 41
2
 42
2
 50
90
  0
TEXT
  8
_0-2_寸法
 62
    7
 10
1767.2332787084201
 20
546.53173036931264
 40
10
 41
1
 50
90
  1
29
  0
POINT
  8
_0-2_寸法
 62
    7
 10
1743.5693486903892
 20
537.03173036929115
  0
POINT
  8
_0-2_寸法
 62
    7
 10
1743.5693486903892
 20
566.03173036933185
  0
POINT
  8
_0-2_寸法
 62
    7
 10
1772.2332787084201
 20
566.03173036933185
  0
LINE
  8
_0-2_寸法
  6
CONTINUOUS
 62
    4
 10
1743.5693486903892
 20
422.53173036933219
 11
1798.5146139601693
 21
422.53173036933219
  0
LINE
  8
_0-2_寸法
  6
CONTINUOUS
 62
    4
 10
1743.5693486903892
 20
566.03173036933185
 11
1798.5146139601693
 21
566.03173036933185
  0
LINE
  8
_0-2_寸法
  6
CONTINUOUS
 62
    4
 10
1798.5146139601693
 20
422.53173036933219
 11
1798.5146139601693
 21
566.03173036933185
  0
INSERT
  2
-000-_Small
  8
_0-2_寸法
 10
1798.5146139601693
 20
422.53173036933219
 41
2
 42
2
 50
270
  0
INSERT
  2
-000-_Small
  8
_0-2_寸法
 10
1798.5146139601693
 20
566.03173036933185
 41
2
 42
2
 50
90
  0
TEXT
  8
_0-2_寸法
 62
    7
 10
1793.5146139601602
 20
475.03173036933219
 40
10
 41
1
 50
90
  1
h=50～450
  0
POINT
  8
_0-2_寸法
 62
    7
 10
1743.5693486903892
 20
422.53173036933219
  0
POINT
  8
_0-2_寸法
 62
    7
 10
1743.5693486903892
 20
566.03173036933185
  0
POINT
  8
_0-2_寸法
 62
    7
 10
1798.5146139601693
 20
566.03173036933185
  0
CIRCLE
  8
_0-2_寸法
  6
CONTINUOUS
 62
    7
 10
1798.5139404331003
 20
572.53173036933185
 40
0.5
  0
LINE
  8
_0-2_寸法
  6
CONTINUOUS
 62
    4
 10
905.50500307575021
 20
541.03173036933129
 11
918.9278030047808
 21
541.03173036933129
  0
LINE
  8
_0-2_寸法
  6
CONTINUOUS
 62
    4
 10
905.50500307625043
 20
566.03173036933015
 11
918.9278030047808
 21
566.03173036933015
  0
LINE
  8
_0-2_寸法
  6
CONTINUOUS
 62
    4
 10
918.9278030047808
 20
541.03173036933129
 11
918.9278030047808
 21
566.03173036933015
  0
INSERT
  2
-000-_Small
  8
_0-2_寸法
 10
918.9278030047808
 20
541.03173036933129
 41
2
 42
2
 50
270
  0
INSERT
  2
-000-_Small
  8
_0-2_寸法
 10
918.9278030047808
 20
566.03173036933015
 41
2
 42
2
 50
90
  0
TEXT
  8
_0-2_寸法
 62
    7
 10
913.9278030047808
 20
548.53173036933185
 40
10
 41
1
 50
90
  1
25
  0
POINT
  8
_0-2_寸法
 62
    7
 10
905.50500307575021
 20
541.03173036933129
  0
POINT
  8
_0-2_寸法
 62
    7
 10
905.50500307625043
 20
566.03173036933015
  0
POINT
  8
_0-2_寸法
 62
    7
 10
918.9278030047808
 20
566.03173036933015
  0
LINE
  8
_0-2_寸法
  6
CONTINUOUS
 62
    4
 10
1743.5693486903892
 20
947.04570644880505
 11
1772.2332787084201
 21
947.04570644880505
  0
LINE
  8
_0-2_寸法
  6
CONTINUOUS
 62
    4
 10
1743.5693486903892
 20
976.04570644884689
 11
1772.2332787084201
 21
976.04570644884689
  0
LINE
  8
_0-2_寸法
  6
CONTINUOUS
 62
    4
 10
1772.2332787084201
 20
947.04570644880505
 11
1772.2332787084201
 21
976.04570644884689
  0
INSERT
  2
-000-_Small
  8
_0-2_寸法
 10
1772.2332787084201
 20
947.04570644880505
 41
2
 42
2
 50
270
  0
INSERT
  2
-000-_Small
  8
_0-2_寸法
 10
1772.2332787084201
 20
976.04570644884689
 41
2
 42
2
 50
90
  0
TEXT
  8
_0-2_寸法
 62
    7
 10
1767.2332787084201
 20
956.54570644882767
 40
10
 41
1
 50
90
  1
29
  0
POINT
  8
_0-2_寸法
 62
    7
 10
1743.5693486903892
 20
947.04570644880505
  0
POINT
  8
_0-2_寸法
 62
    7
 10
1743.5693486903892
 20
976.04570644884689
  0
POINT
  8
_0-2_寸法
 62
    7
 10
1772.2332787084201
 20
976.04570644884689
  0
LINE
  8
_0-2_寸法
  6
CONTINUOUS
 62
    4
 10
1743.5693486903892
 20
832.54570644884609
 11
1798.5146139601693
 21
832.54570644884609
  0
LINE
  8
_0-2_寸法
  6
CONTINUOUS
 62
    4
 10
1743.5693486903892
 20
976.04570644884689
 11
1798.5146139601693
 21
976.04570644884689
  0
LINE
  8
_0-2_寸法
  6
CONTINUOUS
 62
    4
 10
1798.5146139601693
 20
832.54570644884609
 11
1798.5146139601693
 21
976.04570644884689
  0
INSERT
  2
-000-_Small
  8
_0-2_寸法
 10
1798.5146139601693
 20
832.54570644884609
 41
2
 42
2
 50
270
  0
INSERT
  2
-000-_Small
  8
_0-2_寸法
 10
1798.5146139601693
 20
976.04570644884689
 41
2
 42
2
 50
90
  0
TEXT
  8
_0-2_寸法
 62
    7
 10
1793.5146139601602
 20
885.04570644884609
 40
10
 41
1
 50
90
  1
h=50～450
  0
POINT
  8
_0-2_寸法
 62
    7
 10
1743.5693486903892
 20
832.54570644884609
  0
POINT
  8
_0-2_寸法
 62
    7
 10
1743.5693486903892
 20
976.04570644884689
  0
POINT
  8
_0-2_寸法
 62
    7
 10
1798.5146139601693
 20
976.04570644884689
  0
CIRCLE
  8
_0-2_寸法
  6
CONTINUOUS
 62
    7
 10
1798.5139404331003
 20
982.54570644884598
 40
0.5
  0
LINE
  8
_0-2_寸法
  6
CONTINUOUS
 62
    4
 10
1743.5693486903892
 20
1357.8596825283198
 11
1772.2332787084201
 21
1357.8596825283198
  0
LINE
  8
_0-2_寸法
  6
CONTINUOUS
 62
    4
 10
1743.5693486903892
 20
1386.8596825283607
 11
1772.2332787084201
 21
1386.8596825283607
  0
LINE
  8
_0-2_寸法
  6
CONTINUOUS
 62
    4
 10
1772.2332787084201
 20
1357.8596825283198
 11
1772.2332787084201
 21
1386.8596825283607
  0
INSERT
  2
-000-_Small
  8
_0-2_寸法
 10
1772.2332787084201
 20
1357.8596825283198
 41
2
 42
2
 50
270
  0
INSERT
  2
-000-_Small
  8
_0-2_寸法
 10
1772.2332787084201
 20
1386.8596825283607
 41
2
 42
2
 50
90
  0
TEXT
  8
_0-2_寸法
 62
    7
 10
1767.2332787084201
 20
1367.359682528343
 40
10
 41
1
 50
90
  1
29
  0
POINT
  8
_0-2_寸法
 62
    7
 10
1743.5693486903892
 20
1357.8596825283198
  0
POINT
  8
_0-2_寸法
 62
    7
 10
1743.5693486903892
 20
1386.8596825283607
  0
POINT
  8
_0-2_寸法
 62
    7
 10
1772.2332787084201
 20
1386.8596825283607
  0
LINE
  8
_0-2_寸法
  6
CONTINUOUS
 62
    4
 10
1743.5693486903892
 20
1243.359682528361
 11
1798.5146139601693
 21
1243.359682528361
  0
LINE
  8
_0-2_寸法
  6
CONTINUOUS
 62
    4
 10
1743.5693486903892
 20
1386.8596825283607
 11
1798.5146139601693
 21
1386.8596825283607
  0
LINE
  8
_0-2_寸法
  6
CONTINUOUS
 62
    4
 10
1798.5146139601693
 20
1243.359682528361
 11
1798.5146139601693
 21
1386.8596825283607
  0
INSERT
  2
-000-_Small
  8
_0-2_寸法
 10
1798.5146139601693
 20
1243.359682528361
 41
2
 42
2
 50
270
  0
INSERT
  2
-000-_Small
  8
_0-2_寸法
 10
1798.5146139601693
 20
1386.8596825283607
 41
2
 42
2
 50
90
  0
TEXT
  8
_0-2_寸法
 62
    7
 10
1793.5146139601602
 20
1295.859682528361
 40
10
 41
1
 50
90
  1
h=50～450
  0
POINT
  8
_0-2_寸法
 62
    7
 10
1743.5693486903892
 20
1243.359682528361
  0
POINT
  8
_0-2_寸法
 62
    7
 10
1743.5693486903892
 20
1386.8596825283607
  0
POINT
  8
_0-2_寸法
 62
    7
 10
1798.5146139601693
 20
1386.8596825283607
  0
CIRCLE
  8
_0-2_寸法
  6
CONTINUOUS
 62
    7
 10
1798.5139404331003
 20
1393.3596825283607
 40
0.5
  0
TEXT
  8
_0-4_文字-記号
 62
    7
 10
1335.55206252274
 20
1311.7006108295668
 40
10
 41
1
 50
0
  1
５００×５００×２９ｔ
  0
TEXT
  8
_0-4_文字-記号
 62
    7
 10
1335.55206252274
 20
900.88663475005069
 40
10
 41
1
 50
0
  1
５００×５００×２９ｔ
  0
TEXT
  8
_0-4_文字-記号
 62
    7
 10
931.25596693312946
 20
507.72938114684393
 40
10
 41
0.8
 50
0
  1
２３×２３×４.０ｔ
  0
TEXT
  8
_0-4_文字-記号
 62
    7
 10
1335.55206252274
 20
489.37265867053696
 40
10
 41
1
 50
0
  1
５００×５００×２９ｔ
  0
ENDSEC
  0
EOF
