  0
SECTION
  2
HEADER
  9
$ACADVER
  1
AC1009
  9
$INSBASE
 10
0
 20
0
 30
0
  9
$EXTMIN
 10
0
 20
0
  9
$EXTMAX
 10
1682
 20
1188
  9
$LIMMIN
 10
0
 20
0
  9
$LIMMAX
 10
1682
 20
1188
  9
$LTSCALE
 40
2
  0
ENDSEC
  0
SECTION
  2
TABLES
  0
TABLE
  2
LTYPE
 70
     9
  0
LTYPE
  2
CONTINUOUS
 70
    64
  3
Ä└É³
 72
    65
 73
     0
 40
0.0
  0
LTYPE
  2
DASHED1
 70
    64
  3
--  --  --  --  --  --  --  --  
 72
    65
 73
     2
 40
2.5
 49
1.25
 49
-1.25
  0
LTYPE
  2
DASHED2
 70
    64
  3
----    ----    ----    ----    
 72
    65
 73
     2
 40
5.0
 49
2.5
 49
-2.5
  0
LTYPE
  2
DASHED3
 70
    64
  3
------  ------  ------  ------  
 72
    65
 73
     2
 40
5.0
 49
3.75
 49
-1.25
  0
LTYPE
  2
CENTER1
 70
    64
  3
----- - ----- - ----- - ----- - 
 72
    65
 73
     4
 40
10.0
 49
6.25
 49
-1.25
 49
1.25
 49
-1.25
  0
LTYPE
  2
CENTER2
 70
    64
  3
----------  --  ----------  --  
 72
    65
 73
     4
 40
20.0
 49
12.5
 49
-2.5
 49
2.5
 49
-2.5
  0
LTYPE
  2
PHANTOM1
 70
    64
  3
--- - - --- - - --- - - --- - - 
 72
    65
 73
     6
 40
10.0
 49
3.25
 49
-1.25
 49
1.25
 49
-1.25
 49
1.25
 49
-1.25
  0
LTYPE
  2
PHANTOM2
 70
    64
  3
--------  -  -  --------  -  -  
 72
    65
 73
     6
 40
20.0
 49
10.0
 49
-2.5
 49
1.25
 49
-2.5
 49
1.25
 49
-2.5
  0
LTYPE
  2
DOT
 70
    64
  3
-   -   -   -   -   -   -   -   
 72
    65
 73
     2
 40
2.5
 49
0.625
 49
-1.875
  0
LTYPE
  2
DUMMY
 70
    64
  3
â_â~ü[
 72
    65
 73
     0
 40
0.0
  0
LTYPE
  2
RAND1
 70
    64
  3
âëâôâ_âÇÉ³1
 72
    65
 73
     4
 40
10.0
 49
1.0
 49
-2.0
 49
3.0
 49
-4.0
  0
LTYPE
  2
RAND2
 70
    64
  3
âëâôâ_âÇÉ³2
 72
    65
 73
     4
 40
14.0
 49
2.0
 49
-3.0
 49
4.0
 49
-5.0
  0
LTYPE
  2
RAND3
 70
    64
  3
âëâôâ_âÇÉ³3
 72
    65
 73
     4
 40
18.0
 49
3.0
 49
-4.0
 49
5.0
 49
-6.0
  0
LTYPE
  2
RAND4
 70
    64
  3
âëâôâ_âÇÉ³4
 72
    65
 73
     4
 40
22.0
 49
4.0
 49
-5.0
 49
6.0
 49
-7.0
  0
LTYPE
  2
RAND5
 70
    64
  3
âëâôâ_âÇÉ³5
 72
    65
 73
     4
 40
26.0
 49
5.0
 49
-6.0
 49
7.0
 49
-8.0
  0
LTYPE
  2
LONG1
 70
    64
  3
----------  --  ----------  --  
 72
    65
 73
     4
 40
40.0
 49
32.5
 49
-2.5
 49
2.5
 49
-2.5
  0
LTYPE
  2
LONG2
 70
    64
  3
--------  -  -  --------  -  -  
 72
    65
 73
     6
 40
40.0
 49
30.0
 49
-2.5
 49
1.25
 49
-2.5
 49
1.25
 49
-2.5
  0
LTYPE
  2
LONG3
 70
    64
  3
+++++++++++++++..+++++++++++++++
 72
    65
 73
     2
 40
40.0
 49
37.5
 49
-2.5
  0
LTYPE
  2
LONG4
 70
    64
  3
+++++++++++++++..+++++++++++++++
 72
    65
 73
     2
 40
80.0
 49
75.0
 49
-5.0
  0
LTYPE
  2
LONG5
 70
    64
  3
----------  --  ----------  --  
 72
    65
 73
     4
 40
60.0
 49
37.5
 49
-7.5
 49
7.5
 49
-7.5
  0
LTYPE
  2
dashed
 70
   64
  3
-------   -------------   ------
 72
   65
 73
    2
 40
7.5
 49
6
 49
-1.5
  0
LTYPE
  2
dashed_spaced
 70
   64
  3
----        --------        ----
 72
   65
 73
    2
 40
12
 49
6
 49
-6
  0
LTYPE
  2
long_dashed_dotted
 70
   64
  3
------------- --- --------------
 72
   65
 73
    4
 40
15.25
 49
12
 49
-1.5
 49
0.25
 49
-1.5
  0
LTYPE
  2
long_dashed_double-dotted
 70
   64
  3
----------- --- --- ------------
 72
   65
 73
    6
 40
17
 49
12
 49
-1.5
 49
0.25
 49
-1.5
 49
0.25
 49
-1.5
  0
LTYPE
  2
long_dashed_triplicate-dotted
 70
   64
  3
--------- --- --- --- ----------
 72
   65
 73
    8
 40
18.75
 49
12
 49
-1.5
 49
0.25
 49
-1.5
 49
0.25
 49
-1.5
 49
0.25
 49
-1.5
  0
LTYPE
  2
dotted
 70
   64
  3
   -       -       -       -    
 72
   65
 73
    2
 40
1.75
 49
0.25
 49
-1.5
  0
LTYPE
  2
chain
 70
   64
  3
-------------- -- --------------
 72
   65
 73
    4
 40
18.5
 49
12
 49
-1.5
 49
3.5
 49
-1.5
  0
LTYPE
  2
chain_double_dash
 70
   64
  3
------------ -- -- -------------
 72
   65
 73
    6
 40
23.5
 49
12
 49
-1.5
 49
3.5
 49
-1.5
 49
3.5
 49
-1.5
  0
LTYPE
  2
dashed_dotted
 70
   64
  3
-----------     -     ----------
 72
   65
 73
    4
 40
9.25
 49
6
 49
-1.5
 49
0.25
 49
-1.5
  0
LTYPE
  2
double-dashed_dotted
 70
   64
  3
------   -----------   -   -----
 72
   65
 73
    6
 40
16.75
 49
6
 49
-1.5
 49
6
 49
-1.5
 49
0.25
 49
-1.5
  0
LTYPE
  2
dashed_double-dotted
 70
   64
  3
---------    -    -    ---------
 72
   65
 73
    6
 40
11
 49
6
 49
-1.5
 49
0.25
 49
-1.5
 49
0.25
 49
-1.5
  0
LTYPE
  2
double-dashed_double-dotted
 70
   64
  3
-----   ---------   -   -   ----
 72
   65
 73
    8
 40
18.5
 49
6
 49
-1.5
 49
6
 49
-1.5
 49
0.25
 49
-1.5
 49
0.25
 49
-1.5
  0
LTYPE
  2
dashed_triplicate-dotted
 70
   64
  3
-------    -    -    -    ------
 72
   65
 73
    8
 40
12.75
 49
6
 49
-1.5
 49
0.25
 49
-1.5
 49
0.25
 49
-1.5
 49
0.25
 49
-1.5
  0
LTYPE
  2
double-dashed_triplicate-dotted
 70
   64
  3
-----  ---------  -  -  -  -----
 72
   65
 73
   10
 40
20.25
 49
6
 49
-1.5
 49
6
 49
-1.5
 49
0.25
 49
-1.5
 49
0.25
 49
-1.5
 49
0.25
 49
-1.5
  0
LTYPE
  2
undefined
 70
   64
  3
--------------------------------
 72
   65
 73
    0
 40
0
  0
LTYPE
  2
_
 70
   64
  3
                                
 72
   65
 73
    0
 40
0
  0
LTYPE
  2
__18
 70
   64
  3
                                
 72
   65
 73
    0
 40
0
  0
LTYPE
  2
__19
 70
   64
  3
                                
 72
   65
 73
    0
 40
0
  0
LTYPE
  2
__20
 70
   64
  3
                                
 72
   65
 73
    0
 40
0
  0
LTYPE
  2
__21
 70
   64
  3
                                
 72
   65
 73
    0
 40
0
  0
LTYPE
  2
__22
 70
   64
  3
                                
 72
   65
 73
    0
 40
0
  0
LTYPE
  2
__23
 70
   64
  3
                                
 72
   65
 73
    0
 40
0
  0
LTYPE
  2
__24
 70
   64
  3
                                
 72
   65
 73
    0
 40
0
  0
LTYPE
  2
__25
 70
   64
  3
                                
 72
   65
 73
    0
 40
0
  0
LTYPE
  2
__26
 70
   64
  3
                                
 72
   65
 73
    0
 40
0
  0
LTYPE
  2
__27
 70
   64
  3
                                
 72
   65
 73
    0
 40
0
  0
LTYPE
  2
__28
 70
   64
  3
                                
 72
   65
 73
    0
 40
0
  0
LTYPE
  2
__29
 70
   64
  3
                                
 72
   65
 73
    0
 40
0
  0
LTYPE
  2
__30
 70
   64
  3
                                
 72
   65
 73
    0
 40
0
  0
LTYPE
  2
__31
 70
   64
  3
                                
 72
   65
 73
    0
 40
0
  0
LTYPE
  2
__32
 70
   64
  3
                                
 72
   65
 73
    0
 40
0
  0
ENDTAB
  0
TABLE
  2
STYLE
  5
3
100
AcDbSymbolTable
 70
     1
  0
STYLE
  5
10
100
AcDbSymbolTableRecord
100
AcDbTextStyleTableRecord
  2
STANDARD
 70
     0
 40
0.0
 41
1.0
 50
0.0
 71
     0
 42
0.2
  3
txt
  4
bigfont.shx
  0
STYLE
  5
26
100
AcDbSymbolTableRecord
100
AcDbTextStyleTableRecord
  2
TATEGAKI
 70
    68
 40
0.0
 41
1.0
 50
0.0
 71
     0
 42
1.0
  3
txt
  4
bigfont.shx
  0
ENDTAB
  0
TABLE
  2
LAYER
 70
    6
  0
LAYER
  2
_0-1_MOD
 70
   64
 62
    7
  6
CONTINUOUS
  0
LAYER
  2
_0-2_Õ»_µ│__
 70
   64
 62
    7
  6
CONTINUOUS
  0
LAYER
  2
_0-3_Þ║_õ¢ôÒ
 70
   64
 62
    7
  6
CONTINUOUS
  0
LAYER
  2
_0-4_µûçÕ___
 70
   64
 62
    7
  6
CONTINUOUS
  0
LAYER
  2
_0-5_õ©_Õ┐âþ_
 70
   64
 62
    7
  6
CONTINUOUS
  0
LAYER
  2
ADD_LINE
 70
   64
 62
    7
  6
CONTINUOUS
  0
ENDTAB
  0
ENDSEC
  0
SECTION
  2
BLOCKS
  0
ENDSEC
  0
SECTION
  2
ENTITIES
  0
LINE
  8
_0-4_µûçÕ___
  6
CONTINUOUS
 62
    5
 10
1423.7972425070509
 20
242.89757800010182
 11
1723.7973505557734
 21
242.89757800010182
  0
LINE
  8
_0-4_µûçÕ___
  6
CONTINUOUS
 62
    5
 10
1723.7973505557734
 20
242.89757800010182
 11
1723.7973505557734
 21
292.89758775040912
  0
LINE
  8
_0-4_µûçÕ___
  6
CONTINUOUS
 62
    5
 10
1723.7973505557734
 20
292.89758775040912
 11
1423.7972425070509
 21
292.89758775040912
  0
LINE
  8
_0-4_µûçÕ___
  6
CONTINUOUS
 62
    5
 10
1423.7972425070509
 20
292.89758775040912
 11
1423.7972425070509
 21
242.89757800010182
  0
LINE
  8
_0-5_õ©_Õ┐âþ_
  6
LONG3
 62
    5
 10
173.79727125720171
 20
990.75920664665784
 11
173.79727125720171
 21
468.70381152767931
  0
LINE
  8
_0-5_õ©_Õ┐âþ_
  6
LONG3
 62
    5
 10
-87.230432495647392
 20
729.7314843137292
 11
434.8249935901303
 21
729.7314843137292
  0
LINE
  8
_0-5_õ©_Õ┐âþ_
  6
LONG3
 62
    5
 10
873.79725912086747
 20
990.78952933646531
 11
873.79725912086747
 21
468.73413421748688
  0
LINE
  8
_0-5_õ©_Õ┐âþ_
  6
LONG3
 62
    5
 10
612.76958633481763
 20
729.76185655041547
 11
1134.8249814537962
 21
729.76185655041547
  0
LINE
  8
_0-5_õ©_Õ┐âþ_
  6
LONG3
 62
    5
 10
1573.7972469845333
 20
990.75920664665784
 11
1573.7972469845333
 21
468.70381152767931
  0
LINE
  8
_0-5_õ©_Õ┐âþ_
  6
LONG3
 62
    5
 10
1312.7695246516048
 20
729.7314843137292
 11
1834.8249693174619
 21
729.7314843137292
  0
LINE
  8
_0-2_Õ»_µ│__
  6
CONTINUOUS
 62
    5
 10
-76.052724771978319
 20
974.92808703566152
 11
-76.052724771978319
 21
1039.8736402592604
  0
LINE
  8
_0-2_Õ»_µ│__
  6
CONTINUOUS
 62
    5
 10
423.64726728638163
 20
974.92808703566152
 11
423.64726728638163
 21
1039.8736402592604
  0
LINE
  8
_0-2_Õ»_µ│__
  6
CONTINUOUS
 62
    5
 10
-76.052724771978319
 20
1039.8736402592604
 11
423.64726728638163
 21
1039.8736402592604
  0
LINE
  8
_0-2_Õ»_µ│__
  6
CONTINUOUS
 62
    5
 10
-71.39936243152988
 20
479.88148828454916
 11
-137.59791286571613
 21
479.88148828454916
  0
LINE
  8
_0-2_Õ»_µ│__
  6
CONTINUOUS
 62
    5
 10
-71.39936243152988
 20
979.58152988978793
 11
-137.59791286571613
 21
979.58152988978793
  0
LINE
  8
_0-2_Õ»_µ│__
  6
CONTINUOUS
 62
    5
 10
-137.59791286571613
 20
479.88148828454916
 11
-137.59791286571613
 21
979.58152988978793
  0
LINE
  8
_0-2_Õ»_µ│__
  6
CONTINUOUS
 62
    5
 10
628.60065639893514
 20
479.9118605212355
 11
559.36924861480827
 21
479.9118605212355
  0
LINE
  8
_0-2_Õ»_µ│__
  6
CONTINUOUS
 62
    5
 10
628.60065639893514
 20
979.61185257959551
 11
559.36924861480827
 21
979.61185257959551
  0
LINE
  8
_0-2_Õ»_µ│__
  6
CONTINUOUS
 62
    5
 10
559.36924861480827
 20
479.9118605212355
 11
559.36924861480827
 21
979.61185257959551
  0
LINE
  8
_0-2_Õ»_µ│__
  6
CONTINUOUS
 62
    5
 10
1323.9473005022321
 20
974.92808703566152
 11
1323.9473005022321
 21
1039.8736402592604
  0
LINE
  8
_0-2_Õ»_µ│__
  6
CONTINUOUS
 62
    5
 10
1823.6471934668346
 20
974.92808703566152
 11
1823.6471934668346
 21
1039.8736402592604
  0
LINE
  8
_0-2_Õ»_µ│__
  6
CONTINUOUS
 62
    5
 10
1323.9473005022321
 20
1039.8736402592604
 11
1823.6471934668346
 21
1039.8736402592604
  0
LINE
  8
_0-2_Õ»_µ│__
  6
CONTINUOUS
 62
    5
 10
1328.600644262601
 20
479.88148828454916
 11
1259.0133412482655
 21
479.88148828454916
  0
LINE
  8
_0-2_Õ»_µ│__
  6
CONTINUOUS
 62
    5
 10
1328.600644262601
 20
979.58152988978793
 11
1259.0133412482655
 21
979.58152988978793
  0
LINE
  8
_0-2_Õ»_µ│__
  6
CONTINUOUS
 62
    5
 10
1259.0133412482655
 20
479.88148828454916
 11
1259.0133412482655
 21
979.58152988978793
  0
LINE
  8
_0-2_Õ»_µ│__
  6
CONTINUOUS
 62
    5
 10
1528.7973843725492
 20
482.83141035278788
 11
1528.7973843725492
 21
448.15023026042923
  0
LINE
  8
_0-2_Õ»_µ│__
  6
CONTINUOUS
 62
    5
 10
1618.7974068777901
 20
482.83141035278788
 11
1618.7974068777901
 21
448.15023026042923
  0
LINE
  8
_0-2_Õ»_µ│__
  6
CONTINUOUS
 62
    5
 10
1528.7973843725492
 20
448.15023026042923
 11
1618.7974068777901
 21
448.15023026042923
  0
LINE
  8
_0-2_Õ»_µ│__
  6
CONTINUOUS
 62
    5
 10
1511.4972988997647
 20
477.13138877839197
 11
1511.4972988997647
 21
421.44902091597038
  0
LINE
  8
_0-2_Õ»_µ│__
  6
CONTINUOUS
 62
    5
 10
1636.0972941630596
 20
477.13138877839197
 11
1636.0972941630596
 21
421.44902091597038
  0
LINE
  8
_0-2_Õ»_µ│__
  6
CONTINUOUS
 62
    5
 10
1511.4972988997647
 20
421.44902091597038
 11
1636.0972941630596
 21
421.44902091597038
  0
LINE
  8
_0-2_Õ»_µ│__
  6
CONTINUOUS
 62
    5
 10
1532.7974029894501
 20
524.73137249449508
 11
1469.8698941381742
 21
524.73137249449508
  0
LINE
  8
_0-2_Õ»_µ│__
  6
CONTINUOUS
 62
    5
 10
1478.5173108899914
 20
480.13140274106763
 11
1469.8698941381742
 21
480.13140274106763
  0
LINE
  8
_0-2_Õ»_µ│__
  6
CONTINUOUS
 62
    5
 10
1469.8698941381742
 20
524.73137249449508
 11
1469.8698941381742
 21
480.13140274106763
  0
LINE
  8
_0-2_Õ»_µ│__
  6
CONTINUOUS
 62
    5
 10
1321.546060569498
 20
350.7520660046905
 11
1283.3032030967211
 21
350.7520660046905
  0
LINE
  8
_0-2_Õ»_µ│__
  6
CONTINUOUS
 62
    5
 10
623.94726309168755
 20
974.95850881922661
 11
623.94726309168755
 21
1039.9039629490678
  0
LINE
  8
_0-2_Õ»_µ│__
  6
CONTINUOUS
 62
    5
 10
1123.6473046969263
 20
974.95850881922661
 11
1123.6473046969263
 21
1039.9039629490678
  0
LINE
  8
_0-2_Õ»_µ│__
  6
CONTINUOUS
 62
    5
 10
623.94726309168755
 20
1039.9039629490678
 11
1123.6473046969263
 21
1039.9039629490678
  0
LINE
  8
_0-2_Õ»_µ│__
  6
CONTINUOUS
 62
    5
 10
1323.9776231920396
 20
352.85206091449987
 11
1323.9776231920396
 21
382.94475411080026
  0
LINE
  8
_0-2_Õ»_µ│__
  6
CONTINUOUS
 62
    5
 10
1823.7972214157517
 20
352.85206091449987
 11
1823.7972214157517
 21
382.94475411080026
  0
LINE
  8
_0-2_Õ»_µ│__
  6
CONTINUOUS
 62
    5
 10
1323.9776231920396
 20
382.94475411080026
 11
1823.7972214157517
 21
382.94475411080026
  0
LINE
  8
_0-2_Õ»_µ│__
  6
CONTINUOUS
 62
    5
 10
1334.762690481532
 20
320.85206061992864
 11
1283.3032030967211
 21
320.85206061992864
  0
LINE
  8
_0-2_Õ»_µ│__
  6
CONTINUOUS
 62
    5
 10
1283.3032030967211
 20
350.7520660046905
 11
1283.3032030967211
 21
320.85206061992864
  0
LINE
  8
_0-3_Þ║_õ¢ôÒ
  6
CONTINUOUS
 62
    5
 10
-76.052724771978319
 20
487.53484600759379
 11
-76.052724771978319
 21
971.92812261986455
  0
LINE
  8
_0-3_Þ║_õ¢ôÒ
  6
CONTINUOUS
 62
    5
 10
423.64726728638163
 20
971.92812261986455
 11
423.64726728638163
 21
605.57671730306618
  0
LINE
  8
_0-3_Þ║_õ¢ôÒ
  6
CONTINUOUS
 62
    5
 10
423.64726728638163
 20
589.88626128089936
 11
423.64726728638163
 21
487.53484600759379
  0
LINE
  8
_0-3_Þ║_õ¢ôÒ
  6
CONTINUOUS
 62
    5
 10
297.95203826786474
 20
479.88148828454916
 11
-68.399360855573832
 21
479.88148828454916
  0
LINE
  8
_0-3_Þ║_õ¢ôÒ
  6
CONTINUOUS
 62
    5
 10
415.99390956333707
 20
479.88148828454916
 11
313.64249429003144
 21
479.88148828454916
  0
LINE
  8
_0-3_Þ║_õ¢ôÒ
  6
CONTINUOUS
 62
    5
 10
297.95203826786474
 20
482.73147429830777
 11
297.95203826786474
 21
479.88148828454916
  0
LINE
  8
_0-3_Þ║_õ¢ôÒ
  6
CONTINUOUS
 62
    5
 10
313.64249429003144
 20
479.88148828454916
 11
313.64249429003144
 21
482.73147429830777
  0
LINE
  8
_0-3_Þ║_õ¢ôÒ
  6
CONTINUOUS
 62
    5
 10
304.4972800472068
 20
486.93151366480527
 11
307.09727728412872
 21
486.93151366480527
  0
LINE
  8
_0-3_Þ║_õ¢ôÒ
  6
CONTINUOUS
 62
    5
 10
416.59729145300435
 20
596.43150306024143
 11
416.59729145300435
 21
599.031475523724
  0
LINE
  8
_0-3_Þ║_õ¢ôÒ
  6
CONTINUOUS
 62
    5
 10
420.79728127262308
 20
589.88626128089936
 11
423.64726728638163
 21
589.88626128089936
  0
LINE
  8
_0-3_Þ║_õ¢ôÒ
  6
CONTINUOUS
 62
    5
 10
423.64726728638163
 20
605.57671730306618
 11
420.79728127262308
 21
605.57671730306618
  0
LINE
  8
_0-3_Þ║_õ¢ôÒ
  6
CONTINUOUS
 62
    5
 10
415.99390956333707
 20
979.58152988978793
 11
-68.399360855573832
 21
979.58152988978793
  0
LINE
  8
_0-3_Þ║_õ¢ôÒ
  6
CONTINUOUS
 62
    5
 10
1324.1973140525081
 20
509.94598930682912
 11
1324.1973140525081
 21
949.51697932062916
  0
LINE
  8
_0-3_Þ║_õ¢ôÒ
  6
CONTINUOUS
 62
    5
 10
1823.3972790103162
 20
949.51678113311414
 11
1823.3972790103162
 21
605.57661820930866
  0
LINE
  8
_0-3_Þ║_õ¢ôÒ
  6
CONTINUOUS
 62
    5
 10
1793.5829401789485
 20
480.13140274106763
 11
1713.6426186579995
 21
480.13140274106763
  0
LINE
  8
_0-3_Þ║_õ¢ôÒ
  6
CONTINUOUS
 62
    5
 10
1511.4972988997647
 20
484.8315187549959
 11
1527.7973301714451
 21
484.8315187549959
  0
LINE
  8
_0-3_Þ║_õ¢ôÒ
  6
CONTINUOUS
 62
    5
 10
1527.7976274527177
 20
484.8315187549959
 11
1511.4972988997647
 21
484.8315187549959
  0
LINE
  8
_0-3_Þ║_õ¢ôÒ
  6
CONTINUOUS
 62
    5
 10
1511.4972988997647
 20
480.13140274106763
 11
1354.0117519776334
 21
480.13140274106763
  0
LINE
  8
_0-3_Þ║_õ¢ôÒ
  6
CONTINUOUS
 62
    5
 10
1323.9473005022321
 20
487.17895077738524
 11
1323.9473005022321
 21
509.28453847524281
  0
LINE
  8
_0-3_Þ║_õ¢ôÒ
  6
CONTINUOUS
 62
    5
 10
1353.3504993335621
 20
479.88138919079165
 11
1331.2448620888256
 21
479.88138919079165
  0
LINE
  8
_0-3_Þ║_õ¢ôÒ
  6
CONTINUOUS
 62
    5
 10
1515.3973319153067
 20
525.73157533623532
 11
1515.3973319153067
 21
484.8315187549959
  0
LINE
  8
_0-3_Þ║_õ¢ôÒ
  6
CONTINUOUS
 62
    5
 10
1514.697333612037
 20
525.73157533623532
 11
1514.697333612037
 21
484.8315187549959
  0
LINE
  8
_0-3_Þ║_õ¢ôÒ
  6
CONTINUOUS
 62
    5
 10
1515.7972743207424
 20
525.73147624247781
 11
1515.7972743207424
 21
484.8315187549959
  0
LINE
  8
_0-3_Þ║_õ¢ôÒ
  6
CONTINUOUS
 62
    5
 10
1511.4972988997647
 20
525.73147624247781
 11
1511.4972988997647
 21
484.8315187549959
  0
LINE
  8
_0-3_Þ║_õ¢ôÒ
  6
CONTINUOUS
 62
    5
 10
1511.4972988997647
 20
484.8315187549959
 11
1511.4972988997647
 21
480.13140274106763
  0
LINE
  8
_0-3_Þ║_õ¢ôÒ
  6
CONTINUOUS
 62
    5
 10
1616.090264515527
 20
525.23139959504704
 11
1611.7974238450922
 21
525.23139959504704
  0
LINE
  8
_0-3_Þ║_õ¢ôÒ
  6
CONTINUOUS
 62
    5
 10
1528.7973843725492
 20
500.33136793453258
 11
1528.7973843725492
 21
485.83137476858485
  0
LINE
  8
_0-3_Þ║_õ¢ôÒ
  6
CONTINUOUS
 62
    5
 10
1611.7974238450922
 20
524.73137249449508
 11
1535.7973674052471
 21
524.73137249449508
  0
LINE
  8
_0-3_Þ║_õ¢ôÒ
  6
CONTINUOUS
 62
    5
 10
1535.7973674052471
 20
525.23139959504704
 11
1531.5045267348123
 21
525.23139959504704
  0
LINE
  8
_0-3_Þ║_õ¢ôÒ
  6
CONTINUOUS
 62
    5
 10
1531.5045267348123
 20
525.23139959504704
 11
1528.297357271997
 21
522.02427967911058
  0
LINE
  8
_0-3_Þ║_õ¢ôÒ
  6
CONTINUOUS
 62
    5
 10
1528.7973843725492
 20
517.23141190812396
 11
1528.297357271997
 21
517.23141190812396
  0
LINE
  8
_0-3_Þ║_õ¢ôÒ
  6
CONTINUOUS
 62
    5
 10
1528.7973843725492
 20
507.53137171682704
 11
1528.7973843725492
 21
517.23141190812396
  0
LINE
  8
_0-3_Þ║_õ¢ôÒ
  6
CONTINUOUS
 62
    5
 10
1528.297357271997
 20
517.23141190812396
 11
1528.297357271997
 21
522.02427967911058
  0
LINE
  8
_0-3_Þ║_õ¢ôÒ
  6
CONTINUOUS
 62
    5
 10
1535.7973674052471
 20
524.73137249449508
 11
1535.7973674052471
 21
525.23139959504704
  0
LINE
  8
_0-3_Þ║_õ¢ôÒ
  6
CONTINUOUS
 62
    5
 10
1526.497418260022
 20
507.53137171682704
 11
1528.7973843725492
 21
507.53137171682704
  0
LINE
  8
_0-3_Þ║_õ¢ôÒ
  6
CONTINUOUS
 62
    5
 10
1526.497418260022
 20
501.33137258875786
 11
1527.7974292652027
 21
501.33137258875786
  0
LINE
  8
_0-3_Þ║_õ¢ôÒ
  6
CONTINUOUS
 62
    5
 10
1526.497418260022
 20
501.33137258875786
 11
1526.497418260022
 21
507.53137171682704
  0
LINE
  8
_0-3_Þ║_õ¢ôÒ
  6
CONTINUOUS
 62
    5
 10
1526.497418260022
 20
507.53137171682704
 11
1526.497418260022
 21
501.33137258875786
  0
LINE
  8
_0-3_Þ║_õ¢ôÒ
  6
CONTINUOUS
 62
    5
 10
1611.7974238450922
 20
524.73137249449508
 11
1611.7974238450922
 21
525.23139959504704
  0
LINE
  8
_0-3_Þ║_õ¢ôÒ
  6
CONTINUOUS
 62
    5
 10
1618.7974068777901
 20
500.33136793453258
 11
1618.7974068777901
 21
485.83137476858485
  0
LINE
  8
_0-3_Þ║_õ¢ôÒ
  6
CONTINUOUS
 62
    5
 10
1631.7973187420819
 20
525.73147624247781
 11
1631.7973187420819
 21
484.8315187549959
  0
LINE
  8
_0-3_Þ║_õ¢ôÒ
  6
CONTINUOUS
 62
    5
 10
1632.8972594507873
 20
525.73157533623532
 11
1632.8972594507873
 21
484.8315187549959
  0
LINE
  8
_0-3_Þ║_õ¢ôÒ
  6
CONTINUOUS
 62
    5
 10
1632.1972611475176
 20
525.73157533623532
 11
1632.1972611475176
 21
484.8315187549959
  0
LINE
  8
_0-3_Þ║_õ¢ôÒ
  6
CONTINUOUS
 62
    5
 10
1631.7973187420819
 20
525.73147624247781
 11
1631.7973187420819
 21
484.8315187549959
  0
LINE
  8
_0-3_Þ║_õ¢ôÒ
  6
CONTINUOUS
 62
    5
 10
1636.0972941630596
 20
525.73147624247781
 11
1636.0972941630596
 21
484.8315187549959
  0
LINE
  8
_0-3_Þ║_õ¢ôÒ
  6
CONTINUOUS
 62
    5
 10
1697.9521130889539
 20
480.13140274106763
 11
1636.0972941630596
 21
480.13140274106763
  0
LINE
  8
_0-3_Þ║_õ¢ôÒ
  6
CONTINUOUS
 62
    5
 10
1636.0972941630596
 20
484.8315187549959
 11
1619.797262891379
 21
484.8315187549959
  0
LINE
  8
_0-3_Þ║_õ¢ôÒ
  6
CONTINUOUS
 62
    5
 10
1636.0972941630596
 20
484.8315187549959
 11
1619.7969656101066
 21
484.8315187549959
  0
LINE
  8
_0-3_Þ║_õ¢ôÒ
  6
CONTINUOUS
 62
    5
 10
1636.0972941630596
 20
484.8315187549959
 11
1636.0972941630596
 21
480.13140274106763
  0
LINE
  8
_0-3_Þ║_õ¢ôÒ
  6
CONTINUOUS
 62
    5
 10
1704.4972557745384
 20
487.33140652336209
 11
1707.0972777848999
 21
487.33140652336209
  0
LINE
  8
_0-3_Þ║_õ¢ôÒ
  6
CONTINUOUS
 62
    5
 10
1713.6426186579995
 20
480.13140274106763
 11
1713.6426186579995
 21
483.63139425741662
  0
LINE
  8
_0-3_Þ║_õ¢ôÒ
  6
CONTINUOUS
 62
    5
 10
1697.9521130889539
 20
483.63139425741662
 11
1697.9521130889539
 21
480.13140274106763
  0
LINE
  8
_0-3_Þ║_õ¢ôÒ
  6
CONTINUOUS
 62
    5
 10
1621.7972721998296
 20
517.23141190812396
 11
1621.8474136411453
 21
517.23141190812396
  0
LINE
  8
_0-3_Þ║_õ¢ôÒ
  6
CONTINUOUS
 62
    5
 10
1621.0973729903174
 20
507.53137171682704
 11
1618.7974068777901
 21
507.53137171682704
  0
LINE
  8
_0-3_Þ║_õ¢ôÒ
  6
CONTINUOUS
 62
    5
 10
1621.8474136411453
 20
507.53137171682704
 11
1621.7972721998296
 21
507.53137171682704
  0
LINE
  8
_0-3_Þ║_õ¢ôÒ
  6
CONTINUOUS
 62
    5
 10
1619.2974339783423
 20
517.23141190812396
 11
1619.2974339783423
 21
522.02427967911058
  0
LINE
  8
_0-3_Þ║_õ¢ôÒ
  6
CONTINUOUS
 62
    5
 10
1618.7974068777901
 20
507.53137171682704
 11
1618.7974068777901
 21
517.23141190812396
  0
LINE
  8
_0-3_Þ║_õ¢ôÒ
  6
CONTINUOUS
 62
    5
 10
1618.7974068777901
 20
517.23141190812396
 11
1619.2974339783423
 21
517.23141190812396
  0
LINE
  8
_0-3_Þ║_õ¢ôÒ
  6
CONTINUOUS
 62
    5
 10
1616.090264515527
 20
525.23139959504704
 11
1619.2974339783423
 21
522.02427967911058
  0
LINE
  8
_0-3_Þ║_õ¢ôÒ
  6
CONTINUOUS
 62
    5
 10
1619.7973619851366
 20
501.33137258875786
 11
1621.0973729903174
 21
501.33137258875786
  0
LINE
  8
_0-3_Þ║_õ¢ôÒ
  6
CONTINUOUS
 62
    5
 10
1621.0973729903174
 20
501.33137258875786
 11
1621.0973729903174
 21
507.53137171682704
  0
LINE
  8
_0-3_Þ║_õ¢ôÒ
  6
CONTINUOUS
 62
    5
 10
1619.797262891379
 20
542.03150751415831
 11
1527.7973301714451
 21
542.03150751415831
  0
LINE
  8
_0-3_Þ║_õ¢ôÒ
  6
CONTINUOUS
 62
    5
 10
1619.797262891379
 20
537.73148254630189
 11
1527.7973301714451
 21
537.73148254630189
  0
LINE
  8
_0-3_Þ║_õ¢ôÒ
  6
CONTINUOUS
 62
    5
 10
1527.7973301714451
 20
538.83157189564349
 11
1619.797262891379
 21
538.83157189564349
  0
LINE
  8
_0-3_Þ║_õ¢ôÒ
  6
CONTINUOUS
 62
    5
 10
1527.7973301714451
 20
538.1315735923738
 11
1619.797262891379
 21
538.1315735923738
  0
LINE
  8
_0-3_Þ║_õ¢ôÒ
  6
CONTINUOUS
 62
    5
 10
1823.3972790103162
 20
589.88616218714174
 11
1823.3972790103162
 21
509.94574157243528
  0
LINE
  8
_0-3_Þ║_õ¢ôÒ
  6
CONTINUOUS
 62
    5
 10
1816.3497309739985
 20
479.88138919079165
 11
1794.2440937292622
 21
479.88138919079165
  0
LINE
  8
_0-3_Þ║_õ¢ôÒ
  6
CONTINUOUS
 62
    5
 10
1823.6473916543496
 20
487.17895077738524
 11
1823.6473916543496
 21
509.28453847524281
  0
LINE
  8
_0-3_Þ║_õ¢ôÒ
  6
CONTINUOUS
 62
    5
 10
1820.3973145945192
 20
589.88616218714174
 11
1823.3972790103162
 21
589.88616218714174
  0
LINE
  8
_0-3_Þ║_õ¢ôÒ
  6
CONTINUOUS
 62
    5
 10
1816.1973247749004
 20
596.43140396648391
 11
1816.1973247749004
 21
599.0314259768453
  0
LINE
  8
_0-3_Þ║_õ¢ôÒ
  6
CONTINUOUS
 62
    5
 10
1823.3972790103162
 20
605.57661820930866
 11
1820.3973145945192
 21
605.57661820930866
  0
LINE
  8
_0-3_Þ║_õ¢ôÒ
  6
CONTINUOUS
 62
    5
 10
1793.5827419914333
 20
979.33141724575444
 11
1354.0118510713908
 21
979.33141724575444
  0
LINE
  8
_0-3_Þ║_õ¢ôÒ
  6
CONTINUOUS
 62
    5
 10
1323.9473005022321
 20
972.28386920943683
 11
1323.9473005022321
 21
950.17823196470044
  0
LINE
  8
_0-3_Þ║_õ¢ôÒ
  6
CONTINUOUS
 62
    5
 10
1331.2448620888256
 20
979.58143079603042
 11
1353.3504002398045
 21
979.58143079603042
  0
LINE
  8
_0-3_Þ║_õ¢ôÒ
  6
CONTINUOUS
 62
    5
 10
1816.3497309739985
 20
979.58143079603042
 11
1794.2440937292622
 21
979.58143079603042
  0
LINE
  8
_0-3_Þ║_õ¢ôÒ
  6
CONTINUOUS
 62
    5
 10
1823.6471934668346
 20
972.28386920943683
 11
1823.6471934668346
 21
950.17823196470044
  0
LINE
  8
_0-3_Þ║_õ¢ôÒ
  6
CONTINUOUS
 62
    5
 10
1633.9264472166083
 20
501.82025164158648
 11
1633.9264472166083
 21
480.35748514889747
  0
LINE
  8
_0-3_Þ║_õ¢ôÒ
  6
CONTINUOUS
 62
    5
 10
1513.7265120694076
 20
501.82025164158648
 11
1513.7265120694076
 21
480.35748514889747
  0
LINE
  8
_0-3_Þ║_õ¢ôÒ
  6
CONTINUOUS
 62
    5
 10
1633.9264472166083
 20
507.04254221087717
 11
1621.1555410259939
 21
507.55282551533469
  0
LINE
  8
_0-3_Þ║_õ¢ôÒ
  6
CONTINUOUS
 62
    5
 10
1633.9264472166083
 20
501.82025164158648
 11
1621.1555410259939
 21
501.30996833712896
  0
LINE
  8
_0-3_Þ║_õ¢ôÒ
  6
CONTINUOUS
 62
    5
 10
1633.9264472166083
 20
525.15747565192146
 11
1633.9264472166083
 21
507.04254221087717
  0
LINE
  8
_0-3_Þ║_õ¢ôÒ
  6
CONTINUOUS
 62
    5
 10
1539.2095618524147
 20
532.22672522114044
 11
1521.2264231088998
 21
532.22672522114044
  0
LINE
  8
_0-3_Þ║_õ¢ôÒ
  6
CONTINUOUS
 62
    5
 10
1521.2264231088998
 20
525.22674218844259
 11
1539.2095618524147
 21
525.22674218844259
  0
LINE
  8
_0-3_Þ║_õ¢ôÒ
  6
CONTINUOUS
 62
    5
 10
1527.7264781348033
 20
539.15749126419598
 11
1539.2095618524147
 21
539.15749126419598
  0
LINE
  8
_0-3_Þ║_õ¢ôÒ
  6
CONTINUOUS
 62
    5
 10
1605.4433339240468
 20
524.33138054218068
 11
1605.4433339240468
 21
539.15749126419598
  0
LINE
  8
_0-3_Þ║_õ¢ôÒ
  6
CONTINUOUS
 62
    5
 10
1608.4433974336014
 20
524.33138054218068
 11
1608.4433974336014
 21
539.15749126419598
  0
LINE
  8
_0-3_Þ║_õ¢ôÒ
  6
CONTINUOUS
 62
    5
 10
1592.5029774080372
 20
524.33138054218068
 11
1592.5029774080372
 21
539.15749126419598
  0
LINE
  8
_0-3_Þ║_õ¢ôÒ
  6
CONTINUOUS
 62
    5
 10
1595.5029418238341
 20
524.33138054218068
 11
1595.5029418238341
 21
539.15749126419598
  0
LINE
  8
_0-3_Þ║_õ¢ôÒ
  6
CONTINUOUS
 62
    5
 10
1555.1499818779787
 20
524.33138054218068
 11
1555.1499818779787
 21
539.15749126419598
  0
LINE
  8
_0-3_Þ║_õ¢ôÒ
  6
CONTINUOUS
 62
    5
 10
1552.1500174621817
 20
524.33138054218068
 11
1552.1500174621817
 21
539.15749126419598
  0
LINE
  8
_0-3_Þ║_õ¢ôÒ
  6
CONTINUOUS
 62
    5
 10
1539.2095618524147
 20
524.33138054218068
 11
1539.2095618524147
 21
539.15749126419598
  0
LINE
  8
_0-3_Þ║_õ¢ôÒ
  6
CONTINUOUS
 62
    5
 10
1542.2095262682114
 20
524.33138054218068
 11
1542.2095262682114
 21
539.15749126419598
  0
LINE
  8
_0-3_Þ║_õ¢ôÒ
  6
CONTINUOUS
 62
    5
 10
1592.5029774080372
 20
539.15749126419598
 11
1580.8264626757059
 21
539.15749126419598
  0
LINE
  8
_0-3_Þ║_õ¢ôÒ
  6
CONTINUOUS
 62
    5
 10
1619.9264811512126
 20
539.15749126419598
 11
1608.4433974336014
 21
539.15749126419598
  0
LINE
  8
_0-3_Þ║_õ¢ôÒ
  6
CONTINUOUS
 62
    5
 10
1605.4433339240468
 20
539.15749126419598
 11
1595.5029418238341
 21
539.15749126419598
  0
LINE
  8
_0-3_Þ║_õ¢ôÒ
  6
CONTINUOUS
 62
    5
 10
1555.1499818779787
 20
539.15749126419598
 11
1566.8263975165526
 21
539.15749126419598
  0
LINE
  8
_0-3_Þ║_õ¢ôÒ
  6
CONTINUOUS
 62
    5
 10
1579.0265236637306
 20
537.22778897672083
 11
1568.6264356222853
 21
537.22778897672083
  0
LINE
  8
_0-3_Þ║_õ¢ôÒ
  6
CONTINUOUS
 62
    5
 10
1579.8265075683594
 20
538.02777288134951
 11
1579.8265075683594
 21
538.15748660997076
  0
LINE
  8
_0-3_Þ║_õ¢ôÒ
  6
CONTINUOUS
 62
    5
 10
1567.8264517176565
 20
538.02777288134951
 11
1567.8264517176565
 21
538.15748660997076
  0
LINE
  8
_0-3_Þ║_õ¢ôÒ
  6
CONTINUOUS
 62
    5
 10
1542.2095262682114
 20
539.15749126419598
 11
1552.1500174621817
 21
539.15749126419598
  0
LINE
  8
_0-3_Þ║_õ¢ôÒ
  6
LONG3
 62
    5
 10
1592.5029774080372
 20
525.22674218844259
 11
1555.1499818779787
 21
525.22674218844259
  0
LINE
  8
_0-3_Þ║_õ¢ôÒ
  6
CONTINUOUS
 62
    5
 10
1595.5029418238341
 20
516.84633356631957
 11
1595.5029418238341
 21
519.17964472825918
  0
LINE
  8
_0-3_Þ║_õ¢ôÒ
  6
CONTINUOUS
 62
    5
 10
1605.4433339240468
 20
516.84633356631957
 11
1605.4433339240468
 21
519.17964472825918
  0
LINE
  8
_0-3_Þ║_õ¢ôÒ
  6
CONTINUOUS
 62
    5
 10
1608.4433974336014
 20
516.84633356631957
 11
1608.4433974336014
 21
520.4583505755686
  0
LINE
  8
_0-3_Þ║_õ¢ôÒ
  6
CONTINUOUS
 62
    5
 10
1592.5029774080372
 20
516.84633356631957
 11
1592.5029774080372
 21
520.4583505755686
  0
LINE
  8
_0-3_Þ║_õ¢ôÒ
  6
CONTINUOUS
 62
    5
 10
1608.1433415357671
 20
524.03137419122527
 11
1605.743389821881
 21
524.03137419122527
  0
LINE
  8
_0-3_Þ║_õ¢ôÒ
  6
CONTINUOUS
 62
    5
 10
1608.0023311187861
 20
520.72307954883945
 11
1605.6022803111425
 21
519.44442324840884
  0
LINE
  8
_0-3_Þ║_õ¢ôÒ
  6
CONTINUOUS
 62
    5
 10
1626.4264370833585
 20
525.22674218844259
 11
1608.4433974336014
 21
525.22674218844259
  0
LINE
  8
_0-3_Þ║_õ¢ôÒ
  6
CONTINUOUS
 62
    5
 10
1608.4433974336014
 20
532.22672522114044
 11
1626.4264370833585
 21
532.22672522114044
  0
LINE
  8
_0-3_Þ║_õ¢ôÒ
  6
CONTINUOUS
 62
    5
 10
1605.4433339240468
 20
532.22672522114044
 11
1595.5029418238341
 21
532.22672522114044
  0
LINE
  8
_0-3_Þ║_õ¢ôÒ
  6
CONTINUOUS
 62
    5
 10
1605.4433339240468
 20
525.22674218844259
 11
1595.5029418238341
 21
525.22674218844259
  0
LINE
  8
_0-3_Þ║_õ¢ôÒ
  6
CONTINUOUS
 62
    5
 10
1592.8029342121138
 20
524.03137419122527
 11
1595.2028859259999
 21
524.03137419122527
  0
LINE
  8
_0-3_Þ║_õ¢ôÒ
  6
CONTINUOUS
 62
    5
 10
1592.9439446290949
 20
520.72307954883945
 11
1595.3439954367384
 21
519.44442324840884
  0
LINE
  8
_0-3_Þ║_õ¢ôÒ
  6
CONTINUOUS
 62
    5
 10
1617.0824903097853
 20
507.04254221087717
 11
1617.0824903097853
 21
501.82025164158648
  0
LINE
  8
_0-3_Þ║_õ¢ôÒ
  6
CONTINUOUS
 62
    5
 10
1617.9794870030466
 20
507.15491453192868
 11
1617.9794870030466
 21
501.70782977365616
  0
LINE
  8
_0-3_Þ║_õ¢ôÒ
  6
CONTINUOUS
 62
    5
 10
1621.1555410259939
 20
507.55282551533469
 11
1621.1555410259939
 21
501.30996833712896
  0
LINE
  8
_0-3_Þ║_õ¢ôÒ
  6
CONTINUOUS
 62
    5
 10
1621.1555410259939
 20
507.55282551533469
 11
1617.0824903097853
 21
507.04254221087717
  0
LINE
  8
_0-3_Þ║_õ¢ôÒ
  6
CONTINUOUS
 62
    5
 10
1621.1555410259939
 20
501.30996833712896
 11
1617.0824903097853
 21
501.82025164158648
  0
LINE
  8
_0-3_Þ║_õ¢ôÒ
  6
CONTINUOUS
 62
    5
 10
1552.1500174621817
 20
516.84633356631957
 11
1552.1500174621817
 21
519.17964472825918
  0
LINE
  8
_0-3_Þ║_õ¢ôÒ
  6
CONTINUOUS
 62
    5
 10
1555.1499818779787
 20
516.84633356631957
 11
1555.1499818779787
 21
520.4583505755686
  0
LINE
  8
_0-3_Þ║_õ¢ôÒ
  6
CONTINUOUS
 62
    5
 10
1539.2095618524147
 20
516.84633356631957
 11
1539.2095618524147
 21
520.4583505755686
  0
LINE
  8
_0-3_Þ║_õ¢ôÒ
  6
CONTINUOUS
 62
    5
 10
1542.2095262682114
 20
516.84633356631957
 11
1542.2095262682114
 21
519.17964472825918
  0
LINE
  8
_0-3_Þ║_õ¢ôÒ
  6
CONTINUOUS
 62
    5
 10
1542.2095262682114
 20
532.22672522114044
 11
1552.1500174621817
 21
532.22672522114044
  0
LINE
  8
_0-3_Þ║_õ¢ôÒ
  6
CONTINUOUS
 62
    5
 10
1542.2095262682114
 20
525.22674218844259
 11
1552.1500174621817
 21
525.22674218844259
  0
LINE
  8
_0-3_Þ║_õ¢ôÒ
  6
CONTINUOUS
 62
    5
 10
1554.8500250739021
 20
524.03137419122527
 11
1552.4499742662583
 21
524.03137419122527
  0
LINE
  8
_0-3_Þ║_õ¢ôÒ
  6
CONTINUOUS
 62
    5
 10
1554.7089155631636
 20
520.72307954883945
 11
1552.3089638492775
 21
519.44442324840884
  0
LINE
  8
_0-3_Þ║_õ¢ôÒ
  6
CONTINUOUS
 62
    5
 10
1539.5096177502489
 20
524.03137419122527
 11
1541.9095694641348
 21
524.03137419122527
  0
LINE
  8
_0-3_Þ║_õ¢ôÒ
  6
CONTINUOUS
 62
    5
 10
1539.6506281672298
 20
520.72307954883945
 11
1542.0506789748733
 21
519.44442324840884
  0
LINE
  8
_0-3_Þ║_õ¢ôÒ
  6
CONTINUOUS
 62
    5
 10
1513.7265120694076
 20
525.15747565192146
 11
1513.7265120694076
 21
507.04254221087717
  0
LINE
  8
_0-3_Þ║_õ¢ôÒ
  6
CONTINUOUS
 62
    5
 10
1513.7265120694076
 20
507.04254221087717
 11
1526.497418260022
 21
507.55282551533469
  0
LINE
  8
_0-3_Þ║_õ¢ôÒ
  6
CONTINUOUS
 62
    5
 10
1513.7265120694076
 20
501.82025164158648
 11
1526.497418260022
 21
501.30996833712896
  0
LINE
  8
_0-3_Þ║_õ¢ôÒ
  6
CONTINUOUS
 62
    5
 10
1529.6734722829694
 20
507.15491453192868
 11
1529.6734722829694
 21
501.70782977365616
  0
LINE
  8
_0-3_Þ║_õ¢ôÒ
  6
CONTINUOUS
 62
    5
 10
1526.497418260022
 20
507.55282551533469
 11
1526.497418260022
 21
501.30996833712896
  0
LINE
  8
_0-3_Þ║_õ¢ôÒ
  6
CONTINUOUS
 62
    5
 10
1530.5704689762306
 20
507.04254221087717
 11
1530.5704689762306
 21
501.82025164158648
  0
LINE
  8
_0-3_Þ║_õ¢ôÒ
  6
CONTINUOUS
 62
    5
 10
1526.497418260022
 20
507.55282551533469
 11
1530.5704689762306
 21
507.04254221087717
  0
LINE
  8
_0-3_Þ║_õ¢ôÒ
  6
CONTINUOUS
 62
    5
 10
1526.497418260022
 20
501.30996833712896
 11
1530.5704689762306
 21
501.82025164158648
  0
LINE
  8
_0-3_Þ║_õ¢ôÒ
  6
LONG3
 62
    5
 10
1633.9264472166083
 20
482.65745126142463
 11
1513.7265120694076
 21
482.65745126142463
  0
LINE
  8
_0-3_Þ║_õ¢ôÒ
  6
LONG3
 62
    5
 10
1633.9264472166083
 20
480.35748514889747
 11
1513.7265120694076
 21
480.35748514889747
  0
LINE
  8
_0-3_Þ║_õ¢ôÒ
  6
LONG3
 62
    5
 10
1626.4264370833585
 20
490.12674232983682
 11
1521.2264231088998
 21
490.12674232983682
  0
LINE
  8
_0-3_Þ║_õ¢ôÒ
  6
LONG3
 62
    5
 10
1521.2264231088998
 20
497.12672536253467
 11
1626.4264370833585
 21
497.12672536253467
  0
LINE
  8
_0-3_Þ║_õ¢ôÒ
  6
LONG3
 62
    5
 10
1592.4737447495627
 20
532.22672522114044
 11
1555.1208483132616
 21
532.22672522114044
  0
LINE
  8
_0-3_Þ║_õ¢ôÒ
  6
LONG3
 62
    5
 10
1059.3950114010843
 20
950.4069403571051
 11
1059.3950114010843
 21
969.58158244129311
  0
LINE
  8
_0-3_Þ║_õ¢ôÒ
  6
CONTINUOUS
 62
    5
 10
1122.5660927083961
 20
972.65596626900333
 11
1119.0661011920472
 21
972.65596626900333
  0
LINE
  8
_0-3_Þ║_õ¢ôÒ
  6
CONTINUOUS
 62
    5
 10
1115.640429993854
 20
976.08163746719651
 11
1115.640429993854
 21
979.58162898354544
  0
LINE
  8
_0-3_Þ║_õ¢ôÒ
  6
LONG3
 62
    5
 10
1093.3913049881983
 20
916.4105476762337
 11
1112.5659470723863
 21
916.4105476762337
  0
LINE
  8
_0-3_Þ║_õ¢ôÒ
  6
CONTINUOUS
 62
    5
 10
1093.3949714572273
 20
915.91052057568174
 11
1112.5659470723863
 21
915.91052057568174
  0
LINE
  8
_0-3_Þ║_õ¢ôÒ
  6
CONTINUOUS
 62
    5
 10
1058.8949843005323
 20
950.41050773237657
 11
1058.8949843005323
 21
969.58158244129311
  0
LINE
  8
_0-3_Þ║_õ¢ôÒ
  6
CONTINUOUS
 62
    5
 10
1041.2606555835621
 20
947.23157999046055
 11
872.966159776371
 21
947.23157999046055
  0
LINE
  8
_0-3_Þ║_õ¢ôÒ
  6
CONTINUOUS
 62
    5
 10
1093.3949714572273
 20
544.05262379296494
 11
1112.5659470723863
 21
544.05262379296494
  0
LINE
  8
_0-3_Þ║_õ¢ôÒ
  6
LONG3
 62
    5
 10
1093.3913049881983
 20
543.55259669241298
 11
1112.5659470723863
 21
543.55259669241298
  0
LINE
  8
_0-3_Þ║_õ¢ôÒ
  6
CONTINUOUS
 62
    5
 10
1090.2161428090687
 20
729.98154741088399
 11
1090.2161428090687
 21
561.68665522866263
  0
LINE
  8
_0-3_Þ║_õ¢ôÒ
  6
LONG3
 62
    5
 10
1091.2160979164153
 20
729.98154741088399
 11
1091.2160979164153
 21
561.68665522866263
  0
LINE
  8
_0-3_Þ║_õ¢ôÒ
  6
CONTINUOUS
 62
    5
 10
1090.2161428090687
 20
729.98154741088399
 11
1090.2161428090687
 21
898.27648913998405
  0
LINE
  8
_0-3_Þ║_õ¢ôÒ
  6
LONG3
 62
    5
 10
1091.2160979164153
 20
729.98154741088399
 11
1091.2160979164153
 21
898.27648913998405
  0
LINE
  8
_0-3_Þ║_õ¢ôÒ
  6
CONTINUOUS
 62
    5
 10
1117.0660918835968
 20
970.56736714131125
 11
1117.0660918835968
 21
729.98154741088399
  0
LINE
  8
_0-3_Þ║_õ¢ôÒ
  6
CONTINUOUS
 62
    5
 10
1122.5660927083961
 20
729.98154741088399
 11
1122.5660927083961
 21
972.65596626900333
  0
LINE
  8
_0-3_Þ║_õ¢ôÒ
  6
LONG3
 62
    5
 10
686.53715951102117
 20
950.40684126334759
 11
686.53715951102117
 21
969.58138425377808
  0
LINE
  8
_0-3_Þ║_õ¢ôÒ
  6
CONTINUOUS
 62
    5
 10
687.03713706469443
 20
950.41040863861906
 11
687.03713706469443
 21
969.58138425377808
  0
LINE
  8
_0-3_Þ║_õ¢ôÒ
  6
CONTINUOUS
 62
    5
 10
623.36607820370944
 20
972.65596626900333
 11
626.86606972005836
 21
972.65596626900333
  0
LINE
  8
_0-3_Þ║_õ¢ôÒ
  6
CONTINUOUS
 62
    5
 10
630.29174091825155
 20
976.08163746719651
 11
630.29174091825155
 21
979.58162898354544
  0
LINE
  8
_0-3_Þ║_õ¢ôÒ
  6
LONG3
 62
    5
 10
652.54076683014978
 20
916.41044858247619
 11
633.36607519908296
 21
916.41044858247619
  0
LINE
  8
_0-3_Þ║_õ¢ôÒ
  6
CONTINUOUS
 62
    5
 10
652.53714990799949
 20
915.91042148192412
 11
633.36607519908296
 21
915.91042148192412
  0
LINE
  8
_0-3_Þ║_õ¢ôÒ
  6
CONTINUOUS
 62
    5
 10
626.86606972005836
 20
605.82678040022097
 11
623.36607820370944
 21
605.82678040022097
  0
LINE
  8
_0-3_Þ║_õ¢ôÒ
  6
CONTINUOUS
 62
    5
 10
652.53714990799949
 20
544.05272288672256
 11
633.36607519908296
 21
544.05272288672256
  0
LINE
  8
_0-3_Þ║_õ¢ôÒ
  6
LONG3
 62
    5
 10
652.54076683014978
 20
543.55269578617049
 11
633.36607519908296
 21
543.55269578617049
  0
LINE
  8
_0-3_Þ║_õ¢ôÒ
  6
CONTINUOUS
 62
    5
 10
626.86606972005836
 20
590.13627483117534
 11
623.36607820370944
 21
590.13627483117534
  0
LINE
  8
_0-3_Þ║_õ¢ôÒ
  6
LONG3
 62
    5
 10
654.71612254256911
 20
561.68705160369279
 11
654.71612254256911
 21
729.98154741088399
  0
LINE
  8
_0-3_Þ║_õ¢ôÒ
  6
CONTINUOUS
 62
    5
 10
655.71612719679433
 20
561.68705160369279
 11
655.71612719679433
 21
729.98154741088399
  0
LINE
  8
_0-3_Þ║_õ¢ôÒ
  6
CONTINUOUS
 62
    5
 10
628.86607902850881
 20
603.92804491197739
 11
628.86607902850881
 21
729.98154741088399
  0
LINE
  8
_0-3_Þ║_õ¢ôÒ
  6
CONTINUOUS
 62
    5
 10
623.36607820370944
 20
605.82678040022097
 11
623.36607820370944
 21
729.98154741088399
  0
LINE
  8
_0-3_Þ║_õ¢ôÒ
  6
CONTINUOUS
 62
    5
 10
655.71612719679433
 20
898.27609276495389
 11
655.71612719679433
 21
729.98154741088399
  0
LINE
  8
_0-3_Þ║_õ¢ôÒ
  6
LONG3
 62
    5
 10
654.71612254256911
 20
898.27609276495389
 11
654.71612254256911
 21
729.98154741088399
  0
LINE
  8
_0-3_Þ║_õ¢ôÒ
  6
CONTINUOUS
 62
    5
 10
628.86607902850881
 20
970.56746623506876
 11
628.86607902850881
 21
729.98154741088399
  0
LINE
  8
_0-3_Þ║_õ¢ôÒ
  6
CONTINUOUS
 62
    5
 10
623.36607820370944
 20
972.65596626900333
 11
623.36607820370944
 21
729.98154741088399
  0
LINE
  8
_0-3_Þ║_õ¢ôÒ
  6
LONG3
 62
    5
 10
1041.2606555835621
 20
948.23153509780707
 11
703.74558325808016
 21
948.23153509780707
  0
LINE
  8
_0-3_Þ║_õ¢ôÒ
  6
CONTINUOUS
 62
    5
 10
1115.640429993854
 20
979.58162898354544
 11
630.29174091825155
 21
979.58162898354544
  0
LINE
  8
_0-3_Þ║_õ¢ôÒ
  6
CONTINUOUS
 62
    5
 10
1113.5519299599193
 20
974.08162815874607
 11
632.38029049906493
 21
974.08162815874607
  0
LINE
  8
_0-3_Þ║_õ¢ôÒ
  6
CONTINUOUS
 62
    5
 10
648.46627925445671
 20
972.58154685709007
 11
1097.4659412045276
 21
972.58154685709007
  0
LINE
  8
_0-3_Þ║_õ¢ôÒ
  6
CONTINUOUS
 62
    5
 10
648.46608106694168
 20
970.08160954184507
 11
1097.4661393920428
 21
970.08160954184507
  0
LINE
  8
_0-3_Þ║_õ¢ôÒ
  6
LONG3
 62
    5
 10
648.46627925445671
 20
969.08155534074115
 11
1097.4659412045276
 21
969.08155534074115
  0
LINE
  8
_0-3_Þ║_õ¢ôÒ
  6
CONTINUOUS
 62
    5
 10
648.46627925445671
 20
966.08159092494418
 11
1097.4659412045276
 21
966.08159092494418
  0
LINE
  8
_0-3_Þ║_õ¢ôÒ
  6
CONTINUOUS
 62
    5
 10
872.966159776371
 20
947.23157999046055
 11
703.74558325808016
 21
947.23157999046055
  0
LINE
  8
_0-3_Þ║_õ¢ôÒ
  6
LONG3
 62
    5
 10
1059.3950114010843
 20
509.55620401154152
 11
1059.3950114010843
 21
490.38156192735357
  0
LINE
  8
_0-3_Þ║_õ¢ôÒ
  6
CONTINUOUS
 62
    5
 10
1122.5660927083961
 20
487.30722764652205
 11
1119.0661011920472
 21
487.30722764652205
  0
LINE
  8
_0-3_Þ║_õ¢ôÒ
  6
CONTINUOUS
 62
    5
 10
1115.640429993854
 20
483.88155644832892
 11
1115.640429993854
 21
480.38151538510118
  0
LINE
  8
_0-3_Þ║_õ¢ôÒ
  6
CONTINUOUS
 62
    5
 10
1058.8949843005323
 20
509.5525870893913
 11
1058.8949843005323
 21
490.38156192735357
  0
LINE
  8
_0-3_Þ║_õ¢ôÒ
  6
CONTINUOUS
 62
    5
 10
748.81134321882917
 20
483.88155644832892
 11
748.81134321882917
 21
480.38151538510118
  0
LINE
  8
_0-3_Þ║_õ¢ôÒ
  6
CONTINUOUS
 62
    5
 10
1041.2606555835621
 20
512.73156437818602
 11
872.966159776371
 21
512.73156437818602
  0
LINE
  8
_0-3_Þ║_õ¢ôÒ
  6
CONTINUOUS
 62
    5
 10
1115.640429993854
 20
480.38151538510118
 11
748.81134321882917
 21
480.38151538510118
  0
LINE
  8
_0-3_Þ║_õ¢ôÒ
  6
CONTINUOUS
 62
    5
 10
1113.6408170604338
 20
485.88151620990061
 11
750.81135252727961
 21
485.88151620990061
  0
LINE
  8
_0-3_Þ║_õ¢ôÒ
  6
CONTINUOUS
 62
    5
 10
687.03713706469443
 20
509.55268618314881
 11
687.03713706469443
 21
490.38171056798984
  0
LINE
  8
_0-3_Þ║_õ¢ôÒ
  6
LONG3
 62
    5
 10
686.53715951102117
 20
509.55635265217785
 11
686.53715951102117
 21
490.38171056798984
  0
LINE
  8
_0-3_Þ║_õ¢ôÒ
  6
CONTINUOUS
 62
    5
 10
733.12083764978354
 20
480.38151538510118
 11
733.12083764978354
 21
483.88155644832892
  0
LINE
  8
_0-3_Þ║_õ¢ôÒ
  6
CONTINUOUS
 62
    5
 10
623.36607820370944
 20
487.30722764652205
 11
626.86606972005836
 21
487.30722764652205
  0
LINE
  8
_0-3_Þ║_õ¢ôÒ
  6
CONTINUOUS
 62
    5
 10
630.29174091825155
 20
483.88155644832892
 11
630.29174091825155
 21
480.38151538510118
  0
LINE
  8
_0-3_Þ║_õ¢ôÒ
  6
CONTINUOUS
 62
    5
 10
731.12082834133309
 20
485.88151620990061
 11
632.29175022670199
 21
485.88151620990061
  0
LINE
  8
_0-3_Þ║_õ¢ôÒ
  6
CONTINUOUS
 62
    5
 10
733.12083764978354
 20
480.38151538510118
 11
630.29174091825155
 21
480.38151538510118
  0
LINE
  8
_0-3_Þ║_õ¢ôÒ
  6
LONG3
 62
    5
 10
1041.2606555835621
 20
511.73155972396086
 11
704.67121804727094
 21
511.73155972396086
  0
LINE
  8
_0-3_Þ║_õ¢ôÒ
  6
CONTINUOUS
 62
    5
 10
1097.4659412045276
 20
493.8815534437025
 11
648.46627925445671
 21
493.8815534437025
  0
LINE
  8
_0-3_Þ║_õ¢ôÒ
  6
LONG3
 62
    5
 10
1097.4659412045276
 20
490.88153948102678
 11
648.46627925445671
 21
490.88153948102678
  0
LINE
  8
_0-3_Þ║_õ¢ôÒ
  6
CONTINUOUS
 62
    5
 10
1097.4661393920428
 20
489.88153482680156
 11
648.46608106694168
 21
489.88153482680156
  0
LINE
  8
_0-3_Þ║_õ¢ôÒ
  6
CONTINUOUS
 62
    5
 10
1097.4659412045276
 20
487.38154796467785
 11
648.46627925445671
 21
487.38154796467785
  0
LINE
  8
_0-3_Þ║_õ¢ôÒ
  6
CONTINUOUS
 62
    5
 10
872.966159776371
 20
512.73156437818602
 11
704.67121804727094
 21
512.73156437818602
  0
LINE
  8
_0-3_Þ║_õ¢ôÒ
  6
CONTINUOUS
 62
    5
 10
636.86606671543188
 20
505.48171643584851
 11
636.86606671543188
 21
954.48137838591936
  0
LINE
  8
_0-3_Þ║_õ¢ôÒ
  6
LONG3
 62
    5
 10
633.86610229963503
 20
505.48171643584851
 11
633.86610229963503
 21
954.48137838591936
  0
LINE
  8
_0-3_Þ║_õ¢ôÒ
  6
CONTINUOUS
 62
    5
 10
632.86609764540981
 20
505.48151824833343
 11
632.86609764540981
 21
954.4815765734345
  0
LINE
  8
_0-3_Þ║_õ¢ôÒ
  6
CONTINUOUS
 62
    5
 10
630.36606123640729
 20
505.48171643584851
 11
630.36606123640729
 21
954.48137838591936
  0
LINE
  8
_0-3_Þ║_õ¢ôÒ
  6
CONTINUOUS
 62
    5
 10
628.86607902850881
 20
489.30713786121498
 11
628.86607902850881
 21
592.03501031941892
  0
LINE
  8
_0-3_Þ║_õ¢ôÒ
  6
CONTINUOUS
 62
    5
 10
623.36607820370944
 20
487.30722764652205
 11
623.36607820370944
 21
590.13627483117534
  0
LINE
  8
_0-3_Þ║_õ¢ôÒ
  6
CONTINUOUS
 62
    5
 10
1109.0661537435524
 20
954.48137838591936
 11
1109.0661537435524
 21
505.48171643584851
  0
LINE
  8
_0-3_Þ║_õ¢ôÒ
  6
LONG3
 62
    5
 10
1112.0661181593493
 20
954.48137838591936
 11
1112.0661181593493
 21
505.48171643584851
  0
LINE
  8
_0-3_Þ║_õ¢ôÒ
  6
CONTINUOUS
 62
    5
 10
1113.0661723604533
 20
954.4815765734345
 11
1113.0661723604533
 21
505.48151824833343
  0
LINE
  8
_0-3_Þ║_õ¢ôÒ
  6
CONTINUOUS
 62
    5
 10
1115.5661096756983
 20
954.48137838591936
 11
1115.5661096756983
 21
505.48171643584851
  0
LINE
  8
_0-3_Þ║_õ¢ôÒ
  6
CONTINUOUS
 62
    5
 10
1117.0660918835968
 20
489.30713786121498
 11
1117.0660918835968
 21
729.98154741088399
  0
LINE
  8
_0-3_Þ║_õ¢ôÒ
  6
CONTINUOUS
 62
    5
 10
1122.5660927083961
 20
729.98154741088399
 11
1122.5660927083961
 21
487.30722764652205
  0
LINE
  8
_0-3_Þ║_õ¢ôÒ
  6
LONG3
 62
    5
 10
780.28282695755536
 20
696.23150181125948
 11
780.28282695755536
 21
681.98152219558779
  0
LINE
  8
_0-3_Þ║_õ¢ôÒ
  6
CONTINUOUS
 62
    5
 10
935.96610616440933
 20
943.48157492383564
 11
949.23267933024397
 21
943.48157492383564
  0
LINE
  8
_0-3_Þ║_õ¢ôÒ
  6
CONTINUOUS
 62
    5
 10
922.69963209233231
 20
943.48157492383564
 11
935.96610616440933
 21
943.48157492383564
  0
LINE
  8
_0-3_Þ║_õ¢ôÒ
  6
CONTINUOUS
 62
    5
 10
935.96610616440933
 20
939.98158340748671
 11
949.23267933024397
 21
939.98158340748671
  0
LINE
  8
_0-3_Þ║_õ¢ôÒ
  6
CONTINUOUS
 62
    5
 10
922.69963209233231
 20
939.98158340748671
 11
935.96610616440933
 21
939.98158340748671
  0
LINE
  8
_0-3_Þ║_õ¢ôÒ
  6
CONTINUOUS
 62
    5
 10
809.96606474769624
 20
943.48157492383564
 11
796.69959067561911
 21
943.48157492383564
  0
LINE
  8
_0-3_Þ║_õ¢ôÒ
  6
CONTINUOUS
 62
    5
 10
823.23253881977325
 20
943.48157492383564
 11
809.96606474769624
 21
943.48157492383564
  0
LINE
  8
_0-3_Þ║_õ¢ôÒ
  6
CONTINUOUS
 62
    5
 10
809.96606474769624
 20
939.98158340748671
 11
796.69959067561911
 21
939.98158340748671
  0
LINE
  8
_0-3_Þ║_õ¢ôÒ
  6
CONTINUOUS
 62
    5
 10
823.23253881977325
 20
939.98158340748671
 11
809.96606474769624
 21
939.98158340748671
  0
LINE
  8
_0-3_Þ║_õ¢ôÒ
  6
CONTINUOUS
 62
    5
 10
1082.9661462260949
 20
792.98149379892243
 11
1082.9661462260949
 21
806.24806696475707
  0
LINE
  8
_0-3_Þ║_õ¢ôÒ
  6
CONTINUOUS
 62
    5
 10
1082.9661462260949
 20
779.7150197268453
 11
1082.9661462260949
 21
792.98149379892243
  0
LINE
  8
_0-3_Þ║_õ¢ôÒ
  6
CONTINUOUS
 62
    5
 10
1086.4661377424438
 20
666.98150192908793
 11
1086.4661377424438
 21
653.71502785701091
  0
LINE
  8
_0-3_Þ║_õ¢ôÒ
  6
CONTINUOUS
 62
    5
 10
1086.4661377424438
 20
680.24807509492257
 11
1086.4661377424438
 21
666.98150192908793
  0
LINE
  8
_0-3_Þ║_õ¢ôÒ
  6
CONTINUOUS
 62
    5
 10
1082.9661462260949
 20
666.98150192908793
 11
1082.9661462260949
 21
653.71502785701091
  0
LINE
  8
_0-3_Þ║_õ¢ôÒ
  6
CONTINUOUS
 62
    5
 10
1082.9661462260949
 20
680.24807509492257
 11
1082.9661462260949
 21
666.98150192908793
  0
LINE
  8
_0-3_Þ║_õ¢ôÒ
  6
CONTINUOUS
 62
    5
 10
1086.4661377424438
 20
792.98149379892243
 11
1086.4661377424438
 21
806.24806696475707
  0
LINE
  8
_0-3_Þ║_õ¢ôÒ
  6
CONTINUOUS
 62
    5
 10
1086.4661377424438
 20
779.7150197268453
 11
1086.4661377424438
 21
792.98149379892243
  0
LINE
  8
_0-3_Þ║_õ¢ôÒ
  6
CONTINUOUS
 62
    5
 10
662.96612377976817
 20
792.98149379892243
 11
662.96612377976817
 21
806.24806696475707
  0
LINE
  8
_0-3_Þ║_õ¢ôÒ
  6
CONTINUOUS
 62
    5
 10
662.96612377976817
 20
779.7150197268453
 11
662.96612377976817
 21
792.98149379892243
  0
LINE
  8
_0-3_Þ║_õ¢ôÒ
  6
CONTINUOUS
 62
    5
 10
630.56608198600384
 20
596.68151661051741
 11
630.56608198600384
 21
599.28153862087879
  0
LINE
  8
_0-3_Þ║_õ¢ôÒ
  6
CONTINUOUS
 62
    5
 10
659.46613226341924
 20
666.98150192908793
 11
659.46613226341924
 21
653.71502785701091
  0
LINE
  8
_0-3_Þ║_õ¢ôÒ
  6
CONTINUOUS
 62
    5
 10
659.46613226341924
 20
680.24807509492257
 11
659.46613226341924
 21
666.98150192908793
  0
LINE
  8
_0-3_Þ║_õ¢ôÒ
  6
CONTINUOUS
 62
    5
 10
662.96612377976817
 20
666.98150192908793
 11
662.96612377976817
 21
653.71502785701091
  0
LINE
  8
_0-3_Þ║_õ¢ôÒ
  6
CONTINUOUS
 62
    5
 10
662.96612377976817
 20
680.24807509492257
 11
662.96612377976817
 21
666.98150192908793
  0
LINE
  8
_0-3_Þ║_õ¢ôÒ
  6
CONTINUOUS
 62
    5
 10
659.46613226341924
 20
792.98149379892243
 11
659.46613226341924
 21
806.24806696475707
  0
LINE
  8
_0-3_Þ║_õ¢ôÒ
  6
CONTINUOUS
 62
    5
 10
659.46613226341924
 20
779.7150197268453
 11
659.46613226341924
 21
792.98149379892243
  0
LINE
  8
_0-3_Þ║_õ¢ôÒ
  6
CONTINUOUS
 62
    5
 10
742.2661014394871
 20
487.58151916739564
 11
739.66607942912572
 21
487.58151916739564
  0
LINE
  8
_0-3_Þ║_õ¢ôÒ
  6
CONTINUOUS
 62
    5
 10
809.96606474769624
 20
516.48156944481104
 11
796.69959067561911
 21
516.48156944481104
  0
LINE
  8
_0-3_Þ║_õ¢ôÒ
  6
CONTINUOUS
 62
    5
 10
823.23253881977325
 20
516.48156944481104
 11
809.96606474769624
 21
516.48156944481104
  0
LINE
  8
_0-3_Þ║_õ¢ôÒ
  6
CONTINUOUS
 62
    5
 10
809.96606474769624
 20
519.98156096115997
 11
796.69959067561911
 21
519.98156096115997
  0
LINE
  8
_0-3_Þ║_õ¢ôÒ
  6
CONTINUOUS
 62
    5
 10
823.23253881977325
 20
519.98156096115997
 11
809.96606474769624
 21
519.98156096115997
  0
LINE
  8
_0-3_Þ║_õ¢ôÒ
  6
CONTINUOUS
 62
    5
 10
935.96610616440933
 20
519.98156096115997
 11
949.23267933024397
 21
519.98156096115997
  0
LINE
  8
_0-3_Þ║_õ¢ôÒ
  6
CONTINUOUS
 62
    5
 10
922.69963209233231
 20
519.98156096115997
 11
935.96610616440933
 21
519.98156096115997
  0
LINE
  8
_0-3_Þ║_õ¢ôÒ
  6
CONTINUOUS
 62
    5
 10
935.96610616440933
 20
516.48156944481104
 11
949.23267933024397
 21
516.48156944481104
  0
LINE
  8
_0-3_Þ║_õ¢ôÒ
  6
CONTINUOUS
 62
    5
 10
922.69963209233231
 20
516.48156944481104
 11
935.96610616440933
 21
516.48156944481104
  0
LINE
  8
_0-3_Þ║_õ¢ôÒ
  6
CONTINUOUS
 62
    5
 10
837.46611841857202
 20
816.73149285629449
 11
837.46611841857202
 21
810.48155047442458
  0
LINE
  8
_0-3_Þ║_õ¢ôÒ
  6
CONTINUOUS
 62
    5
 10
837.46611841857202
 20
810.48155047442458
 11
908.46610204041235
 21
810.48155047442458
  0
LINE
  8
_0-3_Þ║_õ¢ôÒ
  6
CONTINUOUS
 62
    5
 10
908.46610204041235
 20
810.48155047442458
 11
908.46610204041235
 21
822.98153433192192
  0
LINE
  8
_0-3_Þ║_õ¢ôÒ
  6
CONTINUOUS
 62
    5
 10
908.46610204041235
 20
822.98153433192192
 11
872.966159776371
 21
822.98153433192192
  0
LINE
  8
_0-3_Þ║_õ¢ôÒ
  6
CONTINUOUS
 62
    5
 10
872.966159776371
 20
822.98153433192192
 11
837.46611841857202
 21
822.98153433192192
  0
LINE
  8
_0-3_Þ║_õ¢ôÒ
  6
CONTINUOUS
 62
    5
 10
837.46611841857202
 20
822.98153433192192
 11
837.46611841857202
 21
816.73149285629449
  0
LINE
  8
_0-3_Þ║_õ¢ôÒ
  6
CONTINUOUS
 62
    5
 10
959.7161052217815
 20
694.48150605308501
 11
965.96614669740893
 21
694.48150605308501
  0
LINE
  8
_0-3_Þ║_õ¢ôÒ
  6
CONTINUOUS
 62
    5
 10
965.96614669740893
 20
694.48150605308501
 11
965.96614669740893
 21
765.48158876868285
  0
LINE
  8
_0-3_Þ║_õ¢ôÒ
  6
CONTINUOUS
 62
    5
 10
965.96614669740893
 20
765.48158876868285
 11
953.46616283991159
 21
765.48158876868285
  0
LINE
  8
_0-3_Þ║_õ¢ôÒ
  6
CONTINUOUS
 62
    5
 10
953.46616283991159
 20
765.48158876868285
 11
953.46616283991159
 21
729.98154741088399
  0
LINE
  8
_0-3_Þ║_õ¢ôÒ
  6
CONTINUOUS
 62
    5
 10
953.46616283991159
 20
729.98154741088399
 11
953.46616283991159
 21
694.48150605308501
  0
LINE
  8
_0-3_Þ║_õ¢ôÒ
  6
CONTINUOUS
 62
    5
 10
953.46616283991159
 20
694.48150605308501
 11
959.7161052217815
 21
694.48150605308501
  0
LINE
  8
_0-3_Þ║_õ¢ôÒ
  6
CONTINUOUS
 62
    5
 10
786.21606569032406
 20
765.48158876868285
 11
779.96612330845426
 21
765.48158876868285
  0
LINE
  8
_0-3_Þ║_õ¢ôÒ
  6
CONTINUOUS
 62
    5
 10
779.96612330845426
 20
765.48158876868285
 11
779.96612330845426
 21
694.48150605308501
  0
LINE
  8
_0-3_Þ║_õ¢ôÒ
  6
CONTINUOUS
 62
    5
 10
779.96612330845426
 20
694.48150605308501
 11
792.46610716595148
 21
694.48150605308501
  0
LINE
  8
_0-3_Þ║_õ¢ôÒ
  6
CONTINUOUS
 62
    5
 10
792.46610716595148
 20
694.48150605308501
 11
792.46610716595148
 21
729.98154741088399
  0
LINE
  8
_0-3_Þ║_õ¢ôÒ
  6
CONTINUOUS
 62
    5
 10
792.46610716595148
 20
729.98154741088399
 11
792.46610716595148
 21
765.48158876868285
  0
LINE
  8
_0-3_Þ║_õ¢ôÒ
  6
CONTINUOUS
 62
    5
 10
792.46610716595148
 20
765.48158876868285
 11
786.21606569032406
 21
765.48158876868285
  0
LINE
  8
_0-3_Þ║_õ¢ôÒ
  6
CONTINUOUS
 62
    5
 10
908.46610204041235
 20
643.23150287171586
 11
908.46610204041235
 21
649.48154434734329
  0
LINE
  8
_0-3_Þ║_õ¢ôÒ
  6
CONTINUOUS
 62
    5
 10
908.46610204041235
 20
649.48154434734329
 11
837.46611841857202
 21
649.48154434734329
  0
LINE
  8
_0-3_Þ║_õ¢ôÒ
  6
CONTINUOUS
 62
    5
 10
837.46611841857202
 20
649.48154434734329
 11
837.46611841857202
 21
636.98156048984595
  0
LINE
  8
_0-3_Þ║_õ¢ôÒ
  6
CONTINUOUS
 62
    5
 10
837.46611841857202
 20
636.98156048984595
 11
872.966159776371
 21
636.98156048984595
  0
LINE
  8
_0-3_Þ║_õ¢ôÒ
  6
CONTINUOUS
 62
    5
 10
872.966159776371
 20
636.98156048984595
 11
908.46610204041235
 21
636.98156048984595
  0
LINE
  8
_0-3_Þ║_õ¢ôÒ
  6
CONTINUOUS
 62
    5
 10
908.46610204041235
 20
636.98156048984595
 11
908.46610204041235
 21
643.23150287171586
  0
LINE
  8
_0-1_MOD
  6
CONTINUOUS
 62
    5
 10
1329.1576502737391
 20
348.75205669624006
 11
1329.1576502737391
 21
349.25208379679202
  0
LINE
  8
_0-1_MOD
  6
CONTINUOUS
 62
    5
 10
1329.1576502737391
 20
348.75205669624006
 11
1324.9775782993861
 21
348.75205669624006
  0
LINE
  8
_0-1_MOD
  6
CONTINUOUS
 62
    5
 10
1331.6275621804491
 20
349.25208379679202
 11
1324.9775782993861
 21
349.25208379679202
  0
LINE
  8
_0-1_MOD
  6
CONTINUOUS
 62
    5
 10
1334.1275985894515
 20
324.85207923682958
 11
1334.1275985894515
 21
346.75204738778956
  0
LINE
  8
_0-1_MOD
  6
CONTINUOUS
 62
    5
 10
1338.1276172063526
 20
320.85206061992864
 11
1809.466876762714
 21
320.85206061992864
  0
LINE
  8
_0-1_MOD
  6
CONTINUOUS
 62
    5
 10
1324.9775782993861
 20
350.7520660046905
 11
1822.617014763438
 21
350.7520660046905
  0
LINE
  8
_0-1_MOD
  6
CONTINUOUS
 62
    5
 10
1818.4368436953275
 20
348.75205669624006
 11
1818.4368436953275
 21
349.25208379679202
  0
LINE
  8
_0-1_MOD
  6
CONTINUOUS
 62
    5
 10
1818.4368436953275
 20
348.75205669624006
 11
1822.617014763438
 21
348.75205669624006
  0
LINE
  8
_0-1_MOD
  6
CONTINUOUS
 62
    5
 10
1815.9670308823752
 20
349.25208379679202
 11
1822.617014763438
 21
349.25208379679202
  0
LINE
  8
_0-1_MOD
  6
CONTINUOUS
 62
    5
 10
1813.4668953796152
 20
324.85207923682958
 11
1813.4668953796152
 21
346.75204738778956
  0
LINE
  8
_0-4_µûçÕ___
  6
CONTINUOUS
 62
    5
 10
723.79725464338503
 20
242.92792546334874
 11
1023.79726359835
 21
242.92792546334874
  0
LINE
  8
_0-4_µûçÕ___
  6
CONTINUOUS
 62
    5
 10
1023.79726359835
 20
242.92792546334874
 11
1023.79726359835
 21
292.92793521365604
  0
LINE
  8
_0-4_µûçÕ___
  6
CONTINUOUS
 62
    5
 10
1023.79726359835
 20
292.92793521365604
 11
723.79725464338503
 21
292.92793521365604
  0
LINE
  8
_0-4_µûçÕ___
  6
CONTINUOUS
 62
    5
 10
723.79725464338503
 20
292.92793521365604
 11
723.79725464338503
 21
242.92792546334874
  0
LINE
  8
_0-4_µûçÕ___
  6
CONTINUOUS
 62
    5
 10
23.797272973078975
 20
242.89757800010182
 11
323.79727573468415
 21
242.89757800010182
  0
LINE
  8
_0-4_µûçÕ___
  6
CONTINUOUS
 62
    5
 10
323.79727573468415
 20
242.89757800010182
 11
323.79727573468415
 21
292.89758775040912
  0
LINE
  8
_0-4_µûçÕ___
  6
CONTINUOUS
 62
    5
 10
323.79727573468415
 20
292.89758775040912
 11
23.797272973078975
 21
292.89758775040912
  0
LINE
  8
_0-4_µûçÕ___
  6
CONTINUOUS
 62
    5
 10
23.797272973078975
 20
292.89758775040912
 11
23.797272973078975
 21
242.89757800010182
  0
LINE
  8
_0-2_Õ»_µ│__
  6
CONTINUOUS
 62
    5
 10
-78.453890384394185
 20
350.7520660046905
 11
-116.69674785717109
 21
350.7520660046905
  0
LINE
  8
_0-2_Õ»_µ│__
  6
CONTINUOUS
 62
    5
 10
-76.022377308731393
 20
352.85206091449987
 11
-76.022377308731393
 21
382.94475411080026
  0
LINE
  8
_0-2_Õ»_µ│__
  6
CONTINUOUS
 62
    5
 10
423.79729523529875
 20
352.85206091449987
 11
423.79729523529875
 21
382.94475411080026
  0
LINE
  8
_0-2_Õ»_µ│__
  6
CONTINUOUS
 62
    5
 10
-76.022377308731393
 20
382.94475411080026
 11
423.79729523529875
 21
382.94475411080026
  0
LINE
  8
_0-1_MOD
  6
CONTINUOUS
 62
    5
 10
-70.842356420391752
 20
348.75205669624006
 11
-70.842356420391752
 21
349.25208379679202
  0
LINE
  8
_0-1_MOD
  6
CONTINUOUS
 62
    5
 10
-70.842356420391752
 20
348.75205669624006
 11
-75.02237884786598
 21
348.75205669624006
  0
LINE
  8
_0-1_MOD
  6
CONTINUOUS
 62
    5
 10
-68.372394966802972
 20
349.25208379679202
 11
-75.02237884786598
 21
349.25208379679202
  0
LINE
  8
_0-1_MOD
  6
CONTINUOUS
 62
    5
 10
-75.02237884786598
 20
350.7520660046905
 11
422.61693994234889
 21
350.7520660046905
  0
LINE
  8
_0-1_MOD
  6
CONTINUOUS
 62
    5
 10
418.43691751487466
 20
348.75205669624006
 11
418.43691751487466
 21
349.25208379679202
  0
LINE
  8
_0-1_MOD
  6
CONTINUOUS
 62
    5
 10
418.43691751487466
 20
348.75205669624006
 11
422.61693994234889
 21
348.75205669624006
  0
LINE
  8
_0-1_MOD
  6
CONTINUOUS
 62
    5
 10
415.96695606128588
 20
349.25208379679202
 11
422.61693994234889
 21
349.25208379679202
  0
LINE
  8
_0-2_Õ»_µ│__
  6
CONTINUOUS
 62
    5
 10
-65.237272859079894
 20
321.05208136952524
 11
-116.69674785717109
 21
321.05208136952524
  0
LINE
  8
_0-2_Õ»_µ│__
  6
CONTINUOUS
 62
    5
 10
-116.69674785717109
 20
350.7520660046905
 11
-116.69674785717109
 21
321.05208136952524
  0
LINE
  8
_0-1_MOD
  6
CONTINUOUS
 62
    5
 10
-65.872389524599726
 20
325.05207521298678
 11
-65.872358557800567
 21
346.75204738778956
  0
LINE
  8
_0-1_MOD
  6
CONTINUOUS
 62
    5
 10
-61.872389487778378
 20
321.05208136952524
 11
409.46692580882188
 21
321.05208136952524
  0
LINE
  8
_0-1_MOD
  6
CONTINUOUS
 62
    5
 10
413.46694442572277
 20
325.05207521298678
 11
413.46689487884402
 21
346.75204738778956
  0
CIRCLE
  8
_0-2_Õ»_µ│__
  6
CONTINUOUS
 62
    5
 10
-76.052724771978319
 20
1039.8736402592604
 40
0.5000000046026752
  0
CIRCLE
  8
_0-2_Õ»_µ│__
  6
CONTINUOUS
 62
    5
 10
423.64726728638163
 20
1039.8736402592604
 40
0.5000000046026752
  0
CIRCLE
  8
_0-2_Õ»_µ│__
  6
CONTINUOUS
 62
    5
 10
-137.59791286571613
 20
479.88148828454916
 40
0.5000000046026752
  0
CIRCLE
  8
_0-2_Õ»_µ│__
  6
CONTINUOUS
 62
    5
 10
-137.59791286571613
 20
979.58152988978793
 40
0.5000000046026752
  0
CIRCLE
  8
_0-2_Õ»_µ│__
  6
CONTINUOUS
 62
    5
 10
559.36924861480827
 20
479.9118605212355
 40
0.5000000046026752
  0
CIRCLE
  8
_0-2_Õ»_µ│__
  6
CONTINUOUS
 62
    5
 10
559.36924861480827
 20
979.61185257959551
 40
0.5000000046026752
  0
CIRCLE
  8
_0-2_Õ»_µ│__
  6
CONTINUOUS
 62
    5
 10
1323.9473005022321
 20
1039.8736402592604
 40
0.5000000046026752
  0
CIRCLE
  8
_0-2_Õ»_µ│__
  6
CONTINUOUS
 62
    5
 10
1823.6471934668346
 20
1039.8736402592604
 40
0.5000000046026752
  0
CIRCLE
  8
_0-2_Õ»_µ│__
  6
CONTINUOUS
 62
    5
 10
1259.0133412482655
 20
479.88148828454916
 40
0.5000000046026752
  0
CIRCLE
  8
_0-2_Õ»_µ│__
  6
CONTINUOUS
 62
    5
 10
1259.0133412482655
 20
979.58152988978793
 40
0.5000000046026752
  0
CIRCLE
  8
_0-2_Õ»_µ│__
  6
CONTINUOUS
 62
    5
 10
1528.7973843725492
 20
448.15023026042923
 40
0.5000000046026752
  0
CIRCLE
  8
_0-2_Õ»_µ│__
  6
CONTINUOUS
 62
    5
 10
1618.7974068777901
 20
448.15023026042923
 40
0.5000000046026752
  0
CIRCLE
  8
_0-2_Õ»_µ│__
  6
CONTINUOUS
 62
    5
 10
1511.4972988997647
 20
421.44902091597038
 40
0.5000000046026752
  0
CIRCLE
  8
_0-2_Õ»_µ│__
  6
CONTINUOUS
 62
    5
 10
1636.0972941630596
 20
421.44902091597038
 40
0.5000000046026752
  0
CIRCLE
  8
_0-2_Õ»_µ│__
  6
CONTINUOUS
 62
    5
 10
1469.8698941381742
 20
524.73137249449508
 40
0.5000000046026752
  0
CIRCLE
  8
_0-2_Õ»_µ│__
  6
CONTINUOUS
 62
    5
 10
1469.8698941381742
 20
480.13140274106763
 40
0.5000000046026752
  0
CIRCLE
  8
_0-2_Õ»_µ│__
  6
CONTINUOUS
 62
    5
 10
1283.3032030967211
 20
350.7520660046905
 40
0.5000000046026752
  0
CIRCLE
  8
_0-2_Õ»_µ│__
  6
CONTINUOUS
 62
    5
 10
623.94726309168755
 20
1039.9039629490678
 40
0.5000000046026752
  0
CIRCLE
  8
_0-2_Õ»_µ│__
  6
CONTINUOUS
 62
    5
 10
1123.6473046969263
 20
1039.9039629490678
 40
0.5000000046026752
  0
CIRCLE
  8
_0-2_Õ»_µ│__
  6
CONTINUOUS
 62
    5
 10
1323.9776231920396
 20
382.94475411080026
 40
0.5000000046026752
  0
CIRCLE
  8
_0-2_Õ»_µ│__
  6
CONTINUOUS
 62
    5
 10
1823.7972214157517
 20
382.94475411080026
 40
0.5000000046026752
  0
CIRCLE
  8
_0-2_Õ»_µ│__
  6
CONTINUOUS
 62
    5
 10
1283.3032030967211
 20
320.85206061992864
 40
0.5000000046026752
  0
ARC
  8
_0-3_Þ║_õ¢ôÒ
  6
CONTINUOUS
 62
    5
 10
-68.399360855573832
 20
480.38151538510118
 40
0.5000000046026752
 50
186.37660217285156
 51
270
  0
ARC
  8
_0-3_Þ║_õ¢ôÒ
  6
CONTINUOUS
 62
    5
 10
-75.552728638225517
 20
487.53484600759379
 40
0.5000000046026752
 50
180
 51
263.62338256835937
  0
ARC
  8
_0-3_Þ║_õ¢ôÒ
  6
CONTINUOUS
 62
    5
 10
-76.452729111012331
 20
479.48149633223483
 40
12.103499669365901
 50
2.03759765625
 51
87.962371826171875
  0
ARC
  8
_0-3_Þ║_õ¢ôÒ
  6
CONTINUOUS
 62
    5
 10
-76.452729111012331
 20
479.48149633223483
 40
7.6034996279418241
 50
6.3766021728515634
 51
83.623382568359375
  0
ARC
  8
_0-3_Þ║_õ¢ôÒ
  6
CONTINUOUS
 62
    5
 10
304.4972800472068
 20
479.73150988251086
 40
7.1999999114445279
 50
90
 51
155.37567138671875
  0
ARC
  8
_0-3_Þ║_õ¢ôÒ
  6
CONTINUOUS
 62
    5
 10
307.09727728412872
 20
479.73150988251086
 40
7.1999999114445279
 50
24.624313354492191
 51
89.999984741210923
  0
ARC
  8
_0-3_Þ║_õ¢ôÒ
  6
CONTINUOUS
 62
    5
 10
424.04725923869597
 20
479.48149633223483
 40
12.103499669365901
 50
92.03759765625
 51
177.96238708496094
  0
ARC
  8
_0-3_Þ║_õ¢ôÒ
  6
CONTINUOUS
 62
    5
 10
424.04725923869597
 20
479.48149633223483
 40
7.6034996279418241
 50
96.376602172851563
 51
173.62338256835937
  0
ARC
  8
_0-3_Þ║_õ¢ôÒ
  6
CONTINUOUS
 62
    5
 10
415.99390956333707
 20
480.38151538510118
 40
0.5000000046026752
 50
270
 51
353.62338256835937
  0
ARC
  8
_0-3_Þ║_õ¢ôÒ
  6
CONTINUOUS
 62
    5
 10
423.14728973270843
 20
487.53484600759379
 40
0.5000000046026752
 50
276.37660217285156
 51
0
  0
ARC
  8
_0-3_Þ║_õ¢ôÒ
  6
CONTINUOUS
 62
    5
 10
423.79729523529875
 20
599.031475523724
 40
7.1999999114445279
 50
114.62431335449219
 51
180
  0
ARC
  8
_0-3_Þ║_õ¢ôÒ
  6
CONTINUOUS
 62
    5
 10
423.79729523529875
 20
596.43150306024143
 40
7.1999999114445279
 50
180
 51
245.37567138671872
  0
ARC
  8
_0-3_Þ║_õ¢ôÒ
  6
CONTINUOUS
 62
    5
 10
-76.452729111012331
 20
979.98147229522351
 40
12.103499669365901
 50
272.03759765625
 51
357.96237182617188
  0
ARC
  8
_0-3_Þ║_õ¢ôÒ
  6
CONTINUOUS
 62
    5
 10
-68.399360855573832
 20
979.08150278923597
 40
0.5000000046026752
 50
90
 51
173.62338256835937
  0
ARC
  8
_0-3_Þ║_õ¢ôÒ
  6
CONTINUOUS
 62
    5
 10
-75.552728638225517
 20
971.92812261986455
 40
0.5000000046026752
 50
96.376602172851563
 51
180
  0
ARC
  8
_0-3_Þ║_õ¢ôÒ
  6
CONTINUOUS
 62
    5
 10
-76.452729111012331
 20
979.98147229522351
 40
7.6034996279418241
 50
276.37660217285156
 51
353.62338256835937
  0
ARC
  8
_0-3_Þ║_õ¢ôÒ
  6
CONTINUOUS
 62
    5
 10
424.04725923869597
 20
979.98147229522351
 40
12.103499669365901
 50
182.03759765625
 51
267.96238708496094
  0
ARC
  8
_0-3_Þ║_õ¢ôÒ
  6
CONTINUOUS
 62
    5
 10
424.04725923869597
 20
979.98147229522351
 40
7.6034996279418241
 50
186.37660217285156
 51
263.62338256835937
  0
ARC
  8
_0-3_Þ║_õ¢ôÒ
  6
CONTINUOUS
 62
    5
 10
415.99390956333707
 20
979.08150278923597
 40
0.5000000046026752
 50
6.3766021728515634
 51
90
  0
ARC
  8
_0-3_Þ║_õ¢ôÒ
  6
CONTINUOUS
 62
    5
 10
423.14728973270843
 20
971.92812261986455
 40
0.5000000046026752
 50
359.99998474121088
 51
83.623382568359332
  0
ARC
  8
_0-3_Þ║_õ¢ôÒ
  6
CONTINUOUS
 62
    5
 10
1707.0972777848999
 20
480.13140274106763
 40
7.1999999114445279
 50
24.624313354492191
 51
89.999984741210923
  0
ARC
  8
_0-3_Þ║_õ¢ôÒ
  6
CONTINUOUS
 62
    5
 10
1619.797262891379
 20
525.73147624247781
 40
16.300000304881209
 50
0
 51
90
  0
ARC
  8
_0-3_Þ║_õ¢ôÒ
  6
CONTINUOUS
 62
    5
 10
1619.797262891379
 20
525.73147624247781
 40
12.000000110464207
 50
0
 51
90
  0
ARC
  8
_0-3_Þ║_õ¢ôÒ
  6
CONTINUOUS
 62
    5
 10
1619.797262891379
 20
525.73157533623532
 40
12.399999804478353
 50
0
 51
90
  0
ARC
  8
_0-3_Þ║_õ¢ôÒ
  6
CONTINUOUS
 62
    5
 10
1619.797262891379
 20
525.73157533623532
 40
13.099999656088103
 50
0
 51
90
  0
ARC
  8
_0-3_Þ║_õ¢ôÒ
  6
CONTINUOUS
 62
    5
 10
1527.7973301714451
 20
525.73147624247781
 40
16.300000304881209
 50
90
 51
180
  0
ARC
  8
_0-3_Þ║_õ¢ôÒ
  6
CONTINUOUS
 62
    5
 10
1527.7973301714451
 20
525.73147624247781
 40
12.000000110464207
 50
90
 51
180
  0
ARC
  8
_0-3_Þ║_õ¢ôÒ
  6
CONTINUOUS
 62
    5
 10
1527.7973301714451
 20
525.73157533623532
 40
13.099999656088103
 50
90
 51
180
  0
ARC
  8
_0-3_Þ║_õ¢ôÒ
  6
CONTINUOUS
 62
    5
 10
1527.7973301714451
 20
525.73157533623532
 40
12.399999804478353
 50
90
 51
180
  0
ARC
  8
_0-3_Þ║_õ¢ôÒ
  6
CONTINUOUS
 62
    5
 10
1324.4473276027841
 20
487.17895077738524
 40
0.5000000046026752
 50
180
 51
263.33123779296875
  0
ARC
  8
_0-3_Þ║_õ¢ôÒ
  6
CONTINUOUS
 62
    5
 10
1354.0118510713908
 20
479.63142518739443
 40
0.5000000046026752
 50
90
 51
131.40960693359375
  0
ARC
  8
_0-3_Þ║_õ¢ôÒ
  6
CONTINUOUS
 62
    5
 10
1353.3504002398045
 20
480.38141629134367
 40
0.5000000046026752
 50
270
 51
311.40960693359375
  0
ARC
  8
_0-3_Þ║_õ¢ôÒ
  6
CONTINUOUS
 62
    5
 10
1323.5473580967966
 20
479.48139723847731
 40
11.249999716475203
 50
3.312255859375
 51
86.687728881835938
  0
ARC
  8
_0-3_Þ║_õ¢ôÒ
  6
CONTINUOUS
 62
    5
 10
1323.5473580967966
 20
479.48139723847731
 40
7.2499996796538007
 50
6.6687469482421884
 51
83.33123779296875
  0
ARC
  8
_0-3_Þ║_õ¢ôÒ
  6
CONTINUOUS
 62
    5
 10
1353.3504993335621
 20
480.38141629134367
 40
0.5000000046026752
 50
270
 51
311.40960693359375
  0
ARC
  8
_0-3_Þ║_õ¢ôÒ
  6
CONTINUOUS
 62
    5
 10
1354.0119501651484
 20
479.63142518739443
 40
0.5000000046026752
 50
90
 51
131.40960693359375
  0
ARC
  8
_0-3_Þ║_õ¢ôÒ
  6
CONTINUOUS
 62
    5
 10
1331.2448620888256
 20
480.38141629134367
 40
0.5000000046026752
 50
186.66874694824216
 51
270
  0
ARC
  8
_0-3_Þ║_õ¢ôÒ
  6
CONTINUOUS
 62
    5
 10
1323.6972869519561
 20
509.94598930682912
 40
0.5000000046026752
 50
318.59037780761713
 51
359.99999999999994
  0
ARC
  8
_0-3_Þ║_õ¢ôÒ
  6
CONTINUOUS
 62
    5
 10
1323.6972869519561
 20
509.94598930682912
 40
0.5000000046026752
 50
318.59037780761713
 51
359.99999999999994
  0
ARC
  8
_0-3_Þ║_õ¢ôÒ
  6
CONTINUOUS
 62
    5
 10
1324.4472285090267
 20
509.28453847524281
 40
0.5000000046026752
 50
138.59037780761719
 51
180
  0
ARC
  8
_0-3_Þ║_õ¢ôÒ
  6
CONTINUOUS
 62
    5
 10
1324.4473276027841
 20
509.28453847524281
 40
0.5000000046026752
 50
138.59037780761719
 51
180
  0
CIRCLE
  8
_0-3_Þ║_õ¢ôÒ
  6
CONTINUOUS
 62
    5
 10
1522.2973293466457
 20
493.08151999219501
 40
3.7500000345200646
  0
ARC
  8
_0-3_Þ║_õ¢ôÒ
  6
CONTINUOUS
 62
    5
 10
1527.7974292652027
 20
485.83137476858485
 40
1.0000000092053505
 50
270
 51
0
  0
ARC
  8
_0-3_Þ║_õ¢ôÒ
  6
CONTINUOUS
 62
    5
 10
1527.7974292652027
 20
500.33136793453258
 40
1.0000000092053505
 50
0
 51
90
  0
CIRCLE
  8
_0-3_Þ║_õ¢ôÒ
  6
CONTINUOUS
 62
    5
 10
1625.2972637161786
 20
493.08151999219501
 40
3.7500000345200646
  0
ARC
  8
_0-3_Þ║_õ¢ôÒ
  6
CONTINUOUS
 62
    5
 10
1619.7973619851366
 20
485.83137476858485
 40
1.0000000092053505
 50
180
 51
270
  0
ARC
  8
_0-3_Þ║_õ¢ôÒ
  6
CONTINUOUS
 62
    5
 10
1704.4972557745384
 20
480.13140274106763
 40
7.1999999114445279
 50
90
 51
155.37567138671875
  0
ARC
  8
_0-3_Þ║_õ¢ôÒ
  6
CONTINUOUS
 62
    5
 10
1619.7973619851366
 20
500.33136793453258
 40
1.0000000092053505
 50
90
 51
180
  0
ARC
  8
_0-3_Þ║_õ¢ôÒ
  6
CONTINUOUS
 62
    5
 10
1824.0473340597853
 20
479.48139723847731
 40
11.249999716475203
 50
93.312255859375
 51
176.68772888183594
  0
ARC
  8
_0-3_Þ║_õ¢ôÒ
  6
CONTINUOUS
 62
    5
 10
1824.0473340597853
 20
479.48139723847731
 40
7.2499996796538007
 50
96.668746948242202
 51
173.33123779296875
  0
ARC
  8
_0-3_Þ║_õ¢ôÒ
  6
CONTINUOUS
 62
    5
 10
1816.3497309739985
 20
480.38141629134367
 40
0.5000000046026752
 50
269.99998474121094
 51
353.33123779296869
  0
ARC
  8
_0-3_Þ║_õ¢ôÒ
  6
CONTINUOUS
 62
    5
 10
1823.1473645537976
 20
487.17895077738524
 40
0.5000000046026752
 50
276.66874694824219
 51
359.99998474121094
  0
ARC
  8
_0-3_Þ║_õ¢ôÒ
  6
CONTINUOUS
 62
    5
 10
1823.3972790103162
 20
596.43140396648391
 40
7.1999999114445279
 50
180
 51
245.37567138671872
  0
ARC
  8
_0-3_Þ║_õ¢ôÒ
  6
CONTINUOUS
 62
    5
 10
1823.3972790103162
 20
599.0314259768453
 40
7.1999999114445279
 50
114.62431335449219
 51
180
  0
ARC
  8
_0-3_Þ║_õ¢ôÒ
  6
CONTINUOUS
 62
    5
 10
1323.6972869519561
 20
949.51678113311414
 40
0.5000000046026752
 50
0
 51
41.40960693359375
  0
ARC
  8
_0-3_Þ║_õ¢ôÒ
  6
CONTINUOUS
 62
    5
 10
1324.4472285090267
 20
950.17823196470044
 40
0.5000000046026752
 50
179.99998474121094
 51
221.40960693359375
  0
ARC
  8
_0-3_Þ║_õ¢ôÒ
  6
CONTINUOUS
 62
    5
 10
1324.4472285090267
 20
972.28386920943683
 40
0.5000000046026752
 50
96.668746948242202
 51
179.99998474121097
  0
ARC
  8
_0-3_Þ║_õ¢ôÒ
  6
CONTINUOUS
 62
    5
 10
1323.547259003039
 20
979.981373201466
 40
11.249999716475203
 50
273.312255859375
 51
356.68772888183594
  0
ARC
  8
_0-3_Þ║_õ¢ôÒ
  6
CONTINUOUS
 62
    5
 10
1331.2448620888256
 20
979.08140369547834
 40
0.5000000046026752
 50
89.999984741210937
 51
173.33123779296875
  0
ARC
  8
_0-3_Þ║_õ¢ôÒ
  6
CONTINUOUS
 62
    5
 10
1323.547259003039
 20
979.981373201466
 40
7.2499996796538007
 50
276.66874694824219
 51
353.33123779296875
  0
ARC
  8
_0-3_Þ║_õ¢ôÒ
  6
CONTINUOUS
 62
    5
 10
1354.0118510713908
 20
979.8314443463064
 40
0.5000000046026752
 50
228.59036254882812
 51
270
  0
ARC
  8
_0-3_Þ║_õ¢ôÒ
  6
CONTINUOUS
 62
    5
 10
1353.3504002398045
 20
979.08140369547834
 40
0.5000000046026752
 50
48.590362548828125
 51
89.999984741210923
  0
ARC
  8
_0-3_Þ║_õ¢ôÒ
  6
CONTINUOUS
 62
    5
 10
1353.3504993335621
 20
979.08140369547834
 40
0.5000000046026752
 50
48.590377807617187
 51
89.999984741210937
  0
ARC
  8
_0-3_Þ║_õ¢ôÒ
  6
CONTINUOUS
 62
    5
 10
1354.0119501651484
 20
979.8314443463064
 40
0.5000000046026752
 50
228.59037780761719
 51
269.99998474121094
  0
ARC
  8
_0-3_Þ║_õ¢ôÒ
  6
CONTINUOUS
 62
    5
 10
1824.0473340597853
 20
979.981373201466
 40
11.249999716475203
 50
183.312255859375
 51
266.68772888183594
  0
ARC
  8
_0-3_Þ║_õ¢ôÒ
  6
CONTINUOUS
 62
    5
 10
1823.8973061108682
 20
949.51678113311414
 40
0.5000000046026752
 50
138.59037780761719
 51
180
  0
ARC
  8
_0-3_Þ║_õ¢ôÒ
  6
CONTINUOUS
 62
    5
 10
1823.1471663662826
 20
950.17823196470044
 40
0.5000000046026752
 50
318.59037780761713
 51
359.99999999999994
  0
ARC
  8
_0-3_Þ║_õ¢ôÒ
  6
CONTINUOUS
 62
    5
 10
1824.0473340597853
 20
979.981373201466
 40
7.2499996796538007
 50
186.66874694824216
 51
263.33123779296875
  0
ARC
  8
_0-3_Þ║_õ¢ôÒ
  6
CONTINUOUS
 62
    5
 10
1816.3497309739985
 20
979.08140369547834
 40
0.5000000046026752
 50
6.6687469482421884
 51
90
  0
ARC
  8
_0-3_Þ║_õ¢ôÒ
  6
CONTINUOUS
 62
    5
 10
1823.1471663662826
 20
972.28386920943683
 40
0.5000000046026752
 50
0
 51
83.33123779296875
  0
ARC
  8
_0-3_Þ║_õ¢ôÒ
  6
CONTINUOUS
 62
    5
 10
1619.9264811512126
 20
525.15747565192146
 40
14.000000128874907
 50
0
 51
90
  0
ARC
  8
_0-3_Þ║_õ¢ôÒ
  6
CONTINUOUS
 62
    5
 10
1580.8264626757059
 20
538.15748660997076
 40
1.0000000092053505
 50
90
 51
180
  0
ARC
  8
_0-3_Þ║_õ¢ôÒ
  6
CONTINUOUS
 62
    5
 10
1579.0265236637306
 20
538.02777288134951
 40
0.8000000170414052
 50
270
 51
0
  0
ARC
  8
_0-3_Þ║_õ¢ôÒ
  6
CONTINUOUS
 62
    5
 10
1566.8263975165526
 20
538.15748660997076
 40
1.0000000092053505
 50
0
 51
90
  0
ARC
  8
_0-3_Þ║_õ¢ôÒ
  6
CONTINUOUS
 62
    5
 10
1568.6264356222853
 20
538.02777288134951
 40
0.8000000170414052
 50
180
 51
270
  0
ARC
  8
_0-3_Þ║_õ¢ôÒ
  6
CONTINUOUS
 62
    5
 10
1600.4731874208192
 20
516.84633356631957
 40
4.9702157914408387
 50
180
 51
0
  0
ARC
  8
_0-3_Þ║_õ¢ôÒ
  6
CONTINUOUS
 62
    5
 10
1626.4264370833585
 20
528.72673370479151
 40
3.5000000322187268
 50
270
 51
90
  0
ARC
  8
_0-3_Þ║_õ¢ôÒ
  6
CONTINUOUS
 62
    5
 10
1608.1433415357671
 20
524.33138054218068
 40
0.299999988245918
 50
270
 51
0
  0
ARC
  8
_0-3_Þ║_õ¢ôÒ
  6
CONTINUOUS
 62
    5
 10
1608.1433415357671
 20
520.4583505755686
 40
0.299999988245918
 50
0
 51
118.04788208007812
  0
ARC
  8
_0-3_Þ║_õ¢ôÒ
  6
CONTINUOUS
 62
    5
 10
1605.743389821881
 20
524.33138054218068
 40
0.299999988245918
 50
180
 51
270
  0
ARC
  8
_0-3_Þ║_õ¢ôÒ
  6
CONTINUOUS
 62
    5
 10
1605.743389821881
 20
519.17964472825918
 40
0.299999988245918
 50
118.04788208007812
 51
180
  0
ARC
  8
_0-3_Þ║_õ¢ôÒ
  6
CONTINUOUS
 62
    5
 10
1595.2028859259999
 20
524.33138054218068
 40
0.299999988245918
 50
270
 51
0
  0
ARC
  8
_0-3_Þ║_õ¢ôÒ
  6
CONTINUOUS
 62
    5
 10
1592.8029342121138
 20
524.33138054218068
 40
0.299999988245918
 50
180
 51
270
  0
ARC
  8
_0-3_Þ║_õ¢ôÒ
  6
CONTINUOUS
 62
    5
 10
1595.2028859259999
 20
519.17964472825918
 40
0.299999988245918
 50
0
 51
61.952102661132813
  0
ARC
  8
_0-3_Þ║_õ¢ôÒ
  6
CONTINUOUS
 62
    5
 10
1592.8029342121138
 20
520.4583505755686
 40
0.299999988245918
 50
61.952102661132813
 51
180
  0
ARC
  8
_0-3_Þ║_õ¢ôÒ
  6
CONTINUOUS
 62
    5
 10
1600.4731874208192
 20
516.84633356631957
 40
7.9702162061418802
 50
180
 51
0
  0
ARC
  8
_0-3_Þ║_õ¢ôÒ
  6
CONTINUOUS
 62
    5
 10
1547.1797718651967
 20
516.84633356631957
 40
4.9702157914408387
 50
180
 51
0
  0
ARC
  8
_0-3_Þ║_õ¢ôÒ
  6
CONTINUOUS
 62
    5
 10
1552.4499742662583
 20
524.33138054218068
 40
0.299999988245918
 50
180
 51
270
  0
ARC
  8
_0-3_Þ║_õ¢ôÒ
  6
CONTINUOUS
 62
    5
 10
1554.8500250739021
 20
524.33138054218068
 40
0.299999988245918
 50
270
 51
0
  0
ARC
  8
_0-3_Þ║_õ¢ôÒ
  6
CONTINUOUS
 62
    5
 10
1554.8500250739021
 20
520.4583505755686
 40
0.299999988245918
 50
0
 51
118.04788208007812
  0
ARC
  8
_0-3_Þ║_õ¢ôÒ
  6
CONTINUOUS
 62
    5
 10
1552.4499742662583
 20
519.17964472825918
 40
0.299999988245918
 50
118.04788208007812
 51
180
  0
ARC
  8
_0-3_Þ║_õ¢ôÒ
  6
CONTINUOUS
 62
    5
 10
1539.5096177502489
 20
524.33138054218068
 40
0.299999988245918
 50
180
 51
270
  0
ARC
  8
_0-3_Þ║_õ¢ôÒ
  6
CONTINUOUS
 62
    5
 10
1541.9095694641348
 20
524.33138054218068
 40
0.299999988245918
 50
270
 51
0
  0
ARC
  8
_0-3_Þ║_õ¢ôÒ
  6
CONTINUOUS
 62
    5
 10
1539.5096177502489
 20
520.4583505755686
 40
0.299999988245918
 50
61.952102661132813
 51
180
  0
ARC
  8
_0-3_Þ║_õ¢ôÒ
  6
CONTINUOUS
 62
    5
 10
1541.9095694641348
 20
519.17964472825918
 40
0.299999988245918
 50
0
 51
61.952102661132813
  0
ARC
  8
_0-3_Þ║_õ¢ôÒ
  6
CONTINUOUS
 62
    5
 10
1547.1797718651967
 20
516.84633356631957
 40
7.9702162061418802
 50
180
 51
0
  0
ARC
  8
_0-3_Þ║_õ¢ôÒ
  6
CONTINUOUS
 62
    5
 10
1527.7264781348033
 20
525.15747565192146
 40
14.000000128874907
 50
90
 51
180
  0
ARC
  8
_0-3_Þ║_õ¢ôÒ
  6
CONTINUOUS
 62
    5
 10
1521.2264231088998
 20
528.72673370479151
 40
3.5000000322187268
 50
90
 51
270
  0
ARC
  8
_0-3_Þ║_õ¢ôÒ
  6
CONTINUOUS
 62
    5
 10
1626.4264370833585
 20
493.62673384618574
 40
3.5000000322187268
 50
270
 51
90
  0
ARC
  8
_0-3_Þ║_õ¢ôÒ
  6
CONTINUOUS
 62
    5
 10
1521.2264231088998
 20
493.62673384618574
 40
3.5000000322187268
 50
90
 51
270
  0
CIRCLE
  8
_0-3_Þ║_õ¢ôÒ
  6
CONTINUOUS
 62
    5
 10
367.29725523252745
 20
792.73152979552515
 40
3.7500000345200646
  0
CIRCLE
  8
_0-3_Þ║_õ¢ôÒ
  6
CONTINUOUS
 62
    5
 10
300.29726545414871
 20
906.73146581465676
 40
3.7500000345200646
  0
CIRCLE
  8
_0-3_Þ║_õ¢ôÒ
  6
CONTINUOUS
 62
    5
 10
237.29726951923146
 20
922.73144118850291
 40
3.7500000345200646
  0
CIRCLE
  8
_0-3_Þ║_õ¢ôÒ
  6
CONTINUOUS
 62
    5
 10
174.29727358431433
 20
914.73150304845865
 40
3.7500000345200646
  0
CIRCLE
  8
_0-3_Þ║_õ¢ôÒ
  6
CONTINUOUS
 62
    5
 10
111.29727764939707
 20
922.73144118850291
 40
3.7500000345200646
  0
CIRCLE
  8
_0-3_Þ║_õ¢ôÒ
  6
CONTINUOUS
 62
    5
 10
351.29725508524183
 20
855.73147618356359
 40
3.7500000345200646
  0
CIRCLE
  8
_0-3_Þ║_õ¢ôÒ
  6
CONTINUOUS
 62
    5
 10
284.22621508270618
 20
839.66035149180288
 40
3.7500000345200646
  0
CIRCLE
  8
_0-3_Þ║_õ¢ôÒ
  6
CONTINUOUS
 62
    5
 10
239.73879106440597
 20
795.17300179382084
 40
3.7500000345200646
  0
CIRCLE
  8
_0-3_Þ║_õ¢ôÒ
  6
CONTINUOUS
 62
    5
 10
140.54727753156862
 20
853.73146687511314
 40
3.7500000345200646
  0
CIRCLE
  8
_0-3_Þ║_õ¢ôÒ
  6
CONTINUOUS
 62
    5
 10
64.368332085922475
 20
839.66035149180288
 40
3.7500000345200646
  0
CIRCLE
  8
_0-3_Þ║_õ¢ôÒ
  6
CONTINUOUS
 62
    5
 10
174.29727358431433
 20
777.7315095290254
 40
3.7500000345200646
  0
CIRCLE
  8
_0-3_Þ║_õ¢ôÒ
  6
CONTINUOUS
 62
    5
 10
108.8557684909423
 20
795.17300179382084
 40
3.7500000345200646
  0
CIRCLE
  8
_0-3_Þ║_õ¢ôÒ
  6
CONTINUOUS
 62
    5
 10
208.04726963706003
 20
853.73146687511314
 40
3.7500000345200646
  0
CIRCLE
  8
_0-3_Þ║_õ¢ôÒ
  6
CONTINUOUS
 62
    5
 10
360.22609810847575
 20
915.66040793164814
 40
3.7500000345200646
  0
CIRCLE
  8
_0-3_Þ║_õ¢ôÒ
  6
CONTINUOUS
 62
    5
 10
367.29725523252745
 20
666.73153792569076
 40
3.7500000345200646
  0
CIRCLE
  8
_0-3_Þ║_õ¢ôÒ
  6
CONTINUOUS
 62
    5
 10
222.29727402617118
 20
729.7314843137292
 40
3.7500000345200646
  0
CIRCLE
  8
_0-3_Þ║_õ¢ôÒ
  6
CONTINUOUS
 62
    5
 10
298.29728091913762
 20
695.98153780786231
 40
3.7500000345200646
  0
CIRCLE
  8
_0-3_Þ║_õ¢ôÒ
  6
CONTINUOUS
 62
    5
 10
239.73879106440597
 20
664.28996683363744
 40
3.7500000345200646
  0
CIRCLE
  8
_0-3_Þ║_õ¢ôÒ
  6
CONTINUOUS
 62
    5
 10
126.29727314245747
 20
729.7314843137292
 40
3.7500000345200646
  0
CIRCLE
  8
_0-3_Þ║_õ¢ôÒ
  6
CONTINUOUS
 62
    5
 10
174.29727358431433
 20
681.7315581921905
 40
3.7500000345200646
  0
CIRCLE
  8
_0-3_Þ║_õ¢ôÒ
  6
CONTINUOUS
 62
    5
 10
108.8557684909423
 20
664.28996683363744
 40
3.7500000345200646
  0
CIRCLE
  8
_0-3_Þ║_õ¢ôÒ
  6
CONTINUOUS
 62
    5
 10
351.29725508524183
 20
603.73149244389481
 40
3.7500000345200646
  0
CIRCLE
  8
_0-3_Þ║_õ¢ôÒ
  6
CONTINUOUS
 62
    5
 10
284.22621508270618
 20
619.80271622941302
 40
3.7500000345200646
  0
CIRCLE
  8
_0-3_Þ║_õ¢ôÒ
  6
CONTINUOUS
 62
    5
 10
300.29726545414871
 20
552.73150281280164
 40
3.7500000345200646
  0
CIRCLE
  8
_0-3_Þ║_õ¢ôÒ
  6
CONTINUOUS
 62
    5
 10
237.29726951923146
 20
536.73152743895537
 40
3.7500000345200646
  0
CIRCLE
  8
_0-3_Þ║_õ¢ôÒ
  6
CONTINUOUS
 62
    5
 10
140.54727753156862
 20
605.73150175234525
 40
3.7500000345200646
  0
CIRCLE
  8
_0-3_Þ║_õ¢ôÒ
  6
CONTINUOUS
 62
    5
 10
64.368332085922475
 20
619.80271622941302
 40
3.7500000345200646
  0
CIRCLE
  8
_0-3_Þ║_õ¢ôÒ
  6
CONTINUOUS
 62
    5
 10
174.29727358431433
 20
544.73156467275726
 40
3.7500000345200646
  0
CIRCLE
  8
_0-3_Þ║_õ¢ôÒ
  6
CONTINUOUS
 62
    5
 10
111.29727764939707
 20
536.73152743895537
 40
3.7500000345200646
  0
CIRCLE
  8
_0-3_Þ║_õ¢ôÒ
  6
CONTINUOUS
 62
    5
 10
208.04726963706003
 20
605.73150175234525
 40
3.7500000345200646
  0
CIRCLE
  8
_0-3_Þ║_õ¢ôÒ
  6
CONTINUOUS
 62
    5
 10
360.22609810847575
 20
543.80256069581014
 40
3.7500000345200646
  0
CIRCLE
  8
_0-3_Þ║_õ¢ôÒ
  6
CONTINUOUS
 62
    5
 10
359.29724277216496
 20
729.7314843137292
 40
3.7500000345200646
  0
CIRCLE
  8
_0-3_Þ║_õ¢ôÒ
  6
CONTINUOUS
 62
    5
 10
298.29728091913762
 20
763.4815299133536
 40
3.7500000345200646
  0
CIRCLE
  8
_0-3_Þ║_õ¢ôÒ
  6
CONTINUOUS
 62
    5
 10
-11.63166629117427
 20
915.66030883789062
 40
3.7500000345200646
  0
CIRCLE
  8
_0-3_Þ║_õ¢ôÒ
  6
CONTINUOUS
 62
    5
 10
-2.7026986265734649
 20
855.73147618356359
 40
3.7500000345200646
  0
CIRCLE
  8
_0-3_Þ║_õ¢ôÒ
  6
CONTINUOUS
 62
    5
 10
-18.702698773859083
 20
792.73152979552515
 40
3.7500000345200646
  0
CIRCLE
  8
_0-3_Þ║_õ¢ôÒ
  6
CONTINUOUS
 62
    5
 10
-10.702697926046312
 20
729.7314843137292
 40
3.7500000345200646
  0
CIRCLE
  8
_0-3_Þ║_õ¢ôÒ
  6
CONTINUOUS
 62
    5
 10
-18.702698773859083
 20
666.73153792569076
 40
3.7500000345200646
  0
CIRCLE
  8
_0-3_Þ║_õ¢ôÒ
  6
CONTINUOUS
 62
    5
 10
-2.7026986265734649
 20
603.73149244389481
 40
3.7500000345200646
  0
CIRCLE
  8
_0-3_Þ║_õ¢ôÒ
  6
CONTINUOUS
 62
    5
 10
-11.63166629117427
 20
543.80265978956777
 40
3.7500000345200646
  0
CIRCLE
  8
_0-3_Þ║_õ¢ôÒ
  6
CONTINUOUS
 62
    5
 10
48.297272424440166
 20
552.73150281280164
 40
3.7500000345200646
  0
CIRCLE
  8
_0-3_Þ║_õ¢ôÒ
  6
CONTINUOUS
 62
    5
 10
50.297269346170879
 20
695.98153780786231
 40
3.7500000345200646
  0
CIRCLE
  8
_0-3_Þ║_õ¢ôÒ
  6
CONTINUOUS
 62
    5
 10
50.297269346170879
 20
763.4815299133536
 40
3.7500000345200646
  0
CIRCLE
  8
_0-3_Þ║_õ¢ôÒ
  6
CONTINUOUS
 62
    5
 10
48.297272424440166
 20
906.73146581465676
 40
3.7500000345200646
  0
ARC
  8
_0-3_Þ║_õ¢ôÒ
  6
CONTINUOUS
 62
    5
 10
1123.2161477578652
 20
980.231584939257
 40
7.6034996279418241
 50
184.90400695800778
 51
265.09596252441406
  0
ARC
  8
_0-3_Þ║_õ¢ôÒ
  6
CONTINUOUS
 62
    5
 10
1123.2161477578652
 20
980.231584939257
 40
11.249999716475203
 50
183.31224060058591
 51
266.68771362304688
  0
ARC
  8
_0-3_Þ║_õ¢ôÒ
  6
CONTINUOUS
 62
    5
 10
1097.4659412045276
 20
954.4815765734345
 40
18.099999702114857
 50
359.99998474121088
 51
89.999984741210909
  0
ARC
  8
_0-3_Þ║_õ¢ôÒ
  6
CONTINUOUS
 62
    5
 10
1097.4659412045276
 20
954.4815765734345
 40
11.599999642280078
 50
359.99998474121088
 51
89.999984741210909
  0
ARC
  8
_0-3_Þ║_õ¢ôÒ
  6
LONG3
 62
    5
 10
1097.4659412045276
 20
954.4815765734345
 40
14.60000044406611
 50
359.99998474121088
 51
89.999984741210909
  0
ARC
  8
_0-3_Þ║_õ¢ôÒ
  6
CONTINUOUS
 62
    5
 10
1097.4661393920428
 20
954.4815765734345
 40
15.600000453271461
 50
359.99998474121088
 51
89.999984741210909
  0
ARC
  8
_0-3_Þ║_õ¢ôÒ
  6
CONTINUOUS
 62
    5
 10
1113.6404206854036
 20
976.08163746719651
 40
2.000000018410701
 50
269.99998474121094
 51
0
  0
ARC
  8
_0-3_Þ║_õ¢ôÒ
  6
CONTINUOUS
 62
    5
 10
1119.0661011920472
 20
970.65595696055288
 40
2.000000018410701
 50
89.999984741210937
 51
179.99998474121097
  0
ARC
  8
_0-3_Þ║_õ¢ôÒ
  6
CONTINUOUS
 62
    5
 10
1106.2161181829151
 20
898.27648913998405
 40
16.000000147285608
 50
159.562255859375
 51
180
  0
ARC
  8
_0-3_Þ║_õ¢ôÒ
  6
LONG3
 62
    5
 10
1106.2161181829151
 20
898.27648913998405
 40
15.000000138080258
 50
159.562255859375
 51
180
  0
CIRCLE
  8
_0-3_Þ║_õ¢ôÒ
  6
CONTINUOUS
 62
    5
 10
1065.9661166511446
 20
792.98149379892243
 40
3.7500000345200646
  0
ARC
  8
_0-3_Þ║_õ¢ôÒ
  6
LONG3
 62
    5
 10
1041.2606555835621
 20
963.23155536430681
 40
16.000000147285608
 50
270
 51
290.43806457519531
  0
ARC
  8
_0-3_Þ║_õ¢ôÒ
  6
LONG3
 62
    5
 10
1041.2606555835621
 20
963.23155536430681
 40
15.000000138080258
 50
270
 51
290.43806457519531
  0
CIRCLE
  8
_0-3_Þ║_õ¢ôÒ
  6
CONTINUOUS
 62
    5
 10
998.96615164620539
 20
906.98157845869025
 40
3.7500000345200646
  0
CIRCLE
  8
_0-3_Þ║_õ¢ôÒ
  6
CONTINUOUS
 62
    5
 10
935.96610616440933
 20
922.98155383253652
 40
3.7500000345200646
  0
ARC
  8
_0-3_Þ║_õ¢ôÒ
  6
CONTINUOUS
 62
    5
 10
949.23267933024397
 20
929.98153686523437
 40
13.499999350102252
 50
27.818115234375
 51
89.999984741210937
  0
ARC
  8
_0-3_Þ║_õ¢ôÒ
  6
CONTINUOUS
 62
    5
 10
935.96610616440933
 20
922.98155383253652
 40
28.49999948818251
 50
152.18183898925781
 51
27.818115234375
  0
ARC
  8
_0-3_Þ║_õ¢ôÒ
  6
CONTINUOUS
 62
    5
 10
922.69963209233231
 20
929.98153686523437
 40
13.499999350102252
 50
90
 51
152.18183898925781
  0
ARC
  8
_0-3_Þ║_õ¢ôÒ
  6
CONTINUOUS
 62
    5
 10
949.23267933024397
 20
929.98153686523437
 40
10.000000092053506
 50
27.818115234375
 51
89.999984741210937
  0
ARC
  8
_0-3_Þ║_õ¢ôÒ
  6
CONTINUOUS
 62
    5
 10
935.96610616440933
 20
922.98155383253652
 40
25.000000230133764
 50
152.18183898925781
 51
27.818115234375
  0
ARC
  8
_0-3_Þ║_õ¢ôÒ
  6
CONTINUOUS
 62
    5
 10
922.69963209233231
 20
929.98153686523437
 40
10.000000092053506
 50
90
 51
152.18183898925781
  0
CIRCLE
  8
_0-3_Þ║_õ¢ôÒ
  6
CONTINUOUS
 62
    5
 10
872.966159776371
 20
914.98151659873463
 40
28.49999948818251
  0
CIRCLE
  8
_0-3_Þ║_õ¢ôÒ
  6
CONTINUOUS
 62
    5
 10
872.966159776371
 20
914.98151659873463
 40
25.000000230133764
  0
CIRCLE
  8
_0-3_Þ║_õ¢ôÒ
  6
CONTINUOUS
 62
    5
 10
872.966159776371
 20
914.98151659873463
 40
3.7500000345200646
  0
CIRCLE
  8
_0-3_Þ║_õ¢ôÒ
  6
CONTINUOUS
 62
    5
 10
809.96606474769624
 20
922.98155383253652
 40
3.7500000345200646
  0
ARC
  8
_0-3_Þ║_õ¢ôÒ
  6
CONTINUOUS
 62
    5
 10
796.69959067561911
 20
929.98153686523437
 40
13.499999350102252
 50
90
 51
152.18183898925781
  0
ARC
  8
_0-3_Þ║_õ¢ôÒ
  6
CONTINUOUS
 62
    5
 10
809.96606474769624
 20
922.98155383253652
 40
28.49999948818251
 50
152.18183898925781
 51
27.818115234375
  0
ARC
  8
_0-3_Þ║_õ¢ôÒ
  6
CONTINUOUS
 62
    5
 10
823.23253881977325
 20
929.98153686523437
 40
13.499999350102252
 50
27.818115234375
 51
89.999984741210937
  0
ARC
  8
_0-3_Þ║_õ¢ôÒ
  6
CONTINUOUS
 62
    5
 10
796.69959067561911
 20
929.98153686523437
 40
10.000000092053506
 50
90
 51
152.18183898925781
  0
ARC
  8
_0-3_Þ║_õ¢ôÒ
  6
CONTINUOUS
 62
    5
 10
809.96606474769624
 20
922.98155383253652
 40
25.000000230133764
 50
152.18183898925781
 51
27.818115234375
  0
ARC
  8
_0-3_Þ║_õ¢ôÒ
  6
CONTINUOUS
 62
    5
 10
823.23253881977325
 20
929.98153686523437
 40
10.000000092053506
 50
27.818115234375
 51
89.999984741210937
  0
CIRCLE
  8
_0-3_Þ║_õ¢ôÒ
  6
CONTINUOUS
 62
    5
 10
1049.9661412772984
 20
855.98158882759708
 40
3.7500000345200646
  0
CIRCLE
  8
_0-3_Þ║_õ¢ôÒ
  6
CONTINUOUS
 62
    5
 10
982.89502695444469
 20
839.91046413583649
 40
4.7500000437254153
  0
CIRCLE
  8
_0-3_Þ║_õ¢ôÒ
  6
CONTINUOUS
 62
    5
 10
938.40767725646265
 20
795.42306489097564
 40
26.999998700204504
  0
CIRCLE
  8
_0-3_Þ║_õ¢ôÒ
  6
CONTINUOUS
 62
    5
 10
938.40767725646265
 20
795.42306489097564
 40
4.7500000437254153
  0
CIRCLE
  8
_0-3_Þ║_õ¢ôÒ
  6
CONTINUOUS
 62
    5
 10
982.89502695444469
 20
839.91046413583649
 40
26.999998700204504
  0
CIRCLE
  8
_0-3_Þ║_õ¢ôÒ
  6
CONTINUOUS
 62
    5
 10
982.89502695444469
 20
839.91046413583649
 40
30.499999506593209
  0
CIRCLE
  8
_0-3_Þ║_õ¢ôÒ
  6
CONTINUOUS
 62
    5
 10
839.21611417674649
 20
853.98157951914663
 40
4.7500000437254153
  0
CIRCLE
  8
_0-3_Þ║_õ¢ôÒ
  6
CONTINUOUS
 62
    5
 10
763.03714395766087
 20
839.91046413583649
 40
4.7500000437254153
  0
CIRCLE
  8
_0-3_Þ║_õ¢ôÒ
  6
CONTINUOUS
 62
    5
 10
839.21611417674649
 20
853.98157951914663
 40
26.999998700204504
  0
CIRCLE
  8
_0-3_Þ║_õ¢ôÒ
  6
CONTINUOUS
 62
    5
 10
872.966159776371
 20
777.9815726261802
 40
4.7500000437254153
  0
CIRCLE
  8
_0-3_Þ║_õ¢ôÒ
  6
CONTINUOUS
 62
    5
 10
807.52459274940043
 20
795.42306489097564
 40
4.7500000437254153
  0
CIRCLE
  8
_0-3_Þ║_õ¢ôÒ
  6
CONTINUOUS
 62
    5
 10
807.52459274940043
 20
795.42306489097564
 40
26.999998700204504
  0
CIRCLE
  8
_0-3_Þ║_õ¢ôÒ
  6
CONTINUOUS
 62
    5
 10
839.21611417674649
 20
853.98157951914663
 40
30.499999506593209
  0
CIRCLE
  8
_0-3_Þ║_õ¢ôÒ
  6
CONTINUOUS
 62
    5
 10
906.71610628223789
 20
853.98157951914663
 40
30.499999506593209
  0
CIRCLE
  8
_0-3_Þ║_õ¢ôÒ
  6
CONTINUOUS
 62
    5
 10
906.71610628223789
 20
853.98157951914663
 40
26.999998700204504
  0
CIRCLE
  8
_0-3_Þ║_õ¢ôÒ
  6
CONTINUOUS
 62
    5
 10
906.71610628223789
 20
853.98157951914663
 40
4.7500000437254153
  0
CIRCLE
  8
_0-3_Þ║_õ¢ôÒ
  6
CONTINUOUS
 62
    5
 10
998.96615164620539
 20
906.98157845869025
 40
28.49999948818251
  0
CIRCLE
  8
_0-3_Þ║_õ¢ôÒ
  6
CONTINUOUS
 62
    5
 10
998.96615164620539
 20
906.98157845869025
 40
25.000000230133764
  0
CIRCLE
  8
_0-3_Þ║_õ¢ôÒ
  6
CONTINUOUS
 62
    5
 10
1058.8949843005323
 20
915.91052057568174
 40
28.49999948818251
  0
CIRCLE
  8
_0-3_Þ║_õ¢ôÒ
  6
CONTINUOUS
 62
    5
 10
1049.9661412772984
 20
855.98158882759708
 40
25.000000230133764
  0
CIRCLE
  8
_0-3_Þ║_õ¢ôÒ
  6
CONTINUOUS
 62
    5
 10
1049.9661412772984
 20
855.98158882759708
 40
28.49999948818251
  0
ARC
  8
_0-3_Þ║_õ¢ôÒ
  6
CONTINUOUS
 62
    5
 10
1072.9660996838427
 20
806.24806696475707
 40
10.000000092053506
 50
0
 51
62.181838989257813
  0
ARC
  8
_0-3_Þ║_õ¢ôÒ
  6
CONTINUOUS
 62
    5
 10
1065.9661166511446
 20
792.98149379892243
 40
25.000000230133764
 50
62.181838989257813
 51
297.818115234375
  0
ARC
  8
_0-3_Þ║_õ¢ôÒ
  6
CONTINUOUS
 62
    5
 10
1072.9660996838427
 20
779.7150197268453
 40
10.000000092053506
 50
297.818115234375
 51
0
  0
ARC
  8
_0-3_Þ║_õ¢ôÒ
  6
CONTINUOUS
 62
    5
 10
1058.8949843005323
 20
915.91052057568174
 40
34.49999954341461
 50
339.562255859375
 51
110.43806457519533
  0
ARC
  8
_0-3_Þ║_õ¢ôÒ
  6
LONG3
 62
    5
 10
1058.8949843005323
 20
915.91052057568174
 40
35.500001100959928
 50
339.562255859375
 51
110.43806457519533
  0
CIRCLE
  8
_0-3_Þ║_õ¢ôÒ
  6
CONTINUOUS
 62
    5
 10
1058.8949843005323
 20
915.91052057568174
 40
3.7500000345200646
  0
CIRCLE
  8
_0-3_Þ║_õ¢ôÒ
  6
CONTINUOUS
 62
    5
 10
1058.8949843005323
 20
915.91052057568174
 40
25.000000230133764
  0
CIRCLE
  8
_0-3_Þ║_õ¢ôÒ
  6
CONTINUOUS
 62
    5
 10
1065.9661166511446
 20
666.98150192908793
 40
3.7500000345200646
  0
ARC
  8
_0-3_Þ║_õ¢ôÒ
  6
CONTINUOUS
 62
    5
 10
1106.2161181829151
 20
561.68665522866263
 40
16.000000147285608
 50
180
 51
200.43771362304687
  0
ARC
  8
_0-3_Þ║_õ¢ôÒ
  6
LONG3
 62
    5
 10
1106.2161181829151
 20
561.68665522866263
 40
15.000000138080258
 50
180
 51
200.43771362304687
  0
CIRCLE
  8
_0-3_Þ║_õ¢ôÒ
  6
CONTINUOUS
 62
    5
 10
920.96618499166721
 20
729.98154741088399
 40
4.7500000437254153
  0
CIRCLE
  8
_0-3_Þ║_õ¢ôÒ
  6
CONTINUOUS
 62
    5
 10
996.96614233775483
 20
696.23150181125948
 40
4.7500000437254153
  0
CIRCLE
  8
_0-3_Þ║_õ¢ôÒ
  6
CONTINUOUS
 62
    5
 10
938.40767725646265
 20
664.54002993079223
 40
4.7500000437254153
  0
CIRCLE
  8
_0-3_Þ║_õ¢ôÒ
  6
CONTINUOUS
 62
    5
 10
996.96614233775483
 20
696.23150181125948
 40
30.499999506593209
  0
CIRCLE
  8
_0-3_Þ║_õ¢ôÒ
  6
CONTINUOUS
 62
    5
 10
996.96614233775483
 20
696.23150181125948
 40
26.999998700204504
  0
CIRCLE
  8
_0-3_Þ║_õ¢ôÒ
  6
CONTINUOUS
 62
    5
 10
824.96608501419598
 20
729.98154741088399
 40
4.7500000437254153
  0
CIRCLE
  8
_0-3_Þ║_õ¢ôÒ
  6
CONTINUOUS
 62
    5
 10
872.966159776371
 20
681.98152219558779
 40
4.7500000437254153
  0
CIRCLE
  8
_0-3_Þ║_õ¢ôÒ
  6
CONTINUOUS
 62
    5
 10
807.52459274940043
 20
664.54002993079223
 40
4.7500000437254153
  0
CIRCLE
  8
_0-3_Þ║_õ¢ôÒ
  6
CONTINUOUS
 62
    5
 10
824.96608501419598
 20
729.98154741088399
 40
30.499999506593209
  0
CIRCLE
  8
_0-3_Þ║_õ¢ôÒ
  6
CONTINUOUS
 62
    5
 10
824.96608501419598
 20
729.98154741088399
 40
26.999998700204504
  0
CIRCLE
  8
_0-3_Þ║_õ¢ôÒ
  6
CONTINUOUS
 62
    5
 10
872.966159776371
 20
681.98152219558779
 40
26.999998700204504
  0
CIRCLE
  8
_0-3_Þ║_õ¢ôÒ
  6
CONTINUOUS
 62
    5
 10
920.96618499166721
 20
729.98154741088399
 40
26.999998700204504
  0
CIRCLE
  8
_0-3_Þ║_õ¢ôÒ
  6
CONTINUOUS
 62
    5
 10
920.96618499166721
 20
729.98154741088399
 40
30.499999506593209
  0
CIRCLE
  8
_0-3_Þ║_õ¢ôÒ
  6
CONTINUOUS
 62
    5
 10
872.966159776371
 20
681.98152219558779
 40
30.499999506593209
  0
CIRCLE
  8
_0-3_Þ║_õ¢ôÒ
  6
CONTINUOUS
 62
    5
 10
1049.9661412772984
 20
603.9815555410496
 40
3.7500000345200646
  0
CIRCLE
  8
_0-3_Þ║_õ¢ôÒ
  6
CONTINUOUS
 62
    5
 10
982.89502695444469
 20
620.05268023281019
 40
26.999998700204504
  0
CIRCLE
  8
_0-3_Þ║_õ¢ôÒ
  6
CONTINUOUS
 62
    5
 10
998.96615164620539
 20
552.98156590995643
 40
3.7500000345200646
  0
CIRCLE
  8
_0-3_Þ║_õ¢ôÒ
  6
CONTINUOUS
 62
    5
 10
935.96610616440933
 20
536.98159053611016
 40
3.7500000345200646
  0
CIRCLE
  8
_0-3_Þ║_õ¢ôÒ
  6
CONTINUOUS
 62
    5
 10
839.21611417674649
 20
605.98156484950005
 40
4.7500000437254153
  0
CIRCLE
  8
_0-3_Þ║_õ¢ôÒ
  6
CONTINUOUS
 62
    5
 10
763.03714395766087
 20
620.05268023281019
 40
4.7500000437254153
  0
CIRCLE
  8
_0-3_Þ║_õ¢ôÒ
  6
CONTINUOUS
 62
    5
 10
872.966159776371
 20
544.98157822303324
 40
3.7500000345200646
  0
CIRCLE
  8
_0-3_Þ║_õ¢ôÒ
  6
CONTINUOUS
 62
    5
 10
809.96606474769624
 20
536.98159053611016
 40
3.7500000345200646
  0
CIRCLE
  8
_0-3_Þ║_õ¢ôÒ
  6
CONTINUOUS
 62
    5
 10
839.21611417674649
 20
605.98156484950005
 40
30.499999506593209
  0
CIRCLE
  8
_0-3_Þ║_õ¢ôÒ
  6
CONTINUOUS
 62
    5
 10
839.21611417674649
 20
605.98156484950005
 40
26.999998700204504
  0
CIRCLE
  8
_0-3_Þ║_õ¢ôÒ
  6
CONTINUOUS
 62
    5
 10
906.71610628223789
 20
605.98156484950005
 40
30.499999506593209
  0
CIRCLE
  8
_0-3_Þ║_õ¢ôÒ
  6
CONTINUOUS
 62
    5
 10
906.71610628223789
 20
605.98156484950005
 40
26.999998700204504
  0
CIRCLE
  8
_0-3_Þ║_õ¢ôÒ
  6
CONTINUOUS
 62
    5
 10
906.71610628223789
 20
605.98156484950005
 40
4.7500000437254153
  0
CIRCLE
  8
_0-3_Þ║_õ¢ôÒ
  6
CONTINUOUS
 62
    5
 10
807.52459274940043
 20
664.54002993079223
 40
30.499999506593209
  0
CIRCLE
  8
_0-3_Þ║_õ¢ôÒ
  6
CONTINUOUS
 62
    5
 10
807.52459274940043
 20
664.54002993079223
 40
26.999998700204504
  0
CIRCLE
  8
_0-3_Þ║_õ¢ôÒ
  6
CONTINUOUS
 62
    5
 10
938.40767725646265
 20
664.54002993079223
 40
30.499999506593209
  0
CIRCLE
  8
_0-3_Þ║_õ¢ôÒ
  6
CONTINUOUS
 62
    5
 10
938.40767725646265
 20
664.54002993079223
 40
26.999998700204504
  0
CIRCLE
  8
_0-3_Þ║_õ¢ôÒ
  6
CONTINUOUS
 62
    5
 10
982.89502695444469
 20
620.05268023281019
 40
30.499999506593209
  0
CIRCLE
  8
_0-3_Þ║_õ¢ôÒ
  6
CONTINUOUS
 62
    5
 10
1049.9661412772984
 20
603.9815555410496
 40
25.000000230133764
  0
CIRCLE
  8
_0-3_Þ║_õ¢ôÒ
  6
CONTINUOUS
 62
    5
 10
1049.9661412772984
 20
603.9815555410496
 40
28.49999948818251
  0
CIRCLE
  8
_0-3_Þ║_õ¢ôÒ
  6
CONTINUOUS
 62
    5
 10
1057.9660794173428
 20
729.98154741088399
 40
28.49999948818251
  0
CIRCLE
  8
_0-3_Þ║_õ¢ôÒ
  6
CONTINUOUS
 62
    5
 10
1057.9660794173428
 20
729.98154741088399
 40
25.000000230133764
  0
CIRCLE
  8
_0-3_Þ║_õ¢ôÒ
  6
CONTINUOUS
 62
    5
 10
1058.8949843005323
 20
544.05262379296494
 40
3.7500000345200646
  0
ARC
  8
_0-3_Þ║_õ¢ôÒ
  6
CONTINUOUS
 62
    5
 10
1072.9660996838427
 20
653.71502785701091
 40
13.499999350102252
 50
297.818115234375
 51
359.99998474121094
  0
ARC
  8
_0-3_Þ║_õ¢ôÒ
  6
CONTINUOUS
 62
    5
 10
1065.9661166511446
 20
666.98150192908793
 40
28.49999948818251
 50
62.181838989257813
 51
297.818115234375
  0
ARC
  8
_0-3_Þ║_õ¢ôÒ
  6
CONTINUOUS
 62
    5
 10
1072.9660996838427
 20
680.24807509492257
 40
13.499999350102252
 50
0
 51
62.181838989257813
  0
ARC
  8
_0-3_Þ║_õ¢ôÒ
  6
CONTINUOUS
 62
    5
 10
1072.9660996838427
 20
653.71502785701091
 40
10.000000092053506
 50
297.818115234375
 51
359.99998474121094
  0
ARC
  8
_0-3_Þ║_õ¢ôÒ
  6
CONTINUOUS
 62
    5
 10
1065.9661166511446
 20
666.98150192908793
 40
25.000000230133764
 50
62.181838989257813
 51
297.818115234375
  0
ARC
  8
_0-3_Þ║_õ¢ôÒ
  6
CONTINUOUS
 62
    5
 10
1072.9660996838427
 20
680.24807509492257
 40
10.000000092053506
 50
359.99998474121088
 51
62.181838989257784
  0
CIRCLE
  8
_0-3_Þ║_õ¢ôÒ
  6
CONTINUOUS
 62
    5
 10
1057.9660794173428
 20
729.98154741088399
 40
3.7500000345200646
  0
CIRCLE
  8
_0-3_Þ║_õ¢ôÒ
  6
CONTINUOUS
 62
    5
 10
807.52459274940043
 20
795.42306489097564
 40
30.499999506593209
  0
CIRCLE
  8
_0-3_Þ║_õ¢ôÒ
  6
CONTINUOUS
 62
    5
 10
938.40767725646265
 20
795.42306489097564
 40
30.499999506593209
  0
CIRCLE
  8
_0-3_Þ║_õ¢ôÒ
  6
CONTINUOUS
 62
    5
 10
872.966159776371
 20
777.9815726261802
 40
30.499999506593209
  0
CIRCLE
  8
_0-3_Þ║_õ¢ôÒ
  6
CONTINUOUS
 62
    5
 10
872.966159776371
 20
777.9815726261802
 40
26.999998700204504
  0
CIRCLE
  8
_0-3_Þ║_õ¢ôÒ
  6
CONTINUOUS
 62
    5
 10
996.96614233775483
 20
763.73149391675088
 40
30.499999506593209
  0
CIRCLE
  8
_0-3_Þ║_õ¢ôÒ
  6
CONTINUOUS
 62
    5
 10
996.96614233775483
 20
763.73149391675088
 40
26.999998700204504
  0
CIRCLE
  8
_0-3_Þ║_õ¢ôÒ
  6
CONTINUOUS
 62
    5
 10
996.96614233775483
 20
763.73149391675088
 40
4.7500000437254153
  0
ARC
  8
_0-3_Þ║_õ¢ôÒ
  6
CONTINUOUS
 62
    5
 10
1072.9660996838427
 20
806.24806696475707
 40
13.499999350102252
 50
0
 51
62.181838989257813
  0
ARC
  8
_0-3_Þ║_õ¢ôÒ
  6
CONTINUOUS
 62
    5
 10
1065.9661166511446
 20
792.98149379892243
 40
28.49999948818251
 50
62.181838989257813
 51
297.818115234375
  0
ARC
  8
_0-3_Þ║_õ¢ôÒ
  6
CONTINUOUS
 62
    5
 10
1072.9660996838427
 20
779.7150197268453
 40
13.499999350102252
 50
297.818115234375
 51
359.99998474121094
  0
ARC
  8
_0-3_Þ║_õ¢ôÒ
  6
LONG3
 62
    5
 10
703.74558325808016
 20
958.2315816400594
 40
10.000000092053506
 50
248.45584106445312
 51
270
  0
ARC
  8
_0-3_Þ║_õ¢ôÒ
  6
LONG3
 62
    5
 10
703.74558325808016
 20
958.2315816400594
 40
11.000000101258856
 50
248.45584106445312
 51
270
  0
ARC
  8
_0-3_Þ║_õ¢ôÒ
  6
LONG3
 62
    5
 10
648.46627925445671
 20
954.4815765734345
 40
14.60000044406611
 50
90
 51
179.99998474121097
  0
ARC
  8
_0-3_Þ║_õ¢ôÒ
  6
CONTINUOUS
 62
    5
 10
648.46627925445671
 20
954.4815765734345
 40
18.099999702114857
 50
90
 51
179.99998474121097
  0
ARC
  8
_0-3_Þ║_õ¢ôÒ
  6
CONTINUOUS
 62
    5
 10
648.46608106694168
 20
954.4815765734345
 40
15.600000453271461
 50
90
 51
180
  0
ARC
  8
_0-3_Þ║_õ¢ôÒ
  6
CONTINUOUS
 62
    5
 10
648.46627925445671
 20
954.4815765734345
 40
11.599999642280078
 50
89.999984741210937
 51
179.99998474121097
  0
ARC
  8
_0-3_Þ║_õ¢ôÒ
  6
CONTINUOUS
 62
    5
 10
622.71607270111906
 20
980.231584939257
 40
11.249999716475203
 50
273.31224060058594
 51
356.68772888183594
  0
ARC
  8
_0-3_Þ║_õ¢ôÒ
  6
CONTINUOUS
 62
    5
 10
622.71607270111906
 20
980.231584939257
 40
7.6034996279418241
 50
274.90402221679687
 51
355.09596252441406
  0
ARC
  8
_0-3_Þ║_õ¢ôÒ
  6
CONTINUOUS
 62
    5
 10
632.29175022670199
 20
976.08163746719651
 40
2.000000018410701
 50
179.99998474121094
 51
270
  0
ARC
  8
_0-3_Þ║_õ¢ôÒ
  6
CONTINUOUS
 62
    5
 10
626.86606972005836
 20
970.65595696055288
 40
2.000000018410701
 50
0
 51
90
  0
CIRCLE
  8
_0-3_Þ║_õ¢ôÒ
  6
CONTINUOUS
 62
    5
 10
687.03713706469443
 20
915.91042148192412
 40
3.7500000345200646
  0
CIRCLE
  8
_0-3_Þ║_õ¢ôÒ
  6
CONTINUOUS
 62
    5
 10
687.03713706469443
 20
915.91042148192412
 40
3.7500000345200646
  0
ARC
  8
_0-3_Þ║_õ¢ôÒ
  6
LONG3
 62
    5
 10
639.71610227606936
 20
898.27609276495389
 40
15.000000138080258
 50
0
 51
20.438064575195309
  0
ARC
  8
_0-3_Þ║_õ¢ôÒ
  6
CONTINUOUS
 62
    5
 10
639.71610227606936
 20
898.27609276495389
 40
16.000000147285608
 50
359.99998474121088
 51
20.438064575195277
  0
CIRCLE
  8
_0-3_Þ║_õ¢ôÒ
  6
CONTINUOUS
 62
    5
 10
687.03713706469443
 20
915.91042148192412
 40
25.000000230133764
  0
ARC
  8
_0-3_Þ║_õ¢ôÒ
  6
CONTINUOUS
 62
    5
 10
687.03713706469443
 20
915.91042148192412
 40
34.49999954341461
 50
68.455841064453125
 51
200.43806457519531
  0
ARC
  8
_0-3_Þ║_õ¢ôÒ
  6
LONG3
 62
    5
 10
687.03713706469443
 20
915.91042148192412
 40
35.500001100959928
 50
68.455841064453125
 51
200.43806457519531
  0
CIRCLE
  8
_0-3_Þ║_õ¢ôÒ
  6
CONTINUOUS
 62
    5
 10
687.03713706469443
 20
915.91042148192412
 40
28.49999948818251
  0
CIRCLE
  8
_0-3_Þ║_õ¢ôÒ
  6
CONTINUOUS
 62
    5
 10
695.96612872856463
 20
855.98158882759708
 40
25.000000230133764
  0
CIRCLE
  8
_0-3_Þ║_õ¢ôÒ
  6
CONTINUOUS
 62
    5
 10
695.96612872856463
 20
855.98158882759708
 40
3.7500000345200646
  0
CIRCLE
  8
_0-3_Þ║_õ¢ôÒ
  6
CONTINUOUS
 62
    5
 10
695.96612872856463
 20
855.98158882759708
 40
28.49999948818251
  0
CIRCLE
  8
_0-3_Þ║_õ¢ôÒ
  6
CONTINUOUS
 62
    5
 10
679.96610380783966
 20
792.98149379892243
 40
3.7500000345200646
  0
ARC
  8
_0-3_Þ║_õ¢ôÒ
  6
CONTINUOUS
 62
    5
 10
672.9661207751418
 20
806.24806696475707
 40
10.000000092053506
 50
117.818115234375
 51
179.99998474121097
  0
ARC
  8
_0-3_Þ║_õ¢ôÒ
  6
CONTINUOUS
 62
    5
 10
679.96610380783966
 20
792.98149379892243
 40
25.000000230133764
 50
242.18183898925778
 51
117.81811523437497
  0
ARC
  8
_0-3_Þ║_õ¢ôÒ
  6
CONTINUOUS
 62
    5
 10
672.9661207751418
 20
779.7150197268453
 40
10.000000092053506
 50
180
 51
242.18183898925784
  0
CIRCLE
  8
_0-3_Þ║_õ¢ôÒ
  6
CONTINUOUS
 62
    5
 10
687.96614104164155
 20
729.98154741088399
 40
3.7500000345200646
  0
CIRCLE
  8
_0-3_Þ║_õ¢ôÒ
  6
CONTINUOUS
 62
    5
 10
679.96610380783966
 20
666.98150192908793
 40
3.7500000345200646
  0
CIRCLE
  8
_0-3_Þ║_õ¢ôÒ
  6
CONTINUOUS
 62
    5
 10
687.96614104164155
 20
729.98154741088399
 40
25.000000230133764
  0
CIRCLE
  8
_0-3_Þ║_õ¢ôÒ
  6
CONTINUOUS
 62
    5
 10
687.96614104164155
 20
729.98154741088399
 40
28.49999948818251
  0
CIRCLE
  8
_0-3_Þ║_õ¢ôÒ
  6
CONTINUOUS
 62
    5
 10
695.96612872856463
 20
603.9815555410496
 40
3.7500000345200646
  0
ARC
  8
_0-3_Þ║_õ¢ôÒ
  6
CONTINUOUS
 62
    5
 10
626.86606972005836
 20
607.82678970867141
 40
2.000000018410701
 50
270
 51
0
  0
CIRCLE
  8
_0-3_Þ║_õ¢ôÒ
  6
CONTINUOUS
 62
    5
 10
687.03713706469443
 20
544.05272288672256
 40
3.7500000345200646
  0
CIRCLE
  8
_0-3_Þ║_õ¢ôÒ
  6
CONTINUOUS
 62
    5
 10
687.03713706469443
 20
544.05272288672256
 40
3.7500000345200646
  0
ARC
  8
_0-3_Þ║_õ¢ôÒ
  6
LONG3
 62
    5
 10
639.71610227606936
 20
561.68705160369279
 40
15.000000138080258
 50
339.56190490722656
 51
0
  0
ARC
  8
_0-3_Þ║_õ¢ôÒ
  6
CONTINUOUS
 62
    5
 10
639.71610227606936
 20
561.68705160369279
 40
16.000000147285608
 50
339.56190490722656
 51
0
  0
ARC
  8
_0-3_Þ║_õ¢ôÒ
  6
CONTINUOUS
 62
    5
 10
626.86606972005836
 20
588.1362655227249
 40
2.000000018410701
 50
0
 51
90
  0
CIRCLE
  8
_0-3_Þ║_õ¢ôÒ
  6
CONTINUOUS
 62
    5
 10
695.96612872856463
 20
603.9815555410496
 40
25.000000230133764
  0
CIRCLE
  8
_0-3_Þ║_õ¢ôÒ
  6
CONTINUOUS
 62
    5
 10
695.96612872856463
 20
603.9815555410496
 40
28.49999948818251
  0
ARC
  8
_0-3_Þ║_õ¢ôÒ
  6
CONTINUOUS
 62
    5
 10
623.36607820370944
 20
596.68151661051741
 40
7.1999999114445279
 50
294.62431335449219
 51
359.99998474121094
  0
ARC
  8
_0-3_Þ║_õ¢ôÒ
  6
CONTINUOUS
 62
    5
 10
623.36607820370944
 20
599.28153862087879
 40
7.1999999114445279
 50
0
 51
65.37567138671875
  0
ARC
  8
_0-3_Þ║_õ¢ôÒ
  6
CONTINUOUS
 62
    5
 10
672.9661207751418
 20
653.71502785701091
 40
13.499999350102252
 50
180
 51
242.18183898925784
  0
ARC
  8
_0-3_Þ║_õ¢ôÒ
  6
CONTINUOUS
 62
    5
 10
679.96610380783966
 20
666.98150192908793
 40
28.49999948818251
 50
242.18183898925778
 51
117.81811523437497
  0
ARC
  8
_0-3_Þ║_õ¢ôÒ
  6
CONTINUOUS
 62
    5
 10
672.9661207751418
 20
680.24807509492257
 40
13.499999350102252
 50
117.818115234375
 51
180
  0
ARC
  8
_0-3_Þ║_õ¢ôÒ
  6
CONTINUOUS
 62
    5
 10
672.9661207751418
 20
653.71502785701091
 40
10.000000092053506
 50
180
 51
242.18183898925784
  0
ARC
  8
_0-3_Þ║_õ¢ôÒ
  6
CONTINUOUS
 62
    5
 10
679.96610380783966
 20
666.98150192908793
 40
25.000000230133764
 50
242.18183898925778
 51
117.81811523437497
  0
ARC
  8
_0-3_Þ║_õ¢ôÒ
  6
CONTINUOUS
 62
    5
 10
672.9661207751418
 20
680.24807509492257
 40
10.000000092053506
 50
117.818115234375
 51
179.99998474121097
  0
ARC
  8
_0-3_Þ║_õ¢ôÒ
  6
CONTINUOUS
 62
    5
 10
672.9661207751418
 20
806.24806696475707
 40
13.499999350102252
 50
117.818115234375
 51
180
  0
ARC
  8
_0-3_Þ║_õ¢ôÒ
  6
CONTINUOUS
 62
    5
 10
679.96610380783966
 20
792.98149379892243
 40
28.49999948818251
 50
242.18183898925778
 51
117.81811523437497
  0
ARC
  8
_0-3_Þ║_õ¢ôÒ
  6
CONTINUOUS
 62
    5
 10
672.9661207751418
 20
779.7150197268453
 40
13.499999350102252
 50
180
 51
242.18183898925784
  0
CIRCLE
  8
_0-3_Þ║_õ¢ôÒ
  6
CONTINUOUS
 62
    5
 10
748.96612766810824
 20
696.23150181125948
 40
30.499999506593209
  0
CIRCLE
  8
_0-3_Þ║_õ¢ôÒ
  6
CONTINUOUS
 62
    5
 10
748.96612766810824
 20
696.23150181125948
 40
26.999998700204504
  0
CIRCLE
  8
_0-3_Þ║_õ¢ôÒ
  6
CONTINUOUS
 62
    5
 10
746.9661183596578
 20
552.98156590995643
 40
3.7500000345200646
  0
CIRCLE
  8
_0-3_Þ║_õ¢ôÒ
  6
CONTINUOUS
 62
    5
 10
763.03714395766087
 20
620.05268023281019
 40
26.999998700204504
  0
CIRCLE
  8
_0-3_Þ║_õ¢ôÒ
  6
CONTINUOUS
 62
    5
 10
763.03714395766087
 20
620.05268023281019
 40
30.499999506593209
  0
CIRCLE
  8
_0-3_Þ║_õ¢ôÒ
  6
CONTINUOUS
 62
    5
 10
748.96612766810824
 20
696.23150181125948
 40
4.7500000437254153
  0
CIRCLE
  8
_0-3_Þ║_õ¢ôÒ
  6
CONTINUOUS
 62
    5
 10
763.03714395766087
 20
839.91046413583649
 40
26.999998700204504
  0
CIRCLE
  8
_0-3_Þ║_õ¢ôÒ
  6
CONTINUOUS
 62
    5
 10
763.03714395766087
 20
839.91046413583649
 40
30.499999506593209
  0
CIRCLE
  8
_0-3_Þ║_õ¢ôÒ
  6
CONTINUOUS
 62
    5
 10
748.96612766810824
 20
763.73149391675088
 40
30.499999506593209
  0
CIRCLE
  8
_0-3_Þ║_õ¢ôÒ
  6
CONTINUOUS
 62
    5
 10
748.96612766810824
 20
763.73149391675088
 40
26.999998700204504
  0
CIRCLE
  8
_0-3_Þ║_õ¢ôÒ
  6
CONTINUOUS
 62
    5
 10
748.96612766810824
 20
763.73149391675088
 40
4.7500000437254153
  0
CIRCLE
  8
_0-3_Þ║_õ¢ôÒ
  6
CONTINUOUS
 62
    5
 10
746.9661183596578
 20
906.98157845869025
 40
25.000000230133764
  0
CIRCLE
  8
_0-3_Þ║_õ¢ôÒ
  6
CONTINUOUS
 62
    5
 10
746.9661183596578
 20
906.98157845869025
 40
28.49999948818251
  0
CIRCLE
  8
_0-3_Þ║_õ¢ôÒ
  6
CONTINUOUS
 62
    5
 10
746.9661183596578
 20
906.98157845869025
 40
3.7500000345200646
  0
ARC
  8
_0-3_Þ║_õ¢ôÒ
  6
CONTINUOUS
 62
    5
 10
1097.4659412045276
 20
505.48151824833343
 40
18.099999702114857
 50
270
 51
0
  0
ARC
  8
_0-3_Þ║_õ¢ôÒ
  6
CONTINUOUS
 62
    5
 10
1097.4659412045276
 20
505.48151824833343
 40
11.599999642280078
 50
270
 51
0
  0
ARC
  8
_0-3_Þ║_õ¢ôÒ
  6
CONTINUOUS
 62
    5
 10
1097.4661393920428
 20
505.48151824833343
 40
15.600000453271461
 50
270
 51
0
  0
ARC
  8
_0-3_Þ║_õ¢ôÒ
  6
LONG3
 62
    5
 10
1097.4659412045276
 20
505.48151824833343
 40
14.60000044406611
 50
270
 51
0
  0
ARC
  8
_0-3_Þ║_õ¢ôÒ
  6
CONTINUOUS
 62
    5
 10
1123.2161477578652
 20
479.73155942938962
 40
7.6034996279418241
 50
94.904022216796875
 51
175.09596252441406
  0
ARC
  8
_0-3_Þ║_õ¢ôÒ
  6
CONTINUOUS
 62
    5
 10
1123.2161477578652
 20
479.73155942938962
 40
11.249999716475203
 50
93.312240600585938
 51
176.68772888183594
  0
ARC
  8
_0-3_Þ║_õ¢ôÒ
  6
CONTINUOUS
 62
    5
 10
1113.6404206854036
 20
483.88155644832892
 40
2.000000018410701
 50
359.99998474121088
 51
89.999984741210909
  0
ARC
  8
_0-3_Þ║_õ¢ôÒ
  6
CONTINUOUS
 62
    5
 10
1119.0661011920472
 20
489.3071874080938
 40
2.000000018410701
 50
180
 51
270
  0
ARC
  8
_0-3_Þ║_õ¢ôÒ
  6
CONTINUOUS
 62
    5
 10
1041.2606555835621
 20
496.73158900433987
 40
16.000000147285608
 50
69.561904907226562
 51
90
  0
ARC
  8
_0-3_Þ║_õ¢ôÒ
  6
LONG3
 62
    5
 10
1041.2606555835621
 20
496.73158900433987
 40
15.000000138080258
 50
69.561904907226562
 51
90
  0
ARC
  8
_0-3_Þ║_õ¢ôÒ
  6
CONTINUOUS
 62
    5
 10
750.81135252727961
 20
483.88155644832892
 40
2.000000018410701
 50
90
 51
180
  0
ARC
  8
_0-3_Þ║_õ¢ôÒ
  6
CONTINUOUS
 62
    5
 10
731.12082834133309
 20
483.88155644832892
 40
2.000000018410701
 50
0
 51
90
  0
ARC
  8
_0-3_Þ║_õ¢ôÒ
  6
LONG3
 62
    5
 10
704.67121804727094
 20
496.73158900433987
 40
15.000000138080258
 50
90
 51
110.43771362304687
  0
ARC
  8
_0-3_Þ║_õ¢ôÒ
  6
CONTINUOUS
 62
    5
 10
704.67121804727094
 20
496.73158900433987
 40
16.000000147285608
 50
89.999984741210937
 51
110.43771362304687
  0
ARC
  8
_0-3_Þ║_õ¢ôÒ
  6
CONTINUOUS
 62
    5
 10
648.46627925445671
 20
505.48151824833343
 40
18.099999702114857
 50
180
 51
270
  0
ARC
  8
_0-3_Þ║_õ¢ôÒ
  6
CONTINUOUS
 62
    5
 10
648.46608106694168
 20
505.48151824833343
 40
15.600000453271461
 50
179.99998474121094
 51
270
  0
ARC
  8
_0-3_Þ║_õ¢ôÒ
  6
LONG3
 62
    5
 10
648.46627925445671
 20
505.48151824833343
 40
14.60000044406611
 50
180
 51
270
  0
ARC
  8
_0-3_Þ║_õ¢ôÒ
  6
CONTINUOUS
 62
    5
 10
648.46627925445671
 20
505.48151824833343
 40
11.599999642280078
 50
180
 51
270
  0
ARC
  8
_0-3_Þ║_õ¢ôÒ
  6
CONTINUOUS
 62
    5
 10
622.71607270111906
 20
479.73155942938962
 40
11.249999716475203
 50
3.3122406005859375
 51
86.687713623046861
  0
ARC
  8
_0-3_Þ║_õ¢ôÒ
  6
CONTINUOUS
 62
    5
 10
632.29175022670199
 20
483.88155644832892
 40
2.000000018410701
 50
89.999984741210937
 51
180
  0
ARC
  8
_0-3_Þ║_õ¢ôÒ
  6
CONTINUOUS
 62
    5
 10
622.71607270111906
 20
479.73155942938962
 40
7.6034996279418241
 50
4.9040069580078125
 51
85.095962524414063
  0
ARC
  8
_0-3_Þ║_õ¢ôÒ
  6
CONTINUOUS
 62
    5
 10
626.86606972005836
 20
489.3071874080938
 40
2.000000018410701
 50
269.99998474121094
 51
359.99998474121088
  0
ARC
  8
_0-3_Þ║_õ¢ôÒ
  6
CONTINUOUS
 62
    5
 10
742.2661014394871
 20
480.38151538510118
 40
7.1999999114445279
 50
24.624298095703121
 51
90
  0
ARC
  8
_0-3_Þ║_õ¢ôÒ
  6
CONTINUOUS
 62
    5
 10
739.66607942912572
 20
480.38156493197994
 40
7.1999999114445279
 50
90
 51
155.37567138671875
  0
CIRCLE
  8
_0-3_Þ║_õ¢ôÒ
  6
CONTINUOUS
 62
    5
 10
1058.8949843005323
 20
544.05262379296494
 40
28.49999948818251
  0
ARC
  8
_0-3_Þ║_õ¢ôÒ
  6
CONTINUOUS
 62
    5
 10
796.69959067561911
 20
529.98155795653349
 40
13.499999350102252
 50
207.818115234375
 51
269.99998474121094
  0
ARC
  8
_0-3_Þ║_õ¢ôÒ
  6
CONTINUOUS
 62
    5
 10
809.96606474769624
 20
536.98159053611016
 40
28.49999948818251
 50
332.18183898925781
 51
207.81811523437497
  0
ARC
  8
_0-3_Þ║_õ¢ôÒ
  6
CONTINUOUS
 62
    5
 10
823.23253881977325
 20
529.98155795653349
 40
13.499999350102252
 50
270
 51
332.18183898925781
  0
ARC
  8
_0-3_Þ║_õ¢ôÒ
  6
CONTINUOUS
 62
    5
 10
796.69959067561911
 20
529.98155795653349
 40
10.000000092053506
 50
207.818115234375
 51
269.99998474121094
  0
ARC
  8
_0-3_Þ║_õ¢ôÒ
  6
CONTINUOUS
 62
    5
 10
809.96606474769624
 20
536.98159053611016
 40
25.000000230133764
 50
332.18183898925781
 51
207.81811523437497
  0
ARC
  8
_0-3_Þ║_õ¢ôÒ
  6
CONTINUOUS
 62
    5
 10
823.23253881977325
 20
529.98155795653349
 40
10.000000092053506
 50
270
 51
332.18183898925781
  0
ARC
  8
_0-3_Þ║_õ¢ôÒ
  6
CONTINUOUS
 62
    5
 10
687.03713706469443
 20
544.05272288672256
 40
34.49999954341461
 50
159.56190490722656
 51
290.43771362304687
  0
ARC
  8
_0-3_Þ║_õ¢ôÒ
  6
LONG3
 62
    5
 10
687.03713706469443
 20
544.05272288672256
 40
35.500001100959928
 50
159.56190490722656
 51
290.43771362304687
  0
CIRCLE
  8
_0-3_Þ║_õ¢ôÒ
  6
CONTINUOUS
 62
    5
 10
687.03713706469443
 20
544.05272288672256
 40
25.000000230133764
  0
CIRCLE
  8
_0-3_Þ║_õ¢ôÒ
  6
CONTINUOUS
 62
    5
 10
687.03713706469443
 20
544.05272288672256
 40
28.49999948818251
  0
CIRCLE
  8
_0-3_Þ║_õ¢ôÒ
  6
CONTINUOUS
 62
    5
 10
746.9661183596578
 20
552.98156590995643
 40
25.000000230133764
  0
CIRCLE
  8
_0-3_Þ║_õ¢ôÒ
  6
CONTINUOUS
 62
    5
 10
746.9661183596578
 20
552.98156590995643
 40
28.49999948818251
  0
ARC
  8
_0-3_Þ║_õ¢ôÒ
  6
CONTINUOUS
 62
    5
 10
949.23267933024397
 20
529.98155795653349
 40
10.000000092053506
 50
270
 51
332.18183898925781
  0
ARC
  8
_0-3_Þ║_õ¢ôÒ
  6
CONTINUOUS
 62
    5
 10
935.96610616440933
 20
536.98159053611016
 40
25.000000230133764
 50
332.18183898925781
 51
207.81811523437497
  0
ARC
  8
_0-3_Þ║_õ¢ôÒ
  6
CONTINUOUS
 62
    5
 10
922.69963209233231
 20
529.98155795653349
 40
10.000000092053506
 50
207.818115234375
 51
269.99998474121094
  0
ARC
  8
_0-3_Þ║_õ¢ôÒ
  6
CONTINUOUS
 62
    5
 10
949.23267933024397
 20
529.98155795653349
 40
13.499999350102252
 50
270
 51
332.18183898925781
  0
ARC
  8
_0-3_Þ║_õ¢ôÒ
  6
CONTINUOUS
 62
    5
 10
935.96610616440933
 20
536.98159053611016
 40
28.49999948818251
 50
332.18183898925781
 51
207.81811523437497
  0
ARC
  8
_0-3_Þ║_õ¢ôÒ
  6
CONTINUOUS
 62
    5
 10
922.69963209233231
 20
529.98155795653349
 40
13.499999350102252
 50
207.818115234375
 51
269.99998474121094
  0
CIRCLE
  8
_0-3_Þ║_õ¢ôÒ
  6
CONTINUOUS
 62
    5
 10
872.966159776371
 20
544.98157822303324
 40
28.49999948818251
  0
CIRCLE
  8
_0-3_Þ║_õ¢ôÒ
  6
CONTINUOUS
 62
    5
 10
872.966159776371
 20
544.98157822303324
 40
25.000000230133764
  0
CIRCLE
  8
_0-3_Þ║_õ¢ôÒ
  6
CONTINUOUS
 62
    5
 10
998.96615164620539
 20
552.98156590995643
 40
25.000000230133764
  0
CIRCLE
  8
_0-3_Þ║_õ¢ôÒ
  6
CONTINUOUS
 62
    5
 10
998.96615164620539
 20
552.98156590995643
 40
28.49999948818251
  0
ARC
  8
_0-3_Þ║_õ¢ôÒ
  6
CONTINUOUS
 62
    5
 10
1058.8949843005323
 20
544.05262379296494
 40
34.49999954341461
 50
249.56190490722656
 51
20.437713623046861
  0
ARC
  8
_0-3_Þ║_õ¢ôÒ
  6
LONG3
 62
    5
 10
1058.8949843005323
 20
544.05262379296494
 40
35.500001100959928
 50
249.56190490722656
 51
20.437713623046861
  0
CIRCLE
  8
_0-3_Þ║_õ¢ôÒ
  6
CONTINUOUS
 62
    5
 10
1058.8949843005323
 20
544.05262379296494
 40
25.000000230133764
  0
CIRCLE
  8
_0-3_Þ║_õ¢ôÒ
  6
CONTINUOUS
 62
    5
 10
1387.8683233666143
 20
543.80265978956777
 40
3.7500000345200646
  0
CIRCLE
  8
_0-3_Þ║_õ¢ôÒ
  6
CONTINUOUS
 62
    5
 10
1456.7421513266545
 20
549.37361174476655
 40
3.7500000345200646
  0
CIRCLE
  8
_0-3_Þ║_õ¢ôÒ
  6
CONTINUOUS
 62
    5
 10
1449.7972644231495
 20
695.98143871410468
 40
3.7500000345200646
  0
CIRCLE
  8
_0-3_Þ║_õ¢ôÒ
  6
CONTINUOUS
 62
    5
 10
1396.7972654836058
 20
729.7314843137292
 40
3.7500000345200646
  0
CIRCLE
  8
_0-3_Þ║_õ¢ôÒ
  6
CONTINUOUS
 62
    5
 10
1388.7973273435614
 20
666.73143883193325
 40
3.7500000345200646
  0
CIRCLE
  8
_0-3_Þ║_õ¢ôÒ
  6
CONTINUOUS
 62
    5
 10
1463.8683798064596
 20
619.80261713565551
 40
3.7500000345200646
  0
CIRCLE
  8
_0-3_Þ║_õ¢ôÒ
  6
CONTINUOUS
 62
    5
 10
1508.3557295044416
 20
664.28996683363744
 40
3.7500000345200646
  0
CIRCLE
  8
_0-3_Þ║_õ¢ôÒ
  6
CONTINUOUS
 62
    5
 10
1396.7972654836058
 20
603.73149244389481
 40
3.7500000345200646
  0
CIRCLE
  8
_0-3_Þ║_õ¢ôÒ
  6
CONTINUOUS
 62
    5
 10
1540.0473004786663
 20
605.73150175234525
 40
3.7500000345200646
  0
CIRCLE
  8
_0-3_Þ║_õ¢ôÒ
  6
CONTINUOUS
 62
    5
 10
1540.0473004786663
 20
853.73146687511314
 40
3.7500000345200646
  0
CIRCLE
  8
_0-3_Þ║_õ¢ôÒ
  6
CONTINUOUS
 62
    5
 10
1525.7973208629946
 20
729.7314843137292
 40
3.7500000345200646
  0
CIRCLE
  8
_0-3_Þ║_õ¢ôÒ
  6
CONTINUOUS
 62
    5
 10
1508.3557295044416
 20
795.17300179382084
 40
3.7500000345200646
  0
CIRCLE
  8
_0-3_Þ║_õ¢ôÒ
  6
CONTINUOUS
 62
    5
 10
1449.7972644231495
 20
763.48143081959608
 40
3.7500000345200646
  0
CIRCLE
  8
_0-3_Þ║_õ¢ôÒ
  6
CONTINUOUS
 62
    5
 10
1463.8683798064596
 20
839.66025239804537
 40
3.7500000345200646
  0
CIRCLE
  8
_0-3_Þ║_õ¢ôÒ
  6
CONTINUOUS
 62
    5
 10
1388.7973273435614
 20
792.73143070176764
 40
3.7500000345200646
  0
CIRCLE
  8
_0-3_Þ║_õ¢ôÒ
  6
CONTINUOUS
 62
    5
 10
1396.7972654836058
 20
855.73147618356359
 40
3.7500000345200646
  0
CIRCLE
  8
_0-3_Þ║_õ¢ôÒ
  6
CONTINUOUS
 62
    5
 10
1387.8683233666143
 20
915.66030883789062
 40
3.7500000345200646
  0
CIRCLE
  8
_0-3_Þ║_õ¢ôÒ
  6
CONTINUOUS
 62
    5
 10
1447.7972551146988
 20
906.73146581465676
 40
3.7500000345200646
  0
CIRCLE
  8
_0-3_Þ║_õ¢ôÒ
  6
CONTINUOUS
 62
    5
 10
1510.797300596495
 20
914.73140395470102
 40
3.7500000345200646
  0
CIRCLE
  8
_0-3_Þ║_õ¢ôÒ
  6
CONTINUOUS
 62
    5
 10
1690.8524417361698
 20
549.37361174476655
 40
3.7500000345200646
  0
CIRCLE
  8
_0-3_Þ║_õ¢ôÒ
  6
CONTINUOUS
 62
    5
 10
1759.7261706024524
 20
543.80265978956777
 40
3.7500000345200646
  0
CIRCLE
  8
_0-3_Þ║_õ¢ôÒ
  6
CONTINUOUS
 62
    5
 10
1573.7972469845333
 20
906.73146581465676
 40
3.7500000345200646
  0
CIRCLE
  8
_0-3_Þ║_õ¢ôÒ
  6
CONTINUOUS
 62
    5
 10
1636.7972924663293
 20
914.73140395470102
 40
3.7500000345200646
  0
CIRCLE
  8
_0-3_Þ║_õ¢ôÒ
  6
CONTINUOUS
 62
    5
 10
1699.7972388543678
 20
906.73146581465676
 40
3.7500000345200646
  0
CIRCLE
  8
_0-3_Þ║_õ¢ôÒ
  6
CONTINUOUS
 62
    5
 10
1759.7261706024524
 20
915.66030883789062
 40
3.7500000345200646
  0
CIRCLE
  8
_0-3_Þ║_õ¢ôÒ
  6
CONTINUOUS
 62
    5
 10
1750.7972284854609
 20
855.73147618356359
 40
3.7500000345200646
  0
CIRCLE
  8
_0-3_Þ║_õ¢ôÒ
  6
CONTINUOUS
 62
    5
 10
1758.7972657192627
 20
792.73143070176764
 40
3.7500000345200646
  0
CIRCLE
  8
_0-3_Þ║_õ¢ôÒ
  6
CONTINUOUS
 62
    5
 10
1683.7262132563646
 20
839.66025239804537
 40
3.7500000345200646
  0
CIRCLE
  8
_0-3_Þ║_õ¢ôÒ
  6
CONTINUOUS
 62
    5
 10
1697.7973286396748
 20
763.48143081959608
 40
3.7500000345200646
  0
CIRCLE
  8
_0-3_Þ║_õ¢ôÒ
  6
CONTINUOUS
 62
    5
 10
1639.2387644646251
 20
795.17300179382084
 40
3.7500000345200646
  0
CIRCLE
  8
_0-3_Þ║_õ¢ôÒ
  6
CONTINUOUS
 62
    5
 10
1621.7972721998296
 20
729.7314843137292
 40
3.7500000345200646
  0
CIRCLE
  8
_0-3_Þ║_õ¢ôÒ
  6
CONTINUOUS
 62
    5
 10
1573.7972469845333
 20
777.7315095290254
 40
3.7500000345200646
  0
CIRCLE
  8
_0-3_Þ║_õ¢ôÒ
  6
CONTINUOUS
 62
    5
 10
1607.5472925841577
 20
853.73146687511314
 40
3.7500000345200646
  0
CIRCLE
  8
_0-3_Þ║_õ¢ôÒ
  6
CONTINUOUS
 62
    5
 10
1573.7972469845333
 20
681.73145909843299
 40
3.7500000345200646
  0
CIRCLE
  8
_0-3_Þ║_õ¢ôÒ
  6
CONTINUOUS
 62
    5
 10
1607.5472925841577
 20
605.73150175234525
 40
3.7500000345200646
  0
CIRCLE
  8
_0-3_Þ║_õ¢ôÒ
  6
CONTINUOUS
 62
    5
 10
1750.7972284854609
 20
603.73149244389481
 40
3.7500000345200646
  0
CIRCLE
  8
_0-3_Þ║_õ¢ôÒ
  6
CONTINUOUS
 62
    5
 10
1639.2387644646251
 20
664.28996683363744
 40
3.7500000345200646
  0
CIRCLE
  8
_0-3_Þ║_õ¢ôÒ
  6
CONTINUOUS
 62
    5
 10
1683.7262132563646
 20
619.80261713565551
 40
3.7500000345200646
  0
CIRCLE
  8
_0-3_Þ║_õ¢ôÒ
  6
CONTINUOUS
 62
    5
 10
1758.7972657192627
 20
666.73143883193325
 40
3.7500000345200646
  0
CIRCLE
  8
_0-3_Þ║_õ¢ôÒ
  6
CONTINUOUS
 62
    5
 10
1750.7972284854609
 20
729.7314843137292
 40
3.7500000345200646
  0
CIRCLE
  8
_0-3_Þ║_õ¢ôÒ
  6
CONTINUOUS
 62
    5
 10
1697.7973286396748
 20
695.98143871410468
 40
3.7500000345200646
  0
ARC
  8
_0-1_MOD
  6
CONTINUOUS
 62
    5
 10
1338.1276172063526
 20
324.85207923682958
 40
4.0000000368214019
 50
180
 51
270
  0
ARC
  8
_0-1_MOD
  6
CONTINUOUS
 62
    5
 10
1331.6275621804491
 20
346.75204738778956
 40
2.5000000230133765
 50
0
 51
90
  0
ARC
  8
_0-1_MOD
  6
CONTINUOUS
 62
    5
 10
1324.9775782993861
 20
349.75206135046528
 40
1.0000000092053505
 50
90
 51
270
  0
ARC
  8
_0-1_MOD
  6
CONTINUOUS
 62
    5
 10
1809.466876762714
 20
324.85207923682958
 40
4.0000000368214019
 50
269.99996948242187
 51
0
  0
ARC
  8
_0-1_MOD
  6
CONTINUOUS
 62
    5
 10
1815.9670308823752
 20
346.75204738778956
 40
2.5000000230133765
 50
90
 51
180
  0
ARC
  8
_0-1_MOD
  6
CONTINUOUS
 62
    5
 10
1822.617014763438
 20
349.75206135046528
 40
1.0000000092053505
 50
270
 51
90
  0
CIRCLE
  8
_0-2_Õ»_µ│__
  6
CONTINUOUS
 62
    5
 10
-116.69674785717109
 20
350.7520660046905
 40
0.5000000046026752
  0
CIRCLE
  8
_0-2_Õ»_µ│__
  6
CONTINUOUS
 62
    5
 10
-76.022377308731393
 20
382.94475411080026
 40
0.5000000046026752
  0
CIRCLE
  8
_0-2_Õ»_µ│__
  6
CONTINUOUS
 62
    5
 10
423.79729523529875
 20
382.94475411080026
 40
0.5000000046026752
  0
ARC
  8
_0-1_MOD
  6
CONTINUOUS
 62
    5
 10
-68.372394966802972
 20
346.75204738778956
 40
2.5000000230133765
 50
0
 51
90
  0
ARC
  8
_0-1_MOD
  6
CONTINUOUS
 62
    5
 10
-75.02237884786598
 20
349.75206135046528
 40
1.0000000092053505
 50
90
 51
270
  0
ARC
  8
_0-1_MOD
  6
CONTINUOUS
 62
    5
 10
415.96695606128588
 20
346.75204738778956
 40
2.5000000230133765
 50
90
 51
180
  0
ARC
  8
_0-1_MOD
  6
CONTINUOUS
 62
    5
 10
422.61693994234889
 20
349.75206135046528
 40
1.0000000092053505
 50
270
 51
90
  0
CIRCLE
  8
_0-2_Õ»_µ│__
  6
CONTINUOUS
 62
    5
 10
-116.69674785717109
 20
321.05208136952524
 40
0.5000000046026752
  0
ARC
  8
_0-1_MOD
  6
CONTINUOUS
 62
    5
 10
-61.872389487778378
 20
325.05207521298678
 40
4.0000000368214019
 50
180
 51
270
  0
ARC
  8
_0-1_MOD
  6
CONTINUOUS
 62
    5
 10
409.46692580882188
 20
325.05207521298678
 40
4.0000000368214019
 50
269.99996948242187
 51
0
  0
TEXT
  8
_0-2_Õ»_µ│__
 62
    3
 10
166.29727358431433
 20
1044.8736139835078
 40
10
 41
1
 50
0
  1
500
  0
TEXT
  8
_0-2_Õ»_µ│__
 62
    3
 10
-142.59791101371172
 20
722.23148664084169
 40
10
 41
1
 50
90.000002504478061
  1
500
  0
TEXT
  8
_0-2_Õ»_µ│__
 62
    3
 10
554.36922569337321
 20
722.26183410408873
 40
10
 41
1
 50
90.000002504478061
  1
500
  0
TEXT
  8
_0-2_Õ»_µ│__
 62
    3
 10
1566.2972245382066
 20
1044.8736139835078
 40
10
 41
1
 50
0
  1
500
  0
TEXT
  8
_0-2_Õ»_µ│__
 62
    3
 10
1254.0133678737093
 20
722.23148664084169
 40
10
 41
1
 50
90.000002504478061
  1
500
  0
TEXT
  8
_0-2_Õ»_µ│__
 62
    3
 10
1568.7974091754456
 20
453.15020398467664
 40
10
 41
1
 50
0
  1
90
  0
TEXT
  8
_0-2_Õ»_µ│__
 62
    3
 10
1566.2972740850853
 20
426.44899464021779
 40
10
 41
1
 50
0
  1
125
  0
TEXT
  8
_0-2_Õ»_µ│__
 62
    3
 10
1464.8699206434117
 20
497.43137639461793
 40
10
 41
1
 50
90.000002504478005
  1
45
  0
TEXT
  8
_0-2_Õ»_µ│__
 62
    3
 10
866.29723667454073
 20
1044.9040357670729
 40
10
 41
1
 50
0
  1
500
  0
TEXT
  8
_0-2_Õ»_µ│__
 62
    3
 10
1566.2972245382066
 20
387.94475260848702
 40
10
 41
1
 50
0
  1
500
  0
TEXT
  8
_0-4_µûçÕ___
 62
    6
 10
72.547274711049113
 20
256.6475800621003
 40
20
 41
1
 50
0
  1
âpâlâïò\û╩üiòWÅÇüj
  0
TEXT
  8
_0-4_µûçÕ___
 62
    6
 10
772.54730592823398
 20
256.67792752534729
 40
20
 41
1
 50
0
  1
âpâlâïùáû╩üiòWÅÇüj
  0
TEXT
  8
_0-4_µûçÕ___
 62
    6
 10
1472.5472690184606
 20
256.6475800621003
 40
20
 41
1
 50
0
  1
âpâlâïò\û╩üiÉ¦ö§üj
  0
TEXT
  8
_0-2_Õ»_µ│__
 62
    3
 10
166.29727358431433
 20
387.94475260848702
 40
10
 41
1
 50
0
  1
500
  0
TEXT
  8
_0-2_Õ»_µ│__
 62
    3
 10
-121.69674588496048
 20
325.90207717777679
 40
10
 41
1
 50
90.000002504478104
  1
29.7
  0
TEXT
  8
_0-2_Õ»_µ│__
 62
    3
 10
1278.3032298423711
 20
325.90207717777679
 40
10
 41
1
 50
90.000002504478104
  1
29.9
  0
TEXT
  8
_0-4_µûçÕ___
 62
    6
 10
-78.345466297105531
 20
1089.7048190201572
 40
20
 41
1
 50
0
  1
üyâTâôâAâNâZâX éTéOéOésüiâéâïâ^âïÅ[ôUâ^âCâvüj âpâlâïüF5,000Nüz
  0
POINT
  8
_0-3_Þ║_õ¢ôÒ
 62
    9
 10
872.966159776371
 20
729.98154741088399
  0
ENDSEC
  0
EOF
