  0
SECTION
  2
HEADER
  9
$ACADVER
  1
AC1009
  9
$INSBASE
 10
0
 20
0
 30
0
  9
$EXTMIN
 10
0
 20
0
  9
$EXTMAX
 10
420.5
 20
297
  9
$LIMMIN
 10
0
 20
0
  9
$LIMMAX
 10
420.5
 20
297
  9
$LTSCALE
 40
0.5
  0
ENDSEC
  0
SECTION
  2
TABLES
  0
TABLE
  2
LTYPE
 70
     9
  0
LTYPE
  2
CONTINUOUS
 70
    64
  3
実線
 72
    65
 73
     0
 40
0.0
  0
LTYPE
  2
DASHED1
 70
    64
  3
--  --  --  --  --  --  --  --  
 72
    65
 73
     2
 40
2.5
 49
1.25
 49
-1.25
  0
LTYPE
  2
DASHED2
 70
    64
  3
----    ----    ----    ----    
 72
    65
 73
     2
 40
5.0
 49
2.5
 49
-2.5
  0
LTYPE
  2
DASHED3
 70
    64
  3
------  ------  ------  ------  
 72
    65
 73
     2
 40
5.0
 49
3.75
 49
-1.25
  0
LTYPE
  2
CENTER1
 70
    64
  3
----- - ----- - ----- - ----- - 
 72
    65
 73
     4
 40
10.0
 49
6.25
 49
-1.25
 49
1.25
 49
-1.25
  0
LTYPE
  2
CENTER2
 70
    64
  3
----------  --  ----------  --  
 72
    65
 73
     4
 40
20.0
 49
12.5
 49
-2.5
 49
2.5
 49
-2.5
  0
LTYPE
  2
PHANTOM1
 70
    64
  3
--- - - --- - - --- - - --- - - 
 72
    65
 73
     6
 40
10.0
 49
3.25
 49
-1.25
 49
1.25
 49
-1.25
 49
1.25
 49
-1.25
  0
LTYPE
  2
PHANTOM2
 70
    64
  3
--------  -  -  --------  -  -  
 72
    65
 73
     6
 40
20.0
 49
10.0
 49
-2.5
 49
1.25
 49
-2.5
 49
1.25
 49
-2.5
  0
LTYPE
  2
DOT
 70
    64
  3
-   -   -   -   -   -   -   -   
 72
    65
 73
     2
 40
2.5
 49
0.625
 49
-1.875
  0
LTYPE
  2
DUMMY
 70
    64
  3
ダミー
 72
    65
 73
     0
 40
0.0
  0
LTYPE
  2
RAND1
 70
    64
  3
ランダム線1
 72
    65
 73
     4
 40
10.0
 49
1.0
 49
-2.0
 49
3.0
 49
-4.0
  0
LTYPE
  2
RAND2
 70
    64
  3
ランダム線2
 72
    65
 73
     4
 40
14.0
 49
2.0
 49
-3.0
 49
4.0
 49
-5.0
  0
LTYPE
  2
RAND3
 70
    64
  3
ランダム線3
 72
    65
 73
     4
 40
18.0
 49
3.0
 49
-4.0
 49
5.0
 49
-6.0
  0
LTYPE
  2
RAND4
 70
    64
  3
ランダム線4
 72
    65
 73
     4
 40
22.0
 49
4.0
 49
-5.0
 49
6.0
 49
-7.0
  0
LTYPE
  2
RAND5
 70
    64
  3
ランダム線5
 72
    65
 73
     4
 40
26.0
 49
5.0
 49
-6.0
 49
7.0
 49
-8.0
  0
LTYPE
  2
LONG1
 70
    64
  3
----------  --  ----------  --  
 72
    65
 73
     4
 40
40.0
 49
32.5
 49
-2.5
 49
2.5
 49
-2.5
  0
LTYPE
  2
LONG2
 70
    64
  3
--------  -  -  --------  -  -  
 72
    65
 73
     6
 40
40.0
 49
30.0
 49
-2.5
 49
1.25
 49
-2.5
 49
1.25
 49
-2.5
  0
LTYPE
  2
LONG3
 70
    64
  3
+++++++++++++++..+++++++++++++++
 72
    65
 73
     2
 40
40.0
 49
37.5
 49
-2.5
  0
LTYPE
  2
LONG4
 70
    64
  3
+++++++++++++++..+++++++++++++++
 72
    65
 73
     2
 40
80.0
 49
75.0
 49
-5.0
  0
LTYPE
  2
LONG5
 70
    64
  3
----------  --  ----------  --  
 72
    65
 73
     4
 40
60.0
 49
37.5
 49
-7.5
 49
7.5
 49
-7.5
  0
LTYPE
  2
dashed
 70
   64
  3
-------   -------------   ------
 72
   65
 73
    2
 40
7.5
 49
6
 49
-1.5
  0
LTYPE
  2
dashed_spaced
 70
   64
  3
----        --------        ----
 72
   65
 73
    2
 40
12
 49
6
 49
-6
  0
LTYPE
  2
long_dashed_dotted
 70
   64
  3
------------- --- --------------
 72
   65
 73
    4
 40
15.25
 49
12
 49
-1.5
 49
0.25
 49
-1.5
  0
LTYPE
  2
long_dashed_double-dotted
 70
   64
  3
----------- --- --- ------------
 72
   65
 73
    6
 40
17
 49
12
 49
-1.5
 49
0.25
 49
-1.5
 49
0.25
 49
-1.5
  0
LTYPE
  2
long_dashed_triplicate-dotted
 70
   64
  3
--------- --- --- --- ----------
 72
   65
 73
    8
 40
18.75
 49
12
 49
-1.5
 49
0.25
 49
-1.5
 49
0.25
 49
-1.5
 49
0.25
 49
-1.5
  0
LTYPE
  2
dotted
 70
   64
  3
   -       -       -       -    
 72
   65
 73
    2
 40
1.75
 49
0.25
 49
-1.5
  0
LTYPE
  2
chain
 70
   64
  3
-------------- -- --------------
 72
   65
 73
    4
 40
18.5
 49
12
 49
-1.5
 49
3.5
 49
-1.5
  0
LTYPE
  2
chain_double_dash
 70
   64
  3
------------ -- -- -------------
 72
   65
 73
    6
 40
23.5
 49
12
 49
-1.5
 49
3.5
 49
-1.5
 49
3.5
 49
-1.5
  0
LTYPE
  2
dashed_dotted
 70
   64
  3
-----------     -     ----------
 72
   65
 73
    4
 40
9.25
 49
6
 49
-1.5
 49
0.25
 49
-1.5
  0
LTYPE
  2
double-dashed_dotted
 70
   64
  3
------   -----------   -   -----
 72
   65
 73
    6
 40
16.75
 49
6
 49
-1.5
 49
6
 49
-1.5
 49
0.25
 49
-1.5
  0
LTYPE
  2
dashed_double-dotted
 70
   64
  3
---------    -    -    ---------
 72
   65
 73
    6
 40
11
 49
6
 49
-1.5
 49
0.25
 49
-1.5
 49
0.25
 49
-1.5
  0
LTYPE
  2
double-dashed_double-dotted
 70
   64
  3
-----   ---------   -   -   ----
 72
   65
 73
    8
 40
18.5
 49
6
 49
-1.5
 49
6
 49
-1.5
 49
0.25
 49
-1.5
 49
0.25
 49
-1.5
  0
LTYPE
  2
dashed_triplicate-dotted
 70
   64
  3
-------    -    -    -    ------
 72
   65
 73
    8
 40
12.75
 49
6
 49
-1.5
 49
0.25
 49
-1.5
 49
0.25
 49
-1.5
 49
0.25
 49
-1.5
  0
LTYPE
  2
double-dashed_triplicate-dotted
 70
   64
  3
-----  ---------  -  -  -  -----
 72
   65
 73
   10
 40
20.25
 49
6
 49
-1.5
 49
6
 49
-1.5
 49
0.25
 49
-1.5
 49
0.25
 49
-1.5
 49
0.25
 49
-1.5
  0
LTYPE
  2
undefined
 70
   64
  3
--------------------------------
 72
   65
 73
    0
 40
0
  0
LTYPE
  2
MC_DASH_DOT
 70
   64
  3
---------     -----     --------
 72
   65
 73
    4
 40
7
 49
4
 49
-1
 49
1
 49
-1
  0
LTYPE
  2
MC_DASH_DOTDOT
 70
   64
  3
-----------  --  --  -----------
 72
   65
 73
    6
 40
7.5
 49
5
 49
-0.5
 49
0.5
 49
-0.5
 49
0.5
 49
-0.5
  0
LTYPE
  2
_
 70
   64
  3
                                
 72
   65
 73
    0
 40
0
  0
LTYPE
  2
__20
 70
   64
  3
                                
 72
   65
 73
    0
 40
0
  0
LTYPE
  2
__21
 70
   64
  3
                                
 72
   65
 73
    0
 40
0
  0
LTYPE
  2
__22
 70
   64
  3
                                
 72
   65
 73
    0
 40
0
  0
LTYPE
  2
__23
 70
   64
  3
                                
 72
   65
 73
    0
 40
0
  0
LTYPE
  2
__24
 70
   64
  3
                                
 72
   65
 73
    0
 40
0
  0
LTYPE
  2
__25
 70
   64
  3
                                
 72
   65
 73
    0
 40
0
  0
LTYPE
  2
__26
 70
   64
  3
                                
 72
   65
 73
    0
 40
0
  0
LTYPE
  2
__27
 70
   64
  3
                                
 72
   65
 73
    0
 40
0
  0
LTYPE
  2
__28
 70
   64
  3
                                
 72
   65
 73
    0
 40
0
  0
LTYPE
  2
__29
 70
   64
  3
                                
 72
   65
 73
    0
 40
0
  0
LTYPE
  2
__30
 70
   64
  3
                                
 72
   65
 73
    0
 40
0
  0
LTYPE
  2
__31
 70
   64
  3
                                
 72
   65
 73
    0
 40
0
  0
LTYPE
  2
__32
 70
   64
  3
                                
 72
   65
 73
    0
 40
0
  0
ENDTAB
  0
TABLE
  2
STYLE
  5
3
100
AcDbSymbolTable
 70
     1
  0
STYLE
  5
10
100
AcDbSymbolTableRecord
100
AcDbTextStyleTableRecord
  2
STANDARD
 70
     0
 40
0.0
 41
1.0
 50
0.0
 71
     0
 42
0.2
  3
txt
  4
bigfont.shx
  0
STYLE
  5
26
100
AcDbSymbolTableRecord
100
AcDbTextStyleTableRecord
  2
TATEGAKI
 70
    68
 40
0.0
 41
1.0
 50
0.0
 71
     0
 42
1.0
  3
txt
  4
bigfont.shx
  0
ENDTAB
  0
TABLE
  2
LAYER
 70
    2
  0
LAYER
  2
_0-0_
 70
   64
 62
    7
  6
CONTINUOUS
  0
LAYER
  2
ADD_LINE
 70
   64
 62
    7
  6
CONTINUOUS
  0
ENDTAB
  0
ENDSEC
  0
SECTION
  2
BLOCKS
  0
ENDSEC
  0
SECTION
  2
ENTITIES
  0
TEXT
  8
_0-0_
 62
    7
 10
218.55722276113417
 20
183.5027591246396
 40
3.2424999999998363
 41
1.1592052514349511
 50
0
  1
OP2-WRタイプ（設備）
  0
LINE
  8
_0-0_
  6
CONTINUOUS
 62
    7
 10
42.324270506502728
 20
188.91212012245813
 11
88.747584562649465
 21
188.91212012245813
  0
LINE
  8
_0-0_
  6
CONTINUOUS
 62
    7
 10
88.747584562649465
 20
188.91212012245813
 11
88.747584562649465
 21
181.33589792682253
  0
LINE
  8
_0-0_
  6
CONTINUOUS
 62
    7
 10
88.747584562649465
 20
181.33589792682253
 11
42.324270506502728
 21
181.33589792682253
  0
LINE
  8
_0-0_
  6
CONTINUOUS
 62
    7
 10
42.324270506502728
 20
181.33589792682253
 11
42.324270506502728
 21
188.91212012245813
  0
TEXT
  8
_0-0_
 62
    7
 10
50.454502801242398
 20
183.50275912463957
 40
3.2424999999998363
 41
0.9791940808072711
 50
0
  1
OP2-Rタイプ（標準）
  0
LINE
  8
_0-0_
  6
CONTINUOUS
 62
    7
 10
142.76793143093147
 20
164.08612842899907
 11
142.76793143093147
 21
116.08655167176197
  0
TEXT
  8
_0-0_
 62
    7
 10
142.34294068936688
 20
139.22384005038055
 40
1.25
 41
0.9199999999999495
 50
90
  1
480
  0
LINE
  8
_0-0_
  6
CONTINUOUS
 62
    7
 10
138.7929892805214
 20
164.08612842899907
 11
142.96792966742007
 21
164.08612842899907
  0
LINE
  8
_0-0_
  6
CONTINUOUS
 62
    7
 10
138.7929892805214
 20
116.08655167176197
 11
142.96792966742007
 21
116.08655167176197
  0
POINT
  8
_0-0_
 62
    7
 10
142.76793143093147
 20
164.08612842899907
  0
POINT
  8
_0-0_
 62
    7
 10
142.76793143093147
 20
116.08655167176197
  0
TEXT
  8
_0-0_
 62
    7
 10
75.889764812080472
 20
101.16233763156578
 40
2.5939999999998804
 41
0.8268750000000015
 50
0
  1
【表面】
  0
TEXT
  8
_0-0_
 62
    7
 10
135.61560897136786
 20
101.16233763156578
 40
2.5939999999998804
 41
0.8268750000000015
 50
0
  1
【側面】
  0
LINE
  8
_0-0_
  6
CONTINUOUS
 62
    7
 10
138.06363451170614
 20
163.73792909929378
 11
138.06363451170614
 21
140.0863400503805
  0
LINE
  8
_0-0_
  6
CONTINUOUS
 62
    7
 10
55.182715925420069
 20
162.88612981014938
 11
55.182715925420069
 21
117.2865502906118
  0
LINE
  8
_0-0_
  6
CONTINUOUS
 62
    7
 10
136.28365580690885
 20
159.81119372381437
 11
136.28365580690885
 21
140.0863400503805
  0
LINE
  8
_0-0_
  6
CONTINUOUS
 62
    7
 10
72.768353461681585
 20
165.0361170523459
 11
57.33269396769802
 21
165.0361170523459
  0
ARC
  8
_0-0_
  6
CONTINUOUS
 62
    7
 10
137.68363906236709
 20
163.73792909929378
 40
0.3799966493281269
 50
0.00000865113112
 51
85.000005326470699
  0
ARC
  8
_0-0_
  6
CONTINUOUS
 62
    7
 10
137.68363906236709
 20
163.70613297966042
 40
0.3799966493281269
 50
0.00000865113112
 51
90.000004322240102
  0
ARC
  8
_0-0_
  6
CONTINUOUS
 62
    7
 10
136.20365891229264
 20
164.95611895773987
 40
0.0799992945953951
 50
89.9999906618512
 51
180.00000068283899
  0
ARC
  8
_0-0_
  6
CONTINUOUS
 62
    7
 10
136.52365429068976
 20
163.62809426777736
 40
0.0499995591221218
 50
287.52797258733403
 51
0.0000050075823603
  0
ARC
  8
_0-0_
  6
CONTINUOUS
 62
    7
 10
136.65365674437567
 20
164.00613953431201
 40
0.0799992945953951
 50
0.00000865114085
 51
179.55199347794797
  0
LINE
  8
_0-0_
  6
CONTINUOUS
 62
    7
 10
136.73365483898144
 20
164.87612426310392
 11
136.73365483898144
 21
163.79265421674768
  0
LINE
  8
_0-0_
  6
CONTINUOUS
 62
    7
 10
136.73365483898144
 20
163.79265421674768
 11
136.67365656802451
 21
163.79265421674768
  0
LINE
  8
_0-0_
  6
CONTINUOUS
 62
    7
 10
136.67365776801404
 20
164.00613033439316
 11
136.63365812071612
 21
164.00613033439316
  0
LINE
  8
_0-0_
  6
CONTINUOUS
 62
    7
 10
136.73365483898144
 20
164.23749109433834
 11
137.71675797033677
 21
164.11647976137215
  0
LINE
  8
_0-0_
  6
CONTINUOUS
 62
    7
 10
137.68363906236709
 20
164.08612962898854
 11
136.73365483898144
 21
164.08612842899907
  0
LINE
  8
_0-0_
  6
CONTINUOUS
 62
    7
 10
136.63365812071612
 20
164.00613033439316
 11
136.63365332075873
 21
163.62809426777736
  0
LINE
  8
_0-0_
  6
CONTINUOUS
 62
    7
 10
136.57365984975917
 20
164.95612355769936
 11
136.57365984975917
 21
163.62809426777736
  0
ARC
  8
_0-0_
  6
CONTINUOUS
 62
    7
 10
136.20365771230308
 20
164.95611895773987
 40
0.0799992945953951
 50
0.00130638708076
 51
90.000004322280986
  0
LINE
  8
_0-0_
  6
CONTINUOUS
 62
    7
 10
136.65365554438611
 20
164.95612355769936
 11
136.12365961769731
 21
164.95612355769936
  0
LINE
  8
_0-0_
  6
CONTINUOUS
 62
    7
 10
137.78526036630785
 20
159.92790749467486
 11
136.56828149718373
 21
159.65210992655722
  0
LINE
  8
_0-0_
  6
CONTINUOUS
 62
    7
 10
136.33364296614059
 20
161.16699976881108
 11
136.33364296614059
 21
161.43627239446323
  0
LINE
  8
_0-0_
  6
CONTINUOUS
 62
    7
 10
136.19364180061967
 20
161.51710368172243
 11
136.19364180061967
 21
161.56710004087273
  0
LINE
  8
_0-0_
  6
CONTINUOUS
 62
    7
 10
136.19364180061967
 20
161.99803504104517
 11
136.19364180061967
 21
162.04803160019372
  0
LINE
  8
_0-0_
  6
CONTINUOUS
 62
    7
 10
136.18365908864354
 20
163.34045300409309
 11
136.18365908864354
 21
162.88613901006818
  0
LINE
  8
_0-0_
  6
CONTINUOUS
 62
    7
 10
136.22365753595193
 20
163.33939901338678
 11
136.22365753595193
 21
162.88613901006818
  0
ARC
  8
_0-0_
  6
CONTINUOUS
 62
    7
 10
136.28363740707113
 20
162.26115072098696
 40
0.0499991591256489
 50
359.99999134888998
 51
90.000000680357715
  0
LINE
  8
_0-0_
  6
CONTINUOUS
 62
    7
 10
136.33364296614059
 20
161.64793132813193
 11
136.33364296614059
 21
161.91720835374542
  0
LINE
  8
_0-0_
  6
CONTINUOUS
 62
    7
 10
136.33364296614059
 20
162.12886268745461
 11
136.33364296614059
 21
162.26115072098696
  0
LINE
  8
_0-0_
  6
CONTINUOUS
 62
    7
 10
136.28365580690885
 20
162.88613901006818
 11
136.28365580690885
 21
162.31114728013557
  0
LINE
  8
_0-0_
  6
CONTINUOUS
 62
    7
 10
136.33364236614568
 20
161.43626919449144
 11
136.19364660057732
 21
161.51709568179299
  0
LINE
  8
_0-0_
  6
CONTINUOUS
 62
    7
 10
136.19364040063206
 20
161.56709304093448
 11
136.33363616620042
 21
161.647919528236
  0
LINE
  8
_0-0_
  6
CONTINUOUS
 62
    7
 10
136.33364216614763
 20
161.91720935373658
 11
136.19364640057901
 21
161.9980360410363
  0
LINE
  8
_0-0_
  6
CONTINUOUS
 62
    7
 10
136.19364060063037
 20
162.04803320017962
 11
136.33363636619873
 21
162.12885988747931
  0
LINE
  8
_0-0_
  6
CONTINUOUS
 62
    7
 10
136.28365580690885
 20
162.38614661881874
 11
136.12365161776759
 21
162.38614661881874
  0
LINE
  8
_0-0_
  6
CONTINUOUS
 62
    7
 10
136.28414260261647
 20
162.31114728013557
 11
136.12365161776759
 21
162.31114728013557
  0
ARC
  8
_0-0_
  6
CONTINUOUS
 62
    7
 10
136.27365389510237
 20
163.33939901338678
 40
0.0499995591221218
 50
107.52797258733401
 51
179.99999999916599
  0
LINE
  8
_0-0_
  6
CONTINUOUS
 62
    7
 10
136.28365580690885
 20
162.88613901006818
 11
136.12365161776759
 21
162.88613901006818
  0
LINE
  8
_0-0_
  6
CONTINUOUS
 62
    7
 10
136.19364180061967
 20
160.07430940375622
 11
136.19364180061967
 21
160.12431036286603
  0
LINE
  8
_0-0_
  6
CONTINUOUS
 62
    7
 10
136.19364180061967
 20
160.5552407630789
 11
136.19364180061967
 21
160.60524172218862
  0
LINE
  8
_0-0_
  6
CONTINUOUS
 62
    7
 10
136.19364180061967
 20
161.03617212240158
 11
136.19364180061967
 21
161.08616868155013
  0
LINE
  8
_0-0_
  6
CONTINUOUS
 62
    7
 10
136.33364296614059
 20
160.20513705016572
 11
136.33364296614059
 21
160.4744094758197
  0
LINE
  8
_0-0_
  6
CONTINUOUS
 62
    7
 10
136.33364296614059
 20
159.86119328293645
 11
136.33364296614059
 21
159.99348271645644
  0
LINE
  8
_0-0_
  6
CONTINUOUS
 62
    7
 10
137.88712686808583
 20
160.08617489913067
 11
136.55102944930584
 21
160.08617489913067
  0
LINE
  8
_0-0_
  6
CONTINUOUS
 62
    7
 10
136.33364296614059
 20
160.6860684094884
 11
136.33364296614059
 21
160.95534563510006
  0
LINE
  8
_0-0_
  6
CONTINUOUS
 62
    7
 10
136.28365580690885
 20
159.7361943851312
 11
136.12365161776759
 21
159.7361943851312
  0
LINE
  8
_0-0_
  6
CONTINUOUS
 62
    7
 10
136.28365580690885
 20
159.81119372381437
 11
136.12365161776759
 21
159.81119372381437
  0
LINE
  8
_0-0_
  6
CONTINUOUS
 62
    7
 10
136.33364056616176
 20
159.99348091647232
 11
136.1936448005934
 21
160.0743076037721
  0
LINE
  8
_0-0_
  6
CONTINUOUS
 62
    7
 10
136.19364180061967
 20
160.12430516291181
 11
136.33363756618826
 21
160.20513185021159
  0
LINE
  8
_0-0_
  6
CONTINUOUS
 62
    7
 10
136.19363860064789
 20
160.60523292226625
 11
136.33363456621481
 21
160.68605960956603
  0
LINE
  8
_0-0_
  6
CONTINUOUS
 62
    7
 10
136.33363896617584
 20
160.95534083514238
 11
136.19364320060726
 21
161.0361675224421
  0
LINE
  8
_0-0_
  6
CONTINUOUS
 62
    7
 10
136.19364340060554
 20
161.08616528158012
 11
136.33363936617218
 21
161.16699196887987
  0
LINE
  8
_0-0_
  6
CONTINUOUS
 62
    7
 10
136.33364376613352
 20
160.47440867582677
 11
136.19364800056519
 21
160.55523516312823
  0
LINE
  8
_0-0_
  6
CONTINUOUS
 62
    7
 10
138.22864225672794
 20
154.99093922706061
 11
138.06363951166185
 21
155.08620358705423
  0
LINE
  8
_0-0_
  6
CONTINUOUS
 62
    7
 10
138.22863585678436
 20
154.38146880114851
 11
138.06363711168302
 21
154.28620684113372
  0
ARC
  8
_0-0_
  6
CONTINUOUS
 62
    7
 10
138.16362763000308
 20
154.49405760838152
 40
0.1299988537175171
 50
300.00000333498298
 51
0.0000050084322681
  0
ARC
  8
_0-0_
  6
CONTINUOUS
 62
    7
 10
138.16362763000308
 20
154.87836521969712
 40
0.1299988537175171
 50
359.99999134802198
 51
60.000006677578824
  0
LINE
  8
_0-0_
  6
CONTINUOUS
 62
    7
 10
138.29363128367828
 20
154.49405760838152
 11
138.29363128367828
 21
154.87836521969712
  0
LINE
  8
_0-0_
  6
CONTINUOUS
 62
    7
 10
57.33269396769802
 20
164.95611895773987
 11
56.124213223640538
 21
164.95611895773987
  0
ARC
  8
_0-0_
  6
CONTINUOUS
 62
    7
 10
55.132719566269913
 20
165.0861228114133
 40
1.56998615643463
 50
274.97184239693502
 51
355.027891167039
  0
ARC
  8
_0-0_
  6
CONTINUOUS
 62
    7
 10
55.132719566269913
 20
165.0861228114133
 40
1.4999867736636594
 50
274.97184239693399
 51
355.02789116703798
  0
ARC
  8
_0-0_
  6
CONTINUOUS
 62
    7
 10
55.132719566269913
 20
165.0861228114133
 40
0.9999911824424394
 50
277.46954780957901
 51
352.53005683641101
  0
LINE
  8
_0-0_
  6
CONTINUOUS
 62
    7
 10
55.26271402002638
 20
162.88612981014938
 11
55.182715925420069
 21
162.88612981014938
  0
LINE
  8
_0-0_
  6
CONTINUOUS
 62
    7
 10
55.26271402002638
 20
164.09461535416452
 11
55.26271402002638
 21
162.88612981014938
  0
LINE
  8
_0-0_
  6
CONTINUOUS
 62
    7
 10
57.33269396769802
 20
164.95611895773987
 11
57.33269396769802
 21
165.0361170523459
  0
CIRCLE
  8
_0-0_
  6
CONTINUOUS
 62
    7
 10
65.532621663725962
 20
154.68621131404012
 40
0.2149981042251243
  0
LINE
  8
_0-0_
  6
CONTINUOUS
 62
    7
 10
83.589571244129814
 20
164.6292634398327
 11
83.475359851204047
 21
164.74347483275832
  0
ARC
  8
_0-0_
  6
CONTINUOUS
 62
    7
 10
82.768263886118717
 20
164.03637906767082
 40
0.9999911824424394
 50
45.00000033899309
 51
90.000005009249804
  0
LINE
  8
_0-0_
  6
CONTINUOUS
 62
    7
 10
75.970100829841186
 20
164.33637642240356
 11
74.296758384764445
 21
164.33637642240356
  0
LINE
  8
_0-0_
  6
CONTINUOUS
 62
    7
 10
73.589657819719207
 20
164.62926723979922
 11
73.475450626756754
 21
164.74347443276179
  0
ARC
  8
_0-0_
  6
CONTINUOUS
 62
    7
 10
72.768353461681585
 20
164.03637906767082
 40
0.9999911824424394
 50
45.00000033899309
 51
90.000005009249804
  0
LINE
  8
_0-0_
  6
CONTINUOUS
 62
    7
 10
82.768263886118717
 20
165.0361170523459
 11
77.496731368569755
 21
165.0361170523459
  0
ARC
  8
_0-0_
  6
CONTINUOUS
 62
    7
 10
77.496731368569755
 20
164.03637906767082
 40
0.9999911824424394
 50
89.999991348872101
 51
134.99999601046099
  0
LINE
  8
_0-0_
  6
CONTINUOUS
 62
    7
 10
76.6736244264265
 20
164.62746725567081
 11
76.789633203503342
 21
164.74347603274765
  0
ARC
  8
_0-0_
  6
CONTINUOUS
 62
    7
 10
75.968326845483517
 20
165.33636620485836
 40
0.9999911824424394
 50
270
 51
315.14590549109499
  0
LINE
  8
_0-0_
  6
CONTINUOUS
 62
    7
 10
102.93228268715445
 20
165.0361170523459
 11
87.496646192967674
 21
165.0361170523459
  0
LINE
  8
_0-0_
  6
CONTINUOUS
 62
    7
 10
85.96823246996243
 20
164.33637642240356
 11
84.29667740912538
 21
164.33637642240356
  0
ARC
  8
_0-0_
  6
CONTINUOUS
 62
    7
 10
84.29667740912538
 20
165.33636620485836
 40
0.9999911824424394
 50
224.99999874482398
 51
270
  0
LINE
  8
_0-0_
  6
CONTINUOUS
 62
    7
 10
86.675335034989871
 20
164.62926583981152
 11
86.789544027936813
 21
164.74347483275832
  0
ARC
  8
_0-0_
  6
CONTINUOUS
 62
    7
 10
87.496646192967674
 20
164.03637906767082
 40
0.9999911824424394
 50
89.999991348872101
 51
134.99999601046099
  0
ARC
  8
_0-0_
  6
CONTINUOUS
 62
    7
 10
85.96823246996243
 20
165.33636620485836
 40
0.9999911824424394
 50
270
 51
315.00000125518397
  0
LINE
  8
_0-0_
  6
CONTINUOUS
 62
    7
 10
102.93228268715445
 20
115.13656324841344
 11
57.33269396769802
 21
115.13656324841344
  0
LINE
  8
_0-0_
  6
CONTINUOUS
 62
    7
 10
57.33269396769802
 20
115.21656114302131
 11
56.124213223640538
 21
115.21656114302131
  0
ARC
  8
_0-0_
  6
CONTINUOUS
 62
    7
 10
55.132719566269913
 20
115.08655748934611
 40
1.56998615643463
 50
4.9721070119287294
 51
85.028160046852605
  0
ARC
  8
_0-0_
  6
CONTINUOUS
 62
    7
 10
55.132719566269913
 20
115.08655748934611
 40
1.4999867736636594
 50
4.9721070119281796
 51
85.02816004684243
  0
ARC
  8
_0-0_
  6
CONTINUOUS
 62
    7
 10
55.132719566269913
 20
115.08655748934611
 40
0.9999911824424394
 50
7.46994134385272
 51
82.530455486743094
  0
LINE
  8
_0-0_
  6
CONTINUOUS
 62
    7
 10
55.26271402002638
 20
116.07806494659482
 11
55.26271402002638
 21
117.2865502906118
  0
LINE
  8
_0-0_
  6
CONTINUOUS
 62
    7
 10
57.33269396769802
 20
115.21656114302131
 11
57.33269396769802
 21
115.13656324841344
  0
LINE
  8
_0-0_
  6
CONTINUOUS
 62
    7
 10
105.08226992935086
 20
162.88612981014938
 11
105.08226992935086
 21
117.2865502906118
  0
ARC
  8
_0-0_
  6
CONTINUOUS
 62
    7
 10
105.1322664884996
 20
165.0861228114133
 40
1.4999867736636594
 50
184.972061021961
 51
265.02815759637099
  0
ARC
  8
_0-0_
  6
CONTINUOUS
 62
    7
 10
105.1322664884996
 20
165.0861228114133
 40
1.56998615643463
 50
184.97210883211997
 51
265.02815759636792
  0
ARC
  8
_0-0_
  6
CONTINUOUS
 62
    7
 10
105.1322664884996
 20
165.0861228114133
 40
0.9999911824424394
 50
187.469943163588
 51
262.53065453088499
  0
LINE
  8
_0-0_
  6
CONTINUOUS
 62
    7
 10
102.93228268715445
 20
164.95611895773987
 11
104.14077743108832
 21
164.95611895773987
  0
LINE
  8
_0-0_
  6
CONTINUOUS
 62
    7
 10
102.93228268715445
 20
164.95611895773987
 11
102.93228268715445
 21
165.0361170523459
  0
LINE
  8
_0-0_
  6
CONTINUOUS
 62
    7
 10
105.00227183474509
 20
162.88612981014938
 11
105.08226992935086
 21
162.88612981014938
  0
LINE
  8
_0-0_
  6
CONTINUOUS
 62
    7
 10
105.00227183474509
 20
164.09461535416452
 11
105.00227183474509
 21
162.88612981014938
  0
ARC
  8
_0-0_
  6
CONTINUOUS
 62
    7
 10
105.1322664884996
 20
115.08655748934611
 40
0.9999911824424394
 50
97.4693396030099
 51
172.53005865614801
  0
LINE
  8
_0-0_
  6
CONTINUOUS
 62
    7
 10
105.00227183474509
 20
116.07806494659482
 11
105.00227183474509
 21
117.2865502906118
  0
ARC
  8
_0-0_
  6
CONTINUOUS
 62
    7
 10
105.1322664884996
 20
115.08655748934611
 40
1.56998615643463
 50
94.971839953151502
 51
175.02789298807099
  0
ARC
  8
_0-0_
  6
CONTINUOUS
 62
    7
 10
105.1322664884996
 20
115.08655748934611
 40
1.4999867736636594
 50
94.971839953154301
 51
175.02794080019399
  0
LINE
  8
_0-0_
  6
CONTINUOUS
 62
    7
 10
102.93228268715445
 20
115.21656114302131
 11
104.14077743108832
 21
115.21656114302131
  0
LINE
  8
_0-0_
  6
CONTINUOUS
 62
    7
 10
102.93228268715445
 20
115.21656114302131
 11
102.93228268715445
 21
115.13656324841344
  0
CIRCLE
  8
_0-0_
  6
CONTINUOUS
 62
    7
 10
65.532621663725962
 20
125.48646878672091
 40
0.2149981042251243
  0
CIRCLE
  8
_0-0_
  6
CONTINUOUS
 62
    7
 10
94.732364191045207
 20
125.48646878672091
 40
0.2149981042251243
  0
CIRCLE
  8
_0-0_
  6
CONTINUOUS
 62
    7
 10
94.732364191045207
 20
154.68621131404012
 40
0.2149981042251243
  0
LINE
  8
_0-0_
  6
CONTINUOUS
 62
    7
 10
136.12365161776759
 20
140.0863400503805
 11
136.12365161776759
 21
164.95611895773987
  0
ARC
  8
_0-0_
  6
CONTINUOUS
 62
    7
 10
136.65365554438611
 20
164.87612426310392
 40
0.0799992945953951
 50
0
 51
90
  0
LINE
  8
_0-0_
  6
CONTINUOUS
 62
    7
 10
136.67365776801404
 20
164.00613033439316
 11
136.6736529680561
 21
163.62809326778608
  0
LINE
  8
_0-0_
  6
CONTINUOUS
 62
    7
 10
140.06361687659091
 20
109.29229438104505
 11
131.72369041502088
 21
109.29229438104505
  0
TEXT
  8
_0-0_
 62
    7
 10
132.34867983395179
 20
109.71728512260958
 40
1.25
 41
0.9199999999998788
 50
0
  1
20
  0
LINE
  8
_0-0_
  6
CONTINUOUS
 62
    7
 10
138.06363451170614
 20
115.43476921894204
 11
138.06363451170614
 21
109.0922961445566
  0
LINE
  8
_0-0_
  6
CONTINUOUS
 62
    7
 10
136.12365161776759
 20
114.21656996057885
 11
136.12365161776759
 21
109.0922961445566
  0
POINT
  8
_0-0_
 62
    7
 10
138.06363451170614
 20
109.29229438104505
  0
POINT
  8
_0-0_
 62
    7
 10
136.12365161776759
 20
109.29229438104505
  0
ARC
  8
_0-0_
  6
CONTINUOUS
 62
    7
 10
74.296758384764445
 20
165.33636760484603
 40
0.9999911824424394
 50
224.99999999940698
 51
270
  0
CIRCLE
  8
_0-0_
  6
CONTINUOUS
 62
    7
 10
65.532621663725962
 20
154.68621131404012
 40
0.3999964729769756
  0
CIRCLE
  8
_0-0_
  6
CONTINUOUS
 62
    7
 10
94.732364191045207
 20
154.68621131404012
 40
0.3999964729769756
  0
CIRCLE
  8
_0-0_
  6
CONTINUOUS
 62
    7
 10
94.732364191045207
 20
125.48646878672091
 40
0.3999964729769756
  0
CIRCLE
  8
_0-0_
  6
CONTINUOUS
 62
    7
 10
65.532621663725962
 20
125.48646878672091
 40
0.3999964729769756
  0
LINE
  8
_0-0_
  6
CONTINUOUS
 62
    7
 10
55.182715925420069
 20
117.2865502906118
 11
55.26271402002638
 21
117.2865502906118
  0
LINE
  8
_0-0_
  6
CONTINUOUS
 62
    7
 10
105.08226992935086
 20
117.2865502906118
 11
105.00227183474509
 21
117.2865502906118
  0
ARC
  8
_0-0_
  6
CONTINUOUS
 62
    7
 10
136.28364340701836
 20
159.86119328293645
 40
0.0499995591221218
 50
270
 51
0
  0
ARC
  8
_0-0_
  6
CONTINUOUS
 62
    7
 10
136.52365429068976
 20
163.62809426777736
 40
0.1099990300686683
 50
287.527972587313
 51
0.0000050076014182
  0
ARC
  8
_0-0_
  6
CONTINUOUS
 62
    7
 10
136.52365429068976
 20
163.62809426777736
 40
0.1499986773663659
 50
287.52797258723194
 51
0.0000050084162381
  0
ARC
  8
_0-0_
  6
CONTINUOUS
 62
    7
 10
136.27365389510237
 20
163.33939901338678
 40
0.0899992064198195
 50
107.527972587154
 51
179.99999999832096
  0
ARC
  8
_0-0_
  6
CONTINUOUS
 62
    7
 10
136.27365389510237
 20
163.33939901338678
 40
0.1499986773663659
 50
107.527972587232
 51
180
  0
LINE
  8
_0-0_
  6
CONTINUOUS
 62
    7
 10
136.56882949235171
 20
163.48505992900192
 11
136.25859562788048
 21
163.38707699297976
  0
LINE
  8
_0-0_
  6
CONTINUOUS
 62
    7
 10
136.55678279857477
 20
163.52320239267567
 11
136.2465487341058
 21
163.42521945665345
  0
LINE
  8
_0-0_
  6
CONTINUOUS
 62
    7
 10
136.53871255791188
 20
163.58041608818613
 11
136.22847869344068
 21
163.48243315216391
  0
LINE
  8
_0-0_
  6
CONTINUOUS
 62
    7
 10
55.182708325487255
 20
107.19259589542051
 11
105.08226832936496
 21
107.19259589542051
  0
TEXT
  8
_0-0_
 62
    7
 10
79.269988327426148
 20
107.61758663698505
 40
1.25
 41
0.9199999999999596
 50
0
  1
499
  0
LINE
  8
_0-0_
  6
CONTINUOUS
 62
    7
 10
55.182708325487255
 20
114.13657206597104
 11
55.182708325487255
 21
106.992597658932
  0
LINE
  8
_0-0_
  6
CONTINUOUS
 62
    7
 10
105.08226832936496
 20
114.13657206597104
 11
105.08226832936496
 21
106.992597658932
  0
POINT
  8
_0-0_
 62
    7
 10
55.182708325487255
 20
107.19259589542051
  0
POINT
  8
_0-0_
 62
    7
 10
105.08226832936496
 20
107.19259589542051
  0
LINE
  8
_0-0_
  6
CONTINUOUS
 62
    7
 10
121.16760929469463
 20
165.03665184763031
 11
121.16760929469463
 21
115.13659564812779
  0
TEXT
  8
_0-0_
 62
    7
 10
120.74261855313006
 20
139.22412364787994
 40
1.2499999999997726
 41
0.9200000000001168
 50
90
  1
499
  0
LINE
  8
_0-0_
  6
CONTINUOUS
 62
    7
 10
106.08235951092563
 20
165.03665184763031
 11
121.36760753118322
 21
165.03665184763031
  0
LINE
  8
_0-0_
  6
CONTINUOUS
 62
    7
 10
106.08235951092563
 20
115.13659564812779
 11
121.36760753118322
 21
115.13659564812779
  0
POINT
  8
_0-0_
 62
    7
 10
121.16760929469463
 20
165.03665184763031
  0
POINT
  8
_0-0_
 62
    7
 10
121.16760929469463
 20
115.13659564812779
  0
LINE
  8
_0-0_
  6
CONTINUOUS
 62
    7
 10
138.06363451170614
 20
116.43475120146557
 11
138.06363451170614
 21
140.0863400503805
  0
LINE
  8
_0-0_
  6
CONTINUOUS
 62
    7
 10
136.28365580690885
 20
120.36148657694503
 11
136.28365580690885
 21
140.0863400503805
  0
ARC
  8
_0-0_
  6
CONTINUOUS
 62
    7
 10
137.68363906236709
 20
116.43475120146557
 40
0.3799966493281269
 50
274.99999467352899
 51
359.99999134803198
  0
ARC
  8
_0-0_
  6
CONTINUOUS
 62
    7
 10
137.68363906236709
 20
116.46654712110076
 40
0.3799966493281269
 50
269.99999567775996
 51
359.99999134970494
  0
ARC
  8
_0-0_
  6
CONTINUOUS
 62
    7
 10
136.20365891229264
 20
115.21656114302131
 40
0.0799992945953951
 50
179.99999931716101
 51
270.00000933814903
  0
ARC
  8
_0-0_
  6
CONTINUOUS
 62
    7
 10
136.52365429068976
 20
116.54458603298212
 40
0.0499995591221218
 50
359.99999499075
 51
72.472027412582392
  0
ARC
  8
_0-0_
  6
CONTINUOUS
 62
    7
 10
136.65365674437567
 20
116.16654056644916
 40
0.0799992945953951
 50
180.44800652202596
 51
359.999991348859
  0
LINE
  8
_0-0_
  6
CONTINUOUS
 62
    7
 10
136.73365483898144
 20
115.29655603765545
 11
136.73365483898144
 21
116.38002608401173
  0
LINE
  8
_0-0_
  6
CONTINUOUS
 62
    7
 10
136.73365483898144
 20
116.38002608401173
 11
136.67365656802451
 21
116.38002608401173
  0
LINE
  8
_0-0_
  6
CONTINUOUS
 62
    7
 10
136.67365776801404
 20
116.16654976636801
 11
136.63365812071612
 21
116.16654976636801
  0
LINE
  8
_0-0_
  6
CONTINUOUS
 62
    7
 10
137.68363906236709
 20
116.08655047177263
 11
136.73365483898144
 21
116.08655167176197
  0
LINE
  8
_0-0_
  6
CONTINUOUS
 62
    7
 10
136.63365812071612
 20
116.16654976636801
 11
136.63365332075873
 21
116.54458603298212
  0
LINE
  8
_0-0_
  6
CONTINUOUS
 62
    7
 10
136.57365984975917
 20
115.21655674306005
 11
136.57365984975917
 21
116.54458603298212
  0
ARC
  8
_0-0_
  6
CONTINUOUS
 62
    7
 10
136.20365771230308
 20
115.21656114302131
 40
0.0799992945953951
 50
269.99999567771903
 51
359.99869361624098
  0
LINE
  8
_0-0_
  6
CONTINUOUS
 62
    7
 10
136.65365554438611
 20
115.21655674306005
 11
136.12365961769731
 21
115.21655674306005
  0
LINE
  8
_0-0_
  6
CONTINUOUS
 62
    7
 10
137.78526036630785
 20
120.24477280608457
 11
136.56828149718373
 21
120.52057037420218
  0
LINE
  8
_0-0_
  6
CONTINUOUS
 62
    7
 10
136.33364296614059
 20
119.00568033195009
 11
136.33364296614059
 21
118.73640790629618
  0
LINE
  8
_0-0_
  6
CONTINUOUS
 62
    7
 10
136.19364180061967
 20
118.65557661903698
 11
136.19364180061967
 21
118.6055800598883
  0
LINE
  8
_0-0_
  6
CONTINUOUS
 62
    7
 10
136.19364180061967
 20
118.17464525971423
 11
136.19364180061967
 21
118.12464870056569
  0
LINE
  8
_0-0_
  6
CONTINUOUS
 62
    7
 10
136.18365908864354
 20
116.83222709666809
 11
136.18365908864354
 21
117.28654109069294
  0
LINE
  8
_0-0_
  6
CONTINUOUS
 62
    7
 10
136.22365753595193
 20
116.83328128737263
 11
136.22365753595193
 21
117.28654109069294
  0
ARC
  8
_0-0_
  6
CONTINUOUS
 62
    7
 10
136.28363740707113
 20
117.91152957977239
 40
0.0499991591256489
 50
269.99999931964203
 51
0.0000086519442271
  0
LINE
  8
_0-0_
  6
CONTINUOUS
 62
    7
 10
136.33364296614059
 20
118.52474897262741
 11
136.33364296614059
 21
118.25547174701576
  0
LINE
  8
_0-0_
  6
CONTINUOUS
 62
    7
 10
136.33364296614059
 20
118.0438174133065
 11
136.33364296614059
 21
117.91152957977239
  0
LINE
  8
_0-0_
  6
CONTINUOUS
 62
    7
 10
136.28365580690885
 20
117.28654109069294
 11
136.28365580690885
 21
117.86153302062385
  0
LINE
  8
_0-0_
  6
CONTINUOUS
 62
    7
 10
136.33364236614568
 20
118.73641110626795
 11
136.19364660057732
 21
118.65558441896817
  0
LINE
  8
_0-0_
  6
CONTINUOUS
 62
    7
 10
136.19364040063206
 20
118.60558725982494
 11
136.33363616620042
 21
118.52476057252517
  0
LINE
  8
_0-0_
  6
CONTINUOUS
 62
    7
 10
136.33364216614763
 20
118.25547094702281
 11
136.19364640057901
 21
118.17464425972312
  0
LINE
  8
_0-0_
  6
CONTINUOUS
 62
    7
 10
136.19364060063037
 20
118.12464710057981
 11
136.33363636619873
 21
118.04382041328003
  0
LINE
  8
_0-0_
  6
CONTINUOUS
 62
    7
 10
136.28365580690885
 20
117.78653368194067
 11
136.12365161776759
 21
117.78653368194067
  0
LINE
  8
_0-0_
  6
CONTINUOUS
 62
    7
 10
136.28414260261647
 20
117.86153302062385
 11
136.12365161776759
 21
117.86153302062385
  0
ARC
  8
_0-0_
  6
CONTINUOUS
 62
    7
 10
136.27365389510237
 20
116.83328128737263
 40
0.0499995591221218
 50
180
 51
252.47202741258198
  0
LINE
  8
_0-0_
  6
CONTINUOUS
 62
    7
 10
136.28365580690885
 20
117.28654109069294
 11
136.12365161776759
 21
117.28654109069294
  0
LINE
  8
_0-0_
  6
CONTINUOUS
 62
    7
 10
136.19364180061967
 20
120.09837089700319
 11
136.19364180061967
 21
120.04836973789516
  0
LINE
  8
_0-0_
  6
CONTINUOUS
 62
    7
 10
136.19364180061967
 20
119.61743953768044
 11
136.19364180061967
 21
119.56743837857248
  0
LINE
  8
_0-0_
  6
CONTINUOUS
 62
    7
 10
136.19364180061967
 20
119.13650797835959
 11
136.19364180061967
 21
119.08651161920929
  0
LINE
  8
_0-0_
  6
CONTINUOUS
 62
    7
 10
136.33364296614059
 20
119.96754325059369
 11
136.33364296614059
 21
119.69827062494147
  0
LINE
  8
_0-0_
  6
CONTINUOUS
 62
    7
 10
136.33364296614059
 20
120.31148701782288
 11
136.33364296614059
 21
120.17919758430295
  0
LINE
  8
_0-0_
  6
CONTINUOUS
 62
    7
 10
137.88712686808583
 20
120.08650540162874
 11
136.55102944930584
 21
120.08650540162874
  0
LINE
  8
_0-0_
  6
CONTINUOUS
 62
    7
 10
136.33364296614059
 20
119.4866116912727
 11
136.33364296614059
 21
119.21733466565937
  0
LINE
  8
_0-0_
  6
CONTINUOUS
 62
    7
 10
136.28365580690885
 20
120.43648591562823
 11
136.12365161776759
 21
120.43648591562823
  0
LINE
  8
_0-0_
  6
CONTINUOUS
 62
    7
 10
136.28365580690885
 20
120.36148657694503
 11
136.12365161776759
 21
120.36148657694503
  0
LINE
  8
_0-0_
  6
CONTINUOUS
 62
    7
 10
136.33364056616176
 20
120.17919938428702
 11
136.1936448005934
 21
120.09837269698731
  0
LINE
  8
_0-0_
  6
CONTINUOUS
 62
    7
 10
136.19364180061967
 20
120.04837493784929
 11
136.33363756618826
 21
119.96754825054953
  0
LINE
  8
_0-0_
  6
CONTINUOUS
 62
    7
 10
136.19363860064789
 20
119.56744717849493
 11
136.33363456621481
 21
119.48662069119339
  0
LINE
  8
_0-0_
  6
CONTINUOUS
 62
    7
 10
136.33363896617584
 20
119.21733926561879
 11
136.19364320060726
 21
119.13651257831908
  0
LINE
  8
_0-0_
  6
CONTINUOUS
 62
    7
 10
136.19364340060554
 20
119.08651501917923
 11
136.33363936617218
 21
119.00568833187953
  0
LINE
  8
_0-0_
  6
CONTINUOUS
 62
    7
 10
136.33364376613352
 20
119.69827162493259
 11
136.19364800056519
 21
119.61744493763288
  0
LINE
  8
_0-0_
  6
CONTINUOUS
 62
    7
 10
138.22864225672794
 20
125.18174087370058
 11
138.06363951166185
 21
125.08647651370697
  0
LINE
  8
_0-0_
  6
CONTINUOUS
 62
    7
 10
138.22863585678436
 20
125.79121129961267
 11
138.06363711168302
 21
125.88647345962562
  0
ARC
  8
_0-0_
  6
CONTINUOUS
 62
    7
 10
138.16362763000308
 20
125.6786226923779
 40
0.1299988537175171
 50
359.99999499156797
 51
59.999996665018671
  0
ARC
  8
_0-0_
  6
CONTINUOUS
 62
    7
 10
138.16362763000308
 20
125.29431508106229
 40
0.1299988537175171
 50
299.99999332243999
 51
0.000008652779657
  0
LINE
  8
_0-0_
  6
CONTINUOUS
 62
    7
 10
138.29363128367828
 20
125.6786226923779
 11
138.29363128367828
 21
125.29431508106229
  0
LINE
  8
_0-0_
  6
CONTINUOUS
 62
    7
 10
136.12365161776759
 20
140.0863400503805
 11
136.12365161776759
 21
115.21656114302131
  0
ARC
  8
_0-0_
  6
CONTINUOUS
 62
    7
 10
136.65365554438611
 20
115.29655603765545
 40
0.0799992945953951
 50
270
 51
0
  0
LINE
  8
_0-0_
  6
CONTINUOUS
 62
    7
 10
136.67365776801404
 20
116.16654976636801
 11
136.6736529680561
 21
116.54458703297331
  0
ARC
  8
_0-0_
  6
CONTINUOUS
 62
    7
 10
136.28364340701836
 20
120.31148701782288
 40
0.0499995591221218
 50
0
 51
90
  0
ARC
  8
_0-0_
  6
CONTINUOUS
 62
    7
 10
136.52365429068976
 20
116.54458603298212
 40
0.1099990300686683
 50
359.99999499159298
 51
72.472027412763083
  0
ARC
  8
_0-0_
  6
CONTINUOUS
 62
    7
 10
136.52365429068976
 20
116.54458603298212
 40
0.1499986773663659
 50
359.999994991584
 51
72.47202741269507
  0
ARC
  8
_0-0_
  6
CONTINUOUS
 62
    7
 10
136.27365389510237
 20
116.83328128737263
 40
0.0899992064198195
 50
180
 51
252.47202741276996
  0
ARC
  8
_0-0_
  6
CONTINUOUS
 62
    7
 10
136.27365389510237
 20
116.83328128737263
 40
0.1499986773663659
 50
180
 51
252.47202741269501
  0
LINE
  8
_0-0_
  6
CONTINUOUS
 62
    7
 10
136.56882949235171
 20
116.68762017175918
 11
136.25859562788048
 21
116.78560310778141
  0
LINE
  8
_0-0_
  6
CONTINUOUS
 62
    7
 10
136.55678279857477
 20
116.6494777080855
 11
136.2465487341058
 21
116.74746064410772
  0
LINE
  8
_0-0_
  6
CONTINUOUS
 62
    7
 10
136.53871255791188
 20
116.59226401257504
 11
136.22847869344068
 21
116.69024694859726
  0
LINE
  8
_0-0_
  6
CONTINUOUS
 62
    7
 10
273.68132588436174
 20
143.6115807660936
 11
273.68132588436174
 21
134.61156392495988
  0
TEXT
  8
_0-0_
 62
    7
 10
273.2563351427969
 20
138.53657004554702
 40
1.2499999999997726
 41
0.9200000000001521
 50
90
  1
90
  0
LINE
  8
_0-0_
  6
CONTINUOUS
 62
    7
 10
269.74612798350159
 20
143.6115807660936
 11
273.88132412085031
 21
143.6115807660936
  0
LINE
  8
_0-0_
  6
CONTINUOUS
 62
    7
 10
269.74612798350159
 20
134.61156392495988
 11
273.88132412085031
 21
134.61156392495988
  0
POINT
  8
_0-0_
 62
    7
 10
273.68132588436174
 20
143.6115807660936
  0
POINT
  8
_0-0_
 62
    7
 10
273.68132588436174
 20
134.61156392495988
  0
LINE
  8
_0-0_
  6
CONTINUOUS
 62
    7
 10
295.16607383968972
 20
104.79825860781358
 11
304.20599532895869
 21
104.79825860781358
  0
TEXT
  8
_0-0_
 62
    7
 10
295.79106325862062
 20
105.22324934937818
 40
1.2499999999999432
 41
0.9199999999999206
 50
0
  1
20
  0
LINE
  8
_0-0_
  6
CONTINUOUS
 62
    7
 10
300.2660288701461
 20
113.25023388137792
 11
300.2660288701461
 21
104.59826037132507
  0
LINE
  8
_0-0_
  6
CONTINUOUS
 62
    7
 10
302.20601296407364
 20
114.50023805929692
 11
302.20601296407364
 21
104.59826037132507
  0
POINT
  8
_0-0_
 62
    7
 10
300.2660288701461
 20
104.79825860781358
  0
POINT
  8
_0-0_
 62
    7
 10
302.20601296407364
 20
104.79825860781358
  0
LINE
  8
_0-0_
  6
CONTINUOUS
 62
    7
 10
306.99761891343985
 20
163.12030374528894
 11
306.99761891343985
 21
115.1202325924113
  0
TEXT
  8
_0-0_
 62
    7
 10
306.57262817187552
 20
138.2803081701006
 40
1.25
 41
0.9199999999999495
 50
90
  1
480
  0
LINE
  8
_0-0_
  6
CONTINUOUS
 62
    7
 10
302.32601190596688
 20
163.12030374528894
 11
307.19761714992848
 21
163.12030374528894
  0
LINE
  8
_0-0_
  6
CONTINUOUS
 62
    7
 10
302.32601190596688
 20
115.1202325924113
 11
307.19761714992848
 21
115.1202325924113
  0
POINT
  8
_0-0_
 62
    7
 10
306.99761891343985
 20
163.12030374528894
  0
POINT
  8
_0-0_
 62
    7
 10
306.99761891343985
 20
115.1202325924113
  0
LINE
  8
_0-0_
  6
CONTINUOUS
 62
    7
 10
294.5714464828967
 20
144.92997034101512
 11
294.5714464828967
 21
133.32996582562453
  0
TEXT
  8
_0-0_
 62
    7
 10
294.14645574133215
 20
138.82390697684454
 40
1.2499999999997726
 41
0.9200000000001168
 50
90
  1
116
  0
LINE
  8
_0-0_
  6
CONTINUOUS
 62
    7
 10
299.78603450256117
 20
144.92997034101512
 11
294.37144824640842
 21
144.92997034101512
  0
LINE
  8
_0-0_
  6
CONTINUOUS
 62
    7
 10
299.78603450256117
 20
133.32996582562453
 11
294.37144824640842
 21
133.32996582562453
  0
POINT
  8
_0-0_
 62
    7
 10
294.5714464828967
 20
144.92997034101512
  0
POINT
  8
_0-0_
 62
    7
 10
294.5714464828967
 20
133.32996582562453
  0
LINE
  8
_0-0_
  6
CONTINUOUS
 62
    7
 10
206.83802888417762
 20
181.33589792682253
 11
206.83802888417762
 21
188.91212012245813
  0
LINE
  8
_0-0_
  6
CONTINUOUS
 62
    7
 10
219.69632130444435
 20
104.79005608014045
 11
269.59588130832236
 21
104.79005608014045
  0
TEXT
  8
_0-0_
 62
    7
 10
243.78360130638353
 20
105.21504682170499
 40
1.25
 41
0.9199999999999596
 50
0
  1
499
  0
LINE
  8
_0-0_
  6
CONTINUOUS
 62
    7
 10
219.69632130444435
 20
113.16204905895952
 11
219.69632130444435
 21
104.590057843652
  0
LINE
  8
_0-0_
  6
CONTINUOUS
 62
    7
 10
269.59588130832236
 20
113.16204905895952
 11
269.59588130832236
 21
104.590057843652
  0
POINT
  8
_0-0_
 62
    7
 10
219.69632130444435
 20
104.79005608014045
  0
POINT
  8
_0-0_
 62
    7
 10
269.59588130832236
 20
104.79005608014045
  0
TEXT
  8
_0-0_
 62
    7
 10
240.40352318975565
 20
99.39262183627423
 40
2.5939999999998804
 41
0.8268750000000015
 50
0
  1
【表面】
  0
TEXT
  8
_0-0_
 62
    7
 10
300.12936734904304
 20
99.39262183627423
 40
2.5939999999998804
 41
0.8268750000000015
 50
0
  1
【側面】
  0
LINE
  8
_0-0_
  6
CONTINUOUS
 62
    7
 10
219.69632430441783
 20
161.91160700313603
 11
219.69632430441783
 21
146.16175147961826
  0
LINE
  8
_0-0_
  6
CONTINUOUS
 62
    7
 10
219.77632239902388
 20
163.1200925471513
 11
219.77632239902388
 21
161.91160700313603
  0
ARC
  8
_0-0_
  6
CONTINUOUS
 62
    7
 10
219.64632794526767
 20
164.11159980440186
 40
1.56998615643463
 50
274.97184240028002
 51
355.02789116704002
  0
ARC
  8
_0-0_
  6
CONTINUOUS
 62
    7
 10
219.64632794526767
 20
164.11159980440186
 40
1.4999867736636594
 50
274.971842400284
 51
355.027891167039
  0
ARC
  8
_0-0_
  6
CONTINUOUS
 62
    7
 10
219.64632794526767
 20
164.11159980440186
 40
0.9999911824424394
 50
277.46954780956992
 51
352.53005683641396
  0
LINE
  8
_0-0_
  6
CONTINUOUS
 62
    7
 10
221.84630234669578
 20
163.98159615072666
 11
220.6378216026383
 21
163.98159615072666
  0
LINE
  8
_0-0_
  6
CONTINUOUS
 62
    7
 10
221.84630234669578
 20
163.98159615072666
 11
221.84630234669578
 21
164.06159424533257
  0
LINE
  8
_0-0_
  6
CONTINUOUS
 62
    7
 10
219.77632239902388
 20
161.91160700313603
 11
219.69632430441783
 21
161.91160700313603
  0
LINE
  8
_0-0_
  6
CONTINUOUS
 62
    7
 10
269.59587830834886
 20
161.91160700313603
 11
269.59587830834886
 21
146.16175487958827
  0
LINE
  8
_0-0_
  6
CONTINUOUS
 62
    7
 10
267.44589106615194
 20
164.06159424533257
 11
244.6461013063832
 21
164.06159424533257
  0
LINE
  8
_0-0_
  6
chain
 62
    7
 10
230.04623004272375
 20
154.71167968946929
 11
230.04623004272375
 21
152.71169732458446
  0
LINE
  8
_0-0_
  6
chain
 62
    7
 10
229.04623886028136
 20
153.71168850702691
 11
231.04622122516614
 21
153.71168850702691
  0
LINE
  8
_0-0_
  6
CONTINUOUS
 62
    7
 10
244.6461013063832
 20
164.06159424533257
 11
221.84630234669578
 21
164.06159424533257
  0
CIRCLE
  8
_0-0_
  6
CONTINUOUS
 62
    7
 10
230.04623004272375
 20
153.71168850702691
 40
0.2149981042251243
  0
CIRCLE
  8
_0-0_
  6
CONTINUOUS
 62
    7
 10
230.04623004272375
 20
153.71168850702691
 40
0.3999964729769756
  0
LINE
  8
_0-0_
  6
chain
 62
    7
 10
259.24597257004297
 20
154.71167968946929
 11
259.24597257004297
 21
152.71169732458446
  0
LINE
  8
_0-0_
  6
chain
 62
    7
 10
260.24596375248535
 20
153.71168850702691
 11
258.24598138760058
 21
153.71168850702691
  0
CIRCLE
  8
_0-0_
  6
CONTINUOUS
 62
    7
 10
259.24597257004297
 20
153.71168850702691
 40
0.2149981042251243
  0
CIRCLE
  8
_0-0_
  6
CONTINUOUS
 62
    7
 10
259.24597257004297
 20
153.71168850702691
 40
0.3999964729769756
  0
LINE
  8
_0-0_
  6
CONTINUOUS
 62
    7
 10
269.51588021374255
 20
163.1200925471513
 11
269.51588021374255
 21
161.91160700313603
  0
ARC
  8
_0-0_
  6
CONTINUOUS
 62
    7
 10
269.64587486749707
 20
164.11159980440186
 40
1.4999867736636594
 50
184.972061021961
 51
265.028157599716
  0
ARC
  8
_0-0_
  6
CONTINUOUS
 62
    7
 10
269.64587486749707
 20
164.11159980440186
 40
1.56998615643463
 50
184.97210883296
 51
265.02815759971998
  0
ARC
  8
_0-0_
  6
CONTINUOUS
 62
    7
 10
269.64587486749707
 20
164.11159980440186
 40
0.9999911824424394
 50
187.46994316358601
 51
262.53065453424603
  0
LINE
  8
_0-0_
  6
CONTINUOUS
 62
    7
 10
267.44589106615194
 20
163.98159615072666
 11
268.65438581008635
 21
163.98159615072666
  0
LINE
  8
_0-0_
  6
CONTINUOUS
 62
    7
 10
267.44589106615194
 20
163.98159615072666
 11
267.44589106615194
 21
164.06159424533257
  0
LINE
  8
_0-0_
  6
CONTINUOUS
 62
    7
 10
269.51588021374255
 20
161.91160700313603
 11
269.59587830834886
 21
161.91160700313603
  0
LINE
  8
_0-0_
  6
CONTINUOUS
 62
    7
 10
219.7463254635262
 20
144.91176450154757
 11
224.89627705313077
 21
144.91176450154757
  0
LINE
  8
_0-0_
  6
CONTINUOUS
 62
    7
 10
219.7463254635262
 20
145.43176111640707
 11
224.69650161467803
 21
145.43176111640707
  0
LINE
  8
_0-0_
  6
CONTINUOUS
 62
    7
 10
224.16627848999232
 20
143.61177756435825
 11
220.74631664596859
 21
143.61177756435825
  0
LINE
  8
_0-0_
  6
CONTINUOUS
 62
    7
 10
219.7463254635262
 20
146.11175392047846
 11
219.7463254635262
 21
144.61176874680072
  0
LINE
  8
_0-0_
  6
CONTINUOUS
 62
    7
 10
219.69632430441783
 20
146.16175147961826
 11
219.74632306354709
 21
146.11175292048731
  0
LINE
  8
_0-0_
  6
CONTINUOUS
 62
    7
 10
225.69649579709389
 20
144.4317715339505
 11
225.69649579709389
 21
139.11181724336731
  0
LINE
  8
_0-0_
  6
CONTINUOUS
 62
    7
 10
225.39626964437863
 20
144.41176751033868
 11
225.39626964437863
 21
139.11181724336731
  0
LINE
  8
_0-0_
  6
CONTINUOUS
 62
    7
 10
224.16627848999232
 20
139.11181724336731
 11
224.16627848999232
 21
143.61177756435825
  0
ARC
  8
_0-0_
  6
CONTINUOUS
 62
    7
 10
224.69650161467803
 20
144.4317715339505
 40
0.9999911824424394
 50
0.00000250462491
 51
90.000005009249804
  0
ARC
  8
_0-0_
  6
CONTINUOUS
 62
    7
 10
224.89627705313077
 20
144.41176751033868
 40
0.4999955912212196
 50
0.00000250462491
 51
90.000005009249804
  0
LINE
  8
_0-0_
  6
CONTINUOUS
 62
    7
 10
263.59570241571151
 20
144.4317715339505
 11
263.59570241571151
 21
139.11181724336731
  0
LINE
  8
_0-0_
  6
CONTINUOUS
 62
    7
 10
263.89593776834545
 20
144.41176751033868
 11
263.89593776834545
 21
139.11181724336731
  0
LINE
  8
_0-0_
  6
CONTINUOUS
 62
    7
 10
265.12591952281502
 20
139.11181724336731
 11
265.12591952281502
 21
143.61177756435825
  0
LINE
  8
_0-0_
  6
chain
 62
    7
 10
268.19834183131582
 20
144.21176927385014
 11
266.09348219120022
 21
144.21176927385014
  0
CIRCLE
  8
_0-0_
  6
CONTINUOUS
 62
    7
 10
267.14591211125691
 20
144.21176927385014
 40
0.2499977956106097
  0
LINE
  8
_0-0_
  6
CONTINUOUS
 62
    7
 10
269.54588174920013
 20
144.91176450154757
 11
264.39592115967434
 21
144.91176450154757
  0
LINE
  8
_0-0_
  6
CONTINUOUS
 62
    7
 10
269.54588174920013
 20
145.43176111640707
 11
264.59570579804637
 21
145.43176111640707
  0
LINE
  8
_0-0_
  6
CONTINUOUS
 62
    7
 10
265.12591952281502
 20
143.61177756435825
 11
268.54589056675775
 21
143.61177756435825
  0
LINE
  8
_0-0_
  6
chain
 62
    7
 10
267.14591211125691
 20
145.26419899390876
 11
267.14591211125691
 21
143.15933935379348
  0
CIRCLE
  8
_0-0_
  6
CONTINUOUS
 62
    7
 10
267.14591211125691
 20
144.21176927385014
 40
0.1249988978053048
  0
ARC
  8
_0-0_
  6
CONTINUOUS
 62
    7
 10
264.59570579804637
 20
144.4317715339505
 40
0.9999911824424394
 50
89.999991348872101
 51
180.00000068368598
  0
ARC
  8
_0-0_
  6
CONTINUOUS
 62
    7
 10
264.39592115967434
 20
144.41176751033868
 40
0.4999955912212196
 50
89.999991348872101
 51
180.00000068368598
  0
LINE
  8
_0-0_
  6
CONTINUOUS
 62
    7
 10
269.54588174920013
 20
146.11175392047846
 11
269.54588174920013
 21
144.61176874680072
  0
LINE
  8
_0-0_
  6
CONTINUOUS
 62
    7
 10
269.59587830834886
 20
146.16175487958827
 11
269.54587454926366
 21
146.11175112050324
  0
ARC
  8
_0-0_
  6
CONTINUOUS
 62
    7
 10
264.39592575963371
 20
133.81186697639589
 40
0.4999955912212196
 50
180.00000250462497
 51
270.00000500925
  0
ARC
  8
_0-0_
  6
CONTINUOUS
 62
    7
 10
264.59570119808672
 20
133.79186295278402
 40
0.9999911824424394
 50
180.00000250462497
 51
270.00000500925
  0
LINE
  8
_0-0_
  6
CONTINUOUS
 62
    7
 10
269.59587830834886
 20
116.31202748359858
 11
269.59587830834886
 21
132.0618828071182
  0
ARC
  8
_0-0_
  6
CONTINUOUS
 62
    7
 10
269.64587486749707
 20
114.11203468233276
 40
0.9999911824424394
 50
97.469547809570187
 51
172.53005683641399
  0
ARC
  8
_0-0_
  6
CONTINUOUS
 62
    7
 10
269.64587486749707
 20
114.11203468233276
 40
1.4999867736636594
 50
94.971842400283904
 51
175.027891167039
  0
ARC
  8
_0-0_
  6
CONTINUOUS
 62
    7
 10
269.64587486749707
 20
114.11203468233276
 40
1.56998615643463
 50
94.971842400280011
 51
175.02789116704002
  0
LINE
  8
_0-0_
  6
CONTINUOUS
 62
    7
 10
267.44590026607091
 20
114.24203833600797
 11
268.6543812101267
 21
114.24203833600797
  0
LINE
  8
_0-0_
  6
CONTINUOUS
 62
    7
 10
269.51588021374255
 20
115.10354193958338
 11
269.51588021374255
 21
116.31202748359858
  0
LINE
  8
_0-0_
  6
CONTINUOUS
 62
    7
 10
269.51588021374255
 20
116.31202748359858
 11
269.59587830834886
 21
116.31202748359858
  0
LINE
  8
_0-0_
  6
CONTINUOUS
 62
    7
 10
267.44590026607091
 20
114.24203833600797
 11
267.44590026607091
 21
114.16204024140198
  0
LINE
  8
_0-0_
  6
CONTINUOUS
 62
    7
 10
269.54587714924048
 20
132.11188036625788
 11
269.54587714924048
 21
133.6118657399339
  0
LINE
  8
_0-0_
  6
CONTINUOUS
 62
    7
 10
269.54587714924048
 20
132.7918731703293
 11
264.59570119808672
 21
132.7918731703293
  0
LINE
  8
_0-0_
  6
CONTINUOUS
 62
    7
 10
269.59587830834886
 20
132.0618828071182
 11
269.54587954921959
 21
132.11188156624723
  0
LINE
  8
_0-0_
  6
CONTINUOUS
 62
    7
 10
265.12592412277439
 20
134.61185692237629
 11
268.5458859667981
 21
134.61185692237629
  0
LINE
  8
_0-0_
  6
CONTINUOUS
 62
    7
 10
269.54587714924048
 20
133.3118697851888
 11
264.39592575963371
 21
133.3118697851888
  0
LINE
  8
_0-0_
  6
CONTINUOUS
 62
    7
 10
265.12592412277439
 20
139.11181724336731
 11
265.12592412277439
 21
134.61185692237629
  0
LINE
  8
_0-0_
  6
CONTINUOUS
 62
    7
 10
221.84631154661449
 20
114.16204024140198
 11
244.6461013063832
 21
114.16204024140198
  0
LINE
  8
_0-0_
  6
CONTINUOUS
 62
    7
 10
244.6461013063832
 20
114.16204024140198
 11
267.44590026607091
 21
114.16204024140198
  0
LINE
  8
_0-0_
  6
chain
 62
    7
 10
260.24596375248535
 20
124.51194597970769
 11
258.24598138760058
 21
124.51194597970769
  0
LINE
  8
_0-0_
  6
chain
 62
    7
 10
259.24597257004297
 20
123.51195479726525
 11
259.24597257004297
 21
125.51193716215009
  0
CIRCLE
  8
_0-0_
  6
CONTINUOUS
 62
    7
 10
259.24597257004297
 20
124.51194597970769
 40
0.2149981042251243
  0
CIRCLE
  8
_0-0_
  6
CONTINUOUS
 62
    7
 10
259.24597257004297
 20
124.51194597970769
 40
0.3999964729769756
  0
LINE
  8
_0-0_
  6
CONTINUOUS
 62
    7
 10
263.89593316838608
 20
133.81186697639589
 11
263.89593316838608
 21
139.11181724336731
  0
LINE
  8
_0-0_
  6
CONTINUOUS
 62
    7
 10
263.59570681567254
 20
133.79186295278402
 11
263.59570681567254
 21
139.11181724336731
  0
LINE
  8
_0-0_
  6
chain
 62
    7
 10
230.04623004272375
 20
123.51195479726525
 11
230.04623004272375
 21
125.51193716215009
  0
CIRCLE
  8
_0-0_
  6
CONTINUOUS
 62
    7
 10
230.04623004272375
 20
124.51194597970769
 40
0.2149981042251243
  0
CIRCLE
  8
_0-0_
  6
CONTINUOUS
 62
    7
 10
230.04623004272375
 20
124.51194597970769
 40
0.3999964729769756
  0
LINE
  8
_0-0_
  6
CONTINUOUS
 62
    7
 10
219.69632430441783
 20
116.31202748359858
 11
219.69632430441783
 21
132.06187960714627
  0
LINE
  8
_0-0_
  6
CONTINUOUS
 62
    7
 10
221.84631154661449
 20
114.24203833600797
 11
220.63781700267867
 21
114.24203833600797
  0
LINE
  8
_0-0_
  6
CONTINUOUS
 62
    7
 10
221.84631154661449
 20
114.24203833600797
 11
221.84631154661449
 21
114.16204024140198
  0
ARC
  8
_0-0_
  6
CONTINUOUS
 62
    7
 10
219.64632794526767
 20
114.11203468233276
 40
1.56998615643463
 50
4.9721088329596803
 51
85.028157599720004
  0
ARC
  8
_0-0_
  6
CONTINUOUS
 62
    7
 10
219.64632794526767
 20
114.11203468233276
 40
1.4999867736636594
 50
4.9720610219608199
 51
85.028157599716067
  0
LINE
  8
_0-0_
  6
CONTINUOUS
 62
    7
 10
219.77632239902388
 20
115.10354193958338
 11
219.77632239902388
 21
116.31202748359858
  0
ARC
  8
_0-0_
  6
CONTINUOUS
 62
    7
 10
219.64632794526767
 20
114.11203468233276
 40
0.9999911824424394
 50
7.4699431635855689
 51
82.530654534246395
  0
LINE
  8
_0-0_
  6
CONTINUOUS
 62
    7
 10
219.77632239902388
 20
116.31202748359858
 11
219.69632430441783
 21
116.31202748359858
  0
LINE
  8
_0-0_
  6
CONTINUOUS
 62
    7
 10
219.74632086356658
 20
132.11188036625788
 11
219.74632086356658
 21
133.6118657399339
  0
ARC
  8
_0-0_
  6
CONTINUOUS
 62
    7
 10
224.6964970147184
 20
133.79186295278402
 40
0.9999911824424394
 50
269.99999134887202
 51
0.0000006836858894
  0
LINE
  8
_0-0_
  6
CONTINUOUS
 62
    7
 10
219.74632086356658
 20
132.7918731703293
 11
224.6964970147184
 21
132.7918731703293
  0
LINE
  8
_0-0_
  6
CONTINUOUS
 62
    7
 10
219.69632430441783
 20
132.06187960714627
 11
219.74632806350306
 21
132.11188316623321
  0
LINE
  8
_0-0_
  6
CONTINUOUS
 62
    7
 10
224.16628308995169
 20
134.61185692237629
 11
220.74631204600897
 21
134.61185692237629
  0
LINE
  8
_0-0_
  6
CONTINUOUS
 62
    7
 10
219.74632086356658
 20
133.3118697851888
 11
224.8962816530904
 21
133.3118697851888
  0
LINE
  8
_0-0_
  6
CONTINUOUS
 62
    7
 10
224.16628308995169
 20
139.11181724336731
 11
224.16628308995169
 21
134.61185692237629
  0
LINE
  8
_0-0_
  6
CONTINUOUS
 62
    7
 10
225.39626504441901
 20
133.81186697639589
 11
225.39626504441901
 21
139.11181724336731
  0
LINE
  8
_0-0_
  6
CONTINUOUS
 62
    7
 10
225.69650039705351
 20
133.79186295278402
 11
225.69650039705351
 21
139.11181724336731
  0
ARC
  8
_0-0_
  6
CONTINUOUS
 62
    7
 10
224.8962816530904
 20
133.81186697639589
 40
0.4999955912212196
 50
269.99999134887202
 51
0.0000006836858894
  0
CIRCLE
  8
_0-0_
  6
CONTINUOUS
 62
    7
 10
222.14629050150927
 20
134.0118652128844
 40
0.1249988978053048
  0
CIRCLE
  8
_0-0_
  6
CONTINUOUS
 62
    7
 10
222.14629050150927
 20
134.0118652128844
 40
0.2499977956106097
  0
LINE
  8
_0-0_
  6
chain
 62
    7
 10
259.24597257004297
 20
123.01195920604398
 11
259.24597257004297
 21
126.01193275337135
  0
LINE
  8
_0-0_
  6
chain
 62
    7
 10
230.04623004272375
 20
123.01195920604398
 11
230.04623004272375
 21
126.01193275337135
  0
LINE
  8
_0-0_
  6
chain
 62
    7
 10
267.14591211125691
 20
132.95943549282592
 11
267.14591211125691
 21
135.0642951329412
  0
LINE
  8
_0-0_
  6
chain
 62
    7
 10
268.19834183131582
 20
134.0118652128844
 11
266.09348219120022
 21
134.0118652128844
  0
CIRCLE
  8
_0-0_
  6
CONTINUOUS
 62
    7
 10
267.14591211125691
 20
134.0118652128844
 40
0.2499977956106097
  0
CIRCLE
  8
_0-0_
  6
CONTINUOUS
 62
    7
 10
267.14591211125691
 20
134.0118652128844
 40
0.1249988978053048
  0
CIRCLE
  8
_0-0_
  6
CONTINUOUS
 62
    7
 10
222.14629050150927
 20
144.21176927385014
 40
0.1249988978053048
  0
CIRCLE
  8
_0-0_
  6
CONTINUOUS
 62
    7
 10
222.14629050150927
 20
144.21176927385014
 40
0.2499977956106097
  0
ARC
  8
_0-0_
  6
CONTINUOUS
 62
    7
 10
268.5458859667981
 20
133.6118657399339
 40
0.9999911824424394
 50
0
 51
90
  0
ARC
  8
_0-0_
  6
CONTINUOUS
 62
    7
 10
268.54589056675775
 20
144.61176874680072
 40
0.9999911824424394
 50
270
 51
0
  0
ARC
  8
_0-0_
  6
CONTINUOUS
 62
    7
 10
220.74631664596859
 20
144.61176874680072
 40
0.9999911824424394
 50
180
 51
270
  0
ARC
  8
_0-0_
  6
CONTINUOUS
 62
    7
 10
220.74631204600897
 20
133.6118657399339
 40
0.9999911824424394
 50
90
 51
180
  0
LINE
  8
_0-0_
  6
chain
 62
    7
 10
231.04622122516614
 20
124.51194597970769
 11
229.04623886028136
 21
124.51194597970769
  0
LINE
  8
_0-0_
  6
CONTINUOUS
 62
    7
 10
269.57591088441416
 20
128.28796188417653
 11
265.12591952281502
 21
128.28796188417653
  0
TEXT
  8
_0-0_
 62
    7
 10
266.20091510361544
 20
128.71295262574114
 40
1.2499999999999432
 41
0.9200000000000719
 50
0
  1
44.7
  0
LINE
  8
_0-0_
  6
CONTINUOUS
 62
    7
 10
269.57591088441416
 20
129.46561710004232
 11
269.57591088441416
 21
128.08796364768801
  0
LINE
  8
_0-0_
  6
CONTINUOUS
 62
    7
 10
265.12591952281502
 20
133.82396406972816
 11
265.12591952281502
 21
128.08796364768801
  0
POINT
  8
_0-0_
 62
    7
 10
269.57591088441416
 20
128.28796188417653
  0
POINT
  8
_0-0_
 62
    7
 10
265.12591952281502
 20
128.28796188417653
  0
LINE
  8
_0-0_
  6
chain
 62
    7
 10
304.14599045805988
 20
139.1200221710192
 11
298.7860419201312
 21
139.1200221710192
  0
LINE
  8
_0-0_
  6
CONTINUOUS
 62
    7
 10
300.42603305928759
 20
119.39516869758371
 11
300.42603305928759
 21
132.69481462615619
  0
LINE
  8
_0-0_
  6
CONTINUOUS
 62
    7
 10
302.20601176408434
 20
115.46843332210425
 11
302.20601176408434
 21
139.1200221710192
  0
LINE
  8
_0-0_
  6
CONTINUOUS
 62
    7
 10
300.2660288701461
 20
139.1200221710192
 11
300.2660288701461
 21
114.25024326365985
  0
LINE
  8
_0-0_
  6
CONTINUOUS
 62
    7
 10
300.47601801853824
 20
119.21288130492754
 11
300.3360220529716
 21
119.132054817626
  0
LINE
  8
_0-0_
  6
CONTINUOUS
 62
    7
 10
300.36603478833013
 20
115.8669634080113
 11
300.36603478833013
 21
116.32022321133162
  0
LINE
  8
_0-0_
  6
CONTINUOUS
 62
    7
 10
300.32603634102225
 20
115.86590921730678
 11
300.32603634102225
 21
116.32022321133162
  0
LINE
  8
_0-0_
  6
CONTINUOUS
 62
    7
 10
300.87603209136017
 20
114.96887112706145
 11
301.85913522271528
 21
115.08988266002589
  0
LINE
  8
_0-0_
  6
CONTINUOUS
 62
    7
 10
301.82697770626834
 20
115.12023379240065
 11
300.87603209136017
 21
115.12023379240065
  0
LINE
  8
_0-0_
  6
CONTINUOUS
 62
    7
 10
300.87603209136017
 20
114.33023795829583
 11
300.87603209136017
 21
115.41370800465211
  0
LINE
  8
_0-0_
  6
CONTINUOUS
 62
    7
 10
300.71603710213736
 20
114.25023866370043
 11
300.71603710213736
 21
115.57826815362067
  0
LINE
  8
_0-0_
  6
CONTINUOUS
 62
    7
 10
300.79603279676485
 20
114.25023866370043
 11
300.26603687007548
 21
114.25023866370043
  0
ARC
  8
_0-0_
  6
CONTINUOUS
 62
    7
 10
300.34603616467086
 20
114.25024326365985
 40
0.0799992945953951
 50
179.99999931631399
 51
270.00000933476201
  0
ARC
  8
_0-0_
  6
CONTINUOUS
 62
    7
 10
300.34603496468156
 20
114.25024326365985
 40
0.0799992945953951
 50
269.99999567433201
 51
359.998693612919
  0
ARC
  8
_0-0_
  6
CONTINUOUS
 62
    7
 10
300.79603279676485
 20
114.33023795829583
 40
0.0799992945953951
 50
270
 51
0
  0
ARC
  8
_0-0_
  6
CONTINUOUS
 62
    7
 10
300.41603134747885
 20
115.8669634080113
 40
0.0499995591221218
 50
179.36680734765201
 51
252.47202741607697
  0
ARC
  8
_0-0_
  6
CONTINUOUS
 62
    7
 10
300.66603154306847
 20
115.57826815362067
 40
0.0499995591221218
 50
359.99999499075
 51
72.472027416076514
  0
LINE
  8
_0-0_
  6
CONTINUOUS
 62
    7
 10
300.81603502039223
 20
115.20023188700662
 11
300.81603022043487
 21
115.57826915361193
  0
LINE
  8
_0-0_
  6
CONTINUOUS
 62
    7
 10
300.81603502039223
 20
115.20023188700662
 11
300.77603537309489
 21
115.20023188700662
  0
ARC
  8
_0-0_
  6
CONTINUOUS
 62
    7
 10
300.79603399675415
 20
115.20022268708783
 40
0.0799992945953951
 50
270.00000250467701
 51
359.999991348859
  0
LINE
  8
_0-0_
  6
CONTINUOUS
 62
    7
 10
300.87603209136017
 20
115.41370800465211
 11
300.81603382040328
 21
115.41370800465211
  0
LINE
  8
_0-0_
  6
CONTINUOUS
 62
    7
 10
300.77603537309489
 20
115.20023188700662
 11
300.77603057313695
 21
115.57826815362067
  0
ARC
  8
_0-0_
  6
CONTINUOUS
 62
    7
 10
300.79603519674367
 20
115.20023188700662
 40
0.0799992945953951
 50
180
 51
270.00000250467701
  0
ARC
  8
_0-0_
  6
CONTINUOUS
 62
    7
 10
301.82601651474386
 20
115.46843332210425
 40
0.3799966493281269
 50
274.99999467688804
 51
359.99999134886906
  0
ARC
  8
_0-0_
  6
CONTINUOUS
 62
    7
 10
301.82601651474386
 20
115.50022924173936
 40
0.3799966493281269
 50
269.99999567441398
 51
359.999991348869
  0
LINE
  8
_0-0_
  6
CONTINUOUS
 62
    7
 10
302.07148995024863
 20
119.12018752226743
 11
300.69340670168401
 21
119.12018752226743
  0
LINE
  8
_0-0_
  6
CONTINUOUS
 62
    7
 10
300.33601765301029
 20
117.63926938046347
 11
300.47601341857887
 21
117.55844269316378
  0
LINE
  8
_0-0_
  6
CONTINUOUS
 62
    7
 10
300.42603305928759
 20
116.32022321133162
 11
300.42603305928759
 21
116.89521514126247
  0
LINE
  8
_0-0_
  6
CONTINUOUS
 62
    7
 10
300.42603305928759
 20
116.32022321133162
 11
300.2660288701461
 21
116.32022321133162
  0
LINE
  8
_0-0_
  6
CONTINUOUS
 62
    7
 10
300.33601925299644
 20
117.20832718035467
 11
300.33601925299644
 21
117.15833082120437
  0
ARC
  8
_0-0_
  6
CONTINUOUS
 62
    7
 10
300.42601465944961
 20
116.94521150041277
 40
0.0499991591256489
 50
269.99999931630703
 51
0.0000086511103238
  0
LINE
  8
_0-0_
  6
CONTINUOUS
 62
    7
 10
300.47602041851707
 20
117.55843089326778
 11
300.47602041851707
 21
117.28915386765445
  0
LINE
  8
_0-0_
  6
CONTINUOUS
 62
    7
 10
300.47602041851707
 20
117.07749953394517
 11
300.47602041851707
 21
116.94521150041277
  0
LINE
  8
_0-0_
  6
CONTINUOUS
 62
    7
 10
300.42603305928759
 20
116.82021580257927
 11
300.2660288701461
 21
116.82021580257927
  0
LINE
  8
_0-0_
  6
CONTINUOUS
 62
    7
 10
300.42651985499521
 20
116.89521514126247
 11
300.2660288701461
 21
116.89521514126247
  0
LINE
  8
_0-0_
  6
CONTINUOUS
 62
    7
 10
300.47601961852411
 20
117.28915286766326
 11
300.33602365295775
 21
117.20832638036173
  0
LINE
  8
_0-0_
  6
CONTINUOUS
 62
    7
 10
300.33601785300857
 20
117.15832902122025
 11
300.47601361857721
 21
117.0775025339187
  0
LINE
  8
_0-0_
  6
CONTINUOUS
 62
    7
 10
300.33601925299644
 20
118.17019009899828
 11
300.33601925299644
 21
118.12019353984974
  0
LINE
  8
_0-0_
  6
CONTINUOUS
 62
    7
 10
300.33602085298207
 20
118.12019693981975
 11
300.47601661855066
 21
118.03937045251821
  0
LINE
  8
_0-0_
  6
CONTINUOUS
 62
    7
 10
300.47602041851707
 20
118.03936245258876
 11
300.47602041851707
 21
117.77008982693656
  0
LINE
  8
_0-0_
  6
CONTINUOUS
 62
    7
 10
300.33601925299644
 20
118.65112145832096
 11
300.33601925299644
 21
118.60112049921116
  0
LINE
  8
_0-0_
  6
CONTINUOUS
 62
    7
 10
300.33601925299644
 20
119.13205301764188
 11
300.33601925299644
 21
119.08205185853377
  0
LINE
  8
_0-0_
  6
CONTINUOUS
 62
    7
 10
300.47602041851707
 20
119.001225171234
 11
300.47602041851707
 21
118.73195274558016
  0
LINE
  8
_0-0_
  6
CONTINUOUS
 62
    7
 10
300.47602041851707
 20
118.52029381191139
 11
300.47602041851707
 21
118.25101678629804
  0
LINE
  8
_0-0_
  6
CONTINUOUS
 62
    7
 10
300.33601925299644
 20
119.08205705848798
 11
300.47601501856479
 21
119.0012303711882
  0
LINE
  8
_0-0_
  6
CONTINUOUS
 62
    7
 10
300.33601605302465
 20
118.60112929913353
 11
300.47601181859301
 21
118.52030261183377
  0
LINE
  8
_0-0_
  6
CONTINUOUS
 62
    7
 10
300.47601621855404
 20
118.25102138625748
 11
300.33602045298596
 21
118.17019469895777
  0
LINE
  8
_0-0_
  6
CONTINUOUS
 62
    7
 10
300.47602101851203
 20
118.73195354557311
 11
300.33602525294339
 21
118.65112705827156
  0
LINE
  8
_0-0_
  6
CONTINUOUS
 62
    7
 10
300.33601925299644
 20
117.68925873967559
 11
300.33601925299644
 21
117.63926218052698
  0
LINE
  8
_0-0_
  6
CONTINUOUS
 62
    7
 10
300.47601981852245
 20
117.7700932269065
 11
300.33602385295603
 21
117.68926653960679
  0
LINE
  8
_0-0_
  6
CONTINUOUS
 62
    7
 10
301.99084026138826
 20
119.26413165302058
 11
300.71065894956024
 21
119.5542524948408
  0
LINE
  8
_0-0_
  6
CONTINUOUS
 62
    7
 10
300.42603305928759
 20
119.4701680362669
 11
300.2660288701461
 21
119.4701680362669
  0
LINE
  8
_0-0_
  6
CONTINUOUS
 62
    7
 10
300.42603305928759
 20
119.39516869758371
 11
300.2660288701461
 21
119.39516869758371
  0
LINE
  8
_0-0_
  6
CONTINUOUS
 62
    7
 10
300.47602041851707
 20
119.34516753847568
 11
300.47602041851707
 21
119.21287950494334
  0
ARC
  8
_0-0_
  6
CONTINUOUS
 62
    7
 10
300.42601465944961
 20
119.34516753847568
 40
0.0499991591256489
 50
359.99999499069997
 51
89.999997495349973
  0
LINE
  8
_0-0_
  6
CONTINUOUS
 62
    7
 10
302.30601088232851
 20
124.22409031791391
 11
302.30601088232851
 21
124.81621149680534
  0
ARC
  8
_0-0_
  6
CONTINUOUS
 62
    7
 10
302.22601298772105
 20
124.22409031791391
 40
0.0799992945953951
 50
300.000002657209
 51
359.99999749538802
  0
LINE
  8
_0-0_
  6
CONTINUOUS
 62
    7
 10
302.26601103503282
 20
124.88549308590554
 11
302.20601256407758
 21
124.92013338046004
  0
ARC
  8
_0-0_
  6
CONTINUOUS
 62
    7
 10
302.22601298772105
 20
124.81621149680534
 40
0.0799992945953951
 50
359.99999749538802
 51
59.999999164248877
  0
LINE
  8
_0-0_
  6
CONTINUOUS
 62
    7
 10
302.20600956410357
 20
124.12016703427149
 11
302.26601083503454
 21
124.15480872881365
  0
LINE
  8
_0-0_
  6
CONTINUOUS
 62
    7
 10
301.90602540925454
 20
136.80765856059821
 11
301.90602540925454
 21
139.1200221710192
  0
LINE
  8
_0-0_
  6
CONTINUOUS
 62
    7
 10
300.98602712146391
 20
138.36936419004752
 11
302.20601176408434
 21
135.56006916138662
  0
LINE
  8
_0-0_
  6
CONTINUOUS
 62
    7
 10
302.20601176408434
 20
136.2984286508019
 11
300.98602692146562
 21
138.36936639002818
  0
LINE
  8
_0-0_
  6
CONTINUOUS
 62
    7
 10
300.78602568500384
 20
133.33078461840469
 11
300.78602568500384
 21
139.1200221710192
  0
LINE
  8
_0-0_
  6
CONTINUOUS
 62
    7
 10
300.94602427419477
 20
133.33078461840469
 11
300.94602427419477
 21
139.1200221710192
  0
LINE
  8
_0-0_
  6
CONTINUOUS
 62
    7
 10
301.18109500142646
 20
133.33887814703888
 11
301.72408761351602
 21
133.26025324032469
  0
ARC
  8
_0-0_
  6
CONTINUOUS
 62
    7
 10
301.20601938165242
 20
133.63782871100187
 40
0.2999973547327318
 50
209.92736948299901
 51
265.23418587593397
  0
ARC
  8
_0-0_
  6
CONTINUOUS
 62
    7
 10
300.47603261840953
 20
132.69481462615619
 40
0.0499995591221218
 50
135.52874823054702
 51
180.00000000000003
  0
LINE
  8
_0-0_
  6
CONTINUOUS
 62
    7
 10
300.42603305928759
 20
132.1100809821242
 11
300.2660288701461
 21
132.1100809821242
  0
ARC
  8
_0-0_
  6
CONTINUOUS
 62
    7
 10
300.73602612588161
 20
133.33078461840469
 40
0.0499995591221218
 50
315.52874823054702
 51
0
  0
LINE
  8
_0-0_
  6
CONTINUOUS
 62
    7
 10
300.88602480324801
 20
134.6100619382039
 11
300.86602357961158
 21
134.6100619382039
  0
ARC
  8
_0-0_
  6
CONTINUOUS
 62
    7
 10
300.86602497959916
 20
134.53006264360843
 40
0.0799992945953951
 50
0
 51
90
  0
ARC
  8
_0-0_
  6
CONTINUOUS
 62
    7
 10
300.86602357961158
 20
134.53006384359787
 40
0.0799992945953951
 50
90
 51
180.00000250461201
  0
ARC
  8
_0-0_
  6
CONTINUOUS
 62
    7
 10
301.62602127822902
 20
132.68860908087439
 40
0.5799948858166148
 50
359.99999749537693
 51
80.265576828249849
  0
ARC
  8
_0-0_
  6
CONTINUOUS
 62
    7
 10
300.73602612588161
 20
133.33078461840469
 40
0.2099981483129121
 50
315.528748230519
 51
0.0000000000000254
  0
ARC
  8
_0-0_
  6
CONTINUOUS
 62
    7
 10
300.47603261840953
 20
132.69481462615619
 40
0.2099981483129121
 50
135.528748230519
 51
180
  0
LINE
  8
_0-0_
  6
CONTINUOUS
 62
    7
 10
300.77170581127137
 20
133.29575732726261
 11
300.32617753977701
 21
132.84192912895412
  0
LINE
  8
_0-0_
  6
CONTINUOUS
 62
    7
 10
300.88588120451442
 20
133.18367011560673
 11
300.44035273302177
 21
132.72984191729824
  0
LINE
  8
_0-0_
  6
CONTINUOUS
 62
    7
 10
302.20601176408434
 20
162.77161101993428
 11
302.20601176408434
 21
139.1200221710192
  0
LINE
  8
_0-0_
  6
CONTINUOUS
 62
    7
 10
300.42603305928759
 20
158.84487564445476
 11
300.42603305928759
 21
145.54522971588239
  0
LINE
  8
_0-0_
  6
CONTINUOUS
 62
    7
 10
300.2660288701461
 20
139.1200221710192
 11
300.2660288701461
 21
163.98980107837855
  0
LINE
  8
_0-0_
  6
CONTINUOUS
 62
    7
 10
300.94602427419477
 20
144.90925972363385
 11
300.94602427419477
 21
139.1200221710192
  0
LINE
  8
_0-0_
  6
CONTINUOUS
 62
    7
 10
300.78602568500384
 20
144.90925972363385
 11
300.78602568500384
 21
139.1200221710192
  0
LINE
  8
_0-0_
  6
CONTINUOUS
 62
    7
 10
300.98602712146391
 20
139.87068015199088
 11
302.20601176408434
 21
142.67997518065192
  0
LINE
  8
_0-0_
  6
CONTINUOUS
 62
    7
 10
302.20601176408434
 20
141.94161569123656
 11
300.98602692146562
 21
139.87067795201034
  0
LINE
  8
_0-0_
  6
CONTINUOUS
 62
    7
 10
301.90602540925454
 20
141.43238578144019
 11
301.90602540925454
 21
139.1200221710192
  0
ARC
  8
_0-0_
  6
CONTINUOUS
 62
    7
 10
300.86602497959916
 20
143.70998169843011
 40
0.0799992945953951
 50
270
 51
0
  0
ARC
  8
_0-0_
  6
CONTINUOUS
 62
    7
 10
300.86602357961158
 20
143.70998049844061
 40
0.0799992945953951
 50
179.99999749538796
 51
270
  0
LINE
  8
_0-0_
  6
CONTINUOUS
 62
    7
 10
300.88602480324801
 20
143.62998240383462
 11
300.86602357961158
 21
143.62998240383462
  0
LINE
  8
_0-0_
  6
CONTINUOUS
 62
    7
 10
301.18109500142646
 20
144.90116619499958
 11
301.72408761351602
 21
144.97979110171383
  0
ARC
  8
_0-0_
  6
CONTINUOUS
 62
    7
 10
300.47603261840953
 20
145.54522971588239
 40
0.0499995591221218
 50
180
 51
224.471251769453
  0
ARC
  8
_0-0_
  6
CONTINUOUS
 62
    7
 10
300.47603261840953
 20
145.54522971588239
 40
0.2099981483129121
 50
180
 51
224.471251769481
  0
ARC
  8
_0-0_
  6
CONTINUOUS
 62
    7
 10
300.73602612588161
 20
144.90925972363385
 40
0.2099981483129121
 50
0
 51
44.4712517694811
  0
ARC
  8
_0-0_
  6
CONTINUOUS
 62
    7
 10
300.73602612588161
 20
144.90925972363385
 40
0.0499995591221218
 50
0
 51
44.471251769453097
  0
LINE
  8
_0-0_
  6
CONTINUOUS
 62
    7
 10
300.88588120451442
 20
145.05637422643173
 11
300.44035273302177
 21
145.51020242474021
  0
LINE
  8
_0-0_
  6
CONTINUOUS
 62
    7
 10
300.77170581127137
 20
144.94428701477585
 11
300.32617753977701
 21
145.39811521308434
  0
ARC
  8
_0-0_
  6
CONTINUOUS
 62
    7
 10
301.20601938165242
 20
144.60221563103659
 40
0.2999973547327318
 50
94.765814124065898
 51
150.07263051700099
  0
LINE
  8
_0-0_
  6
CONTINUOUS
 62
    7
 10
300.42603305928759
 20
146.12996335991429
 11
300.2660288701461
 21
146.12996335991429
  0
ARC
  8
_0-0_
  6
CONTINUOUS
 62
    7
 10
301.62602127822902
 20
145.5514352611641
 40
0.5799948858166148
 50
279.73442317175
 51
0.0000025046230987
  0
LINE
  8
_0-0_
  6
CONTINUOUS
 62
    7
 10
302.30601088232851
 20
154.01595402412457
 11
302.30601088232851
 21
153.42383284523311
  0
ARC
  8
_0-0_
  6
CONTINUOUS
 62
    7
 10
302.22601298772105
 20
154.01595402412457
 40
0.0799992945953951
 50
0.00000250461196
 51
59.999997342790572
  0
LINE
  8
_0-0_
  6
CONTINUOUS
 62
    7
 10
302.26601103503282
 20
153.35455125613294
 11
302.20601256407758
 21
153.31991096157844
  0
ARC
  8
_0-0_
  6
CONTINUOUS
 62
    7
 10
302.22601298772105
 20
153.42383284523311
 40
0.0799992945953951
 50
300.000000835751
 51
0.0000025046119922
  0
LINE
  8
_0-0_
  6
CONTINUOUS
 62
    7
 10
302.20600956410357
 20
154.1198773077669
 11
302.26601083503454
 21
154.08523561322477
  0
LINE
  8
_0-0_
  6
CONTINUOUS
 62
    7
 10
300.87603209136017
 20
163.90980638374259
 11
300.87603209136017
 21
162.82633633738635
  0
LINE
  8
_0-0_
  6
CONTINUOUS
 62
    7
 10
300.71603710213736
 20
163.98980567833803
 11
300.71603710213736
 21
162.66177618841772
  0
LINE
  8
_0-0_
  6
CONTINUOUS
 62
    7
 10
300.33601765301029
 20
160.60077496157493
 11
300.47601341857887
 21
160.68160164887468
  0
LINE
  8
_0-0_
  6
CONTINUOUS
 62
    7
 10
302.05460669911901
 20
159.11985681977103
 11
300.69340670168401
 21
159.11985681977103
  0
LINE
  8
_0-0_
  6
CONTINUOUS
 62
    7
 10
301.95120861084564
 20
158.96693116821362
 11
300.71065894956024
 21
158.68579184719761
  0
LINE
  8
_0-0_
  6
CONTINUOUS
 62
    7
 10
300.47601801853824
 20
159.02716303711099
 11
300.3360220529716
 21
159.10798952441255
  0
LINE
  8
_0-0_
  6
CONTINUOUS
 62
    7
 10
300.42603305928759
 20
158.84487564445476
 11
300.2660288701461
 21
158.84487564445476
  0
LINE
  8
_0-0_
  6
CONTINUOUS
 62
    7
 10
300.42603305928759
 20
158.76987630577156
 11
300.2660288701461
 21
158.76987630577156
  0
LINE
  8
_0-0_
  6
CONTINUOUS
 62
    7
 10
300.47602041851707
 20
158.89487680356274
 11
300.47602041851707
 21
159.02716483709514
  0
ARC
  8
_0-0_
  6
CONTINUOUS
 62
    7
 10
300.42601465944961
 20
158.89487680356274
 40
0.0499991591256489
 50
270.00000250465001
 51
0.0000050093000888
  0
LINE
  8
_0-0_
  6
CONTINUOUS
 62
    7
 10
300.33601925299644
 20
160.06985424304025
 11
300.33601925299644
 21
160.11985080218881
  0
LINE
  8
_0-0_
  6
CONTINUOUS
 62
    7
 10
300.33602085298207
 20
160.11984740221874
 11
300.47601661855066
 21
160.20067388952026
  0
LINE
  8
_0-0_
  6
CONTINUOUS
 62
    7
 10
300.47602041851707
 20
160.2006818894497
 11
300.47602041851707
 21
160.4699545151019
  0
LINE
  8
_0-0_
  6
CONTINUOUS
 62
    7
 10
300.33601925299644
 20
159.58892288371752
 11
300.33601925299644
 21
159.6389238428273
  0
LINE
  8
_0-0_
  6
CONTINUOUS
 62
    7
 10
300.33601925299644
 20
159.10799132439666
 11
300.33601925299644
 21
159.1579924835047
  0
LINE
  8
_0-0_
  6
CONTINUOUS
 62
    7
 10
300.47602041851707
 20
159.23881897080616
 11
300.47602041851707
 21
159.50809159645831
  0
LINE
  8
_0-0_
  6
CONTINUOUS
 62
    7
 10
300.47602041851707
 20
159.7197505301271
 11
300.47602041851707
 21
159.98902755574051
  0
LINE
  8
_0-0_
  6
CONTINUOUS
 62
    7
 10
300.33601925299644
 20
159.15798728355048
 11
300.47601501856479
 21
159.2388139708502
  0
LINE
  8
_0-0_
  6
CONTINUOUS
 62
    7
 10
300.33601605302465
 20
159.63891504290493
 11
300.47601181859301
 21
159.7197417302047
  0
LINE
  8
_0-0_
  6
CONTINUOUS
 62
    7
 10
300.47601621855404
 20
159.98902295578108
 11
300.33602045298596
 21
160.06984964308077
  0
LINE
  8
_0-0_
  6
CONTINUOUS
 62
    7
 10
300.47602101851203
 20
159.50809059646713
 11
300.33602525294339
 21
159.5889172837669
  0
LINE
  8
_0-0_
  6
CONTINUOUS
 62
    7
 10
300.33601925299644
 20
160.55078560236288
 11
300.33601925299644
 21
160.6007821615114
  0
LINE
  8
_0-0_
  6
CONTINUOUS
 62
    7
 10
300.47601981852245
 20
160.46995111513189
 11
300.33602385295603
 21
160.55077780243167
  0
LINE
  8
_0-0_
  6
CONTINUOUS
 62
    7
 10
300.87603209136017
 20
163.27117321497701
 11
301.85913522271528
 21
163.15016168201259
  0
LINE
  8
_0-0_
  6
CONTINUOUS
 62
    7
 10
301.82697770626834
 20
163.11981054963775
 11
300.87603209136017
 21
163.11981054963775
  0
LINE
  8
_0-0_
  6
CONTINUOUS
 62
    7
 10
300.36603478833013
 20
162.37308093402723
 11
300.36603478833013
 21
161.91982113070685
  0
LINE
  8
_0-0_
  6
CONTINUOUS
 62
    7
 10
300.32603634102225
 20
162.37413512473177
 11
300.32603634102225
 21
161.91982113070685
  0
LINE
  8
_0-0_
  6
CONTINUOUS
 62
    7
 10
300.42603305928759
 20
161.91982113070685
 11
300.2660288701461
 21
161.91982113070685
  0
LINE
  8
_0-0_
  6
CONTINUOUS
 62
    7
 10
300.42603305928759
 20
161.41982853945919
 11
300.2660288701461
 21
161.41982853945919
  0
LINE
  8
_0-0_
  6
CONTINUOUS
 62
    7
 10
300.42651985499521
 20
161.34482920077602
 11
300.2660288701461
 21
161.34482920077602
  0
LINE
  8
_0-0_
  6
CONTINUOUS
 62
    7
 10
300.42603305928759
 20
161.91982113070685
 11
300.42603305928759
 21
161.34482920077602
  0
LINE
  8
_0-0_
  6
CONTINUOUS
 62
    7
 10
300.33601925299644
 20
161.03171716168373
 11
300.33601925299644
 21
161.08171352083411
  0
ARC
  8
_0-0_
  6
CONTINUOUS
 62
    7
 10
300.42601465944961
 20
161.29483264162747
 40
0.0499991591256489
 50
359.99999134888998
 51
90.000000683692704
  0
LINE
  8
_0-0_
  6
CONTINUOUS
 62
    7
 10
300.47602041851707
 20
160.68161344877063
 11
300.47602041851707
 21
160.95089047438395
  0
LINE
  8
_0-0_
  6
CONTINUOUS
 62
    7
 10
300.47602041851707
 20
161.16254480809329
 11
300.47602041851707
 21
161.29483264162747
  0
LINE
  8
_0-0_
  6
CONTINUOUS
 62
    7
 10
300.47601961852411
 20
160.9508914743752
 11
300.33602365295775
 21
161.03171796167666
  0
LINE
  8
_0-0_
  6
CONTINUOUS
 62
    7
 10
300.33601785300857
 20
161.08171532081829
 11
300.47601361857721
 21
161.1625418081197
  0
LINE
  8
_0-0_
  6
CONTINUOUS
 62
    7
 10
300.81603502039223
 20
163.03981245503184
 11
300.77603537309489
 21
163.03981245503184
  0
ARC
  8
_0-0_
  6
CONTINUOUS
 62
    7
 10
300.79603399675415
 20
163.03982165495069
 40
0.0799992945953951
 50
0.00000865114085
 51
89.999997495323001
  0
LINE
  8
_0-0_
  6
CONTINUOUS
 62
    7
 10
300.87603209136017
 20
162.82633633738635
 11
300.81603382040328
 21
162.82633633738635
  0
LINE
  8
_0-0_
  6
CONTINUOUS
 62
    7
 10
300.81603502039223
 20
163.03981245503184
 11
300.81603022043487
 21
162.66177518842653
  0
ARC
  8
_0-0_
  6
CONTINUOUS
 62
    7
 10
300.41603134747885
 20
162.37308093402723
 40
0.0499995591221218
 50
107.52797258392299
 51
180
  0
ARC
  8
_0-0_
  6
CONTINUOUS
 62
    7
 10
300.79603519674367
 20
163.03981245503184
 40
0.0799992945953951
 50
89.999997495323015
 51
180
  0
LINE
  8
_0-0_
  6
CONTINUOUS
 62
    7
 10
300.77603537309489
 20
163.03981245503184
 11
300.77603057313695
 21
162.66177618841772
  0
ARC
  8
_0-0_
  6
CONTINUOUS
 62
    7
 10
300.66603154306847
 20
162.66177618841772
 40
0.0499995591221218
 50
287.52797258392297
 51
0.000005009249887
  0
ARC
  8
_0-0_
  6
CONTINUOUS
 62
    7
 10
301.82601651474386
 20
162.77161101993428
 40
0.3799966493281269
 50
0.00000865113112
 51
85.000005323112291
  0
ARC
  8
_0-0_
  6
CONTINUOUS
 62
    7
 10
301.82601651474386
 20
162.7398151002991
 40
0.3799966493281269
 50
0.00000865113112
 51
90.000004325586104
  0
LINE
  8
_0-0_
  6
CONTINUOUS
 62
    7
 10
300.79603279676485
 20
163.98980567833803
 11
300.26603687007548
 21
163.98980567833803
  0
ARC
  8
_0-0_
  6
CONTINUOUS
 62
    7
 10
300.34603496468156
 20
163.98980107837855
 40
0.0799992945953951
 50
0.0013063870807198
 51
90.000004325668101
  0
ARC
  8
_0-0_
  6
CONTINUOUS
 62
    7
 10
300.79603279676485
 20
163.90980638374259
 40
0.0799992945953951
 50
0
 51
90
  0
ARC
  8
_0-0_
  6
CONTINUOUS
 62
    7
 10
300.34603616467086
 20
163.98980107837855
 40
0.0799992945953951
 50
89.999990665238386
 51
180.00000068368604
  0
ARC
  8
_0-0_
  6
CONTINUOUS
 62
    7
 10
300.66603154306847
 20
115.57826815362067
 40
0.1099990300686683
 50
359.99999499074102
 51
72.472027416310425
  0
ARC
  8
_0-0_
  6
CONTINUOUS
 62
    7
 10
300.66603154306847
 20
115.57826815362067
 40
0.1499986773663659
 50
359.99999499075
 51
72.472027416189107
  0
ARC
  8
_0-0_
  6
CONTINUOUS
 62
    7
 10
300.41603134747885
 20
115.8669634080113
 40
0.0899992064198195
 50
179.36680734765
 51
252.47202741619901
  0
ARC
  8
_0-0_
  6
CONTINUOUS
 62
    7
 10
300.41603134747885
 20
115.8669634080113
 40
0.1499986773663659
 50
179.36680734764897
 51
252.47202741618898
  0
LINE
  8
_0-0_
  6
CONTINUOUS
 62
    7
 10
300.40097288025896
 20
115.81928522842009
 11
300.71120674472991
 21
115.72130229239787
  0
LINE
  8
_0-0_
  6
CONTINUOUS
 62
    7
 10
300.38892618648231
 20
115.78114276474641
 11
300.69916005095354
 21
115.68315982872417
  0
LINE
  8
_0-0_
  6
CONTINUOUS
 62
    7
 10
300.37085594581913
 20
115.72392906923595
 11
300.68109001028841
 21
115.62594613321372
  0
ARC
  8
_0-0_
  6
CONTINUOUS
 62
    7
 10
300.66603154306847
 20
162.66177618841772
 40
0.1099990300686683
 50
287.52797258369003
 51
0.0000050092595304
  0
ARC
  8
_0-0_
  6
CONTINUOUS
 62
    7
 10
300.66603154306847
 20
162.66177618841772
 40
0.1499986773663659
 50
287.52797258381099
 51
0.0000050092500269
  0
ARC
  8
_0-0_
  6
CONTINUOUS
 62
    7
 10
300.41603134747885
 20
162.37308093402723
 40
0.0899992064198195
 50
107.52797258380102
 51
180
  0
ARC
  8
_0-0_
  6
CONTINUOUS
 62
    7
 10
300.41603134747885
 20
162.37308093402723
 40
0.1499986773663659
 50
107.52797258381101
 51
180
  0
LINE
  8
_0-0_
  6
CONTINUOUS
 62
    7
 10
300.68109001028841
 20
162.61409820882474
 11
300.37085594581913
 21
162.51611527280258
  0
LINE
  8
_0-0_
  6
CONTINUOUS
 62
    7
 10
300.69916005095354
 20
162.55688451331423
 11
300.38892618648231
 21
162.45890157729212
  0
LINE
  8
_0-0_
  6
CONTINUOUS
 62
    7
 10
300.71120674472991
 20
162.51874204964059
 11
300.40097288025896
 21
162.42075911361837
  0
TEXT
  8
_0-0_
 62
    7
 10
279.05141789990495
 20
138.24910864520666
 40
1.25
 41
0.9199999999999495
 50
90
  1
499
  0
POINT
  8
_0-0_
 62
    7
 10
279.47640864146928
 20
164.06163684495704
  0
POINT
  8
_0-0_
 62
    7
 10
279.47640864146928
 20
114.16158064545453
  0
LINE
  8
_0-0_
  6
CONTINUOUS
 62
    7
 10
270.5959702899022
 20
164.06163684495704
 11
279.47640864146928
 21
164.06163684495704
  0
LINE
  8
_0-0_
  6
CONTINUOUS
 62
    7
 10
279.47640864146928
 20
164.06163684495704
 11
279.47640864146928
 21
114.16158064545453
  0
LINE
  8
_0-0_
  6
CONTINUOUS
 62
    7
 10
270.5959702899022
 20
114.16158064545453
 11
279.47640864146928
 21
114.16158064545453
  0
LINE
  8
_0-0_
  6
chain
 62
    7
 10
271.64586323232936
 20
139.11181724336731
 11
217.64633938043735
 21
139.11181724336731
  0
LINE
  8
_0-0_
  6
chain
 62
    7
 10
244.6461013063832
 20
112.11205531742138
 11
244.6461013063832
 21
166.11157916931316
  0
LINE
  8
_0-0_
  6
chain
 62
    7
 10
107.13225485333132
 20
140.0863400503805
 11
53.132731001439623
 21
140.0863400503805
  0
LINE
  8
_0-0_
  6
chain
 62
    7
 10
80.132492927385442
 20
113.08657812443467
 11
80.132492927385442
 21
167.08610197632646
  0
LINE
  8
_0-0_
  6
chain
 62
    7
 10
136.73365483898144
 20
115.93518920642109
 11
137.71675797033677
 21
116.05620053938728
  0
LINE
  8
_0-0_
  6
CONTINUOUS
 62
    7
 10
206.83802888417762
 20
188.91212012245813
 11
261.821829657075
 21
188.91212012245813
  0
LINE
  8
_0-0_
  6
CONTINUOUS
 62
    7
 10
261.821829657075
 20
188.91212012245813
 11
261.821829657075
 21
181.33589792682253
  0
LINE
  8
_0-0_
  6
CONTINUOUS
 62
    7
 10
261.821829657075
 20
181.33589792682253
 11
206.83802888417762
 21
181.33589792682253
  0
LINE
  8
_0-0_
  6
CONTINUOUS
 62
    7
 10
333.19144994094972
 20
132.61181724336757
 11
333.19144994094972
 21
135.61181724336743
  0
TEXT
  8
_0-0_
 62
    7
 10
332.76644994094977
 20
133.53681724336758
 40
1.25
 41
0.9199999999999395
 50
90
  1
15
  0
LINE
  8
_0-0_
  6
CONTINUOUS
 62
    7
 10
337.61499914094941
 20
132.61181724336757
 11
332.99144994094968
 21
132.61181724336757
  0
LINE
  8
_0-0_
  6
CONTINUOUS
 62
    7
 10
337.61499914094941
 20
135.61181724336743
 11
332.99144994094968
 21
135.61181724336743
  0
POINT
  8
_0-0_
 62
    7
 10
333.19144994094972
 20
132.61181724336757
  0
POINT
  8
_0-0_
 62
    7
 10
333.19144994094972
 20
135.61181724336743
  0
LINE
  8
_0-0_
  6
CONTINUOUS
 62
    7
 10
355.12703814094891
 20
127.1118172433678
 11
355.12703814094891
 21
151.11181724336683
  0
TEXT
  8
_0-0_
 62
    7
 10
354.70203814094896
 20
138.2493172433673
 40
1.25
 41
0.9199999999999495
 50
90
  1
120
  0
LINE
  8
_0-0_
  6
CONTINUOUS
 62
    7
 10
349.71500054094906
 20
127.1118172433678
 11
355.32703814094873
 21
127.1118172433678
  0
LINE
  8
_0-0_
  6
CONTINUOUS
 62
    7
 10
349.71500054094906
 20
151.11181724336683
 11
355.32703814094873
 21
151.11181724336683
  0
POINT
  8
_0-0_
 62
    7
 10
355.12703814094891
 20
127.1118172433678
  0
POINT
  8
_0-0_
 62
    7
 10
355.12703814094891
 20
151.11181724336683
  0
LINE
  8
_0-0_
  6
CONTINUOUS
 62
    7
 10
363.07610074094862
 20
147.91855404336692
 11
362.43521554094855
 21
148.15181724336702
  0
LINE
  8
_0-0_
  6
CONTINUOUS
 62
    7
 10
361.15512374094862
 20
148.03982364336696
 11
362.43521554094855
 21
148.15181724336702
  0
LINE
  8
_0-0_
  6
CONTINUOUS
 62
    7
 10
361.73521554094862
 20
147.91181724336695
 11
364.13520674094866
 21
147.91181724336695
  0
LINE
  8
_0-0_
  6
CONTINUOUS
 62
    7
 10
361.73521554094862
 20
130.31181724336761
 11
364.13520674094866
 21
130.31181724336761
  0
LINE
  8
_0-0_
  6
CONTINUOUS
 62
    7
 10
361.15512374094862
 20
130.18381064336762
 11
362.43521554094855
 21
130.07181724336769
  0
LINE
  8
_0-0_
  6
CONTINUOUS
 62
    7
 10
365.13520674094855
 20
131.31181724336759
 11
365.13520674094855
 21
146.91181724336698
  0
LINE
  8
_0-0_
  6
CONTINUOUS
 62
    7
 10
369.18507634094806
 20
130.31181724336761
 11
369.18507634094806
 21
147.91181724336695
  0
TEXT
  8
_0-0_
 62
    7
 10
368.76007634094833
 20
138.53681724336732
 40
1.25
 41
0.9199999999999848
 50
90
  1
88
  0
LINE
  8
_0-0_
  6
CONTINUOUS
 62
    7
 10
365.13520674094855
 20
130.31181724336761
 11
369.38507634094822
 21
130.31181724336761
  0
LINE
  8
_0-0_
  6
CONTINUOUS
 62
    7
 10
365.13520674094855
 20
147.91181724336695
 11
369.38507634094822
 21
147.91181724336695
  0
POINT
  8
_0-0_
 62
    7
 10
369.18507634094806
 20
130.31181724336761
  0
POINT
  8
_0-0_
 62
    7
 10
369.18507634094806
 20
147.91181724336695
  0
LINE
  8
_0-0_
  6
CONTINUOUS
 62
    7
 10
365.13520674094855
 20
131.31181724336759
 11
364.13520674094866
 21
130.31181724336761
  0
LINE
  8
_0-0_
  6
CONTINUOUS
 62
    7
 10
363.07610074094862
 20
130.30508044336761
 11
362.43521554094855
 21
130.07181724336769
  0
LINE
  8
_0-0_
  6
CONTINUOUS
 62
    7
 10
365.13520674094855
 20
146.91181724336698
 11
364.13520674094866
 21
147.91181724336695
  0
LINE
  8
_0-0_
  6
CONTINUOUS
 62
    7
 10
361.73521554094862
 20
127.71221724336773
 11
361.73521554094862
 21
150.51141724336682
  0
LINE
  8
_0-0_
  6
CONTINUOUS
 62
    7
 10
360.73521554094873
 20
127.1118172433678
 11
360.73521554094873
 21
151.11181724336683
  0
LINE
  8
_0-0_
  6
CONTINUOUS
 62
    7
 10
361.27521554094858
 20
128.51221724336767
 11
361.27521554094858
 21
127.71221724336773
  0
LINE
  8
_0-0_
  6
CONTINUOUS
 62
    7
 10
360.73521554094873
 20
128.11181724336768
 11
361.19521554094865
 21
128.11181724336768
  0
LINE
  8
_0-0_
  6
CONTINUOUS
 62
    7
 10
360.73521554094873
 20
128.51221724336767
 11
361.27521554094858
 21
128.51221724336767
  0
LINE
  8
_0-0_
  6
CONTINUOUS
 62
    7
 10
361.19521554094865
 20
127.61181724336774
 11
361.19521554094865
 21
128.51221724336767
  0
LINE
  8
_0-0_
  6
CONTINUOUS
 62
    7
 10
361.27521554094858
 20
127.71221724336773
 11
361.73521554094862
 21
127.71221724336773
  0
LINE
  8
_0-0_
  6
CONTINUOUS
 62
    7
 10
360.73521554094873
 20
127.1118172433678
 11
361.19521554094865
 21
127.1118172433678
  0
LINE
  8
_0-0_
  6
CONTINUOUS
 62
    7
 10
361.19521554094865
 20
127.61181724336774
 11
361.19521554094865
 21
127.1118172433678
  0
ARC
  8
_0-0_
  6
CONTINUOUS
 62
    7
 10
361.19521554094865
 20
130.64206024336758
 40
0.4599999999999815
 50
180
 51
265.00000000014899
  0
ARC
  8
_0-0_
  6
CONTINUOUS
 62
    7
 10
361.19521554094865
 20
147.58157404336697
 40
0.4599999999999815
 50
94.999999999851113
 51
180
  0
LINE
  8
_0-0_
  6
CONTINUOUS
 62
    7
 10
360.73521554094873
 20
151.11181724336683
 11
361.19521554094865
 21
151.11181724336683
  0
LINE
  8
_0-0_
  6
CONTINUOUS
 62
    7
 10
361.19521554094865
 20
150.61181724336683
 11
361.19521554094865
 21
149.71141724336687
  0
LINE
  8
_0-0_
  6
CONTINUOUS
 62
    7
 10
360.73521554094873
 20
149.71141724336687
 11
361.27521554094858
 21
149.71141724336687
  0
LINE
  8
_0-0_
  6
CONTINUOUS
 62
    7
 10
360.73521554094873
 20
150.11181724336686
 11
361.19521554094865
 21
150.11181724336686
  0
LINE
  8
_0-0_
  6
CONTINUOUS
 62
    7
 10
361.27521554094858
 20
149.71141724336687
 11
361.27521554094858
 21
150.51141724336682
  0
LINE
  8
_0-0_
  6
CONTINUOUS
 62
    7
 10
361.27521554094858
 20
150.51141724336682
 11
361.73521554094862
 21
150.51141724336682
  0
LINE
  8
_0-0_
  6
CONTINUOUS
 62
    7
 10
361.19521554094865
 20
150.61181724336683
 11
361.19521554094865
 21
151.11181724336683
  0
LINE
  8
_0-0_
  6
CONTINUOUS
 62
    7
 10
343.66499994094954
 20
149.73485824336689
 11
343.66499994094954
 21
147.83451784336697
  0
LINE
  8
_0-0_
  6
CONTINUOUS
 62
    7
 10
344.46499994094938
 20
149.73483724336688
 11
344.46499994094938
 21
147.83451784336697
  0
LINE
  8
_0-0_
  6
CONTINUOUS
 62
    7
 10
338.31499914094934
 20
145.91181724336701
 11
338.31499914094934
 21
149.51181724336686
  0
LINE
  8
_0-0_
  6
CONTINUOUS
 62
    7
 10
349.71500054094906
 20
149.51181724336686
 11
349.71500054094906
 21
128.7118172433677
  0
ARC
  8
_0-0_
  6
CONTINUOUS
 62
    7
 10
339.81499914094934
 20
144.11181724336706
 40
1.7999999999999283
 50
0.00000000083376
 51
90
  0
ARC
  8
_0-0_
  6
CONTINUOUS
 62
    7
 10
339.81499914094934
 20
144.11181724336706
 40
1.7999999999999283
 50
270
 51
0.000000000833776
  0
ARC
  8
_0-0_
  6
CONTINUOUS
 62
    7
 10
339.81499914094934
 20
144.11181724336706
 40
1.4999999999999403
 50
0.00000000083376
 51
90
  0
ARC
  8
_0-0_
  6
CONTINUOUS
 62
    7
 10
339.81499914094934
 20
144.11181724336706
 40
1.4999999999999403
 50
270
 51
0.000000000833776
  0
ARC
  8
_0-0_
  6
CONTINUOUS
 62
    7
 10
339.81499914094934
 20
134.11181724336751
 40
1.7999999999999283
 50
270
 51
359.99999999916599
  0
LINE
  8
_0-0_
  6
CONTINUOUS
 62
    7
 10
348.71500054094906
 20
127.1118172433678
 11
339.31499914094957
 21
127.1118172433678
  0
ARC
  8
_0-0_
  6
CONTINUOUS
 62
    7
 10
339.81499914094934
 20
134.11181724336751
 40
1.4999999999999403
 50
270
 51
359.99999999916599
  0
LINE
  8
_0-0_
  6
CONTINUOUS
 62
    7
 10
341.31499914094934
 20
121.67693184336801
 11
338.31499914094934
 21
121.67693184336801
  0
TEXT
  8
_0-0_
 62
    7
 10
339.23999914094929
 20
122.10193184336801
 40
1.2499999999999432
 41
0.9199999999999206
 50
0
  1
15
  0
LINE
  8
_0-0_
  6
CONTINUOUS
 62
    7
 10
341.31499914094934
 20
133.11181724336751
 11
341.31499914094934
 21
121.47693184336799
  0
LINE
  8
_0-0_
  6
CONTINUOUS
 62
    7
 10
338.31499914094934
 20
127.71181724336772
 11
338.31499914094934
 21
121.47693184336799
  0
POINT
  8
_0-0_
 62
    7
 10
341.31499914094934
 20
121.67693184336801
  0
POINT
  8
_0-0_
 62
    7
 10
338.31499914094934
 20
121.67693184336801
  0
ARC
  8
_0-0_
  6
CONTINUOUS
 62
    7
 10
339.81499914094934
 20
134.11181724336751
 40
1.7999999999999283
 50
359.99999999833199
 51
89.999999999999972
  0
ARC
  8
_0-0_
  6
CONTINUOUS
 62
    7
 10
339.81499914094934
 20
134.11181724336751
 40
1.4999999999999403
 50
359.99999999833199
 51
89.999999999999972
  0
LINE
  8
_0-0_
  6
CONTINUOUS
 62
    7
 10
349.21500054094918
 20
128.7118172433677
 11
349.21500054094918
 21
127.61181724336774
  0
LINE
  8
_0-0_
  6
CONTINUOUS
 62
    7
 10
349.21500054094918
 20
128.7118172433677
 11
349.71500054094906
 21
128.7118172433677
  0
LINE
  8
_0-0_
  6
CONTINUOUS
 62
    7
 10
349.21500054094918
 20
127.61181724336774
 11
348.71500054094906
 21
127.1118172433678
  0
LINE
  8
_0-0_
  6
CONTINUOUS
 62
    7
 10
344.66499994094943
 20
128.38879704336779
 11
344.66499994094943
 21
128.88879704336773
  0
LINE
  8
_0-0_
  6
CONTINUOUS
 62
    7
 10
343.4649999409495
 20
128.38879704336779
 11
343.4649999409495
 21
128.88879704336773
  0
LINE
  8
_0-0_
  6
CONTINUOUS
 62
    7
 10
344.46499994094938
 20
128.48879704336775
 11
344.46499994094938
 21
130.3891166433676
  0
LINE
  8
_0-0_
  6
CONTINUOUS
 62
    7
 10
343.66499994094954
 20
128.48879704336775
 11
343.66499994094954
 21
130.3891166433676
  0
LINE
  8
_0-0_
  6
CONTINUOUS
 62
    7
 10
344.26499994094956
 20
127.98879704336773
 11
343.86499994094959
 21
127.98879704336773
  0
ARC
  8
_0-0_
  6
CONTINUOUS
 62
    7
 10
344.06499994094941
 20
128.48879704336775
 40
0.3999999999999839
 50
180
 51
0
  0
ARC
  8
_0-0_
  6
CONTINUOUS
 62
    7
 10
344.26499994094956
 20
128.38879704336779
 40
0.3999999999999839
 50
270
 51
359.99999998332498
  0
ARC
  8
_0-0_
  6
CONTINUOUS
 62
    7
 10
343.86499994094959
 20
128.38879704336779
 40
0.3999999999999839
 50
180
 51
270
  0
LINE
  8
_0-0_
  6
CONTINUOUS
 62
    7
 10
344.46499994094938
 20
130.07855404336766
 11
343.66499994094954
 21
130.07855404336766
  0
LINE
  8
_0-0_
  6
CONTINUOUS
 62
    7
 10
344.46499994094938
 20
130.3891166433676
 11
343.66499994094954
 21
130.3891166433676
  0
LINE
  8
_0-0_
  6
CONTINUOUS
 62
    7
 10
344.66499994094943
 20
128.88879704336773
 11
344.46499994094938
 21
128.88879704336773
  0
LINE
  8
_0-0_
  6
CONTINUOUS
 62
    7
 10
343.66499994094954
 20
128.88879704336773
 11
343.4649999409495
 21
128.88879704336773
  0
LINE
  8
_0-0_
  6
CONTINUOUS
 62
    7
 10
344.46499994094938
 20
147.83451784336697
 11
343.66499994094954
 21
147.83451784336697
  0
LINE
  8
_0-0_
  6
CONTINUOUS
 62
    7
 10
339.81499914094934
 20
132.31181724336756
 11
338.31499914094934
 21
132.31181724336756
  0
LINE
  8
_0-0_
  6
CONTINUOUS
 62
    7
 10
339.81499914094934
 20
132.61181724336757
 11
338.61499914094941
 21
132.61181724336757
  0
LINE
  8
_0-0_
  6
CONTINUOUS
 62
    7
 10
338.81499914094945
 20
128.7118172433677
 11
338.31499914094934
 21
128.7118172433677
  0
LINE
  8
_0-0_
  6
CONTINUOUS
 62
    7
 10
338.81499914094945
 20
127.61181724336774
 11
338.81499914094945
 21
128.7118172433677
  0
LINE
  8
_0-0_
  6
CONTINUOUS
 62
    7
 10
338.81499914094945
 20
127.61181724336774
 11
339.31499914094957
 21
127.1118172433678
  0
LINE
  8
_0-0_
  6
CONTINUOUS
 62
    7
 10
338.31499914094934
 20
128.7118172433677
 11
338.31499914094934
 21
132.31181724336756
  0
LINE
  8
_0-0_
  6
CONTINUOUS
 62
    7
 10
338.31499914094934
 20
132.31181724336756
 11
338.61499914094941
 21
132.61181724336757
  0
LINE
  8
_0-0_
  6
CONTINUOUS
 62
    7
 10
338.31499914094934
 20
135.91181724336744
 11
338.31499914094934
 21
142.31181724336713
  0
LINE
  8
_0-0_
  6
CONTINUOUS
 62
    7
 10
339.81499914094934
 20
135.91181724336744
 11
338.31499914094934
 21
135.91181724336744
  0
LINE
  8
_0-0_
  6
CONTINUOUS
 62
    7
 10
339.81499914094934
 20
135.61181724336743
 11
338.61499914094941
 21
135.61181724336743
  0
LINE
  8
_0-0_
  6
CONTINUOUS
 62
    7
 10
338.31499914094934
 20
135.91181724336744
 11
338.61499914094941
 21
135.61181724336743
  0
LINE
  8
_0-0_
  6
CONTINUOUS
 62
    7
 10
339.81499914094934
 20
145.611817243367
 11
338.61499914094941
 21
145.611817243367
  0
LINE
  8
_0-0_
  6
CONTINUOUS
 62
    7
 10
339.81499914094934
 20
145.91181724336701
 11
338.31499914094934
 21
145.91181724336701
  0
LINE
  8
_0-0_
  6
CONTINUOUS
 62
    7
 10
339.81499914094934
 20
142.61181724336714
 11
338.61499914094941
 21
142.61181724336714
  0
LINE
  8
_0-0_
  6
CONTINUOUS
 62
    7
 10
339.81499914094934
 20
142.31181724336713
 11
338.31499914094934
 21
142.31181724336713
  0
LINE
  8
_0-0_
  6
CONTINUOUS
 62
    7
 10
338.31499914094934
 20
142.31181724336713
 11
338.61499914094941
 21
142.61181724336714
  0
LINE
  8
_0-0_
  6
CONTINUOUS
 62
    7
 10
338.31499914094934
 20
145.91181724336701
 11
338.61499914094941
 21
145.611817243367
  0
LINE
  8
_0-0_
  6
CONTINUOUS
 62
    7
 10
348.71500054094906
 20
151.11181724336683
 11
339.31499914094957
 21
151.11181724336683
  0
LINE
  8
_0-0_
  6
CONTINUOUS
 62
    7
 10
349.71500054094906
 20
156.38963264336667
 11
338.31499914094934
 21
156.38963264336667
  0
TEXT
  8
_0-0_
 62
    7
 10
343.43999994094929
 20
156.81463264336659
 40
1.2499999999999432
 41
0.9200000000001025
 50
0
  1
57
  0
LINE
  8
_0-0_
  6
CONTINUOUS
 62
    7
 10
349.71500054094906
 20
150.51181724336683
 11
349.71500054094906
 21
156.58963264336663
  0
LINE
  8
_0-0_
  6
CONTINUOUS
 62
    7
 10
338.31499914094934
 20
150.51181724336683
 11
338.31499914094934
 21
156.58963264336663
  0
POINT
  8
_0-0_
 62
    7
 10
349.71500054094906
 20
156.38963264336667
  0
POINT
  8
_0-0_
 62
    7
 10
338.31499914094934
 20
156.38963264336667
  0
LINE
  8
_0-0_
  6
CONTINUOUS
 62
    7
 10
349.21500054094918
 20
149.51181724336686
 11
349.21500054094918
 21
150.61181724336683
  0
LINE
  8
_0-0_
  6
CONTINUOUS
 62
    7
 10
349.21500054094918
 20
149.51181724336686
 11
349.71500054094906
 21
149.51181724336686
  0
LINE
  8
_0-0_
  6
CONTINUOUS
 62
    7
 10
349.21500054094918
 20
150.61181724336683
 11
348.71500054094906
 21
151.11181724336683
  0
LINE
  8
_0-0_
  6
CONTINUOUS
 62
    7
 10
344.26499994094956
 20
150.23483724336683
 11
343.86499994094959
 21
150.23483724336683
  0
ARC
  8
_0-0_
  6
CONTINUOUS
 62
    7
 10
344.06499994094941
 20
149.73483724336688
 40
0.3999999999999839
 50
0
 51
180
  0
LINE
  8
_0-0_
  6
CONTINUOUS
 62
    7
 10
344.66499994094943
 20
149.33483724336691
 11
344.46499994094938
 21
149.33483724336691
  0
ARC
  8
_0-0_
  6
CONTINUOUS
 62
    7
 10
344.26499994094956
 20
149.83483724336685
 40
0.3999999999999839
 50
0.0000000158415
 51
90
  0
LINE
  8
_0-0_
  6
CONTINUOUS
 62
    7
 10
344.66499994094943
 20
149.83483724336685
 11
344.66499994094943
 21
149.33483724336691
  0
LINE
  8
_0-0_
  6
CONTINUOUS
 62
    7
 10
343.66499994094954
 20
149.33483724336691
 11
343.4649999409495
 21
149.33483724336691
  0
ARC
  8
_0-0_
  6
CONTINUOUS
 62
    7
 10
343.86499994094959
 20
149.83483724336685
 40
0.3999999999999839
 50
90
 51
180
  0
LINE
  8
_0-0_
  6
CONTINUOUS
 62
    7
 10
343.4649999409495
 20
149.83483724336685
 11
343.4649999409495
 21
149.33483724336691
  0
LINE
  8
_0-0_
  6
CONTINUOUS
 62
    7
 10
344.46499994094938
 20
148.14508044336696
 11
343.66499994094954
 21
148.14508044336696
  0
LINE
  8
_0-0_
  6
CONTINUOUS
 62
    7
 10
338.81499914094945
 20
149.51181724336686
 11
338.31499914094934
 21
149.51181724336686
  0
LINE
  8
_0-0_
  6
CONTINUOUS
 62
    7
 10
338.81499914094945
 20
150.61181724336683
 11
338.81499914094945
 21
149.51181724336686
  0
LINE
  8
_0-0_
  6
CONTINUOUS
 62
    7
 10
338.81499914094945
 20
150.61181724336683
 11
339.31499914094957
 21
151.11181724336683
  0
LINE
  8
_0-0_
  6
chain
 62
    7
 10
337.08046054094973
 20
139.11181724336731
 11
351.04953914094915
 21
139.11181724336731
  0
LINE
  8
_0-0_
  6
chain
 62
    7
 10
344.06499994094941
 20
153.55323944336675
 11
344.06499994094941
 21
124.67039484336787
  0
LINE
  8
_0-0_
  6
chain
 62
    7
 10
358.89087954094884
 20
139.11181724336731
 11
366.01772314094865
 21
139.11181724336731
  0
TEXT
  8
_0-0_
 62
    7
 10
334.46310165591757
 20
113.98889574791374
 40
2.5939999999998804
 41
0.9165204983961139
 50
0
  1
ワイヤリングカバー（S=2/1）
  0
ENDSEC
  0
EOF
