  0
SECTION
  2
HEADER
  9
$ACADVER
  1
AC1009
  9
$INSBASE
 10
0
 20
0
 30
0
  9
$EXTMIN
 10
0
 20
0
  9
$EXTMAX
 10
841
 20
594
  9
$LIMMIN
 10
0
 20
0
  9
$LIMMAX
 10
841
 20
594
  9
$LTSCALE
 40
1
  0
ENDSEC
  0
SECTION
  2
TABLES
  0
TABLE
  2
LTYPE
 70
     9
  0
LTYPE
  2
CONTINUOUS
 70
    64
  3
実線
 72
    65
 73
     0
 40
0.0
  0
LTYPE
  2
DASHED1
 70
    64
  3
--  --  --  --  --  --  --  --  
 72
    65
 73
     2
 40
2.5
 49
1.25
 49
-1.25
  0
LTYPE
  2
DASHED2
 70
    64
  3
----    ----    ----    ----    
 72
    65
 73
     2
 40
5.0
 49
2.5
 49
-2.5
  0
LTYPE
  2
DASHED3
 70
    64
  3
------  ------  ------  ------  
 72
    65
 73
     2
 40
5.0
 49
3.75
 49
-1.25
  0
LTYPE
  2
CENTER1
 70
    64
  3
----- - ----- - ----- - ----- - 
 72
    65
 73
     4
 40
10.0
 49
6.25
 49
-1.25
 49
1.25
 49
-1.25
  0
LTYPE
  2
CENTER2
 70
    64
  3
----------  --  ----------  --  
 72
    65
 73
     4
 40
20.0
 49
12.5
 49
-2.5
 49
2.5
 49
-2.5
  0
LTYPE
  2
PHANTOM1
 70
    64
  3
--- - - --- - - --- - - --- - - 
 72
    65
 73
     6
 40
10.0
 49
3.25
 49
-1.25
 49
1.25
 49
-1.25
 49
1.25
 49
-1.25
  0
LTYPE
  2
PHANTOM2
 70
    64
  3
--------  -  -  --------  -  -  
 72
    65
 73
     6
 40
20.0
 49
10.0
 49
-2.5
 49
1.25
 49
-2.5
 49
1.25
 49
-2.5
  0
LTYPE
  2
DOT
 70
    64
  3
-   -   -   -   -   -   -   -   
 72
    65
 73
     2
 40
2.5
 49
0.625
 49
-1.875
  0
LTYPE
  2
DUMMY
 70
    64
  3
ダミー
 72
    65
 73
     0
 40
0.0
  0
LTYPE
  2
RAND1
 70
    64
  3
ランダム線1
 72
    65
 73
     4
 40
10.0
 49
1.0
 49
-2.0
 49
3.0
 49
-4.0
  0
LTYPE
  2
RAND2
 70
    64
  3
ランダム線2
 72
    65
 73
     4
 40
14.0
 49
2.0
 49
-3.0
 49
4.0
 49
-5.0
  0
LTYPE
  2
RAND3
 70
    64
  3
ランダム線3
 72
    65
 73
     4
 40
18.0
 49
3.0
 49
-4.0
 49
5.0
 49
-6.0
  0
LTYPE
  2
RAND4
 70
    64
  3
ランダム線4
 72
    65
 73
     4
 40
22.0
 49
4.0
 49
-5.0
 49
6.0
 49
-7.0
  0
LTYPE
  2
RAND5
 70
    64
  3
ランダム線5
 72
    65
 73
     4
 40
26.0
 49
5.0
 49
-6.0
 49
7.0
 49
-8.0
  0
LTYPE
  2
LONG1
 70
    64
  3
----------  --  ----------  --  
 72
    65
 73
     4
 40
40.0
 49
32.5
 49
-2.5
 49
2.5
 49
-2.5
  0
LTYPE
  2
LONG2
 70
    64
  3
--------  -  -  --------  -  -  
 72
    65
 73
     6
 40
40.0
 49
30.0
 49
-2.5
 49
1.25
 49
-2.5
 49
1.25
 49
-2.5
  0
LTYPE
  2
LONG3
 70
    64
  3
+++++++++++++++..+++++++++++++++
 72
    65
 73
     2
 40
40.0
 49
37.5
 49
-2.5
  0
LTYPE
  2
LONG4
 70
    64
  3
+++++++++++++++..+++++++++++++++
 72
    65
 73
     2
 40
80.0
 49
75.0
 49
-5.0
  0
LTYPE
  2
LONG5
 70
    64
  3
----------  --  ----------  --  
 72
    65
 73
     4
 40
60.0
 49
37.5
 49
-7.5
 49
7.5
 49
-7.5
  0
LTYPE
  2
dashed
 70
   64
  3
-------   -------------   ------
 72
   65
 73
    2
 40
7.5
 49
6
 49
-1.5
  0
LTYPE
  2
dashed_spaced
 70
   64
  3
----        --------        ----
 72
   65
 73
    2
 40
12
 49
6
 49
-6
  0
LTYPE
  2
long_dashed_dotted
 70
   64
  3
------------- --- --------------
 72
   65
 73
    4
 40
15.25
 49
12
 49
-1.5
 49
0.25
 49
-1.5
  0
LTYPE
  2
long_dashed_double-dotted
 70
   64
  3
----------- --- --- ------------
 72
   65
 73
    6
 40
17
 49
12
 49
-1.5
 49
0.25
 49
-1.5
 49
0.25
 49
-1.5
  0
LTYPE
  2
long_dashed_triplicate-dotted
 70
   64
  3
--------- --- --- --- ----------
 72
   65
 73
    8
 40
18.75
 49
12
 49
-1.5
 49
0.25
 49
-1.5
 49
0.25
 49
-1.5
 49
0.25
 49
-1.5
  0
LTYPE
  2
dotted
 70
   64
  3
   -       -       -       -    
 72
   65
 73
    2
 40
1.75
 49
0.25
 49
-1.5
  0
LTYPE
  2
chain
 70
   64
  3
-------------- -- --------------
 72
   65
 73
    4
 40
18.5
 49
12
 49
-1.5
 49
3.5
 49
-1.5
  0
LTYPE
  2
chain_double_dash
 70
   64
  3
------------ -- -- -------------
 72
   65
 73
    6
 40
23.5
 49
12
 49
-1.5
 49
3.5
 49
-1.5
 49
3.5
 49
-1.5
  0
LTYPE
  2
dashed_dotted
 70
   64
  3
-----------     -     ----------
 72
   65
 73
    4
 40
9.25
 49
6
 49
-1.5
 49
0.25
 49
-1.5
  0
LTYPE
  2
double-dashed_dotted
 70
   64
  3
------   -----------   -   -----
 72
   65
 73
    6
 40
16.75
 49
6
 49
-1.5
 49
6
 49
-1.5
 49
0.25
 49
-1.5
  0
LTYPE
  2
dashed_double-dotted
 70
   64
  3
---------    -    -    ---------
 72
   65
 73
    6
 40
11
 49
6
 49
-1.5
 49
0.25
 49
-1.5
 49
0.25
 49
-1.5
  0
LTYPE
  2
double-dashed_double-dotted
 70
   64
  3
-----   ---------   -   -   ----
 72
   65
 73
    8
 40
18.5
 49
6
 49
-1.5
 49
6
 49
-1.5
 49
0.25
 49
-1.5
 49
0.25
 49
-1.5
  0
LTYPE
  2
dashed_triplicate-dotted
 70
   64
  3
-------    -    -    -    ------
 72
   65
 73
    8
 40
12.75
 49
6
 49
-1.5
 49
0.25
 49
-1.5
 49
0.25
 49
-1.5
 49
0.25
 49
-1.5
  0
LTYPE
  2
double-dashed_triplicate-dotted
 70
   64
  3
-----  ---------  -  -  -  -----
 72
   65
 73
   10
 40
20.25
 49
6
 49
-1.5
 49
6
 49
-1.5
 49
0.25
 49
-1.5
 49
0.25
 49
-1.5
 49
0.25
 49
-1.5
  0
LTYPE
  2
undefined
 70
   64
  3
--------------------------------
 72
   65
 73
    0
 40
0
  0
LTYPE
  2
CENTER1_17
 70
   64
  3
----------    ----    ----------
 72
   65
 73
    4
 40
30
 49
18.75
 49
-3.75
 49
3.75
 49
-3.75
  0
LTYPE
  2
_
 70
   64
  3
                                
 72
   65
 73
    0
 40
0
  0
LTYPE
  2
__19
 70
   64
  3
                                
 72
   65
 73
    0
 40
0
  0
LTYPE
  2
__20
 70
   64
  3
                                
 72
   65
 73
    0
 40
0
  0
LTYPE
  2
__21
 70
   64
  3
                                
 72
   65
 73
    0
 40
0
  0
LTYPE
  2
__22
 70
   64
  3
                                
 72
   65
 73
    0
 40
0
  0
LTYPE
  2
__23
 70
   64
  3
                                
 72
   65
 73
    0
 40
0
  0
LTYPE
  2
__24
 70
   64
  3
                                
 72
   65
 73
    0
 40
0
  0
LTYPE
  2
__25
 70
   64
  3
                                
 72
   65
 73
    0
 40
0
  0
LTYPE
  2
__26
 70
   64
  3
                                
 72
   65
 73
    0
 40
0
  0
LTYPE
  2
__27
 70
   64
  3
                                
 72
   65
 73
    0
 40
0
  0
LTYPE
  2
__28
 70
   64
  3
                                
 72
   65
 73
    0
 40
0
  0
LTYPE
  2
__29
 70
   64
  3
                                
 72
   65
 73
    0
 40
0
  0
LTYPE
  2
__30
 70
   64
  3
                                
 72
   65
 73
    0
 40
0
  0
LTYPE
  2
__31
 70
   64
  3
                                
 72
   65
 73
    0
 40
0
  0
LTYPE
  2
__32
 70
   64
  3
                                
 72
   65
 73
    0
 40
0
  0
ENDTAB
  0
TABLE
  2
STYLE
  5
3
100
AcDbSymbolTable
 70
     1
  0
STYLE
  5
10
100
AcDbSymbolTableRecord
100
AcDbTextStyleTableRecord
  2
STANDARD
 70
     0
 40
0.0
 41
1.0
 50
0.0
 71
     0
 42
0.2
  3
txt
  4
bigfont.shx
  0
STYLE
  5
26
100
AcDbSymbolTableRecord
100
AcDbTextStyleTableRecord
  2
TATEGAKI
 70
    68
 40
0.0
 41
1.0
 50
0.0
 71
     0
 42
1.0
  3
txt
  4
bigfont.shx
  0
ENDTAB
  0
TABLE
  2
LAYER
 70
    6
  0
LAYER
  2
_0-1_0
 70
   64
 62
    7
  6
CONTINUOUS
  0
LAYER
  2
_0-2_寸法
 70
   64
 62
    7
  6
CONTINUOUS
  0
LAYER
  2
_0-3_躯体と製品
 70
   64
 62
    7
  6
CONTINUOUS
  0
LAYER
  2
_0-4_文字-記号
 70
   64
 62
    7
  6
CONTINUOUS
  0
LAYER
  2
_0-5_中心線
 70
   64
 62
    7
  6
CONTINUOUS
  0
LAYER
  2
ADD_LINE
 70
   64
 62
    7
  6
CONTINUOUS
  0
ENDTAB
  0
ENDSEC
  0
SECTION
  2
BLOCKS
  0
BLOCK
  2
-000-Viewport-1
 70
   64
 10
0
 20
0
 30
0
  0
TEXT
  8
_0-4_文字-記号
 62
    3
 10
2624.105352
 20
-947.89491899999996
 40
13
 41
1.1499999999999999
 50
0
  1
ｈ=101mm～186mm
  0
TEXT
  8
_0-4_文字-記号
 62
    3
 10
2269.8868040000002
 20
-924.43901100000005
 40
13
 41
1.1499999999999999
 50
0
  1
■スリーベース９０１-Ｐ型（軽体育室・幼稚園等 低床用：プレートタイプ）
  0
LINE
  8
_0-3_躯体と製品
  6
CONTINUOUS
 62
    4
 10
2634.2656740000002
 20
-1151.3084019999999
 11
3042.4875160000001
 21
-1151.3084019999999
  0
LINE
  8
_0-3_躯体と製品
  6
CONTINUOUS
 62
    4
 10
2259.0932109999999
 20
-1151.3083979999999
 11
2587.7133399999998
 21
-1151.308403
  0
LINE
  8
_0-5_中心線
  6
CENTER1_17
 62
    7
 10
2423.403276
 20
-1045.6295259999999
 11
2423.403276
 21
-1176.1001920000001
  0
LINE
  8
_0-3_躯体と製品
  6
CONTINUOUS
 62
    3
 10
2427.403276
 20
-1122.8084019999999
 11
2427.403276
 21
-1146.3083999999999
  0
LINE
  8
_0-3_躯体と製品
  6
CONTINUOUS
 62
    3
 10
2419.403276
 20
-1122.8084019999999
 11
2419.403276
 21
-1146.3083999999999
  0
LINE
  8
_0-1_0
  6
CONTINUOUS
 62
    4
 10
2418.403276
 20
-1122.8084019999999
 11
2418.403276
 21
-1146.3083999999999
  0
LINE
  8
_0-1_0
  6
CONTINUOUS
 62
    4
 10
2428.403276
 20
-1122.8084019999999
 11
2428.403276
 21
-1146.3083999999999
  0
LINE
  8
_0-5_中心線
  6
CENTER1_17
 62
    7
 10
2838.3765950000002
 20
-1071.676526
 11
2838.3765950000002
 21
-1176.1001920000001
  0
LINE
  8
_0-3_躯体と製品
  6
CONTINUOUS
 62
    3
 10
2834.3765950000002
 20
-1122.8084019999999
 11
2834.3765950000002
 21
-1146.3084019999999
  0
LINE
  8
_0-3_躯体と製品
  6
CONTINUOUS
 62
    4
 10
2833.3765950000002
 20
-1122.8084019999999
 11
2833.3765950000002
 21
-1146.3084019999999
  0
LINE
  8
_0-3_躯体と製品
  6
CONTINUOUS
 62
    4
 10
2843.3765950000002
 20
-1122.8084019999999
 11
2843.3765950000002
 21
-1146.3084019999999
  0
LINE
  8
_0-3_躯体と製品
  6
CONTINUOUS
 62
    3
 10
2842.3765950000002
 20
-1122.8084019999999
 11
2842.3765950000002
 21
-1146.3084019999999
  0
POINT
  8
_0-3_躯体と製品
 62
    4
 10
2423.403276
 20
-1151.3083999999999
  0
POINT
  8
_0-3_躯体と製品
 62
    4
 10
2423.403276
 20
-1151.3083999999999
  0
LINE
  8
_0-3_躯体と製品
  6
CONTINUOUS
 62
    4
 10
2423.403276
 20
-1146.3083999999999
 11
2430.7032789999998
 21
-1146.3083999999999
  0
LINE
  8
_0-3_躯体と製品
  6
CONTINUOUS
 62
    4
 10
2423.403276
 20
-1146.3083999999999
 11
2416.1032730000002
 21
-1146.3083999999999
  0
LINE
  8
_0-3_躯体と製品
  6
CONTINUOUS
 62
    4
 10
2358.403276
 20
-1149.0083999999999
 11
2358.403276
 21
-1151.3083999999999
  0
LINE
  8
_0-3_躯体と製品
  6
CONTINUOUS
 62
    4
 10
2423.403276
 20
-1151.3083999999999
 11
2358.403276
 21
-1151.3083999999999
  0
LINE
  8
_0-3_躯体と製品
  6
CONTINUOUS
 62
    4
 10
2423.403276
 20
-1149.0083999999999
 11
2358.403276
 21
-1149.0083999999999
  0
LINE
  8
_0-3_躯体と製品
  6
CONTINUOUS
 62
    4
 10
2488.403276
 20
-1149.0083999999999
 11
2488.403276
 21
-1151.3083999999999
  0
LINE
  8
_0-3_躯体と製品
  6
CONTINUOUS
 62
    4
 10
2423.403276
 20
-1149.0083999999999
 11
2488.403276
 21
-1149.0083999999999
  0
LINE
  8
_0-3_躯体と製品
  6
CONTINUOUS
 62
    4
 10
2423.403276
 20
-1151.3083999999999
 11
2488.403276
 21
-1151.3083999999999
  0
ARC
  8
_0-3_躯体と製品
  6
CONTINUOUS
 62
    4
 10
2430.7032789999998
 20
-1149.0083999999999
 40
2.7000000000000002
 50
8.9892990515634406
 51
90.000002504464803
  0
ARC
  8
_0-3_躯体と製品
  6
CONTINUOUS
 62
    4
 10
2416.1032730000002
 20
-1149.0083999999999
 40
2.7000000000000002
 50
90.000002504464803
 51
171.01069741965
  0
ARC
  8
_0-3_躯体と製品
  6
CONTINUOUS
 62
    4
 10
2412.9425820000001
 20
-1148.5083999999999
 40
0.5
 50
269.99999749547896
 51
351.01070094843692
  0
ARC
  8
_0-3_躯体と製品
  6
CONTINUOUS
 62
    4
 10
2433.8639750000002
 20
-1148.5083999999999
 40
0.5
 50
188.98930258034898
 51
269.99999749547896
  0
POINT
  8
_0-1_0
 62
    4
 10
2838.3765950000002
 20
-1151.3083999999999
  0
LINE
  8
_0-1_0
  6
CONTINUOUS
 62
    4
 10
2838.3765950000002
 20
-1151.3083999999999
 11
2813.3765950000002
 21
-1151.3083999999999
  0
LINE
  8
_0-1_0
  6
CONTINUOUS
 62
    4
 10
2813.3765950000002
 20
-1149.008405
 11
2813.3765950000002
 21
-1151.3083999999999
  0
LINE
  8
_0-1_0
  6
CONTINUOUS
 62
    4
 10
2838.3765950000002
 20
-1151.3083999999999
 11
2863.3765950000002
 21
-1151.3083999999999
  0
LINE
  8
_0-1_0
  6
CONTINUOUS
 62
    4
 10
2848.8372909999998
 20
-1149.008405
 11
2863.3765950000002
 21
-1149.008405
  0
LINE
  8
_0-1_0
  6
CONTINUOUS
 62
    4
 10
2838.3765950000002
 20
-1146.3084040000001
 11
2845.6765949999999
 21
-1146.3084040000001
  0
LINE
  8
_0-1_0
  6
CONTINUOUS
 62
    4
 10
2838.3765950000002
 20
-1146.3084040000001
 11
2831.076595
 21
-1146.3084040000001
  0
ARC
  8
_0-1_0
  6
CONTINUOUS
 62
    4
 10
2845.6765949999999
 20
-1149.008405
 40
2.7000000000000002
 50
8.9892990515634406
 51
90.000002504464803
  0
ARC
  8
_0-1_0
  6
CONTINUOUS
 62
    4
 10
2848.8372909999998
 20
-1148.508405
 40
0.5
 50
188.98930258034898
 51
269.99999749547896
  0
ARC
  8
_0-1_0
  6
CONTINUOUS
 62
    4
 10
2831.076595
 20
-1149.008405
 40
2.7000000000000002
 50
90.000002504464803
 51
171.01069741965
  0
ARC
  8
_0-1_0
  6
CONTINUOUS
 62
    4
 10
2827.9158980000002
 20
-1148.508405
 40
0.5
 50
269.99999749547896
 51
351.01070094843692
  0
LINE
  8
_0-1_0
  6
CONTINUOUS
 62
    4
 10
2863.3765950000002
 20
-1149.008405
 11
2863.3765950000002
 21
-1151.3083999999999
  0
LINE
  8
_0-1_0
  6
CONTINUOUS
 62
    4
 10
2813.3765910000002
 20
-1149.008405
 11
2827.9158980000002
 21
-1149.008405
  0
LINE
  8
_0-1_0
  6
CONTINUOUS
 62
    4
 10
2827.9158980000002
 20
-1149.008405
 11
2848.8372909999998
 21
-1149.008405
  0
LINE
  8
_0-1_0
  6
CONTINUOUS
 62
    4
 10
2830.3765950000002
 20
-1149.008405
 11
2830.3765950000002
 21
-1151.3083999999999
  0
LINE
  8
_0-1_0
  6
CONTINUOUS
 62
    4
 10
2846.3765950000002
 20
-1149.008405
 11
2846.3765950000002
 21
-1151.3083999999999
  0
LINE
  8
_0-3_躯体と製品
  6
CONTINUOUS
 62
    3
 10
2558.5769909999999
 20
-1151.3084019999999
 11
2533.7852010000001
 21
-1176.1001920000001
  0
LINE
  8
_0-3_躯体と製品
  6
CONTINUOUS
 62
    3
 10
2530.288857
 20
-1151.3084019999999
 11
2505.4970669999998
 21
-1176.1001920000001
  0
LINE
  8
_0-3_躯体と製品
  6
CONTINUOUS
 62
    3
 10
2544.4329229999998
 20
-1151.3084019999999
 11
2519.6411330000001
 21
-1176.1001920000001
  0
LINE
  8
_0-3_躯体と製品
  6
CONTINUOUS
 62
    3
 10
2307.421327
 20
-1151.3084019999999
 11
2282.6295369999998
 21
-1176.1001920000001
  0
LINE
  8
_0-3_躯体と製品
  6
CONTINUOUS
 62
    3
 10
2335.7094609999999
 20
-1151.3084019999999
 11
2310.9176710000002
 21
-1176.1001920000001
  0
LINE
  8
_0-3_躯体と製品
  6
CONTINUOUS
 62
    3
 10
2321.5653950000001
 20
-1151.3084019999999
 11
2296.7736030000001
 21
-1176.1001920000001
  0
TEXT
  8
_0-4_文字-記号
 62
    3
 10
2360.5081439999999
 20
-946.06711900000005
 40
13
 41
1.1499999999999999
 50
0
  1
【ネダ・クロス】
  0
LINE
  8
_0-3_躯体と製品
  6
CONTINUOUS
 62
    3
 10
2404.403276
 20
-1056.6084020000001
 11
2259.0932109999999
 21
-1056.6084020000001
  0
LINE
  8
_0-3_躯体と製品
  6
CONTINUOUS
 62
    4
 10
2404.403276
 20
-1059.3084019999999
 11
2259.0932109999999
 21
-1059.3084019999999
  0
ARC
  8
_0-3_躯体と製品
  6
CONTINUOUS
 62
    4
 10
2405.5032759999999
 20
-1063.408402
 40
2.1000000000000001
 50
90.000002999885396
 51
180.000005999758
  0
ARC
  8
_0-3_躯体と製品
  6
CONTINUOUS
 62
    4
 10
2402.903276
 20
-1088.208402
 40
2.1000000000000001
 50
269.999997000115
 51
0
  0
LINE
  8
_0-3_躯体と製品
  6
CONTINUOUS
 62
    4
 10
2462.403276
 20
-1085.6084020000001
 11
2457.403276
 21
-1085.6084020000001
  0
LINE
  8
_0-3_躯体と製品
  6
CONTINUOUS
 62
    4
 10
2457.403276
 20
-1085.6084020000001
 11
2457.403276
 21
-1087.6084020000001
  0
LINE
  8
_0-3_躯体と製品
  6
CONTINUOUS
 62
    4
 10
2457.403276
 20
-1087.6084020000001
 11
2460.403276
 21
-1087.6084020000001
  0
LINE
  8
_0-3_躯体と製品
  6
CONTINUOUS
 62
    4
 10
2460.403276
 20
-1087.6084020000001
 11
2460.403276
 21
-1090.3084019999999
  0
LINE
  8
_0-3_躯体と製品
  6
CONTINUOUS
 62
    4
 10
2460.403276
 20
-1090.3084019999999
 11
2386.403276
 21
-1090.3084019999999
  0
LINE
  8
_0-3_躯体と製品
  6
CONTINUOUS
 62
    4
 10
2386.403276
 20
-1090.3084019999999
 11
2386.403276
 21
-1087.6084020000001
  0
LINE
  8
_0-3_躯体と製品
  6
CONTINUOUS
 62
    4
 10
2386.403276
 20
-1087.6084020000001
 11
2389.403276
 21
-1087.6084020000001
  0
LINE
  8
_0-3_躯体と製品
  6
CONTINUOUS
 62
    4
 10
2389.403276
 20
-1087.6084020000001
 11
2389.403276
 21
-1085.6084020000001
  0
LINE
  8
_0-3_躯体と製品
  6
CONTINUOUS
 62
    4
 10
2389.403276
 20
-1085.6084020000001
 11
2384.403276
 21
-1085.6084020000001
  0
LINE
  8
_0-3_躯体と製品
  6
CONTINUOUS
 62
    4
 10
2384.403276
 20
-1085.6084020000001
 11
2384.403276
 21
-1092.3084019999999
  0
LINE
  8
_0-3_躯体と製品
  6
CONTINUOUS
 62
    4
 10
2384.403276
 20
-1092.3084019999999
 11
2462.403276
 21
-1092.3084019999999
  0
LINE
  8
_0-3_躯体と製品
  6
CONTINUOUS
 62
    4
 10
2462.403276
 20
-1092.3084019999999
 11
2462.403276
 21
-1085.6084020000001
  0
LINE
  8
_0-3_躯体と製品
  6
CONTINUOUS
 62
    4
 10
2403.403276
 20
-1088.208402
 11
2403.403276
 21
-1063.408402
  0
LINE
  8
_0-5_中心線
  6
CENTER1_17
 62
    7
 10
2395.5912760000001
 20
-1108.427402
 11
2395.5912760000001
 21
-1083.170402
  0
LINE
  8
_0-3_躯体と製品
  6
CONTINUOUS
 62
    4
 10
2388.0032759999999
 20
-1087.6084020000001
 11
2386.403276
 21
-1087.6084020000001
  0
ARC
  8
_0-3_躯体と製品
  6
CONTINUOUS
 62
    4
 10
2388.5032759999999
 20
-1088.208402
 40
2.1000000000000001
 50
180.00000599975803
 51
269.999997000115
  0
LINE
  8
_0-3_躯体と製品
  6
CONTINUOUS
 62
    4
 10
2386.403276
 20
-1088.208402
 11
2386.403276
 21
-1087.6084020000001
  0
LINE
  8
_0-3_躯体と製品
  6
CONTINUOUS
 62
    4
 10
2397.691276
 20
-1086.254402
 11
2397.2412760000002
 21
-1086.119402
  0
LINE
  8
_0-3_躯体と製品
  6
CONTINUOUS
 62
    4
 10
2398.2262759999999
 20
-1086.2774019999999
 11
2398.2762760000001
 21
-1086.177402
  0
ARC
  8
_0-3_躯体と製品
  6
CONTINUOUS
 62
    4
 10
2398.0472759999998
 20
-1086.188402
 40
0.2
 50
247.02727499998102
 51
333.56312600015099
  0
LINE
  8
_0-3_躯体と製品
  6
CONTINUOUS
 62
    4
 10
2397.9692759999998
 20
-1086.372402
 11
2397.691276
 21
-1086.254402
  0
ARC
  8
_0-3_躯体と製品
  6
CONTINUOUS
 62
    4
 10
2396.441276
 20
-1086.091402
 40
0.1
 50
84.805573999867903
 51
180.000005999709
  0
ARC
  8
_0-3_躯体と製品
  6
CONTINUOUS
 62
    4
 10
2396.1412759999998
 20
-1086.333402
 40
0.2
 50
269.99999700014604
 51
0.0000000000000568
  0
LINE
  8
_0-3_躯体と製品
  6
CONTINUOUS
 62
    4
 10
2396.3412760000001
 20
-1086.333402
 11
2396.3412760000001
 21
-1086.091402
  0
LINE
  8
_0-3_躯体と製品
  6
CONTINUOUS
 62
    4
 10
2396.7642759999999
 20
-1086.0204020000001
 11
2396.450276
 21
-1085.9924020000001
  0
ARC
  8
_0-3_躯体と製品
  6
CONTINUOUS
 62
    4
 10
2393.135276
 20
-1086.188402
 40
0.2
 50
206.43686799959301
 51
292.97271899955098
  0
ARC
  8
_0-3_躯体と製品
  6
CONTINUOUS
 62
    4
 10
2394.7412760000002
 20
-1086.091402
 40
0.1
 50
0
 51
95.194432000512592
  0
ARC
  8
_0-3_躯体と製品
  6
CONTINUOUS
 62
    4
 10
2395.0412759999999
 20
-1086.333402
 40
0.2
 50
180.000005999774
 51
269.99999700014598
  0
LINE
  8
_0-3_躯体と製品
  6
CONTINUOUS
 62
    4
 10
2392.9562759999999
 20
-1086.2774019999999
 11
2392.9062760000002
 21
-1086.177402
  0
LINE
  8
_0-3_躯体と製品
  6
CONTINUOUS
 62
    4
 10
2394.8412760000001
 20
-1086.333402
 11
2394.8412760000001
 21
-1086.091402
  0
LINE
  8
_0-3_躯体と製品
  6
CONTINUOUS
 62
    4
 10
2395.0412759999999
 20
-1086.533402
 11
2395.5912760000001
 21
-1086.533402
  0
LINE
  8
_0-3_躯体と製品
  6
CONTINUOUS
 62
    4
 10
2391.8262759999998
 20
-1086.908402
 11
2395.5912760000001
 21
-1086.908402
  0
ARC
  8
_0-3_躯体と製品
  6
CONTINUOUS
 62
    4
 10
2395.0442760000001
 20
-1090.496402
 40
4.819
 50
83.482563000374086
 51
131.88825100021401
  0
LINE
  8
_0-3_躯体と製品
  6
CONTINUOUS
 62
    4
 10
2393.213276
 20
-1086.372402
 11
2393.4912760000002
 21
-1086.254402
  0
LINE
  8
_0-3_躯体と製品
  6
CONTINUOUS
 62
    4
 10
2393.4912760000002
 20
-1086.254402
 11
2393.941276
 21
-1086.119402
  0
LINE
  8
_0-3_躯体と製品
  6
CONTINUOUS
 62
    4
 10
2393.941276
 20
-1086.119402
 11
2394.4182759999999
 21
-1086.0204020000001
  0
LINE
  8
_0-3_躯体と製品
  6
CONTINUOUS
 62
    4
 10
2394.4182759999999
 20
-1086.0204020000001
 11
2394.7322760000002
 21
-1085.9924020000001
  0
LINE
  8
_0-3_躯体と製品
  6
CONTINUOUS
 62
    4
 10
2396.1412759999998
 20
-1086.533402
 11
2395.5912760000001
 21
-1086.533402
  0
LINE
  8
_0-3_躯体と製品
  6
CONTINUOUS
 62
    4
 10
2399.356276
 20
-1086.908402
 11
2395.5912760000001
 21
-1086.908402
  0
ARC
  8
_0-3_躯体と製品
  6
CONTINUOUS
 62
    4
 10
2396.1382760000001
 20
-1090.496402
 40
4.819
 50
48.111754999517501
 51
96.5174420003367
  0
LINE
  8
_0-3_躯体と製品
  6
CONTINUOUS
 62
    4
 10
2397.2412760000002
 20
-1086.119402
 11
2396.7642759999999
 21
-1086.0204020000001
  0
ARC
  8
_0-3_躯体と製品
  6
CONTINUOUS
 62
    4
 10
2402.903276
 20
-1088.208402
 40
0.5
 50
269.99999700012
 51
0
  0
LINE
  8
_0-3_躯体と製品
  6
CONTINUOUS
 62
    4
 10
2399.5912760000001
 20
-1088.0594020000001
 11
2399.5912760000001
 21
-1088.5084019999999
  0
ARC
  8
_0-3_躯体と製品
  6
CONTINUOUS
 62
    4
 10
2399.3912759999998
 20
-1088.5084019999999
 40
0.2
 50
269.99999700014604
 51
0.0000000000000568
  0
ARC
  8
_0-3_躯体と製品
  6
CONTINUOUS
 62
    4
 10
2388.5032759999999
 20
-1088.208402
 40
0.5
 50
180.00000599976096
 51
269.99999700012
  0
LINE
  8
_0-3_躯体と製品
  6
CONTINUOUS
 62
    4
 10
2388.0032759999999
 20
-1088.208402
 11
2388.0032759999999
 21
-1087.6084020000001
  0
LINE
  8
_0-3_躯体と製品
  6
CONTINUOUS
 62
    4
 10
2391.7912759999999
 20
-1088.708402
 11
2395.5912760000001
 21
-1088.708402
  0
LINE
  8
_0-3_躯体と製品
  6
CONTINUOUS
 62
    4
 10
2391.5912760000001
 20
-1088.0594020000001
 11
2391.5912760000001
 21
-1088.5084019999999
  0
ARC
  8
_0-3_躯体と製品
  6
CONTINUOUS
 62
    4
 10
2391.7912759999999
 20
-1088.5084019999999
 40
0.2
 50
180.000005999774
 51
269.99999700014598
  0
LINE
  8
_0-3_躯体と製品
  6
CONTINUOUS
 62
    4
 10
2402.903276
 20
-1088.708402
 11
2388.5032759999999
 21
-1088.708402
  0
LINE
  8
_0-3_躯体と製品
  6
CONTINUOUS
 62
    4
 10
2399.3912759999998
 20
-1088.708402
 11
2395.5912760000001
 21
-1088.708402
  0
LINE
  8
_0-3_躯体と製品
  6
CONTINUOUS
 62
    4
 10
2402.903276
 20
-1090.3084019999999
 11
2388.5032759999999
 21
-1090.3084019999999
  0
LINE
  8
_0-3_躯体と製品
  6
CONTINUOUS
 62
    4
 10
2391.8262759999998
 20
-1086.908402
 11
2391.5912760000001
 21
-1088.0594020000001
  0
LINE
  8
_0-3_躯体と製品
  6
CONTINUOUS
 62
    4
 10
2399.356276
 20
-1086.908402
 11
2399.5912760000001
 21
-1088.0594020000001
  0
LINE
  8
_0-3_躯体と製品
  6
CONTINUOUS
 62
    3
 10
2442.403276
 20
-1056.6084020000001
 11
2587.7133399999998
 21
-1056.6084020000001
  0
LINE
  8
_0-3_躯体と製品
  6
CONTINUOUS
 62
    4
 10
2587.7133399999998
 20
-1059.3084019999999
 11
2442.403276
 21
-1059.3084019999999
  0
LINE
  8
_0-3_躯体と製品
  6
CONTINUOUS
 62
    4
 10
2405.0032759999999
 20
-1088.208402
 11
2405.0032759999999
 21
-1063.408402
  0
LINE
  8
_0-3_躯体と製品
  6
CONTINUOUS
 62
    4
 10
2443.403276
 20
-1088.208402
 11
2443.403276
 21
-1063.408402
  0
LINE
  8
_0-3_躯体と製品
  6
CONTINUOUS
 62
    4
 10
2441.8032760000001
 20
-1088.208402
 11
2441.8032760000001
 21
-1063.408402
  0
LINE
  8
_0-5_中心線
  6
CENTER1_17
 62
    7
 10
2451.2172759999999
 20
-1108.427402
 11
2451.2172759999999
 21
-1083.170402
  0
LINE
  8
_0-3_躯体と製品
  6
CONTINUOUS
 62
    4
 10
2453.3172760000002
 20
-1086.254402
 11
2452.8672759999999
 21
-1086.119402
  0
LINE
  8
_0-3_躯体と製品
  6
CONTINUOUS
 62
    4
 10
2454.9822760000002
 20
-1086.908402
 11
2451.2172759999999
 21
-1086.908402
  0
ARC
  8
_0-3_躯体と製品
  6
CONTINUOUS
 62
    4
 10
2451.7642759999999
 20
-1090.496402
 40
4.819
 50
48.111754999517501
 51
96.5174420003367
  0
LINE
  8
_0-3_躯体と製品
  6
CONTINUOUS
 62
    4
 10
2455.017276
 20
-1088.708402
 11
2451.2172759999999
 21
-1088.708402
  0
LINE
  8
_0-3_躯体と製品
  6
CONTINUOUS
 62
    4
 10
2443.903276
 20
-1088.708402
 11
2458.3032760000001
 21
-1088.708402
  0
LINE
  8
_0-3_躯体と製品
  6
CONTINUOUS
 62
    4
 10
2443.903276
 20
-1090.3084019999999
 11
2458.3032760000001
 21
-1090.3084019999999
  0
ARC
  8
_0-3_躯体と製品
  6
CONTINUOUS
 62
    4
 10
2452.0672760000002
 20
-1086.091402
 40
0.1
 50
84.805573999867903
 51
180.000005999709
  0
ARC
  8
_0-3_躯体と製品
  6
CONTINUOUS
 62
    4
 10
2451.767276
 20
-1086.333402
 40
0.2
 50
269.99999700014604
 51
0.0000000000000568
  0
LINE
  8
_0-3_躯体と製品
  6
CONTINUOUS
 62
    4
 10
2451.9672759999999
 20
-1086.333402
 11
2451.9672759999999
 21
-1086.091402
  0
LINE
  8
_0-3_躯体と製品
  6
CONTINUOUS
 62
    4
 10
2452.8672759999999
 20
-1086.119402
 11
2452.3902760000001
 21
-1086.0204020000001
  0
LINE
  8
_0-3_躯体と製品
  6
CONTINUOUS
 62
    4
 10
2452.3902760000001
 20
-1086.0204020000001
 11
2452.0762759999998
 21
-1085.9924020000001
  0
ARC
  8
_0-3_躯体と製品
  6
CONTINUOUS
 62
    4
 10
2448.7612760000002
 20
-1086.188402
 40
0.2
 50
206.43686799959301
 51
292.97271899955098
  0
ARC
  8
_0-3_躯体と製品
  6
CONTINUOUS
 62
    4
 10
2450.3672759999999
 20
-1086.091402
 40
0.1
 50
0
 51
95.194432000512592
  0
ARC
  8
_0-3_躯体と製品
  6
CONTINUOUS
 62
    4
 10
2450.6672760000001
 20
-1086.333402
 40
0.2
 50
180.000005999774
 51
269.99999700014598
  0
LINE
  8
_0-3_躯体と製品
  6
CONTINUOUS
 62
    4
 10
2448.5822760000001
 20
-1086.2774019999999
 11
2448.5322759999999
 21
-1086.177402
  0
LINE
  8
_0-3_躯体と製品
  6
CONTINUOUS
 62
    4
 10
2450.4672759999999
 20
-1086.333402
 11
2450.4672759999999
 21
-1086.091402
  0
LINE
  8
_0-3_躯体と製品
  6
CONTINUOUS
 62
    4
 10
2450.6672760000001
 20
-1086.533402
 11
2451.2172759999999
 21
-1086.533402
  0
LINE
  8
_0-3_躯体と製品
  6
CONTINUOUS
 62
    4
 10
2447.452276
 20
-1086.908402
 11
2451.2172759999999
 21
-1086.908402
  0
ARC
  8
_0-3_躯体と製品
  6
CONTINUOUS
 62
    4
 10
2450.6702759999998
 20
-1090.496402
 40
4.819
 50
83.482563000374086
 51
131.88825100021401
  0
LINE
  8
_0-3_躯体と製品
  6
CONTINUOUS
 62
    4
 10
2448.8392760000002
 20
-1086.372402
 11
2449.1172759999999
 21
-1086.254402
  0
LINE
  8
_0-3_躯体と製品
  6
CONTINUOUS
 62
    4
 10
2449.1172759999999
 20
-1086.254402
 11
2449.5672760000002
 21
-1086.119402
  0
LINE
  8
_0-3_躯体と製品
  6
CONTINUOUS
 62
    4
 10
2449.5672760000002
 20
-1086.119402
 11
2450.0442760000001
 21
-1086.0204020000001
  0
LINE
  8
_0-3_躯体と製品
  6
CONTINUOUS
 62
    4
 10
2450.0442760000001
 20
-1086.0204020000001
 11
2450.3582759999999
 21
-1085.9924020000001
  0
LINE
  8
_0-3_躯体と製品
  6
CONTINUOUS
 62
    4
 10
2447.4172760000001
 20
-1088.708402
 11
2451.2172759999999
 21
-1088.708402
  0
LINE
  8
_0-3_躯体と製品
  6
CONTINUOUS
 62
    4
 10
2447.2172759999999
 20
-1088.0594020000001
 11
2447.2172759999999
 21
-1088.5084019999999
  0
ARC
  8
_0-3_躯体と製品
  6
CONTINUOUS
 62
    4
 10
2447.4172760000001
 20
-1088.5084019999999
 40
0.2
 50
180.000005999774
 51
269.99999700014598
  0
LINE
  8
_0-3_躯体と製品
  6
CONTINUOUS
 62
    4
 10
2447.452276
 20
-1086.908402
 11
2447.2172759999999
 21
-1088.0594020000001
  0
ARC
  8
_0-3_躯体と製品
  6
CONTINUOUS
 62
    4
 10
2443.903276
 20
-1088.208402
 40
0.5
 50
180.00000599976096
 51
269.99999700012
  0
ARC
  8
_0-3_躯体と製品
  6
CONTINUOUS
 62
    4
 10
2443.903276
 20
-1088.208402
 40
2.1000000000000001
 50
180.00000599975803
 51
269.999997000115
  0
LINE
  8
_0-3_躯体と製品
  6
CONTINUOUS
 62
    4
 10
2451.767276
 20
-1086.533402
 11
2451.2172759999999
 21
-1086.533402
  0
LINE
  8
_0-3_躯体と製品
  6
CONTINUOUS
 62
    4
 10
2453.8522760000001
 20
-1086.2774019999999
 11
2453.9022759999998
 21
-1086.177402
  0
ARC
  8
_0-3_躯体と製品
  6
CONTINUOUS
 62
    4
 10
2453.673276
 20
-1086.188402
 40
0.2
 50
247.02727499998102
 51
333.56312600015099
  0
LINE
  8
_0-3_躯体と製品
  6
CONTINUOUS
 62
    4
 10
2453.595276
 20
-1086.372402
 11
2453.3172760000002
 21
-1086.254402
  0
ARC
  8
_0-3_躯体と製品
  6
CONTINUOUS
 62
    4
 10
2458.3032760000001
 20
-1088.208402
 40
2.1000000000000001
 50
269.999997000115
 51
0
  0
ARC
  8
_0-3_躯体と製品
  6
CONTINUOUS
 62
    4
 10
2458.3032760000001
 20
-1088.208402
 40
0.5
 50
269.99999700012
 51
0
  0
LINE
  8
_0-3_躯体と製品
  6
CONTINUOUS
 62
    4
 10
2460.403276
 20
-1088.208402
 11
2460.403276
 21
-1087.6084020000001
  0
LINE
  8
_0-3_躯体と製品
  6
CONTINUOUS
 62
    4
 10
2458.8032760000001
 20
-1088.208402
 11
2458.8032760000001
 21
-1087.6084020000001
  0
LINE
  8
_0-3_躯体と製品
  6
CONTINUOUS
 62
    4
 10
2458.8032760000001
 20
-1087.6084020000001
 11
2460.403276
 21
-1087.6084020000001
  0
LINE
  8
_0-3_躯体と製品
  6
CONTINUOUS
 62
    4
 10
2455.2172759999999
 20
-1088.0594020000001
 11
2455.2172759999999
 21
-1088.5084019999999
  0
ARC
  8
_0-3_躯体と製品
  6
CONTINUOUS
 62
    4
 10
2455.017276
 20
-1088.5084019999999
 40
0.2
 50
269.99999700014604
 51
0.0000000000000568
  0
LINE
  8
_0-3_躯体と製品
  6
CONTINUOUS
 62
    4
 10
2454.9822760000002
 20
-1086.908402
 11
2455.2172759999999
 21
-1088.0594020000001
  0
LINE
  8
_0-3_躯体と製品
  6
CONTINUOUS
 62
    4
 10
2441.3032760000001
 20
-1061.3084019999999
 11
2405.5032759999999
 21
-1061.3084019999999
  0
LINE
  8
_0-3_躯体と製品
  6
CONTINUOUS
 62
    4
 10
2441.3032760000001
 20
-1062.908402
 11
2405.5032759999999
 21
-1062.908402
  0
LINE
  8
_0-3_躯体と製品
  6
CONTINUOUS
 62
    4
 10
2442.403276
 20
-1061.3084019999999
 11
2404.403276
 21
-1061.3084019999999
  0
LINE
  8
_0-3_躯体と製品
  6
CONTINUOUS
 62
    4
 10
2404.403276
 20
-1061.3084019999999
 11
2404.403276
 21
-1054.6084020000001
  0
LINE
  8
_0-3_躯体と製品
  6
CONTINUOUS
 62
    4
 10
2404.403276
 20
-1054.6084020000001
 11
2442.403276
 21
-1054.6084020000001
  0
LINE
  8
_0-3_躯体と製品
  6
CONTINUOUS
 62
    4
 10
2442.403276
 20
-1054.6084020000001
 11
2442.403276
 21
-1061.3084019999999
  0
ARC
  8
_0-3_躯体と製品
  6
CONTINUOUS
 62
    4
 10
2405.5032759999999
 20
-1063.408402
 40
0.5
 50
90.000002999880479
 51
180.00000599976096
  0
ARC
  8
_0-3_躯体と製品
  6
CONTINUOUS
 62
    4
 10
2441.3032760000001
 20
-1063.408402
 40
0.5
 50
0
 51
90.000002999880479
  0
ARC
  8
_0-3_躯体と製品
  6
CONTINUOUS
 62
    4
 10
2441.3032760000001
 20
-1063.408402
 40
2.1000000000000001
 50
0
 51
90.000002999885396
  0
LINE
  8
_0-3_躯体と製品
  6
CONTINUOUS
 62
    4
 10
2398.403276
 20
-1112.3084019999999
 11
2448.403276
 21
-1112.3084019999999
  0
LINE
  8
_0-3_躯体と製品
  6
CONTINUOUS
 62
    4
 10
2398.903276
 20
-1110.0084019999999
 11
2447.903276
 21
-1110.0084019999999
  0
LINE
  8
_0-3_躯体と製品
  6
CONTINUOUS
 62
    4
 10
2383.403276
 20
-1092.3084019999999
 11
2463.403276
 21
-1092.3084019999999
  0
LINE
  8
_0-3_躯体と製品
  6
CONTINUOUS
 62
    4
 10
2383.403276
 20
-1093.8084019999999
 11
2463.403276
 21
-1093.8084019999999
  0
LINE
  8
_0-3_躯体と製品
  6
CONTINUOUS
 62
    4
 10
2383.403276
 20
-1093.8084019999999
 11
2383.403276
 21
-1092.3084019999999
  0
ARC
  8
_0-3_躯体と製品
  6
CONTINUOUS
 62
    4
 10
2398.903276
 20
-1110.5084019999999
 40
0.5
 50
90.000002999880479
 51
180.00000599976096
  0
LINE
  8
_0-3_躯体と製品
  6
CONTINUOUS
 62
    4
 10
2398.403276
 20
-1110.5084019999999
 11
2398.403276
 21
-1112.3084019999999
  0
ARC
  8
_0-3_躯体と製品
  6
CONTINUOUS
 62
    4
 10
2398.903276
 20
-1109.5084019999999
 40
0.5
 50
269.99999700012
 51
0
  0
LINE
  8
_0-3_躯体と製品
  6
CONTINUOUS
 62
    4
 10
2399.403276
 20
-1093.8084019999999
 11
2399.403276
 21
-1109.5084019999999
  0
LINE
  8
_0-3_躯体と製品
  6
CONTINUOUS
 62
    4
 10
2423.403276
 20
-1114.8084019999999
 11
2425.903276
 21
-1112.3084019999999
  0
LINE
  8
_0-3_躯体と製品
  6
CONTINUOUS
 62
    4
 10
2420.903276
 20
-1114.8084019999999
 11
2423.403276
 21
-1112.3084019999999
  0
LINE
  8
_0-3_躯体と製品
  6
CONTINUOUS
 62
    4
 10
2433.403276
 20
-1121.273402
 11
2433.403276
 21
-1112.3084019999999
  0
LINE
  8
_0-3_躯体と製品
  6
CONTINUOUS
 62
    4
 10
2413.403276
 20
-1121.273402
 11
2413.403276
 21
-1112.3084019999999
  0
LINE
  8
_0-3_躯体と製品
  6
CONTINUOUS
 62
    4
 10
2433.403276
 20
-1114.8084019999999
 11
2413.403276
 21
-1114.8084019999999
  0
LINE
  8
_0-3_躯体と製品
  6
CONTINUOUS
 62
    4
 10
2423.403276
 20
-1114.8084019999999
 11
2430.903276
 21
-1114.8084019999999
  0
ARC
  8
_0-3_躯体と製品
  6
CONTINUOUS
 62
    4
 10
2423.403276
 20
-1113.898402
 40
8.9100000000000001
 50
235.86405600033001
 51
304.135938000007
  0
LINE
  8
_0-3_躯体と製品
  6
CONTINUOUS
 62
    4
 10
2423.403276
 20
-1122.8084019999999
 11
2430.8702760000001
 21
-1122.8084019999999
  0
LINE
  8
_0-3_躯体と製品
  6
CONTINUOUS
 62
    4
 10
2423.6032759999998
 20
-1114.8084019999999
 11
2415.903276
 21
-1114.8084019999999
  0
LINE
  8
_0-3_躯体と製品
  6
CONTINUOUS
 62
    4
 10
2423.403276
 20
-1122.8084019999999
 11
2415.7362760000001
 21
-1122.8084019999999
  0
ARC
  8
_0-3_躯体と製品
  6
CONTINUOUS
 62
    4
 10
2415.903276
 20
-1120.013402
 40
2.7999999999999998
 50
206.74809900004496
 51
333.25189499999601
  0
LINE
  8
_0-3_躯体と製品
  6
CONTINUOUS
 62
    4
 10
2418.403276
 20
-1121.273402
 11
2418.403276
 21
-1114.8084019999999
  0
ARC
  8
_0-3_躯体と製品
  6
CONTINUOUS
 62
    4
 10
2430.903276
 20
-1120.013402
 40
2.7999999999999998
 50
206.74809900004496
 51
333.25189499999601
  0
LINE
  8
_0-3_躯体と製品
  6
CONTINUOUS
 62
    4
 10
2428.403276
 20
-1121.273402
 11
2428.403276
 21
-1114.8084019999999
  0
LINE
  8
_0-3_躯体と製品
  6
CONTINUOUS
 62
    4
 10
2433.403276
 20
-1112.3084019999999
 11
2413.403276
 21
-1112.3084019999999
  0
ARC
  8
_0-3_躯体と製品
  6
CONTINUOUS
 62
    4
 10
2447.903276
 20
-1110.5084019999999
 40
0.5
 50
0
 51
90.000002999880479
  0
LINE
  8
_0-3_躯体と製品
  6
CONTINUOUS
 62
    4
 10
2448.403276
 20
-1110.5084019999999
 11
2448.403276
 21
-1112.3084019999999
  0
ARC
  8
_0-3_躯体と製品
  6
CONTINUOUS
 62
    4
 10
2447.903276
 20
-1109.5084019999999
 40
0.5
 50
180.00000599976096
 51
269.99999700012
  0
LINE
  8
_0-3_躯体と製品
  6
CONTINUOUS
 62
    4
 10
2447.403276
 20
-1093.8084019999999
 11
2447.403276
 21
-1109.5084019999999
  0
LINE
  8
_0-3_躯体と製品
  6
CONTINUOUS
 62
    4
 10
2463.403276
 20
-1093.8084019999999
 11
2463.403276
 21
-1092.3084019999999
  0
LINE
  8
_0-3_躯体と製品
  6
CONTINUOUS
 62
    4
 10
2587.7133399999998
 20
-1030.3084019999999
 11
2259.0932109999999
 21
-1030.308403
  0
LINE
  8
_0-3_躯体と製品
  6
CONTINUOUS
 62
    4
 10
2428.403276
 20
-1078.180402
 11
2418.403276
 21
-1078.180402
  0
LINE
  8
_0-3_躯体と製品
  6
CONTINUOUS
 62
    4
 10
2427.403276
 20
-1077.180402
 11
2419.403276
 21
-1077.180402
  0
LINE
  8
_0-3_躯体と製品
  6
CONTINUOUS
 62
    4
 10
2419.403276
 20
-1077.180402
 11
2418.403276
 21
-1078.180402
  0
LINE
  8
_0-3_躯体と製品
  6
CONTINUOUS
 62
    4
 10
2419.403276
 20
-1090.3084019999999
 11
2419.403276
 21
-1077.180402
  0
LINE
  8
_0-3_躯体と製品
  6
CONTINUOUS
 62
    4
 10
2418.403276
 20
-1078.180402
 11
2418.403276
 21
-1090.3084019999999
  0
LINE
  8
_0-3_躯体と製品
  6
CONTINUOUS
 62
    4
 10
2427.403276
 20
-1077.180402
 11
2428.403276
 21
-1078.180402
  0
LINE
  8
_0-3_躯体と製品
  6
CONTINUOUS
 62
    4
 10
2427.403276
 20
-1090.3084019999999
 11
2427.403276
 21
-1077.180402
  0
LINE
  8
_0-3_躯体と製品
  6
CONTINUOUS
 62
    4
 10
2428.403276
 20
-1078.180402
 11
2428.403276
 21
-1090.3084019999999
  0
LINE
  8
_0-3_躯体と製品
  6
CONTINUOUS
 62
    3
 10
2573.4540179999999
 20
-1010.308442
 11
2573.4540179999999
 21
-1015.308402
  0
ARC
  8
_0-3_躯体と製品
  6
CONTINUOUS
 62
    3
 10
2572.4539799999998
 20
-1010.308442
 40
1.00004
 50
0
 51
90
  0
LINE
  8
_0-3_躯体と製品
  6
CONTINUOUS
 62
    3
 10
2572.4539799999998
 20
-1009.308402
 11
2564.4536640000001
 21
-1009.308402
  0
LINE
  8
_0-3_躯体と製品
  6
CONTINUOUS
 62
    3
 10
2573.4540179999999
 20
-1002.308364
 11
2573.4540179999999
 21
-997.308402
  0
ARC
  8
_0-3_躯体と製品
  6
CONTINUOUS
 62
    3
 10
2572.4539799999998
 20
-1002.308364
 40
1.00004
 50
270.00000000002598
 51
0.0000000000130171
  0
LINE
  8
_0-3_躯体と製品
  6
CONTINUOUS
 62
    3
 10
2572.4539799999998
 20
-1003.308402
 11
2564.4536640000001
 21
-1003.308402
  0
ARC
  8
_0-3_躯体と製品
  6
CONTINUOUS
 62
    3
 10
2564.4536640000001
 20
-1004.308442
 40
1.00004
 50
90
 51
180
  0
LINE
  8
_0-3_躯体と製品
  6
CONTINUOUS
 62
    3
 10
2563.453626
 20
-1004.308442
 11
2563.453626
 21
-1008.308362
  0
ARC
  8
_0-3_躯体と製品
  6
CONTINUOUS
 62
    3
 10
2564.4536640000001
 20
-1008.308362
 40
1.00004
 50
180
 51
270
  0
LINE
  8
_0-3_躯体と製品
  6
CONTINUOUS
 62
    3
 10
2303.454013
 20
-1010.308442
 11
2303.454013
 21
-1015.308402
  0
ARC
  8
_0-3_躯体と製品
  6
CONTINUOUS
 62
    3
 10
2302.4539749999999
 20
-1010.308442
 40
1.00004
 50
0
 51
90
  0
LINE
  8
_0-3_躯体と製品
  6
CONTINUOUS
 62
    3
 10
2302.4539749999999
 20
-1009.308402
 11
2294.4536589999998
 21
-1009.308402
  0
LINE
  8
_0-3_躯体と製品
  6
CONTINUOUS
 62
    3
 10
2303.454013
 20
-1002.308364
 11
2303.454013
 21
-997.308402
  0
ARC
  8
_0-3_躯体と製品
  6
CONTINUOUS
 62
    3
 10
2302.4539749999999
 20
-1002.308364
 40
1.00004
 50
270.00000000002598
 51
0.0000000000130171
  0
LINE
  8
_0-3_躯体と製品
  6
CONTINUOUS
 62
    3
 10
2302.4539749999999
 20
-1003.308402
 11
2294.4536589999998
 21
-1003.308402
  0
ARC
  8
_0-3_躯体と製品
  6
CONTINUOUS
 62
    3
 10
2294.4536589999998
 20
-1004.308442
 40
1.00004
 50
90
 51
180
  0
LINE
  8
_0-3_躯体と製品
  6
CONTINUOUS
 62
    3
 10
2293.4536210000001
 20
-1004.308442
 11
2293.4536210000001
 21
-1008.308362
  0
ARC
  8
_0-3_躯体と製品
  6
CONTINUOUS
 62
    3
 10
2294.4536589999998
 20
-1008.308362
 40
1.00004
 50
180
 51
270
  0
LINE
  8
_0-3_躯体と製品
  6
CONTINUOUS
 62
    3
 10
2393.454013
 20
-1010.308442
 11
2393.454013
 21
-1015.308402
  0
ARC
  8
_0-3_躯体と製品
  6
CONTINUOUS
 62
    3
 10
2392.4539749999999
 20
-1010.308442
 40
1.00004
 50
0
 51
90
  0
LINE
  8
_0-3_躯体と製品
  6
CONTINUOUS
 62
    3
 10
2392.4539749999999
 20
-1009.308402
 11
2384.4536589999998
 21
-1009.308402
  0
LINE
  8
_0-3_躯体と製品
  6
CONTINUOUS
 62
    3
 10
2393.454013
 20
-1002.308364
 11
2393.454013
 21
-997.308402
  0
ARC
  8
_0-3_躯体と製品
  6
CONTINUOUS
 62
    3
 10
2392.4539749999999
 20
-1002.308364
 40
1.00004
 50
270.00000000002598
 51
0.0000000000130171
  0
LINE
  8
_0-3_躯体と製品
  6
CONTINUOUS
 62
    3
 10
2392.4539749999999
 20
-1003.308402
 11
2384.4536589999998
 21
-1003.308402
  0
ARC
  8
_0-3_躯体と製品
  6
CONTINUOUS
 62
    3
 10
2384.4536589999998
 20
-1004.308442
 40
1.00004
 50
90
 51
180
  0
LINE
  8
_0-3_躯体と製品
  6
CONTINUOUS
 62
    3
 10
2383.4536210000001
 20
-1004.308442
 11
2383.4536210000001
 21
-1008.308362
  0
ARC
  8
_0-3_躯体と製品
  6
CONTINUOUS
 62
    3
 10
2384.4536589999998
 20
-1008.308362
 40
1.00004
 50
180
 51
270
  0
LINE
  8
_0-3_躯体と製品
  6
CONTINUOUS
 62
    4
 10
2259.0932109999999
 20
-997.308402
 11
2587.7133399999998
 21
-997.308402
  0
LINE
  8
_0-3_躯体と製品
  6
CONTINUOUS
 62
    3
 10
2259.0932109999999
 20
-1020.308402
 11
2587.7133399999998
 21
-1020.308402
  0
LINE
  8
_0-3_躯体と製品
  6
CONTINUOUS
 62
    3
 10
2259.0932109999999
 20
-1025.3084019999999
 11
2587.7133399999998
 21
-1025.3084019999999
  0
LINE
  8
_0-3_躯体と製品
  6
CONTINUOUS
 62
    4
 10
2259.0932109999999
 20
-1015.308402
 11
2587.7133399999998
 21
-1015.308402
  0
LINE
  8
_0-3_躯体と製品
  6
CONTINUOUS
 62
    3
 10
2483.4540179999999
 20
-1010.308442
 11
2483.4540179999999
 21
-1015.308402
  0
ARC
  8
_0-3_躯体と製品
  6
CONTINUOUS
 62
    3
 10
2482.4539799999998
 20
-1010.308442
 40
1.00004
 50
0
 51
90
  0
LINE
  8
_0-3_躯体と製品
  6
CONTINUOUS
 62
    3
 10
2482.4539799999998
 20
-1009.308402
 11
2474.4536640000001
 21
-1009.308402
  0
LINE
  8
_0-3_躯体と製品
  6
CONTINUOUS
 62
    3
 10
2483.4540179999999
 20
-1002.308364
 11
2483.4540179999999
 21
-997.308402
  0
ARC
  8
_0-3_躯体と製品
  6
CONTINUOUS
 62
    3
 10
2482.4539799999998
 20
-1002.308364
 40
1.00004
 50
270.00000000002598
 51
0.0000000000130171
  0
LINE
  8
_0-3_躯体と製品
  6
CONTINUOUS
 62
    3
 10
2482.4539799999998
 20
-1003.308402
 11
2474.4536640000001
 21
-1003.308402
  0
ARC
  8
_0-3_躯体と製品
  6
CONTINUOUS
 62
    3
 10
2474.4536640000001
 20
-1004.308442
 40
1.00004
 50
90
 51
180
  0
LINE
  8
_0-3_躯体と製品
  6
CONTINUOUS
 62
    3
 10
2473.453626
 20
-1004.308442
 11
2473.453626
 21
-1008.308362
  0
ARC
  8
_0-3_躯体と製品
  6
CONTINUOUS
 62
    3
 10
2474.4536640000001
 20
-1008.308362
 40
1.00004
 50
180
 51
270
  0
LINE
  8
_0-3_躯体と製品
  6
CONTINUOUS
 62
    4
 10
2819.376671
 20
-1090.3084100000001
 11
2634.2656740000002
 21
-1090.3084100000001
  0
LINE
  8
_0-3_躯体と製品
  6
CONTINUOUS
 62
    3
 10
2819.376671
 20
-1087.6084209999999
 11
2634.2656740000002
 21
-1087.6084209999999
  0
LINE
  8
_0-3_躯体と製品
  6
CONTINUOUS
 62
    4
 10
2634.2656740000002
 20
-1061.3084100000001
 11
3042.4875160000001
 21
-1061.3084100000001
  0
LINE
  8
_0-3_躯体と製品
  6
CONTINUOUS
 62
    3
 10
2857.3765189999999
 20
-1087.6084209999999
 11
3042.4875160000001
 21
-1087.6084209999999
  0
LINE
  8
_0-3_躯体と製品
  6
CONTINUOUS
 62
    4
 10
3042.4875160000001
 20
-1090.3084100000001
 11
2857.3765189999999
 21
-1090.3084100000001
  0
LINE
  8
_0-3_躯体と製品
  6
CONTINUOUS
 62
    4
 10
2819.376671
 20
-1085.6084289999999
 11
2857.3765189999999
 21
-1085.6084289999999
  0
LINE
  8
_0-3_躯体と製品
  6
CONTINUOUS
 62
    4
 10
2857.3765189999999
 20
-1085.6084289999999
 11
2857.3765189999999
 21
-1092.3084019999999
  0
LINE
  8
_0-3_躯体と製品
  6
CONTINUOUS
 62
    4
 10
2857.3765189999999
 20
-1092.3084019999999
 11
2819.376671
 21
-1092.3084019999999
  0
LINE
  8
_0-3_躯体と製品
  6
CONTINUOUS
 62
    4
 10
2819.376671
 20
-1092.3084019999999
 11
2819.376671
 21
-1085.6084289999999
  0
LINE
  8
_0-5_中心線
  6
CENTER1_17
 62
    7
 10
2988.3765950000002
 20
-1019.58241
 11
2988.3765950000002
 21
-1071.67641
  0
LINE
  8
_0-3_躯体と製品
  6
CONTINUOUS
 62
    4
 10
2973.074595
 20
-1031.50641
 11
3003.6805949999998
 21
-1031.50641
  0
LINE
  8
_0-3_躯体と製品
  6
CONTINUOUS
 62
    4
 10
2973.074595
 20
-1030.3084100000001
 11
3003.6805949999998
 21
-1030.3084100000001
  0
LINE
  8
_0-3_躯体と製品
  6
CONTINUOUS
 62
    4
 10
3022.3765950000002
 20
-1061.3064099999999
 11
3022.3765950000002
 21
-1054.60841
  0
LINE
  8
_0-3_躯体と製品
  6
CONTINUOUS
 62
    4
 10
3022.3765950000002
 20
-1054.60841
 11
3017.3765950000002
 21
-1054.60841
  0
LINE
  8
_0-3_躯体と製品
  6
CONTINUOUS
 62
    4
 10
3017.3765950000002
 20
-1054.60841
 11
3017.3765950000002
 21
-1056.60841
  0
LINE
  8
_0-3_躯体と製品
  6
CONTINUOUS
 62
    4
 10
3017.3765950000002
 20
-1056.60841
 11
3020.3765950000002
 21
-1056.60841
  0
LINE
  8
_0-3_躯体と製品
  6
CONTINUOUS
 62
    4
 10
3020.3765950000002
 20
-1056.60841
 11
3020.3765950000002
 21
-1059.3084100000001
  0
LINE
  8
_0-3_躯体と製品
  6
CONTINUOUS
 62
    4
 10
3020.3765950000002
 20
-1059.3084100000001
 11
2956.3765950000002
 21
-1059.3084100000001
  0
LINE
  8
_0-3_躯体と製品
  6
CONTINUOUS
 62
    4
 10
2956.3765950000002
 20
-1059.3084100000001
 11
2956.3765950000002
 21
-1056.60841
  0
LINE
  8
_0-3_躯体と製品
  6
CONTINUOUS
 62
    4
 10
2956.3765950000002
 20
-1056.60841
 11
2959.3765950000002
 21
-1056.60841
  0
LINE
  8
_0-3_躯体と製品
  6
CONTINUOUS
 62
    4
 10
2959.3765950000002
 20
-1056.60841
 11
2959.3765950000002
 21
-1054.60841
  0
LINE
  8
_0-3_躯体と製品
  6
CONTINUOUS
 62
    4
 10
2959.3765950000002
 20
-1054.60841
 11
2954.3765950000002
 21
-1054.60841
  0
LINE
  8
_0-3_躯体と製品
  6
CONTINUOUS
 62
    4
 10
2954.3765950000002
 20
-1054.60841
 11
2954.3765950000002
 21
-1061.3084100000001
  0
LINE
  8
_0-3_躯体と製品
  6
CONTINUOUS
 62
    4
 10
2954.3765950000002
 20
-1061.3084100000001
 11
3022.3765950000002
 21
-1061.3084100000001
  0
LINE
  8
_0-5_中心線
  6
CENTER1_17
 62
    7
 10
2964.3345949999998
 20
-1077.8294100000001
 11
2964.3345949999998
 21
-1052.57241
  0
LINE
  8
_0-3_躯体と製品
  6
CONTINUOUS
 62
    4
 10
2969.8765950000002
 20
-1058.11041
 11
2958.074595
 21
-1058.11041
  0
LINE
  8
_0-3_躯体と製品
  6
CONTINUOUS
 62
    4
 10
2969.8765950000002
 20
-1059.3084100000001
 11
2958.076595
 21
-1059.3084100000001
  0
LINE
  8
_0-3_躯体と製品
  6
CONTINUOUS
 62
    4
 10
2957.574595
 20
-1056.60841
 11
2956.3765950000002
 21
-1056.60841
  0
ARC
  8
_0-3_躯体と製品
  6
CONTINUOUS
 62
    4
 10
2958.074595
 20
-1057.61041
 40
0.5
 50
180.00000599976096
 51
269.99999700012
  0
ARC
  8
_0-3_躯体と製品
  6
CONTINUOUS
 62
    4
 10
2958.076595
 20
-1057.60841
 40
1.7
 50
180.00000599976201
 51
269.99999700012302
  0
LINE
  8
_0-3_躯体と製品
  6
CONTINUOUS
 62
    4
 10
2957.574595
 20
-1056.60841
 11
2957.574595
 21
-1057.61041
  0
LINE
  8
_0-3_躯体と製品
  6
CONTINUOUS
 62
    4
 10
2956.3765950000002
 20
-1056.60841
 11
2956.3765950000002
 21
-1057.60841
  0
LINE
  8
_0-3_躯体と製品
  6
CONTINUOUS
 62
    4
 10
2972.074595
 20
-1032.50441
 11
2972.074595
 21
-1057.11041
  0
LINE
  8
_0-3_躯体と製品
  6
CONTINUOUS
 62
    4
 10
2970.8765950000002
 20
-1032.50441
 11
2970.8765950000002
 21
-1057.11041
  0
ARC
  8
_0-3_躯体と製品
  6
CONTINUOUS
 62
    4
 10
2964.884595
 20
-1055.73541
 40
0.2
 50
269.99999700014604
 51
0.0000000000000568
  0
ARC
  8
_0-3_躯体と製品
  6
CONTINUOUS
 62
    4
 10
2964.8815949999998
 20
-1059.89841
 40
4.819
 50
48.111754999517501
 51
96.5174420003367
  0
LINE
  8
_0-3_躯体と製品
  6
CONTINUOUS
 62
    4
 10
2968.0995950000001
 20
-1056.31041
 11
2964.3345949999998
 21
-1056.31041
  0
LINE
  8
_0-3_躯体と製品
  6
CONTINUOUS
 62
    4
 10
2963.161595
 20
-1055.4224099999999
 11
2963.4755949999999
 21
-1055.3944100000001
  0
LINE
  8
_0-3_躯体と製品
  6
CONTINUOUS
 62
    4
 10
2962.6845950000002
 20
-1055.5214100000001
 11
2963.161595
 21
-1055.4224099999999
  0
LINE
  8
_0-3_躯体と製品
  6
CONTINUOUS
 62
    4
 10
2962.2345949999999
 20
-1055.6564100000001
 11
2962.6845950000002
 21
-1055.5214100000001
  0
LINE
  8
_0-3_躯体と製品
  6
CONTINUOUS
 62
    4
 10
2961.9565950000001
 20
-1055.77441
 11
2962.2345949999999
 21
-1055.6564100000001
  0
LINE
  8
_0-3_躯体と製品
  6
CONTINUOUS
 62
    4
 10
2961.699595
 20
-1055.67941
 11
2961.6495949999999
 21
-1055.5794100000001
  0
ARC
  8
_0-3_躯体と製品
  6
CONTINUOUS
 62
    4
 10
2963.7845950000001
 20
-1055.73541
 40
0.2
 50
180.000005999774
 51
269.99999700014598
  0
ARC
  8
_0-3_躯体と製品
  6
CONTINUOUS
 62
    4
 10
2963.4845949999999
 20
-1055.49341
 40
0.1
 50
0
 51
95.194432000512592
  0
ARC
  8
_0-3_躯体と製品
  6
CONTINUOUS
 62
    4
 10
2961.8785950000001
 20
-1055.59041
 40
0.2
 50
206.43686799959301
 51
292.97271899955098
  0
ARC
  8
_0-3_躯体と製品
  6
CONTINUOUS
 62
    4
 10
2963.7875949999998
 20
-1059.89841
 40
4.819
 50
83.482563000374086
 51
131.88825100021401
  0
LINE
  8
_0-3_躯体と製品
  6
CONTINUOUS
 62
    4
 10
2960.5695949999999
 20
-1056.31041
 11
2964.3345949999998
 21
-1056.31041
  0
LINE
  8
_0-3_躯体と製品
  6
CONTINUOUS
 62
    4
 10
2963.7845950000001
 20
-1055.93541
 11
2964.3345949999998
 21
-1055.93541
  0
LINE
  8
_0-3_躯体と製品
  6
CONTINUOUS
 62
    4
 10
2963.5845949999998
 20
-1055.73541
 11
2963.5845949999998
 21
-1055.49341
  0
LINE
  8
_0-3_躯体と製品
  6
CONTINUOUS
 62
    4
 10
2964.884595
 20
-1055.93541
 11
2964.3345949999998
 21
-1055.93541
  0
LINE
  8
_0-3_躯体と製品
  6
CONTINUOUS
 62
    4
 10
2965.507595
 20
-1055.4224099999999
 11
2965.1935950000002
 21
-1055.3944100000001
  0
LINE
  8
_0-3_躯体と製品
  6
CONTINUOUS
 62
    4
 10
2965.9845949999999
 20
-1055.5214100000001
 11
2965.507595
 21
-1055.4224099999999
  0
LINE
  8
_0-3_躯体と製品
  6
CONTINUOUS
 62
    4
 10
2966.4345950000002
 20
-1055.6564100000001
 11
2965.9845949999999
 21
-1055.5214100000001
  0
LINE
  8
_0-3_躯体と製品
  6
CONTINUOUS
 62
    4
 10
2966.712595
 20
-1055.77441
 11
2966.4345950000002
 21
-1055.6564100000001
  0
LINE
  8
_0-3_躯体と製品
  6
CONTINUOUS
 62
    4
 10
2965.0845949999998
 20
-1055.73541
 11
2965.0845949999998
 21
-1055.49341
  0
ARC
  8
_0-3_躯体と製品
  6
CONTINUOUS
 62
    4
 10
2965.1845950000002
 20
-1055.49341
 40
0.1
 50
84.805573999867903
 51
180.000005999709
  0
ARC
  8
_0-3_躯体と製品
  6
CONTINUOUS
 62
    4
 10
2966.7905949999999
 20
-1055.59041
 40
0.2
 50
247.02727499998102
 51
333.56312600015099
  0
LINE
  8
_0-3_躯体と製品
  6
CONTINUOUS
 62
    4
 10
2966.969595
 20
-1055.67941
 11
2967.0195950000002
 21
-1055.5794100000001
  0
LINE
  8
_0-3_躯体と製品
  6
CONTINUOUS
 62
    4
 10
2968.134595
 20
-1058.11041
 11
2964.3345949999998
 21
-1058.11041
  0
ARC
  8
_0-3_躯体と製品
  6
CONTINUOUS
 62
    4
 10
2960.5345950000001
 20
-1057.91041
 40
0.2
 50
180.000005999774
 51
269.99999700014598
  0
LINE
  8
_0-3_躯体と製品
  6
CONTINUOUS
 62
    4
 10
2960.3345949999998
 20
-1057.4614099999999
 11
2960.3345949999998
 21
-1057.91041
  0
LINE
  8
_0-3_躯体と製品
  6
CONTINUOUS
 62
    4
 10
2960.5345950000001
 20
-1058.11041
 11
2964.3345949999998
 21
-1058.11041
  0
ARC
  8
_0-3_躯体と製品
  6
CONTINUOUS
 62
    4
 10
2968.134595
 20
-1057.91041
 40
0.2
 50
269.99999700014604
 51
0.0000000000000568
  0
LINE
  8
_0-3_躯体と製品
  6
CONTINUOUS
 62
    4
 10
2968.3345949999998
 20
-1057.4614099999999
 11
2968.3345949999998
 21
-1057.91041
  0
LINE
  8
_0-3_躯体と製品
  6
CONTINUOUS
 62
    4
 10
2960.5695949999999
 20
-1056.31041
 11
2960.3345949999998
 21
-1057.4614099999999
  0
LINE
  8
_0-3_躯体と製品
  6
CONTINUOUS
 62
    4
 10
2968.0995950000001
 20
-1056.31041
 11
2968.3345949999998
 21
-1057.4614099999999
  0
ARC
  8
_0-3_躯体と製品
  6
CONTINUOUS
 62
    4
 10
2969.8765950000002
 20
-1057.11041
 40
2.198
 50
269.99999700011898
 51
0
  0
ARC
  8
_0-3_躯体と製品
  6
CONTINUOUS
 62
    4
 10
2969.8765950000002
 20
-1057.11041
 40
1
 50
269.99999700012
 51
0
  0
ARC
  8
_0-3_躯体と製品
  6
CONTINUOUS
 62
    4
 10
2973.074595
 20
-1032.50441
 40
2.198
 50
90.000002999881303
 51
180.000005999763
  0
ARC
  8
_0-3_躯体と製品
  6
CONTINUOUS
 62
    4
 10
2973.074595
 20
-1032.50441
 40
1
 50
90.000002999880479
 51
180.00000599976096
  0
LINE
  8
_0-5_中心線
  6
CENTER1_17
 62
    7
 10
3012.420595
 20
-1077.8294100000001
 11
3012.420595
 21
-1052.57241
  0
LINE
  8
_0-3_躯体と製品
  6
CONTINUOUS
 62
    4
 10
3005.8765950000002
 20
-1032.50441
 11
3005.8765950000002
 21
-1057.11041
  0
LINE
  8
_0-3_躯体と製品
  6
CONTINUOUS
 62
    4
 10
3004.6785949999999
 20
-1032.50441
 11
3004.6785949999999
 21
-1057.11041
  0
ARC
  8
_0-3_躯体と製品
  6
CONTINUOUS
 62
    4
 10
3011.873595
 20
-1059.89841
 40
4.819
 50
83.482563000374086
 51
131.88825100021401
  0
LINE
  8
_0-3_躯体と製品
  6
CONTINUOUS
 62
    4
 10
3008.6555950000002
 20
-1056.31041
 11
3012.420595
 21
-1056.31041
  0
LINE
  8
_0-3_躯体と製品
  6
CONTINUOUS
 62
    4
 10
3008.6205949999999
 20
-1058.11041
 11
3012.420595
 21
-1058.11041
  0
LINE
  8
_0-3_躯体と製品
  6
CONTINUOUS
 62
    4
 10
3018.6765949999999
 20
-1059.3084100000001
 11
3006.8765950000002
 21
-1059.3084100000001
  0
LINE
  8
_0-3_躯体と製品
  6
CONTINUOUS
 62
    4
 10
3018.6785949999999
 20
-1058.11041
 11
3006.8765950000002
 21
-1058.11041
  0
ARC
  8
_0-3_躯体と製品
  6
CONTINUOUS
 62
    4
 10
3008.6205949999999
 20
-1057.91041
 40
0.2
 50
180.000005999774
 51
269.99999700014598
  0
LINE
  8
_0-3_躯体と製品
  6
CONTINUOUS
 62
    4
 10
3008.420595
 20
-1057.4614099999999
 11
3008.420595
 21
-1057.91041
  0
LINE
  8
_0-3_躯体と製品
  6
CONTINUOUS
 62
    4
 10
3008.6555950000002
 20
-1056.31041
 11
3008.420595
 21
-1057.4614099999999
  0
ARC
  8
_0-3_躯体と製品
  6
CONTINUOUS
 62
    4
 10
3006.8765950000002
 20
-1057.11041
 40
2.198
 50
180.000005999763
 51
269.99999700011898
  0
ARC
  8
_0-3_躯体と製品
  6
CONTINUOUS
 62
    4
 10
3006.8765950000002
 20
-1057.11041
 40
1
 50
180.00000599976096
 51
269.99999700012
  0
LINE
  8
_0-3_躯体と製品
  6
CONTINUOUS
 62
    4
 10
3011.2475949999998
 20
-1055.4224099999999
 11
3011.5615950000001
 21
-1055.3944100000001
  0
LINE
  8
_0-3_躯体と製品
  6
CONTINUOUS
 62
    4
 10
3010.770595
 20
-1055.5214100000001
 11
3011.2475949999998
 21
-1055.4224099999999
  0
LINE
  8
_0-3_躯体と製品
  6
CONTINUOUS
 62
    4
 10
3010.3205950000001
 20
-1055.6564100000001
 11
3010.770595
 21
-1055.5214100000001
  0
LINE
  8
_0-3_躯体と製品
  6
CONTINUOUS
 62
    4
 10
3010.0425949999999
 20
-1055.77441
 11
3010.3205950000001
 21
-1055.6564100000001
  0
LINE
  8
_0-3_躯体と製品
  6
CONTINUOUS
 62
    4
 10
3013.5935949999998
 20
-1055.4224099999999
 11
3013.279595
 21
-1055.3944100000001
  0
LINE
  8
_0-3_躯体と製品
  6
CONTINUOUS
 62
    4
 10
3014.0705950000001
 20
-1055.5214100000001
 11
3013.5935949999998
 21
-1055.4224099999999
  0
LINE
  8
_0-3_躯体と製品
  6
CONTINUOUS
 62
    4
 10
3014.520595
 20
-1055.6564100000001
 11
3014.0705950000001
 21
-1055.5214100000001
  0
LINE
  8
_0-3_躯体と製品
  6
CONTINUOUS
 62
    4
 10
3014.7985950000002
 20
-1055.77441
 11
3014.520595
 21
-1055.6564100000001
  0
ARC
  8
_0-3_躯体と製品
  6
CONTINUOUS
 62
    4
 10
3012.9675950000001
 20
-1059.89841
 40
4.819
 50
48.111754999517501
 51
96.5174420003367
  0
LINE
  8
_0-3_躯体と製品
  6
CONTINUOUS
 62
    4
 10
3016.1855949999999
 20
-1056.31041
 11
3012.420595
 21
-1056.31041
  0
LINE
  8
_0-3_躯体と製品
  6
CONTINUOUS
 62
    4
 10
3012.9705949999998
 20
-1055.93541
 11
3012.420595
 21
-1055.93541
  0
LINE
  8
_0-3_躯体と製品
  6
CONTINUOUS
 62
    4
 10
3013.170595
 20
-1055.73541
 11
3013.170595
 21
-1055.49341
  0
ARC
  8
_0-3_躯体と製品
  6
CONTINUOUS
 62
    4
 10
3012.9705949999998
 20
-1055.73541
 40
0.2
 50
269.99999700014604
 51
0.0000000000000568
  0
ARC
  8
_0-3_躯体と製品
  6
CONTINUOUS
 62
    4
 10
3013.270595
 20
-1055.49341
 40
0.1
 50
84.805573999867903
 51
180.000005999709
  0
ARC
  8
_0-3_躯体と製品
  6
CONTINUOUS
 62
    4
 10
3014.8765950000002
 20
-1055.59041
 40
0.2
 50
247.02727499998102
 51
333.56312600015099
  0
LINE
  8
_0-3_躯体と製品
  6
CONTINUOUS
 62
    4
 10
3015.0555949999998
 20
-1055.67941
 11
3015.105595
 21
-1055.5794100000001
  0
LINE
  8
_0-3_躯体と製品
  6
CONTINUOUS
 62
    4
 10
3011.8705949999999
 20
-1055.93541
 11
3012.420595
 21
-1055.93541
  0
LINE
  8
_0-3_躯体と製品
  6
CONTINUOUS
 62
    4
 10
3011.670595
 20
-1055.73541
 11
3011.670595
 21
-1055.49341
  0
LINE
  8
_0-3_躯体と製品
  6
CONTINUOUS
 62
    4
 10
3009.7855949999998
 20
-1055.67941
 11
3009.7355950000001
 21
-1055.5794100000001
  0
ARC
  8
_0-3_躯体と製品
  6
CONTINUOUS
 62
    4
 10
3011.8705949999999
 20
-1055.73541
 40
0.2
 50
180.000005999774
 51
269.99999700014598
  0
ARC
  8
_0-3_躯体と製品
  6
CONTINUOUS
 62
    4
 10
3011.5705950000001
 20
-1055.49341
 40
0.1
 50
0
 51
95.194432000512592
  0
ARC
  8
_0-3_躯体と製品
  6
CONTINUOUS
 62
    4
 10
3009.9645949999999
 20
-1055.59041
 40
0.2
 50
206.43686799959301
 51
292.97271899955098
  0
LINE
  8
_0-3_躯体と製品
  6
CONTINUOUS
 62
    4
 10
3019.1785949999999
 20
-1056.60841
 11
3020.3765950000002
 21
-1056.60841
  0
LINE
  8
_0-3_躯体と製品
  6
CONTINUOUS
 62
    4
 10
3016.420595
 20
-1057.4614099999999
 11
3016.420595
 21
-1057.91041
  0
ARC
  8
_0-3_躯体と製品
  6
CONTINUOUS
 62
    4
 10
3016.2205949999998
 20
-1057.91041
 40
0.2
 50
269.99999700014604
 51
0.0000000000000568
  0
LINE
  8
_0-3_躯体と製品
  6
CONTINUOUS
 62
    4
 10
3016.2205949999998
 20
-1058.11041
 11
3012.420595
 21
-1058.11041
  0
ARC
  8
_0-3_躯体と製品
  6
CONTINUOUS
 62
    4
 10
3018.6785949999999
 20
-1057.61041
 40
0.5
 50
269.99999700012
 51
0
  0
ARC
  8
_0-3_躯体と製品
  6
CONTINUOUS
 62
    4
 10
3018.6765949999999
 20
-1057.60841
 40
1.7
 50
269.99999700012302
 51
0
  0
LINE
  8
_0-3_躯体と製品
  6
CONTINUOUS
 62
    4
 10
3020.3765950000002
 20
-1056.60841
 11
3020.3765950000002
 21
-1057.60841
  0
LINE
  8
_0-3_躯体と製品
  6
CONTINUOUS
 62
    4
 10
3016.1855949999999
 20
-1056.31041
 11
3016.420595
 21
-1057.4614099999999
  0
LINE
  8
_0-3_躯体と製品
  6
CONTINUOUS
 62
    4
 10
3019.1785949999999
 20
-1056.60841
 11
3019.1785949999999
 21
-1057.61041
  0
ARC
  8
_0-3_躯体と製品
  6
CONTINUOUS
 62
    4
 10
3003.6805949999998
 20
-1032.50441
 40
2.198
 50
0
 51
90.000002999881303
  0
ARC
  8
_0-3_躯体と製品
  6
CONTINUOUS
 62
    4
 10
3003.6805949999998
 20
-1032.50441
 40
1
 50
0
 51
90.000002999880479
  0
LINE
  8
_0-5_中心線
  6
CENTER1_17
 62
    7
 10
2688.3765950000002
 20
-1019.58241
 11
2688.3765950000002
 21
-1071.67641
  0
LINE
  8
_0-3_躯体と製品
  6
CONTINUOUS
 62
    4
 10
2673.074595
 20
-1031.50641
 11
2703.6805949999998
 21
-1031.50641
  0
LINE
  8
_0-3_躯体と製品
  6
CONTINUOUS
 62
    4
 10
2634.2656740000002
 20
-1030.3084100000001
 11
2703.6805949999998
 21
-1030.3084100000001
  0
LINE
  8
_0-3_躯体と製品
  6
CONTINUOUS
 62
    4
 10
2722.3765950000002
 20
-1061.3064099999999
 11
2722.3765950000002
 21
-1054.60841
  0
LINE
  8
_0-3_躯体と製品
  6
CONTINUOUS
 62
    4
 10
2722.3765950000002
 20
-1054.60841
 11
2717.3765950000002
 21
-1054.60841
  0
LINE
  8
_0-3_躯体と製品
  6
CONTINUOUS
 62
    4
 10
2717.3765950000002
 20
-1054.60841
 11
2717.3765950000002
 21
-1056.60841
  0
LINE
  8
_0-3_躯体と製品
  6
CONTINUOUS
 62
    4
 10
2717.3765950000002
 20
-1056.60841
 11
2720.3765950000002
 21
-1056.60841
  0
LINE
  8
_0-3_躯体と製品
  6
CONTINUOUS
 62
    4
 10
2720.3765950000002
 20
-1056.60841
 11
2720.3765950000002
 21
-1059.3084100000001
  0
LINE
  8
_0-3_躯体と製品
  6
CONTINUOUS
 62
    4
 10
2720.3765950000002
 20
-1059.3084100000001
 11
2656.3765950000002
 21
-1059.3084100000001
  0
LINE
  8
_0-3_躯体と製品
  6
CONTINUOUS
 62
    4
 10
2656.3765950000002
 20
-1059.3084100000001
 11
2656.3765950000002
 21
-1056.60841
  0
LINE
  8
_0-3_躯体と製品
  6
CONTINUOUS
 62
    4
 10
2656.3765950000002
 20
-1056.60841
 11
2659.3765950000002
 21
-1056.60841
  0
LINE
  8
_0-3_躯体と製品
  6
CONTINUOUS
 62
    4
 10
2659.3765950000002
 20
-1056.60841
 11
2659.3765950000002
 21
-1054.60841
  0
LINE
  8
_0-3_躯体と製品
  6
CONTINUOUS
 62
    4
 10
2659.3765950000002
 20
-1054.60841
 11
2654.3765950000002
 21
-1054.60841
  0
LINE
  8
_0-3_躯体と製品
  6
CONTINUOUS
 62
    4
 10
2654.3765950000002
 20
-1054.60841
 11
2654.3765950000002
 21
-1061.3084100000001
  0
LINE
  8
_0-3_躯体と製品
  6
CONTINUOUS
 62
    4
 10
2654.3765950000002
 20
-1061.3084100000001
 11
2722.3765950000002
 21
-1061.3084100000001
  0
LINE
  8
_0-5_中心線
  6
CENTER1_17
 62
    7
 10
2664.3345949999998
 20
-1077.8294100000001
 11
2664.3345949999998
 21
-1052.57241
  0
LINE
  8
_0-3_躯体と製品
  6
CONTINUOUS
 62
    4
 10
2669.8765950000002
 20
-1058.11041
 11
2658.074595
 21
-1058.11041
  0
LINE
  8
_0-3_躯体と製品
  6
CONTINUOUS
 62
    4
 10
2669.8765950000002
 20
-1059.3084100000001
 11
2658.076595
 21
-1059.3084100000001
  0
LINE
  8
_0-3_躯体と製品
  6
CONTINUOUS
 62
    4
 10
2657.574595
 20
-1056.60841
 11
2656.3765950000002
 21
-1056.60841
  0
ARC
  8
_0-3_躯体と製品
  6
CONTINUOUS
 62
    4
 10
2658.074595
 20
-1057.61041
 40
0.5
 50
180.00000599976096
 51
269.99999700012
  0
ARC
  8
_0-3_躯体と製品
  6
CONTINUOUS
 62
    4
 10
2658.076595
 20
-1057.60841
 40
1.7
 50
180.00000599976201
 51
269.99999700012302
  0
LINE
  8
_0-3_躯体と製品
  6
CONTINUOUS
 62
    4
 10
2657.574595
 20
-1056.60841
 11
2657.574595
 21
-1057.61041
  0
LINE
  8
_0-3_躯体と製品
  6
CONTINUOUS
 62
    4
 10
2656.3765950000002
 20
-1056.60841
 11
2656.3765950000002
 21
-1057.60841
  0
LINE
  8
_0-3_躯体と製品
  6
CONTINUOUS
 62
    4
 10
2672.074595
 20
-1032.50441
 11
2672.074595
 21
-1057.11041
  0
LINE
  8
_0-3_躯体と製品
  6
CONTINUOUS
 62
    4
 10
2670.8765950000002
 20
-1032.50441
 11
2670.8765950000002
 21
-1057.11041
  0
ARC
  8
_0-3_躯体と製品
  6
CONTINUOUS
 62
    4
 10
2664.884595
 20
-1055.73541
 40
0.2
 50
269.99999700014604
 51
0.0000000000000568
  0
ARC
  8
_0-3_躯体と製品
  6
CONTINUOUS
 62
    4
 10
2664.8815949999998
 20
-1059.89841
 40
4.819
 50
48.111754999517501
 51
96.5174420003367
  0
LINE
  8
_0-3_躯体と製品
  6
CONTINUOUS
 62
    4
 10
2668.0995950000001
 20
-1056.31041
 11
2664.3345949999998
 21
-1056.31041
  0
LINE
  8
_0-3_躯体と製品
  6
CONTINUOUS
 62
    4
 10
2663.161595
 20
-1055.4224099999999
 11
2663.4755949999999
 21
-1055.3944100000001
  0
LINE
  8
_0-3_躯体と製品
  6
CONTINUOUS
 62
    4
 10
2662.6845950000002
 20
-1055.5214100000001
 11
2663.161595
 21
-1055.4224099999999
  0
LINE
  8
_0-3_躯体と製品
  6
CONTINUOUS
 62
    4
 10
2662.2345949999999
 20
-1055.6564100000001
 11
2662.6845950000002
 21
-1055.5214100000001
  0
LINE
  8
_0-3_躯体と製品
  6
CONTINUOUS
 62
    4
 10
2661.9565950000001
 20
-1055.77441
 11
2662.2345949999999
 21
-1055.6564100000001
  0
LINE
  8
_0-3_躯体と製品
  6
CONTINUOUS
 62
    4
 10
2661.699595
 20
-1055.67941
 11
2661.6495949999999
 21
-1055.5794100000001
  0
ARC
  8
_0-3_躯体と製品
  6
CONTINUOUS
 62
    4
 10
2663.7845950000001
 20
-1055.73541
 40
0.2
 50
180.000005999774
 51
269.99999700014598
  0
ARC
  8
_0-3_躯体と製品
  6
CONTINUOUS
 62
    4
 10
2663.4845949999999
 20
-1055.49341
 40
0.1
 50
0
 51
95.194432000512592
  0
ARC
  8
_0-3_躯体と製品
  6
CONTINUOUS
 62
    4
 10
2661.8785950000001
 20
-1055.59041
 40
0.2
 50
206.43686799959301
 51
292.97271899955098
  0
ARC
  8
_0-3_躯体と製品
  6
CONTINUOUS
 62
    4
 10
2663.7875949999998
 20
-1059.89841
 40
4.819
 50
83.482563000374086
 51
131.88825100021401
  0
LINE
  8
_0-3_躯体と製品
  6
CONTINUOUS
 62
    4
 10
2660.5695949999999
 20
-1056.31041
 11
2664.3345949999998
 21
-1056.31041
  0
LINE
  8
_0-3_躯体と製品
  6
CONTINUOUS
 62
    4
 10
2663.7845950000001
 20
-1055.93541
 11
2664.3345949999998
 21
-1055.93541
  0
LINE
  8
_0-3_躯体と製品
  6
CONTINUOUS
 62
    4
 10
2663.5845949999998
 20
-1055.73541
 11
2663.5845949999998
 21
-1055.49341
  0
LINE
  8
_0-3_躯体と製品
  6
CONTINUOUS
 62
    4
 10
2664.884595
 20
-1055.93541
 11
2664.3345949999998
 21
-1055.93541
  0
LINE
  8
_0-3_躯体と製品
  6
CONTINUOUS
 62
    4
 10
2665.507595
 20
-1055.4224099999999
 11
2665.1935950000002
 21
-1055.3944100000001
  0
LINE
  8
_0-3_躯体と製品
  6
CONTINUOUS
 62
    4
 10
2665.9845949999999
 20
-1055.5214100000001
 11
2665.507595
 21
-1055.4224099999999
  0
LINE
  8
_0-3_躯体と製品
  6
CONTINUOUS
 62
    4
 10
2666.4345950000002
 20
-1055.6564100000001
 11
2665.9845949999999
 21
-1055.5214100000001
  0
LINE
  8
_0-3_躯体と製品
  6
CONTINUOUS
 62
    4
 10
2666.712595
 20
-1055.77441
 11
2666.4345950000002
 21
-1055.6564100000001
  0
LINE
  8
_0-3_躯体と製品
  6
CONTINUOUS
 62
    4
 10
2665.0845949999998
 20
-1055.73541
 11
2665.0845949999998
 21
-1055.49341
  0
ARC
  8
_0-3_躯体と製品
  6
CONTINUOUS
 62
    4
 10
2665.1845950000002
 20
-1055.49341
 40
0.1
 50
84.805573999867903
 51
180.000005999709
  0
ARC
  8
_0-3_躯体と製品
  6
CONTINUOUS
 62
    4
 10
2666.7905949999999
 20
-1055.59041
 40
0.2
 50
247.02727499998102
 51
333.56312600015099
  0
LINE
  8
_0-3_躯体と製品
  6
CONTINUOUS
 62
    4
 10
2666.969595
 20
-1055.67941
 11
2667.0195950000002
 21
-1055.5794100000001
  0
LINE
  8
_0-3_躯体と製品
  6
CONTINUOUS
 62
    4
 10
2668.134595
 20
-1058.11041
 11
2664.3345949999998
 21
-1058.11041
  0
ARC
  8
_0-3_躯体と製品
  6
CONTINUOUS
 62
    4
 10
2660.5345950000001
 20
-1057.91041
 40
0.2
 50
180.000005999774
 51
269.99999700014598
  0
LINE
  8
_0-3_躯体と製品
  6
CONTINUOUS
 62
    4
 10
2660.3345949999998
 20
-1057.4614099999999
 11
2660.3345949999998
 21
-1057.91041
  0
LINE
  8
_0-3_躯体と製品
  6
CONTINUOUS
 62
    4
 10
2660.5345950000001
 20
-1058.11041
 11
2664.3345949999998
 21
-1058.11041
  0
ARC
  8
_0-3_躯体と製品
  6
CONTINUOUS
 62
    4
 10
2668.134595
 20
-1057.91041
 40
0.2
 50
269.99999700014604
 51
0.0000000000000568
  0
LINE
  8
_0-3_躯体と製品
  6
CONTINUOUS
 62
    4
 10
2668.3345949999998
 20
-1057.4614099999999
 11
2668.3345949999998
 21
-1057.91041
  0
LINE
  8
_0-3_躯体と製品
  6
CONTINUOUS
 62
    4
 10
2660.5695949999999
 20
-1056.31041
 11
2660.3345949999998
 21
-1057.4614099999999
  0
LINE
  8
_0-3_躯体と製品
  6
CONTINUOUS
 62
    4
 10
2668.0995950000001
 20
-1056.31041
 11
2668.3345949999998
 21
-1057.4614099999999
  0
ARC
  8
_0-3_躯体と製品
  6
CONTINUOUS
 62
    4
 10
2669.8765950000002
 20
-1057.11041
 40
2.198
 50
269.99999700011898
 51
0
  0
ARC
  8
_0-3_躯体と製品
  6
CONTINUOUS
 62
    4
 10
2669.8765950000002
 20
-1057.11041
 40
1
 50
269.99999700012
 51
0
  0
ARC
  8
_0-3_躯体と製品
  6
CONTINUOUS
 62
    4
 10
2673.074595
 20
-1032.50441
 40
2.198
 50
90.000002999881303
 51
180.000005999763
  0
ARC
  8
_0-3_躯体と製品
  6
CONTINUOUS
 62
    4
 10
2673.074595
 20
-1032.50441
 40
1
 50
90.000002999880479
 51
180.00000599976096
  0
LINE
  8
_0-5_中心線
  6
CENTER1_17
 62
    7
 10
2712.420595
 20
-1077.8294100000001
 11
2712.420595
 21
-1052.57241
  0
LINE
  8
_0-3_躯体と製品
  6
CONTINUOUS
 62
    4
 10
2705.8765950000002
 20
-1032.50441
 11
2705.8765950000002
 21
-1057.11041
  0
LINE
  8
_0-3_躯体と製品
  6
CONTINUOUS
 62
    4
 10
2704.6785949999999
 20
-1032.50441
 11
2704.6785949999999
 21
-1057.11041
  0
ARC
  8
_0-3_躯体と製品
  6
CONTINUOUS
 62
    4
 10
2711.873595
 20
-1059.89841
 40
4.819
 50
83.482563000374086
 51
131.88825100021401
  0
LINE
  8
_0-3_躯体と製品
  6
CONTINUOUS
 62
    4
 10
2708.6555950000002
 20
-1056.31041
 11
2712.420595
 21
-1056.31041
  0
LINE
  8
_0-3_躯体と製品
  6
CONTINUOUS
 62
    4
 10
2708.6205949999999
 20
-1058.11041
 11
2712.420595
 21
-1058.11041
  0
LINE
  8
_0-3_躯体と製品
  6
CONTINUOUS
 62
    4
 10
2718.6765949999999
 20
-1059.3084100000001
 11
2706.8765950000002
 21
-1059.3084100000001
  0
LINE
  8
_0-3_躯体と製品
  6
CONTINUOUS
 62
    4
 10
2718.6785949999999
 20
-1058.11041
 11
2706.8765950000002
 21
-1058.11041
  0
ARC
  8
_0-3_躯体と製品
  6
CONTINUOUS
 62
    4
 10
2708.6205949999999
 20
-1057.91041
 40
0.2
 50
180.000005999774
 51
269.99999700014598
  0
LINE
  8
_0-3_躯体と製品
  6
CONTINUOUS
 62
    4
 10
2708.420595
 20
-1057.4614099999999
 11
2708.420595
 21
-1057.91041
  0
LINE
  8
_0-3_躯体と製品
  6
CONTINUOUS
 62
    4
 10
2708.6555950000002
 20
-1056.31041
 11
2708.420595
 21
-1057.4614099999999
  0
ARC
  8
_0-3_躯体と製品
  6
CONTINUOUS
 62
    4
 10
2706.8765950000002
 20
-1057.11041
 40
2.198
 50
180.000005999763
 51
269.99999700011898
  0
ARC
  8
_0-3_躯体と製品
  6
CONTINUOUS
 62
    4
 10
2706.8765950000002
 20
-1057.11041
 40
1
 50
180.00000599976096
 51
269.99999700012
  0
LINE
  8
_0-3_躯体と製品
  6
CONTINUOUS
 62
    4
 10
2711.2475949999998
 20
-1055.4224099999999
 11
2711.5615950000001
 21
-1055.3944100000001
  0
LINE
  8
_0-3_躯体と製品
  6
CONTINUOUS
 62
    4
 10
2710.770595
 20
-1055.5214100000001
 11
2711.2475949999998
 21
-1055.4224099999999
  0
LINE
  8
_0-3_躯体と製品
  6
CONTINUOUS
 62
    4
 10
2710.3205950000001
 20
-1055.6564100000001
 11
2710.770595
 21
-1055.5214100000001
  0
LINE
  8
_0-3_躯体と製品
  6
CONTINUOUS
 62
    4
 10
2710.0425949999999
 20
-1055.77441
 11
2710.3205950000001
 21
-1055.6564100000001
  0
LINE
  8
_0-3_躯体と製品
  6
CONTINUOUS
 62
    4
 10
2713.5935949999998
 20
-1055.4224099999999
 11
2713.279595
 21
-1055.3944100000001
  0
LINE
  8
_0-3_躯体と製品
  6
CONTINUOUS
 62
    4
 10
2714.0705950000001
 20
-1055.5214100000001
 11
2713.5935949999998
 21
-1055.4224099999999
  0
LINE
  8
_0-3_躯体と製品
  6
CONTINUOUS
 62
    4
 10
2714.520595
 20
-1055.6564100000001
 11
2714.0705950000001
 21
-1055.5214100000001
  0
LINE
  8
_0-3_躯体と製品
  6
CONTINUOUS
 62
    4
 10
2714.7985950000002
 20
-1055.77441
 11
2714.520595
 21
-1055.6564100000001
  0
ARC
  8
_0-3_躯体と製品
  6
CONTINUOUS
 62
    4
 10
2712.9675950000001
 20
-1059.89841
 40
4.819
 50
48.111754999517501
 51
96.5174420003367
  0
LINE
  8
_0-3_躯体と製品
  6
CONTINUOUS
 62
    4
 10
2716.1855949999999
 20
-1056.31041
 11
2712.420595
 21
-1056.31041
  0
LINE
  8
_0-3_躯体と製品
  6
CONTINUOUS
 62
    4
 10
2712.9705949999998
 20
-1055.93541
 11
2712.420595
 21
-1055.93541
  0
LINE
  8
_0-3_躯体と製品
  6
CONTINUOUS
 62
    4
 10
2713.170595
 20
-1055.73541
 11
2713.170595
 21
-1055.49341
  0
ARC
  8
_0-3_躯体と製品
  6
CONTINUOUS
 62
    4
 10
2712.9705949999998
 20
-1055.73541
 40
0.2
 50
269.99999700014604
 51
0.0000000000000568
  0
ARC
  8
_0-3_躯体と製品
  6
CONTINUOUS
 62
    4
 10
2713.270595
 20
-1055.49341
 40
0.1
 50
84.805573999867903
 51
180.000005999709
  0
ARC
  8
_0-3_躯体と製品
  6
CONTINUOUS
 62
    4
 10
2714.8765950000002
 20
-1055.59041
 40
0.2
 50
247.02727499998102
 51
333.56312600015099
  0
LINE
  8
_0-3_躯体と製品
  6
CONTINUOUS
 62
    4
 10
2715.0555949999998
 20
-1055.67941
 11
2715.105595
 21
-1055.5794100000001
  0
LINE
  8
_0-3_躯体と製品
  6
CONTINUOUS
 62
    4
 10
2711.8705949999999
 20
-1055.93541
 11
2712.420595
 21
-1055.93541
  0
LINE
  8
_0-3_躯体と製品
  6
CONTINUOUS
 62
    4
 10
2711.670595
 20
-1055.73541
 11
2711.670595
 21
-1055.49341
  0
LINE
  8
_0-3_躯体と製品
  6
CONTINUOUS
 62
    4
 10
2709.7855949999998
 20
-1055.67941
 11
2709.7355950000001
 21
-1055.5794100000001
  0
ARC
  8
_0-3_躯体と製品
  6
CONTINUOUS
 62
    4
 10
2711.8705949999999
 20
-1055.73541
 40
0.2
 50
180.000005999774
 51
269.99999700014598
  0
ARC
  8
_0-3_躯体と製品
  6
CONTINUOUS
 62
    4
 10
2711.5705950000001
 20
-1055.49341
 40
0.1
 50
0
 51
95.194432000512592
  0
ARC
  8
_0-3_躯体と製品
  6
CONTINUOUS
 62
    4
 10
2709.9645949999999
 20
-1055.59041
 40
0.2
 50
206.43686799959301
 51
292.97271899955098
  0
LINE
  8
_0-3_躯体と製品
  6
CONTINUOUS
 62
    4
 10
2719.1785949999999
 20
-1056.60841
 11
2720.3765950000002
 21
-1056.60841
  0
LINE
  8
_0-3_躯体と製品
  6
CONTINUOUS
 62
    4
 10
2716.420595
 20
-1057.4614099999999
 11
2716.420595
 21
-1057.91041
  0
ARC
  8
_0-3_躯体と製品
  6
CONTINUOUS
 62
    4
 10
2716.2205949999998
 20
-1057.91041
 40
0.2
 50
269.99999700014604
 51
0.0000000000000568
  0
LINE
  8
_0-3_躯体と製品
  6
CONTINUOUS
 62
    4
 10
2716.2205949999998
 20
-1058.11041
 11
2712.420595
 21
-1058.11041
  0
ARC
  8
_0-3_躯体と製品
  6
CONTINUOUS
 62
    4
 10
2718.6785949999999
 20
-1057.61041
 40
0.5
 50
269.99999700012
 51
0
  0
ARC
  8
_0-3_躯体と製品
  6
CONTINUOUS
 62
    4
 10
2718.6765949999999
 20
-1057.60841
 40
1.7
 50
269.99999700012302
 51
0
  0
LINE
  8
_0-3_躯体と製品
  6
CONTINUOUS
 62
    4
 10
2720.3765950000002
 20
-1056.60841
 11
2720.3765950000002
 21
-1057.60841
  0
LINE
  8
_0-3_躯体と製品
  6
CONTINUOUS
 62
    4
 10
2716.1855949999999
 20
-1056.31041
 11
2716.420595
 21
-1057.4614099999999
  0
LINE
  8
_0-3_躯体と製品
  6
CONTINUOUS
 62
    4
 10
2719.1785949999999
 20
-1056.60841
 11
2719.1785949999999
 21
-1057.61041
  0
ARC
  8
_0-3_躯体と製品
  6
CONTINUOUS
 62
    4
 10
2703.6805949999998
 20
-1032.50441
 40
2.198
 50
0
 51
90.000002999881303
  0
ARC
  8
_0-3_躯体と製品
  6
CONTINUOUS
 62
    4
 10
2703.6805949999998
 20
-1032.50441
 40
1
 50
0
 51
90.000002999880479
  0
LINE
  8
_0-3_躯体と製品
  6
CONTINUOUS
 62
    4
 10
2813.3765950000002
 20
-1112.3084019999999
 11
2863.3765950000002
 21
-1112.3084019999999
  0
LINE
  8
_0-3_躯体と製品
  6
CONTINUOUS
 62
    4
 10
2813.8765950000002
 20
-1110.0084019999999
 11
2862.8765950000002
 21
-1110.0084019999999
  0
LINE
  8
_0-3_躯体と製品
  6
CONTINUOUS
 62
    4
 10
2798.3765950000002
 20
-1092.3084019999999
 11
2878.3765950000002
 21
-1092.3084019999999
  0
LINE
  8
_0-3_躯体と製品
  6
CONTINUOUS
 62
    4
 10
2798.3765950000002
 20
-1093.8084019999999
 11
2878.3765950000002
 21
-1093.8084019999999
  0
LINE
  8
_0-3_躯体と製品
  6
CONTINUOUS
 62
    4
 10
2798.3765950000002
 20
-1093.8084019999999
 11
2798.3765950000002
 21
-1092.3084019999999
  0
ARC
  8
_0-3_躯体と製品
  6
CONTINUOUS
 62
    4
 10
2813.8765950000002
 20
-1110.5084019999999
 40
0.5
 50
90.000002999880479
 51
180.00000599976096
  0
LINE
  8
_0-3_躯体と製品
  6
CONTINUOUS
 62
    4
 10
2813.3765950000002
 20
-1110.5084019999999
 11
2813.3765950000002
 21
-1112.3084019999999
  0
ARC
  8
_0-3_躯体と製品
  6
CONTINUOUS
 62
    4
 10
2813.8765950000002
 20
-1109.5084019999999
 40
0.5
 50
269.99999700012
 51
0
  0
LINE
  8
_0-3_躯体と製品
  6
CONTINUOUS
 62
    4
 10
2814.3765950000002
 20
-1093.8084019999999
 11
2814.3765950000002
 21
-1109.5084019999999
  0
LINE
  8
_0-3_躯体と製品
  6
CONTINUOUS
 62
    4
 10
2838.3765950000002
 20
-1114.8084019999999
 11
2840.8765950000002
 21
-1112.3084019999999
  0
LINE
  8
_0-3_躯体と製品
  6
CONTINUOUS
 62
    4
 10
2835.8765950000002
 20
-1114.8084019999999
 11
2838.3765950000002
 21
-1112.3084019999999
  0
LINE
  8
_0-3_躯体と製品
  6
CONTINUOUS
 62
    4
 10
2848.3765950000002
 20
-1121.273402
 11
2848.3765950000002
 21
-1112.3084019999999
  0
LINE
  8
_0-3_躯体と製品
  6
CONTINUOUS
 62
    4
 10
2828.3765950000002
 20
-1121.273402
 11
2828.3765950000002
 21
-1112.3084019999999
  0
LINE
  8
_0-3_躯体と製品
  6
CONTINUOUS
 62
    4
 10
2848.3765950000002
 20
-1114.8084019999999
 11
2828.3765950000002
 21
-1114.8084019999999
  0
LINE
  8
_0-3_躯体と製品
  6
CONTINUOUS
 62
    4
 10
2838.3765950000002
 20
-1114.8084019999999
 11
2845.8765950000002
 21
-1114.8084019999999
  0
ARC
  8
_0-3_躯体と製品
  6
CONTINUOUS
 62
    4
 10
2838.3765950000002
 20
-1113.898402
 40
8.9100000000000001
 50
235.86405600033001
 51
304.135938000007
  0
LINE
  8
_0-3_躯体と製品
  6
CONTINUOUS
 62
    4
 10
2838.3765950000002
 20
-1122.8084019999999
 11
2845.8435949999998
 21
-1122.8084019999999
  0
LINE
  8
_0-3_躯体と製品
  6
CONTINUOUS
 62
    4
 10
2838.576595
 20
-1114.8084019999999
 11
2830.8765950000002
 21
-1114.8084019999999
  0
LINE
  8
_0-3_躯体と製品
  6
CONTINUOUS
 62
    4
 10
2838.3765950000002
 20
-1122.8084019999999
 11
2830.7095949999998
 21
-1122.8084019999999
  0
ARC
  8
_0-3_躯体と製品
  6
CONTINUOUS
 62
    4
 10
2830.8765950000002
 20
-1120.013402
 40
2.7999999999999998
 50
206.74809900004496
 51
333.25189499999601
  0
LINE
  8
_0-3_躯体と製品
  6
CONTINUOUS
 62
    4
 10
2833.3765950000002
 20
-1121.273402
 11
2833.3765950000002
 21
-1114.8084019999999
  0
ARC
  8
_0-3_躯体と製品
  6
CONTINUOUS
 62
    4
 10
2845.8765950000002
 20
-1120.013402
 40
2.7999999999999998
 50
206.74809900004496
 51
333.25189499999601
  0
LINE
  8
_0-3_躯体と製品
  6
CONTINUOUS
 62
    4
 10
2843.3765950000002
 20
-1121.273402
 11
2843.3765950000002
 21
-1114.8084019999999
  0
LINE
  8
_0-3_躯体と製品
  6
CONTINUOUS
 62
    4
 10
2848.3765950000002
 20
-1112.3084019999999
 11
2828.3765950000002
 21
-1112.3084019999999
  0
ARC
  8
_0-3_躯体と製品
  6
CONTINUOUS
 62
    4
 10
2862.8765950000002
 20
-1110.5084019999999
 40
0.5
 50
0
 51
90.000002999880479
  0
LINE
  8
_0-3_躯体と製品
  6
CONTINUOUS
 62
    4
 10
2863.3765950000002
 20
-1110.5084019999999
 11
2863.3765950000002
 21
-1112.3084019999999
  0
ARC
  8
_0-3_躯体と製品
  6
CONTINUOUS
 62
    4
 10
2862.8765950000002
 20
-1109.5084019999999
 40
0.5
 50
180.00000599976096
 51
269.99999700012
  0
LINE
  8
_0-3_躯体と製品
  6
CONTINUOUS
 62
    4
 10
2862.3765950000002
 20
-1093.8084019999999
 11
2862.3765950000002
 21
-1109.5084019999999
  0
LINE
  8
_0-3_躯体と製品
  6
CONTINUOUS
 62
    4
 10
2878.3765950000002
 20
-1093.8084019999999
 11
2878.3765950000002
 21
-1092.3084019999999
  0
LINE
  8
_0-3_躯体と製品
  6
CONTINUOUS
 62
    4
 10
3042.4875149999998
 20
-1030.3084100000001
 11
2674.0665300000001
 21
-1030.308411
  0
LINE
  8
_0-3_躯体と製品
  6
CONTINUOUS
 62
    4
 10
2634.2656740000002
 20
-997.30840999999998
 11
3042.4875149999998
 21
-997.30840999999998
  0
LINE
  8
_0-3_躯体と製品
  6
CONTINUOUS
 62
    3
 10
2634.2656740000002
 20
-1020.30841
 11
3042.4875149999998
 21
-1020.30841
  0
LINE
  8
_0-3_躯体と製品
  6
CONTINUOUS
 62
    3
 10
2634.2656740000002
 20
-1025.3084100000001
 11
3042.4875149999998
 21
-1025.3084100000001
  0
LINE
  8
_0-3_躯体と製品
  6
CONTINUOUS
 62
    4
 10
2634.2656740000002
 20
-1015.30841
 11
3042.4875149999998
 21
-1015.30841
  0
LINE
  8
_0-3_躯体と製品
  6
CONTINUOUS
 62
    3
 10
2972.3980860000001
 20
-1151.3084019999999
 11
2947.6062959999999
 21
-1176.1001920000001
  0
LINE
  8
_0-3_躯体と製品
  6
CONTINUOUS
 62
    3
 10
2944.1099519999998
 20
-1151.3084019999999
 11
2919.318162
 21
-1176.1001920000001
  0
LINE
  8
_0-3_躯体と製品
  6
CONTINUOUS
 62
    3
 10
2958.2540180000001
 20
-1151.3084019999999
 11
2933.4622279999999
 21
-1176.1001920000001
  0
LINE
  8
_0-3_躯体と製品
  6
CONTINUOUS
 62
    3
 10
2721.2424219999998
 20
-1151.3084019999999
 11
2696.450632
 21
-1176.1001920000001
  0
LINE
  8
_0-3_躯体と製品
  6
CONTINUOUS
 62
    3
 10
2749.5305560000002
 20
-1151.3084019999999
 11
2724.7387659999999
 21
-1176.1001920000001
  0
LINE
  8
_0-3_躯体と製品
  6
CONTINUOUS
 62
    3
 10
2735.3864899999999
 20
-1151.3084019999999
 11
2710.5946979999999
 21
-1176.1001920000001
  0
LINE
  8
_0-2_寸法
  6
CONTINUOUS
 62
    4
 10
3075.9472150000001
 20
-1151.3084019999999
 11
3075.9472150000001
 21
-1030.308526
  0
TEXT
  8
_0-2_寸法
 62
    4
 10
3073.9059649999999
 20
-1092.9128389999998
 40
8.4175000000000004
 41
1
 50
90
  1
h
  0
LINE
  8
_0-2_寸法
  6
CONTINUOUS
 62
    4
 10
3042.4875160000001
 20
-1151.3084019999999
 11
3075.9472150000001
 21
-1151.3084019999999
  0
LINE
  8
_0-2_寸法
  6
CONTINUOUS
 62
    4
 10
3042.4875160000001
 20
-1030.308526
 11
3075.9472150000001
 21
-1030.308526
  0
POINT
  8
_0-2_寸法
 62
    4
 10
3075.9472150000001
 20
-1151.3084019999999
  0
POINT
  8
_0-2_寸法
 62
    4
 10
3075.9472150000001
 20
-1030.308526
  0
LINE
  8
_0-4_文字-記号
  6
CONTINUOUS
 62
    7
 10
2423.403276
 20
-997.308402
 11
2442.1723579999998
 21
-964.799398
  0
LINE
  8
_0-4_文字-記号
  6
CONTINUOUS
 62
    7
 10
2442.1723579999998
 20
-964.799398
 11
2516.2366339999999
 21
-964.799398
  0
TEXT
  8
_0-4_文字-記号
 62
    7
 10
2448.8926769999998
 20
-963.84162200000003
 40
6.2055999999999996
 41
1.1500000000000001
 50
0
  1
フローリング貼り
  0
LINE
  8
_0-4_文字-記号
  6
CONTINUOUS
 62
    7
 10
2444.0887550000002
 20
-1020.308402
 11
2467.4883249999998
 21
-979.77915900000005
  0
LINE
  8
_0-4_文字-記号
  6
CONTINUOUS
 62
    7
 10
2467.4883249999998
 20
-979.77915900000005
 11
2512.531277
 21
-979.77915900000005
  0
TEXT
  8
_0-4_文字-記号
 62
    7
 10
2475.8747499999999
 20
-978.82138199999997
 40
6.2055999999999996
 41
1.1500000000000001
 50
0
  1
捨板貼り
  0
LINE
  8
_0-4_文字-記号
  6
CONTINUOUS
 62
    7
 10
2331.748243
 20
-1059.3084019999999
 11
2320.9048939999998
 21
-1078.0896339999999
  0
LINE
  8
_0-4_文字-記号
  6
CONTINUOUS
 62
    7
 10
2320.9048939999998
 20
-1078.0896339999999
 11
2288.8265230000002
 21
-1078.0896339999999
  0
TEXT
  8
_0-4_文字-記号
 62
    7
 10
2293.0069250000001
 20
-1076.572705
 40
6.2055999999999996
 41
1.1500000000000001
 50
0
  1
根太鋼
  0
LINE
  8
_0-4_文字-記号
  6
CONTINUOUS
 62
    7
 10
2970.8765950000002
 20
-1051.0768439999999
 11
2950.472041
 21
-1042.5891779999999
  0
LINE
  8
_0-4_文字-記号
  6
CONTINUOUS
 62
    7
 10
2950.472041
 20
-1042.5891779999999
 11
2918.393669
 21
-1042.5891779999999
  0
TEXT
  8
_0-4_文字-記号
 62
    7
 10
2922.574071
 20
-1041.0722490000001
 40
6.2055999999999996
 41
1.1500000000000001
 50
0
  1
根太鋼
  0
TEXT
  8
_0-4_文字-記号
 62
    7
 10
2482.978713
 20
-1084.466776
 40
6.2055999999999996
 41
1.1500000000000001
 50
0
  1
大引鋼
  0
LINE
  8
_0-4_文字-記号
  6
CONTINUOUS
 62
    7
 10
2443.403276
 20
-1075.8084019999999
 11
2478.7983100000001
 21
-1085.9837050000001
  0
LINE
  8
_0-4_文字-記号
  6
CONTINUOUS
 62
    7
 10
2478.7983100000001
 20
-1085.9837050000001
 11
2510.8766820000001
 21
-1085.9837050000001
  0
TEXT
  8
_0-4_文字-記号
 62
    7
 10
2925.9985099999999
 20
-1103.9592909999999
 40
6.2055999999999996
 41
1.1500000000000001
 50
0
  1
大引鋼
  0
LINE
  8
_0-4_文字-記号
  6
CONTINUOUS
 62
    7
 10
2911.2311089999998
 20
-1090.3084100000001
 11
2921.8181079999999
 21
-1105.47622
  0
LINE
  8
_0-4_文字-記号
  6
CONTINUOUS
 62
    7
 10
2921.8181079999999
 20
-1105.47622
 11
2953.896479
 21
-1105.47622
  0
TEXT
  8
_0-4_文字-記号
 62
    7
 10
2344.7178760000002
 20
-1131.726944
 40
6.3832000000000004
 41
1.1499999999999999
 50
0
  1
調整ボルト Ｍ１０
  0
LINE
  8
_0-4_文字-記号
  6
CONTINUOUS
 62
    7
 10
2343.573163
 20
-1133.383529
 11
2413.4582959999998
 21
-1133.383529
  0
LINE
  8
_0-4_文字-記号
  6
CONTINUOUS
 62
    7
 10
2413.4582959999998
 20
-1133.383529
 11
2418.403276
 21
-1141.9484849999999
  0
TEXT
  8
_0-4_文字-記号
 62
    7
 10
2759.6911949999999
 20
-1131.7269449999999
 40
6.3832000000000004
 41
1.1499999999999999
 50
0
  1
調整ボルト Ｍ１０
  0
LINE
  8
_0-4_文字-記号
  6
CONTINUOUS
 62
    7
 10
2758.5464820000002
 20
-1133.3835300000001
 11
2828.431615
 21
-1133.3835300000001
  0
LINE
  8
_0-4_文字-記号
  6
CONTINUOUS
 62
    7
 10
2828.431615
 20
-1133.3835300000001
 11
2833.3765950000002
 21
-1141.948486
  0
ENDBLK
  0
ENDSEC
  0
SECTION
  2
ENTITIES
  0
INSERT
  2
-000-Viewport-1
  8
_0-0_
 10
-2247.3201650000001
 20
1342.9347780000001
 41
1
 42
1
 50
0
  0
ENDSEC
  0
EOF
