  0
SECTION
  2
HEADER
  9
$ACADVER
  1
AC1009
  9
$INSBASE
 10
0
 20
0
 30
0
  9
$EXTMIN
 10
0
 20
0
  9
$EXTMAX
 10
841
 20
594
  9
$LIMMIN
 10
0
 20
0
  9
$LIMMAX
 10
841
 20
594
  9
$LTSCALE
 40
1
  0
ENDSEC
  0
SECTION
  2
TABLES
  0
TABLE
  2
LTYPE
 70
     9
  0
LTYPE
  2
CONTINUOUS
 70
    64
  3
実線
 72
    65
 73
     0
 40
0.0
  0
LTYPE
  2
DASHED1
 70
    64
  3
--  --  --  --  --  --  --  --  
 72
    65
 73
     2
 40
2.5
 49
1.25
 49
-1.25
  0
LTYPE
  2
DASHED2
 70
    64
  3
----    ----    ----    ----    
 72
    65
 73
     2
 40
5.0
 49
2.5
 49
-2.5
  0
LTYPE
  2
DASHED3
 70
    64
  3
------  ------  ------  ------  
 72
    65
 73
     2
 40
5.0
 49
3.75
 49
-1.25
  0
LTYPE
  2
CENTER1
 70
    64
  3
----- - ----- - ----- - ----- - 
 72
    65
 73
     4
 40
10.0
 49
6.25
 49
-1.25
 49
1.25
 49
-1.25
  0
LTYPE
  2
CENTER2
 70
    64
  3
----------  --  ----------  --  
 72
    65
 73
     4
 40
20.0
 49
12.5
 49
-2.5
 49
2.5
 49
-2.5
  0
LTYPE
  2
PHANTOM1
 70
    64
  3
--- - - --- - - --- - - --- - - 
 72
    65
 73
     6
 40
10.0
 49
3.25
 49
-1.25
 49
1.25
 49
-1.25
 49
1.25
 49
-1.25
  0
LTYPE
  2
PHANTOM2
 70
    64
  3
--------  -  -  --------  -  -  
 72
    65
 73
     6
 40
20.0
 49
10.0
 49
-2.5
 49
1.25
 49
-2.5
 49
1.25
 49
-2.5
  0
LTYPE
  2
DOT
 70
    64
  3
-   -   -   -   -   -   -   -   
 72
    65
 73
     2
 40
2.5
 49
0.625
 49
-1.875
  0
LTYPE
  2
DUMMY
 70
    64
  3
ダミー
 72
    65
 73
     0
 40
0.0
  0
LTYPE
  2
RAND1
 70
    64
  3
ランダム線1
 72
    65
 73
     4
 40
10.0
 49
1.0
 49
-2.0
 49
3.0
 49
-4.0
  0
LTYPE
  2
RAND2
 70
    64
  3
ランダム線2
 72
    65
 73
     4
 40
14.0
 49
2.0
 49
-3.0
 49
4.0
 49
-5.0
  0
LTYPE
  2
RAND3
 70
    64
  3
ランダム線3
 72
    65
 73
     4
 40
18.0
 49
3.0
 49
-4.0
 49
5.0
 49
-6.0
  0
LTYPE
  2
RAND4
 70
    64
  3
ランダム線4
 72
    65
 73
     4
 40
22.0
 49
4.0
 49
-5.0
 49
6.0
 49
-7.0
  0
LTYPE
  2
RAND5
 70
    64
  3
ランダム線5
 72
    65
 73
     4
 40
26.0
 49
5.0
 49
-6.0
 49
7.0
 49
-8.0
  0
LTYPE
  2
LONG1
 70
    64
  3
----------  --  ----------  --  
 72
    65
 73
     4
 40
40.0
 49
32.5
 49
-2.5
 49
2.5
 49
-2.5
  0
LTYPE
  2
LONG2
 70
    64
  3
--------  -  -  --------  -  -  
 72
    65
 73
     6
 40
40.0
 49
30.0
 49
-2.5
 49
1.25
 49
-2.5
 49
1.25
 49
-2.5
  0
LTYPE
  2
LONG3
 70
    64
  3
+++++++++++++++..+++++++++++++++
 72
    65
 73
     2
 40
40.0
 49
37.5
 49
-2.5
  0
LTYPE
  2
LONG4
 70
    64
  3
+++++++++++++++..+++++++++++++++
 72
    65
 73
     2
 40
80.0
 49
75.0
 49
-5.0
  0
LTYPE
  2
LONG5
 70
    64
  3
----------  --  ----------  --  
 72
    65
 73
     4
 40
60.0
 49
37.5
 49
-7.5
 49
7.5
 49
-7.5
  0
LTYPE
  2
dashed
 70
   64
  3
-------   -------------   ------
 72
   65
 73
    2
 40
7.5
 49
6
 49
-1.5
  0
LTYPE
  2
dashed_spaced
 70
   64
  3
----        --------        ----
 72
   65
 73
    2
 40
12
 49
6
 49
-6
  0
LTYPE
  2
long_dashed_dotted
 70
   64
  3
------------- --- --------------
 72
   65
 73
    4
 40
15.25
 49
12
 49
-1.5
 49
0.25
 49
-1.5
  0
LTYPE
  2
long_dashed_double-dotted
 70
   64
  3
----------- --- --- ------------
 72
   65
 73
    6
 40
17
 49
12
 49
-1.5
 49
0.25
 49
-1.5
 49
0.25
 49
-1.5
  0
LTYPE
  2
long_dashed_triplicate-dotted
 70
   64
  3
--------- --- --- --- ----------
 72
   65
 73
    8
 40
18.75
 49
12
 49
-1.5
 49
0.25
 49
-1.5
 49
0.25
 49
-1.5
 49
0.25
 49
-1.5
  0
LTYPE
  2
dotted
 70
   64
  3
   -       -       -       -    
 72
   65
 73
    2
 40
1.75
 49
0.25
 49
-1.5
  0
LTYPE
  2
chain
 70
   64
  3
-------------- -- --------------
 72
   65
 73
    4
 40
18.5
 49
12
 49
-1.5
 49
3.5
 49
-1.5
  0
LTYPE
  2
chain_double_dash
 70
   64
  3
------------ -- -- -------------
 72
   65
 73
    6
 40
23.5
 49
12
 49
-1.5
 49
3.5
 49
-1.5
 49
3.5
 49
-1.5
  0
LTYPE
  2
dashed_dotted
 70
   64
  3
-----------     -     ----------
 72
   65
 73
    4
 40
9.25
 49
6
 49
-1.5
 49
0.25
 49
-1.5
  0
LTYPE
  2
double-dashed_dotted
 70
   64
  3
------   -----------   -   -----
 72
   65
 73
    6
 40
16.75
 49
6
 49
-1.5
 49
6
 49
-1.5
 49
0.25
 49
-1.5
  0
LTYPE
  2
dashed_double-dotted
 70
   64
  3
---------    -    -    ---------
 72
   65
 73
    6
 40
11
 49
6
 49
-1.5
 49
0.25
 49
-1.5
 49
0.25
 49
-1.5
  0
LTYPE
  2
double-dashed_double-dotted
 70
   64
  3
-----   ---------   -   -   ----
 72
   65
 73
    8
 40
18.5
 49
6
 49
-1.5
 49
6
 49
-1.5
 49
0.25
 49
-1.5
 49
0.25
 49
-1.5
  0
LTYPE
  2
dashed_triplicate-dotted
 70
   64
  3
-------    -    -    -    ------
 72
   65
 73
    8
 40
12.75
 49
6
 49
-1.5
 49
0.25
 49
-1.5
 49
0.25
 49
-1.5
 49
0.25
 49
-1.5
  0
LTYPE
  2
double-dashed_triplicate-dotted
 70
   64
  3
-----  ---------  -  -  -  -----
 72
   65
 73
   10
 40
20.25
 49
6
 49
-1.5
 49
6
 49
-1.5
 49
0.25
 49
-1.5
 49
0.25
 49
-1.5
 49
0.25
 49
-1.5
  0
LTYPE
  2
undefined
 70
   64
  3
--------------------------------
 72
   65
 73
    0
 40
0
  0
LTYPE
  2
CENTER1_17
 70
   64
  3
----------    ----    ----------
 72
   65
 73
    4
 40
30
 49
18.75
 49
-3.75
 49
3.75
 49
-3.75
  0
LTYPE
  2
_
 70
   64
  3
                                
 72
   65
 73
    0
 40
0
  0
LTYPE
  2
__19
 70
   64
  3
                                
 72
   65
 73
    0
 40
0
  0
LTYPE
  2
__20
 70
   64
  3
                                
 72
   65
 73
    0
 40
0
  0
LTYPE
  2
__21
 70
   64
  3
                                
 72
   65
 73
    0
 40
0
  0
LTYPE
  2
__22
 70
   64
  3
                                
 72
   65
 73
    0
 40
0
  0
LTYPE
  2
__23
 70
   64
  3
                                
 72
   65
 73
    0
 40
0
  0
LTYPE
  2
__24
 70
   64
  3
                                
 72
   65
 73
    0
 40
0
  0
LTYPE
  2
__25
 70
   64
  3
                                
 72
   65
 73
    0
 40
0
  0
LTYPE
  2
__26
 70
   64
  3
                                
 72
   65
 73
    0
 40
0
  0
LTYPE
  2
__27
 70
   64
  3
                                
 72
   65
 73
    0
 40
0
  0
LTYPE
  2
__28
 70
   64
  3
                                
 72
   65
 73
    0
 40
0
  0
LTYPE
  2
__29
 70
   64
  3
                                
 72
   65
 73
    0
 40
0
  0
LTYPE
  2
__30
 70
   64
  3
                                
 72
   65
 73
    0
 40
0
  0
LTYPE
  2
__31
 70
   64
  3
                                
 72
   65
 73
    0
 40
0
  0
LTYPE
  2
__32
 70
   64
  3
                                
 72
   65
 73
    0
 40
0
  0
ENDTAB
  0
TABLE
  2
STYLE
  5
3
100
AcDbSymbolTable
 70
     1
  0
STYLE
  5
10
100
AcDbSymbolTableRecord
100
AcDbTextStyleTableRecord
  2
STANDARD
 70
     0
 40
0.0
 41
1.0
 50
0.0
 71
     0
 42
0.2
  3
txt
  4
bigfont.shx
  0
STYLE
  5
26
100
AcDbSymbolTableRecord
100
AcDbTextStyleTableRecord
  2
TATEGAKI
 70
    68
 40
0.0
 41
1.0
 50
0.0
 71
     0
 42
1.0
  3
txt
  4
bigfont.shx
  0
ENDTAB
  0
TABLE
  2
LAYER
 70
    6
  0
LAYER
  2
_0-1_0
 70
   64
 62
    7
  6
CONTINUOUS
  0
LAYER
  2
_0-2_寸法
 70
   64
 62
    7
  6
CONTINUOUS
  0
LAYER
  2
_0-3_躯体と製品
 70
   64
 62
    7
  6
CONTINUOUS
  0
LAYER
  2
_0-4_文字-記号
 70
   64
 62
    7
  6
CONTINUOUS
  0
LAYER
  2
_0-5_中心線
 70
   64
 62
    7
  6
CONTINUOUS
  0
LAYER
  2
ADD_LINE
 70
   64
 62
    7
  6
CONTINUOUS
  0
ENDTAB
  0
ENDSEC
  0
SECTION
  2
BLOCKS
  0
BLOCK
  2
-000-Viewport-1
 70
   64
 10
0
 20
0
 30
0
  0
TEXT
  8
_0-4_文字-記号
 62
    3
 10
1339.901946
 20
-967.77376800000002
 40
13
 41
1.1500000000000001
 50
0
  1
ｈ=97mm～166mm
  0
TEXT
  8
_0-4_文字-記号
 62
    3
 10
975.86733300000003
 20
-946.14566100000002
 40
13
 41
1.1499999999999999
 50
0
  1
■スリーベース９０１-Ｕ型（軽体育室・幼稚園等 低床用：埋め込みタイプ）
  0
LINE
  8
_0-3_躯体と製品
  6
CONTINUOUS
 62
    4
 10
1340.2462029999999
 20
-1173.015052
 11
1748.468044
 21
-1173.015052
  0
LINE
  8
_0-3_躯体と製品
  6
CONTINUOUS
 62
    4
 10
965.07374000000004
 20
-1173.0150470000001
 11
1293.6938689999999
 21
-1173.015052
  0
LINE
  8
_0-5_中心線
  6
CENTER1_17
 62
    7
 10
1129.3838040000001
 20
-1067.336176
 11
1129.3838040000001
 21
-1209.91605
  0
LINE
  8
_0-3_躯体と製品
  6
CONTINUOUS
 62
    3
 10
1133.3838040000001
 20
-1144.515052
 11
1133.3838040000001
 21
-1169.01505
  0
LINE
  8
_0-3_躯体と製品
  6
CONTINUOUS
 62
    3
 10
1125.3838040000001
 20
-1144.515052
 11
1125.3838040000001
 21
-1169.01505
  0
LINE
  8
_0-1_0
  6
CONTINUOUS
 62
    4
 10
1124.3838040000001
 20
-1144.515052
 11
1124.3838040000001
 21
-1169.01505
  0
LINE
  8
_0-1_0
  6
CONTINUOUS
 62
    4
 10
1134.3838040000001
 20
-1144.515052
 11
1134.3838040000001
 21
-1169.01505
  0
LINE
  8
_0-5_中心線
  6
CENTER1_17
 62
    7
 10
1544.357123
 20
-1093.383176
 11
1544.357123
 21
-1212.1798739999999
  0
LINE
  8
_0-3_躯体と製品
  6
CONTINUOUS
 62
    3
 10
1540.357123
 20
-1144.515052
 11
1540.357123
 21
-1169.015052
  0
LINE
  8
_0-3_躯体と製品
  6
CONTINUOUS
 62
    4
 10
1539.357123
 20
-1144.515052
 11
1539.357123
 21
-1169.015052
  0
LINE
  8
_0-3_躯体と製品
  6
CONTINUOUS
 62
    4
 10
1549.357123
 20
-1144.515052
 11
1549.357123
 21
-1169.015052
  0
LINE
  8
_0-3_躯体と製品
  6
CONTINUOUS
 62
    3
 10
1548.357123
 20
-1144.515052
 11
1548.357123
 21
-1169.015052
  0
LINE
  8
_0-3_躯体と製品
  6
CONTINUOUS
 62
    3
 10
1264.557519
 20
-1173.0150510000001
 11
1239.765729
 21
-1197.8068410000001
  0
LINE
  8
_0-3_躯体と製品
  6
CONTINUOUS
 62
    3
 10
1236.2693850000001
 20
-1173.0150510000001
 11
1211.4775950000001
 21
-1197.8068410000001
  0
LINE
  8
_0-3_躯体と製品
  6
CONTINUOUS
 62
    3
 10
1250.4134509999999
 20
-1173.0150510000001
 11
1225.6216609999999
 21
-1197.8068410000001
  0
LINE
  8
_0-3_躯体と製品
  6
CONTINUOUS
 62
    3
 10
1678.378614
 20
-1173.015052
 11
1653.586824
 21
-1197.806842
  0
LINE
  8
_0-3_躯体と製品
  6
CONTINUOUS
 62
    3
 10
1650.0904800000001
 20
-1173.015052
 11
1625.2986900000001
 21
-1197.806842
  0
LINE
  8
_0-3_躯体と製品
  6
CONTINUOUS
 62
    3
 10
1664.2345459999999
 20
-1173.015052
 11
1639.4427559999999
 21
-1197.806842
  0
LINE
  8
_0-3_躯体と製品
  6
CONTINUOUS
 62
    3
 10
1013.401855
 20
-1173.0150510000001
 11
988.61006499999996
 21
-1197.8068410000001
  0
LINE
  8
_0-3_躯体と製品
  6
CONTINUOUS
 62
    3
 10
1041.689989
 20
-1173.0150510000001
 11
1016.898199
 21
-1197.8068410000001
  0
LINE
  8
_0-3_躯体と製品
  6
CONTINUOUS
 62
    3
 10
1027.5459229999999
 20
-1173.0150510000001
 11
1002.754131
 21
-1197.8068410000001
  0
LINE
  8
_0-2_寸法
  6
CONTINUOUS
 62
    4
 10
1781.927743
 20
-1173.015052
 11
1781.927743
 21
-1052.015175
  0
TEXT
  8
_0-2_寸法
 62
    4
 10
1779.886493
 20
-1114.6194889999999
 40
8.4175000000000004
 41
1
 50
90
  1
h
  0
LINE
  8
_0-2_寸法
  6
CONTINUOUS
 62
    4
 10
1748.4680450000001
 20
-1173.015052
 11
1781.927743
 21
-1173.015052
  0
LINE
  8
_0-2_寸法
  6
CONTINUOUS
 62
    4
 10
1748.468044
 20
-1052.015175
 11
1781.927743
 21
-1052.015175
  0
POINT
  8
_0-2_寸法
 62
    4
 10
1781.927743
 20
-1173.015052
  0
POINT
  8
_0-2_寸法
 62
    4
 10
1781.927743
 20
-1052.015175
  0
LINE
  8
_0-1_0
  6
CONTINUOUS
 62
    4
 10
1134.3838040000001
 20
-1173.01505
 11
1134.3838040000001
 21
-1202.0210500000001
  0
LINE
  8
_0-3_躯体と製品
  6
CONTINUOUS
 62
    3
 10
1133.3838040000001
 20
-1173.01505
 11
1133.3838040000001
 21
-1203.0200500000001
  0
LINE
  8
_0-1_0
  6
CONTINUOUS
 62
    4
 10
1124.3838040000001
 20
-1173.01505
 11
1124.3838040000001
 21
-1202.0200500000001
  0
LINE
  8
_0-3_躯体と製品
  6
CONTINUOUS
 62
    3
 10
1125.3838040000001
 20
-1173.01505
 11
1125.3838040000001
 21
-1203.0200500000001
  0
LINE
  8
_0-1_0
  6
CONTINUOUS
 62
    4
 10
1134.3838040000001
 20
-1202.0200500000001
 11
1133.3838040000001
 21
-1203.0200500000001
  0
LINE
  8
_0-3_躯体と製品
  6
CONTINUOUS
 62
    3
 10
1124.3838040000001
 20
-1202.0200500000001
 11
1134.3838040000001
 21
-1202.0200500000001
  0
LINE
  8
_0-1_0
  6
CONTINUOUS
 62
    4
 10
1124.3838040000001
 20
-1202.0200500000001
 11
1125.3838040000001
 21
-1203.0200500000001
  0
LINE
  8
_0-1_0
  6
CONTINUOUS
 62
    4
 10
1125.3838040000001
 20
-1203.0200500000001
 11
1133.3838040000001
 21
-1203.0200500000001
  0
LINE
  8
_0-1_0
  6
CONTINUOUS
 62
    4
 10
1129.3838040000001
 20
-1171.4150500000001
 11
1154.3838040000001
 21
-1171.4150500000001
  0
LINE
  8
_0-1_0
  6
CONTINUOUS
 62
    4
 10
1129.3838040000001
 20
-1169.01505
 11
1135.1838069999999
 21
-1169.01505
  0
LINE
  8
_0-1_0
  6
CONTINUOUS
 62
    4
 10
1123.583801
 20
-1169.01505
 11
1123.583801
 21
-1171.4150500000001
  0
LINE
  8
_0-1_0
  6
CONTINUOUS
 62
    4
 10
1129.3838040000001
 20
-1169.01505
 11
1123.583801
 21
-1169.01505
  0
LINE
  8
_0-1_0
  6
CONTINUOUS
 62
    4
 10
1154.3838040000001
 20
-1171.4150500000001
 11
1154.3838040000001
 21
-1173.01505
  0
LINE
  8
_0-1_0
  6
CONTINUOUS
 62
    4
 10
1129.3838040000001
 20
-1171.4150500000001
 11
1104.3838040000001
 21
-1171.4150500000001
  0
LINE
  8
_0-1_0
  6
CONTINUOUS
 62
    4
 10
1135.1838069999999
 20
-1169.01505
 11
1135.1838069999999
 21
-1171.4150500000001
  0
LINE
  8
_0-1_0
  6
CONTINUOUS
 62
    4
 10
1104.3838040000001
 20
-1171.4150500000001
 11
1104.3838040000001
 21
-1173.01505
  0
LINE
  8
_0-1_0
  6
CONTINUOUS
 62
    4
 10
1544.357123
 20
-1171.4150520000001
 11
1569.357123
 21
-1171.4150520000001
  0
LINE
  8
_0-1_0
  6
CONTINUOUS
 62
    4
 10
1544.357123
 20
-1169.015052
 11
1550.1571260000001
 21
-1169.015052
  0
LINE
  8
_0-1_0
  6
CONTINUOUS
 62
    4
 10
1538.5571199999999
 20
-1169.015052
 11
1538.5571199999999
 21
-1171.4150520000001
  0
LINE
  8
_0-1_0
  6
CONTINUOUS
 62
    4
 10
1544.357123
 20
-1169.015052
 11
1538.5571199999999
 21
-1169.015052
  0
LINE
  8
_0-1_0
  6
CONTINUOUS
 62
    4
 10
1569.357123
 20
-1171.4150520000001
 11
1569.357123
 21
-1173.015052
  0
LINE
  8
_0-1_0
  6
CONTINUOUS
 62
    4
 10
1544.357123
 20
-1171.4150520000001
 11
1519.357123
 21
-1171.4150520000001
  0
LINE
  8
_0-1_0
  6
CONTINUOUS
 62
    4
 10
1550.1571260000001
 20
-1169.015052
 11
1550.1571260000001
 21
-1171.4150520000001
  0
LINE
  8
_0-1_0
  6
CONTINUOUS
 62
    4
 10
1519.357123
 20
-1171.4150520000001
 11
1519.357123
 21
-1173.015052
  0
LINE
  8
_0-3_躯体と製品
  6
CONTINUOUS
 62
    4
 10
1121.3838040000001
 20
-1206.01505
 11
1137.3838040000001
 21
-1206.01505
  0
LINE
  8
_0-3_躯体と製品
  6
CONTINUOUS
 62
    4
 10
1121.3838040000001
 20
-1206.01505
 11
1121.3838040000001
 21
-1173.01505
  0
LINE
  8
_0-3_躯体と製品
  6
CONTINUOUS
 62
    4
 10
1137.3838040000001
 20
-1206.01505
 11
1137.3838040000001
 21
-1173.01505
  0
CIRCLE
  8
_0-3_躯体と製品
  6
CONTINUOUS
 62
    6
 10
1134.851289
 20
-1204.4336000000001
 40
0.062502
  0
CIRCLE
  8
_0-3_躯体と製品
  6
CONTINUOUS
 62
    6
 10
1135.751851
 20
-1201.506772
 40
0.062502
  0
CIRCLE
  8
_0-3_躯体と製品
  6
CONTINUOUS
 62
    6
 10
1134.851289
 20
-1199.162736
 40
0.062502
  0
CIRCLE
  8
_0-3_躯体と製品
  6
CONTINUOUS
 62
    6
 10
1135.5642350000001
 20
-1195.860674
 40
0.062502
  0
CIRCLE
  8
_0-3_躯体と製品
  6
CONTINUOUS
 62
    6
 10
1134.7011950000001
 20
-1192.8212759999999
 40
0.062502
  0
CIRCLE
  8
_0-3_躯体と製品
  6
CONTINUOUS
 62
    6
 10
1135.6580429999999
 20
-1189.7443539999999
 40
0.062502
  0
CIRCLE
  8
_0-3_躯体と製品
  6
CONTINUOUS
 62
    6
 10
1135.395379
 20
-1186.479814
 40
0.062502
  0
CIRCLE
  8
_0-3_躯体と製品
  6
CONTINUOUS
 62
    6
 10
1135.414141
 20
-1182.633662
 40
0.062502
  0
CIRCLE
  8
_0-3_躯体と製品
  6
CONTINUOUS
 62
    6
 10
1135.808137
 20
-1179.050174
 40
0.062502
  0
CIRCLE
  8
_0-3_躯体と製品
  6
CONTINUOUS
 62
    6
 10
1134.8700510000001
 20
-1176.536104
 40
0.062502
  0
CIRCLE
  8
_0-3_躯体と製品
  6
CONTINUOUS
 62
    6
 10
1135.7893750000001
 20
-1174.2471740000001
 40
0.062502
  0
CIRCLE
  8
_0-3_躯体と製品
  6
CONTINUOUS
 62
    6
 10
1136.4696389999999
 20
-1192.701174
 40
0.062502
  0
CIRCLE
  8
_0-3_躯体と製品
  6
CONTINUOUS
 62
    6
 10
1136.449593
 20
-1198.9954680000001
 40
0.062502
  0
CIRCLE
  8
_0-3_躯体と製品
  6
CONTINUOUS
 62
    6
 10
1136.8905950000001
 20
-1204.44667
 40
0.062502
  0
CIRCLE
  8
_0-3_躯体と製品
  6
CONTINUOUS
 62
    6
 10
1136.870549
 20
-1179.791858
 40
0.062502
  0
CIRCLE
  8
_0-3_躯体と製品
  6
CONTINUOUS
 62
    6
 10
1137.111095
 20
-1185.4246499999999
 40
0.062502
  0
CIRCLE
  8
_0-3_躯体と製品
  6
CONTINUOUS
 62
    6
 10
1123.47631
 20
-1176.3860099999999
 40
0.062502
  0
CIRCLE
  8
_0-3_躯体と製品
  6
CONTINUOUS
 62
    6
 10
1123.58888
 20
-1180.7762520000001
 40
0.062502
  0
CIRCLE
  8
_0-3_躯体と製品
  6
CONTINUOUS
 62
    6
 10
1123.5513559999999
 20
-1186.6299079999999
 40
0.062502
  0
CIRCLE
  8
_0-3_躯体と製品
  6
CONTINUOUS
 62
    6
 10
1123.1573599999999
 20
-1191.0201500000001
 40
0.062502
  0
CIRCLE
  8
_0-3_躯体と製品
  6
CONTINUOUS
 62
    6
 10
1123.5513559999999
 20
-1195.4479160000001
 40
0.062502
  0
CIRCLE
  8
_0-3_躯体と製品
  6
CONTINUOUS
 62
    6
 10
1123.5513559999999
 20
-1199.106452
 40
0.062502
  0
CIRCLE
  8
_0-3_躯体と製品
  6
CONTINUOUS
 62
    6
 10
1123.47631
 20
-1202.46362
 40
0.062502
  0
CIRCLE
  8
_0-3_躯体と製品
  6
CONTINUOUS
 62
    6
 10
1123.6076419999999
 20
-1205.2591159999999
 40
0.062502
  0
CIRCLE
  8
_0-3_躯体と製品
  6
CONTINUOUS
 62
    6
 10
1124.114208
 20
-1174.1908880000001
 40
0.062502
  0
CIRCLE
  8
_0-3_躯体と製品
  6
CONTINUOUS
 62
    6
 10
1122.0103180000001
 20
-1183.841054
 40
0.062502
  0
CIRCLE
  8
_0-3_躯体と製品
  6
CONTINUOUS
 62
    6
 10
1121.9702259999999
 20
-1193.9840879999999
 40
0.062502
  0
CIRCLE
  8
_0-3_躯体と製品
  6
CONTINUOUS
 62
    6
 10
1121.7697720000001
 20
-1200.1982
 40
0.062502
  0
CIRCLE
  8
_0-3_躯体と製品
  6
CONTINUOUS
 62
    6
 10
1121.7096340000001
 20
-1205.0881260000001
 40
0.062502
  0
CIRCLE
  8
_0-3_躯体と製品
  6
CONTINUOUS
 62
    6
 10
1125.0951030000001
 20
-1203.6628880000001
 40
0.062502
  0
CIRCLE
  8
_0-3_躯体と製品
  6
CONTINUOUS
 62
    6
 10
1127.0838450000001
 20
-1205.557822
 40
0.062502
  0
CIRCLE
  8
_0-3_躯体と製品
  6
CONTINUOUS
 62
    6
 10
1128.941255
 20
-1203.7754580000001
 40
0.062502
  0
CIRCLE
  8
_0-3_躯体と製品
  6
CONTINUOUS
 62
    6
 10
1130.7048569999999
 20
-1205.6516300000001
 40
0.062502
  0
CIRCLE
  8
_0-3_躯体と製品
  6
CONTINUOUS
 62
    6
 10
1131.0215049999999
 20
-1203.6441259999999
 40
0.062502
  0
CIRCLE
  8
_0-3_躯体と製品
  6
CONTINUOUS
 62
    6
 10
1133.1415810000001
 20
-1204.713544
 40
0.062502
  0
LINE
  8
_0-1_0
  6
CONTINUOUS
 62
    4
 10
1549.357123
 20
-1173.015052
 11
1549.357123
 21
-1202.0210520000001
  0
LINE
  8
_0-3_躯体と製品
  6
CONTINUOUS
 62
    3
 10
1548.357123
 20
-1173.015052
 11
1548.357123
 21
-1203.0200520000001
  0
LINE
  8
_0-1_0
  6
CONTINUOUS
 62
    4
 10
1539.357123
 20
-1173.015052
 11
1539.357123
 21
-1202.0200520000001
  0
LINE
  8
_0-3_躯体と製品
  6
CONTINUOUS
 62
    3
 10
1540.357123
 20
-1173.015052
 11
1540.357123
 21
-1203.0200520000001
  0
LINE
  8
_0-1_0
  6
CONTINUOUS
 62
    4
 10
1549.357123
 20
-1202.0200520000001
 11
1548.357123
 21
-1203.0200520000001
  0
LINE
  8
_0-3_躯体と製品
  6
CONTINUOUS
 62
    3
 10
1539.357123
 20
-1202.0200520000001
 11
1549.357123
 21
-1202.0200520000001
  0
LINE
  8
_0-1_0
  6
CONTINUOUS
 62
    4
 10
1539.357123
 20
-1202.0200520000001
 11
1540.357123
 21
-1203.0200520000001
  0
LINE
  8
_0-1_0
  6
CONTINUOUS
 62
    4
 10
1540.357123
 20
-1203.0200520000001
 11
1548.357123
 21
-1203.0200520000001
  0
LINE
  8
_0-3_躯体と製品
  6
CONTINUOUS
 62
    4
 10
1536.357123
 20
-1206.015052
 11
1552.357123
 21
-1206.015052
  0
LINE
  8
_0-3_躯体と製品
  6
CONTINUOUS
 62
    4
 10
1536.357123
 20
-1206.015052
 11
1536.357123
 21
-1173.015052
  0
LINE
  8
_0-3_躯体と製品
  6
CONTINUOUS
 62
    4
 10
1552.357123
 20
-1206.015052
 11
1552.357123
 21
-1173.015052
  0
CIRCLE
  8
_0-3_躯体と製品
  6
CONTINUOUS
 62
    6
 10
1549.8246079999999
 20
-1204.4336020000001
 40
0.062502
  0
CIRCLE
  8
_0-3_躯体と製品
  6
CONTINUOUS
 62
    6
 10
1550.7251699999999
 20
-1201.506774
 40
0.062502
  0
CIRCLE
  8
_0-3_躯体と製品
  6
CONTINUOUS
 62
    6
 10
1549.8246079999999
 20
-1199.162738
 40
0.062502
  0
CIRCLE
  8
_0-3_躯体と製品
  6
CONTINUOUS
 62
    6
 10
1550.537554
 20
-1195.860676
 40
0.062502
  0
CIRCLE
  8
_0-3_躯体と製品
  6
CONTINUOUS
 62
    6
 10
1549.674514
 20
-1192.8212779999999
 40
0.062502
  0
CIRCLE
  8
_0-3_躯体と製品
  6
CONTINUOUS
 62
    6
 10
1550.6313620000001
 20
-1189.7443559999999
 40
0.062502
  0
CIRCLE
  8
_0-3_躯体と製品
  6
CONTINUOUS
 62
    6
 10
1550.368698
 20
-1186.479816
 40
0.062502
  0
CIRCLE
  8
_0-3_躯体と製品
  6
CONTINUOUS
 62
    6
 10
1550.3874599999999
 20
-1182.633664
 40
0.062502
  0
CIRCLE
  8
_0-3_躯体と製品
  6
CONTINUOUS
 62
    6
 10
1550.7814559999999
 20
-1179.050176
 40
0.062502
  0
CIRCLE
  8
_0-3_躯体と製品
  6
CONTINUOUS
 62
    6
 10
1549.84337
 20
-1176.536106
 40
0.062502
  0
CIRCLE
  8
_0-3_躯体と製品
  6
CONTINUOUS
 62
    6
 10
1550.762694
 20
-1174.2471760000001
 40
0.062502
  0
CIRCLE
  8
_0-3_躯体と製品
  6
CONTINUOUS
 62
    6
 10
1551.4429580000001
 20
-1192.701176
 40
0.062502
  0
CIRCLE
  8
_0-3_躯体と製品
  6
CONTINUOUS
 62
    6
 10
1551.422912
 20
-1198.9954700000001
 40
0.062502
  0
CIRCLE
  8
_0-3_躯体と製品
  6
CONTINUOUS
 62
    6
 10
1551.863914
 20
-1204.446672
 40
0.062502
  0
CIRCLE
  8
_0-3_躯体と製品
  6
CONTINUOUS
 62
    6
 10
1551.8438679999999
 20
-1179.79186
 40
0.062502
  0
CIRCLE
  8
_0-3_躯体と製品
  6
CONTINUOUS
 62
    6
 10
1552.0844139999999
 20
-1185.4246519999999
 40
0.062502
  0
CIRCLE
  8
_0-3_躯体と製品
  6
CONTINUOUS
 62
    6
 10
1538.449629
 20
-1176.3860119999999
 40
0.062502
  0
CIRCLE
  8
_0-3_躯体と製品
  6
CONTINUOUS
 62
    6
 10
1538.562199
 20
-1180.7762540000001
 40
0.062502
  0
CIRCLE
  8
_0-3_躯体と製品
  6
CONTINUOUS
 62
    6
 10
1538.5246749999999
 20
-1186.6299100000001
 40
0.062502
  0
CIRCLE
  8
_0-3_躯体と製品
  6
CONTINUOUS
 62
    6
 10
1538.1306790000001
 20
-1191.0201520000001
 40
0.062502
  0
CIRCLE
  8
_0-3_躯体と製品
  6
CONTINUOUS
 62
    6
 10
1538.5246749999999
 20
-1195.4479180000001
 40
0.062502
  0
CIRCLE
  8
_0-3_躯体と製品
  6
CONTINUOUS
 62
    6
 10
1538.5246749999999
 20
-1199.106454
 40
0.062502
  0
CIRCLE
  8
_0-3_躯体と製品
  6
CONTINUOUS
 62
    6
 10
1538.449629
 20
-1202.463622
 40
0.062502
  0
CIRCLE
  8
_0-3_躯体と製品
  6
CONTINUOUS
 62
    6
 10
1538.5809609999999
 20
-1205.2591179999999
 40
0.062502
  0
CIRCLE
  8
_0-3_躯体と製品
  6
CONTINUOUS
 62
    6
 10
1539.0875269999999
 20
-1174.1908900000001
 40
0.062502
  0
CIRCLE
  8
_0-3_躯体と製品
  6
CONTINUOUS
 62
    6
 10
1536.983637
 20
-1183.841056
 40
0.062502
  0
CIRCLE
  8
_0-3_躯体と製品
  6
CONTINUOUS
 62
    6
 10
1536.9435450000001
 20
-1193.9840899999999
 40
0.062502
  0
CIRCLE
  8
_0-3_躯体と製品
  6
CONTINUOUS
 62
    6
 10
1536.743091
 20
-1200.198202
 40
0.062502
  0
CIRCLE
  8
_0-3_躯体と製品
  6
CONTINUOUS
 62
    6
 10
1536.682953
 20
-1205.0881280000001
 40
0.062502
  0
CIRCLE
  8
_0-3_躯体と製品
  6
CONTINUOUS
 62
    6
 10
1540.0684220000001
 20
-1203.6628900000001
 40
0.062502
  0
CIRCLE
  8
_0-3_躯体と製品
  6
CONTINUOUS
 62
    6
 10
1542.0571640000001
 20
-1205.557824
 40
0.062502
  0
CIRCLE
  8
_0-3_躯体と製品
  6
CONTINUOUS
 62
    6
 10
1543.9145739999999
 20
-1203.7754600000001
 40
0.062502
  0
CIRCLE
  8
_0-3_躯体と製品
  6
CONTINUOUS
 62
    6
 10
1545.6781759999999
 20
-1205.6516320000001
 40
0.062502
  0
CIRCLE
  8
_0-3_躯体と製品
  6
CONTINUOUS
 62
    6
 10
1545.9948240000001
 20
-1203.6441279999999
 40
0.062502
  0
CIRCLE
  8
_0-3_躯体と製品
  6
CONTINUOUS
 62
    6
 10
1548.1149
 20
-1204.713546
 40
0.062502
  0
LINE
  8
_0-2_寸法
  6
CONTINUOUS
 62
    4
 10
1084.077477
 20
-1203.0200500000001
 11
1084.077477
 21
-1173.01505
  0
TEXT
  8
_0-2_寸法
 62
    4
 10
1082.0362270000001
 20
-1192.2263
 40
8.4175000000000004
 41
1
 50
90
  1
30
  0
LINE
  8
_0-2_寸法
  6
CONTINUOUS
 62
    4
 10
1125.3838040000001
 20
-1203.0200500000001
 11
1084.077477
 21
-1203.0200500000001
  0
LINE
  8
_0-2_寸法
  6
CONTINUOUS
 62
    4
 10
1121.3838040000001
 20
-1173.01505
 11
1084.077477
 21
-1173.01505
  0
POINT
  8
_0-2_寸法
 62
    4
 10
1084.077477
 20
-1203.0200500000001
  0
POINT
  8
_0-2_寸法
 62
    4
 10
1084.077477
 20
-1173.01505
  0
TEXT
  8
_0-4_文字-記号
 62
    3
 10
1064.8073139999999
 20
-967.77376800000002
 40
13
 41
1.1499999999999999
 50
0
  1
【ネダ・クロス】
  0
LINE
  8
_0-3_躯体と製品
  6
CONTINUOUS
 62
    3
 10
1110.3838040000001
 20
-1078.3150519999999
 11
965.07373900000005
 21
-1078.3150519999999
  0
LINE
  8
_0-3_躯体と製品
  6
CONTINUOUS
 62
    4
 10
1110.3838040000001
 20
-1081.015052
 11
965.07373900000005
 21
-1081.015052
  0
ARC
  8
_0-3_躯体と製品
  6
CONTINUOUS
 62
    4
 10
1111.4838050000001
 20
-1085.1150520000001
 40
2.1000000000000001
 50
90.0000029998792
 51
180.000005999758
  0
ARC
  8
_0-3_躯体と製品
  6
CONTINUOUS
 62
    4
 10
1108.8838049999999
 20
-1109.9150520000001
 40
2.1000000000000001
 50
269.99999700012103
 51
0
  0
LINE
  8
_0-3_躯体と製品
  6
CONTINUOUS
 62
    4
 10
1168.3838049999999
 20
-1107.3150519999999
 11
1163.3838049999999
 21
-1107.3150519999999
  0
LINE
  8
_0-3_躯体と製品
  6
CONTINUOUS
 62
    4
 10
1163.3838049999999
 20
-1107.3150519999999
 11
1163.3838049999999
 21
-1109.3150519999999
  0
LINE
  8
_0-3_躯体と製品
  6
CONTINUOUS
 62
    4
 10
1163.3838049999999
 20
-1109.3150519999999
 11
1166.3838049999999
 21
-1109.3150519999999
  0
LINE
  8
_0-3_躯体と製品
  6
CONTINUOUS
 62
    4
 10
1166.3838049999999
 20
-1109.3150519999999
 11
1166.3838049999999
 21
-1112.015052
  0
LINE
  8
_0-3_躯体と製品
  6
CONTINUOUS
 62
    4
 10
1166.3838049999999
 20
-1112.015052
 11
1092.3838049999999
 21
-1112.015052
  0
LINE
  8
_0-3_躯体と製品
  6
CONTINUOUS
 62
    4
 10
1092.3838049999999
 20
-1112.015052
 11
1092.3838049999999
 21
-1109.3150519999999
  0
LINE
  8
_0-3_躯体と製品
  6
CONTINUOUS
 62
    4
 10
1092.3838049999999
 20
-1109.3150519999999
 11
1095.3838049999999
 21
-1109.3150519999999
  0
LINE
  8
_0-3_躯体と製品
  6
CONTINUOUS
 62
    4
 10
1095.3838049999999
 20
-1109.3150519999999
 11
1095.3838049999999
 21
-1107.3150519999999
  0
LINE
  8
_0-3_躯体と製品
  6
CONTINUOUS
 62
    4
 10
1095.3838049999999
 20
-1107.3150519999999
 11
1090.3838049999999
 21
-1107.3150519999999
  0
LINE
  8
_0-3_躯体と製品
  6
CONTINUOUS
 62
    4
 10
1090.3838049999999
 20
-1107.3150519999999
 11
1090.3838049999999
 21
-1114.015052
  0
LINE
  8
_0-3_躯体と製品
  6
CONTINUOUS
 62
    4
 10
1090.3838049999999
 20
-1114.015052
 11
1168.3838049999999
 21
-1114.015052
  0
LINE
  8
_0-3_躯体と製品
  6
CONTINUOUS
 62
    4
 10
1168.3838049999999
 20
-1114.015052
 11
1168.3838049999999
 21
-1107.3150519999999
  0
LINE
  8
_0-3_躯体と製品
  6
CONTINUOUS
 62
    4
 10
1109.3838049999999
 20
-1109.9150520000001
 11
1109.3838049999999
 21
-1085.1150520000001
  0
LINE
  8
_0-5_中心線
  6
CENTER1_17
 62
    7
 10
1101.571805
 20
-1130.1340520000001
 11
1101.571805
 21
-1104.877052
  0
LINE
  8
_0-3_躯体と製品
  6
CONTINUOUS
 62
    4
 10
1093.9838050000001
 20
-1109.3150519999999
 11
1092.3838049999999
 21
-1109.3150519999999
  0
ARC
  8
_0-3_躯体と製品
  6
CONTINUOUS
 62
    4
 10
1094.4838050000001
 20
-1109.9150520000001
 40
2.1000000000000001
 50
180.00000599975803
 51
269.99999700012103
  0
LINE
  8
_0-3_躯体と製品
  6
CONTINUOUS
 62
    4
 10
1092.3838049999999
 20
-1109.9150520000001
 11
1092.3838049999999
 21
-1109.3150519999999
  0
LINE
  8
_0-3_躯体と製品
  6
CONTINUOUS
 62
    4
 10
1103.6718049999999
 20
-1107.9610520000001
 11
1103.2218049999999
 21
-1107.8260519999999
  0
LINE
  8
_0-3_躯体と製品
  6
CONTINUOUS
 62
    4
 10
1104.206805
 20
-1107.984052
 11
1104.256805
 21
-1107.8840520000001
  0
ARC
  8
_0-3_躯体と製品
  6
CONTINUOUS
 62
    4
 10
1104.0278049999999
 20
-1107.8950520000001
 40
0.2
 50
247.02727499998102
 51
333.56312600015099
  0
LINE
  8
_0-3_躯体と製品
  6
CONTINUOUS
 62
    4
 10
1103.949805
 20
-1108.079052
 11
1103.6718049999999
 21
-1107.9610520000001
  0
ARC
  8
_0-3_躯体と製品
  6
CONTINUOUS
 62
    4
 10
1102.4218049999999
 20
-1107.7980520000001
 40
0.1
 50
84.805573999867903
 51
180.000005999709
  0
ARC
  8
_0-3_躯体と製品
  6
CONTINUOUS
 62
    4
 10
1102.121805
 20
-1108.0400520000001
 40
0.2
 50
269.99999700014604
 51
0.0000000000000568
  0
LINE
  8
_0-3_躯体と製品
  6
CONTINUOUS
 62
    4
 10
1102.321805
 20
-1108.0400520000001
 11
1102.321805
 21
-1107.7980520000001
  0
LINE
  8
_0-3_躯体と製品
  6
CONTINUOUS
 62
    4
 10
1102.744805
 20
-1107.727052
 11
1102.430805
 21
-1107.6990519999999
  0
ARC
  8
_0-3_躯体と製品
  6
CONTINUOUS
 62
    4
 10
1099.1158049999999
 20
-1107.8950520000001
 40
0.2
 50
206.43686799956399
 51
292.97271899961106
  0
ARC
  8
_0-3_躯体と製品
  6
CONTINUOUS
 62
    4
 10
1100.7218049999999
 20
-1107.7980520000001
 40
0.1
 50
0
 51
95.194432000382804
  0
ARC
  8
_0-3_躯体と製品
  6
CONTINUOUS
 62
    4
 10
1101.0218050000001
 20
-1108.0400520000001
 40
0.2
 50
180.000005999774
 51
269.99999700014598
  0
LINE
  8
_0-3_躯体と製品
  6
CONTINUOUS
 62
    4
 10
1098.936805
 20
-1107.984052
 11
1098.8868050000001
 21
-1107.8840520000001
  0
LINE
  8
_0-3_躯体と製品
  6
CONTINUOUS
 62
    4
 10
1100.821805
 20
-1108.0400520000001
 11
1100.821805
 21
-1107.7980520000001
  0
LINE
  8
_0-3_躯体と製品
  6
CONTINUOUS
 62
    4
 10
1101.0218050000001
 20
-1108.2400520000001
 11
1101.571805
 21
-1108.2400520000001
  0
LINE
  8
_0-3_躯体と製品
  6
CONTINUOUS
 62
    4
 10
1097.8068049999999
 20
-1108.6150520000001
 11
1101.571805
 21
-1108.6150520000001
  0
ARC
  8
_0-3_躯体と製品
  6
CONTINUOUS
 62
    4
 10
1101.024805
 20
-1112.2030520000001
 40
4.819
 50
83.482563000374086
 51
131.888251000216
  0
LINE
  8
_0-3_躯体と製品
  6
CONTINUOUS
 62
    4
 10
1099.1938050000001
 20
-1108.079052
 11
1099.4718049999999
 21
-1107.9610520000001
  0
LINE
  8
_0-3_躯体と製品
  6
CONTINUOUS
 62
    4
 10
1099.4718049999999
 20
-1107.9610520000001
 11
1099.9218049999999
 21
-1107.8260519999999
  0
LINE
  8
_0-3_躯体と製品
  6
CONTINUOUS
 62
    4
 10
1099.9218049999999
 20
-1107.8260519999999
 11
1100.398805
 21
-1107.727052
  0
LINE
  8
_0-3_躯体と製品
  6
CONTINUOUS
 62
    4
 10
1100.398805
 20
-1107.727052
 11
1100.7128049999999
 21
-1107.6990519999999
  0
LINE
  8
_0-3_躯体と製品
  6
CONTINUOUS
 62
    4
 10
1102.121805
 20
-1108.2400520000001
 11
1101.571805
 21
-1108.2400520000001
  0
LINE
  8
_0-3_躯体と製品
  6
CONTINUOUS
 62
    4
 10
1105.3368049999999
 20
-1108.6150520000001
 11
1101.571805
 21
-1108.6150520000001
  0
ARC
  8
_0-3_躯体と製品
  6
CONTINUOUS
 62
    4
 10
1102.1188050000001
 20
-1112.2030520000001
 40
4.819
 50
48.111754999517501
 51
96.517442000339386
  0
LINE
  8
_0-3_躯体と製品
  6
CONTINUOUS
 62
    4
 10
1103.2218049999999
 20
-1107.8260519999999
 11
1102.744805
 21
-1107.727052
  0
ARC
  8
_0-3_躯体と製品
  6
CONTINUOUS
 62
    4
 10
1108.8838049999999
 20
-1109.9150520000001
 40
0.5
 50
269.99999700012
 51
0
  0
LINE
  8
_0-3_躯体と製品
  6
CONTINUOUS
 62
    4
 10
1105.571805
 20
-1109.7660519999999
 11
1105.571805
 21
-1110.215052
  0
ARC
  8
_0-3_躯体と製品
  6
CONTINUOUS
 62
    4
 10
1105.371805
 20
-1110.215052
 40
0.2
 50
269.99999700014604
 51
0.0000000000000568
  0
ARC
  8
_0-3_躯体と製品
  6
CONTINUOUS
 62
    4
 10
1094.4838050000001
 20
-1109.9150520000001
 40
0.5
 50
180.00000599976096
 51
269.99999700012
  0
LINE
  8
_0-3_躯体と製品
  6
CONTINUOUS
 62
    4
 10
1093.9838050000001
 20
-1109.9150520000001
 11
1093.9838050000001
 21
-1109.3150519999999
  0
LINE
  8
_0-3_躯体と製品
  6
CONTINUOUS
 62
    4
 10
1097.7718050000001
 20
-1110.4150520000001
 11
1101.571805
 21
-1110.4150520000001
  0
LINE
  8
_0-3_躯体と製品
  6
CONTINUOUS
 62
    4
 10
1097.571805
 20
-1109.7660519999999
 11
1097.571805
 21
-1110.215052
  0
ARC
  8
_0-3_躯体と製品
  6
CONTINUOUS
 62
    4
 10
1097.7718050000001
 20
-1110.215052
 40
0.2
 50
180.000005999774
 51
269.99999700014598
  0
LINE
  8
_0-3_躯体と製品
  6
CONTINUOUS
 62
    4
 10
1108.8838049999999
 20
-1110.4150520000001
 11
1094.4838050000001
 21
-1110.4150520000001
  0
LINE
  8
_0-3_躯体と製品
  6
CONTINUOUS
 62
    4
 10
1105.371805
 20
-1110.4150520000001
 11
1101.571805
 21
-1110.4150520000001
  0
LINE
  8
_0-3_躯体と製品
  6
CONTINUOUS
 62
    4
 10
1108.8838049999999
 20
-1112.015052
 11
1094.4838050000001
 21
-1112.015052
  0
LINE
  8
_0-3_躯体と製品
  6
CONTINUOUS
 62
    4
 10
1097.8068049999999
 20
-1108.6150520000001
 11
1097.571805
 21
-1109.7660519999999
  0
LINE
  8
_0-3_躯体と製品
  6
CONTINUOUS
 62
    4
 10
1105.3368049999999
 20
-1108.6150520000001
 11
1105.571805
 21
-1109.7660519999999
  0
LINE
  8
_0-3_躯体と製品
  6
CONTINUOUS
 62
    3
 10
1148.3838040000001
 20
-1078.3150519999999
 11
1293.6938689999999
 21
-1078.3150519999999
  0
LINE
  8
_0-3_躯体と製品
  6
CONTINUOUS
 62
    4
 10
1293.6938689999999
 20
-1081.015052
 11
1148.3838040000001
 21
-1081.015052
  0
LINE
  8
_0-3_躯体と製品
  6
CONTINUOUS
 62
    4
 10
1110.9838050000001
 20
-1109.9150520000001
 11
1110.9838050000001
 21
-1085.1150520000001
  0
LINE
  8
_0-3_躯体と製品
  6
CONTINUOUS
 62
    4
 10
1149.3838049999999
 20
-1109.9150520000001
 11
1149.3838049999999
 21
-1085.1150520000001
  0
LINE
  8
_0-3_躯体と製品
  6
CONTINUOUS
 62
    4
 10
1147.783805
 20
-1109.9150520000001
 11
1147.783805
 21
-1085.1150520000001
  0
LINE
  8
_0-5_中心線
  6
CENTER1_17
 62
    7
 10
1157.197805
 20
-1130.1340520000001
 11
1157.197805
 21
-1104.877052
  0
LINE
  8
_0-3_躯体と製品
  6
CONTINUOUS
 62
    4
 10
1159.2978049999999
 20
-1107.9610520000001
 11
1158.8478050000001
 21
-1107.8260519999999
  0
LINE
  8
_0-3_躯体と製品
  6
CONTINUOUS
 62
    4
 10
1160.9628049999999
 20
-1108.6150520000001
 11
1157.197805
 21
-1108.6150520000001
  0
ARC
  8
_0-3_躯体と製品
  6
CONTINUOUS
 62
    4
 10
1157.744805
 20
-1112.2030520000001
 40
4.819
 50
48.111754999517501
 51
96.517442000339386
  0
LINE
  8
_0-3_躯体と製品
  6
CONTINUOUS
 62
    4
 10
1160.997805
 20
-1110.4150520000001
 11
1157.197805
 21
-1110.4150520000001
  0
LINE
  8
_0-3_躯体と製品
  6
CONTINUOUS
 62
    4
 10
1149.8838049999999
 20
-1110.4150520000001
 11
1164.283805
 21
-1110.4150520000001
  0
LINE
  8
_0-3_躯体と製品
  6
CONTINUOUS
 62
    4
 10
1149.8838049999999
 20
-1112.015052
 11
1164.283805
 21
-1112.015052
  0
ARC
  8
_0-3_躯体と製品
  6
CONTINUOUS
 62
    4
 10
1158.0478049999999
 20
-1107.7980520000001
 40
0.1
 50
84.805573999867903
 51
180.000005999709
  0
ARC
  8
_0-3_躯体と製品
  6
CONTINUOUS
 62
    4
 10
1157.747805
 20
-1108.0400520000001
 40
0.2
 50
269.99999700014604
 51
0.0000000000000568
  0
LINE
  8
_0-3_躯体と製品
  6
CONTINUOUS
 62
    4
 10
1157.947805
 20
-1108.0400520000001
 11
1157.947805
 21
-1107.7980520000001
  0
LINE
  8
_0-3_躯体と製品
  6
CONTINUOUS
 62
    4
 10
1158.8478050000001
 20
-1107.8260519999999
 11
1158.370805
 21
-1107.727052
  0
LINE
  8
_0-3_躯体と製品
  6
CONTINUOUS
 62
    4
 10
1158.370805
 20
-1107.727052
 11
1158.0568049999999
 21
-1107.6990519999999
  0
ARC
  8
_0-3_躯体と製品
  6
CONTINUOUS
 62
    4
 10
1154.7418050000001
 20
-1107.8950520000001
 40
0.2
 50
206.43686799956399
 51
292.97271899961106
  0
ARC
  8
_0-3_躯体と製品
  6
CONTINUOUS
 62
    4
 10
1156.3478050000001
 20
-1107.7980520000001
 40
0.1
 50
0
 51
95.194432000382804
  0
ARC
  8
_0-3_躯体と製品
  6
CONTINUOUS
 62
    4
 10
1156.6478050000001
 20
-1108.0400520000001
 40
0.2
 50
180.000005999774
 51
269.99999700014598
  0
LINE
  8
_0-3_躯体と製品
  6
CONTINUOUS
 62
    4
 10
1154.562805
 20
-1107.984052
 11
1154.5128050000001
 21
-1107.8840520000001
  0
LINE
  8
_0-3_躯体と製品
  6
CONTINUOUS
 62
    4
 10
1156.447805
 20
-1108.0400520000001
 11
1156.447805
 21
-1107.7980520000001
  0
LINE
  8
_0-3_躯体と製品
  6
CONTINUOUS
 62
    4
 10
1156.6478050000001
 20
-1108.2400520000001
 11
1157.197805
 21
-1108.2400520000001
  0
LINE
  8
_0-3_躯体と製品
  6
CONTINUOUS
 62
    4
 10
1153.4328049999999
 20
-1108.6150520000001
 11
1157.197805
 21
-1108.6150520000001
  0
ARC
  8
_0-3_躯体と製品
  6
CONTINUOUS
 62
    4
 10
1156.650805
 20
-1112.2030520000001
 40
4.819
 50
83.482563000374086
 51
131.888251000216
  0
LINE
  8
_0-3_躯体と製品
  6
CONTINUOUS
 62
    4
 10
1154.8198050000001
 20
-1108.079052
 11
1155.0978050000001
 21
-1107.9610520000001
  0
LINE
  8
_0-3_躯体と製品
  6
CONTINUOUS
 62
    4
 10
1155.0978050000001
 20
-1107.9610520000001
 11
1155.5478049999999
 21
-1107.8260519999999
  0
LINE
  8
_0-3_躯体と製品
  6
CONTINUOUS
 62
    4
 10
1155.5478049999999
 20
-1107.8260519999999
 11
1156.024805
 21
-1107.727052
  0
LINE
  8
_0-3_躯体と製品
  6
CONTINUOUS
 62
    4
 10
1156.024805
 20
-1107.727052
 11
1156.3388050000001
 21
-1107.6990519999999
  0
LINE
  8
_0-3_躯体と製品
  6
CONTINUOUS
 62
    4
 10
1153.3978050000001
 20
-1110.4150520000001
 11
1157.197805
 21
-1110.4150520000001
  0
LINE
  8
_0-3_躯体と製品
  6
CONTINUOUS
 62
    4
 10
1153.197805
 20
-1109.7660519999999
 11
1153.197805
 21
-1110.215052
  0
ARC
  8
_0-3_躯体と製品
  6
CONTINUOUS
 62
    4
 10
1153.3978050000001
 20
-1110.215052
 40
0.2
 50
180.000005999774
 51
269.99999700014598
  0
LINE
  8
_0-3_躯体と製品
  6
CONTINUOUS
 62
    4
 10
1153.4328049999999
 20
-1108.6150520000001
 11
1153.197805
 21
-1109.7660519999999
  0
ARC
  8
_0-3_躯体と製品
  6
CONTINUOUS
 62
    4
 10
1149.8838049999999
 20
-1109.9150520000001
 40
0.5
 50
180.00000599976096
 51
269.99999700012
  0
ARC
  8
_0-3_躯体と製品
  6
CONTINUOUS
 62
    4
 10
1149.8838049999999
 20
-1109.9150520000001
 40
2.1000000000000001
 50
180.00000599975803
 51
269.99999700012103
  0
LINE
  8
_0-3_躯体と製品
  6
CONTINUOUS
 62
    4
 10
1157.747805
 20
-1108.2400520000001
 11
1157.197805
 21
-1108.2400520000001
  0
LINE
  8
_0-3_躯体と製品
  6
CONTINUOUS
 62
    4
 10
1159.832805
 20
-1107.984052
 11
1159.882805
 21
-1107.8840520000001
  0
ARC
  8
_0-3_躯体と製品
  6
CONTINUOUS
 62
    4
 10
1159.6538049999999
 20
-1107.8950520000001
 40
0.2
 50
247.02727499998102
 51
333.56312600015099
  0
LINE
  8
_0-3_躯体と製品
  6
CONTINUOUS
 62
    4
 10
1159.5758049999999
 20
-1108.079052
 11
1159.2978049999999
 21
-1107.9610520000001
  0
ARC
  8
_0-3_躯体と製品
  6
CONTINUOUS
 62
    4
 10
1164.283805
 20
-1109.9150520000001
 40
2.1000000000000001
 50
269.99999700012103
 51
0
  0
ARC
  8
_0-3_躯体と製品
  6
CONTINUOUS
 62
    4
 10
1164.283805
 20
-1109.9150520000001
 40
0.5
 50
269.99999700012
 51
0
  0
LINE
  8
_0-3_躯体と製品
  6
CONTINUOUS
 62
    4
 10
1166.3838049999999
 20
-1109.9150520000001
 11
1166.3838049999999
 21
-1109.3150519999999
  0
LINE
  8
_0-3_躯体と製品
  6
CONTINUOUS
 62
    4
 10
1164.783805
 20
-1109.9150520000001
 11
1164.783805
 21
-1109.3150519999999
  0
LINE
  8
_0-3_躯体と製品
  6
CONTINUOUS
 62
    4
 10
1164.783805
 20
-1109.3150519999999
 11
1166.3838049999999
 21
-1109.3150519999999
  0
LINE
  8
_0-3_躯体と製品
  6
CONTINUOUS
 62
    4
 10
1161.197805
 20
-1109.7660519999999
 11
1161.197805
 21
-1110.215052
  0
ARC
  8
_0-3_躯体と製品
  6
CONTINUOUS
 62
    4
 10
1160.997805
 20
-1110.215052
 40
0.2
 50
269.99999700014604
 51
0.0000000000000568
  0
LINE
  8
_0-3_躯体と製品
  6
CONTINUOUS
 62
    4
 10
1160.9628049999999
 20
-1108.6150520000001
 11
1161.197805
 21
-1109.7660519999999
  0
LINE
  8
_0-3_躯体と製品
  6
CONTINUOUS
 62
    4
 10
1147.283805
 20
-1083.015052
 11
1111.4838050000001
 21
-1083.015052
  0
LINE
  8
_0-3_躯体と製品
  6
CONTINUOUS
 62
    4
 10
1147.283805
 20
-1084.6150520000001
 11
1111.4838050000001
 21
-1084.6150520000001
  0
LINE
  8
_0-3_躯体と製品
  6
CONTINUOUS
 62
    4
 10
1148.3838040000001
 20
-1083.015052
 11
1110.3838040000001
 21
-1083.015052
  0
LINE
  8
_0-3_躯体と製品
  6
CONTINUOUS
 62
    4
 10
1110.3838040000001
 20
-1083.015052
 11
1110.3838040000001
 21
-1076.3150519999999
  0
LINE
  8
_0-3_躯体と製品
  6
CONTINUOUS
 62
    4
 10
1110.3838040000001
 20
-1076.3150519999999
 11
1148.3838040000001
 21
-1076.3150519999999
  0
LINE
  8
_0-3_躯体と製品
  6
CONTINUOUS
 62
    4
 10
1148.3838040000001
 20
-1076.3150519999999
 11
1148.3838040000001
 21
-1083.015052
  0
ARC
  8
_0-3_躯体と製品
  6
CONTINUOUS
 62
    4
 10
1111.4838050000001
 20
-1085.1150520000001
 40
0.5
 50
90.000002999880479
 51
180.00000599976096
  0
ARC
  8
_0-3_躯体と製品
  6
CONTINUOUS
 62
    4
 10
1147.283805
 20
-1085.1150520000001
 40
0.5
 50
0
 51
90.000002999880479
  0
ARC
  8
_0-3_躯体と製品
  6
CONTINUOUS
 62
    4
 10
1147.283805
 20
-1085.1150520000001
 40
2.1000000000000001
 50
0
 51
90.0000029998792
  0
LINE
  8
_0-3_躯体と製品
  6
CONTINUOUS
 62
    4
 10
1104.3838049999999
 20
-1134.015052
 11
1154.3838049999999
 21
-1134.015052
  0
LINE
  8
_0-3_躯体と製品
  6
CONTINUOUS
 62
    4
 10
1104.8838049999999
 20
-1131.715052
 11
1153.8838049999999
 21
-1131.715052
  0
LINE
  8
_0-3_躯体と製品
  6
CONTINUOUS
 62
    4
 10
1089.3838049999999
 20
-1114.015052
 11
1169.3838049999999
 21
-1114.015052
  0
LINE
  8
_0-3_躯体と製品
  6
CONTINUOUS
 62
    4
 10
1089.3838049999999
 20
-1115.515052
 11
1169.3838049999999
 21
-1115.515052
  0
LINE
  8
_0-3_躯体と製品
  6
CONTINUOUS
 62
    4
 10
1089.3838049999999
 20
-1115.515052
 11
1089.3838049999999
 21
-1114.015052
  0
ARC
  8
_0-3_躯体と製品
  6
CONTINUOUS
 62
    4
 10
1104.8838049999999
 20
-1132.215052
 40
0.5
 50
90.000002999880479
 51
180.00000599976096
  0
LINE
  8
_0-3_躯体と製品
  6
CONTINUOUS
 62
    4
 10
1104.3838049999999
 20
-1132.215052
 11
1104.3838049999999
 21
-1134.015052
  0
ARC
  8
_0-3_躯体と製品
  6
CONTINUOUS
 62
    4
 10
1104.8838049999999
 20
-1131.215052
 40
0.5
 50
269.99999700012
 51
0
  0
LINE
  8
_0-3_躯体と製品
  6
CONTINUOUS
 62
    4
 10
1105.3838049999999
 20
-1115.515052
 11
1105.3838049999999
 21
-1131.215052
  0
LINE
  8
_0-3_躯体と製品
  6
CONTINUOUS
 62
    4
 10
1129.3838049999999
 20
-1136.515052
 11
1131.8838049999999
 21
-1134.015052
  0
LINE
  8
_0-3_躯体と製品
  6
CONTINUOUS
 62
    4
 10
1126.8838049999999
 20
-1136.515052
 11
1129.3838049999999
 21
-1134.015052
  0
LINE
  8
_0-3_躯体と製品
  6
CONTINUOUS
 62
    4
 10
1139.3838049999999
 20
-1142.9800519999999
 11
1139.3838049999999
 21
-1134.015052
  0
LINE
  8
_0-3_躯体と製品
  6
CONTINUOUS
 62
    4
 10
1119.3838049999999
 20
-1142.9800519999999
 11
1119.3838049999999
 21
-1134.015052
  0
LINE
  8
_0-3_躯体と製品
  6
CONTINUOUS
 62
    4
 10
1139.3838049999999
 20
-1136.515052
 11
1119.3838049999999
 21
-1136.515052
  0
LINE
  8
_0-3_躯体と製品
  6
CONTINUOUS
 62
    4
 10
1129.3838049999999
 20
-1136.515052
 11
1136.8838049999999
 21
-1136.515052
  0
ARC
  8
_0-3_躯体と製品
  6
CONTINUOUS
 62
    4
 10
1129.3838049999999
 20
-1135.6050519999999
 40
8.9100000000000001
 50
235.86405600032899
 51
304.13593800000899
  0
LINE
  8
_0-3_躯体と製品
  6
CONTINUOUS
 62
    4
 10
1129.3838049999999
 20
-1144.515052
 11
1136.850805
 21
-1144.515052
  0
LINE
  8
_0-3_躯体と製品
  6
CONTINUOUS
 62
    4
 10
1129.583805
 20
-1136.515052
 11
1121.8838049999999
 21
-1136.515052
  0
LINE
  8
_0-3_躯体と製品
  6
CONTINUOUS
 62
    4
 10
1129.3838049999999
 20
-1144.515052
 11
1121.716805
 21
-1144.515052
  0
ARC
  8
_0-3_躯体と製品
  6
CONTINUOUS
 62
    4
 10
1121.8838049999999
 20
-1141.7200519999999
 40
2.7999999999999998
 50
206.748099000065
 51
333.25189499999601
  0
LINE
  8
_0-3_躯体と製品
  6
CONTINUOUS
 62
    4
 10
1124.3838049999999
 20
-1142.9800519999999
 11
1124.3838049999999
 21
-1136.515052
  0
ARC
  8
_0-3_躯体と製品
  6
CONTINUOUS
 62
    4
 10
1136.8838049999999
 20
-1141.7200519999999
 40
2.7999999999999998
 50
206.748099000065
 51
333.25189499999601
  0
LINE
  8
_0-3_躯体と製品
  6
CONTINUOUS
 62
    4
 10
1134.3838049999999
 20
-1142.9800519999999
 11
1134.3838049999999
 21
-1136.515052
  0
LINE
  8
_0-3_躯体と製品
  6
CONTINUOUS
 62
    4
 10
1139.3838049999999
 20
-1134.015052
 11
1119.3838049999999
 21
-1134.015052
  0
ARC
  8
_0-3_躯体と製品
  6
CONTINUOUS
 62
    4
 10
1153.8838049999999
 20
-1132.215052
 40
0.5
 50
0
 51
90.000002999880479
  0
LINE
  8
_0-3_躯体と製品
  6
CONTINUOUS
 62
    4
 10
1154.3838049999999
 20
-1132.215052
 11
1154.3838049999999
 21
-1134.015052
  0
ARC
  8
_0-3_躯体と製品
  6
CONTINUOUS
 62
    4
 10
1153.8838049999999
 20
-1131.215052
 40
0.5
 50
180.00000599976096
 51
269.99999700012
  0
LINE
  8
_0-3_躯体と製品
  6
CONTINUOUS
 62
    4
 10
1153.3838049999999
 20
-1115.515052
 11
1153.3838049999999
 21
-1131.215052
  0
LINE
  8
_0-3_躯体と製品
  6
CONTINUOUS
 62
    4
 10
1169.3838049999999
 20
-1115.515052
 11
1169.3838049999999
 21
-1114.015052
  0
LINE
  8
_0-3_躯体と製品
  6
CONTINUOUS
 62
    4
 10
1293.6938689999999
 20
-1052.015052
 11
965.07373900000005
 21
-1052.0150530000001
  0
LINE
  8
_0-3_躯体と製品
  6
CONTINUOUS
 62
    4
 10
1134.3838049999999
 20
-1099.887052
 11
1124.3838049999999
 21
-1099.887052
  0
LINE
  8
_0-3_躯体と製品
  6
CONTINUOUS
 62
    4
 10
1133.3838049999999
 20
-1098.887052
 11
1125.3838049999999
 21
-1098.887052
  0
LINE
  8
_0-3_躯体と製品
  6
CONTINUOUS
 62
    4
 10
1125.3838049999999
 20
-1098.887052
 11
1124.3838049999999
 21
-1099.887052
  0
LINE
  8
_0-3_躯体と製品
  6
CONTINUOUS
 62
    4
 10
1125.3838049999999
 20
-1112.015052
 11
1125.3838049999999
 21
-1098.887052
  0
LINE
  8
_0-3_躯体と製品
  6
CONTINUOUS
 62
    4
 10
1124.3838049999999
 20
-1099.887052
 11
1124.3838049999999
 21
-1112.015052
  0
LINE
  8
_0-3_躯体と製品
  6
CONTINUOUS
 62
    4
 10
1133.3838049999999
 20
-1098.887052
 11
1134.3838049999999
 21
-1099.887052
  0
LINE
  8
_0-3_躯体と製品
  6
CONTINUOUS
 62
    4
 10
1133.3838049999999
 20
-1112.015052
 11
1133.3838049999999
 21
-1098.887052
  0
LINE
  8
_0-3_躯体と製品
  6
CONTINUOUS
 62
    4
 10
1134.3838049999999
 20
-1099.887052
 11
1134.3838049999999
 21
-1112.015052
  0
LINE
  8
_0-3_躯体と製品
  6
CONTINUOUS
 62
    3
 10
1279.4345470000001
 20
-1032.0150920000001
 11
1279.4345470000001
 21
-1037.015052
  0
ARC
  8
_0-3_躯体と製品
  6
CONTINUOUS
 62
    3
 10
1278.4345089999999
 20
-1032.0150920000001
 40
1.00004
 50
0
 51
90
  0
LINE
  8
_0-3_躯体と製品
  6
CONTINUOUS
 62
    3
 10
1278.4345089999999
 20
-1031.015052
 11
1270.4341930000001
 21
-1031.015052
  0
LINE
  8
_0-3_躯体と製品
  6
CONTINUOUS
 62
    3
 10
1279.4345470000001
 20
-1024.0150140000001
 11
1279.4345470000001
 21
-1019.015052
  0
ARC
  8
_0-3_躯体と製品
  6
CONTINUOUS
 62
    3
 10
1278.4345089999999
 20
-1024.0150140000001
 40
1.00004
 50
270.00000000001302
 51
0.0000000000130171
  0
LINE
  8
_0-3_躯体と製品
  6
CONTINUOUS
 62
    3
 10
1278.4345089999999
 20
-1025.015052
 11
1270.4341930000001
 21
-1025.015052
  0
ARC
  8
_0-3_躯体と製品
  6
CONTINUOUS
 62
    3
 10
1270.4341930000001
 20
-1026.0150920000001
 40
1.00004
 50
90
 51
180
  0
LINE
  8
_0-3_躯体と製品
  6
CONTINUOUS
 62
    3
 10
1269.4341549999999
 20
-1026.0150920000001
 11
1269.4341549999999
 21
-1030.0150120000001
  0
ARC
  8
_0-3_躯体と製品
  6
CONTINUOUS
 62
    3
 10
1270.4341930000001
 20
-1030.0150120000001
 40
1.00004
 50
180
 51
270
  0
LINE
  8
_0-3_躯体と製品
  6
CONTINUOUS
 62
    3
 10
1009.434542
 20
-1032.0150920000001
 11
1009.434542
 21
-1037.015052
  0
ARC
  8
_0-3_躯体と製品
  6
CONTINUOUS
 62
    3
 10
1008.4345039999999
 20
-1032.0150920000001
 40
1.00004
 50
0
 51
90
  0
LINE
  8
_0-3_躯体と製品
  6
CONTINUOUS
 62
    3
 10
1008.4345039999999
 20
-1031.015052
 11
1000.4341879999999
 21
-1031.015052
  0
LINE
  8
_0-3_躯体と製品
  6
CONTINUOUS
 62
    3
 10
1009.434542
 20
-1024.0150140000001
 11
1009.434542
 21
-1019.015052
  0
ARC
  8
_0-3_躯体と製品
  6
CONTINUOUS
 62
    3
 10
1008.4345039999999
 20
-1024.0150140000001
 40
1.00004
 50
270.00000000001302
 51
0.0000000000130171
  0
LINE
  8
_0-3_躯体と製品
  6
CONTINUOUS
 62
    3
 10
1008.4345039999999
 20
-1025.015052
 11
1000.4341879999999
 21
-1025.015052
  0
ARC
  8
_0-3_躯体と製品
  6
CONTINUOUS
 62
    3
 10
1000.4341879999999
 20
-1026.0150920000001
 40
1.00004
 50
90
 51
180
  0
LINE
  8
_0-3_躯体と製品
  6
CONTINUOUS
 62
    3
 10
999.43415000000005
 20
-1026.0150920000001
 11
999.43415000000005
 21
-1030.0150120000001
  0
ARC
  8
_0-3_躯体と製品
  6
CONTINUOUS
 62
    3
 10
1000.4341879999999
 20
-1030.0150120000001
 40
1.00004
 50
180
 51
270
  0
LINE
  8
_0-3_躯体と製品
  6
CONTINUOUS
 62
    3
 10
1099.434542
 20
-1032.0150920000001
 11
1099.434542
 21
-1037.015052
  0
ARC
  8
_0-3_躯体と製品
  6
CONTINUOUS
 62
    3
 10
1098.4345040000001
 20
-1032.0150920000001
 40
1.00004
 50
0
 51
90
  0
LINE
  8
_0-3_躯体と製品
  6
CONTINUOUS
 62
    3
 10
1098.4345040000001
 20
-1031.015052
 11
1090.4341879999999
 21
-1031.015052
  0
LINE
  8
_0-3_躯体と製品
  6
CONTINUOUS
 62
    3
 10
1099.434542
 20
-1024.0150140000001
 11
1099.434542
 21
-1019.015052
  0
ARC
  8
_0-3_躯体と製品
  6
CONTINUOUS
 62
    3
 10
1098.4345040000001
 20
-1024.0150140000001
 40
1.00004
 50
270.00000000001302
 51
0.0000000000130171
  0
LINE
  8
_0-3_躯体と製品
  6
CONTINUOUS
 62
    3
 10
1098.4345040000001
 20
-1025.015052
 11
1090.4341879999999
 21
-1025.015052
  0
ARC
  8
_0-3_躯体と製品
  6
CONTINUOUS
 62
    3
 10
1090.4341879999999
 20
-1026.0150920000001
 40
1.00004
 50
90
 51
180
  0
LINE
  8
_0-3_躯体と製品
  6
CONTINUOUS
 62
    3
 10
1089.43415
 20
-1026.0150920000001
 11
1089.43415
 21
-1030.0150120000001
  0
ARC
  8
_0-3_躯体と製品
  6
CONTINUOUS
 62
    3
 10
1090.4341879999999
 20
-1030.0150120000001
 40
1.00004
 50
180
 51
270
  0
LINE
  8
_0-3_躯体と製品
  6
CONTINUOUS
 62
    4
 10
965.07373900000005
 20
-1019.015052
 11
1293.6938689999999
 21
-1019.015052
  0
LINE
  8
_0-3_躯体と製品
  6
CONTINUOUS
 62
    3
 10
965.07373900000005
 20
-1042.015052
 11
1293.6938689999999
 21
-1042.015052
  0
LINE
  8
_0-3_躯体と製品
  6
CONTINUOUS
 62
    3
 10
965.07373900000005
 20
-1047.015052
 11
1293.6938689999999
 21
-1047.015052
  0
LINE
  8
_0-3_躯体と製品
  6
CONTINUOUS
 62
    4
 10
965.07373900000005
 20
-1037.015052
 11
1293.6938689999999
 21
-1037.015052
  0
LINE
  8
_0-3_躯体と製品
  6
CONTINUOUS
 62
    3
 10
1189.4345470000001
 20
-1032.0150920000001
 11
1189.4345470000001
 21
-1037.015052
  0
ARC
  8
_0-3_躯体と製品
  6
CONTINUOUS
 62
    3
 10
1188.4345089999999
 20
-1032.0150920000001
 40
1.00004
 50
0
 51
90
  0
LINE
  8
_0-3_躯体と製品
  6
CONTINUOUS
 62
    3
 10
1188.4345089999999
 20
-1031.015052
 11
1180.4341930000001
 21
-1031.015052
  0
LINE
  8
_0-3_躯体と製品
  6
CONTINUOUS
 62
    3
 10
1189.4345470000001
 20
-1024.0150140000001
 11
1189.4345470000001
 21
-1019.015052
  0
ARC
  8
_0-3_躯体と製品
  6
CONTINUOUS
 62
    3
 10
1188.4345089999999
 20
-1024.0150140000001
 40
1.00004
 50
270.00000000001302
 51
0.0000000000130171
  0
LINE
  8
_0-3_躯体と製品
  6
CONTINUOUS
 62
    3
 10
1188.4345089999999
 20
-1025.015052
 11
1180.4341930000001
 21
-1025.015052
  0
ARC
  8
_0-3_躯体と製品
  6
CONTINUOUS
 62
    3
 10
1180.4341930000001
 20
-1026.0150920000001
 40
1.00004
 50
90
 51
180
  0
LINE
  8
_0-3_躯体と製品
  6
CONTINUOUS
 62
    3
 10
1179.4341549999999
 20
-1026.0150920000001
 11
1179.4341549999999
 21
-1030.0150120000001
  0
ARC
  8
_0-3_躯体と製品
  6
CONTINUOUS
 62
    3
 10
1180.4341930000001
 20
-1030.0150120000001
 40
1.00004
 50
180
 51
270
  0
LINE
  8
_0-3_躯体と製品
  6
CONTINUOUS
 62
    4
 10
1525.357199
 20
-1112.0150599999999
 11
1340.2462029999999
 21
-1112.0150599999999
  0
LINE
  8
_0-3_躯体と製品
  6
CONTINUOUS
 62
    3
 10
1525.357199
 20
-1109.315071
 11
1340.2462029999999
 21
-1109.315071
  0
LINE
  8
_0-3_躯体と製品
  6
CONTINUOUS
 62
    4
 10
1340.2462029999999
 20
-1083.0150599999999
 11
1748.4680450000001
 21
-1083.0150599999999
  0
LINE
  8
_0-3_躯体と製品
  6
CONTINUOUS
 62
    3
 10
1563.357047
 20
-1109.315071
 11
1748.4680450000001
 21
-1109.315071
  0
LINE
  8
_0-3_躯体と製品
  6
CONTINUOUS
 62
    4
 10
1748.4680450000001
 20
-1112.0150599999999
 11
1563.357047
 21
-1112.0150599999999
  0
LINE
  8
_0-3_躯体と製品
  6
CONTINUOUS
 62
    4
 10
1525.357199
 20
-1107.315079
 11
1563.357047
 21
-1107.315079
  0
LINE
  8
_0-3_躯体と製品
  6
CONTINUOUS
 62
    4
 10
1563.357047
 20
-1107.315079
 11
1563.357047
 21
-1114.015052
  0
LINE
  8
_0-3_躯体と製品
  6
CONTINUOUS
 62
    4
 10
1563.357047
 20
-1114.015052
 11
1525.357199
 21
-1114.015052
  0
LINE
  8
_0-3_躯体と製品
  6
CONTINUOUS
 62
    4
 10
1525.357199
 20
-1114.015052
 11
1525.357199
 21
-1107.315079
  0
LINE
  8
_0-5_中心線
  6
CENTER1_17
 62
    7
 10
1694.357123
 20
-1041.2890600000001
 11
1694.357123
 21
-1093.3830599999999
  0
LINE
  8
_0-3_躯体と製品
  6
CONTINUOUS
 62
    4
 10
1679.0551230000001
 20
-1053.21306
 11
1709.6611230000001
 21
-1053.21306
  0
LINE
  8
_0-3_躯体と製品
  6
CONTINUOUS
 62
    4
 10
1679.0551230000001
 20
-1052.0150599999999
 11
1709.6611230000001
 21
-1052.0150599999999
  0
LINE
  8
_0-3_躯体と製品
  6
CONTINUOUS
 62
    4
 10
1728.357123
 20
-1083.01306
 11
1728.357123
 21
-1076.3150599999999
  0
LINE
  8
_0-3_躯体と製品
  6
CONTINUOUS
 62
    4
 10
1728.357123
 20
-1076.3150599999999
 11
1723.357123
 21
-1076.3150599999999
  0
LINE
  8
_0-3_躯体と製品
  6
CONTINUOUS
 62
    4
 10
1723.357123
 20
-1076.3150599999999
 11
1723.357123
 21
-1078.3150599999999
  0
LINE
  8
_0-3_躯体と製品
  6
CONTINUOUS
 62
    4
 10
1723.357123
 20
-1078.3150599999999
 11
1726.357123
 21
-1078.3150599999999
  0
LINE
  8
_0-3_躯体と製品
  6
CONTINUOUS
 62
    4
 10
1726.357123
 20
-1078.3150599999999
 11
1726.357123
 21
-1081.0150599999999
  0
LINE
  8
_0-3_躯体と製品
  6
CONTINUOUS
 62
    4
 10
1726.357123
 20
-1081.0150599999999
 11
1662.357123
 21
-1081.0150599999999
  0
LINE
  8
_0-3_躯体と製品
  6
CONTINUOUS
 62
    4
 10
1662.357123
 20
-1081.0150599999999
 11
1662.357123
 21
-1078.3150599999999
  0
LINE
  8
_0-3_躯体と製品
  6
CONTINUOUS
 62
    4
 10
1662.357123
 20
-1078.3150599999999
 11
1665.357123
 21
-1078.3150599999999
  0
LINE
  8
_0-3_躯体と製品
  6
CONTINUOUS
 62
    4
 10
1665.357123
 20
-1078.3150599999999
 11
1665.357123
 21
-1076.3150599999999
  0
LINE
  8
_0-3_躯体と製品
  6
CONTINUOUS
 62
    4
 10
1665.357123
 20
-1076.3150599999999
 11
1660.357123
 21
-1076.3150599999999
  0
LINE
  8
_0-3_躯体と製品
  6
CONTINUOUS
 62
    4
 10
1660.357123
 20
-1076.3150599999999
 11
1660.357123
 21
-1083.0150599999999
  0
LINE
  8
_0-3_躯体と製品
  6
CONTINUOUS
 62
    4
 10
1660.357123
 20
-1083.0150599999999
 11
1728.357123
 21
-1083.0150599999999
  0
LINE
  8
_0-5_中心線
  6
CENTER1_17
 62
    7
 10
1670.3151230000001
 20
-1099.5360599999999
 11
1670.3151230000001
 21
-1074.2790600000001
  0
LINE
  8
_0-3_躯体と製品
  6
CONTINUOUS
 62
    4
 10
1675.857123
 20
-1079.8170600000001
 11
1664.0551230000001
 21
-1079.8170600000001
  0
LINE
  8
_0-3_躯体と製品
  6
CONTINUOUS
 62
    4
 10
1675.857123
 20
-1081.0150599999999
 11
1664.057123
 21
-1081.0150599999999
  0
LINE
  8
_0-3_躯体と製品
  6
CONTINUOUS
 62
    4
 10
1663.5551230000001
 20
-1078.3150599999999
 11
1662.357123
 21
-1078.3150599999999
  0
ARC
  8
_0-3_躯体と製品
  6
CONTINUOUS
 62
    4
 10
1664.0551230000001
 20
-1079.3170600000001
 40
0.5
 50
180.00000599976096
 51
269.99999700012
  0
ARC
  8
_0-3_躯体と製品
  6
CONTINUOUS
 62
    4
 10
1664.057123
 20
-1079.3150599999999
 40
1.7
 50
180.00000599976201
 51
269.99999700012302
  0
LINE
  8
_0-3_躯体と製品
  6
CONTINUOUS
 62
    4
 10
1663.5551230000001
 20
-1078.3150599999999
 11
1663.5551230000001
 21
-1079.3170600000001
  0
LINE
  8
_0-3_躯体と製品
  6
CONTINUOUS
 62
    4
 10
1662.357123
 20
-1078.3150599999999
 11
1662.357123
 21
-1079.3150599999999
  0
LINE
  8
_0-3_躯体と製品
  6
CONTINUOUS
 62
    4
 10
1678.0551230000001
 20
-1054.2110600000001
 11
1678.0551230000001
 21
-1078.8170600000001
  0
LINE
  8
_0-3_躯体と製品
  6
CONTINUOUS
 62
    4
 10
1676.857123
 20
-1054.2110600000001
 11
1676.857123
 21
-1078.8170600000001
  0
ARC
  8
_0-3_躯体と製品
  6
CONTINUOUS
 62
    4
 10
1670.865123
 20
-1077.4420600000001
 40
0.2
 50
269.99999700014604
 51
0.0000000000000568
  0
ARC
  8
_0-3_躯体と製品
  6
CONTINUOUS
 62
    4
 10
1670.8621230000001
 20
-1081.6050600000001
 40
4.819
 50
48.111754999517501
 51
96.517442000339386
  0
LINE
  8
_0-3_躯体と製品
  6
CONTINUOUS
 62
    4
 10
1674.080123
 20
-1078.0170599999999
 11
1670.3151230000001
 21
-1078.0170599999999
  0
LINE
  8
_0-3_躯体と製品
  6
CONTINUOUS
 62
    4
 10
1669.1421230000001
 20
-1077.12906
 11
1669.4561229999999
 21
-1077.10106
  0
LINE
  8
_0-3_躯体と製品
  6
CONTINUOUS
 62
    4
 10
1668.665123
 20
-1077.2280599999999
 11
1669.1421230000001
 21
-1077.12906
  0
LINE
  8
_0-3_躯体と製品
  6
CONTINUOUS
 62
    4
 10
1668.2151229999999
 20
-1077.3630599999999
 11
1668.665123
 21
-1077.2280599999999
  0
LINE
  8
_0-3_躯体と製品
  6
CONTINUOUS
 62
    4
 10
1667.9371229999999
 20
-1077.4810600000001
 11
1668.2151229999999
 21
-1077.3630599999999
  0
LINE
  8
_0-3_躯体と製品
  6
CONTINUOUS
 62
    4
 10
1667.6801230000001
 20
-1077.38606
 11
1667.6301229999999
 21
-1077.2860599999999
  0
ARC
  8
_0-3_躯体と製品
  6
CONTINUOUS
 62
    4
 10
1669.7651229999999
 20
-1077.4420600000001
 40
0.2
 50
180.000005999774
 51
269.99999700014598
  0
ARC
  8
_0-3_躯体と製品
  6
CONTINUOUS
 62
    4
 10
1669.4651229999999
 20
-1077.2000599999999
 40
0.1
 50
0
 51
95.194432000382804
  0
ARC
  8
_0-3_躯体と製品
  6
CONTINUOUS
 62
    4
 10
1667.859123
 20
-1077.2970600000001
 40
0.2
 50
206.43686799956399
 51
292.97271899961106
  0
ARC
  8
_0-3_躯体と製品
  6
CONTINUOUS
 62
    4
 10
1669.7681230000001
 20
-1081.6050600000001
 40
4.819
 50
83.482563000374086
 51
131.888251000216
  0
LINE
  8
_0-3_躯体と製品
  6
CONTINUOUS
 62
    4
 10
1666.550123
 20
-1078.0170599999999
 11
1670.3151230000001
 21
-1078.0170599999999
  0
LINE
  8
_0-3_躯体と製品
  6
CONTINUOUS
 62
    4
 10
1669.7651229999999
 20
-1077.6420599999999
 11
1670.3151230000001
 21
-1077.6420599999999
  0
LINE
  8
_0-3_躯体と製品
  6
CONTINUOUS
 62
    4
 10
1669.5651230000001
 20
-1077.4420600000001
 11
1669.5651230000001
 21
-1077.2000599999999
  0
LINE
  8
_0-3_躯体と製品
  6
CONTINUOUS
 62
    4
 10
1670.865123
 20
-1077.6420599999999
 11
1670.3151230000001
 21
-1077.6420599999999
  0
LINE
  8
_0-3_躯体と製品
  6
CONTINUOUS
 62
    4
 10
1671.4881230000001
 20
-1077.12906
 11
1671.174123
 21
-1077.10106
  0
LINE
  8
_0-3_躯体と製品
  6
CONTINUOUS
 62
    4
 10
1671.9651229999999
 20
-1077.2280599999999
 11
1671.4881230000001
 21
-1077.12906
  0
LINE
  8
_0-3_躯体と製品
  6
CONTINUOUS
 62
    4
 10
1672.415123
 20
-1077.3630599999999
 11
1671.9651229999999
 21
-1077.2280599999999
  0
LINE
  8
_0-3_躯体と製品
  6
CONTINUOUS
 62
    4
 10
1672.693123
 20
-1077.4810600000001
 11
1672.415123
 21
-1077.3630599999999
  0
LINE
  8
_0-3_躯体と製品
  6
CONTINUOUS
 62
    4
 10
1671.0651230000001
 20
-1077.4420600000001
 11
1671.0651230000001
 21
-1077.2000599999999
  0
ARC
  8
_0-3_躯体と製品
  6
CONTINUOUS
 62
    4
 10
1671.165123
 20
-1077.2000599999999
 40
0.1
 50
84.805573999867903
 51
180.000005999709
  0
ARC
  8
_0-3_躯体と製品
  6
CONTINUOUS
 62
    4
 10
1672.771123
 20
-1077.2970600000001
 40
0.2
 50
247.02727499998102
 51
333.56312600015099
  0
LINE
  8
_0-3_躯体と製品
  6
CONTINUOUS
 62
    4
 10
1672.9501230000001
 20
-1077.38606
 11
1673.000123
 21
-1077.2860599999999
  0
LINE
  8
_0-3_躯体と製品
  6
CONTINUOUS
 62
    4
 10
1674.115123
 20
-1079.8170600000001
 11
1670.3151230000001
 21
-1079.8170600000001
  0
ARC
  8
_0-3_躯体と製品
  6
CONTINUOUS
 62
    4
 10
1666.5151229999999
 20
-1079.61706
 40
0.2
 50
180.000005999774
 51
269.99999700014598
  0
LINE
  8
_0-3_躯体と製品
  6
CONTINUOUS
 62
    4
 10
1666.3151230000001
 20
-1079.16806
 11
1666.3151230000001
 21
-1079.61706
  0
LINE
  8
_0-3_躯体と製品
  6
CONTINUOUS
 62
    4
 10
1666.5151229999999
 20
-1079.8170600000001
 11
1670.3151230000001
 21
-1079.8170600000001
  0
ARC
  8
_0-3_躯体と製品
  6
CONTINUOUS
 62
    4
 10
1674.115123
 20
-1079.61706
 40
0.2
 50
269.99999700014604
 51
0.0000000000000568
  0
LINE
  8
_0-3_躯体と製品
  6
CONTINUOUS
 62
    4
 10
1674.3151230000001
 20
-1079.16806
 11
1674.3151230000001
 21
-1079.61706
  0
LINE
  8
_0-3_躯体と製品
  6
CONTINUOUS
 62
    4
 10
1666.550123
 20
-1078.0170599999999
 11
1666.3151230000001
 21
-1079.16806
  0
LINE
  8
_0-3_躯体と製品
  6
CONTINUOUS
 62
    4
 10
1674.080123
 20
-1078.0170599999999
 11
1674.3151230000001
 21
-1079.16806
  0
ARC
  8
_0-3_躯体と製品
  6
CONTINUOUS
 62
    4
 10
1675.857123
 20
-1078.8170600000001
 40
2.198
 50
269.99999700011898
 51
0
  0
ARC
  8
_0-3_躯体と製品
  6
CONTINUOUS
 62
    4
 10
1675.857123
 20
-1078.8170600000001
 40
1
 50
269.99999700012
 51
0
  0
ARC
  8
_0-3_躯体と製品
  6
CONTINUOUS
 62
    4
 10
1679.0551230000001
 20
-1054.2110600000001
 40
2.198
 50
90.000002999881303
 51
180.000005999763
  0
ARC
  8
_0-3_躯体と製品
  6
CONTINUOUS
 62
    4
 10
1679.0551230000001
 20
-1054.2110600000001
 40
1
 50
90.000002999880479
 51
180.00000599976096
  0
LINE
  8
_0-5_中心線
  6
CENTER1_17
 62
    7
 10
1718.4011230000001
 20
-1099.5360599999999
 11
1718.4011230000001
 21
-1074.2790600000001
  0
LINE
  8
_0-3_躯体と製品
  6
CONTINUOUS
 62
    4
 10
1711.857123
 20
-1054.2110600000001
 11
1711.857123
 21
-1078.8170600000001
  0
LINE
  8
_0-3_躯体と製品
  6
CONTINUOUS
 62
    4
 10
1710.6591229999999
 20
-1054.2110600000001
 11
1710.6591229999999
 21
-1078.8170600000001
  0
ARC
  8
_0-3_躯体と製品
  6
CONTINUOUS
 62
    4
 10
1717.8541230000001
 20
-1081.6050600000001
 40
4.819
 50
83.482563000374086
 51
131.888251000216
  0
LINE
  8
_0-3_躯体と製品
  6
CONTINUOUS
 62
    4
 10
1714.636123
 20
-1078.0170599999999
 11
1718.4011230000001
 21
-1078.0170599999999
  0
LINE
  8
_0-3_躯体と製品
  6
CONTINUOUS
 62
    4
 10
1714.6011229999999
 20
-1079.8170600000001
 11
1718.4011230000001
 21
-1079.8170600000001
  0
LINE
  8
_0-3_躯体と製品
  6
CONTINUOUS
 62
    4
 10
1724.657123
 20
-1081.0150599999999
 11
1712.857123
 21
-1081.0150599999999
  0
LINE
  8
_0-3_躯体と製品
  6
CONTINUOUS
 62
    4
 10
1724.6591229999999
 20
-1079.8170600000001
 11
1712.857123
 21
-1079.8170600000001
  0
ARC
  8
_0-3_躯体と製品
  6
CONTINUOUS
 62
    4
 10
1714.6011229999999
 20
-1079.61706
 40
0.2
 50
180.000005999774
 51
269.99999700014598
  0
LINE
  8
_0-3_躯体と製品
  6
CONTINUOUS
 62
    4
 10
1714.4011230000001
 20
-1079.16806
 11
1714.4011230000001
 21
-1079.61706
  0
LINE
  8
_0-3_躯体と製品
  6
CONTINUOUS
 62
    4
 10
1714.636123
 20
-1078.0170599999999
 11
1714.4011230000001
 21
-1079.16806
  0
ARC
  8
_0-3_躯体と製品
  6
CONTINUOUS
 62
    4
 10
1712.857123
 20
-1078.8170600000001
 40
2.198
 50
180.000005999763
 51
269.99999700011898
  0
ARC
  8
_0-3_躯体と製品
  6
CONTINUOUS
 62
    4
 10
1712.857123
 20
-1078.8170600000001
 40
1
 50
180.00000599976096
 51
269.99999700012
  0
LINE
  8
_0-3_躯体と製品
  6
CONTINUOUS
 62
    4
 10
1717.2281230000001
 20
-1077.12906
 11
1717.5421229999999
 21
-1077.10106
  0
LINE
  8
_0-3_躯体と製品
  6
CONTINUOUS
 62
    4
 10
1716.751123
 20
-1077.2280599999999
 11
1717.2281230000001
 21
-1077.12906
  0
LINE
  8
_0-3_躯体と製品
  6
CONTINUOUS
 62
    4
 10
1716.301123
 20
-1077.3630599999999
 11
1716.751123
 21
-1077.2280599999999
  0
LINE
  8
_0-3_躯体と製品
  6
CONTINUOUS
 62
    4
 10
1716.0231229999999
 20
-1077.4810600000001
 11
1716.301123
 21
-1077.3630599999999
  0
LINE
  8
_0-3_躯体と製品
  6
CONTINUOUS
 62
    4
 10
1719.5741230000001
 20
-1077.12906
 11
1719.260123
 21
-1077.10106
  0
LINE
  8
_0-3_躯体と製品
  6
CONTINUOUS
 62
    4
 10
1720.051123
 20
-1077.2280599999999
 11
1719.5741230000001
 21
-1077.12906
  0
LINE
  8
_0-3_躯体と製品
  6
CONTINUOUS
 62
    4
 10
1720.501123
 20
-1077.3630599999999
 11
1720.051123
 21
-1077.2280599999999
  0
LINE
  8
_0-3_躯体と製品
  6
CONTINUOUS
 62
    4
 10
1720.779123
 20
-1077.4810600000001
 11
1720.501123
 21
-1077.3630599999999
  0
ARC
  8
_0-3_躯体と製品
  6
CONTINUOUS
 62
    4
 10
1718.9481229999999
 20
-1081.6050600000001
 40
4.819
 50
48.111754999517501
 51
96.517442000339386
  0
LINE
  8
_0-3_躯体と製品
  6
CONTINUOUS
 62
    4
 10
1722.166123
 20
-1078.0170599999999
 11
1718.4011230000001
 21
-1078.0170599999999
  0
LINE
  8
_0-3_躯体と製品
  6
CONTINUOUS
 62
    4
 10
1718.9511230000001
 20
-1077.6420599999999
 11
1718.4011230000001
 21
-1077.6420599999999
  0
LINE
  8
_0-3_躯体と製品
  6
CONTINUOUS
 62
    4
 10
1719.1511230000001
 20
-1077.4420600000001
 11
1719.1511230000001
 21
-1077.2000599999999
  0
ARC
  8
_0-3_躯体と製品
  6
CONTINUOUS
 62
    4
 10
1718.9511230000001
 20
-1077.4420600000001
 40
0.2
 50
269.99999700014604
 51
0.0000000000000568
  0
ARC
  8
_0-3_躯体と製品
  6
CONTINUOUS
 62
    4
 10
1719.251123
 20
-1077.2000599999999
 40
0.1
 50
84.805573999867903
 51
180.000005999709
  0
ARC
  8
_0-3_躯体と製品
  6
CONTINUOUS
 62
    4
 10
1720.857123
 20
-1077.2970600000001
 40
0.2
 50
247.02727499998102
 51
333.56312600015099
  0
LINE
  8
_0-3_躯体と製品
  6
CONTINUOUS
 62
    4
 10
1721.0361230000001
 20
-1077.38606
 11
1721.086123
 21
-1077.2860599999999
  0
LINE
  8
_0-3_躯体と製品
  6
CONTINUOUS
 62
    4
 10
1717.8511229999999
 20
-1077.6420599999999
 11
1718.4011230000001
 21
-1077.6420599999999
  0
LINE
  8
_0-3_躯体と製品
  6
CONTINUOUS
 62
    4
 10
1717.6511230000001
 20
-1077.4420600000001
 11
1717.6511230000001
 21
-1077.2000599999999
  0
LINE
  8
_0-3_躯体と製品
  6
CONTINUOUS
 62
    4
 10
1715.7661230000001
 20
-1077.38606
 11
1715.7161229999999
 21
-1077.2860599999999
  0
ARC
  8
_0-3_躯体と製品
  6
CONTINUOUS
 62
    4
 10
1717.8511229999999
 20
-1077.4420600000001
 40
0.2
 50
180.000005999774
 51
269.99999700014598
  0
ARC
  8
_0-3_躯体と製品
  6
CONTINUOUS
 62
    4
 10
1717.551123
 20
-1077.2000599999999
 40
0.1
 50
0
 51
95.194432000382804
  0
ARC
  8
_0-3_躯体と製品
  6
CONTINUOUS
 62
    4
 10
1715.945123
 20
-1077.2970600000001
 40
0.2
 50
206.43686799956399
 51
292.97271899961106
  0
LINE
  8
_0-3_躯体と製品
  6
CONTINUOUS
 62
    4
 10
1725.1591229999999
 20
-1078.3150599999999
 11
1726.357123
 21
-1078.3150599999999
  0
LINE
  8
_0-3_躯体と製品
  6
CONTINUOUS
 62
    4
 10
1722.4011230000001
 20
-1079.16806
 11
1722.4011230000001
 21
-1079.61706
  0
ARC
  8
_0-3_躯体と製品
  6
CONTINUOUS
 62
    4
 10
1722.2011230000001
 20
-1079.61706
 40
0.2
 50
269.99999700014604
 51
0.0000000000000568
  0
LINE
  8
_0-3_躯体と製品
  6
CONTINUOUS
 62
    4
 10
1722.2011230000001
 20
-1079.8170600000001
 11
1718.4011230000001
 21
-1079.8170600000001
  0
ARC
  8
_0-3_躯体と製品
  6
CONTINUOUS
 62
    4
 10
1724.6591229999999
 20
-1079.3170600000001
 40
0.5
 50
269.99999700012
 51
0
  0
ARC
  8
_0-3_躯体と製品
  6
CONTINUOUS
 62
    4
 10
1724.657123
 20
-1079.3150599999999
 40
1.7
 50
269.99999700012302
 51
0
  0
LINE
  8
_0-3_躯体と製品
  6
CONTINUOUS
 62
    4
 10
1726.357123
 20
-1078.3150599999999
 11
1726.357123
 21
-1079.3150599999999
  0
LINE
  8
_0-3_躯体と製品
  6
CONTINUOUS
 62
    4
 10
1722.166123
 20
-1078.0170599999999
 11
1722.4011230000001
 21
-1079.16806
  0
LINE
  8
_0-3_躯体と製品
  6
CONTINUOUS
 62
    4
 10
1725.1591229999999
 20
-1078.3150599999999
 11
1725.1591229999999
 21
-1079.3170600000001
  0
ARC
  8
_0-3_躯体と製品
  6
CONTINUOUS
 62
    4
 10
1709.6611230000001
 20
-1054.2110600000001
 40
2.198
 50
0
 51
90.000002999881303
  0
ARC
  8
_0-3_躯体と製品
  6
CONTINUOUS
 62
    4
 10
1709.6611230000001
 20
-1054.2110600000001
 40
1
 50
0
 51
90.000002999880479
  0
LINE
  8
_0-5_中心線
  6
CENTER1_17
 62
    7
 10
1394.357123
 20
-1041.2890600000001
 11
1394.357123
 21
-1093.3830599999999
  0
LINE
  8
_0-3_躯体と製品
  6
CONTINUOUS
 62
    4
 10
1379.0551230000001
 20
-1053.21306
 11
1409.6611230000001
 21
-1053.21306
  0
LINE
  8
_0-3_躯体と製品
  6
CONTINUOUS
 62
    4
 10
1340.2462029999999
 20
-1052.0150599999999
 11
1409.6611230000001
 21
-1052.0150599999999
  0
LINE
  8
_0-3_躯体と製品
  6
CONTINUOUS
 62
    4
 10
1428.357123
 20
-1083.01306
 11
1428.357123
 21
-1076.3150599999999
  0
LINE
  8
_0-3_躯体と製品
  6
CONTINUOUS
 62
    4
 10
1428.357123
 20
-1076.3150599999999
 11
1423.357123
 21
-1076.3150599999999
  0
LINE
  8
_0-3_躯体と製品
  6
CONTINUOUS
 62
    4
 10
1423.357123
 20
-1076.3150599999999
 11
1423.357123
 21
-1078.3150599999999
  0
LINE
  8
_0-3_躯体と製品
  6
CONTINUOUS
 62
    4
 10
1423.357123
 20
-1078.3150599999999
 11
1426.357123
 21
-1078.3150599999999
  0
LINE
  8
_0-3_躯体と製品
  6
CONTINUOUS
 62
    4
 10
1426.357123
 20
-1078.3150599999999
 11
1426.357123
 21
-1081.0150599999999
  0
LINE
  8
_0-3_躯体と製品
  6
CONTINUOUS
 62
    4
 10
1426.357123
 20
-1081.0150599999999
 11
1362.357123
 21
-1081.0150599999999
  0
LINE
  8
_0-3_躯体と製品
  6
CONTINUOUS
 62
    4
 10
1362.357123
 20
-1081.0150599999999
 11
1362.357123
 21
-1078.3150599999999
  0
LINE
  8
_0-3_躯体と製品
  6
CONTINUOUS
 62
    4
 10
1362.357123
 20
-1078.3150599999999
 11
1365.357123
 21
-1078.3150599999999
  0
LINE
  8
_0-3_躯体と製品
  6
CONTINUOUS
 62
    4
 10
1365.357123
 20
-1078.3150599999999
 11
1365.357123
 21
-1076.3150599999999
  0
LINE
  8
_0-3_躯体と製品
  6
CONTINUOUS
 62
    4
 10
1365.357123
 20
-1076.3150599999999
 11
1360.357123
 21
-1076.3150599999999
  0
LINE
  8
_0-3_躯体と製品
  6
CONTINUOUS
 62
    4
 10
1360.357123
 20
-1076.3150599999999
 11
1360.357123
 21
-1083.0150599999999
  0
LINE
  8
_0-3_躯体と製品
  6
CONTINUOUS
 62
    4
 10
1360.357123
 20
-1083.0150599999999
 11
1428.357123
 21
-1083.0150599999999
  0
LINE
  8
_0-5_中心線
  6
CENTER1_17
 62
    7
 10
1370.3151230000001
 20
-1099.5360599999999
 11
1370.3151230000001
 21
-1074.2790600000001
  0
LINE
  8
_0-3_躯体と製品
  6
CONTINUOUS
 62
    4
 10
1375.857123
 20
-1079.8170600000001
 11
1364.0551230000001
 21
-1079.8170600000001
  0
LINE
  8
_0-3_躯体と製品
  6
CONTINUOUS
 62
    4
 10
1375.857123
 20
-1081.0150599999999
 11
1364.057123
 21
-1081.0150599999999
  0
LINE
  8
_0-3_躯体と製品
  6
CONTINUOUS
 62
    4
 10
1363.5551230000001
 20
-1078.3150599999999
 11
1362.357123
 21
-1078.3150599999999
  0
ARC
  8
_0-3_躯体と製品
  6
CONTINUOUS
 62
    4
 10
1364.0551230000001
 20
-1079.3170600000001
 40
0.5
 50
180.00000599976096
 51
269.99999700012
  0
ARC
  8
_0-3_躯体と製品
  6
CONTINUOUS
 62
    4
 10
1364.057123
 20
-1079.3150599999999
 40
1.7
 50
180.00000599976201
 51
269.99999700012302
  0
LINE
  8
_0-3_躯体と製品
  6
CONTINUOUS
 62
    4
 10
1363.5551230000001
 20
-1078.3150599999999
 11
1363.5551230000001
 21
-1079.3170600000001
  0
LINE
  8
_0-3_躯体と製品
  6
CONTINUOUS
 62
    4
 10
1362.357123
 20
-1078.3150599999999
 11
1362.357123
 21
-1079.3150599999999
  0
LINE
  8
_0-3_躯体と製品
  6
CONTINUOUS
 62
    4
 10
1378.0551230000001
 20
-1054.2110600000001
 11
1378.0551230000001
 21
-1078.8170600000001
  0
LINE
  8
_0-3_躯体と製品
  6
CONTINUOUS
 62
    4
 10
1376.857123
 20
-1054.2110600000001
 11
1376.857123
 21
-1078.8170600000001
  0
ARC
  8
_0-3_躯体と製品
  6
CONTINUOUS
 62
    4
 10
1370.865123
 20
-1077.4420600000001
 40
0.2
 50
269.99999700014604
 51
0.0000000000000568
  0
ARC
  8
_0-3_躯体と製品
  6
CONTINUOUS
 62
    4
 10
1370.8621230000001
 20
-1081.6050600000001
 40
4.819
 50
48.111754999517501
 51
96.517442000339386
  0
LINE
  8
_0-3_躯体と製品
  6
CONTINUOUS
 62
    4
 10
1374.080123
 20
-1078.0170599999999
 11
1370.3151230000001
 21
-1078.0170599999999
  0
LINE
  8
_0-3_躯体と製品
  6
CONTINUOUS
 62
    4
 10
1369.1421230000001
 20
-1077.12906
 11
1369.4561229999999
 21
-1077.10106
  0
LINE
  8
_0-3_躯体と製品
  6
CONTINUOUS
 62
    4
 10
1368.665123
 20
-1077.2280599999999
 11
1369.1421230000001
 21
-1077.12906
  0
LINE
  8
_0-3_躯体と製品
  6
CONTINUOUS
 62
    4
 10
1368.2151229999999
 20
-1077.3630599999999
 11
1368.665123
 21
-1077.2280599999999
  0
LINE
  8
_0-3_躯体と製品
  6
CONTINUOUS
 62
    4
 10
1367.9371229999999
 20
-1077.4810600000001
 11
1368.2151229999999
 21
-1077.3630599999999
  0
LINE
  8
_0-3_躯体と製品
  6
CONTINUOUS
 62
    4
 10
1367.6801230000001
 20
-1077.38606
 11
1367.6301229999999
 21
-1077.2860599999999
  0
ARC
  8
_0-3_躯体と製品
  6
CONTINUOUS
 62
    4
 10
1369.7651229999999
 20
-1077.4420600000001
 40
0.2
 50
180.000005999774
 51
269.99999700014598
  0
ARC
  8
_0-3_躯体と製品
  6
CONTINUOUS
 62
    4
 10
1369.4651229999999
 20
-1077.2000599999999
 40
0.1
 50
0
 51
95.194432000382804
  0
ARC
  8
_0-3_躯体と製品
  6
CONTINUOUS
 62
    4
 10
1367.859123
 20
-1077.2970600000001
 40
0.2
 50
206.43686799956399
 51
292.97271899961106
  0
ARC
  8
_0-3_躯体と製品
  6
CONTINUOUS
 62
    4
 10
1369.7681230000001
 20
-1081.6050600000001
 40
4.819
 50
83.482563000374086
 51
131.888251000216
  0
LINE
  8
_0-3_躯体と製品
  6
CONTINUOUS
 62
    4
 10
1366.550123
 20
-1078.0170599999999
 11
1370.3151230000001
 21
-1078.0170599999999
  0
LINE
  8
_0-3_躯体と製品
  6
CONTINUOUS
 62
    4
 10
1369.7651229999999
 20
-1077.6420599999999
 11
1370.3151230000001
 21
-1077.6420599999999
  0
LINE
  8
_0-3_躯体と製品
  6
CONTINUOUS
 62
    4
 10
1369.5651230000001
 20
-1077.4420600000001
 11
1369.5651230000001
 21
-1077.2000599999999
  0
LINE
  8
_0-3_躯体と製品
  6
CONTINUOUS
 62
    4
 10
1370.865123
 20
-1077.6420599999999
 11
1370.3151230000001
 21
-1077.6420599999999
  0
LINE
  8
_0-3_躯体と製品
  6
CONTINUOUS
 62
    4
 10
1371.4881230000001
 20
-1077.12906
 11
1371.174123
 21
-1077.10106
  0
LINE
  8
_0-3_躯体と製品
  6
CONTINUOUS
 62
    4
 10
1371.9651229999999
 20
-1077.2280599999999
 11
1371.4881230000001
 21
-1077.12906
  0
LINE
  8
_0-3_躯体と製品
  6
CONTINUOUS
 62
    4
 10
1372.415123
 20
-1077.3630599999999
 11
1371.9651229999999
 21
-1077.2280599999999
  0
LINE
  8
_0-3_躯体と製品
  6
CONTINUOUS
 62
    4
 10
1372.693123
 20
-1077.4810600000001
 11
1372.415123
 21
-1077.3630599999999
  0
LINE
  8
_0-3_躯体と製品
  6
CONTINUOUS
 62
    4
 10
1371.0651230000001
 20
-1077.4420600000001
 11
1371.0651230000001
 21
-1077.2000599999999
  0
ARC
  8
_0-3_躯体と製品
  6
CONTINUOUS
 62
    4
 10
1371.165123
 20
-1077.2000599999999
 40
0.1
 50
84.805573999867903
 51
180.000005999709
  0
ARC
  8
_0-3_躯体と製品
  6
CONTINUOUS
 62
    4
 10
1372.771123
 20
-1077.2970600000001
 40
0.2
 50
247.02727499998102
 51
333.56312600015099
  0
LINE
  8
_0-3_躯体と製品
  6
CONTINUOUS
 62
    4
 10
1372.9501230000001
 20
-1077.38606
 11
1373.000123
 21
-1077.2860599999999
  0
LINE
  8
_0-3_躯体と製品
  6
CONTINUOUS
 62
    4
 10
1374.115123
 20
-1079.8170600000001
 11
1370.3151230000001
 21
-1079.8170600000001
  0
ARC
  8
_0-3_躯体と製品
  6
CONTINUOUS
 62
    4
 10
1366.5151229999999
 20
-1079.61706
 40
0.2
 50
180.000005999774
 51
269.99999700014598
  0
LINE
  8
_0-3_躯体と製品
  6
CONTINUOUS
 62
    4
 10
1366.3151230000001
 20
-1079.16806
 11
1366.3151230000001
 21
-1079.61706
  0
LINE
  8
_0-3_躯体と製品
  6
CONTINUOUS
 62
    4
 10
1366.5151229999999
 20
-1079.8170600000001
 11
1370.3151230000001
 21
-1079.8170600000001
  0
ARC
  8
_0-3_躯体と製品
  6
CONTINUOUS
 62
    4
 10
1374.115123
 20
-1079.61706
 40
0.2
 50
269.99999700014604
 51
0.0000000000000568
  0
LINE
  8
_0-3_躯体と製品
  6
CONTINUOUS
 62
    4
 10
1374.3151230000001
 20
-1079.16806
 11
1374.3151230000001
 21
-1079.61706
  0
LINE
  8
_0-3_躯体と製品
  6
CONTINUOUS
 62
    4
 10
1366.550123
 20
-1078.0170599999999
 11
1366.3151230000001
 21
-1079.16806
  0
LINE
  8
_0-3_躯体と製品
  6
CONTINUOUS
 62
    4
 10
1374.080123
 20
-1078.0170599999999
 11
1374.3151230000001
 21
-1079.16806
  0
ARC
  8
_0-3_躯体と製品
  6
CONTINUOUS
 62
    4
 10
1375.857123
 20
-1078.8170600000001
 40
2.198
 50
269.99999700011898
 51
0
  0
ARC
  8
_0-3_躯体と製品
  6
CONTINUOUS
 62
    4
 10
1375.857123
 20
-1078.8170600000001
 40
1
 50
269.99999700012
 51
0
  0
ARC
  8
_0-3_躯体と製品
  6
CONTINUOUS
 62
    4
 10
1379.0551230000001
 20
-1054.2110600000001
 40
2.198
 50
90.000002999881303
 51
180.000005999763
  0
ARC
  8
_0-3_躯体と製品
  6
CONTINUOUS
 62
    4
 10
1379.0551230000001
 20
-1054.2110600000001
 40
1
 50
90.000002999880479
 51
180.00000599976096
  0
LINE
  8
_0-5_中心線
  6
CENTER1_17
 62
    7
 10
1418.4011230000001
 20
-1099.5360599999999
 11
1418.4011230000001
 21
-1074.2790600000001
  0
LINE
  8
_0-3_躯体と製品
  6
CONTINUOUS
 62
    4
 10
1411.857123
 20
-1054.2110600000001
 11
1411.857123
 21
-1078.8170600000001
  0
LINE
  8
_0-3_躯体と製品
  6
CONTINUOUS
 62
    4
 10
1410.6591229999999
 20
-1054.2110600000001
 11
1410.6591229999999
 21
-1078.8170600000001
  0
ARC
  8
_0-3_躯体と製品
  6
CONTINUOUS
 62
    4
 10
1417.8541230000001
 20
-1081.6050600000001
 40
4.819
 50
83.482563000374086
 51
131.888251000216
  0
LINE
  8
_0-3_躯体と製品
  6
CONTINUOUS
 62
    4
 10
1414.636123
 20
-1078.0170599999999
 11
1418.4011230000001
 21
-1078.0170599999999
  0
LINE
  8
_0-3_躯体と製品
  6
CONTINUOUS
 62
    4
 10
1414.6011229999999
 20
-1079.8170600000001
 11
1418.4011230000001
 21
-1079.8170600000001
  0
LINE
  8
_0-3_躯体と製品
  6
CONTINUOUS
 62
    4
 10
1424.657123
 20
-1081.0150599999999
 11
1412.857123
 21
-1081.0150599999999
  0
LINE
  8
_0-3_躯体と製品
  6
CONTINUOUS
 62
    4
 10
1424.6591229999999
 20
-1079.8170600000001
 11
1412.857123
 21
-1079.8170600000001
  0
ARC
  8
_0-3_躯体と製品
  6
CONTINUOUS
 62
    4
 10
1414.6011229999999
 20
-1079.61706
 40
0.2
 50
180.000005999774
 51
269.99999700014598
  0
LINE
  8
_0-3_躯体と製品
  6
CONTINUOUS
 62
    4
 10
1414.4011230000001
 20
-1079.16806
 11
1414.4011230000001
 21
-1079.61706
  0
LINE
  8
_0-3_躯体と製品
  6
CONTINUOUS
 62
    4
 10
1414.636123
 20
-1078.0170599999999
 11
1414.4011230000001
 21
-1079.16806
  0
ARC
  8
_0-3_躯体と製品
  6
CONTINUOUS
 62
    4
 10
1412.857123
 20
-1078.8170600000001
 40
2.198
 50
180.000005999763
 51
269.99999700011898
  0
ARC
  8
_0-3_躯体と製品
  6
CONTINUOUS
 62
    4
 10
1412.857123
 20
-1078.8170600000001
 40
1
 50
180.00000599976096
 51
269.99999700012
  0
LINE
  8
_0-3_躯体と製品
  6
CONTINUOUS
 62
    4
 10
1417.2281230000001
 20
-1077.12906
 11
1417.5421229999999
 21
-1077.10106
  0
LINE
  8
_0-3_躯体と製品
  6
CONTINUOUS
 62
    4
 10
1416.751123
 20
-1077.2280599999999
 11
1417.2281230000001
 21
-1077.12906
  0
LINE
  8
_0-3_躯体と製品
  6
CONTINUOUS
 62
    4
 10
1416.301123
 20
-1077.3630599999999
 11
1416.751123
 21
-1077.2280599999999
  0
LINE
  8
_0-3_躯体と製品
  6
CONTINUOUS
 62
    4
 10
1416.0231229999999
 20
-1077.4810600000001
 11
1416.301123
 21
-1077.3630599999999
  0
LINE
  8
_0-3_躯体と製品
  6
CONTINUOUS
 62
    4
 10
1419.5741230000001
 20
-1077.12906
 11
1419.260123
 21
-1077.10106
  0
LINE
  8
_0-3_躯体と製品
  6
CONTINUOUS
 62
    4
 10
1420.051123
 20
-1077.2280599999999
 11
1419.5741230000001
 21
-1077.12906
  0
LINE
  8
_0-3_躯体と製品
  6
CONTINUOUS
 62
    4
 10
1420.501123
 20
-1077.3630599999999
 11
1420.051123
 21
-1077.2280599999999
  0
LINE
  8
_0-3_躯体と製品
  6
CONTINUOUS
 62
    4
 10
1420.779123
 20
-1077.4810600000001
 11
1420.501123
 21
-1077.3630599999999
  0
ARC
  8
_0-3_躯体と製品
  6
CONTINUOUS
 62
    4
 10
1418.9481229999999
 20
-1081.6050600000001
 40
4.819
 50
48.111754999517501
 51
96.517442000339386
  0
LINE
  8
_0-3_躯体と製品
  6
CONTINUOUS
 62
    4
 10
1422.166123
 20
-1078.0170599999999
 11
1418.4011230000001
 21
-1078.0170599999999
  0
LINE
  8
_0-3_躯体と製品
  6
CONTINUOUS
 62
    4
 10
1418.9511230000001
 20
-1077.6420599999999
 11
1418.4011230000001
 21
-1077.6420599999999
  0
LINE
  8
_0-3_躯体と製品
  6
CONTINUOUS
 62
    4
 10
1419.1511230000001
 20
-1077.4420600000001
 11
1419.1511230000001
 21
-1077.2000599999999
  0
ARC
  8
_0-3_躯体と製品
  6
CONTINUOUS
 62
    4
 10
1418.9511230000001
 20
-1077.4420600000001
 40
0.2
 50
269.99999700014604
 51
0.0000000000000568
  0
ARC
  8
_0-3_躯体と製品
  6
CONTINUOUS
 62
    4
 10
1419.251123
 20
-1077.2000599999999
 40
0.1
 50
84.805573999867903
 51
180.000005999709
  0
ARC
  8
_0-3_躯体と製品
  6
CONTINUOUS
 62
    4
 10
1420.857123
 20
-1077.2970600000001
 40
0.2
 50
247.02727499998102
 51
333.56312600015099
  0
LINE
  8
_0-3_躯体と製品
  6
CONTINUOUS
 62
    4
 10
1421.0361230000001
 20
-1077.38606
 11
1421.086123
 21
-1077.2860599999999
  0
LINE
  8
_0-3_躯体と製品
  6
CONTINUOUS
 62
    4
 10
1417.8511229999999
 20
-1077.6420599999999
 11
1418.4011230000001
 21
-1077.6420599999999
  0
LINE
  8
_0-3_躯体と製品
  6
CONTINUOUS
 62
    4
 10
1417.6511230000001
 20
-1077.4420600000001
 11
1417.6511230000001
 21
-1077.2000599999999
  0
LINE
  8
_0-3_躯体と製品
  6
CONTINUOUS
 62
    4
 10
1415.7661230000001
 20
-1077.38606
 11
1415.7161229999999
 21
-1077.2860599999999
  0
ARC
  8
_0-3_躯体と製品
  6
CONTINUOUS
 62
    4
 10
1417.8511229999999
 20
-1077.4420600000001
 40
0.2
 50
180.000005999774
 51
269.99999700014598
  0
ARC
  8
_0-3_躯体と製品
  6
CONTINUOUS
 62
    4
 10
1417.551123
 20
-1077.2000599999999
 40
0.1
 50
0
 51
95.194432000382804
  0
ARC
  8
_0-3_躯体と製品
  6
CONTINUOUS
 62
    4
 10
1415.945123
 20
-1077.2970600000001
 40
0.2
 50
206.43686799956399
 51
292.97271899961106
  0
LINE
  8
_0-3_躯体と製品
  6
CONTINUOUS
 62
    4
 10
1425.1591229999999
 20
-1078.3150599999999
 11
1426.357123
 21
-1078.3150599999999
  0
LINE
  8
_0-3_躯体と製品
  6
CONTINUOUS
 62
    4
 10
1422.4011230000001
 20
-1079.16806
 11
1422.4011230000001
 21
-1079.61706
  0
ARC
  8
_0-3_躯体と製品
  6
CONTINUOUS
 62
    4
 10
1422.2011230000001
 20
-1079.61706
 40
0.2
 50
269.99999700014604
 51
0.0000000000000568
  0
LINE
  8
_0-3_躯体と製品
  6
CONTINUOUS
 62
    4
 10
1422.2011230000001
 20
-1079.8170600000001
 11
1418.4011230000001
 21
-1079.8170600000001
  0
ARC
  8
_0-3_躯体と製品
  6
CONTINUOUS
 62
    4
 10
1424.6591229999999
 20
-1079.3170600000001
 40
0.5
 50
269.99999700012
 51
0
  0
ARC
  8
_0-3_躯体と製品
  6
CONTINUOUS
 62
    4
 10
1424.657123
 20
-1079.3150599999999
 40
1.7
 50
269.99999700012302
 51
0
  0
LINE
  8
_0-3_躯体と製品
  6
CONTINUOUS
 62
    4
 10
1426.357123
 20
-1078.3150599999999
 11
1426.357123
 21
-1079.3150599999999
  0
LINE
  8
_0-3_躯体と製品
  6
CONTINUOUS
 62
    4
 10
1422.166123
 20
-1078.0170599999999
 11
1422.4011230000001
 21
-1079.16806
  0
LINE
  8
_0-3_躯体と製品
  6
CONTINUOUS
 62
    4
 10
1425.1591229999999
 20
-1078.3150599999999
 11
1425.1591229999999
 21
-1079.3170600000001
  0
ARC
  8
_0-3_躯体と製品
  6
CONTINUOUS
 62
    4
 10
1409.6611230000001
 20
-1054.2110600000001
 40
2.198
 50
0
 51
90.000002999881303
  0
ARC
  8
_0-3_躯体と製品
  6
CONTINUOUS
 62
    4
 10
1409.6611230000001
 20
-1054.2110600000001
 40
1
 50
0
 51
90.000002999880479
  0
LINE
  8
_0-3_躯体と製品
  6
CONTINUOUS
 62
    4
 10
1519.357123
 20
-1134.015052
 11
1569.357123
 21
-1134.015052
  0
LINE
  8
_0-3_躯体と製品
  6
CONTINUOUS
 62
    4
 10
1519.857123
 20
-1131.715052
 11
1568.857123
 21
-1131.715052
  0
LINE
  8
_0-3_躯体と製品
  6
CONTINUOUS
 62
    4
 10
1504.357123
 20
-1114.015052
 11
1584.357123
 21
-1114.015052
  0
LINE
  8
_0-3_躯体と製品
  6
CONTINUOUS
 62
    4
 10
1504.357123
 20
-1115.515052
 11
1584.357123
 21
-1115.515052
  0
LINE
  8
_0-3_躯体と製品
  6
CONTINUOUS
 62
    4
 10
1504.357123
 20
-1115.515052
 11
1504.357123
 21
-1114.015052
  0
ARC
  8
_0-3_躯体と製品
  6
CONTINUOUS
 62
    4
 10
1519.857123
 20
-1132.215052
 40
0.5
 50
90.000002999880479
 51
180.00000599976096
  0
LINE
  8
_0-3_躯体と製品
  6
CONTINUOUS
 62
    4
 10
1519.357123
 20
-1132.215052
 11
1519.357123
 21
-1134.015052
  0
ARC
  8
_0-3_躯体と製品
  6
CONTINUOUS
 62
    4
 10
1519.857123
 20
-1131.215052
 40
0.5
 50
269.99999700012
 51
0
  0
LINE
  8
_0-3_躯体と製品
  6
CONTINUOUS
 62
    4
 10
1520.357123
 20
-1115.515052
 11
1520.357123
 21
-1131.215052
  0
LINE
  8
_0-3_躯体と製品
  6
CONTINUOUS
 62
    4
 10
1544.357123
 20
-1136.515052
 11
1546.857123
 21
-1134.015052
  0
LINE
  8
_0-3_躯体と製品
  6
CONTINUOUS
 62
    4
 10
1541.857123
 20
-1136.515052
 11
1544.357123
 21
-1134.015052
  0
LINE
  8
_0-3_躯体と製品
  6
CONTINUOUS
 62
    4
 10
1554.357123
 20
-1142.9800519999999
 11
1554.357123
 21
-1134.015052
  0
LINE
  8
_0-3_躯体と製品
  6
CONTINUOUS
 62
    4
 10
1534.357123
 20
-1142.9800519999999
 11
1534.357123
 21
-1134.015052
  0
LINE
  8
_0-3_躯体と製品
  6
CONTINUOUS
 62
    4
 10
1554.357123
 20
-1136.515052
 11
1534.357123
 21
-1136.515052
  0
LINE
  8
_0-3_躯体と製品
  6
CONTINUOUS
 62
    4
 10
1544.357123
 20
-1136.515052
 11
1551.857123
 21
-1136.515052
  0
ARC
  8
_0-3_躯体と製品
  6
CONTINUOUS
 62
    4
 10
1544.357123
 20
-1135.6050519999999
 40
8.9100000000000001
 50
235.86405600032899
 51
304.13593800000899
  0
LINE
  8
_0-3_躯体と製品
  6
CONTINUOUS
 62
    4
 10
1544.357123
 20
-1144.515052
 11
1551.8241230000001
 21
-1144.515052
  0
LINE
  8
_0-3_躯体と製品
  6
CONTINUOUS
 62
    4
 10
1544.557123
 20
-1136.515052
 11
1536.857123
 21
-1136.515052
  0
LINE
  8
_0-3_躯体と製品
  6
CONTINUOUS
 62
    4
 10
1544.357123
 20
-1144.515052
 11
1536.6901230000001
 21
-1144.515052
  0
ARC
  8
_0-3_躯体と製品
  6
CONTINUOUS
 62
    4
 10
1536.857123
 20
-1141.7200519999999
 40
2.7999999999999998
 50
206.748099000065
 51
333.25189499999601
  0
LINE
  8
_0-3_躯体と製品
  6
CONTINUOUS
 62
    4
 10
1539.357123
 20
-1142.9800519999999
 11
1539.357123
 21
-1136.515052
  0
ARC
  8
_0-3_躯体と製品
  6
CONTINUOUS
 62
    4
 10
1551.857123
 20
-1141.7200519999999
 40
2.7999999999999998
 50
206.748099000065
 51
333.25189499999601
  0
LINE
  8
_0-3_躯体と製品
  6
CONTINUOUS
 62
    4
 10
1549.357123
 20
-1142.9800519999999
 11
1549.357123
 21
-1136.515052
  0
LINE
  8
_0-3_躯体と製品
  6
CONTINUOUS
 62
    4
 10
1554.357123
 20
-1134.015052
 11
1534.357123
 21
-1134.015052
  0
ARC
  8
_0-3_躯体と製品
  6
CONTINUOUS
 62
    4
 10
1568.857123
 20
-1132.215052
 40
0.5
 50
0
 51
90.000002999880479
  0
LINE
  8
_0-3_躯体と製品
  6
CONTINUOUS
 62
    4
 10
1569.357123
 20
-1132.215052
 11
1569.357123
 21
-1134.015052
  0
ARC
  8
_0-3_躯体と製品
  6
CONTINUOUS
 62
    4
 10
1568.857123
 20
-1131.215052
 40
0.5
 50
180.00000599976096
 51
269.99999700012
  0
LINE
  8
_0-3_躯体と製品
  6
CONTINUOUS
 62
    4
 10
1568.357123
 20
-1115.515052
 11
1568.357123
 21
-1131.215052
  0
LINE
  8
_0-3_躯体と製品
  6
CONTINUOUS
 62
    4
 10
1584.357123
 20
-1115.515052
 11
1584.357123
 21
-1114.015052
  0
LINE
  8
_0-3_躯体と製品
  6
CONTINUOUS
 62
    4
 10
1748.468044
 20
-1052.0150590000001
 11
1380.047059
 21
-1052.0150599999999
  0
LINE
  8
_0-3_躯体と製品
  6
CONTINUOUS
 62
    4
 10
1340.2462029999999
 20
-1019.0150599999999
 11
1748.468044
 21
-1019.0150599999999
  0
LINE
  8
_0-3_躯体と製品
  6
CONTINUOUS
 62
    3
 10
1340.2462029999999
 20
-1042.0150599999999
 11
1748.468044
 21
-1042.0150599999999
  0
LINE
  8
_0-3_躯体と製品
  6
CONTINUOUS
 62
    3
 10
1340.2462029999999
 20
-1047.0150599999999
 11
1748.468044
 21
-1047.0150599999999
  0
LINE
  8
_0-3_躯体と製品
  6
CONTINUOUS
 62
    4
 10
1340.2462029999999
 20
-1037.0150599999999
 11
1748.468044
 21
-1037.0150599999999
  0
LINE
  8
_0-3_躯体と製品
  6
CONTINUOUS
 62
    3
 10
1427.2229500000001
 20
-1173.015052
 11
1402.4311600000001
 21
-1197.806842
  0
LINE
  8
_0-3_躯体と製品
  6
CONTINUOUS
 62
    3
 10
1455.511084
 20
-1173.015052
 11
1430.719294
 21
-1197.806842
  0
LINE
  8
_0-3_躯体と製品
  6
CONTINUOUS
 62
    3
 10
1441.3670179999999
 20
-1173.015052
 11
1416.5752259999999
 21
-1197.806842
  0
LINE
  8
_0-4_文字-記号
  6
CONTINUOUS
 62
    7
 10
1129.3838040000001
 20
-1019.015052
 11
1148.1528860000001
 21
-986.50604799999996
  0
LINE
  8
_0-4_文字-記号
  6
CONTINUOUS
 62
    7
 10
1148.1528860000001
 20
-986.50604799999996
 11
1222.2171619999999
 21
-986.50604799999996
  0
TEXT
  8
_0-4_文字-記号
 62
    7
 10
1154.873206
 20
-985.548272
 40
6.2055999999999996
 41
1.1500000000000001
 50
0
  1
フローリング貼り
  0
LINE
  8
_0-4_文字-記号
  6
CONTINUOUS
 62
    7
 10
1150.0692839999999
 20
-1042.015052
 11
1173.468854
 21
-1001.485808
  0
LINE
  8
_0-4_文字-記号
  6
CONTINUOUS
 62
    7
 10
1173.468854
 20
-1001.485808
 11
1218.5118050000001
 21
-1001.485808
  0
TEXT
  8
_0-4_文字-記号
 62
    7
 10
1181.855278
 20
-1000.5280320000001
 40
6.2055999999999996
 41
1.1500000000000001
 50
0
  1
捨板貼り
  0
LINE
  8
_0-4_文字-記号
  6
CONTINUOUS
 62
    7
 10
1037.7287719999999
 20
-1081.015052
 11
1026.8854229999999
 21
-1099.796284
  0
LINE
  8
_0-4_文字-記号
  6
CONTINUOUS
 62
    7
 10
1026.8854229999999
 20
-1099.796284
 11
994.807052
 21
-1099.796284
  0
TEXT
  8
_0-4_文字-記号
 62
    7
 10
998.98745399999996
 20
-1098.2793549999999
 40
6.2055999999999996
 41
1.1500000000000001
 50
0
  1
根太鋼
  0
LINE
  8
_0-4_文字-記号
  6
CONTINUOUS
 62
    7
 10
1676.857123
 20
-1072.783494
 11
1656.452569
 21
-1064.2958269999999
  0
LINE
  8
_0-4_文字-記号
  6
CONTINUOUS
 62
    7
 10
1656.452569
 20
-1064.2958269999999
 11
1624.374198
 21
-1064.2958269999999
  0
TEXT
  8
_0-4_文字-記号
 62
    7
 10
1628.5545999999999
 20
-1062.778898
 40
6.2055999999999996
 41
1.1500000000000001
 50
0
  1
根太鋼
  0
TEXT
  8
_0-4_文字-記号
 62
    7
 10
1626.0488350000001
 20
-1125.665941
 40
6.2055999999999996
 41
1.1500000000000001
 50
0
  1
大引鋼
  0
LINE
  8
_0-4_文字-記号
  6
CONTINUOUS
 62
    7
 10
1611.281434
 20
-1112.0150599999999
 11
1621.868432
 21
-1127.182869
  0
LINE
  8
_0-4_文字-記号
  6
CONTINUOUS
 62
    7
 10
1621.868432
 20
-1127.182869
 11
1653.9468039999999
 21
-1127.182869
  0
TEXT
  8
_0-4_文字-記号
 62
    7
 10
1188.959241
 20
-1102.75749
 40
6.2055999999999996
 41
1.1500000000000001
 50
0
  1
大引鋼
  0
LINE
  8
_0-4_文字-記号
  6
CONTINUOUS
 62
    7
 10
1149.3838049999999
 20
-1097.515052
 11
1184.7788390000001
 21
-1104.2744190000001
  0
LINE
  8
_0-4_文字-記号
  6
CONTINUOUS
 62
    7
 10
1184.7788390000001
 20
-1104.2744190000001
 11
1216.8572099999999
 21
-1104.2744190000001
  0
TEXT
  8
_0-4_文字-記号
 62
    7
 10
1050.698404
 20
-1153.9335940000001
 40
6.3832000000000004
 41
1.1499999999999999
 50
0
  1
調整ボルト Ｍ１０
  0
LINE
  8
_0-4_文字-記号
  6
CONTINUOUS
 62
    7
 10
1049.5536910000001
 20
-1155.590179
 11
1119.438825
 21
-1155.590179
  0
LINE
  8
_0-4_文字-記号
  6
CONTINUOUS
 62
    7
 10
1119.438825
 20
-1155.590179
 11
1124.3838040000001
 21
-1164.1551340000001
  0
TEXT
  8
_0-4_文字-記号
 62
    7
 10
1465.6717229999999
 20
-1153.933595
 40
6.3832000000000004
 41
1.1499999999999999
 50
0
  1
調整ボルト Ｍ１０
  0
LINE
  8
_0-4_文字-記号
  6
CONTINUOUS
 62
    7
 10
1464.52701
 20
-1155.5901799999999
 11
1534.4121439999999
 21
-1155.5901799999999
  0
LINE
  8
_0-4_文字-記号
  6
CONTINUOUS
 62
    7
 10
1534.4121439999999
 20
-1155.5901799999999
 11
1539.357123
 21
-1164.155135
  0
ENDBLK
  0
ENDSEC
  0
SECTION
  2
ENTITIES
  0
INSERT
  2
-000-Viewport-1
  8
_0-0_
 10
-952.95593199999985
 20
1362.786347
 41
1
 42
1
 50
0
  0
ENDSEC
  0
EOF
