  0
SECTION
  2
HEADER
  9
$ACADVER
  1
AC1009
  9
$INSBASE
 10
0
 20
0
 30
0
  9
$EXTMIN
 10
0
 20
0
  9
$EXTMAX
 10
841
 20
594
  9
$LIMMIN
 10
0
 20
0
  9
$LIMMAX
 10
841
 20
594
  9
$LTSCALE
 40
1
  0
ENDSEC
  0
SECTION
  2
TABLES
  0
TABLE
  2
LTYPE
 70
     9
  0
LTYPE
  2
CONTINUOUS
 70
    64
  3
実線
 72
    65
 73
     0
 40
0.0
  0
LTYPE
  2
DASHED1
 70
    64
  3
--  --  --  --  --  --  --  --  
 72
    65
 73
     2
 40
2.5
 49
1.25
 49
-1.25
  0
LTYPE
  2
DASHED2
 70
    64
  3
----    ----    ----    ----    
 72
    65
 73
     2
 40
5.0
 49
2.5
 49
-2.5
  0
LTYPE
  2
DASHED3
 70
    64
  3
------  ------  ------  ------  
 72
    65
 73
     2
 40
5.0
 49
3.75
 49
-1.25
  0
LTYPE
  2
CENTER1
 70
    64
  3
----- - ----- - ----- - ----- - 
 72
    65
 73
     4
 40
10.0
 49
6.25
 49
-1.25
 49
1.25
 49
-1.25
  0
LTYPE
  2
CENTER2
 70
    64
  3
----------  --  ----------  --  
 72
    65
 73
     4
 40
20.0
 49
12.5
 49
-2.5
 49
2.5
 49
-2.5
  0
LTYPE
  2
PHANTOM1
 70
    64
  3
--- - - --- - - --- - - --- - - 
 72
    65
 73
     6
 40
10.0
 49
3.25
 49
-1.25
 49
1.25
 49
-1.25
 49
1.25
 49
-1.25
  0
LTYPE
  2
PHANTOM2
 70
    64
  3
--------  -  -  --------  -  -  
 72
    65
 73
     6
 40
20.0
 49
10.0
 49
-2.5
 49
1.25
 49
-2.5
 49
1.25
 49
-2.5
  0
LTYPE
  2
DOT
 70
    64
  3
-   -   -   -   -   -   -   -   
 72
    65
 73
     2
 40
2.5
 49
0.625
 49
-1.875
  0
LTYPE
  2
DUMMY
 70
    64
  3
ダミー
 72
    65
 73
     0
 40
0.0
  0
LTYPE
  2
RAND1
 70
    64
  3
ランダム線1
 72
    65
 73
     4
 40
10.0
 49
1.0
 49
-2.0
 49
3.0
 49
-4.0
  0
LTYPE
  2
RAND2
 70
    64
  3
ランダム線2
 72
    65
 73
     4
 40
14.0
 49
2.0
 49
-3.0
 49
4.0
 49
-5.0
  0
LTYPE
  2
RAND3
 70
    64
  3
ランダム線3
 72
    65
 73
     4
 40
18.0
 49
3.0
 49
-4.0
 49
5.0
 49
-6.0
  0
LTYPE
  2
RAND4
 70
    64
  3
ランダム線4
 72
    65
 73
     4
 40
22.0
 49
4.0
 49
-5.0
 49
6.0
 49
-7.0
  0
LTYPE
  2
RAND5
 70
    64
  3
ランダム線5
 72
    65
 73
     4
 40
26.0
 49
5.0
 49
-6.0
 49
7.0
 49
-8.0
  0
LTYPE
  2
LONG1
 70
    64
  3
----------  --  ----------  --  
 72
    65
 73
     4
 40
40.0
 49
32.5
 49
-2.5
 49
2.5
 49
-2.5
  0
LTYPE
  2
LONG2
 70
    64
  3
--------  -  -  --------  -  -  
 72
    65
 73
     6
 40
40.0
 49
30.0
 49
-2.5
 49
1.25
 49
-2.5
 49
1.25
 49
-2.5
  0
LTYPE
  2
LONG3
 70
    64
  3
+++++++++++++++..+++++++++++++++
 72
    65
 73
     2
 40
40.0
 49
37.5
 49
-2.5
  0
LTYPE
  2
LONG4
 70
    64
  3
+++++++++++++++..+++++++++++++++
 72
    65
 73
     2
 40
80.0
 49
75.0
 49
-5.0
  0
LTYPE
  2
LONG5
 70
    64
  3
----------  --  ----------  --  
 72
    65
 73
     4
 40
60.0
 49
37.5
 49
-7.5
 49
7.5
 49
-7.5
  0
LTYPE
  2
dashed
 70
   64
  3
-------   -------------   ------
 72
   65
 73
    2
 40
7.5
 49
6
 49
-1.5
  0
LTYPE
  2
dashed_spaced
 70
   64
  3
----        --------        ----
 72
   65
 73
    2
 40
12
 49
6
 49
-6
  0
LTYPE
  2
long_dashed_dotted
 70
   64
  3
------------- --- --------------
 72
   65
 73
    4
 40
15.25
 49
12
 49
-1.5
 49
0.25
 49
-1.5
  0
LTYPE
  2
long_dashed_double-dotted
 70
   64
  3
----------- --- --- ------------
 72
   65
 73
    6
 40
17
 49
12
 49
-1.5
 49
0.25
 49
-1.5
 49
0.25
 49
-1.5
  0
LTYPE
  2
long_dashed_triplicate-dotted
 70
   64
  3
--------- --- --- --- ----------
 72
   65
 73
    8
 40
18.75
 49
12
 49
-1.5
 49
0.25
 49
-1.5
 49
0.25
 49
-1.5
 49
0.25
 49
-1.5
  0
LTYPE
  2
dotted
 70
   64
  3
   -       -       -       -    
 72
   65
 73
    2
 40
1.75
 49
0.25
 49
-1.5
  0
LTYPE
  2
chain
 70
   64
  3
-------------- -- --------------
 72
   65
 73
    4
 40
18.5
 49
12
 49
-1.5
 49
3.5
 49
-1.5
  0
LTYPE
  2
chain_double_dash
 70
   64
  3
------------ -- -- -------------
 72
   65
 73
    6
 40
23.5
 49
12
 49
-1.5
 49
3.5
 49
-1.5
 49
3.5
 49
-1.5
  0
LTYPE
  2
dashed_dotted
 70
   64
  3
-----------     -     ----------
 72
   65
 73
    4
 40
9.25
 49
6
 49
-1.5
 49
0.25
 49
-1.5
  0
LTYPE
  2
double-dashed_dotted
 70
   64
  3
------   -----------   -   -----
 72
   65
 73
    6
 40
16.75
 49
6
 49
-1.5
 49
6
 49
-1.5
 49
0.25
 49
-1.5
  0
LTYPE
  2
dashed_double-dotted
 70
   64
  3
---------    -    -    ---------
 72
   65
 73
    6
 40
11
 49
6
 49
-1.5
 49
0.25
 49
-1.5
 49
0.25
 49
-1.5
  0
LTYPE
  2
double-dashed_double-dotted
 70
   64
  3
-----   ---------   -   -   ----
 72
   65
 73
    8
 40
18.5
 49
6
 49
-1.5
 49
6
 49
-1.5
 49
0.25
 49
-1.5
 49
0.25
 49
-1.5
  0
LTYPE
  2
dashed_triplicate-dotted
 70
   64
  3
-------    -    -    -    ------
 72
   65
 73
    8
 40
12.75
 49
6
 49
-1.5
 49
0.25
 49
-1.5
 49
0.25
 49
-1.5
 49
0.25
 49
-1.5
  0
LTYPE
  2
double-dashed_triplicate-dotted
 70
   64
  3
-----  ---------  -  -  -  -----
 72
   65
 73
   10
 40
20.25
 49
6
 49
-1.5
 49
6
 49
-1.5
 49
0.25
 49
-1.5
 49
0.25
 49
-1.5
 49
0.25
 49
-1.5
  0
LTYPE
  2
undefined
 70
   64
  3
--------------------------------
 72
   65
 73
    0
 40
0
  0
LTYPE
  2
CENTER1_17
 70
   64
  3
----------    ----    ----------
 72
   65
 73
    4
 40
30
 49
18.75
 49
-3.75
 49
3.75
 49
-3.75
  0
LTYPE
  2
_
 70
   64
  3
                                
 72
   65
 73
    0
 40
0
  0
LTYPE
  2
__19
 70
   64
  3
                                
 72
   65
 73
    0
 40
0
  0
LTYPE
  2
__20
 70
   64
  3
                                
 72
   65
 73
    0
 40
0
  0
LTYPE
  2
__21
 70
   64
  3
                                
 72
   65
 73
    0
 40
0
  0
LTYPE
  2
__22
 70
   64
  3
                                
 72
   65
 73
    0
 40
0
  0
LTYPE
  2
__23
 70
   64
  3
                                
 72
   65
 73
    0
 40
0
  0
LTYPE
  2
__24
 70
   64
  3
                                
 72
   65
 73
    0
 40
0
  0
LTYPE
  2
__25
 70
   64
  3
                                
 72
   65
 73
    0
 40
0
  0
LTYPE
  2
__26
 70
   64
  3
                                
 72
   65
 73
    0
 40
0
  0
LTYPE
  2
__27
 70
   64
  3
                                
 72
   65
 73
    0
 40
0
  0
LTYPE
  2
__28
 70
   64
  3
                                
 72
   65
 73
    0
 40
0
  0
LTYPE
  2
__29
 70
   64
  3
                                
 72
   65
 73
    0
 40
0
  0
LTYPE
  2
__30
 70
   64
  3
                                
 72
   65
 73
    0
 40
0
  0
LTYPE
  2
__31
 70
   64
  3
                                
 72
   65
 73
    0
 40
0
  0
LTYPE
  2
__32
 70
   64
  3
                                
 72
   65
 73
    0
 40
0
  0
ENDTAB
  0
TABLE
  2
STYLE
  5
3
100
AcDbSymbolTable
 70
     1
  0
STYLE
  5
10
100
AcDbSymbolTableRecord
100
AcDbTextStyleTableRecord
  2
STANDARD
 70
     0
 40
0.0
 41
1.0
 50
0.0
 71
     0
 42
0.2
  3
txt
  4
bigfont.shx
  0
STYLE
  5
26
100
AcDbSymbolTableRecord
100
AcDbTextStyleTableRecord
  2
TATEGAKI
 70
    68
 40
0.0
 41
1.0
 50
0.0
 71
     0
 42
1.0
  3
txt
  4
bigfont.shx
  0
ENDTAB
  0
TABLE
  2
LAYER
 70
    6
  0
LAYER
  2
_0-1_0
 70
   64
 62
    7
  6
CONTINUOUS
  0
LAYER
  2
_0-2_寸法
 70
   64
 62
    7
  6
CONTINUOUS
  0
LAYER
  2
_0-3_躯体と製品
 70
   64
 62
    7
  6
CONTINUOUS
  0
LAYER
  2
_0-4_文字-記号
 70
   64
 62
    7
  6
CONTINUOUS
  0
LAYER
  2
_0-5_中心線
 70
   64
 62
    7
  6
CONTINUOUS
  0
LAYER
  2
ADD_LINE
 70
   64
 62
    7
  6
CONTINUOUS
  0
ENDTAB
  0
ENDSEC
  0
SECTION
  2
BLOCKS
  0
BLOCK
  2
-000-Viewport-1
 70
   64
 10
0
 20
0
 30
0
  0
TEXT
  8
_0-4_文字-記号
 62
    3
 10
2739.2666800000002
 20
-239.640592
 40
13
 41
1.1500000000000001
 50
0
  1
ｈ=70mm～155mm
  0
TEXT
  8
_0-4_文字-記号
 62
    3
 10
2367.1523820000002
 20
-216.184685
 40
13
 41
1.1499999999999999
 50
0
  1
■スリーベース９０１-Ｐ型（軽体育室・幼稚園等 低床用：プレートタイプ）
  0
LINE
  8
_0-3_躯体と製品
  6
CONTINUOUS
 62
    4
 10
2739.5216890000002
 20
-443.05407600000001
 11
2938.744964
 21
-443.05407600000001
  0
LINE
  8
_0-3_躯体と製品
  6
CONTINUOUS
 62
    4
 10
2373.558352
 20
-443.05407200000002
 11
2667.779356
 21
-443.05407600000001
  0
LINE
  8
_0-1_0
  6
CONTINUOUS
 62
    4
 10
2501.668854
 20
-377.35407600000002
 11
2539.668854
 21
-377.35407600000002
  0
LINE
  8
_0-1_0
  6
CONTINUOUS
 62
    4
 10
2539.668854
 20
-377.35407600000002
 11
2539.668854
 21
-384.05407600000001
  0
LINE
  8
_0-1_0
  6
CONTINUOUS
 62
    4
 10
2539.668854
 20
-384.05407600000001
 11
2501.668854
 21
-384.05407600000001
  0
LINE
  8
_0-1_0
  6
CONTINUOUS
 62
    4
 10
2501.668854
 20
-384.05407600000001
 11
2501.668854
 21
-377.35407600000002
  0
LINE
  8
_0-1_0
  6
CONTINUOUS
 62
    4
 10
2495.668854
 20
-404.05407600000001
 11
2545.668854
 21
-404.05407600000001
  0
LINE
  8
_0-1_0
  6
CONTINUOUS
 62
    4
 10
2496.168854
 20
-401.754076
 11
2545.168854
 21
-401.754076
  0
LINE
  8
_0-1_0
  6
CONTINUOUS
 62
    4
 10
2480.668854
 20
-384.05407600000001
 11
2560.668854
 21
-384.05407600000001
  0
LINE
  8
_0-1_0
  6
CONTINUOUS
 62
    4
 10
2480.668854
 20
-385.55407600000001
 11
2560.668854
 21
-385.55407600000001
  0
LINE
  8
_0-3_躯体と製品
  6
CONTINUOUS
 62
    4
 10
2501.668854
 20
-382.05407600000001
 11
2373.558352
 21
-382.05407600000001
  0
LINE
  8
_0-3_躯体と製品
  6
CONTINUOUS
 62
    3
 10
2501.668854
 20
-379.35407600000002
 11
2373.558352
 21
-379.35407600000002
  0
LINE
  8
_0-1_0
  6
CONTINUOUS
 62
    4
 10
2480.668854
 20
-385.55407600000001
 11
2480.668854
 21
-384.05407600000001
  0
ARC
  8
_0-1_0
  6
CONTINUOUS
 62
    4
 10
2496.168854
 20
-402.254076
 40
0.5
 50
90.000002999880479
 51
180.00000599976096
  0
LINE
  8
_0-1_0
  6
CONTINUOUS
 62
    4
 10
2495.668854
 20
-402.254076
 11
2495.668854
 21
-404.05407600000001
  0
ARC
  8
_0-1_0
  6
CONTINUOUS
 62
    4
 10
2496.168854
 20
-401.254076
 40
0.5
 50
269.99999700012
 51
0
  0
LINE
  8
_0-1_0
  6
CONTINUOUS
 62
    4
 10
2496.668854
 20
-385.55407600000001
 11
2496.668854
 21
-401.254076
  0
LINE
  8
_0-1_0
  6
CONTINUOUS
 62
    4
 10
2520.668854
 20
-406.55407600000001
 11
2523.168854
 21
-404.05407600000001
  0
LINE
  8
_0-1_0
  6
CONTINUOUS
 62
    4
 10
2518.168854
 20
-406.55407600000001
 11
2520.668854
 21
-404.05407600000001
  0
LINE
  8
_0-1_0
  6
CONTINUOUS
 62
    4
 10
2530.668854
 20
-413.01907599999998
 11
2530.668854
 21
-404.05407600000001
  0
LINE
  8
_0-1_0
  6
CONTINUOUS
 62
    4
 10
2510.668854
 20
-413.01907599999998
 11
2510.668854
 21
-404.05407600000001
  0
LINE
  8
_0-5_中心線
  6
CENTER1_17
 62
    7
 10
2520.668854
 20
-368.83399500000002
 11
2520.668854
 21
-467.845865
  0
LINE
  8
_0-3_躯体と製品
  6
CONTINUOUS
 62
    3
 10
2524.668854
 20
-414.55407600000001
 11
2524.668854
 21
-438.05407400000001
  0
LINE
  8
_0-3_躯体と製品
  6
CONTINUOUS
 62
    3
 10
2516.668854
 20
-414.55407600000001
 11
2516.668854
 21
-438.05407400000001
  0
LINE
  8
_0-1_0
  6
CONTINUOUS
 62
    4
 10
2515.668854
 20
-414.55407600000001
 11
2515.668854
 21
-438.05407400000001
  0
LINE
  8
_0-1_0
  6
CONTINUOUS
 62
    4
 10
2525.668854
 20
-414.55407600000001
 11
2525.668854
 21
-438.05407400000001
  0
LINE
  8
_0-1_0
  6
CONTINUOUS
 62
    4
 10
2530.668854
 20
-406.55407600000001
 11
2510.668854
 21
-406.55407600000001
  0
LINE
  8
_0-1_0
  6
CONTINUOUS
 62
    4
 10
2520.668854
 20
-406.55407600000001
 11
2528.168854
 21
-406.55407600000001
  0
ARC
  8
_0-1_0
  6
CONTINUOUS
 62
    4
 10
2520.668854
 20
-405.64407599999998
 40
8.9100000000000001
 50
235.864056000327
 51
304.13593800000803
  0
LINE
  8
_0-1_0
  6
CONTINUOUS
 62
    4
 10
2520.668854
 20
-414.55407600000001
 11
2528.1358540000001
 21
-414.55407600000001
  0
LINE
  8
_0-1_0
  6
CONTINUOUS
 62
    4
 10
2520.8688539999998
 20
-406.55407600000001
 11
2513.168854
 21
-406.55407600000001
  0
LINE
  8
_0-1_0
  6
CONTINUOUS
 62
    4
 10
2520.668854
 20
-414.55407600000001
 11
2513.0018540000001
 21
-414.55407600000001
  0
ARC
  8
_0-1_0
  6
CONTINUOUS
 62
    4
 10
2513.168854
 20
-411.75907599999999
 40
2.7999999999999998
 50
206.74809900005502
 51
333.25189499999306
  0
LINE
  8
_0-1_0
  6
CONTINUOUS
 62
    4
 10
2515.668854
 20
-413.01907599999998
 11
2515.668854
 21
-406.55407600000001
  0
ARC
  8
_0-1_0
  6
CONTINUOUS
 62
    4
 10
2528.168854
 20
-411.75907599999999
 40
2.7999999999999998
 50
206.74809900005502
 51
333.25189499999306
  0
LINE
  8
_0-1_0
  6
CONTINUOUS
 62
    4
 10
2525.668854
 20
-413.01907599999998
 11
2525.668854
 21
-406.55407600000001
  0
LINE
  8
_0-3_躯体と製品
  6
CONTINUOUS
 62
    4
 10
2667.779356
 20
-382.05407600000001
 11
2539.668854
 21
-382.05407600000001
  0
LINE
  8
_0-3_躯体と製品
  6
CONTINUOUS
 62
    3
 10
2539.668854
 20
-379.35407600000002
 11
2667.779356
 21
-379.35407600000002
  0
LINE
  8
_0-1_0
  6
CONTINUOUS
 62
    4
 10
2530.668854
 20
-404.05407600000001
 11
2510.668854
 21
-404.05407600000001
  0
ARC
  8
_0-1_0
  6
CONTINUOUS
 62
    4
 10
2545.168854
 20
-402.254076
 40
0.5
 50
0
 51
90.000002999880479
  0
LINE
  8
_0-1_0
  6
CONTINUOUS
 62
    4
 10
2545.668854
 20
-402.254076
 11
2545.668854
 21
-404.05407600000001
  0
ARC
  8
_0-1_0
  6
CONTINUOUS
 62
    4
 10
2545.168854
 20
-401.254076
 40
0.5
 50
180.00000599976096
 51
269.99999700012
  0
LINE
  8
_0-1_0
  6
CONTINUOUS
 62
    4
 10
2544.668854
 20
-385.55407600000001
 11
2544.668854
 21
-401.254076
  0
LINE
  8
_0-1_0
  6
CONTINUOUS
 62
    4
 10
2560.668854
 20
-385.55407600000001
 11
2560.668854
 21
-384.05407600000001
  0
LINE
  8
_0-3_躯体と製品
  6
CONTINUOUS
 62
    4
 10
2829.1333260000001
 20
-413.01907599999998
 11
2829.1333260000001
 21
-404.05407600000001
  0
LINE
  8
_0-3_躯体と製品
  6
CONTINUOUS
 62
    4
 10
2849.1333260000001
 20
-413.01907599999998
 11
2849.1333260000001
 21
-404.05407600000001
  0
LINE
  8
_0-3_躯体と製品
  6
CONTINUOUS
 62
    4
 10
2836.6333260000001
 20
-406.55407600000001
 11
2839.1333260000001
 21
-404.05407600000001
  0
LINE
  8
_0-3_躯体と製品
  6
CONTINUOUS
 62
    4
 10
2839.1333260000001
 20
-406.55407600000001
 11
2841.6333260000001
 21
-404.05407600000001
  0
LINE
  8
_0-5_中心線
  6
CENTER1_17
 62
    7
 10
2839.1333260000001
 20
-347.29534200000001
 11
2839.1333260000001
 21
-467.845865
  0
ARC
  8
_0-3_躯体と製品
  6
CONTINUOUS
 62
    4
 10
2839.1333260000001
 20
-405.64407599999998
 40
8.9100000000000001
 50
235.864056000327
 51
304.13593800000803
  0
LINE
  8
_0-3_躯体と製品
  6
CONTINUOUS
 62
    4
 10
2839.1333260000001
 20
-414.55407600000001
 11
2831.4663260000002
 21
-414.55407600000001
  0
LINE
  8
_0-3_躯体と製品
  6
CONTINUOUS
 62
    4
 10
2849.1333260000001
 20
-406.55407600000001
 11
2829.1333260000001
 21
-406.55407600000001
  0
LINE
  8
_0-3_躯体と製品
  6
CONTINUOUS
 62
    4
 10
2839.3333259999999
 20
-406.55407600000001
 11
2831.6333260000001
 21
-406.55407600000001
  0
LINE
  8
_0-3_躯体と製品
  6
CONTINUOUS
 62
    3
 10
2835.1333260000001
 20
-414.55407600000001
 11
2835.1333260000001
 21
-438.05407600000001
  0
LINE
  8
_0-3_躯体と製品
  6
CONTINUOUS
 62
    4
 10
2834.1333260000001
 20
-414.55407600000001
 11
2834.1333260000001
 21
-438.05407600000001
  0
ARC
  8
_0-3_躯体と製品
  6
CONTINUOUS
 62
    4
 10
2831.6333260000001
 20
-411.75907599999999
 40
2.7999999999999998
 50
206.74809900005502
 51
333.25189499999306
  0
LINE
  8
_0-3_躯体と製品
  6
CONTINUOUS
 62
    4
 10
2834.1333260000001
 20
-413.01907599999998
 11
2834.1333260000001
 21
-406.55407600000001
  0
LINE
  8
_0-3_躯体と製品
  6
CONTINUOUS
 62
    4
 10
2844.1333260000001
 20
-414.55407600000001
 11
2844.1333260000001
 21
-438.05407600000001
  0
LINE
  8
_0-3_躯体と製品
  6
CONTINUOUS
 62
    3
 10
2843.1333260000001
 20
-414.55407600000001
 11
2843.1333260000001
 21
-438.05407600000001
  0
LINE
  8
_0-3_躯体と製品
  6
CONTINUOUS
 62
    4
 10
2839.1333260000001
 20
-406.55407600000001
 11
2846.6333260000001
 21
-406.55407600000001
  0
LINE
  8
_0-3_躯体と製品
  6
CONTINUOUS
 62
    4
 10
2839.1333260000001
 20
-414.55407600000001
 11
2846.6003260000002
 21
-414.55407600000001
  0
ARC
  8
_0-3_躯体と製品
  6
CONTINUOUS
 62
    4
 10
2846.6333260000001
 20
-411.75907599999999
 40
2.7999999999999998
 50
206.74809900005502
 51
333.25189499999306
  0
LINE
  8
_0-3_躯体と製品
  6
CONTINUOUS
 62
    4
 10
2844.1333260000001
 20
-413.01907599999998
 11
2844.1333260000001
 21
-406.55407600000001
  0
LINE
  8
_0-3_躯体と製品
  6
CONTINUOUS
 62
    4
 10
2849.1333260000001
 20
-404.05407600000001
 11
2829.3333259999999
 21
-404.05407600000001
  0
LINE
  8
_0-3_躯体と製品
  6
CONTINUOUS
 62
    4
 10
2849.1333260000001
 20
-404.05407600000001
 11
2829.1333260000001
 21
-404.05407600000001
  0
LINE
  8
_0-3_躯体と製品
  6
CONTINUOUS
 62
    4
 10
2823.831326
 20
-353.05407600000001
 11
2854.4373260000002
 21
-353.05407600000001
  0
LINE
  8
_0-3_躯体と製品
  6
CONTINUOUS
 62
    4
 10
2823.831326
 20
-354.25207599999999
 11
2854.4373260000002
 21
-354.25207599999999
  0
LINE
  8
_0-3_躯体と製品
  6
CONTINUOUS
 62
    4
 10
2844.1333260000001
 20
-369.92607600000002
 11
2834.1333260000001
 21
-369.92607600000002
  0
LINE
  8
_0-3_躯体と製品
  6
CONTINUOUS
 62
    4
 10
2843.1333260000001
 20
-368.92607600000002
 11
2835.1333260000001
 21
-368.92607600000002
  0
LINE
  8
_0-3_躯体と製品
  6
CONTINUOUS
 62
    4
 10
2873.1333260000001
 20
-384.052076
 11
2873.1333260000001
 21
-377.35407600000002
  0
LINE
  8
_0-3_躯体と製品
  6
CONTINUOUS
 62
    4
 10
2873.1333260000001
 20
-377.35407600000002
 11
2868.1333260000001
 21
-377.35407600000002
  0
LINE
  8
_0-3_躯体と製品
  6
CONTINUOUS
 62
    4
 10
2868.1333260000001
 20
-377.35407600000002
 11
2868.1333260000001
 21
-379.35407600000002
  0
LINE
  8
_0-3_躯体と製品
  6
CONTINUOUS
 62
    4
 10
2868.1333260000001
 20
-379.35407600000002
 11
2871.1333260000001
 21
-379.35407600000002
  0
LINE
  8
_0-3_躯体と製品
  6
CONTINUOUS
 62
    4
 10
2871.1333260000001
 20
-379.35407600000002
 11
2871.1333260000001
 21
-382.05407600000001
  0
LINE
  8
_0-3_躯体と製品
  6
CONTINUOUS
 62
    4
 10
2871.1333260000001
 20
-382.05407600000001
 11
2807.1333260000001
 21
-382.05407600000001
  0
LINE
  8
_0-3_躯体と製品
  6
CONTINUOUS
 62
    4
 10
2807.1333260000001
 20
-382.05407600000001
 11
2807.1333260000001
 21
-379.35407600000002
  0
LINE
  8
_0-3_躯体と製品
  6
CONTINUOUS
 62
    4
 10
2807.1333260000001
 20
-379.35407600000002
 11
2810.1333260000001
 21
-379.35407600000002
  0
LINE
  8
_0-3_躯体と製品
  6
CONTINUOUS
 62
    4
 10
2810.1333260000001
 20
-379.35407600000002
 11
2810.1333260000001
 21
-377.35407600000002
  0
LINE
  8
_0-3_躯体と製品
  6
CONTINUOUS
 62
    4
 10
2810.1333260000001
 20
-377.35407600000002
 11
2805.1333260000001
 21
-377.35407600000002
  0
LINE
  8
_0-3_躯体と製品
  6
CONTINUOUS
 62
    4
 10
2805.1333260000001
 20
-377.35407600000002
 11
2805.1333260000001
 21
-384.05407600000001
  0
LINE
  8
_0-3_躯体と製品
  6
CONTINUOUS
 62
    4
 10
2805.1333260000001
 20
-384.05407600000001
 11
2873.1333260000001
 21
-384.05407600000001
  0
LINE
  8
_0-3_躯体と製品
  6
CONTINUOUS
 62
    4
 10
2799.1333260000001
 20
-385.55407600000001
 11
2879.1333260000001
 21
-385.55407600000001
  0
LINE
  8
_0-3_躯体と製品
  6
CONTINUOUS
 62
    4
 10
2799.1333260000001
 20
-384.05407600000001
 11
2879.1333260000001
 21
-384.05407600000001
  0
LINE
  8
_0-3_躯体と製品
  6
CONTINUOUS
 62
    4
 10
2814.6333260000001
 20
-401.754076
 11
2863.6333260000001
 21
-401.754076
  0
LINE
  8
_0-3_躯体と製品
  6
CONTINUOUS
 62
    4
 10
2814.1333260000001
 20
-404.05407600000001
 11
2864.1333260000001
 21
-404.05407600000001
  0
LINE
  8
_0-3_躯体と製品
  6
CONTINUOUS
 62
    4
 10
2821.6333260000001
 20
-355.25007599999998
 11
2821.6333260000001
 21
-379.85607599999997
  0
LINE
  8
_0-3_躯体と製品
  6
CONTINUOUS
 62
    4
 10
2822.831326
 20
-355.25007599999998
 11
2822.831326
 21
-379.85607599999997
  0
LINE
  8
_0-3_躯体と製品
  6
CONTINUOUS
 62
    4
 10
2799.1333260000001
 20
-385.55407600000001
 11
2799.1333260000001
 21
-384.05407600000001
  0
ARC
  8
_0-3_躯体と製品
  6
CONTINUOUS
 62
    4
 10
2808.8333259999999
 20
-380.35407600000002
 40
1.7
 50
180.00000599976096
 51
269.99999700012302
  0
ARC
  8
_0-3_躯体と製品
  6
CONTINUOUS
 62
    4
 10
2820.6333260000001
 20
-379.85607599999997
 40
2.198
 50
269.99999700011898
 51
0
  0
LINE
  8
_0-5_中心線
  6
CENTER1_17
 62
    7
 10
2815.0913260000002
 20
-400.57507600000002
 11
2815.0913260000002
 21
-375.31807600000002
  0
ARC
  8
_0-3_躯体と製品
  6
CONTINUOUS
 62
    4
 10
2814.6333260000001
 20
-401.254076
 40
0.5
 50
269.99999700012
 51
0
  0
LINE
  8
_0-3_躯体と製品
  6
CONTINUOUS
 62
    4
 10
2814.1333260000001
 20
-402.254076
 11
2814.1333260000001
 21
-404.05407600000001
  0
ARC
  8
_0-3_躯体と製品
  6
CONTINUOUS
 62
    4
 10
2814.6333260000001
 20
-402.254076
 40
0.5
 50
90.000002999880479
 51
180.00000599976096
  0
LINE
  8
_0-3_躯体と製品
  6
CONTINUOUS
 62
    4
 10
2815.1333260000001
 20
-385.55407600000001
 11
2815.1333260000001
 21
-401.254076
  0
ARC
  8
_0-3_躯体と製品
  6
CONTINUOUS
 62
    4
 10
2820.6333260000001
 20
-379.85607599999997
 40
1
 50
269.99999700012
 51
0
  0
LINE
  8
_0-3_躯体と製品
  6
CONTINUOUS
 62
    4
 10
2820.6333260000001
 20
-382.05407600000001
 11
2808.8333259999999
 21
-382.05407600000001
  0
LINE
  8
_0-3_躯体と製品
  6
CONTINUOUS
 62
    4
 10
2820.6333260000001
 20
-380.85607599999997
 11
2808.831326
 21
-380.85607599999997
  0
LINE
  8
_0-3_躯体と製品
  6
CONTINUOUS
 62
    4
 10
2815.6413259999999
 20
-378.68107600000002
 11
2815.0913260000002
 21
-378.68107600000002
  0
ARC
  8
_0-3_躯体と製品
  6
CONTINUOUS
 62
    4
 10
2815.6383259999998
 20
-382.64407599999998
 40
4.819
 50
48.111754999867706
 51
96.5174420003368
  0
LINE
  8
_0-3_躯体と製品
  6
CONTINUOUS
 62
    4
 10
2818.8563260000001
 20
-379.05607600000002
 11
2815.0913260000002
 21
-379.05607600000002
  0
LINE
  8
_0-3_躯体と製品
  6
CONTINUOUS
 62
    4
 10
2818.8913259999999
 20
-380.85607599999997
 11
2815.0913260000002
 21
-380.85607599999997
  0
LINE
  8
_0-3_躯体と製品
  6
CONTINUOUS
 62
    4
 10
2811.3263259999999
 20
-379.05607600000002
 11
2815.0913260000002
 21
-379.05607600000002
  0
ARC
  8
_0-3_躯体と製品
  6
CONTINUOUS
 62
    4
 10
2814.5443260000002
 20
-382.64407599999998
 40
4.819
 50
83.482563000374086
 51
131.88825100011201
  0
LINE
  8
_0-3_躯体と製品
  6
CONTINUOUS
 62
    4
 10
2811.291326
 20
-380.85607599999997
 11
2815.0913260000002
 21
-380.85607599999997
  0
LINE
  8
_0-3_躯体と製品
  6
CONTINUOUS
 62
    4
 10
2812.9913259999998
 20
-378.40207600000002
 11
2813.4413260000001
 21
-378.26707599999997
  0
LINE
  8
_0-3_躯体と製品
  6
CONTINUOUS
 62
    4
 10
2812.7133260000001
 20
-378.52007600000002
 11
2812.9913259999998
 21
-378.40207600000002
  0
ARC
  8
_0-3_躯体と製品
  6
CONTINUOUS
 62
    4
 10
2812.6353260000001
 20
-378.33607599999999
 40
0.2
 50
206.43686799982703
 51
292.97271899981604
  0
LINE
  8
_0-3_躯体と製品
  6
CONTINUOUS
 62
    4
 10
2812.456326
 20
-378.42507599999999
 11
2812.4063259999998
 21
-378.32507600000002
  0
LINE
  8
_0-3_躯体と製品
  6
CONTINUOUS
 62
    4
 10
2811.3263259999999
 20
-379.05607600000002
 11
2811.0913260000002
 21
-380.20707599999997
  0
ARC
  8
_0-3_躯体と製品
  6
CONTINUOUS
 62
    4
 10
2811.291326
 20
-380.65607599999998
 40
0.2
 50
180.00000599975803
 51
269.99999700014604
  0
LINE
  8
_0-3_躯体と製品
  6
CONTINUOUS
 62
    4
 10
2811.0913260000002
 20
-380.20707599999997
 11
2811.0913260000002
 21
-380.65607599999998
  0
ARC
  8
_0-3_躯体と製品
  6
CONTINUOUS
 62
    4
 10
2814.2413259999998
 20
-378.23907600000001
 40
0.1
 50
0
 51
95.194432000506694
  0
ARC
  8
_0-3_躯体と製品
  6
CONTINUOUS
 62
    4
 10
2814.541326
 20
-378.48107599999997
 40
0.2
 50
180.00000599975803
 51
269.99999700014604
  0
LINE
  8
_0-3_躯体と製品
  6
CONTINUOUS
 62
    4
 10
2813.4413260000001
 20
-378.26707599999997
 11
2813.918326
 21
-378.16807599999999
  0
LINE
  8
_0-3_躯体と製品
  6
CONTINUOUS
 62
    4
 10
2813.918326
 20
-378.16807599999999
 11
2814.2323259999998
 21
-378.14007600000002
  0
LINE
  8
_0-3_躯体と製品
  6
CONTINUOUS
 62
    4
 10
2814.3413260000002
 20
-378.48107599999997
 11
2814.3413260000002
 21
-378.23907600000001
  0
LINE
  8
_0-3_躯体と製品
  6
CONTINUOUS
 62
    4
 10
2814.541326
 20
-378.68107600000002
 11
2815.0913260000002
 21
-378.68107600000002
  0
LINE
  8
_0-3_躯体と製品
  6
CONTINUOUS
 62
    4
 10
2807.1333260000001
 20
-379.35407600000002
 11
2807.1333260000001
 21
-380.35407600000002
  0
LINE
  8
_0-3_躯体と製品
  6
CONTINUOUS
 62
    4
 10
2808.331326
 20
-379.35407600000002
 11
2808.331326
 21
-380.35607599999997
  0
LINE
  8
_0-3_躯体と製品
  6
CONTINUOUS
 62
    4
 10
2808.331326
 20
-379.35407600000002
 11
2807.1333260000001
 21
-379.35407600000002
  0
ARC
  8
_0-3_躯体と製品
  6
CONTINUOUS
 62
    4
 10
2808.831326
 20
-380.35607599999997
 40
0.5
 50
180.00000599976096
 51
269.99999700012
  0
LINE
  8
_0-3_躯体と製品
  6
CONTINUOUS
 62
    4
 10
2818.8563260000001
 20
-379.05607600000002
 11
2819.0913260000002
 21
-380.20707599999997
  0
ARC
  8
_0-3_躯体と製品
  6
CONTINUOUS
 62
    4
 10
2818.8913259999999
 20
-380.65607599999998
 40
0.2
 50
269.99999700014604
 51
0.0000000000000568
  0
LINE
  8
_0-3_躯体と製品
  6
CONTINUOUS
 62
    4
 10
2819.0913260000002
 20
-380.20707599999997
 11
2819.0913260000002
 21
-380.65607599999998
  0
LINE
  8
_0-3_躯体と製品
  6
CONTINUOUS
 62
    4
 10
2817.726326
 20
-378.42507599999999
 11
2817.7763260000002
 21
-378.32507600000002
  0
ARC
  8
_0-3_躯体と製品
  6
CONTINUOUS
 62
    4
 10
2817.5473259999999
 20
-378.33607599999999
 40
0.2
 50
247.02727500012003
 51
333.56312599990304
  0
ARC
  8
_0-3_躯体と製品
  6
CONTINUOUS
 62
    4
 10
2815.9413260000001
 20
-378.23907600000001
 40
0.1
 50
84.805573999870802
 51
180.00000599977403
  0
ARC
  8
_0-3_躯体と製品
  6
CONTINUOUS
 62
    4
 10
2815.6413259999999
 20
-378.48107599999997
 40
0.2
 50
269.99999700014604
 51
0.0000000000000568
  0
LINE
  8
_0-3_躯体と製品
  6
CONTINUOUS
 62
    4
 10
2815.8413260000002
 20
-378.48107599999997
 11
2815.8413260000002
 21
-378.23907600000001
  0
LINE
  8
_0-3_躯体と製品
  6
CONTINUOUS
 62
    4
 10
2817.4693259999999
 20
-378.52007600000002
 11
2817.1913260000001
 21
-378.40207600000002
  0
LINE
  8
_0-3_躯体と製品
  6
CONTINUOUS
 62
    4
 10
2817.1913260000001
 20
-378.40207600000002
 11
2816.7413259999998
 21
-378.26707599999997
  0
LINE
  8
_0-3_躯体と製品
  6
CONTINUOUS
 62
    4
 10
2816.7413259999998
 20
-378.26707599999997
 11
2816.264326
 21
-378.16807599999999
  0
LINE
  8
_0-3_躯体と製品
  6
CONTINUOUS
 62
    4
 10
2816.264326
 20
-378.16807599999999
 11
2815.9503260000001
 21
-378.14007600000002
  0
LINE
  8
_0-3_躯体と製品
  6
CONTINUOUS
 62
    4
 10
2835.1333260000001
 20
-368.92607600000002
 11
2834.1333260000001
 21
-369.92607600000002
  0
LINE
  8
_0-3_躯体と製品
  6
CONTINUOUS
 62
    4
 10
2835.1333260000001
 20
-382.05407600000001
 11
2835.1333260000001
 21
-368.92607600000002
  0
LINE
  8
_0-3_躯体と製品
  6
CONTINUOUS
 62
    4
 10
2834.1333260000001
 20
-369.92607600000002
 11
2834.1333260000001
 21
-382.05407600000001
  0
ARC
  8
_0-3_躯体と製品
  6
CONTINUOUS
 62
    4
 10
2823.831326
 20
-355.25007599999998
 40
1
 50
90.000002999880479
 51
180.00000599976096
  0
ARC
  8
_0-3_躯体と製品
  6
CONTINUOUS
 62
    4
 10
2823.831326
 20
-355.25007599999998
 40
2.198
 50
90.000002999881303
 51
180.00000599976099
  0
LINE
  8
_0-3_躯体と製品
  6
CONTINUOUS
 62
    4
 10
2855.4353259999998
 20
-355.25007599999998
 11
2855.4353259999998
 21
-379.85607599999997
  0
LINE
  8
_0-3_躯体と製品
  6
CONTINUOUS
 62
    4
 10
2856.6333260000001
 20
-355.25007599999998
 11
2856.6333260000001
 21
-379.85607599999997
  0
ARC
  8
_0-3_躯体と製品
  6
CONTINUOUS
 62
    4
 10
2869.4333259999999
 20
-380.35407600000002
 40
1.7
 50
269.99999700012302
 51
0
  0
LINE
  8
_0-3_躯体と製品
  6
CONTINUOUS
 62
    4
 10
2869.9353259999998
 20
-379.35407600000002
 11
2871.1333260000001
 21
-379.35407600000002
  0
ARC
  8
_0-3_躯体と製品
  6
CONTINUOUS
 62
    4
 10
2857.6333260000001
 20
-379.85607599999997
 40
2.198
 50
180.00000599976096
 51
269.99999700011892
  0
LINE
  8
_0-5_中心線
  6
CENTER1_17
 62
    7
 10
2863.177326
 20
-400.57507600000002
 11
2863.177326
 21
-375.31807600000002
  0
ARC
  8
_0-3_躯体と製品
  6
CONTINUOUS
 62
    4
 10
2863.6333260000001
 20
-401.254076
 40
0.5
 50
180.00000599976096
 51
269.99999700012
  0
LINE
  8
_0-3_躯体と製品
  6
CONTINUOUS
 62
    4
 10
2864.1333260000001
 20
-402.254076
 11
2864.1333260000001
 21
-404.05407600000001
  0
ARC
  8
_0-3_躯体と製品
  6
CONTINUOUS
 62
    4
 10
2863.6333260000001
 20
-402.254076
 40
0.5
 50
0
 51
90.000002999880479
  0
LINE
  8
_0-3_躯体と製品
  6
CONTINUOUS
 62
    4
 10
2863.1333260000001
 20
-385.55407600000001
 11
2863.1333260000001
 21
-401.254076
  0
LINE
  8
_0-3_躯体と製品
  6
CONTINUOUS
 62
    4
 10
2843.1333260000001
 20
-368.92607600000002
 11
2844.1333260000001
 21
-369.92607600000002
  0
LINE
  8
_0-3_躯体と製品
  6
CONTINUOUS
 62
    4
 10
2843.1333260000001
 20
-382.05407600000001
 11
2843.1333260000001
 21
-368.92607600000002
  0
LINE
  8
_0-3_躯体と製品
  6
CONTINUOUS
 62
    4
 10
2844.1333260000001
 20
-369.92607600000002
 11
2844.1333260000001
 21
-382.05407600000001
  0
LINE
  8
_0-3_躯体と製品
  6
CONTINUOUS
 62
    4
 10
2869.4333259999999
 20
-382.05407600000001
 11
2857.6333260000001
 21
-382.05407600000001
  0
ARC
  8
_0-3_躯体と製品
  6
CONTINUOUS
 62
    4
 10
2865.6333260000001
 20
-378.33607599999999
 40
0.2
 50
247.02727500012003
 51
333.56312599990304
  0
LINE
  8
_0-3_躯体と製品
  6
CONTINUOUS
 62
    4
 10
2865.5553260000002
 20
-378.52007600000002
 11
2865.2773259999999
 21
-378.40207600000002
  0
LINE
  8
_0-3_躯体と製品
  6
CONTINUOUS
 62
    4
 10
2865.2773259999999
 20
-378.40207600000002
 11
2864.8273260000001
 21
-378.26707599999997
  0
LINE
  8
_0-3_躯体と製品
  6
CONTINUOUS
 62
    4
 10
2866.9423259999999
 20
-379.05607600000002
 11
2867.177326
 21
-380.20707599999997
  0
LINE
  8
_0-3_躯体と製品
  6
CONTINUOUS
 62
    4
 10
2865.8123260000002
 20
-378.42507599999999
 11
2865.8623259999999
 21
-378.32507600000002
  0
ARC
  8
_0-3_躯体と製品
  6
CONTINUOUS
 62
    4
 10
2866.9773260000002
 20
-380.65607599999998
 40
0.2
 50
269.99999700014604
 51
0.0000000000000568
  0
LINE
  8
_0-3_躯体と製品
  6
CONTINUOUS
 62
    4
 10
2867.177326
 20
-380.20707599999997
 11
2867.177326
 21
-380.65607599999998
  0
ARC
  8
_0-3_躯体と製品
  6
CONTINUOUS
 62
    4
 10
2869.4353259999998
 20
-380.35607599999997
 40
0.5
 50
269.99999700012
 51
0
  0
LINE
  8
_0-3_躯体と製品
  6
CONTINUOUS
 62
    4
 10
2869.9353259999998
 20
-379.35407600000002
 11
2869.9353259999998
 21
-380.35607599999997
  0
LINE
  8
_0-3_躯体と製品
  6
CONTINUOUS
 62
    4
 10
2864.3503260000002
 20
-378.16807599999999
 11
2864.0363259999999
 21
-378.14007600000002
  0
LINE
  8
_0-3_躯体と製品
  6
CONTINUOUS
 62
    4
 10
2860.7993259999998
 20
-378.52007600000002
 11
2861.0773260000001
 21
-378.40207600000002
  0
LINE
  8
_0-3_躯体と製品
  6
CONTINUOUS
 62
    4
 10
2861.0773260000001
 20
-378.40207600000002
 11
2861.5273259999999
 21
-378.26707599999997
  0
LINE
  8
_0-3_躯体と製品
  6
CONTINUOUS
 62
    4
 10
2861.5273259999999
 20
-378.26707599999997
 11
2862.0043260000002
 21
-378.16807599999999
  0
LINE
  8
_0-3_躯体と製品
  6
CONTINUOUS
 62
    4
 10
2862.0043260000002
 20
-378.16807599999999
 11
2862.3183260000001
 21
-378.14007600000002
  0
ARC
  8
_0-3_躯体と製品
  6
CONTINUOUS
 62
    4
 10
2862.630326
 20
-382.64407599999998
 40
4.819
 50
83.482563000374086
 51
131.88825100011201
  0
ARC
  8
_0-3_躯体と製品
  6
CONTINUOUS
 62
    4
 10
2864.0273259999999
 20
-378.23907600000001
 40
0.1
 50
84.805573999870802
 51
180.00000599977403
  0
ARC
  8
_0-3_躯体と製品
  6
CONTINUOUS
 62
    4
 10
2863.7273260000002
 20
-378.48107599999997
 40
0.2
 50
269.99999700014604
 51
0.0000000000000568
  0
LINE
  8
_0-3_躯体と製品
  6
CONTINUOUS
 62
    4
 10
2863.927326
 20
-378.48107599999997
 11
2863.927326
 21
-378.23907600000001
  0
LINE
  8
_0-3_躯体と製品
  6
CONTINUOUS
 62
    4
 10
2863.7273260000002
 20
-378.68107600000002
 11
2863.177326
 21
-378.68107600000002
  0
LINE
  8
_0-3_躯体と製品
  6
CONTINUOUS
 62
    4
 10
2859.4123260000001
 20
-379.05607600000002
 11
2859.177326
 21
-380.20707599999997
  0
LINE
  8
_0-3_躯体と製品
  6
CONTINUOUS
 62
    4
 10
2860.5423259999998
 20
-378.42507599999999
 11
2860.492326
 21
-378.32507600000002
  0
LINE
  8
_0-3_躯体と製品
  6
CONTINUOUS
 62
    4
 10
2862.427326
 20
-378.48107599999997
 11
2862.427326
 21
-378.23907600000001
  0
LINE
  8
_0-3_躯体と製品
  6
CONTINUOUS
 62
    4
 10
2862.6273259999998
 20
-378.68107600000002
 11
2863.177326
 21
-378.68107600000002
  0
LINE
  8
_0-3_躯体と製品
  6
CONTINUOUS
 62
    4
 10
2859.4123260000001
 20
-379.05607600000002
 11
2863.177326
 21
-379.05607600000002
  0
ARC
  8
_0-3_躯体と製品
  6
CONTINUOUS
 62
    4
 10
2860.7213259999999
 20
-378.33607599999999
 40
0.2
 50
206.43686799982703
 51
292.97271899981604
  0
ARC
  8
_0-3_躯体と製品
  6
CONTINUOUS
 62
    4
 10
2862.3273260000001
 20
-378.23907600000001
 40
0.1
 50
0
 51
95.194432000506694
  0
ARC
  8
_0-3_躯体と製品
  6
CONTINUOUS
 62
    4
 10
2862.6273259999998
 20
-378.48107599999997
 40
0.2
 50
180.00000599975803
 51
269.99999700014604
  0
ARC
  8
_0-3_躯体と製品
  6
CONTINUOUS
 62
    4
 10
2859.3773259999998
 20
-380.65607599999998
 40
0.2
 50
180.00000599975803
 51
269.99999700014604
  0
LINE
  8
_0-3_躯体と製品
  6
CONTINUOUS
 62
    4
 10
2859.3773259999998
 20
-380.85607599999997
 11
2863.177326
 21
-380.85607599999997
  0
ARC
  8
_0-3_躯体と製品
  6
CONTINUOUS
 62
    4
 10
2857.6333260000001
 20
-379.85607599999997
 40
1
 50
180.00000599976096
 51
269.99999700012
  0
LINE
  8
_0-3_躯体と製品
  6
CONTINUOUS
 62
    4
 10
2859.177326
 20
-380.20707599999997
 11
2859.177326
 21
-380.65607599999998
  0
LINE
  8
_0-3_躯体と製品
  6
CONTINUOUS
 62
    4
 10
2869.4353259999998
 20
-380.85607599999997
 11
2857.6333260000001
 21
-380.85607599999997
  0
ARC
  8
_0-3_躯体と製品
  6
CONTINUOUS
 62
    4
 10
2863.724326
 20
-382.64407599999998
 40
4.819
 50
48.111754999867706
 51
96.5174420003368
  0
LINE
  8
_0-3_躯体と製品
  6
CONTINUOUS
 62
    4
 10
2866.9423259999999
 20
-379.05607600000002
 11
2863.177326
 21
-379.05607600000002
  0
LINE
  8
_0-3_躯体と製品
  6
CONTINUOUS
 62
    4
 10
2866.9773260000002
 20
-380.85607599999997
 11
2863.177326
 21
-380.85607599999997
  0
LINE
  8
_0-3_躯体と製品
  6
CONTINUOUS
 62
    4
 10
2864.8273260000001
 20
-378.26707599999997
 11
2864.3503260000002
 21
-378.16807599999999
  0
LINE
  8
_0-3_躯体と製品
  6
CONTINUOUS
 62
    4
 10
2879.1333260000001
 20
-385.55407600000001
 11
2879.1333260000001
 21
-384.05407600000001
  0
LINE
  8
_0-3_躯体と製品
  6
CONTINUOUS
 62
    4
 10
2871.1333260000001
 20
-379.35407600000002
 11
2871.1333260000001
 21
-380.35407600000002
  0
ARC
  8
_0-3_躯体と製品
  6
CONTINUOUS
 62
    4
 10
2854.4373260000002
 20
-355.25007599999998
 40
1
 50
0
 51
90.000002999880479
  0
ARC
  8
_0-3_躯体と製品
  6
CONTINUOUS
 62
    4
 10
2854.4373260000002
 20
-355.25007599999998
 40
2.198
 50
0
 51
90.000002999881303
  0
POINT
  8
_0-3_躯体と製品
 62
    4
 10
2839.1333260000001
 20
-443.05407600000001
  0
POINT
  8
_0-3_躯体と製品
 62
    4
 10
2839.1333260000001
 20
-443.05407600000001
  0
LINE
  8
_0-3_躯体と製品
  6
CONTINUOUS
 62
    4
 10
2839.1333260000001
 20
-438.05407600000001
 11
2846.433329
 21
-438.05407600000001
  0
LINE
  8
_0-3_躯体と製品
  6
CONTINUOUS
 62
    4
 10
2839.1333260000001
 20
-438.05407600000001
 11
2831.8333229999998
 21
-438.05407600000001
  0
LINE
  8
_0-3_躯体と製品
  6
CONTINUOUS
 62
    4
 10
2774.1333260000001
 20
-440.754076
 11
2774.1333260000001
 21
-443.05407600000001
  0
LINE
  8
_0-3_躯体と製品
  6
CONTINUOUS
 62
    4
 10
2839.1333260000001
 20
-443.05407600000001
 11
2774.1333260000001
 21
-443.05407600000001
  0
LINE
  8
_0-3_躯体と製品
  6
CONTINUOUS
 62
    4
 10
2839.1333260000001
 20
-440.754076
 11
2774.1333260000001
 21
-440.754076
  0
LINE
  8
_0-3_躯体と製品
  6
CONTINUOUS
 62
    4
 10
2904.1333260000001
 20
-440.754076
 11
2904.1333260000001
 21
-443.05407600000001
  0
LINE
  8
_0-3_躯体と製品
  6
CONTINUOUS
 62
    4
 10
2839.1333260000001
 20
-440.754076
 11
2904.1333260000001
 21
-440.754076
  0
LINE
  8
_0-3_躯体と製品
  6
CONTINUOUS
 62
    4
 10
2839.1333260000001
 20
-443.05407600000001
 11
2904.1333260000001
 21
-443.05407600000001
  0
ARC
  8
_0-3_躯体と製品
  6
CONTINUOUS
 62
    4
 10
2846.433329
 20
-440.754076
 40
2.7000000000000002
 50
8.9892990515622522
 51
90.000002504464803
  0
ARC
  8
_0-3_躯体と製品
  6
CONTINUOUS
 62
    4
 10
2831.8333229999998
 20
-440.754076
 40
2.7000000000000002
 50
90.000002504464803
 51
171.010697419651
  0
ARC
  8
_0-3_躯体と製品
  6
CONTINUOUS
 62
    4
 10
2828.6726330000001
 20
-440.254076
 40
0.5
 50
269.99999749547896
 51
351.01070094843692
  0
ARC
  8
_0-3_躯体と製品
  6
CONTINUOUS
 62
    4
 10
2849.5940260000002
 20
-440.254076
 40
0.5
 50
188.98930258034898
 51
269.99999749547896
  0
POINT
  8
_0-1_0
 62
    4
 10
2520.668854
 20
-443.05407400000001
  0
LINE
  8
_0-1_0
  6
CONTINUOUS
 62
    4
 10
2520.668854
 20
-443.05407400000001
 11
2495.668854
 21
-443.05407400000001
  0
LINE
  8
_0-1_0
  6
CONTINUOUS
 62
    4
 10
2495.668854
 20
-440.75407799999999
 11
2495.668854
 21
-443.05407400000001
  0
LINE
  8
_0-1_0
  6
CONTINUOUS
 62
    4
 10
2520.668854
 20
-443.05407400000001
 11
2545.668854
 21
-443.05407400000001
  0
LINE
  8
_0-1_0
  6
CONTINUOUS
 62
    4
 10
2531.1295500000001
 20
-440.75407799999999
 11
2545.668854
 21
-440.75407799999999
  0
LINE
  8
_0-1_0
  6
CONTINUOUS
 62
    4
 10
2520.668854
 20
-438.054078
 11
2527.9688540000002
 21
-438.054078
  0
LINE
  8
_0-1_0
  6
CONTINUOUS
 62
    4
 10
2520.668854
 20
-438.054078
 11
2513.3688539999998
 21
-438.054078
  0
ARC
  8
_0-1_0
  6
CONTINUOUS
 62
    4
 10
2527.9688540000002
 20
-440.75407799999999
 40
2.7000000000000002
 50
8.9892990515622522
 51
90.000002504464803
  0
ARC
  8
_0-1_0
  6
CONTINUOUS
 62
    4
 10
2531.1295500000001
 20
-440.25407799999999
 40
0.5
 50
188.98930258034898
 51
269.99999749547896
  0
ARC
  8
_0-1_0
  6
CONTINUOUS
 62
    4
 10
2513.3688539999998
 20
-440.75407799999999
 40
2.7000000000000002
 50
90.000002504464803
 51
171.010697419651
  0
ARC
  8
_0-1_0
  6
CONTINUOUS
 62
    4
 10
2510.2081579999999
 20
-440.25407799999999
 40
0.5
 50
269.99999749547896
 51
351.01070094843692
  0
LINE
  8
_0-1_0
  6
CONTINUOUS
 62
    4
 10
2545.668854
 20
-440.75407799999999
 11
2545.668854
 21
-443.05407400000001
  0
LINE
  8
_0-1_0
  6
CONTINUOUS
 62
    4
 10
2495.66885
 20
-440.75407799999999
 11
2510.2081579999999
 21
-440.75407799999999
  0
LINE
  8
_0-1_0
  6
CONTINUOUS
 62
    4
 10
2510.2081579999999
 20
-440.75407799999999
 11
2531.1295500000001
 21
-440.75407799999999
  0
LINE
  8
_0-1_0
  6
CONTINUOUS
 62
    4
 10
2512.668854
 20
-440.75407799999999
 11
2512.668854
 21
-443.05407400000001
  0
LINE
  8
_0-1_0
  6
CONTINUOUS
 62
    4
 10
2528.668854
 20
-440.75407799999999
 11
2528.668854
 21
-443.05407400000001
  0
TEXT
  8
_0-4_文字-記号
 62
    7
 10
2441.9834540000002
 20
-416.08253400000001
 40
6.3832000000000004
 41
1.1499999999999999
 50
0
  1
調整ボルト Ｍ１０
  0
LINE
  8
_0-4_文字-記号
  6
CONTINUOUS
 62
    7
 10
2440.838741
 20
-417.73911900000002
 11
2510.7238750000001
 21
-417.73911900000002
  0
LINE
  8
_0-4_文字-記号
  6
CONTINUOUS
 62
    7
 10
2510.7238750000001
 20
-417.73911900000002
 11
2515.668854
 21
-426.30407500000001
  0
LINE
  8
_0-4_文字-記号
  6
CONTINUOUS
 62
    7
 10
2437.6136029999998
 20
-382.05407600000001
 11
2426.770254
 21
-400.835308
  0
LINE
  8
_0-4_文字-記号
  6
CONTINUOUS
 62
    7
 10
2426.770254
 20
-400.835308
 11
2394.6918820000001
 21
-400.835308
  0
TEXT
  8
_0-4_文字-記号
 62
    7
 10
2398.8722849999999
 20
-399.31837899999999
 40
6.2055999999999996
 41
1.1500000000000001
 50
0
  1
根太鋼
  0
LINE
  8
_0-3_躯体と製品
  6
CONTINUOUS
 62
    3
 10
2658.5642640000001
 20
-333.05411600000002
 11
2658.5642640000001
 21
-338.05407600000001
  0
ARC
  8
_0-3_躯体と製品
  6
CONTINUOUS
 62
    3
 10
2657.564226
 20
-333.05411600000002
 40
1.00004
 50
0
 51
90
  0
LINE
  8
_0-3_躯体と製品
  6
CONTINUOUS
 62
    3
 10
2657.564226
 20
-332.05407600000001
 11
2649.5639099999999
 21
-332.05407600000001
  0
LINE
  8
_0-3_躯体と製品
  6
CONTINUOUS
 62
    3
 10
2658.5642640000001
 20
-325.05403799999999
 11
2658.5642640000001
 21
-320.05407600000001
  0
ARC
  8
_0-3_躯体と製品
  6
CONTINUOUS
 62
    3
 10
2657.564226
 20
-325.05403799999999
 40
1.00004
 50
270
 51
0
  0
LINE
  8
_0-3_躯体と製品
  6
CONTINUOUS
 62
    3
 10
2657.564226
 20
-326.05407600000001
 11
2649.5639099999999
 21
-326.05407600000001
  0
ARC
  8
_0-3_躯体と製品
  6
CONTINUOUS
 62
    3
 10
2649.5639099999999
 20
-327.05411600000002
 40
1.00004
 50
90
 51
180
  0
LINE
  8
_0-3_躯体と製品
  6
CONTINUOUS
 62
    3
 10
2648.5638720000002
 20
-327.05411600000002
 11
2648.5638720000002
 21
-331.054036
  0
ARC
  8
_0-3_躯体と製品
  6
CONTINUOUS
 62
    3
 10
2649.5639099999999
 20
-331.054036
 40
1.00004
 50
179.99999999999696
 51
270
  0
LINE
  8
_0-3_躯体と製品
  6
CONTINUOUS
 62
    3
 10
2388.5642590000002
 20
-333.05411600000002
 11
2388.5642590000002
 21
-338.05407600000001
  0
ARC
  8
_0-3_躯体と製品
  6
CONTINUOUS
 62
    3
 10
2387.5642210000001
 20
-333.05411600000002
 40
1.00004
 50
0
 51
90
  0
LINE
  8
_0-3_躯体と製品
  6
CONTINUOUS
 62
    3
 10
2387.5642210000001
 20
-332.05407600000001
 11
2379.563905
 21
-332.05407600000001
  0
LINE
  8
_0-3_躯体と製品
  6
CONTINUOUS
 62
    3
 10
2388.5642590000002
 20
-325.05403799999999
 11
2388.5642590000002
 21
-320.05407600000001
  0
ARC
  8
_0-3_躯体と製品
  6
CONTINUOUS
 62
    3
 10
2387.5642210000001
 20
-325.05403799999999
 40
1.00004
 50
270
 51
0
  0
LINE
  8
_0-3_躯体と製品
  6
CONTINUOUS
 62
    3
 10
2387.5642210000001
 20
-326.05407600000001
 11
2379.563905
 21
-326.05407600000001
  0
ARC
  8
_0-3_躯体と製品
  6
CONTINUOUS
 62
    3
 10
2379.563905
 20
-327.05411600000002
 40
1.00004
 50
90
 51
180
  0
LINE
  8
_0-3_躯体と製品
  6
CONTINUOUS
 62
    3
 10
2378.5638669999998
 20
-327.05411600000002
 11
2378.5638669999998
 21
-331.054036
  0
ARC
  8
_0-3_躯体と製品
  6
CONTINUOUS
 62
    3
 10
2379.563905
 20
-331.054036
 40
1.00004
 50
179.99999999999696
 51
270
  0
LINE
  8
_0-3_躯体と製品
  6
CONTINUOUS
 62
    3
 10
2478.5642590000002
 20
-333.05411600000002
 11
2478.5642590000002
 21
-338.05407600000001
  0
ARC
  8
_0-3_躯体と製品
  6
CONTINUOUS
 62
    3
 10
2477.5642210000001
 20
-333.05411600000002
 40
1.00004
 50
0
 51
90
  0
LINE
  8
_0-3_躯体と製品
  6
CONTINUOUS
 62
    3
 10
2477.5642210000001
 20
-332.05407600000001
 11
2469.563905
 21
-332.05407600000001
  0
LINE
  8
_0-3_躯体と製品
  6
CONTINUOUS
 62
    3
 10
2478.5642590000002
 20
-325.05403799999999
 11
2478.5642590000002
 21
-320.05407600000001
  0
ARC
  8
_0-3_躯体と製品
  6
CONTINUOUS
 62
    3
 10
2477.5642210000001
 20
-325.05403799999999
 40
1.00004
 50
270
 51
0
  0
LINE
  8
_0-3_躯体と製品
  6
CONTINUOUS
 62
    3
 10
2477.5642210000001
 20
-326.05407600000001
 11
2469.563905
 21
-326.05407600000001
  0
ARC
  8
_0-3_躯体と製品
  6
CONTINUOUS
 62
    3
 10
2469.563905
 20
-327.05411600000002
 40
1.00004
 50
90
 51
180
  0
LINE
  8
_0-3_躯体と製品
  6
CONTINUOUS
 62
    3
 10
2468.5638669999998
 20
-327.05411600000002
 11
2468.5638669999998
 21
-331.054036
  0
ARC
  8
_0-3_躯体と製品
  6
CONTINUOUS
 62
    3
 10
2469.563905
 20
-331.054036
 40
1.00004
 50
179.99999999999696
 51
270
  0
LINE
  8
_0-3_躯体と製品
  6
CONTINUOUS
 62
    4
 10
2373.558352
 20
-353.05407600000001
 11
2667.779356
 21
-353.05407600000001
  0
LINE
  8
_0-3_躯体と製品
  6
CONTINUOUS
 62
    4
 10
2373.558352
 20
-320.05407600000001
 11
2667.779356
 21
-320.05407600000001
  0
LINE
  8
_0-3_躯体と製品
  6
CONTINUOUS
 62
    3
 10
2373.558352
 20
-343.05407600000001
 11
2667.779356
 21
-343.05407600000001
  0
LINE
  8
_0-3_躯体と製品
  6
CONTINUOUS
 62
    3
 10
2373.558352
 20
-348.05407600000001
 11
2667.779356
 21
-348.05407600000001
  0
LINE
  8
_0-3_躯体と製品
  6
CONTINUOUS
 62
    4
 10
2373.558352
 20
-338.05407600000001
 11
2667.779356
 21
-338.05407600000001
  0
LINE
  8
_0-3_躯体と製品
  6
CONTINUOUS
 62
    3
 10
2568.5642640000001
 20
-333.05411600000002
 11
2568.5642640000001
 21
-338.05407600000001
  0
ARC
  8
_0-3_躯体と製品
  6
CONTINUOUS
 62
    3
 10
2567.564226
 20
-333.05411600000002
 40
1.00004
 50
0
 51
90
  0
LINE
  8
_0-3_躯体と製品
  6
CONTINUOUS
 62
    3
 10
2567.564226
 20
-332.05407600000001
 11
2559.5639099999999
 21
-332.05407600000001
  0
LINE
  8
_0-3_躯体と製品
  6
CONTINUOUS
 62
    3
 10
2568.5642640000001
 20
-325.05403799999999
 11
2568.5642640000001
 21
-320.05407600000001
  0
ARC
  8
_0-3_躯体と製品
  6
CONTINUOUS
 62
    3
 10
2567.564226
 20
-325.05403799999999
 40
1.00004
 50
270
 51
0
  0
LINE
  8
_0-3_躯体と製品
  6
CONTINUOUS
 62
    3
 10
2567.564226
 20
-326.05407600000001
 11
2559.5639099999999
 21
-326.05407600000001
  0
ARC
  8
_0-3_躯体と製品
  6
CONTINUOUS
 62
    3
 10
2559.5639099999999
 20
-327.05411600000002
 40
1.00004
 50
90
 51
180
  0
LINE
  8
_0-3_躯体と製品
  6
CONTINUOUS
 62
    3
 10
2558.5638720000002
 20
-327.05411600000002
 11
2558.5638720000002
 21
-331.054036
  0
ARC
  8
_0-3_躯体と製品
  6
CONTINUOUS
 62
    3
 10
2559.5639099999999
 20
-331.054036
 40
1.00004
 50
179.99999999999696
 51
270
  0
LINE
  8
_0-4_文字-記号
  6
CONTINUOUS
 62
    7
 10
2520.668854
 20
-320.05407600000001
 11
2539.4379359999998
 21
-287.545072
  0
LINE
  8
_0-4_文字-記号
  6
CONTINUOUS
 62
    7
 10
2539.4379359999998
 20
-287.545072
 11
2613.5022119999999
 21
-287.545072
  0
TEXT
  8
_0-4_文字-記号
 62
    7
 10
2546.1582560000002
 20
-286.58729599999998
 40
6.2055999999999996
 41
1.1500000000000001
 50
0
  1
フローリング貼り
  0
LINE
  8
_0-4_文字-記号
  6
CONTINUOUS
 62
    7
 10
2541.3543340000001
 20
-343.05407600000001
 11
2564.7539029999998
 21
-302.524832
  0
LINE
  8
_0-4_文字-記号
  6
CONTINUOUS
 62
    7
 10
2564.7539029999998
 20
-302.524832
 11
2609.7968550000001
 21
-302.524832
  0
TEXT
  8
_0-4_文字-記号
 62
    7
 10
2573.140328
 20
-301.56705599999998
 40
6.2055999999999996
 41
1.1500000000000001
 50
0
  1
捨板貼り
  0
LINE
  8
_0-3_躯体と製品
  6
CONTINUOUS
 62
    4
 10
2739.5216890000002
 20
-353.05407600000001
 11
2938.744964
 21
-353.05407600000001
  0
LINE
  8
_0-3_躯体と製品
  6
CONTINUOUS
 62
    4
 10
2739.5216890000002
 20
-320.05407600000001
 11
2938.744964
 21
-320.05407600000001
  0
LINE
  8
_0-3_躯体と製品
  6
CONTINUOUS
 62
    3
 10
2739.5216890000002
 20
-343.05407600000001
 11
2938.744964
 21
-343.05407600000001
  0
LINE
  8
_0-3_躯体と製品
  6
CONTINUOUS
 62
    3
 10
2739.5216890000002
 20
-348.05407600000001
 11
2938.744964
 21
-348.05407600000001
  0
LINE
  8
_0-3_躯体と製品
  6
CONTINUOUS
 62
    4
 10
2739.5216890000002
 20
-338.05407600000001
 11
2938.744964
 21
-338.05407600000001
  0
TEXT
  8
_0-4_文字-記号
 62
    7
 10
2760.4479270000002
 20
-416.08253500000001
 40
6.3832000000000004
 41
1.1499999999999999
 50
0
  1
調整ボルト Ｍ１０
  0
LINE
  8
_0-4_文字-記号
  6
CONTINUOUS
 62
    7
 10
2759.303214
 20
-417.73912100000001
 11
2829.1883469999998
 21
-417.73912100000001
  0
LINE
  8
_0-4_文字-記号
  6
CONTINUOUS
 62
    7
 10
2829.1883469999998
 20
-417.73912100000001
 11
2834.1333260000001
 21
-426.30407600000001
  0
LINE
  8
_0-3_躯体と製品
  6
CONTINUOUS
 62
    3
 10
2655.8425689999999
 20
-443.05407500000001
 11
2631.0507790000001
 21
-467.845865
  0
LINE
  8
_0-3_躯体と製品
  6
CONTINUOUS
 62
    3
 10
2627.554435
 20
-443.05407500000001
 11
2602.7626449999998
 21
-467.845865
  0
LINE
  8
_0-3_躯体と製品
  6
CONTINUOUS
 62
    3
 10
2641.6985009999999
 20
-443.05407500000001
 11
2616.9067110000001
 21
-467.845865
  0
LINE
  8
_0-3_躯体と製品
  6
CONTINUOUS
 62
    3
 10
2929.415164
 20
-443.05407600000001
 11
2904.6233739999998
 21
-467.845866
  0
LINE
  8
_0-3_躯体と製品
  6
CONTINUOUS
 62
    3
 10
2901.1270300000001
 20
-443.05407600000001
 11
2876.3352399999999
 21
-467.845866
  0
LINE
  8
_0-3_躯体と製品
  6
CONTINUOUS
 62
    3
 10
2915.2710959999999
 20
-443.05407600000001
 11
2890.4793060000002
 21
-467.845866
  0
LINE
  8
_0-3_躯体と製品
  6
CONTINUOUS
 62
    3
 10
2404.686905
 20
-443.05407500000001
 11
2379.8951149999998
 21
-467.845865
  0
LINE
  8
_0-3_躯体と製品
  6
CONTINUOUS
 62
    3
 10
2432.9750389999999
 20
-443.05407500000001
 11
2408.1832490000002
 21
-467.845865
  0
LINE
  8
_0-3_躯体と製品
  6
CONTINUOUS
 62
    3
 10
2418.8309730000001
 20
-443.05407500000001
 11
2394.0391810000001
 21
-467.845865
  0
LINE
  8
_0-2_寸法
  6
CONTINUOUS
 62
    4
 10
2979.9768450000001
 20
-443.05407600000001
 11
2979.9768450000001
 21
-353.05407600000001
  0
TEXT
  8
_0-2_寸法
 62
    4
 10
2977.9355949999999
 20
-400.15845100000001
 40
8.4175000000000004
 41
1
 50
90
  1
h
  0
LINE
  8
_0-2_寸法
  6
CONTINUOUS
 62
    4
 10
2940.744964
 20
-443.05407600000001
 11
2979.9768450000001
 21
-443.05407600000001
  0
LINE
  8
_0-2_寸法
  6
CONTINUOUS
 62
    4
 10
2938.744964
 20
-353.05407600000001
 11
2979.9768450000001
 21
-353.05407600000001
  0
POINT
  8
_0-2_寸法
 62
    4
 10
2979.9768450000001
 20
-443.05407600000001
  0
POINT
  8
_0-2_寸法
 62
    4
 10
2979.9768450000001
 20
-353.05407600000001
  0
TEXT
  8
_0-4_文字-記号
 62
    3
 10
2439.3124360000002
 20
-237.812792
 40
13
 41
1.1500000000000001
 50
0
  1
【ネダ・シングル】
  0
ENDBLK
  0
ENDSEC
  0
SECTION
  2
ENTITIES
  0
INSERT
  2
-000-Viewport-1
  8
_0-0_
 10
-2224.6771699999999
 20
628.33048699999995
 41
1
 42
1
 50
0
  0
ENDSEC
  0
EOF
