  0
SECTION
  2
HEADER
  9
$ACADVER
  1
AC1009
  9
$INSBASE
 10
0
 20
0
 30
0
  9
$EXTMIN
 10
0
 20
0
  9
$EXTMAX
 10
841
 20
594
  9
$LIMMIN
 10
0
 20
0
  9
$LIMMAX
 10
841
 20
594
  9
$LTSCALE
 40
1
  0
ENDSEC
  0
SECTION
  2
TABLES
  0
TABLE
  2
LTYPE
 70
     9
  0
LTYPE
  2
CONTINUOUS
 70
    64
  3
実線
 72
    65
 73
     0
 40
0.0
  0
LTYPE
  2
DASHED1
 70
    64
  3
--  --  --  --  --  --  --  --  
 72
    65
 73
     2
 40
2.5
 49
1.25
 49
-1.25
  0
LTYPE
  2
DASHED2
 70
    64
  3
----    ----    ----    ----    
 72
    65
 73
     2
 40
5.0
 49
2.5
 49
-2.5
  0
LTYPE
  2
DASHED3
 70
    64
  3
------  ------  ------  ------  
 72
    65
 73
     2
 40
5.0
 49
3.75
 49
-1.25
  0
LTYPE
  2
CENTER1
 70
    64
  3
----- - ----- - ----- - ----- - 
 72
    65
 73
     4
 40
10.0
 49
6.25
 49
-1.25
 49
1.25
 49
-1.25
  0
LTYPE
  2
CENTER2
 70
    64
  3
----------  --  ----------  --  
 72
    65
 73
     4
 40
20.0
 49
12.5
 49
-2.5
 49
2.5
 49
-2.5
  0
LTYPE
  2
PHANTOM1
 70
    64
  3
--- - - --- - - --- - - --- - - 
 72
    65
 73
     6
 40
10.0
 49
3.25
 49
-1.25
 49
1.25
 49
-1.25
 49
1.25
 49
-1.25
  0
LTYPE
  2
PHANTOM2
 70
    64
  3
--------  -  -  --------  -  -  
 72
    65
 73
     6
 40
20.0
 49
10.0
 49
-2.5
 49
1.25
 49
-2.5
 49
1.25
 49
-2.5
  0
LTYPE
  2
DOT
 70
    64
  3
-   -   -   -   -   -   -   -   
 72
    65
 73
     2
 40
2.5
 49
0.625
 49
-1.875
  0
LTYPE
  2
DUMMY
 70
    64
  3
ダミー
 72
    65
 73
     0
 40
0.0
  0
LTYPE
  2
RAND1
 70
    64
  3
ランダム線1
 72
    65
 73
     4
 40
10.0
 49
1.0
 49
-2.0
 49
3.0
 49
-4.0
  0
LTYPE
  2
RAND2
 70
    64
  3
ランダム線2
 72
    65
 73
     4
 40
14.0
 49
2.0
 49
-3.0
 49
4.0
 49
-5.0
  0
LTYPE
  2
RAND3
 70
    64
  3
ランダム線3
 72
    65
 73
     4
 40
18.0
 49
3.0
 49
-4.0
 49
5.0
 49
-6.0
  0
LTYPE
  2
RAND4
 70
    64
  3
ランダム線4
 72
    65
 73
     4
 40
22.0
 49
4.0
 49
-5.0
 49
6.0
 49
-7.0
  0
LTYPE
  2
RAND5
 70
    64
  3
ランダム線5
 72
    65
 73
     4
 40
26.0
 49
5.0
 49
-6.0
 49
7.0
 49
-8.0
  0
LTYPE
  2
LONG1
 70
    64
  3
----------  --  ----------  --  
 72
    65
 73
     4
 40
40.0
 49
32.5
 49
-2.5
 49
2.5
 49
-2.5
  0
LTYPE
  2
LONG2
 70
    64
  3
--------  -  -  --------  -  -  
 72
    65
 73
     6
 40
40.0
 49
30.0
 49
-2.5
 49
1.25
 49
-2.5
 49
1.25
 49
-2.5
  0
LTYPE
  2
LONG3
 70
    64
  3
+++++++++++++++..+++++++++++++++
 72
    65
 73
     2
 40
40.0
 49
37.5
 49
-2.5
  0
LTYPE
  2
LONG4
 70
    64
  3
+++++++++++++++..+++++++++++++++
 72
    65
 73
     2
 40
80.0
 49
75.0
 49
-5.0
  0
LTYPE
  2
LONG5
 70
    64
  3
----------  --  ----------  --  
 72
    65
 73
     4
 40
60.0
 49
37.5
 49
-7.5
 49
7.5
 49
-7.5
  0
LTYPE
  2
dashed
 70
   64
  3
-------   -------------   ------
 72
   65
 73
    2
 40
7.5
 49
6
 49
-1.5
  0
LTYPE
  2
dashed_spaced
 70
   64
  3
----        --------        ----
 72
   65
 73
    2
 40
12
 49
6
 49
-6
  0
LTYPE
  2
long_dashed_dotted
 70
   64
  3
------------- --- --------------
 72
   65
 73
    4
 40
15.25
 49
12
 49
-1.5
 49
0.25
 49
-1.5
  0
LTYPE
  2
long_dashed_double-dotted
 70
   64
  3
----------- --- --- ------------
 72
   65
 73
    6
 40
17
 49
12
 49
-1.5
 49
0.25
 49
-1.5
 49
0.25
 49
-1.5
  0
LTYPE
  2
long_dashed_triplicate-dotted
 70
   64
  3
--------- --- --- --- ----------
 72
   65
 73
    8
 40
18.75
 49
12
 49
-1.5
 49
0.25
 49
-1.5
 49
0.25
 49
-1.5
 49
0.25
 49
-1.5
  0
LTYPE
  2
dotted
 70
   64
  3
   -       -       -       -    
 72
   65
 73
    2
 40
1.75
 49
0.25
 49
-1.5
  0
LTYPE
  2
chain
 70
   64
  3
-------------- -- --------------
 72
   65
 73
    4
 40
18.5
 49
12
 49
-1.5
 49
3.5
 49
-1.5
  0
LTYPE
  2
chain_double_dash
 70
   64
  3
------------ -- -- -------------
 72
   65
 73
    6
 40
23.5
 49
12
 49
-1.5
 49
3.5
 49
-1.5
 49
3.5
 49
-1.5
  0
LTYPE
  2
dashed_dotted
 70
   64
  3
-----------     -     ----------
 72
   65
 73
    4
 40
9.25
 49
6
 49
-1.5
 49
0.25
 49
-1.5
  0
LTYPE
  2
double-dashed_dotted
 70
   64
  3
------   -----------   -   -----
 72
   65
 73
    6
 40
16.75
 49
6
 49
-1.5
 49
6
 49
-1.5
 49
0.25
 49
-1.5
  0
LTYPE
  2
dashed_double-dotted
 70
   64
  3
---------    -    -    ---------
 72
   65
 73
    6
 40
11
 49
6
 49
-1.5
 49
0.25
 49
-1.5
 49
0.25
 49
-1.5
  0
LTYPE
  2
double-dashed_double-dotted
 70
   64
  3
-----   ---------   -   -   ----
 72
   65
 73
    8
 40
18.5
 49
6
 49
-1.5
 49
6
 49
-1.5
 49
0.25
 49
-1.5
 49
0.25
 49
-1.5
  0
LTYPE
  2
dashed_triplicate-dotted
 70
   64
  3
-------    -    -    -    ------
 72
   65
 73
    8
 40
12.75
 49
6
 49
-1.5
 49
0.25
 49
-1.5
 49
0.25
 49
-1.5
 49
0.25
 49
-1.5
  0
LTYPE
  2
double-dashed_triplicate-dotted
 70
   64
  3
-----  ---------  -  -  -  -----
 72
   65
 73
   10
 40
20.25
 49
6
 49
-1.5
 49
6
 49
-1.5
 49
0.25
 49
-1.5
 49
0.25
 49
-1.5
 49
0.25
 49
-1.5
  0
LTYPE
  2
undefined
 70
   64
  3
--------------------------------
 72
   65
 73
    0
 40
0
  0
LTYPE
  2
CENTER1_17
 70
   64
  3
----------    ----    ----------
 72
   65
 73
    4
 40
30
 49
18.75
 49
-3.75
 49
3.75
 49
-3.75
  0
LTYPE
  2
_
 70
   64
  3
                                
 72
   65
 73
    0
 40
0
  0
LTYPE
  2
__19
 70
   64
  3
                                
 72
   65
 73
    0
 40
0
  0
LTYPE
  2
__20
 70
   64
  3
                                
 72
   65
 73
    0
 40
0
  0
LTYPE
  2
__21
 70
   64
  3
                                
 72
   65
 73
    0
 40
0
  0
LTYPE
  2
__22
 70
   64
  3
                                
 72
   65
 73
    0
 40
0
  0
LTYPE
  2
__23
 70
   64
  3
                                
 72
   65
 73
    0
 40
0
  0
LTYPE
  2
__24
 70
   64
  3
                                
 72
   65
 73
    0
 40
0
  0
LTYPE
  2
__25
 70
   64
  3
                                
 72
   65
 73
    0
 40
0
  0
LTYPE
  2
__26
 70
   64
  3
                                
 72
   65
 73
    0
 40
0
  0
LTYPE
  2
__27
 70
   64
  3
                                
 72
   65
 73
    0
 40
0
  0
LTYPE
  2
__28
 70
   64
  3
                                
 72
   65
 73
    0
 40
0
  0
LTYPE
  2
__29
 70
   64
  3
                                
 72
   65
 73
    0
 40
0
  0
LTYPE
  2
__30
 70
   64
  3
                                
 72
   65
 73
    0
 40
0
  0
LTYPE
  2
__31
 70
   64
  3
                                
 72
   65
 73
    0
 40
0
  0
LTYPE
  2
__32
 70
   64
  3
                                
 72
   65
 73
    0
 40
0
  0
ENDTAB
  0
TABLE
  2
STYLE
  5
3
100
AcDbSymbolTable
 70
     1
  0
STYLE
  5
10
100
AcDbSymbolTableRecord
100
AcDbTextStyleTableRecord
  2
STANDARD
 70
     0
 40
0.0
 41
1.0
 50
0.0
 71
     0
 42
0.2
  3
txt
  4
bigfont.shx
  0
STYLE
  5
26
100
AcDbSymbolTableRecord
100
AcDbTextStyleTableRecord
  2
TATEGAKI
 70
    68
 40
0.0
 41
1.0
 50
0.0
 71
     0
 42
1.0
  3
txt
  4
bigfont.shx
  0
ENDTAB
  0
TABLE
  2
LAYER
 70
    6
  0
LAYER
  2
_0-1_0
 70
   64
 62
    7
  6
CONTINUOUS
  0
LAYER
  2
_0-2_寸法
 70
   64
 62
    7
  6
CONTINUOUS
  0
LAYER
  2
_0-3_躯体と製品
 70
   64
 62
    7
  6
CONTINUOUS
  0
LAYER
  2
_0-4_文字-記号
 70
   64
 62
    7
  6
CONTINUOUS
  0
LAYER
  2
_0-5_中心線
 70
   64
 62
    7
  6
CONTINUOUS
  0
LAYER
  2
ADD_LINE
 70
   64
 62
    7
  6
CONTINUOUS
  0
ENDTAB
  0
ENDSEC
  0
SECTION
  2
BLOCKS
  0
BLOCK
  2
-000-Viewport-1
 70
   64
 10
0
 20
0
 30
0
  0
TEXT
  8
_0-4_文字-記号
 62
    3
 10
1440.628757
 20
-246.07528099999999
 40
13
 41
1.1500000000000001
 50
0
  1
ｈ=66mm～135mm
  0
TEXT
  8
_0-4_文字-記号
 62
    3
 10
1068.5144600000001
 20
-224.44717399999999
 40
13
 41
1.1499999999999999
 50
0
  1
■スリーベース９０１-Ｕ型（軽体育室・幼稚園等 低床用：埋め込みタイプ）
  0
LINE
  8
_0-3_躯体と製品
  6
CONTINUOUS
 62
    4
 10
1440.8837659999999
 20
-451.31656500000003
 11
1640.107041
 21
-451.31656500000003
  0
LINE
  8
_0-3_躯体と製品
  6
CONTINUOUS
 62
    4
 10
1074.920429
 20
-451.31656099999998
 11
1369.141433
 21
-451.31656500000003
  0
LINE
  8
_0-1_0
  6
CONTINUOUS
 62
    4
 10
1203.030931
 20
-385.61656499999998
 11
1241.030931
 21
-385.61656499999998
  0
LINE
  8
_0-1_0
  6
CONTINUOUS
 62
    4
 10
1241.030931
 20
-385.61656499999998
 11
1241.030931
 21
-392.31656500000003
  0
LINE
  8
_0-1_0
  6
CONTINUOUS
 62
    4
 10
1241.030931
 20
-392.31656500000003
 11
1203.030931
 21
-392.31656500000003
  0
LINE
  8
_0-1_0
  6
CONTINUOUS
 62
    4
 10
1203.030931
 20
-392.31656500000003
 11
1203.030931
 21
-385.61656499999998
  0
LINE
  8
_0-1_0
  6
CONTINUOUS
 62
    4
 10
1197.030931
 20
-412.31656500000003
 11
1247.030931
 21
-412.31656500000003
  0
LINE
  8
_0-1_0
  6
CONTINUOUS
 62
    4
 10
1197.530931
 20
-410.01656500000001
 11
1246.530931
 21
-410.01656500000001
  0
LINE
  8
_0-1_0
  6
CONTINUOUS
 62
    4
 10
1182.030931
 20
-392.31656500000003
 11
1262.030931
 21
-392.31656500000003
  0
LINE
  8
_0-1_0
  6
CONTINUOUS
 62
    4
 10
1182.030931
 20
-393.81656500000003
 11
1262.030931
 21
-393.81656500000003
  0
LINE
  8
_0-3_躯体と製品
  6
CONTINUOUS
 62
    4
 10
1203.030931
 20
-390.31656500000003
 11
1074.920429
 21
-390.31656500000003
  0
LINE
  8
_0-3_躯体と製品
  6
CONTINUOUS
 62
    3
 10
1203.030931
 20
-387.61656499999998
 11
1074.920429
 21
-387.61656499999998
  0
LINE
  8
_0-1_0
  6
CONTINUOUS
 62
    4
 10
1182.030931
 20
-393.81656500000003
 11
1182.030931
 21
-392.31656500000003
  0
ARC
  8
_0-1_0
  6
CONTINUOUS
 62
    4
 10
1197.530931
 20
-410.51656500000001
 40
0.5
 50
90.000002999880479
 51
180.00000599976096
  0
LINE
  8
_0-1_0
  6
CONTINUOUS
 62
    4
 10
1197.030931
 20
-410.51656500000001
 11
1197.030931
 21
-412.31656500000003
  0
ARC
  8
_0-1_0
  6
CONTINUOUS
 62
    4
 10
1197.530931
 20
-409.51656500000001
 40
0.5
 50
269.99999700012
 51
0
  0
LINE
  8
_0-1_0
  6
CONTINUOUS
 62
    4
 10
1198.030931
 20
-393.81656500000003
 11
1198.030931
 21
-409.51656500000001
  0
LINE
  8
_0-1_0
  6
CONTINUOUS
 62
    4
 10
1222.030931
 20
-414.81656500000003
 11
1224.530931
 21
-412.31656500000003
  0
LINE
  8
_0-1_0
  6
CONTINUOUS
 62
    4
 10
1219.530931
 20
-414.81656500000003
 11
1222.030931
 21
-412.31656500000003
  0
LINE
  8
_0-1_0
  6
CONTINUOUS
 62
    4
 10
1232.030931
 20
-421.281565
 11
1232.030931
 21
-412.31656500000003
  0
LINE
  8
_0-1_0
  6
CONTINUOUS
 62
    4
 10
1212.030931
 20
-421.281565
 11
1212.030931
 21
-412.31656500000003
  0
LINE
  8
_0-5_中心線
  6
CENTER1_17
 62
    7
 10
1222.030931
 20
-377.09648399999998
 11
1222.030931
 21
-488.21756299999998
  0
LINE
  8
_0-3_躯体と製品
  6
CONTINUOUS
 62
    3
 10
1226.030931
 20
-422.81656500000003
 11
1226.030931
 21
-447.31656299999997
  0
LINE
  8
_0-3_躯体と製品
  6
CONTINUOUS
 62
    3
 10
1218.030931
 20
-422.81656500000003
 11
1218.030931
 21
-447.31656299999997
  0
LINE
  8
_0-1_0
  6
CONTINUOUS
 62
    4
 10
1217.030931
 20
-422.81656500000003
 11
1217.030931
 21
-447.31656299999997
  0
LINE
  8
_0-1_0
  6
CONTINUOUS
 62
    4
 10
1227.030931
 20
-422.81656500000003
 11
1227.030931
 21
-447.31656299999997
  0
LINE
  8
_0-1_0
  6
CONTINUOUS
 62
    4
 10
1232.030931
 20
-414.81656500000003
 11
1212.030931
 21
-414.81656500000003
  0
LINE
  8
_0-1_0
  6
CONTINUOUS
 62
    4
 10
1222.030931
 20
-414.81656500000003
 11
1229.530931
 21
-414.81656500000003
  0
ARC
  8
_0-1_0
  6
CONTINUOUS
 62
    4
 10
1222.030931
 20
-413.906565
 40
8.9100000000000001
 50
235.864056000327
 51
304.13593800000899
  0
LINE
  8
_0-1_0
  6
CONTINUOUS
 62
    4
 10
1222.030931
 20
-422.81656500000003
 11
1229.4979310000001
 21
-422.81656500000003
  0
LINE
  8
_0-1_0
  6
CONTINUOUS
 62
    4
 10
1222.2309310000001
 20
-414.81656500000003
 11
1214.530931
 21
-414.81656500000003
  0
LINE
  8
_0-1_0
  6
CONTINUOUS
 62
    4
 10
1222.030931
 20
-422.81656500000003
 11
1214.3639310000001
 21
-422.81656500000003
  0
ARC
  8
_0-1_0
  6
CONTINUOUS
 62
    4
 10
1214.530931
 20
-420.02156500000001
 40
2.7999999999999998
 50
206.74809900005999
 51
333.25189499999198
  0
LINE
  8
_0-1_0
  6
CONTINUOUS
 62
    4
 10
1217.030931
 20
-421.281565
 11
1217.030931
 21
-414.81656500000003
  0
ARC
  8
_0-1_0
  6
CONTINUOUS
 62
    4
 10
1229.530931
 20
-420.02156500000001
 40
2.7999999999999998
 50
206.74809900005999
 51
333.25189499999198
  0
LINE
  8
_0-1_0
  6
CONTINUOUS
 62
    4
 10
1227.030931
 20
-421.281565
 11
1227.030931
 21
-414.81656500000003
  0
LINE
  8
_0-3_躯体と製品
  6
CONTINUOUS
 62
    4
 10
1369.141433
 20
-390.31656500000003
 11
1241.030931
 21
-390.31656500000003
  0
LINE
  8
_0-3_躯体と製品
  6
CONTINUOUS
 62
    3
 10
1241.030931
 20
-387.61656499999998
 11
1369.141433
 21
-387.61656499999998
  0
LINE
  8
_0-1_0
  6
CONTINUOUS
 62
    4
 10
1232.030931
 20
-412.31656500000003
 11
1212.030931
 21
-412.31656500000003
  0
ARC
  8
_0-1_0
  6
CONTINUOUS
 62
    4
 10
1246.530931
 20
-410.51656500000001
 40
0.5
 50
0
 51
90.000002999880479
  0
LINE
  8
_0-1_0
  6
CONTINUOUS
 62
    4
 10
1247.030931
 20
-410.51656500000001
 11
1247.030931
 21
-412.31656500000003
  0
ARC
  8
_0-1_0
  6
CONTINUOUS
 62
    4
 10
1246.530931
 20
-409.51656500000001
 40
0.5
 50
180.00000599976096
 51
269.99999700012
  0
LINE
  8
_0-1_0
  6
CONTINUOUS
 62
    4
 10
1246.030931
 20
-393.81656500000003
 11
1246.030931
 21
-409.51656500000001
  0
LINE
  8
_0-1_0
  6
CONTINUOUS
 62
    4
 10
1262.030931
 20
-393.81656500000003
 11
1262.030931
 21
-392.31656500000003
  0
LINE
  8
_0-3_躯体と製品
  6
CONTINUOUS
 62
    4
 10
1530.495404
 20
-421.281565
 11
1530.495404
 21
-412.31656500000003
  0
LINE
  8
_0-3_躯体と製品
  6
CONTINUOUS
 62
    4
 10
1550.495404
 20
-421.281565
 11
1550.495404
 21
-412.31656500000003
  0
LINE
  8
_0-3_躯体と製品
  6
CONTINUOUS
 62
    4
 10
1537.995404
 20
-414.81656500000003
 11
1540.495404
 21
-412.31656500000003
  0
LINE
  8
_0-3_躯体と製品
  6
CONTINUOUS
 62
    4
 10
1540.495404
 20
-414.81656500000003
 11
1542.995404
 21
-412.31656500000003
  0
LINE
  8
_0-5_中心線
  6
CENTER1_17
 62
    7
 10
1540.495404
 20
-355.55783100000002
 11
1540.495404
 21
-490.48138699999998
  0
ARC
  8
_0-3_躯体と製品
  6
CONTINUOUS
 62
    4
 10
1540.495404
 20
-413.906565
 40
8.9100000000000001
 50
235.864056000327
 51
304.13593800000899
  0
LINE
  8
_0-3_躯体と製品
  6
CONTINUOUS
 62
    4
 10
1540.495404
 20
-422.81656500000003
 11
1532.8284040000001
 21
-422.81656500000003
  0
LINE
  8
_0-3_躯体と製品
  6
CONTINUOUS
 62
    4
 10
1550.495404
 20
-414.81656500000003
 11
1530.495404
 21
-414.81656500000003
  0
LINE
  8
_0-3_躯体と製品
  6
CONTINUOUS
 62
    4
 10
1540.6954040000001
 20
-414.81656500000003
 11
1532.995404
 21
-414.81656500000003
  0
LINE
  8
_0-3_躯体と製品
  6
CONTINUOUS
 62
    3
 10
1536.495404
 20
-422.81656500000003
 11
1536.495404
 21
-447.31656500000003
  0
LINE
  8
_0-3_躯体と製品
  6
CONTINUOUS
 62
    4
 10
1535.495404
 20
-422.81656500000003
 11
1535.495404
 21
-447.31656500000003
  0
ARC
  8
_0-3_躯体と製品
  6
CONTINUOUS
 62
    4
 10
1532.995404
 20
-420.02156500000001
 40
2.7999999999999998
 50
206.74809900005999
 51
333.25189499999198
  0
LINE
  8
_0-3_躯体と製品
  6
CONTINUOUS
 62
    4
 10
1535.495404
 20
-421.281565
 11
1535.495404
 21
-414.81656500000003
  0
LINE
  8
_0-3_躯体と製品
  6
CONTINUOUS
 62
    4
 10
1545.495404
 20
-422.81656500000003
 11
1545.495404
 21
-447.31656500000003
  0
LINE
  8
_0-3_躯体と製品
  6
CONTINUOUS
 62
    3
 10
1544.495404
 20
-422.81656500000003
 11
1544.495404
 21
-447.31656500000003
  0
LINE
  8
_0-3_躯体と製品
  6
CONTINUOUS
 62
    4
 10
1540.495404
 20
-414.81656500000003
 11
1547.995404
 21
-414.81656500000003
  0
LINE
  8
_0-3_躯体と製品
  6
CONTINUOUS
 62
    4
 10
1540.495404
 20
-422.81656500000003
 11
1547.9624040000001
 21
-422.81656500000003
  0
ARC
  8
_0-3_躯体と製品
  6
CONTINUOUS
 62
    4
 10
1547.995404
 20
-420.02156500000001
 40
2.7999999999999998
 50
206.74809900005999
 51
333.25189499999198
  0
LINE
  8
_0-3_躯体と製品
  6
CONTINUOUS
 62
    4
 10
1545.495404
 20
-421.281565
 11
1545.495404
 21
-414.81656500000003
  0
LINE
  8
_0-3_躯体と製品
  6
CONTINUOUS
 62
    4
 10
1550.495404
 20
-412.31656500000003
 11
1530.6954040000001
 21
-412.31656500000003
  0
LINE
  8
_0-3_躯体と製品
  6
CONTINUOUS
 62
    4
 10
1550.495404
 20
-412.31656500000003
 11
1530.495404
 21
-412.31656500000003
  0
LINE
  8
_0-3_躯体と製品
  6
CONTINUOUS
 62
    4
 10
1525.1934040000001
 20
-361.31656500000003
 11
1555.7994040000001
 21
-361.31656500000003
  0
LINE
  8
_0-3_躯体と製品
  6
CONTINUOUS
 62
    4
 10
1525.1934040000001
 20
-362.514565
 11
1555.7994040000001
 21
-362.514565
  0
LINE
  8
_0-3_躯体と製品
  6
CONTINUOUS
 62
    4
 10
1545.495404
 20
-378.18856499999998
 11
1535.495404
 21
-378.18856499999998
  0
LINE
  8
_0-3_躯体と製品
  6
CONTINUOUS
 62
    4
 10
1544.495404
 20
-377.18856499999998
 11
1536.495404
 21
-377.18856499999998
  0
LINE
  8
_0-3_躯体と製品
  6
CONTINUOUS
 62
    4
 10
1574.495404
 20
-392.31456500000002
 11
1574.495404
 21
-385.61656499999998
  0
LINE
  8
_0-3_躯体と製品
  6
CONTINUOUS
 62
    4
 10
1574.495404
 20
-385.61656499999998
 11
1569.495404
 21
-385.61656499999998
  0
LINE
  8
_0-3_躯体と製品
  6
CONTINUOUS
 62
    4
 10
1569.495404
 20
-385.61656499999998
 11
1569.495404
 21
-387.61656499999998
  0
LINE
  8
_0-3_躯体と製品
  6
CONTINUOUS
 62
    4
 10
1569.495404
 20
-387.61656499999998
 11
1572.495404
 21
-387.61656499999998
  0
LINE
  8
_0-3_躯体と製品
  6
CONTINUOUS
 62
    4
 10
1572.495404
 20
-387.61656499999998
 11
1572.495404
 21
-390.31656500000003
  0
LINE
  8
_0-3_躯体と製品
  6
CONTINUOUS
 62
    4
 10
1572.495404
 20
-390.31656500000003
 11
1508.495404
 21
-390.31656500000003
  0
LINE
  8
_0-3_躯体と製品
  6
CONTINUOUS
 62
    4
 10
1508.495404
 20
-390.31656500000003
 11
1508.495404
 21
-387.61656499999998
  0
LINE
  8
_0-3_躯体と製品
  6
CONTINUOUS
 62
    4
 10
1508.495404
 20
-387.61656499999998
 11
1511.495404
 21
-387.61656499999998
  0
LINE
  8
_0-3_躯体と製品
  6
CONTINUOUS
 62
    4
 10
1511.495404
 20
-387.61656499999998
 11
1511.495404
 21
-385.61656499999998
  0
LINE
  8
_0-3_躯体と製品
  6
CONTINUOUS
 62
    4
 10
1511.495404
 20
-385.61656499999998
 11
1506.495404
 21
-385.61656499999998
  0
LINE
  8
_0-3_躯体と製品
  6
CONTINUOUS
 62
    4
 10
1506.495404
 20
-385.61656499999998
 11
1506.495404
 21
-392.31656500000003
  0
LINE
  8
_0-3_躯体と製品
  6
CONTINUOUS
 62
    4
 10
1506.495404
 20
-392.31656500000003
 11
1574.495404
 21
-392.31656500000003
  0
LINE
  8
_0-3_躯体と製品
  6
CONTINUOUS
 62
    4
 10
1500.495404
 20
-393.81656500000003
 11
1580.495404
 21
-393.81656500000003
  0
LINE
  8
_0-3_躯体と製品
  6
CONTINUOUS
 62
    4
 10
1500.495404
 20
-392.31656500000003
 11
1580.495404
 21
-392.31656500000003
  0
LINE
  8
_0-3_躯体と製品
  6
CONTINUOUS
 62
    4
 10
1515.995404
 20
-410.01656500000001
 11
1564.995404
 21
-410.01656500000001
  0
LINE
  8
_0-3_躯体と製品
  6
CONTINUOUS
 62
    4
 10
1515.495404
 20
-412.31656500000003
 11
1565.495404
 21
-412.31656500000003
  0
LINE
  8
_0-3_躯体と製品
  6
CONTINUOUS
 62
    4
 10
1522.995404
 20
-363.512565
 11
1522.995404
 21
-388.11856499999999
  0
LINE
  8
_0-3_躯体と製品
  6
CONTINUOUS
 62
    4
 10
1524.1934040000001
 20
-363.512565
 11
1524.1934040000001
 21
-388.11856499999999
  0
LINE
  8
_0-3_躯体と製品
  6
CONTINUOUS
 62
    4
 10
1500.495404
 20
-393.81656500000003
 11
1500.495404
 21
-392.31656500000003
  0
ARC
  8
_0-3_躯体と製品
  6
CONTINUOUS
 62
    4
 10
1510.1954040000001
 20
-388.61656499999998
 40
1.7
 50
180.00000599976096
 51
269.99999700012302
  0
ARC
  8
_0-3_躯体と製品
  6
CONTINUOUS
 62
    4
 10
1521.995404
 20
-388.11856499999999
 40
2.198
 50
269.99999700011898
 51
0
  0
LINE
  8
_0-5_中心線
  6
CENTER1_17
 62
    7
 10
1516.4534040000001
 20
-408.83756499999998
 11
1516.4534040000001
 21
-383.58056499999998
  0
ARC
  8
_0-3_躯体と製品
  6
CONTINUOUS
 62
    4
 10
1515.995404
 20
-409.51656500000001
 40
0.5
 50
269.99999700012
 51
0
  0
LINE
  8
_0-3_躯体と製品
  6
CONTINUOUS
 62
    4
 10
1515.495404
 20
-410.51656500000001
 11
1515.495404
 21
-412.31656500000003
  0
ARC
  8
_0-3_躯体と製品
  6
CONTINUOUS
 62
    4
 10
1515.995404
 20
-410.51656500000001
 40
0.5
 50
90.000002999880479
 51
180.00000599976096
  0
LINE
  8
_0-3_躯体と製品
  6
CONTINUOUS
 62
    4
 10
1516.495404
 20
-393.81656500000003
 11
1516.495404
 21
-409.51656500000001
  0
ARC
  8
_0-3_躯体と製品
  6
CONTINUOUS
 62
    4
 10
1521.995404
 20
-388.11856499999999
 40
1
 50
269.99999700012
 51
0
  0
LINE
  8
_0-3_躯体と製品
  6
CONTINUOUS
 62
    4
 10
1521.995404
 20
-390.31656500000003
 11
1510.1954040000001
 21
-390.31656500000003
  0
LINE
  8
_0-3_躯体と製品
  6
CONTINUOUS
 62
    4
 10
1521.995404
 20
-389.11856499999999
 11
1510.1934040000001
 21
-389.11856499999999
  0
LINE
  8
_0-3_躯体と製品
  6
CONTINUOUS
 62
    4
 10
1517.003404
 20
-386.94356499999998
 11
1516.4534040000001
 21
-386.94356499999998
  0
ARC
  8
_0-3_躯体と製品
  6
CONTINUOUS
 62
    4
 10
1517.0004039999999
 20
-390.906565
 40
4.819
 50
48.111754999867706
 51
96.517442000339514
  0
LINE
  8
_0-3_躯体と製品
  6
CONTINUOUS
 62
    4
 10
1520.218404
 20
-387.31856499999998
 11
1516.4534040000001
 21
-387.31856499999998
  0
LINE
  8
_0-3_躯体と製品
  6
CONTINUOUS
 62
    4
 10
1520.253404
 20
-389.11856499999999
 11
1516.4534040000001
 21
-389.11856499999999
  0
LINE
  8
_0-3_躯体と製品
  6
CONTINUOUS
 62
    4
 10
1512.688404
 20
-387.31856499999998
 11
1516.4534040000001
 21
-387.31856499999998
  0
ARC
  8
_0-3_躯体と製品
  6
CONTINUOUS
 62
    4
 10
1515.9064040000001
 20
-390.906565
 40
4.819
 50
83.482563000374086
 51
131.888251000114
  0
LINE
  8
_0-3_躯体と製品
  6
CONTINUOUS
 62
    4
 10
1512.6534039999999
 20
-389.11856499999999
 11
1516.4534040000001
 21
-389.11856499999999
  0
LINE
  8
_0-3_躯体と製品
  6
CONTINUOUS
 62
    4
 10
1514.353404
 20
-386.66456499999998
 11
1514.803404
 21
-386.52956499999999
  0
LINE
  8
_0-3_躯体と製品
  6
CONTINUOUS
 62
    4
 10
1514.0754039999999
 20
-386.78256499999998
 11
1514.353404
 21
-386.66456499999998
  0
ARC
  8
_0-3_躯体と製品
  6
CONTINUOUS
 62
    4
 10
1513.997404
 20
-386.59856500000001
 40
0.2
 50
206.43686799985599
 51
292.97271899981604
  0
LINE
  8
_0-3_躯体と製品
  6
CONTINUOUS
 62
    4
 10
1513.8184040000001
 20
-386.68756500000001
 11
1513.7684039999999
 21
-386.58756499999998
  0
LINE
  8
_0-3_躯体と製品
  6
CONTINUOUS
 62
    4
 10
1512.688404
 20
-387.31856499999998
 11
1512.4534040000001
 21
-388.46956499999999
  0
ARC
  8
_0-3_躯体と製品
  6
CONTINUOUS
 62
    4
 10
1512.6534039999999
 20
-388.918565
 40
0.2
 50
180.00000599975803
 51
269.99999700014604
  0
LINE
  8
_0-3_躯体と製品
  6
CONTINUOUS
 62
    4
 10
1512.4534040000001
 20
-388.46956499999999
 11
1512.4534040000001
 21
-388.918565
  0
ARC
  8
_0-3_躯体と製品
  6
CONTINUOUS
 62
    4
 10
1515.603404
 20
-386.50156500000003
 40
0.1
 50
0
 51
95.194432000376906
  0
ARC
  8
_0-3_躯体と製品
  6
CONTINUOUS
 62
    4
 10
1515.9034039999999
 20
-386.74356499999999
 40
0.2
 50
180.00000599975803
 51
269.99999700014604
  0
LINE
  8
_0-3_躯体と製品
  6
CONTINUOUS
 62
    4
 10
1514.803404
 20
-386.52956499999999
 11
1515.2804040000001
 21
-386.430565
  0
LINE
  8
_0-3_躯体と製品
  6
CONTINUOUS
 62
    4
 10
1515.2804040000001
 20
-386.430565
 11
1515.5944039999999
 21
-386.40256499999998
  0
LINE
  8
_0-3_躯体と製品
  6
CONTINUOUS
 62
    4
 10
1515.7034040000001
 20
-386.74356499999999
 11
1515.7034040000001
 21
-386.50156500000003
  0
LINE
  8
_0-3_躯体と製品
  6
CONTINUOUS
 62
    4
 10
1515.9034039999999
 20
-386.94356499999998
 11
1516.4534040000001
 21
-386.94356499999998
  0
LINE
  8
_0-3_躯体と製品
  6
CONTINUOUS
 62
    4
 10
1508.495404
 20
-387.61656499999998
 11
1508.495404
 21
-388.61656499999998
  0
LINE
  8
_0-3_躯体と製品
  6
CONTINUOUS
 62
    4
 10
1509.6934040000001
 20
-387.61656499999998
 11
1509.6934040000001
 21
-388.61856499999999
  0
LINE
  8
_0-3_躯体と製品
  6
CONTINUOUS
 62
    4
 10
1509.6934040000001
 20
-387.61656499999998
 11
1508.495404
 21
-387.61656499999998
  0
ARC
  8
_0-3_躯体と製品
  6
CONTINUOUS
 62
    4
 10
1510.1934040000001
 20
-388.61856499999999
 40
0.5
 50
180.00000599976096
 51
269.99999700012
  0
LINE
  8
_0-3_躯体と製品
  6
CONTINUOUS
 62
    4
 10
1520.218404
 20
-387.31856499999998
 11
1520.4534040000001
 21
-388.46956499999999
  0
ARC
  8
_0-3_躯体と製品
  6
CONTINUOUS
 62
    4
 10
1520.253404
 20
-388.918565
 40
0.2
 50
269.99999700014604
 51
0.0000000000000568
  0
LINE
  8
_0-3_躯体と製品
  6
CONTINUOUS
 62
    4
 10
1520.4534040000001
 20
-388.46956499999999
 11
1520.4534040000001
 21
-388.918565
  0
LINE
  8
_0-3_躯体と製品
  6
CONTINUOUS
 62
    4
 10
1519.0884040000001
 20
-386.68756500000001
 11
1519.138404
 21
-386.58756499999998
  0
ARC
  8
_0-3_躯体と製品
  6
CONTINUOUS
 62
    4
 10
1518.909404
 20
-386.59856500000001
 40
0.2
 50
247.02727500012003
 51
333.56312599990304
  0
ARC
  8
_0-3_躯体と製品
  6
CONTINUOUS
 62
    4
 10
1517.303404
 20
-386.50156500000003
 40
0.1
 50
84.805573999870802
 51
180.00000599977403
  0
ARC
  8
_0-3_躯体と製品
  6
CONTINUOUS
 62
    4
 10
1517.003404
 20
-386.74356499999999
 40
0.2
 50
269.99999700014604
 51
0.0000000000000568
  0
LINE
  8
_0-3_躯体と製品
  6
CONTINUOUS
 62
    4
 10
1517.2034040000001
 20
-386.74356499999999
 11
1517.2034040000001
 21
-386.50156500000003
  0
LINE
  8
_0-3_躯体と製品
  6
CONTINUOUS
 62
    4
 10
1518.831404
 20
-386.78256499999998
 11
1518.553404
 21
-386.66456499999998
  0
LINE
  8
_0-3_躯体と製品
  6
CONTINUOUS
 62
    4
 10
1518.553404
 20
-386.66456499999998
 11
1518.103404
 21
-386.52956499999999
  0
LINE
  8
_0-3_躯体と製品
  6
CONTINUOUS
 62
    4
 10
1518.103404
 20
-386.52956499999999
 11
1517.6264040000001
 21
-386.430565
  0
LINE
  8
_0-3_躯体と製品
  6
CONTINUOUS
 62
    4
 10
1517.6264040000001
 20
-386.430565
 11
1517.312404
 21
-386.40256499999998
  0
LINE
  8
_0-3_躯体と製品
  6
CONTINUOUS
 62
    4
 10
1536.495404
 20
-377.18856499999998
 11
1535.495404
 21
-378.18856499999998
  0
LINE
  8
_0-3_躯体と製品
  6
CONTINUOUS
 62
    4
 10
1536.495404
 20
-390.31656500000003
 11
1536.495404
 21
-377.18856499999998
  0
LINE
  8
_0-3_躯体と製品
  6
CONTINUOUS
 62
    4
 10
1535.495404
 20
-378.18856499999998
 11
1535.495404
 21
-390.31656500000003
  0
ARC
  8
_0-3_躯体と製品
  6
CONTINUOUS
 62
    4
 10
1525.1934040000001
 20
-363.512565
 40
1
 50
90.000002999880479
 51
180.00000599976096
  0
ARC
  8
_0-3_躯体と製品
  6
CONTINUOUS
 62
    4
 10
1525.1934040000001
 20
-363.512565
 40
2.198
 50
90.000002999881303
 51
180.00000599976099
  0
LINE
  8
_0-3_躯体と製品
  6
CONTINUOUS
 62
    4
 10
1556.7974039999999
 20
-363.512565
 11
1556.7974039999999
 21
-388.11856499999999
  0
LINE
  8
_0-3_躯体と製品
  6
CONTINUOUS
 62
    4
 10
1557.995404
 20
-363.512565
 11
1557.995404
 21
-388.11856499999999
  0
ARC
  8
_0-3_躯体と製品
  6
CONTINUOUS
 62
    4
 10
1570.795404
 20
-388.61656499999998
 40
1.7
 50
269.99999700012302
 51
0
  0
LINE
  8
_0-3_躯体と製品
  6
CONTINUOUS
 62
    4
 10
1571.2974039999999
 20
-387.61656499999998
 11
1572.495404
 21
-387.61656499999998
  0
ARC
  8
_0-3_躯体と製品
  6
CONTINUOUS
 62
    4
 10
1558.995404
 20
-388.11856499999999
 40
2.198
 50
180.00000599976096
 51
269.99999700011892
  0
LINE
  8
_0-5_中心線
  6
CENTER1_17
 62
    7
 10
1564.5394040000001
 20
-408.83756499999998
 11
1564.5394040000001
 21
-383.58056499999998
  0
ARC
  8
_0-3_躯体と製品
  6
CONTINUOUS
 62
    4
 10
1564.995404
 20
-409.51656500000001
 40
0.5
 50
180.00000599976096
 51
269.99999700012
  0
LINE
  8
_0-3_躯体と製品
  6
CONTINUOUS
 62
    4
 10
1565.495404
 20
-410.51656500000001
 11
1565.495404
 21
-412.31656500000003
  0
ARC
  8
_0-3_躯体と製品
  6
CONTINUOUS
 62
    4
 10
1564.995404
 20
-410.51656500000001
 40
0.5
 50
0
 51
90.000002999880479
  0
LINE
  8
_0-3_躯体と製品
  6
CONTINUOUS
 62
    4
 10
1564.495404
 20
-393.81656500000003
 11
1564.495404
 21
-409.51656500000001
  0
LINE
  8
_0-3_躯体と製品
  6
CONTINUOUS
 62
    4
 10
1544.495404
 20
-377.18856499999998
 11
1545.495404
 21
-378.18856499999998
  0
LINE
  8
_0-3_躯体と製品
  6
CONTINUOUS
 62
    4
 10
1544.495404
 20
-390.31656500000003
 11
1544.495404
 21
-377.18856499999998
  0
LINE
  8
_0-3_躯体と製品
  6
CONTINUOUS
 62
    4
 10
1545.495404
 20
-378.18856499999998
 11
1545.495404
 21
-390.31656500000003
  0
LINE
  8
_0-3_躯体と製品
  6
CONTINUOUS
 62
    4
 10
1570.795404
 20
-390.31656500000003
 11
1558.995404
 21
-390.31656500000003
  0
ARC
  8
_0-3_躯体と製品
  6
CONTINUOUS
 62
    4
 10
1566.995404
 20
-386.59856500000001
 40
0.2
 50
247.02727500012003
 51
333.56312599990304
  0
LINE
  8
_0-3_躯体と製品
  6
CONTINUOUS
 62
    4
 10
1566.917404
 20
-386.78256499999998
 11
1566.639404
 21
-386.66456499999998
  0
LINE
  8
_0-3_躯体と製品
  6
CONTINUOUS
 62
    4
 10
1566.639404
 20
-386.66456499999998
 11
1566.189404
 21
-386.52956499999999
  0
LINE
  8
_0-3_躯体と製品
  6
CONTINUOUS
 62
    4
 10
1568.304404
 20
-387.31856499999998
 11
1568.5394040000001
 21
-388.46956499999999
  0
LINE
  8
_0-3_躯体と製品
  6
CONTINUOUS
 62
    4
 10
1567.1744040000001
 20
-386.68756500000001
 11
1567.224404
 21
-386.58756499999998
  0
ARC
  8
_0-3_躯体と製品
  6
CONTINUOUS
 62
    4
 10
1568.3394040000001
 20
-388.918565
 40
0.2
 50
269.99999700014604
 51
0.0000000000000568
  0
LINE
  8
_0-3_躯体と製品
  6
CONTINUOUS
 62
    4
 10
1568.5394040000001
 20
-388.46956499999999
 11
1568.5394040000001
 21
-388.918565
  0
ARC
  8
_0-3_躯体と製品
  6
CONTINUOUS
 62
    4
 10
1570.7974039999999
 20
-388.61856499999999
 40
0.5
 50
269.99999700012
 51
0
  0
LINE
  8
_0-3_躯体と製品
  6
CONTINUOUS
 62
    4
 10
1571.2974039999999
 20
-387.61656499999998
 11
1571.2974039999999
 21
-388.61856499999999
  0
LINE
  8
_0-3_躯体と製品
  6
CONTINUOUS
 62
    4
 10
1565.7124040000001
 20
-386.430565
 11
1565.398404
 21
-386.40256499999998
  0
LINE
  8
_0-3_躯体と製品
  6
CONTINUOUS
 62
    4
 10
1562.1614039999999
 20
-386.78256499999998
 11
1562.439404
 21
-386.66456499999998
  0
LINE
  8
_0-3_躯体と製品
  6
CONTINUOUS
 62
    4
 10
1562.439404
 20
-386.66456499999998
 11
1562.889404
 21
-386.52956499999999
  0
LINE
  8
_0-3_躯体と製品
  6
CONTINUOUS
 62
    4
 10
1562.889404
 20
-386.52956499999999
 11
1563.3664040000001
 21
-386.430565
  0
LINE
  8
_0-3_躯体と製品
  6
CONTINUOUS
 62
    4
 10
1563.3664040000001
 20
-386.430565
 11
1563.680404
 21
-386.40256499999998
  0
ARC
  8
_0-3_躯体と製品
  6
CONTINUOUS
 62
    4
 10
1563.9924040000001
 20
-390.906565
 40
4.819
 50
83.482563000374086
 51
131.888251000114
  0
ARC
  8
_0-3_躯体と製品
  6
CONTINUOUS
 62
    4
 10
1565.389404
 20
-386.50156500000003
 40
0.1
 50
84.805573999870802
 51
180.00000599977403
  0
ARC
  8
_0-3_躯体と製品
  6
CONTINUOUS
 62
    4
 10
1565.0894040000001
 20
-386.74356499999999
 40
0.2
 50
269.99999700014604
 51
0.0000000000000568
  0
LINE
  8
_0-3_躯体と製品
  6
CONTINUOUS
 62
    4
 10
1565.2894040000001
 20
-386.74356499999999
 11
1565.2894040000001
 21
-386.50156500000003
  0
LINE
  8
_0-3_躯体と製品
  6
CONTINUOUS
 62
    4
 10
1565.0894040000001
 20
-386.94356499999998
 11
1564.5394040000001
 21
-386.94356499999998
  0
LINE
  8
_0-3_躯体と製品
  6
CONTINUOUS
 62
    4
 10
1560.774404
 20
-387.31856499999998
 11
1560.5394040000001
 21
-388.46956499999999
  0
LINE
  8
_0-3_躯体と製品
  6
CONTINUOUS
 62
    4
 10
1561.9044040000001
 20
-386.68756500000001
 11
1561.8544039999999
 21
-386.58756499999998
  0
LINE
  8
_0-3_躯体と製品
  6
CONTINUOUS
 62
    4
 10
1563.7894040000001
 20
-386.74356499999999
 11
1563.7894040000001
 21
-386.50156500000003
  0
LINE
  8
_0-3_躯体と製品
  6
CONTINUOUS
 62
    4
 10
1563.9894039999999
 20
-386.94356499999998
 11
1564.5394040000001
 21
-386.94356499999998
  0
LINE
  8
_0-3_躯体と製品
  6
CONTINUOUS
 62
    4
 10
1560.774404
 20
-387.31856499999998
 11
1564.5394040000001
 21
-387.31856499999998
  0
ARC
  8
_0-3_躯体と製品
  6
CONTINUOUS
 62
    4
 10
1562.083404
 20
-386.59856500000001
 40
0.2
 50
206.43686799985599
 51
292.97271899981604
  0
ARC
  8
_0-3_躯体と製品
  6
CONTINUOUS
 62
    4
 10
1563.689404
 20
-386.50156500000003
 40
0.1
 50
0
 51
95.194432000376906
  0
ARC
  8
_0-3_躯体と製品
  6
CONTINUOUS
 62
    4
 10
1563.9894039999999
 20
-386.74356499999999
 40
0.2
 50
180.00000599975803
 51
269.99999700014604
  0
ARC
  8
_0-3_躯体と製品
  6
CONTINUOUS
 62
    4
 10
1560.7394039999999
 20
-388.918565
 40
0.2
 50
180.00000599975803
 51
269.99999700014604
  0
LINE
  8
_0-3_躯体と製品
  6
CONTINUOUS
 62
    4
 10
1560.7394039999999
 20
-389.11856499999999
 11
1564.5394040000001
 21
-389.11856499999999
  0
ARC
  8
_0-3_躯体と製品
  6
CONTINUOUS
 62
    4
 10
1558.995404
 20
-388.11856499999999
 40
1
 50
180.00000599976096
 51
269.99999700012
  0
LINE
  8
_0-3_躯体と製品
  6
CONTINUOUS
 62
    4
 10
1560.5394040000001
 20
-388.46956499999999
 11
1560.5394040000001
 21
-388.918565
  0
LINE
  8
_0-3_躯体と製品
  6
CONTINUOUS
 62
    4
 10
1570.7974039999999
 20
-389.11856499999999
 11
1558.995404
 21
-389.11856499999999
  0
ARC
  8
_0-3_躯体と製品
  6
CONTINUOUS
 62
    4
 10
1565.0864039999999
 20
-390.906565
 40
4.819
 50
48.111754999867706
 51
96.517442000339514
  0
LINE
  8
_0-3_躯体と製品
  6
CONTINUOUS
 62
    4
 10
1568.304404
 20
-387.31856499999998
 11
1564.5394040000001
 21
-387.31856499999998
  0
LINE
  8
_0-3_躯体と製品
  6
CONTINUOUS
 62
    4
 10
1568.3394040000001
 20
-389.11856499999999
 11
1564.5394040000001
 21
-389.11856499999999
  0
LINE
  8
_0-3_躯体と製品
  6
CONTINUOUS
 62
    4
 10
1566.189404
 20
-386.52956499999999
 11
1565.7124040000001
 21
-386.430565
  0
LINE
  8
_0-3_躯体と製品
  6
CONTINUOUS
 62
    4
 10
1580.495404
 20
-393.81656500000003
 11
1580.495404
 21
-392.31656500000003
  0
LINE
  8
_0-3_躯体と製品
  6
CONTINUOUS
 62
    4
 10
1572.495404
 20
-387.61656499999998
 11
1572.495404
 21
-388.61656499999998
  0
ARC
  8
_0-3_躯体と製品
  6
CONTINUOUS
 62
    4
 10
1555.7994040000001
 20
-363.512565
 40
1
 50
0
 51
90.000002999880479
  0
ARC
  8
_0-3_躯体と製品
  6
CONTINUOUS
 62
    4
 10
1555.7994040000001
 20
-363.512565
 40
2.198
 50
0
 51
90.000002999881303
  0
TEXT
  8
_0-4_文字-記号
 62
    7
 10
1143.345532
 20
-424.34502300000003
 40
6.3832000000000004
 41
1.1499999999999999
 50
0
  1
調整ボルト Ｍ１０
  0
LINE
  8
_0-4_文字-記号
  6
CONTINUOUS
 62
    7
 10
1142.2008189999999
 20
-426.00160799999998
 11
1212.0859519999999
 21
-426.00160799999998
  0
LINE
  8
_0-4_文字-記号
  6
CONTINUOUS
 62
    7
 10
1212.0859519999999
 20
-426.00160799999998
 11
1217.030931
 21
-434.56656400000003
  0
LINE
  8
_0-4_文字-記号
  6
CONTINUOUS
 62
    7
 10
1138.97568
 20
-390.31656500000003
 11
1128.132331
 21
-409.09779700000001
  0
LINE
  8
_0-4_文字-記号
  6
CONTINUOUS
 62
    7
 10
1128.132331
 20
-409.09779700000001
 11
1096.05396
 21
-409.09779700000001
  0
TEXT
  8
_0-4_文字-記号
 62
    7
 10
1100.2343619999999
 20
-407.58086800000001
 40
6.2055999999999996
 41
1.1500000000000001
 50
0
  1
根太鋼
  0
LINE
  8
_0-3_躯体と製品
  6
CONTINUOUS
 62
    3
 10
1359.9263410000001
 20
-341.31660499999998
 11
1359.9263410000001
 21
-346.31656500000003
  0
ARC
  8
_0-3_躯体と製品
  6
CONTINUOUS
 62
    3
 10
1358.926303
 20
-341.31660499999998
 40
1.00004
 50
0
 51
90
  0
LINE
  8
_0-3_躯体と製品
  6
CONTINUOUS
 62
    3
 10
1358.926303
 20
-340.31656500000003
 11
1350.9259870000001
 21
-340.31656500000003
  0
LINE
  8
_0-3_躯体と製品
  6
CONTINUOUS
 62
    3
 10
1359.9263410000001
 20
-333.31652700000001
 11
1359.9263410000001
 21
-328.31656500000003
  0
ARC
  8
_0-3_躯体と製品
  6
CONTINUOUS
 62
    3
 10
1358.926303
 20
-333.31652700000001
 40
1.00004
 50
270
 51
0
  0
LINE
  8
_0-3_躯体と製品
  6
CONTINUOUS
 62
    3
 10
1358.926303
 20
-334.31656500000003
 11
1350.9259870000001
 21
-334.31656500000003
  0
ARC
  8
_0-3_躯体と製品
  6
CONTINUOUS
 62
    3
 10
1350.9259870000001
 20
-335.31660499999998
 40
1.00004
 50
90
 51
180.00000000000301
  0
LINE
  8
_0-3_躯体と製品
  6
CONTINUOUS
 62
    3
 10
1349.9259489999999
 20
-335.31660499999998
 11
1349.9259489999999
 21
-339.31652500000001
  0
ARC
  8
_0-3_躯体と製品
  6
CONTINUOUS
 62
    3
 10
1350.9259870000001
 20
-339.31652500000001
 40
1.00004
 50
179.99999999999696
 51
270
  0
LINE
  8
_0-3_躯体と製品
  6
CONTINUOUS
 62
    3
 10
1089.926336
 20
-341.31660499999998
 11
1089.926336
 21
-346.31656500000003
  0
ARC
  8
_0-3_躯体と製品
  6
CONTINUOUS
 62
    3
 10
1088.9262980000001
 20
-341.31660499999998
 40
1.00004
 50
0
 51
90
  0
LINE
  8
_0-3_躯体と製品
  6
CONTINUOUS
 62
    3
 10
1088.9262980000001
 20
-340.31656500000003
 11
1080.925982
 21
-340.31656500000003
  0
LINE
  8
_0-3_躯体と製品
  6
CONTINUOUS
 62
    3
 10
1089.926336
 20
-333.31652700000001
 11
1089.926336
 21
-328.31656500000003
  0
ARC
  8
_0-3_躯体と製品
  6
CONTINUOUS
 62
    3
 10
1088.9262980000001
 20
-333.31652700000001
 40
1.00004
 50
270
 51
0
  0
LINE
  8
_0-3_躯体と製品
  6
CONTINUOUS
 62
    3
 10
1088.9262980000001
 20
-334.31656500000003
 11
1080.925982
 21
-334.31656500000003
  0
ARC
  8
_0-3_躯体と製品
  6
CONTINUOUS
 62
    3
 10
1080.925982
 20
-335.31660499999998
 40
1.00004
 50
90
 51
180.00000000000301
  0
LINE
  8
_0-3_躯体と製品
  6
CONTINUOUS
 62
    3
 10
1079.9259440000001
 20
-335.31660499999998
 11
1079.9259440000001
 21
-339.31652500000001
  0
ARC
  8
_0-3_躯体と製品
  6
CONTINUOUS
 62
    3
 10
1080.925982
 20
-339.31652500000001
 40
1.00004
 50
179.99999999999696
 51
270
  0
LINE
  8
_0-3_躯体と製品
  6
CONTINUOUS
 62
    3
 10
1179.926336
 20
-341.31660499999998
 11
1179.926336
 21
-346.31656500000003
  0
ARC
  8
_0-3_躯体と製品
  6
CONTINUOUS
 62
    3
 10
1178.9262980000001
 20
-341.31660499999998
 40
1.00004
 50
0
 51
90
  0
LINE
  8
_0-3_躯体と製品
  6
CONTINUOUS
 62
    3
 10
1178.9262980000001
 20
-340.31656500000003
 11
1170.925982
 21
-340.31656500000003
  0
LINE
  8
_0-3_躯体と製品
  6
CONTINUOUS
 62
    3
 10
1179.926336
 20
-333.31652700000001
 11
1179.926336
 21
-328.31656500000003
  0
ARC
  8
_0-3_躯体と製品
  6
CONTINUOUS
 62
    3
 10
1178.9262980000001
 20
-333.31652700000001
 40
1.00004
 50
270
 51
0
  0
LINE
  8
_0-3_躯体と製品
  6
CONTINUOUS
 62
    3
 10
1178.9262980000001
 20
-334.31656500000003
 11
1170.925982
 21
-334.31656500000003
  0
ARC
  8
_0-3_躯体と製品
  6
CONTINUOUS
 62
    3
 10
1170.925982
 20
-335.31660499999998
 40
1.00004
 50
90
 51
180.00000000000301
  0
LINE
  8
_0-3_躯体と製品
  6
CONTINUOUS
 62
    3
 10
1169.9259440000001
 20
-335.31660499999998
 11
1169.9259440000001
 21
-339.31652500000001
  0
ARC
  8
_0-3_躯体と製品
  6
CONTINUOUS
 62
    3
 10
1170.925982
 20
-339.31652500000001
 40
1.00004
 50
179.99999999999696
 51
270
  0
LINE
  8
_0-3_躯体と製品
  6
CONTINUOUS
 62
    4
 10
1074.920429
 20
-361.31656500000003
 11
1369.141433
 21
-361.31656500000003
  0
LINE
  8
_0-3_躯体と製品
  6
CONTINUOUS
 62
    4
 10
1074.920429
 20
-328.31656500000003
 11
1369.141433
 21
-328.31656500000003
  0
LINE
  8
_0-3_躯体と製品
  6
CONTINUOUS
 62
    3
 10
1074.920429
 20
-351.31656500000003
 11
1369.141433
 21
-351.31656500000003
  0
LINE
  8
_0-3_躯体と製品
  6
CONTINUOUS
 62
    3
 10
1074.920429
 20
-356.31656500000003
 11
1369.141433
 21
-356.31656500000003
  0
LINE
  8
_0-3_躯体と製品
  6
CONTINUOUS
 62
    4
 10
1074.920429
 20
-346.31656500000003
 11
1369.141433
 21
-346.31656500000003
  0
LINE
  8
_0-3_躯体と製品
  6
CONTINUOUS
 62
    3
 10
1269.9263410000001
 20
-341.31660499999998
 11
1269.9263410000001
 21
-346.31656500000003
  0
ARC
  8
_0-3_躯体と製品
  6
CONTINUOUS
 62
    3
 10
1268.926303
 20
-341.31660499999998
 40
1.00004
 50
0
 51
90
  0
LINE
  8
_0-3_躯体と製品
  6
CONTINUOUS
 62
    3
 10
1268.926303
 20
-340.31656500000003
 11
1260.9259870000001
 21
-340.31656500000003
  0
LINE
  8
_0-3_躯体と製品
  6
CONTINUOUS
 62
    3
 10
1269.9263410000001
 20
-333.31652700000001
 11
1269.9263410000001
 21
-328.31656500000003
  0
ARC
  8
_0-3_躯体と製品
  6
CONTINUOUS
 62
    3
 10
1268.926303
 20
-333.31652700000001
 40
1.00004
 50
270
 51
0
  0
LINE
  8
_0-3_躯体と製品
  6
CONTINUOUS
 62
    3
 10
1268.926303
 20
-334.31656500000003
 11
1260.9259870000001
 21
-334.31656500000003
  0
ARC
  8
_0-3_躯体と製品
  6
CONTINUOUS
 62
    3
 10
1260.9259870000001
 20
-335.31660499999998
 40
1.00004
 50
90
 51
180.00000000000301
  0
LINE
  8
_0-3_躯体と製品
  6
CONTINUOUS
 62
    3
 10
1259.9259489999999
 20
-335.31660499999998
 11
1259.9259489999999
 21
-339.31652500000001
  0
ARC
  8
_0-3_躯体と製品
  6
CONTINUOUS
 62
    3
 10
1260.9259870000001
 20
-339.31652500000001
 40
1.00004
 50
179.99999999999696
 51
270
  0
LINE
  8
_0-4_文字-記号
  6
CONTINUOUS
 62
    7
 10
1222.030931
 20
-328.31656500000003
 11
1240.8000139999999
 21
-295.80756100000002
  0
LINE
  8
_0-4_文字-記号
  6
CONTINUOUS
 62
    7
 10
1240.8000139999999
 20
-295.80756100000002
 11
1314.8642890000001
 21
-295.80756100000002
  0
TEXT
  8
_0-4_文字-記号
 62
    7
 10
1247.5203329999999
 20
-294.849785
 40
6.2055999999999996
 41
1.1500000000000001
 50
0
  1
フローリング貼り
  0
LINE
  8
_0-4_文字-記号
  6
CONTINUOUS
 62
    7
 10
1242.7164110000001
 20
-351.31656500000003
 11
1266.1159809999999
 21
-310.78732100000002
  0
LINE
  8
_0-4_文字-記号
  6
CONTINUOUS
 62
    7
 10
1266.1159809999999
 20
-310.78732100000002
 11
1311.1589329999999
 21
-310.78732100000002
  0
TEXT
  8
_0-4_文字-記号
 62
    7
 10
1274.502405
 20
-309.829545
 40
6.2055999999999996
 41
1.1500000000000001
 50
0
  1
捨板貼り
  0
LINE
  8
_0-3_躯体と製品
  6
CONTINUOUS
 62
    4
 10
1440.8837659999999
 20
-361.31656500000003
 11
1640.107041
 21
-361.31656500000003
  0
LINE
  8
_0-3_躯体と製品
  6
CONTINUOUS
 62
    4
 10
1440.8837659999999
 20
-328.31656500000003
 11
1640.107041
 21
-328.31656500000003
  0
LINE
  8
_0-3_躯体と製品
  6
CONTINUOUS
 62
    3
 10
1440.8837659999999
 20
-351.31656500000003
 11
1640.107041
 21
-351.31656500000003
  0
LINE
  8
_0-3_躯体と製品
  6
CONTINUOUS
 62
    3
 10
1440.8837659999999
 20
-356.31656500000003
 11
1640.107041
 21
-356.31656500000003
  0
LINE
  8
_0-3_躯体と製品
  6
CONTINUOUS
 62
    4
 10
1440.8837659999999
 20
-346.31656500000003
 11
1640.107041
 21
-346.31656500000003
  0
TEXT
  8
_0-4_文字-記号
 62
    7
 10
1461.8100039999999
 20
-424.34502400000002
 40
6.3832000000000004
 41
1.1499999999999999
 50
0
  1
調整ボルト Ｍ１０
  0
LINE
  8
_0-4_文字-記号
  6
CONTINUOUS
 62
    7
 10
1460.665291
 20
-426.00161000000003
 11
1530.5504249999999
 21
-426.00161000000003
  0
LINE
  8
_0-4_文字-記号
  6
CONTINUOUS
 62
    7
 10
1530.5504249999999
 20
-426.00161000000003
 11
1535.495404
 21
-434.56656500000003
  0
LINE
  8
_0-3_躯体と製品
  6
CONTINUOUS
 62
    3
 10
1357.2046459999999
 20
-451.31656400000003
 11
1332.4128559999999
 21
-476.10835400000002
  0
LINE
  8
_0-3_躯体と製品
  6
CONTINUOUS
 62
    3
 10
1328.916512
 20
-451.31656400000003
 11
1304.124722
 21
-476.10835400000002
  0
LINE
  8
_0-3_躯体と製品
  6
CONTINUOUS
 62
    3
 10
1343.0605780000001
 20
-451.31656400000003
 11
1318.2687880000001
 21
-476.10835400000002
  0
LINE
  8
_0-3_躯体と製品
  6
CONTINUOUS
 62
    3
 10
1630.7772419999999
 20
-451.31656500000003
 11
1605.9854519999999
 21
-476.10835500000002
  0
LINE
  8
_0-3_躯体と製品
  6
CONTINUOUS
 62
    3
 10
1602.489108
 20
-451.31656500000003
 11
1577.697318
 21
-476.10835500000002
  0
LINE
  8
_0-3_躯体と製品
  6
CONTINUOUS
 62
    3
 10
1616.6331740000001
 20
-451.31656500000003
 11
1591.8413840000001
 21
-476.10835500000002
  0
LINE
  8
_0-3_躯体と製品
  6
CONTINUOUS
 62
    3
 10
1106.048982
 20
-451.31656400000003
 11
1081.257192
 21
-476.10835400000002
  0
LINE
  8
_0-3_躯体と製品
  6
CONTINUOUS
 62
    3
 10
1134.3371159999999
 20
-451.31656400000003
 11
1109.5453259999999
 21
-476.10835400000002
  0
LINE
  8
_0-3_躯体と製品
  6
CONTINUOUS
 62
    3
 10
1120.1930500000001
 20
-451.31656400000003
 11
1095.4012580000001
 21
-476.10835400000002
  0
LINE
  8
_0-2_寸法
  6
CONTINUOUS
 62
    4
 10
1681.3389219999999
 20
-451.31656500000003
 11
1681.3389219999999
 21
-361.31656500000003
  0
TEXT
  8
_0-2_寸法
 62
    4
 10
1679.2976719999999
 20
-408.42094000000003
 40
8.4175000000000004
 41
1
 50
90
  1
h
  0
LINE
  8
_0-2_寸法
  6
CONTINUOUS
 62
    4
 10
1642.107041
 20
-451.31656500000003
 11
1681.3389219999999
 21
-451.31656500000003
  0
LINE
  8
_0-2_寸法
  6
CONTINUOUS
 62
    4
 10
1640.107041
 20
-361.31656500000003
 11
1681.3389219999999
 21
-361.31656500000003
  0
POINT
  8
_0-2_寸法
 62
    4
 10
1681.3389219999999
 20
-451.31656500000003
  0
POINT
  8
_0-2_寸法
 62
    4
 10
1681.3389219999999
 20
-361.31656500000003
  0
LINE
  8
_0-1_0
  6
CONTINUOUS
 62
    4
 10
1227.030931
 20
-451.31656299999997
 11
1227.030931
 21
-480.322563
  0
LINE
  8
_0-3_躯体と製品
  6
CONTINUOUS
 62
    3
 10
1226.030931
 20
-451.31656299999997
 11
1226.030931
 21
-481.32156300000003
  0
LINE
  8
_0-1_0
  6
CONTINUOUS
 62
    4
 10
1217.030931
 20
-451.31656299999997
 11
1217.030931
 21
-480.32156300000003
  0
LINE
  8
_0-3_躯体と製品
  6
CONTINUOUS
 62
    3
 10
1218.030931
 20
-451.31656299999997
 11
1218.030931
 21
-481.32156300000003
  0
LINE
  8
_0-1_0
  6
CONTINUOUS
 62
    4
 10
1227.030931
 20
-480.32156300000003
 11
1226.030931
 21
-481.32156300000003
  0
LINE
  8
_0-3_躯体と製品
  6
CONTINUOUS
 62
    3
 10
1217.030931
 20
-480.32156300000003
 11
1227.030931
 21
-480.32156300000003
  0
LINE
  8
_0-1_0
  6
CONTINUOUS
 62
    4
 10
1217.030931
 20
-480.32156300000003
 11
1218.030931
 21
-481.32156300000003
  0
LINE
  8
_0-1_0
  6
CONTINUOUS
 62
    4
 10
1218.030931
 20
-481.32156300000003
 11
1226.030931
 21
-481.32156300000003
  0
LINE
  8
_0-1_0
  6
CONTINUOUS
 62
    4
 10
1222.030931
 20
-449.71656300000001
 11
1247.030931
 21
-449.71656300000001
  0
LINE
  8
_0-1_0
  6
CONTINUOUS
 62
    4
 10
1222.030931
 20
-447.31656299999997
 11
1227.8309340000001
 21
-447.31656299999997
  0
LINE
  8
_0-1_0
  6
CONTINUOUS
 62
    4
 10
1216.2309279999999
 20
-447.31656299999997
 11
1216.2309279999999
 21
-449.71656300000001
  0
LINE
  8
_0-1_0
  6
CONTINUOUS
 62
    4
 10
1222.030931
 20
-447.31656299999997
 11
1216.2309279999999
 21
-447.31656299999997
  0
LINE
  8
_0-1_0
  6
CONTINUOUS
 62
    4
 10
1247.030931
 20
-449.71656300000001
 11
1247.030931
 21
-451.31656299999997
  0
LINE
  8
_0-1_0
  6
CONTINUOUS
 62
    4
 10
1222.030931
 20
-449.71656300000001
 11
1197.030931
 21
-449.71656300000001
  0
LINE
  8
_0-1_0
  6
CONTINUOUS
 62
    4
 10
1227.8309340000001
 20
-447.31656299999997
 11
1227.8309340000001
 21
-449.71656300000001
  0
LINE
  8
_0-1_0
  6
CONTINUOUS
 62
    4
 10
1197.030931
 20
-449.71656300000001
 11
1197.030931
 21
-451.31656299999997
  0
LINE
  8
_0-1_0
  6
CONTINUOUS
 62
    4
 10
1540.495404
 20
-449.716565
 11
1565.495404
 21
-449.716565
  0
LINE
  8
_0-1_0
  6
CONTINUOUS
 62
    4
 10
1540.495404
 20
-447.31656500000003
 11
1546.2954070000001
 21
-447.31656500000003
  0
LINE
  8
_0-1_0
  6
CONTINUOUS
 62
    4
 10
1534.6954009999999
 20
-447.31656500000003
 11
1534.6954009999999
 21
-449.716565
  0
LINE
  8
_0-1_0
  6
CONTINUOUS
 62
    4
 10
1540.495404
 20
-447.31656500000003
 11
1534.6954009999999
 21
-447.31656500000003
  0
LINE
  8
_0-1_0
  6
CONTINUOUS
 62
    4
 10
1565.495404
 20
-449.716565
 11
1565.495404
 21
-451.31656500000003
  0
LINE
  8
_0-1_0
  6
CONTINUOUS
 62
    4
 10
1540.495404
 20
-449.716565
 11
1515.495404
 21
-449.716565
  0
LINE
  8
_0-1_0
  6
CONTINUOUS
 62
    4
 10
1546.2954070000001
 20
-447.31656500000003
 11
1546.2954070000001
 21
-449.716565
  0
LINE
  8
_0-1_0
  6
CONTINUOUS
 62
    4
 10
1515.495404
 20
-449.716565
 11
1515.495404
 21
-451.31656500000003
  0
LINE
  8
_0-3_躯体と製品
  6
CONTINUOUS
 62
    4
 10
1214.030931
 20
-484.31656299999997
 11
1230.030931
 21
-484.31656299999997
  0
LINE
  8
_0-3_躯体と製品
  6
CONTINUOUS
 62
    4
 10
1214.030931
 20
-484.31656299999997
 11
1214.030931
 21
-451.31656299999997
  0
LINE
  8
_0-3_躯体と製品
  6
CONTINUOUS
 62
    4
 10
1230.030931
 20
-484.31656299999997
 11
1230.030931
 21
-451.31656299999997
  0
CIRCLE
  8
_0-3_躯体と製品
  6
CONTINUOUS
 62
    6
 10
1227.498417
 20
-482.73511300000001
 40
0.062502
  0
CIRCLE
  8
_0-3_躯体と製品
  6
CONTINUOUS
 62
    6
 10
1228.3989790000001
 20
-479.80828500000001
 40
0.062502
  0
CIRCLE
  8
_0-3_躯体と製品
  6
CONTINUOUS
 62
    6
 10
1227.498417
 20
-477.464249
 40
0.062502
  0
CIRCLE
  8
_0-3_躯体と製品
  6
CONTINUOUS
 62
    6
 10
1228.2113629999999
 20
-474.16218700000002
 40
0.062502
  0
CIRCLE
  8
_0-3_躯体と製品
  6
CONTINUOUS
 62
    6
 10
1227.3483229999999
 20
-471.12278900000001
 40
0.062502
  0
CIRCLE
  8
_0-3_躯体と製品
  6
CONTINUOUS
 62
    6
 10
1228.305171
 20
-468.04586699999999
 40
0.062502
  0
CIRCLE
  8
_0-3_躯体と製品
  6
CONTINUOUS
 62
    6
 10
1228.0425069999999
 20
-464.78132699999998
 40
0.062502
  0
CIRCLE
  8
_0-3_躯体と製品
  6
CONTINUOUS
 62
    6
 10
1228.061269
 20
-460.93517500000002
 40
0.062502
  0
CIRCLE
  8
_0-3_躯体と製品
  6
CONTINUOUS
 62
    6
 10
1228.4552650000001
 20
-457.35168700000003
 40
0.062502
  0
CIRCLE
  8
_0-3_躯体と製品
  6
CONTINUOUS
 62
    6
 10
1227.5171789999999
 20
-454.83761700000002
 40
0.062502
  0
CIRCLE
  8
_0-3_躯体と製品
  6
CONTINUOUS
 62
    6
 10
1228.4365029999999
 20
-452.54868699999997
 40
0.062502
  0
CIRCLE
  8
_0-3_躯体と製品
  6
CONTINUOUS
 62
    6
 10
1229.116767
 20
-471.00268699999998
 40
0.062502
  0
CIRCLE
  8
_0-3_躯体と製品
  6
CONTINUOUS
 62
    6
 10
1229.0967209999999
 20
-477.29698100000002
 40
0.062502
  0
CIRCLE
  8
_0-3_躯体と製品
  6
CONTINUOUS
 62
    6
 10
1229.5377229999999
 20
-482.74818299999998
 40
0.062502
  0
CIRCLE
  8
_0-3_躯体と製品
  6
CONTINUOUS
 62
    6
 10
1229.517677
 20
-458.09337099999999
 40
0.062502
  0
CIRCLE
  8
_0-3_躯体と製品
  6
CONTINUOUS
 62
    6
 10
1229.758223
 20
-463.72616299999999
 40
0.062502
  0
CIRCLE
  8
_0-3_躯体と製品
  6
CONTINUOUS
 62
    6
 10
1216.123437
 20
-454.687523
 40
0.062502
  0
CIRCLE
  8
_0-3_躯体と製品
  6
CONTINUOUS
 62
    6
 10
1216.236007
 20
-459.077765
 40
0.062502
  0
CIRCLE
  8
_0-3_躯体と製品
  6
CONTINUOUS
 62
    6
 10
1216.1984829999999
 20
-464.931421
 40
0.062502
  0
CIRCLE
  8
_0-3_躯体と製品
  6
CONTINUOUS
 62
    6
 10
1215.8044870000001
 20
-469.321663
 40
0.062502
  0
CIRCLE
  8
_0-3_躯体と製品
  6
CONTINUOUS
 62
    6
 10
1216.1984829999999
 20
-473.74942900000002
 40
0.062502
  0
CIRCLE
  8
_0-3_躯体と製品
  6
CONTINUOUS
 62
    6
 10
1216.1984829999999
 20
-477.40796499999999
 40
0.062502
  0
CIRCLE
  8
_0-3_躯体と製品
  6
CONTINUOUS
 62
    6
 10
1216.123437
 20
-480.76513299999999
 40
0.062502
  0
CIRCLE
  8
_0-3_躯体と製品
  6
CONTINUOUS
 62
    6
 10
1216.2547689999999
 20
-483.56062900000001
 40
0.062502
  0
CIRCLE
  8
_0-3_躯体と製品
  6
CONTINUOUS
 62
    6
 10
1216.7613349999999
 20
-452.49240099999997
 40
0.062502
  0
CIRCLE
  8
_0-3_躯体と製品
  6
CONTINUOUS
 62
    6
 10
1214.6574450000001
 20
-462.14256699999999
 40
0.062502
  0
CIRCLE
  8
_0-3_躯体と製品
  6
CONTINUOUS
 62
    6
 10
1214.6173530000001
 20
-472.28560099999999
 40
0.062502
  0
CIRCLE
  8
_0-3_躯体と製品
  6
CONTINUOUS
 62
    6
 10
1214.4168990000001
 20
-478.49971299999999
 40
0.062502
  0
CIRCLE
  8
_0-3_躯体と製品
  6
CONTINUOUS
 62
    6
 10
1214.356761
 20
-483.38963899999999
 40
0.062502
  0
CIRCLE
  8
_0-3_躯体と製品
  6
CONTINUOUS
 62
    6
 10
1217.7422300000001
 20
-481.96440100000001
 40
0.062502
  0
CIRCLE
  8
_0-3_躯体と製品
  6
CONTINUOUS
 62
    6
 10
1219.7309720000001
 20
-483.85933499999999
 40
0.062502
  0
CIRCLE
  8
_0-3_躯体と製品
  6
CONTINUOUS
 62
    6
 10
1221.5883819999999
 20
-482.07697100000001
 40
0.062502
  0
CIRCLE
  8
_0-3_躯体と製品
  6
CONTINUOUS
 62
    6
 10
1223.3519839999999
 20
-483.95314300000001
 40
0.062502
  0
CIRCLE
  8
_0-3_躯体と製品
  6
CONTINUOUS
 62
    6
 10
1223.6686319999999
 20
-481.94563900000003
 40
0.062502
  0
CIRCLE
  8
_0-3_躯体と製品
  6
CONTINUOUS
 62
    6
 10
1225.788708
 20
-483.01505700000001
 40
0.062502
  0
LINE
  8
_0-1_0
  6
CONTINUOUS
 62
    4
 10
1545.495404
 20
-451.31656500000003
 11
1545.495404
 21
-480.322565
  0
LINE
  8
_0-3_躯体と製品
  6
CONTINUOUS
 62
    3
 10
1544.495404
 20
-451.31656500000003
 11
1544.495404
 21
-481.32156500000002
  0
LINE
  8
_0-1_0
  6
CONTINUOUS
 62
    4
 10
1535.495404
 20
-451.31656500000003
 11
1535.495404
 21
-480.32156500000002
  0
LINE
  8
_0-3_躯体と製品
  6
CONTINUOUS
 62
    3
 10
1536.495404
 20
-451.31656500000003
 11
1536.495404
 21
-481.32156500000002
  0
LINE
  8
_0-1_0
  6
CONTINUOUS
 62
    4
 10
1545.495404
 20
-480.32156500000002
 11
1544.495404
 21
-481.32156500000002
  0
LINE
  8
_0-3_躯体と製品
  6
CONTINUOUS
 62
    3
 10
1535.495404
 20
-480.32156500000002
 11
1545.495404
 21
-480.32156500000002
  0
LINE
  8
_0-1_0
  6
CONTINUOUS
 62
    4
 10
1535.495404
 20
-480.32156500000002
 11
1536.495404
 21
-481.32156500000002
  0
LINE
  8
_0-1_0
  6
CONTINUOUS
 62
    4
 10
1536.495404
 20
-481.32156500000002
 11
1544.495404
 21
-481.32156500000002
  0
LINE
  8
_0-3_躯体と製品
  6
CONTINUOUS
 62
    4
 10
1532.495404
 20
-484.31656500000003
 11
1548.495404
 21
-484.31656500000003
  0
LINE
  8
_0-3_躯体と製品
  6
CONTINUOUS
 62
    4
 10
1532.495404
 20
-484.31656500000003
 11
1532.495404
 21
-451.31656500000003
  0
LINE
  8
_0-3_躯体と製品
  6
CONTINUOUS
 62
    4
 10
1548.495404
 20
-484.31656500000003
 11
1548.495404
 21
-451.31656500000003
  0
CIRCLE
  8
_0-3_躯体と製品
  6
CONTINUOUS
 62
    6
 10
1545.9628889999999
 20
-482.73511500000001
 40
0.062502
  0
CIRCLE
  8
_0-3_躯体と製品
  6
CONTINUOUS
 62
    6
 10
1546.8634509999999
 20
-479.80828700000001
 40
0.062502
  0
CIRCLE
  8
_0-3_躯体と製品
  6
CONTINUOUS
 62
    6
 10
1545.9628889999999
 20
-477.46425099999999
 40
0.062502
  0
CIRCLE
  8
_0-3_躯体と製品
  6
CONTINUOUS
 62
    6
 10
1546.675835
 20
-474.16218900000001
 40
0.062502
  0
CIRCLE
  8
_0-3_躯体と製品
  6
CONTINUOUS
 62
    6
 10
1545.8127950000001
 20
-471.12279100000001
 40
0.062502
  0
CIRCLE
  8
_0-3_躯体と製品
  6
CONTINUOUS
 62
    6
 10
1546.7696430000001
 20
-468.04586899999998
 40
0.062502
  0
CIRCLE
  8
_0-3_躯体と製品
  6
CONTINUOUS
 62
    6
 10
1546.506979
 20
-464.78132900000003
 40
0.062502
  0
CIRCLE
  8
_0-3_躯体と製品
  6
CONTINUOUS
 62
    6
 10
1546.5257409999999
 20
-460.93517700000001
 40
0.062502
  0
CIRCLE
  8
_0-3_躯体と製品
  6
CONTINUOUS
 62
    6
 10
1546.9197369999999
 20
-457.35168900000002
 40
0.062502
  0
CIRCLE
  8
_0-3_躯体と製品
  6
CONTINUOUS
 62
    6
 10
1545.9816510000001
 20
-454.83761900000002
 40
0.062502
  0
CIRCLE
  8
_0-3_躯体と製品
  6
CONTINUOUS
 62
    6
 10
1546.900975
 20
-452.54868900000002
 40
0.062502
  0
CIRCLE
  8
_0-3_躯体と製品
  6
CONTINUOUS
 62
    6
 10
1547.5812390000001
 20
-471.00268899999998
 40
0.062502
  0
CIRCLE
  8
_0-3_躯体と製品
  6
CONTINUOUS
 62
    6
 10
1547.561193
 20
-477.29698300000001
 40
0.062502
  0
CIRCLE
  8
_0-3_躯体と製品
  6
CONTINUOUS
 62
    6
 10
1548.002195
 20
-482.74818499999998
 40
0.062502
  0
CIRCLE
  8
_0-3_躯体と製品
  6
CONTINUOUS
 62
    6
 10
1547.9821489999999
 20
-458.09337299999999
 40
0.062502
  0
CIRCLE
  8
_0-3_躯体と製品
  6
CONTINUOUS
 62
    6
 10
1548.2226949999999
 20
-463.72616499999998
 40
0.062502
  0
CIRCLE
  8
_0-3_躯体と製品
  6
CONTINUOUS
 62
    6
 10
1534.58791
 20
-454.68752499999999
 40
0.062502
  0
CIRCLE
  8
_0-3_躯体と製品
  6
CONTINUOUS
 62
    6
 10
1534.70048
 20
-459.07776699999999
 40
0.062502
  0
CIRCLE
  8
_0-3_躯体と製品
  6
CONTINUOUS
 62
    6
 10
1534.6629559999999
 20
-464.931423
 40
0.062502
  0
CIRCLE
  8
_0-3_躯体と製品
  6
CONTINUOUS
 62
    6
 10
1534.2689600000001
 20
-469.321665
 40
0.062502
  0
CIRCLE
  8
_0-3_躯体と製品
  6
CONTINUOUS
 62
    6
 10
1534.6629559999999
 20
-473.74943100000002
 40
0.062502
  0
CIRCLE
  8
_0-3_躯体と製品
  6
CONTINUOUS
 62
    6
 10
1534.6629559999999
 20
-477.40796699999999
 40
0.062502
  0
CIRCLE
  8
_0-3_躯体と製品
  6
CONTINUOUS
 62
    6
 10
1534.58791
 20
-480.76513499999999
 40
0.062502
  0
CIRCLE
  8
_0-3_躯体と製品
  6
CONTINUOUS
 62
    6
 10
1534.7192419999999
 20
-483.560631
 40
0.062502
  0
CIRCLE
  8
_0-3_躯体と製品
  6
CONTINUOUS
 62
    6
 10
1535.2258079999999
 20
-452.49240300000002
 40
0.062502
  0
CIRCLE
  8
_0-3_躯体と製品
  6
CONTINUOUS
 62
    6
 10
1533.1219180000001
 20
-462.14256899999998
 40
0.062502
  0
CIRCLE
  8
_0-3_躯体と製品
  6
CONTINUOUS
 62
    6
 10
1533.0818260000001
 20
-472.28560299999998
 40
0.062502
  0
CIRCLE
  8
_0-3_躯体と製品
  6
CONTINUOUS
 62
    6
 10
1532.8813720000001
 20
-478.49971499999998
 40
0.062502
  0
CIRCLE
  8
_0-3_躯体と製品
  6
CONTINUOUS
 62
    6
 10
1532.821234
 20
-483.38964099999998
 40
0.062502
  0
CIRCLE
  8
_0-3_躯体と製品
  6
CONTINUOUS
 62
    6
 10
1536.2067030000001
 20
-481.964403
 40
0.062502
  0
CIRCLE
  8
_0-3_躯体と製品
  6
CONTINUOUS
 62
    6
 10
1538.1954450000001
 20
-483.85933699999998
 40
0.062502
  0
CIRCLE
  8
_0-3_躯体と製品
  6
CONTINUOUS
 62
    6
 10
1540.0528549999999
 20
-482.07697300000001
 40
0.062502
  0
CIRCLE
  8
_0-3_躯体と製品
  6
CONTINUOUS
 62
    6
 10
1541.8164569999999
 20
-483.95314500000001
 40
0.062502
  0
CIRCLE
  8
_0-3_躯体と製品
  6
CONTINUOUS
 62
    6
 10
1542.1331049999999
 20
-481.94564100000002
 40
0.062502
  0
CIRCLE
  8
_0-3_躯体と製品
  6
CONTINUOUS
 62
    6
 10
1544.253181
 20
-483.01505900000001
 40
0.062502
  0
LINE
  8
_0-2_寸法
  6
CONTINUOUS
 62
    4
 10
1176.724604
 20
-481.32156300000003
 11
1176.724604
 21
-451.31656299999997
  0
TEXT
  8
_0-2_寸法
 62
    4
 10
1174.683354
 20
-470.52781300000004
 40
8.4175000000000004
 41
1
 50
90
  1
30
  0
LINE
  8
_0-2_寸法
  6
CONTINUOUS
 62
    4
 10
1218.030931
 20
-481.32156300000003
 11
1176.724604
 21
-481.32156300000003
  0
LINE
  8
_0-2_寸法
  6
CONTINUOUS
 62
    4
 10
1214.030931
 20
-451.31656299999997
 11
1176.724604
 21
-451.31656299999997
  0
POINT
  8
_0-2_寸法
 62
    4
 10
1176.724604
 20
-481.32156300000003
  0
POINT
  8
_0-2_寸法
 62
    4
 10
1176.724604
 20
-451.31656299999997
  0
TEXT
  8
_0-4_文字-記号
 62
    3
 10
1140.674514
 20
-246.07528099999999
 40
13
 41
1.1500000000000001
 50
0
  1
【ネダ・シングル】
  0
ENDBLK
  0
ENDSEC
  0
SECTION
  2
ENTITIES
  0
INSERT
  2
-000-Viewport-1
  8
_0-0_
 10
-942.70752799999991
 20
644.66237699999999
 41
1
 42
1
 50
0
  0
ENDSEC
  0
EOF
