  0
SECTION
  2
HEADER
  9
$ACADVER
  1
AC1009
  9
$INSBASE
 10
0
 20
0
 30
0
  9
$EXTMIN
 10
0
 20
0
  9
$EXTMAX
 10
25230
 20
17820
  9
$LIMMIN
 10
0
 20
0
  9
$LIMMAX
 10
25230
 20
17820
  9
$LTSCALE
 40
30
  0
ENDSEC
  0
SECTION
  2
TABLES
  0
TABLE
  2
LTYPE
 70
     9
  0
LTYPE
  2
CONTINUOUS
 70
    64
  3
実線
 72
    65
 73
     0
 40
0.0
  0
LTYPE
  2
DASHED1
 70
    64
  3
--  --  --  --  --  --  --  --  
 72
    65
 73
     2
 40
2.5
 49
1.25
 49
-1.25
  0
LTYPE
  2
DASHED2
 70
    64
  3
----    ----    ----    ----    
 72
    65
 73
     2
 40
5.0
 49
2.5
 49
-2.5
  0
LTYPE
  2
DASHED3
 70
    64
  3
------  ------  ------  ------  
 72
    65
 73
     2
 40
5.0
 49
3.75
 49
-1.25
  0
LTYPE
  2
CENTER1
 70
    64
  3
----- - ----- - ----- - ----- - 
 72
    65
 73
     4
 40
10.0
 49
6.25
 49
-1.25
 49
1.25
 49
-1.25
  0
LTYPE
  2
CENTER2
 70
    64
  3
----------  --  ----------  --  
 72
    65
 73
     4
 40
20.0
 49
12.5
 49
-2.5
 49
2.5
 49
-2.5
  0
LTYPE
  2
PHANTOM1
 70
    64
  3
--- - - --- - - --- - - --- - - 
 72
    65
 73
     6
 40
10.0
 49
3.25
 49
-1.25
 49
1.25
 49
-1.25
 49
1.25
 49
-1.25
  0
LTYPE
  2
PHANTOM2
 70
    64
  3
--------  -  -  --------  -  -  
 72
    65
 73
     6
 40
20.0
 49
10.0
 49
-2.5
 49
1.25
 49
-2.5
 49
1.25
 49
-2.5
  0
LTYPE
  2
DOT
 70
    64
  3
-   -   -   -   -   -   -   -   
 72
    65
 73
     2
 40
2.5
 49
0.625
 49
-1.875
  0
LTYPE
  2
DUMMY
 70
    64
  3
ダミー
 72
    65
 73
     0
 40
0.0
  0
LTYPE
  2
RAND1
 70
    64
  3
ランダム線1
 72
    65
 73
     4
 40
10.0
 49
1.0
 49
-2.0
 49
3.0
 49
-4.0
  0
LTYPE
  2
RAND2
 70
    64
  3
ランダム線2
 72
    65
 73
     4
 40
14.0
 49
2.0
 49
-3.0
 49
4.0
 49
-5.0
  0
LTYPE
  2
RAND3
 70
    64
  3
ランダム線3
 72
    65
 73
     4
 40
18.0
 49
3.0
 49
-4.0
 49
5.0
 49
-6.0
  0
LTYPE
  2
RAND4
 70
    64
  3
ランダム線4
 72
    65
 73
     4
 40
22.0
 49
4.0
 49
-5.0
 49
6.0
 49
-7.0
  0
LTYPE
  2
RAND5
 70
    64
  3
ランダム線5
 72
    65
 73
     4
 40
26.0
 49
5.0
 49
-6.0
 49
7.0
 49
-8.0
  0
LTYPE
  2
LONG1
 70
    64
  3
----------  --  ----------  --  
 72
    65
 73
     4
 40
40.0
 49
32.5
 49
-2.5
 49
2.5
 49
-2.5
  0
LTYPE
  2
LONG2
 70
    64
  3
--------  -  -  --------  -  -  
 72
    65
 73
     6
 40
40.0
 49
30.0
 49
-2.5
 49
1.25
 49
-2.5
 49
1.25
 49
-2.5
  0
LTYPE
  2
LONG3
 70
    64
  3
+++++++++++++++..+++++++++++++++
 72
    65
 73
     2
 40
40.0
 49
37.5
 49
-2.5
  0
LTYPE
  2
LONG4
 70
    64
  3
+++++++++++++++..+++++++++++++++
 72
    65
 73
     2
 40
80.0
 49
75.0
 49
-5.0
  0
LTYPE
  2
LONG5
 70
    64
  3
----------  --  ----------  --  
 72
    65
 73
     4
 40
60.0
 49
37.5
 49
-7.5
 49
7.5
 49
-7.5
  0
LTYPE
  2
dashed
 70
   64
  3
-------   -------------   ------
 72
   65
 73
    2
 40
7.5
 49
6
 49
-1.5
  0
LTYPE
  2
dashed_spaced
 70
   64
  3
----        --------        ----
 72
   65
 73
    2
 40
12
 49
6
 49
-6
  0
LTYPE
  2
long_dashed_dotted
 70
   64
  3
------------- --- --------------
 72
   65
 73
    4
 40
15.25
 49
12
 49
-1.5
 49
0.25
 49
-1.5
  0
LTYPE
  2
long_dashed_double-dotted
 70
   64
  3
----------- --- --- ------------
 72
   65
 73
    6
 40
17
 49
12
 49
-1.5
 49
0.25
 49
-1.5
 49
0.25
 49
-1.5
  0
LTYPE
  2
long_dashed_triplicate-dotted
 70
   64
  3
--------- --- --- --- ----------
 72
   65
 73
    8
 40
18.75
 49
12
 49
-1.5
 49
0.25
 49
-1.5
 49
0.25
 49
-1.5
 49
0.25
 49
-1.5
  0
LTYPE
  2
dotted
 70
   64
  3
   -       -       -       -    
 72
   65
 73
    2
 40
1.75
 49
0.25
 49
-1.5
  0
LTYPE
  2
chain
 70
   64
  3
-------------- -- --------------
 72
   65
 73
    4
 40
18.5
 49
12
 49
-1.5
 49
3.5
 49
-1.5
  0
LTYPE
  2
chain_double_dash
 70
   64
  3
------------ -- -- -------------
 72
   65
 73
    6
 40
23.5
 49
12
 49
-1.5
 49
3.5
 49
-1.5
 49
3.5
 49
-1.5
  0
LTYPE
  2
dashed_dotted
 70
   64
  3
-----------     -     ----------
 72
   65
 73
    4
 40
9.25
 49
6
 49
-1.5
 49
0.25
 49
-1.5
  0
LTYPE
  2
double-dashed_dotted
 70
   64
  3
------   -----------   -   -----
 72
   65
 73
    6
 40
16.75
 49
6
 49
-1.5
 49
6
 49
-1.5
 49
0.25
 49
-1.5
  0
LTYPE
  2
dashed_double-dotted
 70
   64
  3
---------    -    -    ---------
 72
   65
 73
    6
 40
11
 49
6
 49
-1.5
 49
0.25
 49
-1.5
 49
0.25
 49
-1.5
  0
LTYPE
  2
double-dashed_double-dotted
 70
   64
  3
-----   ---------   -   -   ----
 72
   65
 73
    8
 40
18.5
 49
6
 49
-1.5
 49
6
 49
-1.5
 49
0.25
 49
-1.5
 49
0.25
 49
-1.5
  0
LTYPE
  2
dashed_triplicate-dotted
 70
   64
  3
-------    -    -    -    ------
 72
   65
 73
    8
 40
12.75
 49
6
 49
-1.5
 49
0.25
 49
-1.5
 49
0.25
 49
-1.5
 49
0.25
 49
-1.5
  0
LTYPE
  2
double-dashed_triplicate-dotted
 70
   64
  3
-----  ---------  -  -  -  -----
 72
   65
 73
   10
 40
20.25
 49
6
 49
-1.5
 49
6
 49
-1.5
 49
0.25
 49
-1.5
 49
0.25
 49
-1.5
 49
0.25
 49
-1.5
  0
LTYPE
  2
undefined
 70
   64
  3
--------------------------------
 72
   65
 73
    0
 40
0
  0
ENDTAB
  0
TABLE
  2
STYLE
  5
3
100
AcDbSymbolTable
 70
     1
  0
STYLE
  5
10
100
AcDbSymbolTableRecord
100
AcDbTextStyleTableRecord
  2
STANDARD
 70
     0
 40
0.0
 41
1.0
 50
0.0
 71
     0
 42
0.2
  3
txt
  4
bigfont.shx
  0
STYLE
  5
26
100
AcDbSymbolTableRecord
100
AcDbTextStyleTableRecord
  2
TATEGAKI
 70
    68
 40
0.0
 41
1.0
 50
0.0
 71
     0
 42
1.0
  3
txt
  4
bigfont.shx
  0
ENDTAB
  0
TABLE
  2
LAYER
 70
   43
  0
LAYER
  2
_0-0_0
 70
   64
 62
    7
  6
CONTINUOUS
  0
LAYER
  2
_1-0_____
 70
   64
 62
    7
  6
CONTINUOUS
  0
LAYER
  2
_1-1______
 70
   64
 62
    7
  6
CONTINUOUS
  0
LAYER
  2
_1-4______
 70
   64
 62
    7
  6
CONTINUOUS
  0
LAYER
  2
_1-5_寸法
 70
   64
 62
    7
  6
CONTINUOUS
  0
LAYER
  2
_1-6_文字
 70
   64
 62
    7
  6
CONTINUOUS
  0
LAYER
  2
_1-7_躯体
 70
   64
 62
    7
  6
CONTINUOUS
  0
LAYER
  2
_1-8_開口
 70
   64
 62
    7
  6
CONTINUOUS
  0
LAYER
  2
_2-0_____
 70
   64
 62
    7
  6
CONTINUOUS
  0
LAYER
  2
_2-1______
 70
   64
 62
    7
  6
CONTINUOUS
  0
LAYER
  2
_2-2_______
 70
   64
 62
    7
  6
CONTINUOUS
  0
LAYER
  2
_2-3______
 70
   64
 62
    7
  6
CONTINUOUS
  0
LAYER
  2
_2-4______
 70
   64
 62
    7
  6
CONTINUOUS
  0
LAYER
  2
_2-6_文字
 70
   64
 62
    7
  6
CONTINUOUS
  0
LAYER
  2
_2-7_躯体
 70
   64
 62
    7
  6
CONTINUOUS
  0
LAYER
  2
_3-0_____
 70
   64
 62
    7
  6
CONTINUOUS
  0
LAYER
  2
_3-1______
 70
   64
 62
    7
  6
CONTINUOUS
  0
LAYER
  2
_3-3______
 70
   64
 62
    7
  6
CONTINUOUS
  0
LAYER
  2
_3-4______
 70
   64
 62
    7
  6
CONTINUOUS
  0
LAYER
  2
_3-5_寸法
 70
   64
 62
    7
  6
CONTINUOUS
  0
LAYER
  2
_3-6_文字
 70
   64
 62
    7
  6
CONTINUOUS
  0
LAYER
  2
_3-7_躯体
 70
   64
 62
    7
  6
CONTINUOUS
  0
LAYER
  2
_4-1______
 70
   64
 62
    7
  6
CONTINUOUS
  0
LAYER
  2
_4-3______
 70
   64
 62
    7
  6
CONTINUOUS
  0
LAYER
  2
_4-4______
 70
   64
 62
    7
  6
CONTINUOUS
  0
LAYER
  2
_4-5_寸法
 70
   64
 62
    7
  6
CONTINUOUS
  0
LAYER
  2
_4-6_文字
 70
   64
 62
    7
  6
CONTINUOUS
  0
LAYER
  2
_4-7_躯体
 70
   64
 62
    7
  6
CONTINUOUS
  0
LAYER
  2
_4-8_開口
 70
   64
 62
    7
  6
CONTINUOUS
  0
LAYER
  2
_5-0_____
 70
   64
 62
    7
  6
CONTINUOUS
  0
LAYER
  2
_5-1______
 70
   64
 62
    7
  6
CONTINUOUS
  0
LAYER
  2
_5-2_______
 70
   64
 62
    7
  6
CONTINUOUS
  0
LAYER
  2
_5-3______
 70
   64
 62
    7
  6
CONTINUOUS
  0
LAYER
  2
_5-5_寸法
 70
   64
 62
    7
  6
CONTINUOUS
  0
LAYER
  2
_5-6_文字
 70
   64
 62
    7
  6
CONTINUOUS
  0
LAYER
  2
_5-7_躯体
 70
   64
 62
    7
  6
CONTINUOUS
  0
LAYER
  2
_6-0_____
 70
   64
 62
    7
  6
CONTINUOUS
  0
LAYER
  2
_6-1______
 70
   64
 62
    7
  6
CONTINUOUS
  0
LAYER
  2
_6-2_______
 70
   64
 62
    7
  6
CONTINUOUS
  0
LAYER
  2
_6-3______
 70
   64
 62
    7
  6
CONTINUOUS
  0
LAYER
  2
_6-6_文字
 70
   64
 62
    7
  6
CONTINUOUS
  0
LAYER
  2
_6-7_躯体
 70
   64
 62
    7
  6
CONTINUOUS
  0
LAYER
  2
ADD_LINE
 70
   64
 62
    7
  6
CONTINUOUS
  0
ENDTAB
  0
ENDSEC
  0
SECTION
  2
BLOCKS
  0
ENDSEC
  0
SECTION
  2
ENTITIES
  0
LINE
  8
_4-5_寸法
  6
CONTINUOUS
 62
    7
 10
17436.252682365506
 20
10200.293473350495
 11
17548.752834364255
 21
10200.293473350495
  0
LINE
  8
_4-5_寸法
  6
CONTINUOUS
 62
    7
 10
17248.752924503046
 20
10200.293473350495
 11
17436.252682365506
 21
10200.293473350495
  0
LINE
  8
_1-1______
  6
CONTINUOUS
 62
    7
 10
12712.364076003145
 20
11697.53425244659
 11
12712.364076003145
 21
10057.960402440842
  0
LINE
  8
_2-7_躯体
  6
CONTINUOUS
 62
    7
 10
9075.0310890462879
 20
9419.32516532515
 11
9075.0310890462879
 21
6704.5109643531123
  0
LINE
  8
ADD_LINE
  6
DOT
 62
    5
 10
19009.480041150418
 20
13420.204163775941
 11
6409.4801109637992
 21
4510.2043140072619
  0
LINE
  8
ADD_LINE
  6
DOT
 62
    7
 10
18559.467541904523
 20
6490.2046109350495
 11
6859.492610209697
 21
6490.2046109350495
  0
LINE
  8
_0-0_0
  6
CONTINUOUS
 62
    5
 10
6859.492610209697
 20
13120.204253914733
 11
18559.467541904523
 21
13120.204253914733
  0
LINE
  8
ADD_LINE
  6
DOT
 62
    7
 10
6859.492610209697
 20
12698.883856696051
 11
18559.467541904523
 21
12698.883856696051
  0
LINE
  8
_0-0_0
  6
CONTINUOUS
 62
    5
 10
6859.492610209697
 20
5650.2044174017592
 11
18559.467541904523
 21
5650.2044174017592
  0
LINE
  8
_0-0_0
  6
CONTINUOUS
 62
    5
 10
13507.38338337902
 20
5401.1815569667742
 11
13405.429284526574
 21
5299.2274581143292
  0
LINE
  8
ADD_LINE
  6
DOT
 62
    5
 10
13257.976286899169
 20
5440.2045548192327
 11
13619.42126299884
 21
5440.2045548192327
  0
LINE
  8
ADD_LINE
  6
DOT
 62
    5
 10
13255.025770268385
 20
5260.2044602618716
 11
13654.827462568246
 21
5260.2044602618716
  0
LINE
  8
ADD_LINE
  6
DOT
 62
    5
 10
6859.492610209697
 20
5590.2045097498358
 11
14959.467137163669
 21
5590.2045097498358
  0
LINE
  8
_0-0_0
  6
CONTINUOUS
 62
    5
 10
13309.466889723848
 20
5530.2046020979124
 11
13309.466889723848
 21
4810.2045954700607
  0
LINE
  8
_0-0_0
  6
CONTINUOUS
 62
    5
 10
17209.467204325905
 20
5650.2044174017592
 11
17209.467204325905
 21
4810.2045954700607
  0
LINE
  8
_0-0_0
  6
CONTINUOUS
 62
    5
 10
17059.467992598486
 20
5650.2044174017592
 11
17059.467992598486
 21
4810.2045954700607
  0
LINE
  8
_0-0_0
  6
CONTINUOUS
 62
    5
 10
13159.467677996425
 20
5650.2044174017592
 11
13159.467677996425
 21
4810.2045954700607
  0
LINE
  8
_0-0_0
  6
CONTINUOUS
 62
    5
 10
14959.467137163669
 20
5650.2044174017592
 11
14959.467137163669
 21
4810.2045954700607
  0
LINE
  8
_0-0_0
  6
CONTINUOUS
 62
    5
 10
14059.467407580047
 20
5650.2044174017592
 11
14059.467407580047
 21
4810.2045954700607
  0
LINE
  8
_0-0_0
  6
CONTINUOUS
 62
    5
 10
14659.467227302463
 20
5530.2046020979124
 11
14659.467227302463
 21
4810.2045954700607
  0
LINE
  8
_0-0_0
  6
CONTINUOUS
 62
    5
 10
14509.468015575039
 20
5530.2046020979124
 11
14509.468015575039
 21
4810.2045954700607
  0
LINE
  8
_0-0_0
  6
CONTINUOUS
 62
    5
 10
14209.468105713833
 20
5530.2046020979124
 11
14209.468105713833
 21
4810.2045954700607
  0
LINE
  8
_0-0_0
  6
CONTINUOUS
 62
    5
 10
13159.467677996425
 20
5170.2044129831911
 11
14959.467137163669
 21
5170.2044129831911
  0
LINE
  8
_0-0_0
  6
CONTINUOUS
 62
    5
 10
13159.467677996425
 20
5530.2046020979124
 11
14959.467137163669
 21
5530.2046020979124
  0
LINE
  8
_0-0_0
  6
CONTINUOUS
 62
    5
 10
13159.467677996425
 20
5530.2046020979124
 11
6859.492610209697
 21
5530.2046020979124
  0
LINE
  8
_0-0_0
  6
CONTINUOUS
 62
    5
 10
7009.4925651403009
 20
5041.2044071506816
 11
6950.6033746432149
 21
4939.2046013025702
  0
LINE
  8
_0-0_0
  6
CONTINUOUS
 62
    5
 10
6950.6033746432149
 20
4939.2046013025702
 11
7068.3824988405677
 21
4939.2046013025702
  0
LINE
  8
_0-0_0
  6
CONTINUOUS
 62
    5
 10
7068.3824988405677
 20
4939.2046013025702
 11
7009.4925651403009
 21
5041.2044071506816
  0
LINE
  8
_0-0_0
  6
CONTINUOUS
 62
    5
 10
7009.4925651403009
 20
5161.2045940561184
 11
6950.6033746432149
 21
5059.204416606417
  0
LINE
  8
_0-0_0
  6
CONTINUOUS
 62
    5
 10
6950.6033746432149
 20
5059.204416606417
 11
7068.3824988405677
 21
5059.204416606417
  0
LINE
  8
_0-0_0
  6
CONTINUOUS
 62
    5
 10
7068.3824988405677
 20
5059.204416606417
 11
7009.4925651403009
 21
5161.2045940561184
  0
LINE
  8
_0-0_0
  6
CONTINUOUS
 62
    5
 10
7009.4925651403009
 20
5281.2044093599643
 11
6950.6033746432149
 21
5179.2046035118547
  0
LINE
  8
_0-0_0
  6
CONTINUOUS
 62
    5
 10
6950.6033746432149
 20
5179.2046035118547
 11
7068.3824988405677
 21
5179.2046035118547
  0
LINE
  8
_0-0_0
  6
CONTINUOUS
 62
    5
 10
7068.3824988405677
 20
5179.2046035118547
 11
7009.4925651403009
 21
5281.2044093599643
  0
LINE
  8
_0-0_0
  6
CONTINUOUS
 62
    5
 10
7009.4925651403009
 20
5401.2045962654029
 11
6950.6033746432149
 21
5299.2044188157006
  0
LINE
  8
_0-0_0
  6
CONTINUOUS
 62
    5
 10
6950.6033746432149
 20
5299.2044188157006
 11
7068.3824988405677
 21
5299.2044188157006
  0
LINE
  8
_0-0_0
  6
CONTINUOUS
 62
    5
 10
7068.3824988405677
 20
5299.2044188157006
 11
7009.4925651403009
 21
5401.2045962654029
  0
LINE
  8
_0-0_0
  6
CONTINUOUS
 62
    5
 10
7009.4925651403009
 20
5521.2044115692488
 11
6950.6033746432149
 21
5419.2046057211383
  0
LINE
  8
_0-0_0
  6
CONTINUOUS
 62
    5
 10
6950.6033746432149
 20
5419.2046057211383
 11
7068.3824988405677
 21
5419.2046057211383
  0
LINE
  8
_0-0_0
  6
CONTINUOUS
 62
    5
 10
7068.3824988405677
 20
5419.2046057211383
 11
7009.4925651403009
 21
5521.2044115692488
  0
LINE
  8
_0-0_0
  6
CONTINUOUS
 62
    5
 10
6859.492610209697
 20
4930.2044107739066
 11
9679.4931006707739
 21
4930.2044107739066
  0
LINE
  8
_0-0_0
  6
CONTINUOUS
 62
    5
 10
9709.4932402975301
 20
4930.2044107739066
 11
13159.467677996425
 21
4930.2044107739066
  0
LINE
  8
_0-0_0
  6
CONTINUOUS
 62
    5
 10
6859.492610209697
 20
5050.2045976793443
 11
9679.4931006707739
 21
5050.2045976793443
  0
LINE
  8
_0-0_0
  6
CONTINUOUS
 62
    5
 10
9709.4932402975301
 20
5050.2045976793443
 11
13159.467677996425
 21
5050.2045976793443
  0
LINE
  8
_0-0_0
  6
CONTINUOUS
 62
    5
 10
6859.492610209697
 20
5170.2044129831911
 11
9679.4931006707739
 21
5170.2044129831911
  0
LINE
  8
_0-0_0
  6
CONTINUOUS
 62
    5
 10
9709.4932402975301
 20
5170.2044129831911
 11
13159.467677996425
 21
5170.2044129831911
  0
LINE
  8
_0-0_0
  6
CONTINUOUS
 62
    5
 10
6859.492610209697
 20
5290.2045998886288
 11
9679.4931006707739
 21
5290.2045998886288
  0
LINE
  8
_0-0_0
  6
CONTINUOUS
 62
    5
 10
9709.4932402975301
 20
5290.2045998886288
 11
13159.467677996425
 21
5290.2045998886288
  0
LINE
  8
_0-0_0
  6
CONTINUOUS
 62
    5
 10
6859.492610209697
 20
5410.2044151924747
 11
9679.4931006707739
 21
5410.2044151924747
  0
LINE
  8
_0-0_0
  6
CONTINUOUS
 62
    5
 10
9709.4932402975301
 20
5410.2044151924747
 11
13159.467677996425
 21
5410.2044151924747
  0
LINE
  8
_0-0_0
  6
CONTINUOUS
 62
    5
 10
7159.492520070904
 20
5650.2044174017592
 11
7159.492520070904
 21
4810.2045954700607
  0
LINE
  8
_0-0_0
  6
CONTINUOUS
 62
    5
 10
9379.4931908095659
 20
5650.2044174017592
 11
9379.4931908095659
 21
4810.2045954700607
  0
LINE
  8
_0-0_0
  6
CONTINUOUS
 62
    5
 10
9679.4931006707739
 20
5650.2044174017592
 11
9679.4931006707739
 21
4810.2045954700607
  0
LINE
  8
_0-0_0
  6
CONTINUOUS
 62
    5
 10
7729.4929433697444
 20
5650.2044174017592
 11
7729.4929433697444
 21
4810.2045954700607
  0
LINE
  8
_0-0_0
  6
CONTINUOUS
 62
    5
 10
10669.004221441202
 20
5650.2044174017592
 11
10669.004221441202
 21
4810.2045954700607
  0
LINE
  8
_0-0_0
  6
CONTINUOUS
 62
    5
 10
9886.26708984375
 20
5650.2044174017592
 11
9886.26708984375
 21
4810.2045954700607
  0
LINE
  8
_0-0_0
  6
CONTINUOUS
 62
    5
 10
9709.4932402975301
 20
5650.2044174017592
 11
9709.4932402975301
 21
4810.2045954700607
  0
LINE
  8
_0-0_0
  6
CONTINUOUS
 62
    5
 10
11775.256211564347
 20
5650.2044174017592
 11
11775.256211564347
 21
4810.2045954700607
  0
LINE
  8
_0-0_0
  6
CONTINUOUS
 62
    5
 10
12075.256121425555
 20
5650.2044174017592
 11
12075.256121425555
 21
4810.2045954700607
  0
LINE
  8
_0-0_0
  6
CONTINUOUS
 62
    5
 10
13759.467497718841
 20
5530.2046020979124
 11
13759.467497718841
 21
4810.2045954700607
  0
LINE
  8
_0-0_0
  6
CONTINUOUS
 62
    5
 10
13609.468285991417
 20
5530.2046020979124
 11
13609.468285991417
 21
4810.2045954700607
  0
LINE
  8
_0-0_0
  6
CONTINUOUS
 62
    5
 10
7009.4925651403009
 20
5641.2045984746865
 11
6950.6033746432149
 21
5539.2044210249851
  0
LINE
  8
_0-0_0
  6
CONTINUOUS
 62
    5
 10
6950.6033746432149
 20
5539.2044210249851
 11
7068.3824988405677
 21
5539.2044210249851
  0
LINE
  8
_0-0_0
  6
CONTINUOUS
 62
    5
 10
7068.3824988405677
 20
5539.2044210249851
 11
7009.4925651403009
 21
5641.2045984746865
  0
LINE
  8
_0-0_0
  6
CONTINUOUS
 62
    5
 10
17059.467992598486
 20
5110.2045053312677
 11
18559.467541904523
 21
5110.2045053312677
  0
LINE
  8
_0-0_0
  6
CONTINUOUS
 62
    5
 10
17269.467483579421
 20
5359.2143597105751
 11
18469.467123024253
 21
5359.2143597105751
  0
LINE
  8
_0-0_0
  6
CONTINUOUS
 62
    5
 10
18559.467541904523
 20
13120.204253914733
 11
18559.467541904523
 21
4810.2045954700607
  0
LINE
  8
_0-0_0
  6
CONTINUOUS
 62
    5
 10
18559.467541904523
 20
4810.2045954700607
 11
6859.492610209697
 21
4810.2045954700607
  0
LINE
  8
_0-0_0
  6
CONTINUOUS
 62
    5
 10
6859.492610209697
 20
4810.2045954700607
 11
6859.492610209697
 21
13120.204253914733
  0
LINE
  8
_0-0_0
  6
CONTINUOUS
 62
    5
 10
15301.456540376523
 20
5232.1622894169277
 11
15356.816258964391
 21
5287.5231228095681
  0
LINE
  8
_0-0_0
  6
CONTINUOUS
 62
    5
 10
15301.456540376523
 20
5153.8699218573256
 11
15301.456540376523
 21
5232.1622894169277
  0
LINE
  8
_0-0_0
  6
CONTINUOUS
 62
    5
 10
15289.45529540073
 20
5232.1622894169277
 11
15289.45529540073
 21
5153.8699218573256
  0
LINE
  8
_0-0_0
  6
CONTINUOUS
 62
    5
 10
15234.095576812862
 20
5287.5231228095681
 11
15289.45529540073
 21
5232.1622894169277
  0
LINE
  8
_0-0_0
  6
CONTINUOUS
 62
    5
 10
15415.456476395653
 20
5234.6475608560577
 11
15394.273699314899
 21
5228.6473099697514
  0
LINE
  8
_0-0_0
  6
CONTINUOUS
 62
    5
 10
15415.456476395653
 20
5234.6475608560577
 11
15394.456527297563
 21
5234.6475608560577
  0
LINE
  8
_0-0_0
  6
CONTINUOUS
 62
    5
 10
15394.273699314899
 20
5240.6474401407722
 11
15415.456476395653
 21
5234.6475608560577
  0
LINE
  8
_0-0_0
  6
CONTINUOUS
 62
    5
 10
15295.455917888627
 20
5114.6473739506191
 11
15295.455917888627
 21
5135.6473230487136
  0
LINE
  8
_0-0_0
  6
CONTINUOUS
 62
    5
 10
15295.455917888627
 20
5114.6473739506191
 11
15301.456540376523
 21
5135.8294078281942
  0
LINE
  8
_0-0_0
  6
CONTINUOUS
 62
    5
 10
15295.455917888627
 20
5114.6473739506191
 11
15289.45529540073
 21
5135.8294078281942
  0
LINE
  8
_0-0_0
  6
CONTINUOUS
 62
    5
 10
15175.455359381598
 20
5234.6475608560577
 11
15196.638136462354
 21
5228.6473099697514
  0
LINE
  8
_0-0_0
  6
CONTINUOUS
 62
    5
 10
15175.455359381598
 20
5234.6475608560577
 11
15196.455308479692
 21
5234.6475608560577
  0
LINE
  8
_0-0_0
  6
CONTINUOUS
 62
    5
 10
15175.455359381598
 20
5234.6475608560577
 11
15196.638136462354
 21
5240.6474401407722
  0
LINE
  8
_0-0_0
  6
CONTINUOUS
 62
    5
 10
15295.455917888627
 20
5354.6473761599036
 11
15301.456540376523
 21
5333.4653422823276
  0
LINE
  8
_0-0_0
  6
CONTINUOUS
 62
    5
 10
15295.455917888627
 20
5354.6473761599036
 11
15289.45529540073
 21
5333.4653422823276
  0
LINE
  8
_0-0_0
  6
CONTINUOUS
 62
    5
 10
15295.455917888627
 20
5354.6473761599036
 11
15295.455917888627
 21
5333.64742706181
  0
LINE
  8
_0-0_0
  6
CONTINUOUS
 62
    5
 10
15295.455917888627
 20
5243.1327115799013
 11
15242.579984333524
 21
5296.0082735334117
  0
LINE
  8
_0-0_0
  6
CONTINUOUS
 62
    5
 10
15348.331851443729
 20
5296.0082735334117
 11
15295.455917888627
 21
5243.1327115799013
  0
LINE
  8
_0-0_0
  6
CONTINUOUS
 62
    5
 10
15295.455917888627
 20
5234.6475608560577
 11
15352.731614278549
 21
5291.9232572459805
  0
LINE
  8
_0-0_0
  6
CONTINUOUS
 62
    5
 10
15295.455917888627
 20
5234.6475608560577
 11
15295.455917888627
 21
5153.647332504449
  0
LINE
  8
_0-0_0
  6
CONTINUOUS
 62
    5
 10
15238.180221498702
 20
5291.9232572459805
 11
15295.455917888627
 21
5234.6475608560577
  0
LINE
  8
ADD_LINE
  6
DOT
 62
    5
 10
7009.4925651403009
 20
5650.2044174017592
 11
7009.4925651403009
 21
4930.2044107739066
  0
LINE
  8
ADD_LINE
  6
DOT
 62
    5
 10
8554.4930670896556
 20
5650.2044174017592
 11
8554.4930670896556
 21
4930.2044107739066
  0
LINE
  8
ADD_LINE
  6
DOT
 62
    5
 10
9529.4931457401708
 20
5650.2044174017592
 11
9529.4931457401708
 21
4930.2044107739066
  0
LINE
  8
ADD_LINE
  6
DOT
 62
    5
 10
9797.8801650706409
 20
5650.2044174017592
 11
9797.8801650706409
 21
4930.2044107739066
  0
LINE
  8
ADD_LINE
  6
DOT
 62
    5
 10
10277.635655642476
 20
5650.2044174017592
 11
10277.635655642476
 21
4930.2044107739066
  0
LINE
  8
ADD_LINE
  6
DOT
 62
    5
 10
11222.130216502774
 20
5650.2044174017592
 11
11222.130216502774
 21
4930.2044107739066
  0
LINE
  8
ADD_LINE
  6
DOT
 62
    5
 10
11925.256166494952
 20
5650.2044174017592
 11
11925.256166494952
 21
4930.2044107739066
  0
LINE
  8
ADD_LINE
  6
DOT
 62
    5
 10
12617.361899710992
 20
5650.2044174017592
 11
12617.361899710992
 21
4930.2044107739066
  0
LINE
  8
ADD_LINE
  6
DOT
 62
    5
 10
14509.468015575039
 20
5650.2044174017592
 11
14509.468015575039
 21
5530.2046020979124
  0
LINE
  8
ADD_LINE
  6
DOT
 62
    5
 10
13459.467587857633
 20
5544.8300975077855
 11
13459.467587857633
 21
5018.1535888730787
  0
LINE
  8
ADD_LINE
  6
DOT
 62
    5
 10
13384.467981993921
 20
5565.4840855248649
 11
13384.467981993921
 21
5077.1650362935306
  0
LINE
  8
ADD_LINE
  6
DOT
 62
    5
 10
13534.467193721344
 20
5528.6018844368837
 11
13534.467193721344
 21
5071.2640030319626
  0
LINE
  8
ADD_LINE
  6
DOT
 62
    5
 10
13278.629903314655
 20
5350.2045075405522
 11
13613.520229737271
 21
5350.2045075405522
  0
LINE
  8
ADD_LINE
  6
DOT
 62
    5
 10
17884.468116318396
 20
5639.2481160992356
 11
17884.468116318396
 21
4813.0893386192765
  0
LINE
  8
ADD_LINE
  6
DOT
 62
    5
 10
17209.467204325905
 20
5504.7093885561681
 11
18559.467541904523
 21
5504.7093885561681
  0
LINE
  8
ADD_LINE
  6
DOT
 62
    5
 10
17209.467204325905
 20
5234.7092467201255
 11
18559.467541904523
 21
5234.7092467201255
  0
LINE
  8
ADD_LINE
  6
DOT
 62
    5
 10
17209.467204325905
 20
4960.2045504006637
 11
18559.467541904523
 21
4960.2045504006637
  0
LINE
  8
ADD_LINE
  6
DOT
 62
    7
 10
6854.894412125399
 20
10227.932456469443
 11
15851.590399429144
 21
10227.932456469443
  0
LINE
  8
ADD_LINE
  6
DOT
 62
    7
 10
18559.467541904523
 20
6950.2042745347189
 11
6859.492610209697
 21
6950.2042745347189
  0
LINE
  8
ADD_LINE
  6
DOT
 62
    7
 10
6859.492610209697
 20
7842.5720506469243
 11
14331.628412666469
 21
7842.5720506469243
  0
LINE
  8
ADD_LINE
  6
DOT
 62
    7
 10
6980.0282750074466
 20
13120.204253914733
 11
6980.0282750074466
 21
5650.2044174017592
  0
LINE
  8
ADD_LINE
  6
DOT
 62
    7
 10
7180.0279671805247
 20
13120.204253914733
 11
7180.0279671805247
 21
7150.2047099109786
  0
LINE
  8
ADD_LINE
  6
DOT
 62
    7
 10
7380.0284025567835
 20
13120.204253914733
 11
7380.0284025567835
 21
7150.2047099109786
  0
LINE
  8
ADD_LINE
  6
DOT
 62
    7
 10
14427.402033861079
 20
12078.813091852489
 11
6859.492610209697
 21
12078.813091852489
  0
LINE
  8
ADD_LINE
  6
DOT
 62
    7
 10
10795.91879914626
 20
13120.204253914733
 11
10795.91879914626
 21
7150.2047099109786
  0
LINE
  8
ADD_LINE
  6
DOT
 62
    7
 10
10995.91923452252
 20
13120.204253914733
 11
10995.91923452252
 21
7150.2047099109786
  0
LINE
  8
ADD_LINE
  6
DOT
 62
    7
 10
11252.554725146201
 20
13120.204253914733
 11
11252.554725146201
 21
7150.2047099109786
  0
LINE
  8
ADD_LINE
  6
DOT
 62
    7
 10
14331.628412666469
 20
13120.204253914733
 11
14331.628412666469
 21
7150.2047099109786
  0
LINE
  8
ADD_LINE
  6
DOT
 62
    5
 10
19009.480041150418
 20
13420.204163775941
 11
6409.4801109637992
 21
13420.204163775941
  0
LINE
  8
ADD_LINE
  6
DOT
 62
    5
 10
6409.4801109637992
 20
13420.204163775941
 11
6409.4801109637992
 21
4510.2043140072619
  0
LINE
  8
ADD_LINE
  6
DOT
 62
    5
 10
6409.4801109637992
 20
4510.2043140072619
 11
19009.480041150418
 21
4510.2043140072619
  0
LINE
  8
ADD_LINE
  6
DOT
 62
    5
 10
19009.480041150418
 20
4510.2043140072619
 11
19009.480041150418
 21
13420.204163775941
  0
LINE
  8
ADD_LINE
  6
DOT
 62
    5
 10
6409.4801109637992
 20
13420.204163775941
 11
19009.480041150418
 21
4510.2043140072619
  0
LINE
  8
ADD_LINE
  6
DOT
 62
    7
 10
16445.547977285496
 20
13101.98091190294
 11
16445.547977285496
 21
5650.2044174017592
  0
LINE
  8
ADD_LINE
  6
DOT
 62
    7
 10
6854.894412125399
 20
9827.9323289201056
 11
18559.467541904523
 21
9827.9323289201056
  0
LINE
  8
ADD_LINE
  6
DOT
 62
    7
 10
15388.588194975981
 20
13101.98091190294
 11
15388.588194975981
 21
5650.2044174017592
  0
LINE
  8
ADD_LINE
  6
DOT
 62
    7
 10
17502.507759595006
 20
5650.2044174017592
 11
17502.507759595006
 21
13101.98091190294
  0
LINE
  8
ADD_LINE
  6
DOT
 62
    7
 10
12252.554672417955
 20
13120.204253914733
 11
12252.554672417955
 21
5650.2044174017592
  0
LINE
  8
ADD_LINE
  6
DOT
 62
    7
 10
8694.0606789607336
 20
13120.204253914733
 11
8694.0606789607336
 21
10166.012483397966
  0
LINE
  8
_1-0_____
  6
CONTINUOUS
 62
    7
 10
7616.3744463239391
 20
10258.987201410831
 11
10504.569774318386
 21
10258.987201410831
  0
LINE
  8
_1-5_寸法
  6
CONTINUOUS
 62
    7
 10
10504.569774318386
 20
11944.052518159726
 11
10467.7522319072
 21
11958.791723656379
  0
LINE
  8
_1-5_寸法
  6
CONTINUOUS
 62
    7
 10
10504.569774318386
 20
11944.052518159726
 11
10465.622954792037
 21
11928.983330450463
  0
LINE
  8
_1-5_寸法
  6
CONTINUOUS
 62
    7
 10
7616.3744463239391
 20
11944.052518159726
 11
7653.1919887351251
 21
11929.313312663075
  0
LINE
  8
_1-5_寸法
  6
CONTINUOUS
 62
    7
 10
7616.3744463239391
 20
11944.052518159726
 11
7655.321265850288
 21
11959.122449072171
  0
LINE
  8
_1-5_寸法
  6
CONTINUOUS
 62
    7
 10
9864.663659762231
 20
11944.135013712879
 11
10504.569774318386
 21
11944.135013712879
  0
LINE
  8
_1-5_寸法
  6
CONTINUOUS
 62
    7
 10
7380.1933936630903
 20
10258.987201410831
 11
7616.3744463239391
 21
10258.987201410831
  0
LINE
  8
_1-5_寸法
  6
CONTINUOUS
 62
    7
 10
7380.1933936630903
 20
10858.987021133247
 11
7380.1933936630903
 21
11697.53425244659
  0
LINE
  8
_1-5_寸法
  6
CONTINUOUS
 62
    7
 10
7380.1933936630903
 20
10858.987021133247
 11
7380.1933936630903
 21
10258.987201410831
  0
LINE
  8
_1-5_寸法
  6
CONTINUOUS
 62
    7
 10
10504.569774318386
 20
10057.960402440842
 11
10467.7522319072
 21
10072.699607937491
  0
LINE
  8
_1-5_寸法
  6
CONTINUOUS
 62
    7
 10
10504.569774318386
 20
10057.960402440842
 11
10465.622954792037
 21
10042.890471528395
  0
LINE
  8
_1-5_寸法
  6
CONTINUOUS
 62
    7
 10
10504.569774318386
 20
10057.960402440842
 11
7616.3744463239391
 21
10057.960402440842
  0
LINE
  8
_1-5_寸法
  6
CENTER1
 62
    7
 10
9925.7170579240119
 20
10057.960402440842
 11
9925.7170579240119
 21
10376.797540141808
  0
LINE
  8
_1-5_寸法
  6
CENTER1
 62
    7
 10
9025.7165851372083
 20
10057.960402440842
 11
9025.7165851372083
 21
10376.797540141808
  0
LINE
  8
_1-5_寸法
  6
CENTER1
 62
    7
 10
7616.3744463239391
 20
10858.987021133247
 11
10235.785884488963
 21
10858.987021133247
  0
LINE
  8
_1-5_寸法
  6
CENTER1
 62
    7
 10
7616.3744463239391
 20
11458.986840855661
 11
10235.785884488963
 21
11458.986840855661
  0
LINE
  8
_1-5_寸法
  6
CONTINUOUS
 62
    7
 10
7380.1933936630903
 20
11458.986840855661
 11
7616.3744463239391
 21
11458.986840855661
  0
LINE
  8
_1-5_寸法
  6
CONTINUOUS
 62
    7
 10
7380.1933936630903
 20
10858.987021133247
 11
7616.3744463239391
 21
10858.987021133247
  0
LINE
  8
_1-5_寸法
  6
CENTER1
 62
    7
 10
8125.7168555535864
 20
10057.960402440842
 11
8125.7168555535864
 21
10376.797540141808
  0
LINE
  8
_1-5_寸法
  6
CENTER1
 62
    7
 10
10167.663880867389
 20
11390.115688427075
 11
10167.663880867389
 21
12045.791831292701
  0
LINE
  8
_1-5_寸法
  6
CENTER1
 62
    7
 10
9864.663659762231
 20
11390.115688427075
 11
9864.663659762231
 21
12045.791831292701
  0
LINE
  8
_1-5_寸法
  6
CENTER1
 62
    7
 10
9561.6634386570749
 20
11390.115688427075
 11
9561.6634386570749
 21
12045.791831292701
  0
LINE
  8
_1-5_寸法
  6
CENTER1
 62
    7
 10
9258.6639607551024
 20
11390.115688427075
 11
9258.6639607551024
 21
12045.791831292701
  0
LINE
  8
_1-5_寸法
  6
CENTER1
 62
    7
 10
8955.6637396499464
 20
11390.115688427075
 11
8955.6637396499464
 21
12045.791831292701
  0
LINE
  8
_1-5_寸法
  6
CENTER1
 62
    7
 10
8652.6635185447885
 20
11390.115688427075
 11
8652.6635185447885
 21
12045.791831292701
  0
LINE
  8
_1-5_寸法
  6
CENTER1
 62
    7
 10
8349.664040642816
 20
11390.115688427075
 11
8349.664040642816
 21
12045.791831292701
  0
LINE
  8
_1-5_寸法
  6
CENTER1
 62
    7
 10
8046.6638195376599
 20
11390.115688427075
 11
8046.6638195376599
 21
12045.791831292701
  0
LINE
  8
_1-5_寸法
  6
CENTER1
 62
    7
 10
7743.6635984325048
 20
11390.115688427075
 11
7743.6635984325048
 21
12045.791831292701
  0
LINE
  8
_1-5_寸法
  6
CONTINUOUS
 62
    7
 10
7380.1108981099369
 20
11716.475528731769
 11
7365.3716926132856
 21
11679.657986320582
  0
LINE
  8
_1-5_寸法
  6
CONTINUOUS
 62
    7
 10
7380.1108981099369
 20
11716.475528731769
 11
7395.1800858192
 21
11677.52870920542
  0
LINE
  8
_1-5_寸法
  6
CONTINUOUS
 62
    7
 10
7616.3744463239391
 20
10057.960402440842
 11
7653.1919887351251
 21
10043.221196944189
  0
LINE
  8
_1-5_寸法
  6
CONTINUOUS
 62
    7
 10
7616.3744463239391
 20
10057.960402440842
 11
7655.321265850288
 21
10073.030333353287
  0
LINE
  8
_1-5_寸法
  6
CONTINUOUS
 62
    7
 10
9561.6634386570749
 20
11944.135013712879
 11
9864.663659762231
 21
11944.135013712879
  0
LINE
  8
_1-5_寸法
  6
CONTINUOUS
 62
    7
 10
9258.6639607551024
 20
11944.135013712879
 11
9561.6634386570749
 21
11944.135013712879
  0
LINE
  8
_1-5_寸法
  6
CONTINUOUS
 62
    7
 10
8955.6637396499464
 20
11944.135013712879
 11
9258.6639607551024
 21
11944.135013712879
  0
LINE
  8
_1-5_寸法
  6
CONTINUOUS
 62
    7
 10
8652.6635185447885
 20
11944.135013712879
 11
8955.6637396499464
 21
11944.135013712879
  0
LINE
  8
_1-5_寸法
  6
CONTINUOUS
 62
    7
 10
8349.664040642816
 20
11944.135013712879
 11
8652.6635185447885
 21
11944.135013712879
  0
LINE
  8
_1-5_寸法
  6
CONTINUOUS
 62
    7
 10
8046.6638195376599
 20
11944.135013712879
 11
8349.664040642816
 21
11944.135013712879
  0
LINE
  8
_1-5_寸法
  6
CONTINUOUS
 62
    7
 10
7616.3744463239391
 20
11944.135013712879
 11
8046.6638195376599
 21
11944.135013712879
  0
LINE
  8
_1-6_文字
  6
CONTINUOUS
 62
    7
 10
8304.2743927355441
 20
11674.911147599976
 11
8632.129557841532
 21
11674.911147599976
  0
LINE
  8
_1-6_文字
  6
CONTINUOUS
 62
    7
 10
8051.8164471953987
 20
11237.641610105065
 11
8304.2743927355441
 21
11674.911147599976
  0
LINE
  8
_1-6_文字
  6
CONTINUOUS
 62
    7
 10
8430.0875433255351
 20
11005.380954226932
 11
8623.879259323061
 21
11005.380954226932
  0
LINE
  8
_1-6_文字
  6
CONTINUOUS
 62
    7
 10
8353.0664248079866
 20
10863.270844271745
 11
8430.0875433255351
 21
11005.380954226932
  0
LINE
  8
_1-6_文字
  6
CONTINUOUS
 62
    7
 10
9132.0607851831155
 20
10365.666586091618
 11
9462.0608346710796
 21
10365.666586091618
  0
LINE
  8
_1-6_文字
  6
CONTINUOUS
 62
    7
 10
9132.0607851831155
 20
10365.666586091618
 11
9070.7383474696107
 21
10269.212190782702
  0
LINE
  8
_1-6_文字
  6
CONTINUOUS
 62
    7
 10
8236.8212719773692
 20
10610.589937777133
 11
8536.8211818385771
 21
10610.589937777133
  0
LINE
  8
_1-6_文字
  6
CONTINUOUS
 62
    7
 10
8127.7785011792266
 20
10289.025244399849
 11
8236.8212719773692
 21
10610.589937777133
  0
LINE
  8
_1-0_____
  6
CONTINUOUS
 62
    7
 10
7616.3744463239391
 20
10288.987341037588
 11
7721.1638653140271
 21
10288.987341037588
  0
LINE
  8
_1-0_____
  6
CONTINUOUS
 62
    7
 10
7616.3744463239391
 20
10278.98754222973
 11
9258.6639607551024
 21
10278.98754222973
  0
LINE
  8
_1-0_____
  6
CONTINUOUS
 62
    7
 10
10162.162690917497
 20
10278.98754222973
 11
10504.569774318386
 21
10278.98754222973
  0
LINE
  8
_1-0_____
  6
DASHED1
 62
    7
 10
9258.6639607551024
 20
10278.98754222973
 11
10162.162690917497
 21
10278.98754222973
  0
LINE
  8
_1-1______
  6
CONTINUOUS
 62
    7
 10
7721.1638653140271
 20
10278.98754222973
 11
7721.1638653140271
 21
11697.53425244659
  0
LINE
  8
_1-1______
  6
CONTINUOUS
 62
    7
 10
7766.1640747541624
 20
10278.98754222973
 11
7766.1640747541624
 21
11697.53425244659
  0
LINE
  8
_1-1______
  6
CONTINUOUS
 62
    7
 10
8024.1640864191831
 20
10278.98754222973
 11
8024.1640864191831
 21
11697.53425244659
  0
LINE
  8
_1-1______
  6
CONTINUOUS
 62
    7
 10
8069.1635526561377
 20
10278.98754222973
 11
8069.1635526561377
 21
11697.53425244659
  0
LINE
  8
_1-1______
  6
CONTINUOUS
 62
    7
 10
8327.1635643211557
 20
10278.98754222973
 11
8327.1635643211557
 21
11697.53425244659
  0
LINE
  8
_1-1______
  6
CONTINUOUS
 62
    7
 10
8372.1637737612928
 20
10278.98754222973
 11
8372.1637737612928
 21
11697.53425244659
  0
LINE
  8
_1-1______
  6
CONTINUOUS
 62
    7
 10
8630.1637854263136
 20
10278.98754222973
 11
8630.1637854263136
 21
11697.53425244659
  0
LINE
  8
_1-1______
  6
CONTINUOUS
 62
    7
 10
8675.1639948664488
 20
10278.98754222973
 11
8675.1639948664488
 21
11697.53425244659
  0
LINE
  8
_1-1______
  6
CONTINUOUS
 62
    7
 10
8933.1640065314696
 20
10278.98754222973
 11
8933.1640065314696
 21
11697.53425244659
  0
LINE
  8
_1-1______
  6
CONTINUOUS
 62
    7
 10
8978.1634727684213
 20
10278.98754222973
 11
8978.1634727684213
 21
11697.53425244659
  0
LINE
  8
_1-1______
  6
CONTINUOUS
 62
    7
 10
9236.1634844334421
 20
10278.98754222973
 11
9236.1634844334421
 21
11697.53425244659
  0
LINE
  8
_1-1______
  6
CONTINUOUS
 62
    7
 10
10190.163613985864
 20
10278.98754222973
 11
10190.163613985864
 21
11697.53425244659
  0
LINE
  8
_1-1______
  6
CONTINUOUS
 62
    7
 10
9281.1636938735792
 20
11354.331941641436
 11
9281.1636938735792
 21
11697.53425244659
  0
LINE
  8
_1-1______
  6
CONTINUOUS
 62
    7
 10
9539.1637055385982
 20
11461.209761571701
 11
9539.1637055385982
 21
11697.53425244659
  0
LINE
  8
_1-1______
  6
CONTINUOUS
 62
    7
 10
9584.1639149787352
 20
11479.851526974711
 11
9584.1639149787352
 21
11697.53425244659
  0
LINE
  8
_1-1______
  6
CONTINUOUS
 62
    7
 10
9842.163926643756
 20
11586.728603701795
 11
9842.163926643756
 21
11697.53425244659
  0
LINE
  8
_1-1______
  6
CONTINUOUS
 62
    7
 10
9887.1633928807078
 20
11605.370369104805
 11
9887.1633928807078
 21
11697.53425244659
  0
LINE
  8
_1-1______
  6
DASHED1
 62
    7
 10
9281.1636938735792
 20
10278.98754222973
 11
9281.1636938735792
 21
11354.331941641436
  0
LINE
  8
_1-1______
  6
DASHED1
 62
    7
 10
9539.1637055385982
 20
10278.98754222973
 11
9539.1637055385982
 21
11461.209761571701
  0
LINE
  8
_1-1______
  6
DASHED1
 62
    7
 10
9584.1639149787352
 20
10278.98754222973
 11
9584.1639149787352
 21
11479.851526974711
  0
LINE
  8
_1-1______
  6
DASHED1
 62
    7
 10
9842.163926643756
 20
10278.98754222973
 11
9842.163926643756
 21
11586.728603701795
  0
LINE
  8
_1-1______
  6
DASHED1
 62
    7
 10
9887.1633928807078
 20
10278.98754222973
 11
9887.1633928807078
 21
11605.370369104805
  0
LINE
  8
_1-1______
  6
DASHED1
 62
    7
 10
10145.163404545729
 20
10278.98754222973
 11
10145.163404545729
 21
11697.53425244659
  0
LINE
  8
_1-4______
  6
CONTINUOUS
 62
    7
 10
10162.162690917497
 20
11697.53425244659
 11
10109.646467702269
 21
11697.53425244659
  0
LINE
  8
_1-4______
  6
CONTINUOUS
 62
    7
 10
10109.646467702269
 20
11697.53425244659
 11
9258.6639607551024
 21
11345.011430541521
  0
LINE
  8
_1-4______
  6
CONTINUOUS
 62
    7
 10
9258.6639607551024
 20
11345.011430541521
 11
9258.6639607551024
 21
10258.987201410831
  0
LINE
  8
_1-4______
  6
CONTINUOUS
 62
    7
 10
9258.6639607551024
 20
10258.987201410831
 11
10162.162690917497
 21
10258.987201410831
  0
LINE
  8
_1-4______
  6
CONTINUOUS
 62
    7
 10
10162.162690917497
 20
10258.987201410831
 11
10162.162690917497
 21
11697.53425244659
  0
LINE
  8
_1-0_____
  6
CONTINUOUS
 62
    7
 10
7766.1640747541624
 20
10288.987341037588
 11
8024.1640864191831
 21
10288.987341037588
  0
LINE
  8
_1-0_____
  6
CONTINUOUS
 62
    7
 10
8069.1635526561377
 20
10288.987341037588
 11
8327.1635643211557
 21
10288.987341037588
  0
LINE
  8
_1-0_____
  6
CONTINUOUS
 62
    7
 10
8372.1637737612928
 20
10288.987341037588
 11
8630.1637854263136
 21
10288.987341037588
  0
LINE
  8
_1-0_____
  6
CONTINUOUS
 62
    7
 10
8675.1639948664488
 20
10288.987341037588
 11
8933.1640065314696
 21
10288.987341037588
  0
LINE
  8
_1-0_____
  6
CONTINUOUS
 62
    7
 10
8978.1634727684213
 20
10288.987341037588
 11
9236.1634844334421
 21
10288.987341037588
  0
LINE
  8
_1-0_____
  6
DASHED1
 62
    7
 10
9281.1636938735792
 20
10288.987341037588
 11
9539.1637055385982
 21
10288.987341037588
  0
LINE
  8
_1-0_____
  6
DASHED1
 62
    7
 10
9584.1639149787352
 20
10288.987341037588
 11
9842.163926643756
 21
10288.987341037588
  0
LINE
  8
_1-0_____
  6
DASHED1
 62
    7
 10
9887.1633928807078
 20
10288.987341037588
 11
10145.163404545729
 21
10288.987341037588
  0
LINE
  8
_1-0_____
  6
CONTINUOUS
 62
    7
 10
10190.163613985864
 20
10288.987341037588
 11
10504.569774318386
 21
10288.987341037588
  0
LINE
  8
_1-7_躯体
  6
CONTINUOUS
 62
    7
 10
7740.0010931537872
 20
10166.012483397966
 11
7832.9758111666524
 21
10258.987201410831
  0
LINE
  8
_1-7_躯体
  6
CONTINUOUS
 62
    7
 10
10189.511824795638
 20
10166.012483397966
 11
10282.486542808503
 21
10258.987201410831
  0
LINE
  8
_1-7_躯体
  6
CONTINUOUS
 62
    7
 10
7791.6269589575104
 20
10166.012483397966
 11
7884.6016769703756
 21
10258.987201410831
  0
LINE
  8
_1-7_躯体
  6
CONTINUOUS
 62
    7
 10
7765.8140260556493
 20
10166.012483397966
 11
7858.7887440685136
 21
10258.987201410831
  0
LINE
  8
_1-7_躯体
  6
CONTINUOUS
 62
    7
 10
9098.1766657295375
 20
10166.012483397966
 11
9191.1513837424027
 21
10258.987201410831
  0
LINE
  8
_1-7_躯体
  6
CONTINUOUS
 62
    7
 10
9072.3637328276764
 20
10166.012483397966
 11
9165.3384508405416
 21
10258.987201410831
  0
LINE
  8
_1-7_躯体
  6
CONTINUOUS
 62
    7
 10
9046.5507999258134
 20
10166.012483397966
 11
9139.5255179386786
 21
10258.987201410831
  0
LINE
  8
_1-7_躯体
  6
CONTINUOUS
 62
    7
 10
10137.885958991916
 20
10166.012483397966
 11
10230.860677004781
 21
10258.987201410831
  0
LINE
  8
_1-7_躯体
  6
CONTINUOUS
 62
    7
 10
10163.698891893779
 20
10166.012483397966
 11
10256.673609906642
 21
10258.987201410831
  0
LINE
  8
_1-7_躯体
  6
CONTINUOUS
 62
    7
 10
7616.3744463239391
 20
10258.987201410831
 11
10504.569774318386
 21
10258.987201410831
  0
LINE
  8
_1-0_____
  6
CONTINUOUS
 62
    7
 10
14996.270558714406
 20
11697.53425244659
 11
11898.458489377526
 21
11697.53425244659
  0
LINE
  8
_1-0_____
  6
CONTINUOUS
 62
    7
 10
14636.863445738567
 20
11687.534453638731
 11
14378.863434073548
 21
11687.534453638731
  0
LINE
  8
_1-0_____
  6
CONTINUOUS
 62
    7
 10
14030.86448993462
 20
11687.534453638731
 11
13772.864478269599
 21
11687.534453638731
  0
LINE
  8
_1-0_____
  6
CONTINUOUS
 62
    7
 10
13727.863525626282
 20
11687.534453638731
 11
13469.863513961262
 21
11687.534453638731
  0
LINE
  8
_1-0_____
  6
CONTINUOUS
 62
    7
 10
13424.864047724308
 20
11687.534453638731
 11
13166.864036059287
 21
11687.534453638731
  0
LINE
  8
_1-0_____
  6
CONTINUOUS
 62
    7
 10
12212.863906506867
 20
11687.534453638731
 11
11898.458489377526
 21
11687.534453638731
  0
LINE
  8
_1-0_____
  6
CONTINUOUS
 62
    7
 10
13121.864569822334
 20
11687.534453638731
 11
12863.864558157313
 21
11687.534453638731
  0
LINE
  8
_1-0_____
  6
CONTINUOUS
 62
    7
 10
12515.864127612022
 20
11687.534453638731
 11
12257.864115947001
 21
11687.534453638731
  0
LINE
  8
_1-5_寸法
  6
CONTINUOUS
 62
    7
 10
14996.270558714406
 20
11944.052518159726
 11
14959.45227310004
 21
11958.791723656379
  0
LINE
  8
_1-5_寸法
  6
CONTINUOUS
 62
    7
 10
14996.270558714406
 20
11944.052518159726
 11
14957.323739188058
 21
11928.983330450463
  0
LINE
  8
_1-5_寸法
  6
CONTINUOUS
 62
    7
 10
14356.363700955069
 20
11944.135013712879
 11
14996.270558714406
 21
11944.135013712879
  0
LINE
  8
_1-5_寸法
  6
CONTINUOUS
 62
    7
 10
14053.364223053097
 20
11944.135013712879
 11
14356.363700955069
 21
11944.135013712879
  0
LINE
  8
_1-5_寸法
  6
CONTINUOUS
 62
    7
 10
13750.364745151122
 20
11944.135013712879
 11
14053.364223053097
 21
11944.135013712879
  0
LINE
  8
_1-5_寸法
  6
CONTINUOUS
 62
    7
 10
13447.363780842785
 20
11944.135013712879
 11
13750.364745151122
 21
11944.135013712879
  0
LINE
  8
_1-5_寸法
  6
CONTINUOUS
 62
    7
 10
13144.36430294081
 20
11944.135013712879
 11
13447.363780842785
 21
11944.135013712879
  0
LINE
  8
_1-5_寸法
  6
CONTINUOUS
 62
    7
 10
12841.363338632473
 20
11944.135013712879
 11
13144.36430294081
 21
11944.135013712879
  0
LINE
  8
_1-5_寸法
  6
CONTINUOUS
 62
    7
 10
12538.3638607305
 20
11944.135013712879
 11
12841.363338632473
 21
11944.135013712879
  0
LINE
  8
_1-5_寸法
  6
CENTER1
 62
    7
 10
14659.364665263407
 20
11390.115688427075
 11
14659.364665263407
 21
12045.791831292701
  0
LINE
  8
_1-5_寸法
  6
CENTER1
 62
    7
 10
14356.363700955069
 20
11390.115688427075
 11
14356.363700955069
 21
12045.791831292701
  0
LINE
  8
_1-5_寸法
  6
CENTER1
 62
    7
 10
14053.364223053097
 20
11390.115688427075
 11
14053.364223053097
 21
12045.791831292701
  0
LINE
  8
_1-5_寸法
  6
CENTER1
 62
    7
 10
13750.364745151122
 20
11390.115688427075
 11
13750.364745151122
 21
12045.791831292701
  0
LINE
  8
_1-5_寸法
  6
CENTER1
 62
    7
 10
13447.363780842785
 20
11390.115688427075
 11
13447.363780842785
 21
12045.791831292701
  0
LINE
  8
_1-5_寸法
  6
CENTER1
 62
    7
 10
13144.36430294081
 20
11390.115688427075
 11
13144.36430294081
 21
12045.791831292701
  0
LINE
  8
_1-5_寸法
  6
CENTER1
 62
    7
 10
12841.363338632473
 20
11390.115688427075
 11
12841.363338632473
 21
12045.791831292701
  0
LINE
  8
_1-5_寸法
  6
CENTER1
 62
    7
 10
12538.3638607305
 20
11390.115688427075
 11
12538.3638607305
 21
12045.791831292701
  0
LINE
  8
_1-5_寸法
  6
CENTER1
 62
    7
 10
12235.364382828524
 20
11390.115688427075
 11
12235.364382828524
 21
12045.791831292701
  0
LINE
  8
_1-0_____
  6
CONTINUOUS
 62
    7
 10
14996.270558714406
 20
11687.534453638731
 11
14681.864398381886
 21
11687.534453638731
  0
LINE
  8
_1-5_寸法
  6
CONTINUOUS
 62
    7
 10
11898.458489377526
 20
11944.052518159726
 11
11935.276031788711
 21
11958.791723656379
  0
LINE
  8
_1-5_寸法
  6
CONTINUOUS
 62
    7
 10
11898.458489377526
 20
11944.052518159726
 11
11937.404565700694
 21
11928.983330450463
  0
LINE
  8
_1-5_寸法
  6
CONTINUOUS
 62
    7
 10
11898.458489377526
 20
11944.135013712879
 11
12538.3638607305
 21
11944.135013712879
  0
LINE
  8
_1-5_寸法
  6
CONTINUOUS
 62
    7
 10
12450.73203038985
 20
10848.02551740845
 11
12876.334021137489
 21
10848.02551740845
  0
LINE
  8
_1-5_寸法
  6
CONTINUOUS
 62
    7
 10
12406.336788339504
 20
10848.02551740845
 11
12406.336788339504
 21
10930.850309570784
  0
LINE
  8
_1-5_寸法
  6
CONTINUOUS
 62
    7
 10
12916.884673129638
 20
10848.02551740845
 11
12916.884673129638
 21
10930.850309570784
  0
LINE
  8
_1-5_寸法
  6
CONTINUOUS
 62
    7
 10
12406.336788339504
 20
10848.02551740845
 11
12450.73203038985
 21
10848.02551740845
  0
LINE
  8
_1-5_寸法
  6
CONTINUOUS
 62
    7
 10
12876.334021137489
 20
10848.02551740845
 11
12916.884673129638
 21
10848.02551740845
  0
LINE
  8
_1-5_寸法
  6
CONTINUOUS
 62
    7
 10
12925.702035675638
 20
10897.942759097772
 11
12916.884673129638
 21
10930.850309570784
  0
LINE
  8
_1-5_寸法
  6
CONTINUOUS
 62
    7
 10
12397.519425793504
 20
10897.942759097772
 11
12406.336788339504
 21
10930.850309570784
  0
LINE
  8
_1-6_文字
  6
CONTINUOUS
 62
    7
 10
13704.15831694732
 20
11157.936784898913
 11
13788.987528090311
 21
11304.862851470592
  0
LINE
  8
_1-6_文字
  6
CONTINUOUS
 62
    7
 10
13503.896274051151
 20
10266.718000905394
 11
13588.725485194143
 21
10413.644067477075
  0
LINE
  8
_1-0_____
  6
CONTINUOUS
 62
    7
 10
14996.270558714406
 20
11717.534593265489
 11
11898.458489377526
 21
11717.534593265489
  0
LINE
  8
_1-0_____
  6
CONTINUOUS
 62
    7
 10
12818.863605513996
 20
11687.534453638731
 11
12712.364076003145
 21
11687.534453638731
  0
LINE
  8
_1-0_____
  6
CONTINUOUS
 62
    7
 10
12667.364609766189
 20
11687.534453638731
 11
12560.863593848975
 21
11687.534453638731
  0
LINE
  8
_1-0_____
  6
CONTINUOUS
 62
    7
 10
14333.863967836593
 20
11687.534453638731
 11
14227.364438325742
 21
11687.534453638731
  0
LINE
  8
_1-0_____
  6
CONTINUOUS
 62
    7
 10
14182.363485682425
 20
11687.534453638731
 11
14075.863956171574
 21
11687.534453638731
  0
LINE
  8
_1-6_文字
  6
CONTINUOUS
 62
    7
 10
13459.272868624064
 20
11552.887590032748
 11
13561.626810788188
 21
11730.171276961515
  0
LINE
  8
_1-6_文字
  6
CONTINUOUS
 62
    7
 10
14130.797076133225
 20
11700.804346445444
 11
14174.449858205198
 21
11776.414122121214
  0
LINE
  8
_1-6_文字
  6
CONTINUOUS
 62
    7
 10
13561.626810788188
 20
11730.171276961515
 11
13861.626720649396
 21
11730.171276961515
  0
LINE
  8
_1-6_文字
  6
CONTINUOUS
 62
    7
 10
14174.449858205198
 20
11776.414122121214
 11
14504.449907693162
 21
11776.414122121214
  0
LINE
  8
_1-6_文字
  6
CONTINUOUS
 62
    7
 10
13788.987528090311
 20
11304.862851470592
 11
14118.987577578277
 21
11304.862851470592
  0
LINE
  8
_1-6_文字
  6
CONTINUOUS
 62
    7
 10
13588.725485194143
 20
10413.644067477075
 11
13918.725534682108
 21
10413.644067477075
  0
LINE
  8
_1-1______
  6
CONTINUOUS
 62
    7
 10
12212.863906506867
 20
11697.53425244659
 11
12212.863906506867
 21
10057.960402440842
  0
LINE
  8
_1-1______
  6
CONTINUOUS
 62
    7
 10
14681.864398381886
 20
11697.53425244659
 11
14681.864398381886
 21
10057.960402440842
  0
LINE
  8
_1-1______
  6
CONTINUOUS
 62
    7
 10
14333.863967836593
 20
11697.53425244659
 11
14333.863967836593
 21
10057.960402440842
  0
LINE
  8
_1-1______
  6
CONTINUOUS
 62
    7
 10
14378.863434073548
 20
11697.53425244659
 11
14378.863434073548
 21
10057.960402440842
  0
LINE
  8
_1-1______
  6
CONTINUOUS
 62
    7
 10
12257.864115947001
 20
11697.53425244659
 11
12257.864115947001
 21
10057.960402440842
  0
LINE
  8
_1-1______
  6
CONTINUOUS
 62
    7
 10
14636.863445738567
 20
11697.53425244659
 11
14636.863445738567
 21
10057.960402440842
  0
LINE
  8
_1-1______
  6
CONTINUOUS
 62
    7
 10
12515.864127612022
 20
11697.53425244659
 11
12515.864127612022
 21
10057.960402440842
  0
LINE
  8
_1-1______
  6
CONTINUOUS
 62
    7
 10
12560.863593848975
 20
11697.53425244659
 11
12560.863593848975
 21
10057.960402440842
  0
LINE
  8
_1-1______
  6
CONTINUOUS
 62
    7
 10
12667.364609766189
 20
11697.53425244659
 11
12667.364609766189
 21
10057.960402440842
  0
LINE
  8
_1-1______
  6
CONTINUOUS
 62
    7
 10
14182.363485682425
 20
11697.53425244659
 11
14182.363485682425
 21
10057.960402440842
  0
LINE
  8
_1-1______
  6
CONTINUOUS
 62
    7
 10
14227.364438325742
 20
11697.53425244659
 11
14227.364438325742
 21
10057.960402440842
  0
LINE
  8
_2-6_文字
  6
CONTINUOUS
 62
    7
 10
7862.7202888989532
 20
8877.0380454634142
 11
8206.045971432246
 21
9471.6957207167925
  0
LINE
  8
_2-6_文字
  6
CONTINUOUS
 62
    7
 10
7881.303341250622
 20
8822.9781892400915
 11
8082.2268349783762
 21
9170.9882814267439
  0
LINE
  8
_2-6_文字
  6
CONTINUOUS
 62
    7
 10
8206.045971432246
 20
9471.6957207167925
 11
8536.046020920212
 21
9471.6957207167925
  0
LINE
  8
_2-6_文字
  6
CONTINUOUS
 62
    7
 10
8082.2268349783762
 20
9170.9882814267439
 11
8262.2269295357382
 21
9170.9882814267439
  0
LINE
  8
_2-4______
  6
CONTINUOUS
 62
    7
 10
7906.9312165602751
 20
9423.964239584433
 11
7906.9312165602751
 21
7034.6016846292268
  0
LINE
  8
_2-2_______
  6
CONTINUOUS
 62
    7
 10
7843.180734052622
 20
7938.7960529695611
 11
7873.1808736793782
 21
7938.7960529695611
  0
LINE
  8
_2-2_______
  6
CONTINUOUS
 62
    7
 10
7843.180734052622
 20
7908.7966565459847
 11
7873.1808736793782
 21
7908.7966565459847
  0
LINE
  8
_2-2_______
  6
CONTINUOUS
 62
    7
 10
7843.180734052622
 20
7991.2966689179766
 11
7873.1808736793782
 21
7991.2966689179766
  0
LINE
  8
_2-2_______
  6
CONTINUOUS
 62
    7
 10
7843.180734052622
 20
7856.29604059757
 11
7873.1808736793782
 21
7856.29604059757
  0
LINE
  8
_2-2_______
  6
CONTINUOUS
 62
    7
 10
7843.180734052622
 20
7991.2966689179766
 11
7843.180734052622
 21
7938.7960529695611
  0
LINE
  8
_2-2_______
  6
CONTINUOUS
 62
    7
 10
7873.1808736793782
 20
7991.2966689179766
 11
7873.1808736793782
 21
7938.7960529695611
  0
LINE
  8
_2-2_______
  6
CONTINUOUS
 62
    7
 10
7873.1808736793782
 20
7908.7966565459847
 11
7873.1808736793782
 21
7856.29604059757
  0
LINE
  8
_2-2_______
  6
CONTINUOUS
 62
    7
 10
7843.180734052622
 20
7908.7966565459847
 11
7843.180734052622
 21
7856.29604059757
  0
LINE
  8
_2-3______
  6
CONTINUOUS
 62
    7
 10
7843.180734052622
 20
7938.7960529695611
 11
7873.1808736793782
 21
7938.7960529695611
  0
LINE
  8
_2-3______
  6
CONTINUOUS
 62
    7
 10
7873.1808736793782
 20
7938.7960529695611
 11
7873.1808736793782
 21
7908.7966565459847
  0
LINE
  8
_2-3______
  6
CONTINUOUS
 62
    7
 10
7873.1808736793782
 20
7908.7966565459847
 11
7843.180734052622
 21
7908.7966565459847
  0
LINE
  8
_2-3______
  6
CONTINUOUS
 62
    7
 10
7843.180734052622
 20
7908.7966565459847
 11
7843.180734052622
 21
7938.7960529695611
  0
LINE
  8
_2-2_______
  6
CONTINUOUS
 62
    7
 10
7843.180734052622
 20
8838.7972689595463
 11
7873.1808736793782
 21
8838.7972689595463
  0
LINE
  8
_2-2_______
  6
CONTINUOUS
 62
    7
 10
7843.180734052622
 20
8808.7971293327882
 11
7873.1808736793782
 21
8808.7971293327882
  0
LINE
  8
_2-2_______
  6
CONTINUOUS
 62
    7
 10
7843.180734052622
 20
8891.2971417047793
 11
7873.1808736793782
 21
8891.2971417047793
  0
LINE
  8
_2-2_______
  6
CONTINUOUS
 62
    7
 10
7843.180734052622
 20
8756.2972565875552
 11
7873.1808736793782
 21
8756.2972565875552
  0
LINE
  8
_2-2_______
  6
CONTINUOUS
 62
    7
 10
7843.180734052622
 20
8891.2971417047793
 11
7843.180734052622
 21
8838.7972689595463
  0
LINE
  8
_2-2_______
  6
CONTINUOUS
 62
    7
 10
7873.1808736793782
 20
8891.2971417047793
 11
7873.1808736793782
 21
8838.7972689595463
  0
LINE
  8
_2-2_______
  6
CONTINUOUS
 62
    7
 10
7873.1808736793782
 20
8808.7971293327882
 11
7873.1808736793782
 21
8756.2972565875552
  0
LINE
  8
_2-2_______
  6
CONTINUOUS
 62
    7
 10
7843.180734052622
 20
8808.7971293327882
 11
7843.180734052622
 21
8756.2972565875552
  0
LINE
  8
_2-3______
  6
CONTINUOUS
 62
    7
 10
7843.180734052622
 20
8838.7972689595463
 11
7873.1808736793782
 21
8838.7972689595463
  0
LINE
  8
_2-3______
  6
CONTINUOUS
 62
    7
 10
7873.1808736793782
 20
8838.7972689595463
 11
7873.1808736793782
 21
8808.7971293327882
  0
LINE
  8
_2-3______
  6
CONTINUOUS
 62
    7
 10
7873.1808736793782
 20
8808.7971293327882
 11
7843.180734052622
 21
8808.7971293327882
  0
LINE
  8
_2-3______
  6
CONTINUOUS
 62
    7
 10
7843.180734052622
 20
8808.7971293327882
 11
7843.180734052622
 21
8838.7972689595463
  0
LINE
  8
_2-0_____
  6
CONTINUOUS
 62
    7
 10
7889.6807275131396
 20
7053.7956499961347
 11
7888.930835502948
 21
7053.7956499961347
  0
LINE
  8
_2-0_____
  6
CONTINUOUS
 62
    7
 10
7872.4309816691866
 20
7068.7957198095137
 11
7873.1808736793782
 21
7068.7957198095137
  0
LINE
  8
_2-0_____
  6
CONTINUOUS
 62
    7
 10
7872.4309816691866
 20
7068.7957198095137
 11
7872.4309816691866
 21
7023.7955103693785
  0
LINE
  8
_2-0_____
  6
CONTINUOUS
 62
    7
 10
7873.1808736793782
 20
7068.7957198095137
 11
7873.1808736793782
 21
7024.5461455827508
  0
LINE
  8
_2-0_____
  6
CONTINUOUS
 62
    7
 10
7889.6807275131396
 20
7053.7956499961347
 11
7889.6807275131396
 21
7023.7955103693785
  0
LINE
  8
_2-0_____
  6
CONTINUOUS
 62
    7
 10
7888.930835502948
 20
7053.7956499961347
 11
7888.930835502948
 21
7024.5461455827508
  0
LINE
  8
_2-0_____
  6
CONTINUOUS
 62
    7
 10
7872.4309816691866
 20
7023.7955103693785
 11
7889.6807275131396
 21
7023.7955103693785
  0
LINE
  8
_2-0_____
  6
CONTINUOUS
 62
    7
 10
7873.1808736793782
 20
7024.5461455827508
 11
7888.930835502948
 21
7024.5461455827508
  0
LINE
  8
_2-7_躯体
  6
CONTINUOUS
 62
    7
 10
7843.180734052622
 20
7023.7955103693785
 11
8511.8465821255122
 21
7023.7955103693785
  0
LINE
  8
_2-7_躯体
  6
CENTER1
 62
    7
 10
7843.180734052622
 20
7023.7955103693785
 11
7584.4033318596912
 21
7023.7955103693785
  0
LINE
  8
_2-7_躯体
  6
CENTER1
 62
    7
 10
7584.4033318596912
 20
7923.7967263593628
 11
8025.259567908799
 21
7923.7967263593628
  0
LINE
  8
_2-7_躯体
  6
CENTER1
 62
    7
 10
7584.4033318596912
 20
8823.7971991461673
 11
8025.259567908799
 21
8823.7971991461673
  0
LINE
  8
_2-7_躯体
  6
CONTINUOUS
 62
    7
 10
7693.1807791220172
 20
8530.7990064584155
 11
7843.180734052622
 21
8680.7997045922002
  0
LINE
  8
_2-7_躯体
  6
CONTINUOUS
 62
    7
 10
7693.1807791220172
 20
8488.372509636014
 11
7843.180734052622
 21
8638.3732077697987
  0
LINE
  8
_2-7_躯体
  6
CONTINUOUS
 62
    7
 10
7859.2874334033386
 20
6999.8390990150474
 11
7859.2874334033386
 21
6962.2478820918604
  0
LINE
  8
_2-7_躯体
  6
CONTINUOUS
 62
    7
 10
7693.1807791220172
 20
6813.2772635677147
 11
7717.4641998762327
 21
6837.5606843219302
  0
LINE
  8
_2-7_躯体
  6
CONTINUOUS
 62
    7
 10
7693.1807791220172
 20
6900.7775469452254
 11
7720.162770628468
 21
6873.7955554387745
  0
LINE
  8
_2-7_躯体
  6
CONTINUOUS
 62
    7
 10
7693.1807791220172
 20
6813.2772635677147
 11
7693.1807791220172
 21
6726.3670835163603
  0
LINE
  8
_2-7_躯体
  6
CONTINUOUS
 62
    7
 10
7720.162770628468
 20
6873.7955554387745
 11
7843.180734052622
 21
6873.7955554387745
  0
LINE
  8
_2-7_躯体
  6
CONTINUOUS
 62
    7
 10
7720.162770628468
 20
6873.7955554387745
 11
7843.180734052622
 21
6873.7955554387745
  0
LINE
  8
_2-7_躯体
  6
CONTINUOUS
 62
    7
 10
7717.4641998762327
 20
6837.5606843219302
 11
7827.8432499948158
 21
6837.5606843219302
  0
LINE
  8
_2-7_躯体
  6
CONTINUOUS
 62
    7
 10
7749.2993081582563
 20
6873.7955554387745
 11
7749.2993081582563
 21
6837.5606843219302
  0
LINE
  8
_2-7_躯体
  6
CONTINUOUS
 62
    7
 10
7720.162770628468
 20
6873.7955554387745
 11
7720.162770628468
 21
6837.5606843219302
  0
LINE
  8
_2-7_躯体
  6
CONTINUOUS
 62
    7
 10
7859.2874334033386
 20
6944.4310722203791
 11
7859.2874334033386
 21
6863.5244874696473
  0
LINE
  8
_2-7_躯体
  6
CONTINUOUS
 62
    7
 10
7875.4491297894929
 20
6929.6859210982748
 11
7875.4491297894929
 21
6876.8694437976974
  0
LINE
  8
_2-7_躯体
  6
CONTINUOUS
 62
    7
 10
7885.1598225597245
 20
6936.3754929354754
 11
7885.1598225597245
 21
6884.8878629235232
  0
LINE
  8
_2-7_躯体
  6
CONTINUOUS
 62
    7
 10
7843.180734052622
 20
6961.9543168351456
 11
7875.4491297894929
 21
6929.6859210982748
  0
LINE
  8
_2-7_躯体
  6
CONTINUOUS
 62
    7
 10
7859.2874334033386
 20
6962.2478820918604
 11
7885.1598225597245
 21
6936.3754929354754
  0
LINE
  8
_2-7_躯体
  6
CONTINUOUS
 62
    7
 10
7843.180734052622
 20
6999.8390990150474
 11
7859.2874334033386
 21
6999.8390990150474
  0
LINE
  8
_2-7_躯体
  6
CONTINUOUS
 62
    7
 10
7693.1807791220172
 20
7472.517808892092
 11
7843.180734052622
 21
7622.517763822696
  0
LINE
  8
_2-7_躯体
  6
CONTINUOUS
 62
    7
 10
7693.1807791220172
 20
7430.0913120696905
 11
7843.180734052622
 21
7580.0912670002936
  0
LINE
  8
_2-7_躯体
  6
CONTINUOUS
 62
    7
 10
8014.2051637863087
 20
7023.7955103693785
 11
8014.2051637863087
 21
6892.3778645872608
  0
LINE
  8
_2-7_躯体
  6
CONTINUOUS
 62
    7
 10
8160.0127095697471
 20
6873.7955554387745
 11
8310.0126645003511
 21
7023.7955103693785
  0
LINE
  8
_2-7_躯体
  6
CONTINUOUS
 62
    7
 10
8202.4392063921478
 20
6873.7955554387745
 11
8352.4391613227526
 21
7023.7955103693785
  0
LINE
  8
_2-7_躯体
  6
CONTINUOUS
 62
    7
 10
8117.5862127473447
 20
6873.7955554387745
 11
8267.5861676779496
 21
7023.7955103693785
  0
LINE
  8
_2-7_躯体
  6
CONTINUOUS
 62
    7
 10
7843.180734052622
 20
6873.7955554387745
 11
7843.180734052622
 21
9423.964239584433
  0
LINE
  8
_2-7_躯体
  6
CONTINUOUS
 62
    7
 10
7693.1807791220172
 20
9423.964239584433
 11
7693.1807791220172
 21
6900.7775469452254
  0
LINE
  8
_2-1______
  6
CONTINUOUS
 62
    7
 10
7873.1808736793782
 20
9423.964239584433
 11
7873.1808736793782
 21
7032.0458088878495
  0
LINE
  8
_2-1______
  6
CONTINUOUS
 62
    7
 10
7888.1809434927563
 20
7032.0458088878495
 11
7888.1809434927563
 21
9423.964239584433
  0
LINE
  8
_2-1______
  6
CONTINUOUS
 62
    7
 10
7873.1808736793782
 20
7032.0458088878495
 11
7888.1809434927563
 21
7032.0458088878495
  0
LINE
  8
_2-4______
  6
CONTINUOUS
 62
    7
 10
7889.6807275131396
 20
7034.6016846292268
 11
7906.9312165602751
 21
7034.6016846292268
  0
LINE
  8
_2-4______
  6
CONTINUOUS
 62
    7
 10
7888.1809434927563
 20
9423.964239584433
 11
7888.1809434927563
 21
7053.7956499961347
  0
LINE
  8
_2-6_文字
  6
CONTINUOUS
 62
    7
 10
8175.6883510751604
 20
8011.5117954563457
 11
8535.6885401898835
 21
8011.5117954563457
  0
LINE
  8
_2-6_文字
  6
CONTINUOUS
 62
    7
 10
7892.834881815671
 20
7521.5952309862523
 11
8175.6883510751604
 21
8011.5117954563457
  0
LINE
  8
_2-6_文字
  6
CONTINUOUS
 62
    7
 10
8158.2483452167289
 20
7508.6850485194145
 11
8488.2483947046931
 21
7508.6850485194145
  0
LINE
  8
_2-6_文字
  6
CONTINUOUS
 62
    7
 10
7889.6807275131396
 20
7043.5134339792849
 11
8158.2483452167289
 21
7508.6850485194145
  0
LINE
  8
_2-1______
  6
CONTINUOUS
 62
    7
 10
7873.1808736793782
 20
8817.7965766582711
 11
7888.1809434927563
 21
8817.7965766582711
  0
LINE
  8
_2-1______
  6
CONTINUOUS
 62
    7
 10
7873.1808736793782
 20
8829.7970784308836
 11
7888.1809434927563
 21
8829.7970784308836
  0
LINE
  8
_2-1______
  6
CONTINUOUS
 62
    7
 10
7873.1808736793782
 20
7917.7961038714666
 11
7888.1809434927563
 21
7917.7961038714666
  0
LINE
  8
_2-1______
  6
CONTINUOUS
 62
    7
 10
7873.1808736793782
 20
7929.7966056440791
 11
7888.1809434927563
 21
7929.7966056440791
  0
LINE
  8
_2-4______
  6
CONTINUOUS
 62
    7
 10
9414.4698189400351
 20
9423.964239584433
 11
9414.4698189400351
 21
7034.6016846292268
  0
LINE
  8
_2-2_______
  6
CONTINUOUS
 62
    7
 10
9350.720079635561
 20
7938.7960529695611
 11
9380.720219262319
 21
7938.7960529695611
  0
LINE
  8
_2-2_______
  6
CONTINUOUS
 62
    7
 10
9350.720079635561
 20
7908.7966565459847
 11
9380.720219262319
 21
7908.7966565459847
  0
LINE
  8
_2-2_______
  6
CONTINUOUS
 62
    7
 10
9350.720079635561
 20
7991.2966689179766
 11
9380.720219262319
 21
7991.2966689179766
  0
LINE
  8
_2-2_______
  6
CONTINUOUS
 62
    7
 10
9350.720079635561
 20
7856.29604059757
 11
9380.720219262319
 21
7856.29604059757
  0
LINE
  8
_2-2_______
  6
CONTINUOUS
 62
    7
 10
9350.720079635561
 20
7991.2966689179766
 11
9350.720079635561
 21
7938.7960529695611
  0
LINE
  8
_2-2_______
  6
CONTINUOUS
 62
    7
 10
9380.720219262319
 20
7991.2966689179766
 11
9380.720219262319
 21
7938.7960529695611
  0
LINE
  8
_2-2_______
  6
CONTINUOUS
 62
    7
 10
9380.720219262319
 20
7908.7966565459847
 11
9380.720219262319
 21
7856.29604059757
  0
LINE
  8
_2-2_______
  6
CONTINUOUS
 62
    7
 10
9350.720079635561
 20
7908.7966565459847
 11
9350.720079635561
 21
7856.29604059757
  0
LINE
  8
_2-3______
  6
CONTINUOUS
 62
    7
 10
9350.720079635561
 20
7938.7960529695611
 11
9380.720219262319
 21
7938.7960529695611
  0
LINE
  8
_2-3______
  6
CONTINUOUS
 62
    7
 10
9380.720219262319
 20
7938.7960529695611
 11
9380.720219262319
 21
7908.7966565459847
  0
LINE
  8
_2-3______
  6
CONTINUOUS
 62
    7
 10
9380.720219262319
 20
7908.7966565459847
 11
9350.720079635561
 21
7908.7966565459847
  0
LINE
  8
_2-3______
  6
CONTINUOUS
 62
    7
 10
9350.720079635561
 20
7908.7966565459847
 11
9350.720079635561
 21
7938.7960529695611
  0
LINE
  8
_2-2_______
  6
CONTINUOUS
 62
    7
 10
9350.720079635561
 20
8838.7972689595463
 11
9380.720219262319
 21
8838.7972689595463
  0
LINE
  8
_2-2_______
  6
CONTINUOUS
 62
    7
 10
9350.720079635561
 20
8808.7971293327882
 11
9380.720219262319
 21
8808.7971293327882
  0
LINE
  8
_2-2_______
  6
CONTINUOUS
 62
    7
 10
9350.720079635561
 20
8891.2971417047793
 11
9380.720219262319
 21
8891.2971417047793
  0
LINE
  8
_2-2_______
  6
CONTINUOUS
 62
    7
 10
9350.720079635561
 20
8756.2972565875552
 11
9380.720219262319
 21
8756.2972565875552
  0
LINE
  8
_2-2_______
  6
CONTINUOUS
 62
    7
 10
9350.720079635561
 20
8891.2971417047793
 11
9350.720079635561
 21
8838.7972689595463
  0
LINE
  8
_2-2_______
  6
CONTINUOUS
 62
    7
 10
9380.720219262319
 20
8891.2971417047793
 11
9380.720219262319
 21
8838.7972689595463
  0
LINE
  8
_2-2_______
  6
CONTINUOUS
 62
    7
 10
9380.720219262319
 20
8808.7971293327882
 11
9380.720219262319
 21
8756.2972565875552
  0
LINE
  8
_2-2_______
  6
CONTINUOUS
 62
    7
 10
9350.720079635561
 20
8808.7971293327882
 11
9350.720079635561
 21
8756.2972565875552
  0
LINE
  8
_2-3______
  6
CONTINUOUS
 62
    7
 10
9350.720079635561
 20
8838.7972689595463
 11
9380.720219262319
 21
8838.7972689595463
  0
LINE
  8
_2-3______
  6
CONTINUOUS
 62
    7
 10
9380.720219262319
 20
8838.7972689595463
 11
9380.720219262319
 21
8808.7971293327882
  0
LINE
  8
_2-3______
  6
CONTINUOUS
 62
    7
 10
9380.720219262319
 20
8808.7971293327882
 11
9350.720079635561
 21
8808.7971293327882
  0
LINE
  8
_2-3______
  6
CONTINUOUS
 62
    7
 10
9350.720079635561
 20
8808.7971293327882
 11
9350.720079635561
 21
8838.7972689595463
  0
LINE
  8
_2-0_____
  6
CONTINUOUS
 62
    7
 10
9397.2200730960794
 20
7053.7956499961347
 11
9396.4701810858878
 21
7053.7956499961347
  0
LINE
  8
_2-0_____
  6
CONTINUOUS
 62
    7
 10
9379.9695840489439
 20
7068.7957198095137
 11
9380.720219262319
 21
7068.7957198095137
  0
LINE
  8
_2-0_____
  6
CONTINUOUS
 62
    7
 10
9379.9695840489439
 20
7068.7957198095137
 11
9379.9695840489439
 21
7023.7955103693785
  0
LINE
  8
_2-0_____
  6
CONTINUOUS
 62
    7
 10
9380.720219262319
 20
7068.7957198095137
 11
9380.720219262319
 21
7024.5461455827508
  0
LINE
  8
_2-0_____
  6
CONTINUOUS
 62
    7
 10
9397.2200730960794
 20
7053.7956499961347
 11
9397.2200730960794
 21
7023.7955103693785
  0
LINE
  8
_2-0_____
  6
CONTINUOUS
 62
    7
 10
9396.4701810858878
 20
7053.7956499961347
 11
9396.4701810858878
 21
7024.5461455827508
  0
LINE
  8
_2-0_____
  6
CONTINUOUS
 62
    7
 10
9379.9695840489439
 20
7023.7955103693785
 11
9397.2200730960794
 21
7023.7955103693785
  0
LINE
  8
_2-0_____
  6
CONTINUOUS
 62
    7
 10
9380.720219262319
 20
7024.5461455827508
 11
9396.4701810858878
 21
7024.5461455827508
  0
LINE
  8
_2-1______
  6
CONTINUOUS
 62
    7
 10
9380.720219262319
 20
9423.964239584433
 11
9380.720219262319
 21
7032.0458088878495
  0
LINE
  8
_2-1______
  6
CONTINUOUS
 62
    7
 10
9395.7195458725146
 20
7032.0458088878495
 11
9395.7195458725146
 21
9423.964239584433
  0
LINE
  8
_2-1______
  6
CONTINUOUS
 62
    7
 10
9380.720219262319
 20
7032.0458088878495
 11
9395.7195458725146
 21
7032.0458088878495
  0
LINE
  8
_2-4______
  6
CONTINUOUS
 62
    7
 10
9397.2200730960794
 20
7034.6016846292268
 11
9414.4698189400351
 21
7034.6016846292268
  0
LINE
  8
_2-4______
  6
CONTINUOUS
 62
    7
 10
9395.7195458725146
 20
9423.964239584433
 11
9395.7195458725146
 21
7053.7956499961347
  0
LINE
  8
_2-1______
  6
CONTINUOUS
 62
    7
 10
9380.720219262319
 20
8817.7965766582711
 11
9395.7195458725146
 21
8817.7965766582711
  0
LINE
  8
_2-1______
  6
CONTINUOUS
 62
    7
 10
9380.720219262319
 20
8829.7970784308836
 11
9395.7195458725146
 21
8829.7970784308836
  0
LINE
  8
_2-1______
  6
CONTINUOUS
 62
    7
 10
9380.720219262319
 20
7917.7961038714666
 11
9395.7195458725146
 21
7917.7961038714666
  0
LINE
  8
_2-1______
  6
CONTINUOUS
 62
    7
 10
9380.720219262319
 20
7929.7966056440791
 11
9395.7195458725146
 21
7929.7966056440791
  0
LINE
  8
_2-7_躯体
  6
CENTER1
 62
    7
 10
8989.8124394361566
 20
8823.7971991461673
 11
9532.7989134917389
 21
8823.7971991461673
  0
LINE
  8
_2-7_躯体
  6
CENTER1
 62
    7
 10
8989.8124394361566
 20
7923.7967263593628
 11
9532.7989134917389
 21
7923.7967263593628
  0
LINE
  8
_2-0_____
  6
CENTER1
 62
    7
 10
9350.720079635561
 20
7023.7955103693785
 11
8966.2536417839601
 21
7023.7955103693785
  0
LINE
  8
_2-7_躯体
  6
CONTINUOUS
 62
    7
 10
9667.5513119495045
 20
6873.7955554387745
 11
9817.552010083291
 21
7023.7955103693785
  0
LINE
  8
_2-7_躯体
  6
CONTINUOUS
 62
    7
 10
9625.1255583302845
 20
6873.7955554387745
 11
9775.1255132608894
 21
7023.7955103693785
  0
LINE
  8
_2-7_躯体
  6
CONTINUOUS
 62
    7
 10
9709.977808771906
 20
6873.7955554387745
 11
9859.9777637025109
 21
7023.7955103693785
  0
LINE
  8
_2-7_躯体
  6
CONTINUOUS
 62
    7
 10
9075.0310890462879
 20
8429.6802679820412
 11
9350.720079635561
 21
8705.3685153681326
  0
LINE
  8
_2-7_躯体
  6
CONTINUOUS
 62
    7
 10
9075.0310890462879
 20
8378.999013422077
 11
9350.720079635561
 21
8654.6880040113519
  0
LINE
  8
_2-7_躯体
  6
CONTINUOUS
 62
    7
 10
9075.0310890462879
 20
8333.3864045603405
 11
9350.720079635561
 21
8609.0746519464319
  0
LINE
  8
_2-7_躯体
  6
CONTINUOUS
 62
    7
 10
9075.0310890462879
 20
7297.8033753619693
 11
9350.720079635561
 21
7573.4923659512433
  0
LINE
  8
_2-7_躯体
  6
CONTINUOUS
 62
    7
 10
9075.0310890462879
 20
7378.8935312985459
 11
9350.720079635561
 21
7654.5817786846383
  0
LINE
  8
_2-7_躯体
  6
CONTINUOUS
 62
    7
 10
9075.0310890462879
 20
7336.6595241001669
 11
9350.720079635561
 21
7612.3477714862602
  0
LINE
  8
_2-7_躯体
  6
CONTINUOUS
 62
    7
 10
9350.720079635561
 20
7023.7955103693785
 11
9350.720079635561
 21
9423.964239584433
  0
LINE
  8
_2-7_躯体
  6
CONTINUOUS
 62
    7
 10
9350.720079635561
 20
7023.7955103693785
 11
10019.385184505272
 21
7023.7955103693785
  0
LINE
  8
_3-1______
  6
CONTINUOUS
 62
    7
 10
14276.146808756825
 20
8052.4087801311007
 11
14336.147088010339
 21
8052.4087801311007
  0
LINE
  8
_3-1______
  6
CONTINUOUS
 62
    7
 10
14276.146808756825
 20
8049.4084688871526
 11
14333.147519969571
 21
8049.4084688871526
  0
LINE
  8
_3-1______
  6
CONTINUOUS
 62
    7
 10
14336.147088010339
 20
8052.4087801311007
 11
14336.147088010339
 21
7992.4085008775855
  0
LINE
  8
_3-1______
  6
CONTINUOUS
 62
    7
 10
14333.147519969571
 20
8049.4084688871526
 11
14333.147519969571
 21
7995.4088121215336
  0
LINE
  8
_3-1______
  6
CONTINUOUS
 62
    7
 10
14336.147088010339
 20
7992.4085008775855
 11
14066.147317775889
 21
7992.4085008775855
  0
LINE
  8
_3-1______
  6
CONTINUOUS
 62
    7
 10
14333.147519969571
 20
7995.4088121215336
 11
14069.146885816654
 21
7995.4088121215336
  0
LINE
  8
_3-1______
  6
CONTINUOUS
 62
    7
 10
14126.147597029401
 20
8052.4087801311007
 11
14066.147317775889
 21
8052.4087801311007
  0
LINE
  8
_3-1______
  6
CONTINUOUS
 62
    7
 10
14126.147597029401
 20
8049.4084688871526
 11
14069.146885816654
 21
8049.4084688871526
  0
LINE
  8
_3-1______
  6
CONTINUOUS
 62
    7
 10
14066.147317775889
 20
7992.4085008775855
 11
14066.147317775889
 21
8052.4087801311007
  0
LINE
  8
_3-1______
  6
CONTINUOUS
 62
    7
 10
14069.146885816654
 20
7995.4088121215336
 11
14069.146885816654
 21
8049.4084688871526
  0
LINE
  8
_3-1______
  6
CONTINUOUS
 62
    7
 10
14276.146808756825
 20
8049.4084688871526
 11
14276.146808756825
 21
8052.4087801311007
  0
LINE
  8
_3-1______
  6
CONTINUOUS
 62
    7
 10
14126.147597029401
 20
8049.4084688871526
 11
14126.147597029401
 21
8052.4087801311007
  0
LINE
  8
_3-1______
  6
CONTINUOUS
 62
    7
 10
14438.14726546004
 20
7887.4087553871177
 11
14441.146833500807
 21
7887.4087553871177
  0
LINE
  8
_3-1______
  6
CONTINUOUS
 62
    7
 10
14438.14726546004
 20
7737.4088004565156
 11
14441.146833500807
 21
7737.4088004565156
  0
LINE
  8
_3-1______
  6
CONTINUOUS
 62
    7
 10
14384.147608694422
 20
7944.4087233966848
 11
14438.14726546004
 21
7944.4087233966848
  0
LINE
  8
_3-1______
  6
CONTINUOUS
 62
    7
 10
14381.148040653656
 20
7947.4090346406329
 11
14441.146833500807
 21
7947.4090346406329
  0
LINE
  8
_3-1______
  6
CONTINUOUS
 62
    7
 10
14438.14726546004
 20
7887.4087553871177
 11
14438.14726546004
 21
7944.4087233966848
  0
LINE
  8
_3-1______
  6
CONTINUOUS
 62
    7
 10
14441.146833500807
 20
7887.4087553871177
 11
14441.146833500807
 21
7947.4090346406329
  0
LINE
  8
_3-1______
  6
CONTINUOUS
 62
    7
 10
14384.147608694422
 20
7680.4088324469485
 11
14384.147608694422
 21
7944.4087233966848
  0
LINE
  8
_3-1______
  6
CONTINUOUS
 62
    7
 10
14381.148040653656
 20
7677.4085212030004
 11
14381.148040653656
 21
7947.4090346406329
  0
LINE
  8
_3-1______
  6
CONTINUOUS
 62
    7
 10
14438.14726546004
 20
7680.4088324469485
 11
14384.147608694422
 21
7680.4088324469485
  0
LINE
  8
_3-1______
  6
CONTINUOUS
 62
    7
 10
14441.146833500807
 20
7677.4085212030004
 11
14381.148040653656
 21
7677.4085212030004
  0
LINE
  8
_3-1______
  6
CONTINUOUS
 62
    7
 10
14438.14726546004
 20
7737.4088004565156
 11
14438.14726546004
 21
7680.4088324469485
  0
LINE
  8
_3-1______
  6
CONTINUOUS
 62
    7
 10
14441.146833500807
 20
7737.4088004565156
 11
14441.146833500807
 21
7677.4085212030004
  0
LINE
  8
_3-3______
  6
DASHED1
 62
    7
 10
14327.423369065215
 20
7995.4088121215336
 11
14333.147519969571
 21
8001.1329630258924
  0
LINE
  8
_3-3______
  6
DASHED1
 62
    7
 10
14306.210863857195
 20
7995.4088121215336
 11
14333.147519969571
 21
8022.3454682339107
  0
LINE
  8
_3-3______
  6
DASHED1
 62
    7
 10
14284.996872242813
 20
7995.4088121215336
 11
14333.147519969571
 21
8043.5587166451123
  0
LINE
  8
_3-3______
  6
DASHED1
 62
    7
 10
14342.72740897985
 20
8053.1393488585727
 11
14365.417402112806
 21
8075.8285987883464
  0
LINE
  8
_3-3______
  6
DASHED1
 62
    7
 10
14263.784367034794
 20
7995.4088121215336
 11
14317.78402380041
 21
8049.4084688871526
  0
LINE
  8
_3-3______
  6
DASHED1
 62
    7
 10
14320.783591841178
 20
8052.4087801311007
 11
14363.376566176248
 21
8095.0010112629898
  0
LINE
  8
_3-3______
  6
DASHED1
 62
    7
 10
14242.570375420411
 20
7995.4088121215336
 11
14296.570032186029
 21
8049.4084688871526
  0
LINE
  8
_3-3______
  6
DASHED1
 62
    7
 10
14299.571086633159
 20
8052.4087801311007
 11
14353.816000448691
 21
8106.6536939466332
  0
LINE
  8
_3-3______
  6
DASHED1
 62
    7
 10
14221.357870212392
 20
7995.4088121215336
 11
14276.146808756825
 21
8050.1984938691485
  0
LINE
  8
_3-3______
  6
DASHED1
 62
    7
 10
14278.357095018779
 20
8052.4087801311007
 11
14338.281567547772
 21
8112.3325094569145
  0
LINE
  8
_3-3______
  6
DASHED1
 62
    7
 10
14200.14387859801
 20
7995.4088121215336
 11
14317.144869064272
 21
8112.409059384614
  0
LINE
  8
_3-3______
  6
DASHED1
 62
    7
 10
14178.931373389991
 20
7995.4088121215336
 11
14295.93087744989
 21
8112.409059384614
  0
LINE
  8
_3-3______
  6
DASHED1
 62
    7
 10
14157.71738177561
 20
7995.4088121215336
 11
14274.71837224187
 21
8112.409059384614
  0
LINE
  8
_3-3______
  6
DASHED1
 62
    7
 10
14136.504876567589
 20
7995.4088121215336
 11
14253.504380627488
 21
8112.409059384614
  0
LINE
  8
_3-3______
  6
DASHED1
 62
    7
 10
14115.290884953207
 20
7995.4088121215336
 11
14232.291875419469
 21
8112.409059384614
  0
LINE
  8
_3-3______
  6
DASHED1
 62
    7
 10
14094.07837974519
 20
7995.4088121215336
 11
14211.077883805086
 21
8112.409059384614
  0
LINE
  8
_3-3______
  6
DASHED1
 62
    7
 10
14072.864388130805
 20
7995.4088121215336
 11
14189.865378597069
 21
8112.409059384614
  0
LINE
  8
_3-3______
  6
DASHED1
 62
    7
 10
14069.146885816654
 20
8012.9045582185845
 11
14105.651539688404
 21
8049.4084688871526
  0
LINE
  8
_3-3______
  6
DASHED1
 62
    7
 10
14108.651107729171
 20
8052.4087801311007
 11
14168.651386982687
 21
8112.409059384614
  0
LINE
  8
_3-3______
  6
DASHED1
 62
    7
 10
14069.146885816654
 20
8034.1178066297844
 11
14084.439034480385
 21
8049.4084688871526
  0
LINE
  8
_3-3______
  6
DASHED1
 62
    7
 10
14087.438602521153
 20
8052.4087801311007
 11
14147.438881774666
 21
8112.409059384614
  0
LINE
  8
_3-3______
  6
DASHED1
 62
    7
 10
14066.226097313132
 20
8052.4087801311007
 11
14126.224890160283
 21
8112.409059384614
  0
LINE
  8
_3-3______
  6
DASHED1
 62
    7
 10
14049.83549434706
 20
8057.2314255762294
 11
14105.012384952264
 21
8112.409059384614
  0
LINE
  8
_3-3______
  6
DASHED1
 62
    7
 10
14039.678879667894
 20
8068.2880593082618
 11
14083.798393337882
 21
8112.409059384614
  0
LINE
  8
_3-3______
  6
DASHED1
 62
    7
 10
14036.38946238632
 20
8086.2126336410693
 11
14062.343603892676
 21
8112.1667751474261
  0
LINE
  8
_3-3______
  6
DASHED1
 62
    7
 10
14384.147608694422
 20
7686.1322401481248
 11
14389.87175959878
 21
7680.4088324469485
  0
LINE
  8
_3-3______
  6
DASHED1
 62
    7
 10
14384.147608694422
 20
7707.3454885593246
 11
14411.084264806799
 21
7680.4088324469485
  0
LINE
  8
_3-3______
  6
DASHED1
 62
    7
 10
14384.147608694422
 20
7728.5587369705254
 11
14432.298256421182
 21
7680.4088324469485
  0
LINE
  8
_3-3______
  6
DASHED1
 62
    7
 10
14441.878145431459
 20
7670.828200233489
 11
14464.566652158052
 21
7648.1389503037153
  0
LINE
  8
_3-3______
  6
DASHED1
 62
    7
 10
14384.147608694422
 20
7749.7719853817271
 11
14438.14726546004
 21
7695.772328616109
  0
LINE
  8
_3-3______
  6
DASHED1
 62
    7
 10
14441.146833500807
 20
7692.7720173721609
 11
14483.739807835876
 21
7650.1797862402718
  0
LINE
  8
_3-3______
  6
DASHED1
 62
    7
 10
14384.147608694422
 20
7770.9852337929278
 11
14438.14726546004
 21
7716.9855770273089
  0
LINE
  8
_3-3______
  6
DASHED1
 62
    7
 10
14441.146833500807
 20
7713.9852657833608
 11
14495.391747316338
 21
7659.7403519678301
  0
LINE
  8
_3-3______
  6
DASHED1
 62
    7
 10
14384.147608694422
 20
7792.1984822041286
 11
14438.936547238854
 21
7737.4088004565156
  0
LINE
  8
_3-3______
  6
DASHED1
 62
    7
 10
14441.146833500807
 20
7735.1985141945615
 11
14501.071306029802
 21
7675.2747848687486
  0
LINE
  8
_3-3______
  6
DASHED1
 62
    7
 10
14384.147608694422
 20
7813.4117306153285
 11
14501.147112754319
 21
7696.4114833522481
  0
LINE
  8
_3-3______
  6
DASHED1
 62
    7
 10
14384.147608694422
 20
7834.6249790265292
 11
14501.147112754319
 21
7717.6247317634488
  0
LINE
  8
_3-3______
  6
DASHED1
 62
    7
 10
14384.147608694422
 20
7855.8382274377291
 11
14501.147112754319
 21
7738.8379801746496
  0
LINE
  8
_3-3______
  6
DASHED1
 62
    7
 10
14384.147608694422
 20
7877.0514758489298
 11
14501.147112754319
 21
7760.0512285858513
  0
LINE
  8
_3-3______
  6
DASHED1
 62
    7
 10
14384.147608694422
 20
7898.2647242601324
 11
14501.147112754319
 21
7781.264476997052
  0
LINE
  8
_3-3______
  6
DASHED1
 62
    7
 10
14384.147608694422
 20
7919.4779726713323
 11
14501.147112754319
 21
7802.4777254082519
  0
LINE
  8
_3-3______
  6
DASHED1
 62
    7
 10
14384.147608694422
 20
7940.691221082533
 11
14501.147112754319
 21
7823.6909738194527
  0
LINE
  8
_3-3______
  6
DASHED1
 62
    7
 10
14401.64261158829
 20
7944.4087233966848
 11
14438.14726546004
 21
7907.9040695249341
  0
LINE
  8
_3-3______
  6
DASHED1
 62
    7
 10
14441.146833500807
 20
7904.9045014841686
 11
14501.147112754319
 21
7844.9042222306534
  0
LINE
  8
_3-3______
  6
DASHED1
 62
    7
 10
14422.856603202672
 20
7944.4087233966848
 11
14438.14726546004
 21
7929.1173179361349
  0
LINE
  8
_3-3______
  6
DASHED1
 62
    7
 10
14441.146833500807
 20
7926.1177498953684
 11
14501.147112754319
 21
7866.1174706418533
  0
LINE
  8
_3-3______
  6
DASHED1
 62
    7
 10
14441.146833500807
 20
7947.3309983065692
 11
14501.147112754319
 21
7887.3307190530541
  0
LINE
  8
_3-3______
  6
DASHED1
 62
    7
 10
14445.970222149115
 20
7963.7216012726412
 11
14501.147112754319
 21
7908.5439674642557
  0
LINE
  8
_3-3______
  6
DASHED1
 62
    7
 10
14457.026112677968
 20
7973.877472748628
 11
14501.147112754319
 21
7929.7572158754565
  0
LINE
  8
_3-3______
  6
DASHED1
 62
    7
 10
14474.950687010774
 20
7977.166890030202
 11
14500.904828517134
 21
7951.2120053206627
  0
LINE
  8
_3-5_寸法
  6
CONTINUOUS
 62
    7
 10
14501.147112754319
 20
8262.4090143152189
 11
14201.147202893113
 21
8262.4090143152189
  0
LINE
  8
_3-5_寸法
  6
CONTINUOUS
 62
    7
 10
14501.147112754319
 20
8262.4090143152189
 11
14501.147112754319
 21
8172.4085954349466
  0
LINE
  8
_3-5_寸法
  6
CONTINUOUS
 62
    7
 10
14651.147810888107
 20
8112.409059384614
 11
14561.147392007835
 21
8112.409059384614
  0
LINE
  8
_3-5_寸法
  6
CONTINUOUS
 62
    7
 10
14651.147810888107
 20
8112.409059384614
 11
14651.147810888107
 21
7812.4084063202263
  0
LINE
  8
_3-5_寸法
  6
CONTINUOUS
 62
    7
 10
14651.147810888107
 20
7812.4084063202263
 11
14561.147392007835
 21
7812.4084063202263
  0
LINE
  8
_3-5_寸法
  6
CENTER1
 62
    7
 10
14246.146669130067
 20
7812.4084063202263
 11
14561.147392007835
 21
7812.4084063202263
  0
LINE
  8
_3-5_寸法
  6
CENTER1
 62
    7
 10
14201.147202893113
 20
8172.4085954349466
 11
14201.147202893113
 21
7857.4086157603615
  0
LINE
  8
_3-4______
  6
CONTINUOUS
 62
    7
 10
14381.148040653656
 20
7992.4085008775855
 11
14381.148040653656
 21
7917.4088950138748
  0
LINE
  8
_3-4______
  6
CONTINUOUS
 62
    7
 10
14381.148040653656
 20
7212.4085865978104
 11
14381.148040653656
 21
7917.4088950138748
  0
LINE
  8
_3-4______
  6
CONTINUOUS
 62
    7
 10
14306.146948383583
 20
7917.4088950138748
 11
14306.146948383583
 21
7212.4085865978104
  0
LINE
  8
_3-0_____
  6
CONTINUOUS
 62
    7
 10
14501.147112754319
 20
7212.4085865978104
 11
14501.147112754319
 21
8112.409059384614
  0
LINE
  8
_3-5_寸法
  6
CONTINUOUS
 62
    7
 10
14201.147202893113
 20
8262.4090143152189
 11
14201.147202893113
 21
8172.4085954349466
  0
LINE
  8
_3-5_寸法
  6
CONTINUOUS
 62
    7
 10
14066.147317775889
 20
8412.4089692458219
 11
14336.147088010339
 21
8412.4089692458219
  0
LINE
  8
_3-5_寸法
  6
CONTINUOUS
 62
    7
 10
14066.147317775889
 20
8412.4089692458219
 11
14066.147317775889
 21
8172.4085954349466
  0
LINE
  8
_3-5_寸法
  6
CONTINUOUS
 62
    7
 10
14336.147088010339
 20
8412.4089692458219
 11
14336.147088010339
 21
8172.4085954349466
  0
LINE
  8
_3-5_寸法
  6
CONTINUOUS
 62
    7
 10
14801.147022615529
 20
7947.4090346406329
 11
14801.147022615529
 21
7677.4085212030004
  0
LINE
  8
_3-5_寸法
  6
CONTINUOUS
 62
    7
 10
14801.147022615529
 20
7947.4090346406329
 11
14561.147392007835
 21
7947.4090346406329
  0
LINE
  8
_3-5_寸法
  6
CONTINUOUS
 62
    7
 10
14801.147022615529
 20
7677.4085212030004
 11
14561.147392007835
 21
7677.4085212030004
  0
LINE
  8
_3-5_寸法
  6
CONTINUOUS
 62
    7
 10
14381.148040653656
 20
7062.4086316672074
 11
14441.146833500807
 21
7062.4086316672074
  0
LINE
  8
_3-5_寸法
  6
CONTINUOUS
 62
    7
 10
14381.148040653656
 20
7062.4086316672074
 11
14381.148040653656
 21
7152.4090505474778
  0
LINE
  8
_3-5_寸法
  6
CONTINUOUS
 62
    7
 10
14441.146833500807
 20
7062.4086316672074
 11
14441.146833500807
 21
7152.4090505474778
  0
LINE
  8
_3-5_寸法
  6
CONTINUOUS
 62
    7
 10
14441.146833500807
 20
7062.4086316672074
 11
14501.147112754319
 21
7062.4086316672074
  0
LINE
  8
_3-5_寸法
  6
CONTINUOUS
 62
    7
 10
14501.147112754319
 20
7062.4086316672074
 11
14501.147112754319
 21
7152.4090505474778
  0
LINE
  8
_3-5_寸法
  6
CONTINUOUS
 62
    7
 10
14306.146948383583
 20
6972.4089559901176
 11
14381.148040653656
 21
6972.4089559901176
  0
LINE
  8
_3-5_寸法
  6
CONTINUOUS
 62
    7
 10
14381.148040653656
 20
6972.4089559901176
 11
14381.148040653656
 21
7062.4086316672074
  0
LINE
  8
_3-5_寸法
  6
CONTINUOUS
 62
    7
 10
14381.148040653656
 20
6972.4089559901176
 11
14501.147112754319
 21
6972.4089559901176
  0
LINE
  8
_3-5_寸法
  6
CONTINUOUS
 62
    7
 10
14501.147112754319
 20
6972.4089559901176
 11
14501.147112754319
 21
7062.4086316672074
  0
LINE
  8
_3-0_____
  6
CONTINUOUS
 62
    7
 10
13361.147752563005
 20
8112.409059384614
 11
14501.147112754319
 21
8112.409059384614
  0
LINE
  8
_3-4______
  6
CONTINUOUS
 62
    7
 10
13361.147752563005
 20
7917.4088950138748
 11
14381.148040653656
 21
7917.4088950138748
  0
LINE
  8
_3-4______
  6
CONTINUOUS
 62
    7
 10
13361.147752563005
 20
7992.4085008775855
 11
14381.148040653656
 21
7992.4085008775855
  0
LINE
  8
_3-6_文字
  6
CONTINUOUS
 62
    7
 10
14071.253123633189
 20
8049.9517504128708
 11
13969.771702004215
 21
8225.7230188671692
  0
LINE
  8
_3-6_文字
  6
CONTINUOUS
 62
    7
 10
14191.20314432387
 20
8097.6601922466034
 11
14022.785871351087
 21
8389.3659546016261
  0
LINE
  8
_3-6_文字
  6
CONTINUOUS
 62
    5
 10
14022.785871351087
 20
8389.3659546016261
 11
13572.786749762457
 21
8389.3659546016261
  0
LINE
  8
_3-5_寸法
  6
CONTINUOUS
 62
    7
 10
14306.146948383583
 20
6972.4089559901176
 11
14306.146948383583
 21
7152.4090505474778
  0
LINE
  8
_3-6_文字
  6
CONTINUOUS
 62
    7
 10
13969.771702004215
 20
8225.7230188671692
 11
13669.771792143008
 21
8225.7230188671692
  0
LINE
  8
_3-7_躯体
  6
CONTINUOUS
 62
    7
 10
13468.009965226456
 20
8112.409059384614
 11
13588.009037327121
 21
8232.4088746884627
  0
LINE
  8
_3-7_躯体
  6
CONTINUOUS
 62
    7
 10
13552.240154605115
 20
8112.409059384614
 11
13672.240713112144
 21
8232.4088746884627
  0
LINE
  8
_3-7_躯体
  6
CONTINUOUS
 62
    7
 10
13510.124316712605
 20
8112.409059384614
 11
13630.124875219632
 21
8232.4088746884627
  0
LINE
  8
_3-7_躯体
  6
CONTINUOUS
 62
    7
 10
14406.703825254699
 20
8112.409059384614
 11
14526.702897355362
 21
8232.4088746884627
  0
LINE
  8
_3-7_躯体
  6
CONTINUOUS
 62
    7
 10
14448.818176740844
 20
8112.409059384614
 11
14568.818735247873
 21
8232.4088746884627
  0
LINE
  8
_3-7_躯体
  6
CONTINUOUS
 62
    7
 10
14490.934014633354
 20
8112.409059384614
 11
14610.934573140383
 21
8232.4088746884627
  0
LINE
  8
_3-7_躯体
  6
CONTINUOUS
 62
    7
 10
14501.147112754319
 20
7380.3531823471249
 11
14621.147671261348
 21
7500.3529976509708
  0
LINE
  8
_3-7_躯体
  6
CONTINUOUS
 62
    7
 10
14501.147112754319
 20
7338.2380876577954
 11
14621.147671261348
 21
7458.2379029616432
  0
LINE
  8
_3-7_躯体
  6
CONTINUOUS
 62
    7
 10
14501.147112754319
 20
7296.1222497652852
 11
14621.147671261348
 21
7416.1228082723137
  0
LINE
  8
_3-3______
  6
DASHED1
 62
    7
 10
15924.382691843628
 20
7332.7881787274337
 11
16041.382195903527
 21
7449.7876827873315
  0
LINE
  8
_3-3______
  6
DASHED1
 62
    7
 10
15924.382691843628
 20
7311.574930316232
 11
16041.382195903527
 21
7428.5751775793124
  0
LINE
  8
_3-1______
  6
CONTINUOUS
 62
    7
 10
15978.382348609248
 20
7497.439641179265
 11
15978.382348609248
 21
7554.4396091888311
  0
LINE
  8
_3-4______
  6
CONTINUOUS
 62
    7
 10
15921.383123802862
 20
7212.4398011314361
 11
15921.383123802862
 21
8187.4398797819504
  0
LINE
  8
_3-4______
  6
CONTINUOUS
 62
    7
 10
15846.38203153279
 20
7212.4398011314361
 11
15846.38203153279
 21
8187.4398797819504
  0
LINE
  8
_3-4______
  6
CONTINUOUS
 62
    7
 10
15921.383123802862
 20
7287.4394069951468
 11
17061.382483994177
 21
7287.4394069951468
  0
LINE
  8
_3-4______
  6
CONTINUOUS
 62
    7
 10
15921.383123802862
 20
7212.4398011314361
 11
17061.382483994177
 21
7212.4398011314361
  0
LINE
  8
_3-4______
  6
CONTINUOUS
 62
    7
 10
15846.38203153279
 20
7212.4398011314361
 11
15921.383123802862
 21
7212.4398011314361
  0
LINE
  8
_3-7_躯体
  6
CONTINUOUS
 62
    7
 10
16041.382195903527
 20
7407.4399655021753
 11
17061.382483994177
 21
7407.4399655021753
  0
LINE
  8
_3-7_躯体
  6
CONTINUOUS
 62
    7
 10
16041.382195903527
 20
7407.4399655021753
 11
16041.382195903527
 21
8187.4398797819504
  0
LINE
  8
_3-1______
  6
CONTINUOUS
 62
    7
 10
15981.381916650014
 20
7347.439686248661
 11
15981.381916650014
 21
7287.4394069951468
  0
LINE
  8
_3-1______
  6
CONTINUOUS
 62
    7
 10
15978.382348609248
 20
7347.439686248661
 11
15978.382348609248
 21
7290.4397182390949
  0
LINE
  8
_3-1______
  6
CONTINUOUS
 62
    7
 10
15981.381916650014
 20
7287.4394069951468
 11
15921.383123802862
 21
7287.4394069951468
  0
LINE
  8
_3-1______
  6
CONTINUOUS
 62
    7
 10
15978.382348609248
 20
7290.4397182390949
 11
15924.382691843628
 21
7290.4397182390949
  0
LINE
  8
_3-1______
  6
CONTINUOUS
 62
    7
 10
15921.383123802862
 20
7287.4394069951468
 11
15921.383123802862
 21
7557.4399204327792
  0
LINE
  8
_3-1______
  6
CONTINUOUS
 62
    7
 10
15924.382691843628
 20
7290.4397182390949
 11
15924.382691843628
 21
7554.4396091888311
  0
LINE
  8
_3-1______
  6
CONTINUOUS
 62
    7
 10
15981.381916650014
 20
7497.439641179265
 11
15981.381916650014
 21
7557.4399204327792
  0
LINE
  8
_3-1______
  6
CONTINUOUS
 62
    7
 10
15921.383123802862
 20
7557.4399204327792
 11
15981.381916650014
 21
7557.4399204327792
  0
LINE
  8
_3-1______
  6
CONTINUOUS
 62
    7
 10
15924.382691843628
 20
7554.4396091888311
 11
15978.382348609248
 21
7554.4396091888311
  0
LINE
  8
_3-1______
  6
CONTINUOUS
 62
    7
 10
15978.382348609248
 20
7347.439686248661
 11
15981.381916650014
 21
7347.439686248661
  0
LINE
  8
_3-1______
  6
CONTINUOUS
 62
    7
 10
15978.382348609248
 20
7497.439641179265
 11
15981.381916650014
 21
7497.439641179265
  0
LINE
  8
_3-1______
  6
CONTINUOUS
 62
    7
 10
16191.382894037313
 20
7347.439686248661
 11
16251.381686884462
 21
7347.439686248661
  0
LINE
  8
_3-1______
  6
CONTINUOUS
 62
    7
 10
16191.382894037313
 20
7344.4393750047129
 11
16248.382118843696
 21
7344.4393750047129
  0
LINE
  8
_3-1______
  6
CONTINUOUS
 62
    7
 10
16251.381686884462
 20
7347.439686248661
 11
16251.381686884462
 21
7287.4394069951468
  0
LINE
  8
_3-1______
  6
CONTINUOUS
 62
    7
 10
16248.382118843696
 20
7344.4393750047129
 11
16248.382118843696
 21
7290.4397182390949
  0
LINE
  8
_3-1______
  6
CONTINUOUS
 62
    7
 10
16251.381686884462
 20
7287.4394069951468
 11
15981.381916650014
 21
7287.4394069951468
  0
LINE
  8
_3-1______
  6
CONTINUOUS
 62
    7
 10
16248.382118843696
 20
7290.4397182390949
 11
15984.382971097144
 21
7290.4397182390949
  0
LINE
  8
_3-1______
  6
CONTINUOUS
 62
    7
 10
16041.382195903527
 20
7347.439686248661
 11
15981.381916650014
 21
7347.439686248661
  0
LINE
  8
_3-1______
  6
CONTINUOUS
 62
    7
 10
16041.382195903527
 20
7344.4393750047129
 11
15984.382971097144
 21
7344.4393750047129
  0
LINE
  8
_3-1______
  6
CONTINUOUS
 62
    7
 10
15981.381916650014
 20
7287.4394069951468
 11
15981.381916650014
 21
7347.439686248661
  0
LINE
  8
_3-1______
  6
CONTINUOUS
 62
    7
 10
15984.382971097144
 20
7290.4397182390949
 11
15984.382971097144
 21
7344.4393750047129
  0
LINE
  8
_3-1______
  6
CONTINUOUS
 62
    7
 10
16191.382894037313
 20
7344.4393750047129
 11
16191.382894037313
 21
7347.439686248661
  0
LINE
  8
_3-1______
  6
CONTINUOUS
 62
    7
 10
16041.382195903527
 20
7344.4393750047129
 11
16041.382195903527
 21
7347.439686248661
  0
LINE
  8
_3-3______
  6
DASHED1
 62
    7
 10
15981.460696187258
 20
7347.439686248661
 11
16041.460975440772
 21
7407.4399655021753
  0
LINE
  8
_3-3______
  6
DASHED1
 62
    7
 10
16242.657967939338
 20
7290.4397182390949
 11
16248.382118843696
 21
7296.1638691434528
  0
LINE
  8
_3-3______
  6
DASHED1
 62
    7
 10
16221.445462731321
 20
7290.4397182390949
 11
16248.382118843696
 21
7317.3771175546535
  0
LINE
  8
_3-3______
  6
DASHED1
 62
    7
 10
16200.231471116938
 20
7290.4397182390949
 11
16248.382118843696
 21
7338.5896227626727
  0
LINE
  8
_3-3______
  6
DASHED1
 62
    7
 10
16257.962007853974
 20
7348.1702549761321
 11
16280.652000986931
 21
7370.8595049059068
  0
LINE
  8
_3-3______
  6
DASHED1
 62
    7
 10
16179.018965908919
 20
7290.4397182390949
 11
16233.018622674537
 21
7344.4393750047129
  0
LINE
  8
_3-3______
  6
DASHED1
 62
    7
 10
16236.018190715302
 20
7347.439686248661
 11
16278.611165050372
 21
7390.0326605837317
  0
LINE
  8
_3-3______
  6
DASHED1
 62
    7
 10
16157.806460700902
 20
7290.4397182390949
 11
16211.806117466518
 21
7344.4393750047129
  0
LINE
  8
_3-3______
  6
DASHED1
 62
    7
 10
16214.805685507285
 20
7347.439686248661
 11
16269.050599322814
 21
7401.6846000641926
  0
LINE
  8
_3-3______
  6
DASHED1
 62
    7
 10
16136.592469086519
 20
7290.4397182390949
 11
16191.382894037313
 21
7345.2293999867088
  0
LINE
  8
_3-3______
  6
DASHED1
 62
    7
 10
16193.593180299265
 20
7347.439686248661
 11
16253.516166421896
 21
7407.3634155744749
  0
LINE
  8
_3-3______
  6
DASHED1
 62
    7
 10
16115.379963878497
 20
7290.4397182390949
 11
16232.379467938397
 21
7407.4399655021753
  0
LINE
  8
_3-3______
  6
DASHED1
 62
    7
 10
16094.165972264118
 20
7290.4397182390949
 11
16211.165476324015
 21
7407.4399655021753
  0
LINE
  8
_3-3______
  6
DASHED1
 62
    7
 10
16072.953467056097
 20
7290.4397182390949
 11
16189.952971115996
 21
7407.4399655021753
  0
LINE
  8
_3-3______
  6
DASHED1
 62
    7
 10
16051.739475441715
 20
7290.4397182390949
 11
16168.738979501613
 21
7407.4399655021753
  0
LINE
  8
_3-3______
  6
DASHED1
 62
    7
 10
16030.526970233695
 20
7290.4397182390949
 11
16147.526474293594
 21
7407.4399655021753
  0
LINE
  8
_3-3______
  6
DASHED1
 62
    7
 10
16009.312978619313
 20
7290.4397182390949
 11
16126.313969085577
 21
7407.4399655021753
  0
LINE
  8
_3-3______
  6
DASHED1
 62
    7
 10
15988.100473411294
 20
7290.4397182390949
 11
16105.099977471195
 21
7407.4399655021753
  0
LINE
  8
_3-3______
  6
DASHED1
 62
    7
 10
16023.887193009659
 20
7347.439686248661
 11
16083.887472263174
 21
7407.4399655021753
  0
LINE
  8
_3-3______
  6
DASHED1
 62
    7
 10
16002.673201395277
 20
7347.439686248661
 11
16062.673480648789
 21
7407.4399655021753
  0
LINE
  8
_3-3______
  6
DASHED1
 62
    7
 10
15924.382691843628
 20
7354.0014271386344
 11
16041.382195903527
 21
7471.0009311985323
  0
LINE
  8
_3-3______
  6
DASHED1
 62
    7
 10
15924.459984974512
 20
7290.4397182390949
 11
15978.382348609248
 21
7344.3613386706493
  0
LINE
  8
_3-3______
  6
DASHED1
 62
    7
 10
15984.382971097144
 20
7329.1487127473456
 11
15999.67363335451
 21
7344.4393750047129
  0
LINE
  8
_3-3______
  6
DASHED1
 62
    7
 10
15984.382971097144
 20
7307.9354643361439
 11
16020.887624968893
 21
7344.4393750047129
  0
LINE
  8
_3-3______
  6
DASHED1
 62
    7
 10
15945.673976588894
 20
7290.4397182390949
 11
15978.382348609248
 21
7323.1480902594485
  0
LINE
  8
_3-3______
  6
DASHED1
 62
    7
 10
15966.886481796912
 20
7290.4397182390949
 11
15978.382348609248
 21
7301.9348418482477
  0
LINE
  8
_3-3______
  6
DASHED1
 62
    7
 10
15981.457723374533
 20
7559.5691975479422
 11
16009.252035958427
 21
7587.3642533350176
  0
LINE
  8
_3-3______
  6
DASHED1
 62
    7
 10
15981.381916650014
 20
7538.2801424122217
 11
16026.470567268754
 21
7583.3687930309634
  0
LINE
  8
_3-3______
  6
DASHED1
 62
    7
 10
15924.382691843628
 20
7544.9199196362579
 11
15933.90163819302
 21
7554.4396091888311
  0
LINE
  8
_3-3______
  6
DASHED1
 62
    7
 10
15924.382691843628
 20
7375.2146755498343
 11
16041.382195903527
 21
7492.214179609733
  0
LINE
  8
_3-3______
  6
DASHED1
 62
    7
 10
15924.382691843628
 20
7396.427923961036
 11
16041.382195903527
 21
7513.4274280209338
  0
LINE
  8
_3-3______
  6
DASHED1
 62
    7
 10
15924.382691843628
 20
7417.6411723722358
 11
16041.382195903527
 21
7534.6406764321346
  0
LINE
  8
_3-3______
  6
DASHED1
 62
    7
 10
15924.382691843628
 20
7438.853677580255
 11
16041.382195903527
 21
7555.8539248433353
  0
LINE
  8
_3-3______
  6
DASHED1
 62
    7
 10
15924.382691843628
 20
7460.0669259914557
 11
15978.382348609248
 21
7514.0673259602545
  0
LINE
  8
_3-3______
  6
DASHED1
 62
    7
 10
15924.382691843628
 20
7481.2801744026565
 11
15978.382348609248
 21
7535.2805743714553
  0
LINE
  8
_3-3______
  6
DASHED1
 62
    7
 10
15924.382691843628
 20
7502.4934228138573
 11
15976.328135015421
 21
7554.4396091888311
  0
LINE
  8
_3-3______
  6
DASHED1
 62
    7
 10
15924.382691843628
 20
7523.706671225058
 11
15955.115629807402
 21
7554.4396091888311
  0
LINE
  8
_3-3______
  6
DASHED1
 62
    7
 10
15981.381916650014
 20
7517.0668940010219
 11
16037.138505736832
 21
7572.8227398846602
  0
LINE
  8
_3-7_躯体
  6
CONTINUOUS
 62
    5
 10
16041.460975440772
 20
7899.3104111365838
 11
16161.382754410557
 21
8019.232190106366
  0
LINE
  8
_3-7_躯体
  6
CONTINUOUS
 62
    5
 10
16041.460975440772
 20
7815.079478554745
 11
16161.382754410557
 21
7935.0012575245264
  0
LINE
  8
_3-7_躯体
  6
CONTINUOUS
 62
    5
 10
16041.460975440772
 20
7857.1945732440727
 11
16161.382754410557
 21
7977.1170954170375
  0
LINE
  8
_3-7_躯体
  6
CONTINUOUS
 62
    5
 10
16440.742425513545
 20
7407.4399655021753
 11
16560.742984020573
 21
7527.4397808060221
  0
LINE
  8
_3-7_躯体
  6
CONTINUOUS
 62
    5
 10
16524.972614892202
 20
7407.4399655021753
 11
16644.973173399227
 21
7527.4397808060221
  0
LINE
  8
_3-7_躯体
  6
CONTINUOUS
 62
    5
 10
16482.858263406055
 20
7407.4399655021753
 11
16602.85733550672
 21
7527.4397808060221
  0
LINE
  8
_3-5_寸法
  6
CONTINUOUS
 62
    7
 10
17211.3816957216
 20
7287.4394069951468
 11
17211.3816957216
 21
7347.439686248661
  0
LINE
  8
_3-5_寸法
  6
CONTINUOUS
 62
    7
 10
17211.3816957216
 20
7287.4394069951468
 11
17121.38276324769
 21
7287.4394069951468
  0
LINE
  8
_3-5_寸法
  6
CONTINUOUS
 62
    7
 10
17211.3816957216
 20
7347.439686248661
 11
17121.38276324769
 21
7347.439686248661
  0
LINE
  8
_3-5_寸法
  6
CONTINUOUS
 62
    7
 10
17211.3816957216
 20
7347.439686248661
 11
17211.3816957216
 21
7407.4399655021753
  0
LINE
  8
_3-5_寸法
  6
CONTINUOUS
 62
    7
 10
17211.3816957216
 20
7407.4399655021753
 11
17121.38276324769
 21
7407.4399655021753
  0
LINE
  8
_3-5_寸法
  6
CONTINUOUS
 62
    7
 10
17301.382114601871
 20
7212.4398011314361
 11
17301.382114601871
 21
7287.4394069951468
  0
LINE
  8
_3-5_寸法
  6
CONTINUOUS
 62
    7
 10
17301.382114601871
 20
7287.4394069951468
 11
17211.3816957216
 21
7287.4394069951468
  0
LINE
  8
_3-5_寸法
  6
CONTINUOUS
 62
    7
 10
17301.382114601871
 20
7287.4394069951468
 11
17301.382114601871
 21
7407.4399655021753
  0
LINE
  8
_3-5_寸法
  6
CONTINUOUS
 62
    7
 10
17301.382114601871
 20
7407.4399655021753
 11
17211.3816957216
 21
7407.4399655021753
  0
LINE
  8
_3-5_寸法
  6
CONTINUOUS
 62
    7
 10
17301.382114601871
 20
7212.4398011314361
 11
17121.38276324769
 21
7212.4398011314361
  0
LINE
  8
_3-5_寸法
  6
CONTINUOUS
 62
    7
 10
15981.381916650014
 20
7062.4398462008321
 11
16251.381686884462
 21
7062.4398462008321
  0
LINE
  8
_3-5_寸法
  6
CONTINUOUS
 62
    7
 10
15981.381916650014
 20
7062.4398462008321
 11
15981.381916650014
 21
7152.4395218779227
  0
LINE
  8
_3-5_寸法
  6
CONTINUOUS
 62
    7
 10
16251.381686884462
 20
7062.4398462008321
 11
16251.381686884462
 21
7152.4395218779227
  0
LINE
  8
_3-5_寸法
  6
CONTINUOUS
 62
    7
 10
15696.382819805367
 20
7557.4399204327792
 11
15696.382819805367
 21
7287.4394069951468
  0
LINE
  8
_3-5_寸法
  6
CONTINUOUS
 62
    7
 10
15696.382819805367
 20
7557.4399204327792
 11
15786.381752279272
 21
7557.4399204327792
  0
LINE
  8
_3-5_寸法
  6
CONTINUOUS
 62
    7
 10
15696.382819805367
 20
7287.4394069951468
 11
15786.381752279272
 21
7287.4394069951468
  0
LINE
  8
_3-6_文字
  6
CONTINUOUS
 62
    5
 10
15992.304030606185
 20
7396.2235430861074
 11
16214.264633591109
 21
7780.6684280454419
  0
LINE
  8
_3-6_文字
  6
CONTINUOUS
 62
    5
 10
16214.264633591109
 20
7780.6684280454419
 11
16664.263755179742
 21
7780.6684280454419
  0
LINE
  8
_3-6_文字
  6
CONTINUOUS
 62
    5
 10
16142.701599238921
 20
7289.1450582968218
 11
16324.443018850674
 21
7603.930995455119
  0
LINE
  8
_3-6_文字
  6
CONTINUOUS
 62
    5
 10
16324.443018850674
 20
7603.930995455119
 11
16624.44292871188
 21
7603.930995455119
  0
LINE
  8
_1-5_寸法
  6
CONTINUOUS
 62
    7
 10
14147.36456145651
 20
10717.533902790556
 11
14172.364430077749
 21
10717.533902790556
  0
LINE
  8
_1-5_寸法
  6
CONTINUOUS
 62
    7
 10
12747.364486635421
 20
10717.533902790556
 11
14147.36456145651
 21
10717.533902790556
  0
LINE
  8
_1-5_寸法
  6
CONTINUOUS
 62
    7
 10
12722.364618014184
 20
10717.533902790556
 11
12747.364486635421
 21
10717.533902790556
  0
LINE
  8
_1-8_開口
  6
CONTINUOUS
 62
    7
 10
12747.364486635421
 20
10297.534177625501
 11
12747.364486635421
 21
11137.53437115879
  0
LINE
  8
_1-8_開口
  6
CONTINUOUS
 62
    7
 10
12722.364618014184
 20
10272.534309004264
 11
12722.364618014184
 21
11162.534239780029
  0
LINE
  8
_1-8_開口
  6
CONTINUOUS
 62
    7
 10
12747.364486635421
 20
11137.53437115879
 11
14147.36456145651
 21
11137.53437115879
  0
LINE
  8
_1-8_開口
  6
CONTINUOUS
 62
    7
 10
12722.364618014184
 20
11162.534239780029
 11
14172.364430077749
 21
11162.534239780029
  0
LINE
  8
_1-8_開口
  6
CONTINUOUS
 62
    7
 10
12747.364486635421
 20
10297.534177625501
 11
14147.36456145651
 21
10297.534177625501
  0
LINE
  8
_1-8_開口
  6
CONTINUOUS
 62
    7
 10
12722.364618014184
 20
10272.534309004264
 11
14172.364430077749
 21
10272.534309004264
  0
LINE
  8
_1-8_開口
  6
CONTINUOUS
 62
    7
 10
14172.364430077749
 20
11162.534239780029
 11
14172.364430077749
 21
10272.534309004264
  0
LINE
  8
_1-8_開口
  6
CONTINUOUS
 62
    7
 10
14147.36456145651
 20
11137.53437115879
 11
14147.36456145651
 21
10297.534177625501
  0
LINE
  8
_1-0_____
  6
CONTINUOUS
 62
    7
 10
12863.864558157313
 20
11192.534379406785
 11
13121.864569822334
 21
11192.534379406785
  0
LINE
  8
_1-0_____
  6
CONTINUOUS
 62
    7
 10
13166.864036059287
 20
11192.534379406785
 11
13424.864047724308
 21
11192.534379406785
  0
LINE
  8
_1-0_____
  6
CONTINUOUS
 62
    7
 10
13469.863513961262
 20
11192.534379406785
 11
13727.863525626282
 21
11192.534379406785
  0
LINE
  8
_1-0_____
  6
CONTINUOUS
 62
    7
 10
13772.864478269599
 20
11192.534379406785
 11
14030.86448993462
 21
11192.534379406785
  0
LINE
  8
_1-0_____
  6
CONTINUOUS
 62
    7
 10
12722.364618014184
 20
11192.534379406785
 11
12818.863605513996
 21
11192.534379406785
  0
LINE
  8
_1-0_____
  6
CONTINUOUS
 62
    7
 10
14075.863956171574
 20
11192.534379406785
 11
14172.364430077749
 21
11192.534379406785
  0
LINE
  8
_1-0_____
  6
CONTINUOUS
 62
    7
 10
12722.364618014184
 20
11162.534239780029
 11
14172.364430077749
 21
11162.534239780029
  0
LINE
  8
_1-0_____
  6
CONTINUOUS
 62
    7
 10
12722.364618014184
 20
11182.534580598927
 11
14172.364430077749
 21
11182.534580598927
  0
LINE
  8
_1-0_____
  6
CONTINUOUS
 62
    7
 10
12722.364618014184
 20
11192.534379406785
 11
12722.364618014184
 21
11162.534239780029
  0
LINE
  8
_1-0_____
  6
CONTINUOUS
 62
    7
 10
14172.364430077749
 20
11192.534379406785
 11
14172.364430077749
 21
11162.534239780029
  0
LINE
  8
_1-1______
  6
CONTINUOUS
 62
    7
 10
12818.863605513996
 20
11697.53425244659
 11
12818.863605513996
 21
11182.534580598927
  0
LINE
  8
_1-1______
  6
CONTINUOUS
 62
    7
 10
14075.863956171574
 20
11697.53425244659
 11
14075.863956171574
 21
11182.534580598927
  0
LINE
  8
_1-1______
  6
CONTINUOUS
 62
    7
 10
12863.864558157313
 20
11697.53425244659
 11
12863.864558157313
 21
11182.534580598927
  0
LINE
  8
_1-1______
  6
CONTINUOUS
 62
    7
 10
13121.864569822334
 20
11697.53425244659
 11
13121.864569822334
 21
11182.534580598927
  0
LINE
  8
_1-1______
  6
CONTINUOUS
 62
    7
 10
13166.864036059287
 20
11697.53425244659
 11
13166.864036059287
 21
11182.534580598927
  0
LINE
  8
_1-1______
  6
CONTINUOUS
 62
    7
 10
13424.864047724308
 20
11697.53425244659
 11
13424.864047724308
 21
11182.534580598927
  0
LINE
  8
_1-1______
  6
CONTINUOUS
 62
    7
 10
13469.863513961262
 20
11697.53425244659
 11
13469.863513961262
 21
11182.534580598927
  0
LINE
  8
_1-1______
  6
CONTINUOUS
 62
    7
 10
13727.863525626282
 20
11697.53425244659
 11
13727.863525626282
 21
11182.534580598927
  0
LINE
  8
_1-1______
  6
CONTINUOUS
 62
    7
 10
13772.864478269599
 20
11697.53425244659
 11
13772.864478269599
 21
11182.534580598927
  0
LINE
  8
_1-1______
  6
CONTINUOUS
 62
    7
 10
14030.86448993462
 20
11697.53425244659
 11
14030.86448993462
 21
11182.534580598927
  0
LINE
  8
_1-0_____
  6
CONTINUOUS
 62
    7
 10
12863.864558157313
 20
10242.534169377508
 11
13121.864569822334
 21
10242.534169377508
  0
LINE
  8
_1-0_____
  6
CONTINUOUS
 62
    7
 10
13166.864036059287
 20
10242.534169377508
 11
13424.864047724308
 21
10242.534169377508
  0
LINE
  8
_1-0_____
  6
CONTINUOUS
 62
    7
 10
13469.863513961262
 20
10242.534169377508
 11
13727.863525626282
 21
10242.534169377508
  0
LINE
  8
_1-0_____
  6
CONTINUOUS
 62
    7
 10
13772.864478269599
 20
10242.534169377508
 11
14030.86448993462
 21
10242.534169377508
  0
LINE
  8
_1-0_____
  6
CONTINUOUS
 62
    7
 10
12722.364618014184
 20
10242.534169377508
 11
12818.863605513996
 21
10242.534169377508
  0
LINE
  8
_1-0_____
  6
CONTINUOUS
 62
    7
 10
12722.364618014184
 20
10272.534309004264
 11
14172.364430077749
 21
10272.534309004264
  0
LINE
  8
_1-0_____
  6
CONTINUOUS
 62
    7
 10
14075.863956171574
 20
10242.534169377508
 11
14172.364430077749
 21
10242.534169377508
  0
LINE
  8
_1-0_____
  6
CONTINUOUS
 62
    7
 10
12722.364618014184
 20
10252.533968185366
 11
14172.364430077749
 21
10252.533968185366
  0
LINE
  8
_1-0_____
  6
CONTINUOUS
 62
    7
 10
12722.364618014184
 20
10272.534309004264
 11
12722.364618014184
 21
10242.534169377508
  0
LINE
  8
_1-0_____
  6
CONTINUOUS
 62
    7
 10
14172.364430077749
 20
10272.534309004264
 11
14172.364430077749
 21
10242.534169377508
  0
LINE
  8
_1-1______
  6
CONTINUOUS
 62
    7
 10
12818.863605513996
 20
10252.533968185366
 11
12818.863605513996
 21
10057.960402440842
  0
LINE
  8
_1-1______
  6
CONTINUOUS
 62
    7
 10
14075.863956171574
 20
10252.533968185366
 11
14075.863956171574
 21
10057.960402440842
  0
LINE
  8
_1-1______
  6
CONTINUOUS
 62
    7
 10
12863.864558157313
 20
10252.533968185366
 11
12863.864558157313
 21
10057.960402440842
  0
LINE
  8
_1-1______
  6
CONTINUOUS
 62
    7
 10
13121.864569822334
 20
10252.533968185366
 11
13121.864569822334
 21
10057.960402440842
  0
LINE
  8
_1-1______
  6
CONTINUOUS
 62
    7
 10
13166.864036059287
 20
10252.533968185366
 11
13166.864036059287
 21
10057.960402440842
  0
LINE
  8
_1-1______
  6
CONTINUOUS
 62
    7
 10
13424.864047724308
 20
10252.533968185366
 11
13424.864047724308
 21
10057.960402440842
  0
LINE
  8
_1-1______
  6
CONTINUOUS
 62
    7
 10
13469.863513961262
 20
10252.533968185366
 11
13469.863513961262
 21
10057.960402440842
  0
LINE
  8
_1-1______
  6
CONTINUOUS
 62
    7
 10
13727.863525626282
 20
10252.533968185366
 11
13727.863525626282
 21
10057.960402440842
  0
LINE
  8
_1-1______
  6
CONTINUOUS
 62
    7
 10
13772.864478269599
 20
10252.533968185366
 11
13772.864478269599
 21
10057.960402440842
  0
LINE
  8
_1-1______
  6
CONTINUOUS
 62
    7
 10
14030.86448993462
 20
10252.533968185366
 11
14030.86448993462
 21
10057.960402440842
  0
LINE
  8
_1-5_寸法
  6
CONTINUOUS
 62
    7
 10
13260.442235055578
 20
10297.534177625501
 11
13260.442235055578
 21
10272.534309004264
  0
LINE
  8
_1-5_寸法
  6
CONTINUOUS
 62
    7
 10
13260.442235055578
 20
11162.534239780029
 11
13260.442235055578
 21
11137.53437115879
  0
LINE
  8
_1-5_寸法
  6
CONTINUOUS
 62
    7
 10
13260.442235055578
 20
11137.53437115879
 11
13260.442235055578
 21
10297.534177625501
  0
LINE
  8
_4-3______
  6
DASHED1
 62
    7
 10
16574.055239408633
 20
10673.797881962249
 11
16606.499031096351
 21
10706.240930446787
  0
LINE
  8
_4-3______
  6
DASHED1
 62
    7
 10
16578.16663940901
 20
10651.39253564783
 11
16633.31826110604
 21
10706.543414141681
  0
LINE
  8
_4-3______
  6
DASHED1
 62
    7
 10
16590.862036156377
 20
10637.571929283584
 11
16659.834264217658
 21
10706.543414141681
  0
LINE
  8
_4-3______
  6
DASHED1
 62
    7
 10
16611.35066146556
 20
10631.543065074788
 11
16686.350267329271
 21
10706.543414141681
  0
LINE
  8
_4-3______
  6
DASHED1
 62
    7
 10
16637.866664577174
 20
10631.543065074788
 11
16712.867756847249
 21
10706.543414141681
  0
LINE
  8
_4-3______
  6
DASHED1
 62
    7
 10
16615.002761899734
 20
10608.679162397348
 11
16634.116461323036
 21
10627.79360502383
  0
LINE
  8
_4-3______
  6
DASHED1
 62
    7
 10
16664.384154095151
 20
10631.543065074788
 11
16739.383759958862
 21
10706.543414141681
  0
LINE
  8
_4-3______
  6
DASHED1
 62
    7
 10
16615.002761899734
 20
10582.162416082552
 11
16660.633950841009
 21
10627.79360502383
  0
LINE
  8
_4-3______
  6
DASHED1
 62
    7
 10
16619.650754597198
 20
10560.293662465216
 11
16765.899763070476
 21
10706.543414141681
  0
LINE
  8
_4-3______
  6
DASHED1
 62
    7
 10
16646.166757708812
 20
10560.293662465216
 11
16792.417252588457
 21
10706.543414141681
  0
LINE
  8
_4-3______
  6
DASHED1
 62
    7
 10
16672.682760820426
 20
10560.293662465216
 11
16818.933255700071
 21
10706.543414141681
  0
LINE
  8
_4-3______
  6
DASHED1
 62
    7
 10
16699.200250338403
 20
10560.293662465216
 11
16845.449258811685
 21
10706.543414141681
  0
LINE
  8
_4-3______
  6
DASHED1
 62
    7
 10
16725.716253450017
 20
10560.293662465216
 11
16871.966748329665
 21
10706.543414141681
  0
LINE
  8
_4-3______
  6
DASHED1
 62
    7
 10
16752.23225656163
 20
10560.293662465216
 11
16898.482751441279
 21
10706.543414141681
  0
LINE
  8
_4-3______
  6
DASHED1
 62
    7
 10
16778.749746079611
 20
10560.293662465216
 11
16924.998754552893
 21
10706.543414141681
  0
LINE
  8
_4-3______
  6
DASHED1
 62
    7
 10
16876.515151800799
 20
10631.543065074788
 11
16951.421114063629
 21
10706.448284134442
  0
LINE
  8
_4-3______
  6
DASHED1
 62
    7
 10
16805.265749191225
 20
10560.293662465216
 11
16873.753408778128
 21
10628.780578848939
  0
LINE
  8
_4-3______
  6
DASHED1
 62
    7
 10
16903.032641318772
 20
10631.543065074788
 11
16970.838040385006
 21
10699.349950547385
  0
LINE
  8
_4-3______
  6
DASHED1
 62
    7
 10
16831.781752302843
 20
10560.293662465216
 11
16899.282438064634
 21
10627.79360502383
  0
LINE
  8
_4-3______
  6
DASHED1
 62
    7
 10
16929.54864443039
 20
10631.543065074788
 11
16982.788747544455
 21
10684.783911392036
  0
LINE
  8
_4-3______
  6
DASHED1
 62
    7
 10
16858.299241820816
 20
10560.293662465216
 11
16925.798441176248
 21
10627.79360502383
  0
LINE
  8
_4-3______
  6
DASHED1
 62
    7
 10
16956.978787455319
 20
10632.456461784923
 11
16985.339420863558
 21
10660.817838396346
  0
LINE
  8
_4-3______
  6
DASHED1
 62
    7
 10
16884.81524493243
 20
10560.293662465216
 11
16945.002811387698
 21
10620.481228920484
  0
LINE
  8
_4-3______
  6
DASHED1
 62
    7
 10
16911.331248044047
 20
10560.293662465216
 11
16945.002811387698
 21
10593.964482605688
  0
LINE
  8
_4-3______
  6
DASHED1
 62
    7
 10
16937.848737562024
 20
10560.293662465216
 11
16945.002811387698
 21
10567.448479494073
  0
LINE
  8
_4-1______
  6
CONTINUOUS
 62
    7
 10
16686.253650915667
 20
10627.79360502383
 11
16686.253650915667
 21
10631.543065074788
  0
LINE
  8
_4-1______
  6
CONTINUOUS
 62
    7
 10
16873.753408778128
 20
10627.79360502383
 11
16873.753408778128
 21
10631.543065074788
  0
LINE
  8
_4-1______
  6
CONTINUOUS
 62
    7
 10
16615.002761899734
 20
10560.293662465216
 11
16615.002761899734
 21
10627.79360502383
  0
LINE
  8
_4-1______
  6
CONTINUOUS
 62
    7
 10
16611.252558645596
 20
10556.543459211076
 11
16611.252558645596
 21
10631.543065074788
  0
LINE
  8
_4-1______
  6
CONTINUOUS
 62
    7
 10
16686.253650915667
 20
10627.79360502383
 11
16615.002761899734
 21
10627.79360502383
  0
LINE
  8
_4-1______
  6
CONTINUOUS
 62
    7
 10
16686.253650915667
 20
10631.543065074788
 11
16611.252558645596
 21
10631.543065074788
  0
LINE
  8
_4-1______
  6
CONTINUOUS
 62
    7
 10
16945.002811387698
 20
10560.293662465216
 11
16615.002761899734
 21
10560.293662465216
  0
LINE
  8
_4-1______
  6
CONTINUOUS
 62
    7
 10
16948.753014641836
 20
10556.543459211076
 11
16611.252558645596
 21
10556.543459211076
  0
LINE
  8
_4-1______
  6
CONTINUOUS
 62
    7
 10
16945.002811387698
 20
10627.79360502383
 11
16945.002811387698
 21
10560.293662465216
  0
LINE
  8
_4-1______
  6
CONTINUOUS
 62
    7
 10
16948.753014641836
 20
10631.543065074788
 11
16948.753014641836
 21
10556.543459211076
  0
LINE
  8
_4-1______
  6
CONTINUOUS
 62
    7
 10
16873.753408778128
 20
10627.79360502383
 11
16945.002811387698
 21
10627.79360502383
  0
LINE
  8
_4-1______
  6
CONTINUOUS
 62
    7
 10
16873.753408778128
 20
10631.543065074788
 11
16948.753014641836
 21
10631.543065074788
  0
LINE
  8
_4-3______
  6
CENTER1
 62
    7
 10
15655.002753062598
 20
10786.435526549585
 11
15655.002753062598
 21
10341.765171772726
  0
LINE
  8
_4-3______
  6
DASHED1
 62
    7
 10
15444.545448921821
 20
10673.797881962249
 11
15476.989240609539
 21
10706.240930446787
  0
LINE
  8
_4-3______
  6
DASHED1
 62
    7
 10
15448.656848922199
 20
10651.39253564783
 11
15503.808470619231
 21
10706.543414141681
  0
LINE
  8
_4-3______
  6
DASHED1
 62
    7
 10
15461.352245669566
 20
10637.571929283584
 11
15530.324473730845
 21
10706.543414141681
  0
LINE
  8
_4-3______
  6
DASHED1
 62
    7
 10
15481.840870978749
 20
10631.543065074788
 11
15556.840476842461
 21
10706.543414141681
  0
LINE
  8
_4-3______
  6
DASHED1
 62
    7
 10
15508.358360496728
 20
10631.543065074788
 11
15583.35796636044
 21
10706.543414141681
  0
LINE
  8
_4-3______
  6
DASHED1
 62
    7
 10
15485.492971412925
 20
10608.679162397348
 11
15504.608157242588
 21
10627.79360502383
  0
LINE
  8
_4-3______
  6
DASHED1
 62
    7
 10
15534.874363608344
 20
10631.543065074788
 11
15609.873969472053
 21
10706.543414141681
  0
LINE
  8
_4-3______
  6
DASHED1
 62
    7
 10
15485.492971412925
 20
10582.162416082552
 11
15531.124160354204
 21
10627.79360502383
  0
LINE
  8
_4-3______
  6
DASHED1
 62
    7
 10
15490.140964110386
 20
10560.293662465216
 11
15636.389972583669
 21
10706.543414141681
  0
LINE
  8
_4-3______
  6
DASHED1
 62
    7
 10
15516.656967222001
 20
10560.293662465216
 11
15662.907462101644
 21
10706.543414141681
  0
LINE
  8
_4-3______
  6
DASHED1
 62
    7
 10
15543.172970333615
 20
10560.293662465216
 11
15689.42346521326
 21
10706.543414141681
  0
LINE
  8
_4-3______
  6
DASHED1
 62
    7
 10
15569.690459851592
 20
10560.293662465216
 11
15715.939468324874
 21
10706.543414141681
  0
LINE
  8
_4-3______
  6
DASHED1
 62
    7
 10
15596.206462963206
 20
10560.293662465216
 11
15742.456957842853
 21
10706.543414141681
  0
LINE
  8
_4-3______
  6
DASHED1
 62
    7
 10
15622.722466074822
 20
10560.293662465216
 11
15768.972960954468
 21
10706.543414141681
  0
LINE
  8
_4-3______
  6
DASHED1
 62
    7
 10
15649.2399555928
 20
10560.293662465216
 11
15795.488964066082
 21
10706.543414141681
  0
LINE
  8
_4-3______
  6
DASHED1
 62
    7
 10
15747.006847720348
 20
10631.543065074788
 11
15821.91132357682
 21
10706.448284134442
  0
LINE
  8
_4-3______
  6
DASHED1
 62
    7
 10
15675.755958704414
 20
10560.293662465216
 11
15744.243618291319
 21
10628.780578848939
  0
LINE
  8
_4-3______
  6
DASHED1
 62
    7
 10
15773.522850831961
 20
10631.543065074788
 11
15841.32973630456
 21
10699.349950547385
  0
LINE
  8
_4-3______
  6
DASHED1
 62
    7
 10
15702.27196181603
 20
10560.293662465216
 11
15769.772647577822
 21
10627.79360502383
  0
LINE
  8
_4-3______
  6
DASHED1
 62
    7
 10
15800.038853943577
 20
10631.543065074788
 11
15853.280443464007
 21
10684.783911392036
  0
LINE
  8
_4-3______
  6
DASHED1
 62
    7
 10
15728.789451334005
 20
10560.293662465216
 11
15796.288650689437
 21
10627.79360502383
  0
LINE
  8
_4-3______
  6
DASHED1
 62
    7
 10
15827.468996968508
 20
10632.456461784923
 11
15855.829630376749
 21
10660.817838396346
  0
LINE
  8
_4-3______
  6
DASHED1
 62
    7
 10
15755.305454445621
 20
10560.293662465216
 11
15815.493020900887
 21
10620.481228920484
  0
LINE
  8
_4-3______
  6
DASHED1
 62
    7
 10
15781.821457557235
 20
10560.293662465216
 11
15815.493020900887
 21
10593.964482605688
  0
LINE
  8
_4-3______
  6
DASHED1
 62
    7
 10
15808.338947075214
 20
10560.293662465216
 11
15815.493020900887
 21
10567.448479494073
  0
LINE
  8
_4-1______
  6
CONTINUOUS
 62
    7
 10
15556.743860428856
 20
10627.79360502383
 11
15556.743860428856
 21
10631.543065074788
  0
LINE
  8
_4-1______
  6
CONTINUOUS
 62
    7
 10
15744.243618291319
 20
10627.79360502383
 11
15744.243618291319
 21
10631.543065074788
  0
LINE
  8
_4-1______
  6
CONTINUOUS
 62
    7
 10
15485.492971412925
 20
10560.293662465216
 11
15485.492971412925
 21
10627.79360502383
  0
LINE
  8
_4-1______
  6
CONTINUOUS
 62
    7
 10
15481.744254565145
 20
10556.543459211076
 11
15481.744254565145
 21
10631.543065074788
  0
LINE
  8
_4-1______
  6
CONTINUOUS
 62
    7
 10
15556.743860428856
 20
10627.79360502383
 11
15485.492971412925
 21
10627.79360502383
  0
LINE
  8
_4-1______
  6
CONTINUOUS
 62
    7
 10
15556.743860428856
 20
10631.543065074788
 11
15481.744254565145
 21
10631.543065074788
  0
LINE
  8
_4-1______
  6
CONTINUOUS
 62
    7
 10
15815.493020900887
 20
10560.293662465216
 11
15485.492971412925
 21
10560.293662465216
  0
LINE
  8
_4-1______
  6
CONTINUOUS
 62
    7
 10
15819.24322415503
 20
10556.543459211076
 11
15481.744254565145
 21
10556.543459211076
  0
LINE
  8
_4-1______
  6
CONTINUOUS
 62
    7
 10
15815.493020900887
 20
10627.79360502383
 11
15815.493020900887
 21
10560.293662465216
  0
LINE
  8
_4-1______
  6
CONTINUOUS
 62
    7
 10
15819.24322415503
 20
10631.543065074788
 11
15819.24322415503
 21
10556.543459211076
  0
LINE
  8
_4-1______
  6
CONTINUOUS
 62
    7
 10
15744.243618291319
 20
10627.79360502383
 11
15815.493020900887
 21
10627.79360502383
  0
LINE
  8
_4-1______
  6
CONTINUOUS
 62
    7
 10
15744.243618291319
 20
10631.543065074788
 11
15819.24322415503
 21
10631.543065074788
  0
LINE
  8
_4-5_寸法
  6
CONTINUOUS
 62
    7
 10
17061.253166640588
 20
10462.793580279847
 11
17061.253166640588
 21
10387.793231212954
  0
LINE
  8
_4-5_寸法
  6
CONTINUOUS
 62
    7
 10
17061.253166640588
 20
10462.793580279847
 11
17173.753318639334
 21
10462.793580279847
  0
LINE
  8
_4-5_寸法
  6
CONTINUOUS
 62
    7
 10
17061.253166640588
 20
10387.793231212954
 11
17173.753318639334
 21
10387.793231212954
  0
LINE
  8
_4-5_寸法
  6
CONTINUOUS
 62
    7
 10
17248.752924503046
 20
10200.293473350495
 11
17248.752924503046
 21
10312.793625349243
  0
LINE
  8
_4-5_寸法
  6
CONTINUOUS
 62
    7
 10
17436.252682365506
 20
10200.293473350495
 11
17436.252682365506
 21
10312.793625349243
  0
LINE
  8
_4-5_寸法
  6
CONTINUOUS
 62
    7
 10
17548.752834364255
 20
10200.293473350495
 11
17548.752834364255
 21
10875.293642139803
  0
LINE
  8
_4-5_寸法
  6
CONTINUOUS
 62
    7
 10
17323.752530366757
 20
11662.793219724677
 11
17548.752834364255
 21
11662.793219724677
  0
LINE
  8
_4-5_寸法
  6
CONTINUOUS
 62
    7
 10
17323.752530366757
 20
11662.793219724677
 11
17323.752530366757
 21
11550.293067725928
  0
LINE
  8
_4-5_寸法
  6
CONTINUOUS
 62
    7
 10
17548.752834364255
 20
11662.793219724677
 11
17548.752834364255
 21
11550.293067725928
  0
LINE
  8
_4-5_寸法
  6
CONTINUOUS
 62
    7
 10
17736.252592226712
 20
11475.293461862218
 11
17736.252592226712
 21
11212.793354932865
  0
LINE
  8
_4-5_寸法
  6
CONTINUOUS
 62
    7
 10
17736.252592226712
 20
11475.293461862218
 11
17623.752440227963
 21
11475.293461862218
  0
LINE
  8
_4-5_寸法
  6
CONTINUOUS
 62
    7
 10
17736.252592226712
 20
11212.793354932865
 11
17623.752440227963
 21
11212.793354932865
  0
LINE
  8
_4-5_寸法
  6
CONTINUOUS
 62
    7
 10
17736.252592226712
 20
11212.793354932865
 11
17736.252592226712
 21
10950.293248003512
  0
LINE
  8
_4-5_寸法
  6
CONTINUOUS
 62
    7
 10
17736.252592226712
 20
10950.293248003512
 11
17623.752440227963
 21
10950.293248003512
  0
LINE
  8
_4-5_寸法
  6
CONTINUOUS
 62
    7
 10
17848.752744225461
 20
11475.293461862218
 11
17848.752744225461
 21
10950.293248003512
  0
LINE
  8
_4-5_寸法
  6
CONTINUOUS
 62
    7
 10
17848.752744225461
 20
11475.293461862218
 11
17736.252592226712
 21
11475.293461862218
  0
LINE
  8
_4-5_寸法
  6
CONTINUOUS
 62
    7
 10
17848.752744225461
 20
10950.293248003512
 11
17736.252592226712
 21
10950.293248003512
  0
LINE
  8
_4-5_寸法
  6
CENTER1
 62
    7
 10
17323.752530366757
 20
11212.793354932865
 11
17548.752834364255
 21
11212.793354932865
  0
LINE
  8
_4-6_文字
  6
CONTINUOUS
 62
    7
 10
15942.985067478017
 20
10139.584921464957
 11
16392.98567547301
 21
10139.584921464957
  0
LINE
  8
_4-6_文字
  6
CONTINUOUS
 62
    7
 10
15991.82986697635
 20
10286.773338759727
 11
16291.82977683756
 21
10286.773338759727
  0
LINE
  8
_4-6_文字
  6
CONTINUOUS
 62
    7
 10
15817.199415405747
 20
10589.241426386889
 11
15991.82986697635
 21
10286.773338759727
  0
LINE
  8
_4-6_文字
  6
CONTINUOUS
 62
    7
 10
15942.985067478017
 20
10139.584921464957
 11
15768.586495300056
 21
10661.954939264127
  0
LINE
  8
_4-6_文字
  6
CONTINUOUS
 62
    7
 10
17651.22717544379
 20
10544.194395146314
 11
18011.227364558512
 21
10544.194395146314
  0
LINE
  8
_4-6_文字
  6
CONTINUOUS
 62
    7
 10
17458.22622763144
 20
10957.705956536371
 11
17651.22717544379
 21
10544.194395146314
  0
LINE
  8
_4-6_文字
  6
CONTINUOUS
 62
    7
 10
17405.194221408212
 20
10658.944223175638
 11
17621.338516294265
 21
10284.573457342318
  0
LINE
  8
_4-6_文字
  6
CONTINUOUS
 62
    7
 10
17621.338516294265
 20
10284.573457342318
 11
17741.337588394934
 21
10284.573457342318
  0
LINE
  8
_4-8_開口
  6
CONTINUOUS
 62
    7
 10
17249.528828624592
 20
10556.543459211076
 11
17436.252682365506
 21
10743.26731295199
  0
LINE
  8
_4-8_開口
  6
CONTINUOUS
 62
    7
 10
17398.978069997662
 20
10387.793231212954
 11
17436.252682365506
 21
10425.069329987162
  0
LINE
  8
_4-8_開口
  6
CONTINUOUS
 62
    7
 10
17292.911084738476
 20
10387.793231212954
 11
17436.252682365506
 21
10531.134828839982
  0
LINE
  8
_4-8_開口
  6
CONTINUOUS
 62
    7
 10
17286.253470638083
 20
10487.201115965383
 11
17436.252682365506
 21
10637.201070895986
  0
LINE
  8
_4-8_開口
  6
CONTINUOUS
 62
    7
 10
17248.752924503046
 20
10661.833053942351
 11
17436.252682365506
 21
10849.332811804812
  0
LINE
  8
_4-8_開口
  6
CONTINUOUS
 62
    7
 10
17383.75280962027
 20
10965.293317816891
 11
17383.75280962027
 21
11460.293392048839
  0
LINE
  8
_4-8_開口
  6
CONTINUOUS
 62
    7
 10
17395.00341938269
 20
10965.293317816891
 11
17395.00341938269
 21
11460.293392048839
  0
LINE
  8
_4-8_開口
  6
CONTINUOUS
 62
    7
 10
17323.752530366757
 20
11040.293666883785
 11
17338.753343383316
 21
11040.293666883785
  0
LINE
  8
_4-8_開口
  6
CONTINUOUS
 62
    7
 10
17338.753343383316
 20
10965.293317816891
 11
17338.753343383316
 21
11040.293666883785
  0
LINE
  8
_4-8_開口
  6
CONTINUOUS
 62
    7
 10
17323.752530366757
 20
10950.293248003512
 11
17323.752530366757
 21
11040.293666883785
  0
LINE
  8
_4-8_開口
  6
CONTINUOUS
 62
    7
 10
17338.753343383316
 20
11400.293112795325
 11
17323.752530366757
 21
11400.293112795325
  0
LINE
  8
_4-8_開口
  6
CONTINUOUS
 62
    7
 10
17323.752530366757
 20
11475.293461862218
 11
17323.752530366757
 21
11400.293112795325
  0
LINE
  8
_4-8_開口
  6
CONTINUOUS
 62
    7
 10
17338.753343383316
 20
11460.293392048839
 11
17338.753343383316
 21
11400.293112795325
  0
LINE
  8
_4-8_開口
  6
CONTINUOUS
 62
    7
 10
17338.753343383316
 20
10965.293317816891
 11
17548.752834364255
 21
10965.293317816891
  0
LINE
  8
_4-8_開口
  6
CONTINUOUS
 62
    7
 10
17338.753343383316
 20
11460.293392048839
 11
17548.752834364255
 21
11460.293392048839
  0
LINE
  8
_4-8_開口
  6
CONTINUOUS
 62
    7
 10
17323.752530366757
 20
11475.293461862218
 11
17548.752834364255
 21
11475.293461862218
  0
LINE
  8
_4-8_開口
  6
CONTINUOUS
 62
    7
 10
17548.752834364255
 20
11460.293392048839
 11
17548.752834364255
 21
11475.293461862218
  0
LINE
  8
_4-8_開口
  6
CONTINUOUS
 62
    7
 10
17548.752834364255
 20
10950.293248003512
 11
17548.752834364255
 21
10965.293317816891
  0
LINE
  8
_4-8_開口
  6
CONTINUOUS
 62
    7
 10
17548.752834364255
 20
10950.293248003512
 11
17323.752530366757
 21
10950.293248003512
  0
LINE
  8
_4-8_開口
  6
CONTINUOUS
 62
    7
 10
17248.752924503046
 20
10387.793231212954
 11
17248.752924503046
 21
10462.793580279847
  0
LINE
  8
_4-8_開口
  6
CONTINUOUS
 62
    7
 10
17436.252682365506
 20
10950.293248003512
 11
17248.752924503046
 21
10950.293248003512
  0
LINE
  8
_4-8_開口
  6
CONTINUOUS
 62
    7
 10
17325.08137765538
 20
10950.293248003512
 11
17248.752924503046
 21
10873.964794851177
  0
LINE
  8
_4-8_開口
  6
CONTINUOUS
 62
    7
 10
17431.146876508206
 20
10950.293248003512
 11
17248.752924503046
 21
10767.899295998355
  0
LINE
  8
_4-8_開口
  6
CONTINUOUS
 62
    7
 10
17248.752924503046
 20
10556.543459211076
 11
17248.752924503046
 21
10950.293248003512
  0
LINE
  8
_4-8_開口
  6
CONTINUOUS
 62
    7
 10
17436.252682365506
 20
10387.793231212954
 11
17436.252682365506
 21
10950.293248003512
  0
LINE
  8
_4-8_開口
  6
CONTINUOUS
 62
    7
 10
17248.752924503046
 20
10387.793231212954
 11
17436.252682365506
 21
10387.793231212954
  0
LINE
  8
_4-7_躯体
  6
CONTINUOUS
 62
    7
 10
15298.752767202015
 20
11551.326863351476
 11
15391.470336914063
 21
11644.04368986034
  0
LINE
  8
_4-7_躯体
  6
CONTINUOUS
 62
    7
 10
15298.752767202015
 20
11593.752616970694
 11
15349.043840091661
 21
11644.04368986034
  0
LINE
  8
_4-7_躯体
  6
CONTINUOUS
 62
    7
 10
15298.752767202015
 20
11636.179113793098
 11
15306.617343269259
 21
11644.04368986034
  0
LINE
  8
_4-7_躯体
  6
CONTINUOUS
 62
    7
 10
16914.700931269228
 20
10706.543414141681
 11
17098.752226369259
 21
10890.594709241712
  0
LINE
  8
_4-7_躯体
  6
CONTINUOUS
 62
    7
 10
17098.752226369259
 20
10819.043566140428
 11
17098.752226369259
 21
11644.04368986034
  0
LINE
  8
_4-7_躯体
  6
CONTINUOUS
 62
    7
 10
16957.12742809163
 20
10706.543414141681
 11
17098.752226369259
 21
10848.168212419312
  0
LINE
  8
_4-7_躯体
  6
CONTINUOUS
 62
    7
 10
17098.752226369259
 20
10819.043566140428
 11
16986.253560776877
 21
10706.543414141681
  0
LINE
  8
_4-7_躯体
  6
CONTINUOUS
 62
    7
 10
16986.253560776877
 20
10706.543414141681
 11
15298.752767202015
 21
10706.543414141681
  0
LINE
  8
_4-7_躯体
  6
CONTINUOUS
 62
    7
 10
15298.752767202015
 20
10745.224910132212
 11
16197.570803726963
 21
11644.04368986034
  0
LINE
  8
_4-7_躯体
  6
CONTINUOUS
 62
    7
 10
15302.498511237067
 20
10706.543414141681
 11
16239.997300549365
 21
11644.04368986034
  0
LINE
  8
_4-7_躯体
  6
CONTINUOUS
 62
    7
 10
15298.752767202015
 20
10787.651406954614
 11
16155.145793310923
 21
11644.04368986034
  0
LINE
  8
_4-7_躯体
  6
CONTINUOUS
 62
    7
 10
16066.172481227566
 20
10706.543414141681
 11
17003.672756946224
 21
11644.04368986034
  0
LINE
  8
_4-7_躯体
  6
CONTINUOUS
 62
    7
 10
16151.025474872367
 20
10706.543414141681
 11
17088.525750591027
 21
11644.04368986034
  0
LINE
  8
_4-7_躯体
  6
CONTINUOUS
 62
    7
 10
16108.598978049966
 20
10706.543414141681
 11
17046.099253768625
 21
11644.04368986034
  0
LINE
  8
_4-4______
  6
CONTINUOUS
 62
    7
 10
15298.752767202015
 20
10556.543459211076
 11
17286.253470638083
 21
10556.543459211076
  0
LINE
  8
_4-4______
  6
CONTINUOUS
 62
    7
 10
15298.752767202015
 20
10462.793580279847
 11
17286.253470638083
 21
10462.793580279847
  0
LINE
  8
_4-4______
  6
CONTINUOUS
 62
    7
 10
17286.253470638083
 20
10462.793580279847
 11
17286.253470638083
 21
10556.543459211076
  0
LINE
  8
_4-5_寸法
  6
CONTINUOUS
 62
    7
 10
15169.210966250152
 20
10706.543414141681
 11
15247.19676249736
 21
10706.543414141681
  0
LINE
  8
_4-5_寸法
  6
CONTINUOUS
 62
    7
 10
15066.59987578521
 20
10706.543414141681
 11
15169.210966250152
 21
10706.543414141681
  0
LINE
  8
_4-5_寸法
  6
CONTINUOUS
 62
    7
 10
15169.210966250152
 20
10631.543065074788
 11
15247.19676249736
 21
10631.543065074788
  0
LINE
  8
_4-5_寸法
  6
CONTINUOUS
 62
    7
 10
15066.59987578521
 20
10556.543459211076
 11
15247.19676249736
 21
10556.543459211076
  0
LINE
  8
_4-5_寸法
  6
CONTINUOUS
 62
    7
 10
15066.59987578521
 20
10706.543414141681
 11
15066.59987578521
 21
10556.543459211076
  0
LINE
  8
_4-5_寸法
  6
CONTINUOUS
 62
    7
 10
15066.59987578521
 20
10556.543459211076
 11
15066.59987578521
 21
10462.793580279847
  0
LINE
  8
_4-5_寸法
  6
CONTINUOUS
 62
    7
 10
15066.59987578521
 20
10462.793580279847
 11
15247.19676249736
 21
10462.793580279847
  0
LINE
  8
_4-5_寸法
  6
CONTINUOUS
 62
    7
 10
15169.210966250152
 20
10706.543414141681
 11
15169.210966250152
 21
10631.543065074788
  0
LINE
  8
_4-5_寸法
  6
CONTINUOUS
 62
    7
 10
15169.210966250152
 20
10631.543065074788
 11
15169.210966250152
 21
10556.543459211076
  0
LINE
  8
_4-3______
  6
CENTER1
 62
    7
 10
16780.002786643716
 20
10786.435526549585
 11
16780.002786643716
 21
10341.765171772726
  0
LINE
  8
_6-2_______
  6
DASHED1
 62
    7
 10
11154.438527523322
 20
11853.872987312701
 11
11329.438351075161
 21
12028.872810864541
  0
LINE
  8
_6-2_______
  6
DASHED1
 62
    7
 10
11176.423220836978
 20
11578.872946072728
 11
11351.423044388819
 21
11753.87276962457
  0
LINE
  8
_6-2_______
  6
DASHED1
 62
    7
 10
11142.554708650212
 20
11884.415665261993
 11
11287.01185425276
 21
12028.872810864541
  0
LINE
  8
_6-2_______
  6
DASHED1
 62
    7
 10
11142.554708650212
 20
11926.842162084396
 11
11244.585357430358
 21
12028.872810864541
  0
LINE
  8
_6-2_______
  6
DASHED1
 62
    7
 10
11142.554708650212
 20
11969.268658906796
 11
11202.158860607957
 21
12028.872810864541
  0
LINE
  8
_6-2_______
  6
DASHED1
 62
    7
 10
11142.554708650212
 20
12011.694412526016
 11
11159.733106988737
 21
12028.872810864541
  0
LINE
  8
_6-2_______
  6
DASHED1
 62
    7
 10
11142.554708650212
 20
11587.430930708366
 11
11308.996547566418
 21
11753.87276962457
  0
LINE
  8
_6-2_______
  6
DASHED1
 62
    7
 10
11142.554708650212
 20
11629.857427530767
 11
11266.570793947198
 21
11753.87276962457
  0
LINE
  8
_6-2_______
  6
DASHED1
 62
    7
 10
11142.554708650212
 20
11672.283181149987
 11
11224.144297124796
 21
11753.87276962457
  0
LINE
  8
_6-2_______
  6
DASHED1
 62
    7
 10
11142.554708650212
 20
11714.709677972389
 11
11181.717800302395
 21
11753.87276962457
  0
LINE
  8
_6-2_______
  6
CENTER1
 62
    7
 10
11142.554708650212
 20
12028.872810864541
 11
11362.554741642189
 21
12028.872810864541
  0
LINE
  8
_6-2_______
  6
CENTER1
 62
    7
 10
11142.554708650212
 20
11578.872946072728
 11
11362.554741642189
 21
11578.872946072728
  0
LINE
  8
_6-2_______
  6
DASHED1
 62
    7
 10
11324.143771609744
 20
11853.872987312701
 11
11362.554741642189
 21
11892.283214141964
  0
LINE
  8
_6-2_______
  6
DASHED1
 62
    7
 10
11281.717274787343
 20
11853.872987312701
 11
11362.554741642189
 21
11934.709710964366
  0
LINE
  8
_6-2_______
  6
DASHED1
 62
    7
 10
11239.291521168123
 20
11853.872987312701
 11
11362.554741642189
 21
11977.136207786765
  0
LINE
  8
_6-2_______
  6
DASHED1
 62
    7
 10
11196.865024345721
 20
11853.872987312701
 11
11362.554741642189
 21
12019.562704609169
  0
LINE
  8
_6-2_______
  6
DASHED1
 62
    7
 10
11346.129208126582
 20
11578.872946072728
 11
11362.554741642189
 21
11595.298479588335
  0
LINE
  8
_6-2_______
  6
DASHED1
 62
    7
 10
11303.702711304182
 20
11578.872946072728
 11
11362.554741642189
 21
11637.724976410738
  0
LINE
  8
_6-2_______
  6
DASHED1
 62
    7
 10
11261.276214481781
 20
11578.872946072728
 11
11362.554741642189
 21
11680.151473233138
  0
LINE
  8
_6-2_______
  6
DASHED1
 62
    7
 10
11218.849717659381
 20
11578.872946072728
 11
11362.554741642189
 21
11722.577970055539
  0
LINE
  8
_6-2_______
  6
CENTER1
 62
    7
 10
11142.554708650212
 20
11853.872987312701
 11
11362.554741642189
 21
11853.872987312701
  0
LINE
  8
_6-2_______
  6
CENTER1
 62
    7
 10
11142.554708650212
 20
11753.87276962457
 11
11362.554741642189
 21
11753.87276962457
  0
LINE
  8
_5-0_____
  6
LONG3
 62
    7
 10
11202.619646580522
 20
9151.9028237243419
 11
11277.619995647416
 21
9151.9028237243419
  0
LINE
  8
_5-0_____
  6
LONG3
 62
    7
 10
11202.619646580522
 20
8568.5693353483566
 11
11277.619995647416
 21
8568.5693353483566
  0
LINE
  8
_5-0_____
  6
CONTINUOUS
 62
    7
 10
11101.031203693405
 20
7304.4944336055323
 11
11101.031203693405
 21
7079.494129608036
  0
LINE
  8
_5-0_____
  6
CONTINUOUS
 62
    7
 10
11101.031203693405
 20
7079.494129608036
 11
11187.280676116354
 21
7079.494129608036
  0
LINE
  8
_5-0_____
  6
CONTINUOUS
 62
    7
 10
11187.280676116354
 20
7079.494129608036
 11
11187.280676116354
 21
7229.49408453864
  0
LINE
  8
_5-0_____
  6
CONTINUOUS
 62
    7
 10
11183.531216065396
 20
7229.49408453864
 11
11183.531216065396
 21
7083.2443328621766
  0
LINE
  8
_5-0_____
  6
CONTINUOUS
 62
    7
 10
11183.531216065396
 20
7083.2443328621766
 11
11104.780663744365
 21
7083.2443328621766
  0
LINE
  8
_5-0_____
  6
CONTINUOUS
 62
    7
 10
11104.780663744365
 20
7083.2443328621766
 11
11104.780663744365
 21
7304.4944336055323
  0
LINE
  8
_5-0_____
  6
CONTINUOUS
 62
    7
 10
11101.031203693405
 20
7304.4944336055323
 11
11104.780663744365
 21
7304.4944336055323
  0
LINE
  8
_5-0_____
  6
CONTINUOUS
 62
    7
 10
11183.531216065396
 20
7229.49408453864
 11
11187.280676116354
 21
7229.49408453864
  0
LINE
  8
_5-6_文字
  6
CONTINUOUS
 62
    7
 10
11342.066116333008
 20
9277.4290978862518
 11
11167.601399071889
 21
9061.7061992041381
  0
LINE
  8
_5-6_文字
  6
CONTINUOUS
 62
    7
 10
11309.612663003929
 20
8623.5626547677166
 11
11171.598345782306
 21
8828.3210769123107
  0
LINE
  8
_5-6_文字
  6
CONTINUOUS
 62
    7
 10
11672.066165820972
 20
9277.4290978862518
 11
11342.066116333008
 21
9277.4290978862518
  0
LINE
  8
_5-6_文字
  6
CONTINUOUS
 62
    7
 10
11309.612663003929
 20
8623.5626547677166
 11
11759.61252779574
 21
8623.5626547677166
  0
LINE
  8
_5-5_寸法
  6
CONTINUOUS
 62
    7
 10
11543.49498822422
 20
8935.2360570016517
 11
11363.420573348705
 21
8935.2360570016517
  0
LINE
  8
_5-5_寸法
  6
CONTINUOUS
 62
    7
 10
11543.49498822422
 20
8776.9025647962426
 11
11543.49498822422
 21
8935.2360570016517
  0
LINE
  8
_5-5_寸法
  6
CONTINUOUS
 62
    7
 10
11543.49498822422
 20
8785.2361020710468
 11
11363.420573348705
 21
8785.2361020710468
  0
LINE
  8
_5-5_寸法
  6
CENTER1
 62
    7
 10
11363.420573348705
 20
8785.2361020710468
 11
11202.619646580522
 21
8785.2361020710468
  0
LINE
  8
_5-5_寸法
  6
CENTER1
 62
    7
 10
11363.420573348705
 20
8935.2360570016517
 11
11202.619646580522
 21
8935.2360570016517
  0
LINE
  8
_5-7_躯体
  6
CONTINUOUS
 62
    7
 10
10790.119584720567
 20
9356.3141699831467
 11
10790.119584720567
 21
8364.1579890895537
  0
LINE
  8
_5-7_躯体
  6
CONTINUOUS
 62
    7
 10
10790.119584720567
 20
8767.5173950195312
 11
11127.620040716811
 21
9105.017107812595
  0
LINE
  8
_5-7_躯体
  6
CONTINUOUS
 62
    7
 10
10790.119584720567
 20
8738.5495646119562
 11
11127.620040716811
 21
9076.0500206082015
  0
LINE
  8
_5-7_躯体
  6
CONTINUOUS
 62
    7
 10
10790.119584720567
 20
8711.899784927662
 11
11127.620040716811
 21
9049.4002409239074
  0
LINE
  8
_5-7_躯体
  6
CONTINUOUS
 62
    7
 10
11127.620040716811
 20
9460.2362708603559
 11
11127.620040716811
 21
8260.2358882123444
  0
LINE
  8
_5-2_______
  6
CONTINUOUS
 62
    7
 10
11127.620040716811
 20
8785.2361020710468
 11
11202.619646580522
 21
8785.2361020710468
  0
LINE
  8
_5-2_______
  6
CONTINUOUS
 62
    7
 10
11127.620040716811
 20
8935.2360570016517
 11
11202.619646580522
 21
8935.2360570016517
  0
LINE
  8
_5-2_______
  6
DASHED2
 62
    7
 10
11197.902535987176
 20
8568.5693353483566
 11
11202.239126551565
 21
8572.9059259127462
  0
LINE
  8
_5-2_______
  6
DASHED2
 62
    7
 10
11197.902535987176
 20
8568.5693353483566
 11
11202.239126551565
 21
8572.9059259127462
  0
LINE
  8
_5-2_______
  6
CONTINUOUS
 62
    7
 10
11202.619646580522
 20
9197.7361639310038
 11
11127.620040716811
 21
9197.7361639310038
  0
LINE
  8
_5-2_______
  6
CONTINUOUS
 62
    7
 10
11202.619646580522
 20
8522.7359951416965
 11
11127.620040716811
 21
8522.7359951416965
  0
LINE
  8
_5-2_______
  6
DASHED1
 62
    7
 10
11197.738288084052
 20
8935.2360570016517
 11
11202.619646580522
 21
8940.1174154981218
  0
LINE
  8
_5-2_______
  6
DASHED1
 62
    7
 10
11155.311791261651
 20
8935.2360570016517
 11
11202.619646580522
 21
8982.5439123205233
  0
LINE
  8
_5-2_______
  6
DASHED1
 62
    7
 10
11127.620040716811
 20
8949.9700600760334
 11
11202.619646580522
 21
9024.9704091429248
  0
LINE
  8
_5-2_______
  6
DASHED1
 62
    7
 10
11127.620040716811
 20
8992.3965568984331
 11
11202.619646580522
 21
9067.3969059653264
  0
LINE
  8
_5-2_______
  6
DASHED1
 62
    7
 10
11127.620040716811
 20
9034.8230537208347
 11
11202.619646580522
 21
9109.8234027877279
  0
LINE
  8
_5-2_______
  6
DASHED1
 62
    7
 10
11127.620040716811
 20
9077.2495505432362
 11
11202.619646580522
 21
9152.2498996101276
  0
LINE
  8
_5-2_______
  6
DASHED1
 62
    7
 10
11127.620040716811
 20
9119.6760473656377
 11
11202.619646580522
 21
9194.676396432531
  0
LINE
  8
_5-2_______
  6
DASHED1
 62
    7
 10
11127.620040716811
 20
9162.1025441880392
 11
11163.253660459777
 21
9197.7361639310038
  0
LINE
  8
_5-2_______
  6
DASHED1
 62
    7
 10
11167.075954422528
 20
8522.7359951416965
 11
11202.619646580522
 21
8558.2796872996914
  0
LINE
  8
_5-2_______
  6
DASHED1
 62
    7
 10
11127.620040716811
 20
8525.7065782583813
 11
11202.619646580522
 21
8600.706184122093
  0
LINE
  8
_5-2_______
  6
DASHED1
 62
    7
 10
11127.620040716811
 20
8568.1330750807829
 11
11202.619646580522
 21
8643.1326809444945
  0
LINE
  8
_5-2_______
  6
DASHED1
 62
    7
 10
11127.620040716811
 20
8610.5588287000028
 11
11202.619646580522
 21
8685.559177766896
  0
LINE
  8
_5-2_______
  6
DASHED1
 62
    7
 10
11127.620040716811
 20
8652.9853255224043
 11
11202.619646580522
 21
8727.9856745892976
  0
LINE
  8
_5-2_______
  6
DASHED1
 62
    7
 10
11127.620040716811
 20
8695.4118223448058
 11
11202.619646580522
 21
8770.4121714116973
  0
LINE
  8
_5-2_______
  6
DASHED1
 62
    7
 10
11127.620040716811
 20
8737.8383191672074
 11
11175.01708041747
 21
8785.2361020710468
  0
LINE
  8
_5-2_______
  6
DASHED1
 62
    7
 10
11127.620040716811
 20
8780.2648159896089
 11
11132.591326798251
 21
8785.2361020710468
  0
LINE
  8
_5-2_______
  6
CONTINUOUS
 62
    7
 10
11127.620040716811
 20
9197.7361639310038
 11
11127.620040716811
 21
8935.2360570016517
  0
LINE
  8
_5-2_______
  6
CONTINUOUS
 62
    7
 10
11202.619646580522
 20
9197.7361639310038
 11
11202.619646580522
 21
8935.2360570016517
  0
LINE
  8
_5-2_______
  6
CONTINUOUS
 62
    7
 10
11202.619646580522
 20
8785.2361020710468
 11
11202.619646580522
 21
8522.7359951416965
  0
LINE
  8
_5-2_______
  6
CONTINUOUS
 62
    7
 10
11127.620040716811
 20
8785.2361020710468
 11
11127.620040716811
 21
8522.7359951416965
  0
LINE
  8
_5-3______
  6
CONTINUOUS
 62
    7
 10
11175.01708041747
 20
8785.2361020710468
 11
11202.619646580522
 21
8812.8386682340988
  0
LINE
  8
_5-3______
  6
CONTINUOUS
 62
    7
 10
11132.591326798251
 20
8785.2361020710468
 11
11202.619646580522
 21
8855.2644218533187
  0
LINE
  8
_5-3______
  6
CONTINUOUS
 62
    7
 10
11127.620040716811
 20
8822.6913128120086
 11
11202.619646580522
 21
8897.6909186757202
  0
LINE
  8
_5-3______
  6
CONTINUOUS
 62
    7
 10
11127.620040716811
 20
8865.117809634412
 11
11197.738288084052
 21
8935.2360570016517
  0
LINE
  8
_5-3______
  6
CONTINUOUS
 62
    7
 10
11127.620040716811
 20
8907.5443064568117
 11
11155.311791261651
 21
8935.2360570016517
  0
LINE
  8
_5-3______
  6
CONTINUOUS
 62
    7
 10
11127.620040716811
 20
8812.9278526158869
 11
11155.311791261651
 21
8785.2361020710468
  0
LINE
  8
_5-3______
  6
CONTINUOUS
 62
    7
 10
11127.620040716811
 20
8855.3543494382884
 11
11197.738288084052
 21
8785.2361020710468
  0
LINE
  8
_5-3______
  6
CONTINUOUS
 62
    7
 10
11127.620040716811
 20
8897.7808462606881
 11
11202.619646580522
 21
8822.7812403969783
  0
LINE
  8
_5-3______
  6
CONTINUOUS
 62
    7
 10
11132.591326798251
 20
8935.2360570016517
 11
11202.619646580522
 21
8865.2069940161982
  0
LINE
  8
_5-3______
  6
CONTINUOUS
 62
    7
 10
11175.01708041747
 20
8935.2360570016517
 11
11202.619646580522
 21
8907.6334908385998
  0
LINE
  8
_5-3______
  6
CONTINUOUS
 62
    7
 10
11127.620040716811
 20
8935.2360570016517
 11
11202.619646580522
 21
8935.2360570016517
  0
LINE
  8
_5-3______
  6
CONTINUOUS
 62
    7
 10
11127.620040716811
 20
8935.2360570016517
 11
11127.620040716811
 21
8785.2361020710468
  0
LINE
  8
_5-3______
  6
CONTINUOUS
 62
    7
 10
11202.619646580522
 20
8785.2361020710468
 11
11127.620040716811
 21
8785.2361020710468
  0
LINE
  8
_5-3______
  6
CONTINUOUS
 62
    7
 10
11202.619646580522
 20
8785.2361020710468
 11
11202.619646580522
 21
8935.2360570016517
  0
LINE
  8
_5-1______
  6
CONTINUOUS
 62
    7
 10
11202.619646580522
 20
9455.5303083147319
 11
11202.619646580522
 21
8264.9418507579667
  0
LINE
  8
_5-1______
  6
CONTINUOUS
 62
    7
 10
11277.619995647416
 20
9441.183514097942
 11
11277.619995647416
 21
8279.2886449747566
  0
LINE
  8
_5-6_文字
  6
CONTINUOUS
 62
    7
 10
11260.616993259739
 20
7518.8817961703853
 11
11542.442612519137
 21
7518.8817961703853
  0
LINE
  8
_5-6_文字
  6
CONTINUOUS
 62
    7
 10
11260.616993259739
 20
7518.8817961703853
 11
11147.470254493035
 21
7382.8005504239936
  0
LINE
  8
_5-6_文字
  6
CONTINUOUS
 62
    7
 10
11279.478003601311
 20
7198.2446203636846
 11
11589.485887505372
 21
7198.2446203636846
  0
LINE
  8
_5-6_文字
  6
CONTINUOUS
 62
    7
 10
11279.478003601311
 20
7198.2446203636846
 11
11183.160357677798
 21
7095.7301463123458
  0
LINE
  8
_5-5_寸法
  6
CONTINUOUS
 62
    7
 10
11179.781012811256
 20
6778.2337471509072
 11
11179.781012811256
 21
7035.4823803993722
  0
LINE
  8
_5-5_寸法
  6
CONTINUOUS
 62
    7
 10
11029.781057880653
 20
6778.2337471509072
 11
11029.781057880653
 21
7035.4823803993722
  0
LINE
  8
_5-5_寸法
  6
CONTINUOUS
 62
    7
 10
11179.781012811256
 20
6778.2337471509072
 11
11029.781057880653
 21
6778.2337471509072
  0
LINE
  8
_5-7_躯体
  6
CONTINUOUS
 62
    7
 10
10678.661403582362
 20
7035.2869179626223
 11
11029.781057880653
 21
7386.4073154640937
  0
LINE
  8
_5-7_躯体
  6
CONTINUOUS
 62
    7
 10
10678.661403582362
 20
7006.3198307582315
 11
11029.781057880653
 21
7357.4394850565195
  0
LINE
  8
_5-7_躯体
  6
CONTINUOUS
 62
    7
 10
10678.661403582362
 20
6979.6700510739365
 11
11029.781057880653
 21
7330.7897053722245
  0
LINE
  8
_5-7_躯体
  6
CONTINUOUS
 62
    7
 10
10678.661403582362
 20
7654.5542801669208
 11
10678.661403582362
 21
6783.0697702533034
  0
LINE
  8
_5-7_躯体
  6
CONTINUOUS
 62
    7
 10
11029.781057880653
 20
7815.6673522713554
 11
11029.781057880653
 21
7079.494129608036
  0
LINE
  8
_5-7_躯体
  6
CONTINUOUS
 62
    7
 10
11029.781057880653
 20
7079.494129608036
 11
11674.729062820494
 21
7079.494129608036
  0
LINE
  8
_5-7_躯体
  6
CONTINUOUS
 62
    7
 10
11059.061033624479
 20
6619.6698619592144
 11
11518.885301273302
 21
7079.494129608036
  0
LINE
  8
_5-7_躯体
  6
CONTINUOUS
 62
    7
 10
11089.918086519572
 20
6618.8129486908783
 11
11550.59852423355
 21
7079.494129608036
  0
LINE
  8
_5-7_躯体
  6
CONTINUOUS
 62
    7
 10
11125.24327694219
 20
6619.7828288428109
 11
11584.954577707416
 21
7079.494129608036
  0
LINE
  8
_5-1______
  6
CONTINUOUS
 62
    7
 10
11104.780663744365
 20
7818.6565154675809
 11
11104.780663744365
 21
7120.7441357940324
  0
LINE
  8
_5-1______
  6
CONTINUOUS
 62
    7
 10
11179.781012811256
 20
7812.2263215407438
 11
11179.781012811256
 21
7120.7441357940324
  0
LINE
  8
_5-1______
  6
CONTINUOUS
 62
    7
 10
11179.781012811256
 20
7120.7441357940324
 11
11104.780663744365
 21
7120.7441357940324
  0
LINE
  8
_6-6_文字
  6
CONTINUOUS
 62
    7
 10
11424.416744865504
 20
12101.546190769976
 11
11724.416654726714
 21
12101.546190769976
  0
LINE
  8
_6-6_文字
  6
CONTINUOUS
 62
    7
 10
11427.808724186134
 20
12213.24219692628
 11
11757.808773674098
 21
12213.24219692628
  0
LINE
  8
_6-6_文字
  6
CONTINUOUS
 62
    7
 10
11427.808724186134
 20
11958.683959195052
 11
11877.808588977947
 21
11958.683959195052
  0
LINE
  8
_6-6_文字
  6
CONTINUOUS
 62
    7
 10
11427.808724186134
 20
11608.386287615565
 11
11727.808634047342
 21
11608.386287615565
  0
LINE
  8
_6-6_文字
  6
CONTINUOUS
 62
    7
 10
11252.554725146201
 20
11909.693491873133
 11
11427.808724186134
 21
12213.24219692628
  0
LINE
  8
_6-6_文字
  6
CONTINUOUS
 62
    7
 10
11252.554725146201
 20
11803.872506867045
 11
11424.416744865504
 21
12101.546190769976
  0
LINE
  8
_6-6_文字
  6
CONTINUOUS
 62
    7
 10
11338.428879962465
 20
11803.872506867045
 11
11427.808724186134
 21
11958.683959195052
  0
LINE
  8
_6-6_文字
  6
CONTINUOUS
 62
    7
 10
11338.428879962465
 20
11453.574835287558
 11
11427.808724186134
 21
11608.386287615565
  0
LINE
  8
_6-1______
  6
CONTINUOUS
 62
    7
 10
11140.054573147452
 20
12187.726545297041
 11
11140.054573147452
 21
11420.018468437047
  0
LINE
  8
_6-1______
  6
DASHED1
 62
    7
 10
11142.554708650212
 20
12188.450425195877
 11
11142.554708650212
 21
11419.294588538211
  0
LINE
  8
_6-1______
  6
DASHED1
 62
    7
 10
11362.554741642189
 20
12188.450425195877
 11
11362.554741642189
 21
11419.294588538211
  0
LINE
  8
_6-1______
  6
CONTINUOUS
 62
    7
 10
11365.054877144948
 20
12187.726545297041
 11
11365.054877144948
 21
11420.018468437047
  0
LINE
  8
_6-3______
  6
CONTINUOUS
 62
    7
 10
11115.054704526216
 20
11828.872375488281
 11
11115.054704526216
 21
11778.872638245808
  0
LINE
  8
_6-3______
  6
CONTINUOUS
 62
    7
 10
11390.054745766187
 20
11828.872375488281
 11
11390.054745766187
 21
11778.872638245808
  0
LINE
  8
_6-3______
  6
CENTER1
 62
    7
 10
11140.054573147452
 20
11853.872987312701
 11
11365.054877144948
 21
11853.872987312701
  0
LINE
  8
_6-3______
  6
CENTER1
 62
    7
 10
11140.054573147452
 20
11753.87276962457
 11
11365.054877144948
 21
11753.87276962457
  0
LINE
  8
_6-7_躯体
  6
CONTINUOUS
 62
    7
 10
10899.572603674929
 20
10356.117168411785
 11
11605.536846617473
 21
10356.117168411785
  0
LINE
  8
_6-7_躯体
  6
CONTINUOUS
 62
    7
 10
10975.95085144043
 20
10255.329155351204
 11
11076.739607704192
 21
10356.117168411785
  0
LINE
  8
_6-7_躯体
  6
CONTINUOUS
 62
    7
 10
10994.0864954768
 20
10238.998751842837
 11
11111.204912045747
 21
10356.117168411785
  0
LINE
  8
_6-7_躯体
  6
CONTINUOUS
 62
    7
 10
11014.931858313128
 20
10222.507073244073
 11
11148.541953480841
 21
10356.117168411785
  0
LINE
  8
_6-7_躯体
  6
CONTINUOUS
 62
    7
 10
11235.753874023909
 20
10144.629041458189
 11
11447.242000977505
 21
10356.117168411785
  0
LINE
  8
_6-7_躯体
  6
CONTINUOUS
 62
    7
 10
11270.257824930906
 20
10144.66768802363
 11
11481.70730531906
 21
10356.117168411785
  0
LINE
  8
_6-7_躯体
  6
CONTINUOUS
 62
    7
 10
11311.582894638237
 20
10148.654973092687
 11
11519.045089957337
 21
10356.117168411785
  0
LINE
  8
_6-1______
  6
CONTINUOUS
 62
    7
 10
11140.054573147452
 20
10928.129442723101
 11
11140.054573147452
 21
10456.117386099915
  0
LINE
  8
_6-1______
  6
CONTINUOUS
 62
    7
 10
11365.054877144948
 20
10928.129442723101
 11
11365.054877144948
 21
10456.117386099915
  0
LINE
  8
_6-0_____
  6
CONTINUOUS
 62
    7
 10
10862.390891704779
 20
10456.117386099915
 11
11642.719301790805
 21
10456.117386099915
  0
LINE
  8
_6-0_____
  6
CONTINUOUS
 62
    7
 10
10854.379161407589
 20
10506.117123342388
 11
11140.054573147452
 21
10506.117123342388
  0
LINE
  8
_6-0_____
  6
CONTINUOUS
 62
    7
 10
11365.054877144948
 20
10506.117123342388
 11
11650.731032087995
 21
10506.117123342388
  0
LINE
  8
_6-0_____
  6
CONTINUOUS
 62
    7
 10
10899.572603674929
 20
10356.117168411785
 11
11605.536846617473
 21
10356.117168411785
  0
LINE
  8
_6-6_文字
  6
CONTINUOUS
 62
    7
 10
11457.264839083993
 20
10712.791523289035
 11
11861.562167429096
 21
10712.791523289035
  0
LINE
  8
_6-6_文字
  6
CONTINUOUS
 62
    7
 10
11417.64765028788
 20
10990.881803357923
 11
11785.190608492228
 21
10990.881803357923
  0
LINE
  8
_6-6_文字
  6
CONTINUOUS
 62
    7
 10
11323.718659389893
 20
10640.331442696706
 11
11417.64765028788
 21
10990.881803357923
  0
LINE
  8
_6-6_文字
  6
CONTINUOUS
 62
    7
 10
11378.552933328399
 20
10419.034520152913
 11
11457.264839083993
 21
10712.791523289035
  0
ARC
  8
_0-0_0
  6
CONTINUOUS
 62
    5
 10
15295.455917888627
 20
5234.6475608560577
 40
68.999999473914215
 50
62.71891784667968
 51
117.28106689453124
  0
ARC
  8
_0-0_0
  6
CONTINUOUS
 62
    5
 10
15295.455917888627
 20
5234.6475608560577
 40
81.000001906888357
 50
60.026107788085938
 51
119.97387695312499
  0
ARC
  8
_0-0_0
  6
CONTINUOUS
 62
    5
 10
15295.455917888627
 20
5234.6475608560577
 40
81.000001906888357
 50
285.02610778808594
 51
29.973876953124979
  0
ARC
  8
_0-0_0
  6
CONTINUOUS
 62
    5
 10
15295.455917888627
 20
5234.6475608560577
 40
68.999999473914215
 50
287.71891784667969
 51
27.281066894531271
  0
ARC
  8
_0-0_0
  6
CONTINUOUS
 62
    5
 10
15295.455917888627
 20
5234.6475608560577
 40
68.999999473914215
 50
152.71891784667969
 51
252.28106689453122
  0
ARC
  8
_0-0_0
  6
CONTINUOUS
 62
    5
 10
15295.455917888627
 20
5234.6475608560577
 40
81.000001906888357
 50
150.02610778808594
 51
254.973876953125
  0
CIRCLE
  8
_0-0_0
  6
CONTINUOUS
 62
    5
 10
15295.455917888627
 20
5234.6475608560577
 40
99.000005556349592
  0
CIRCLE
  8
_0-0_0
  6
CONTINUOUS
 62
    5
 10
15295.455917888627
 20
5234.6475608560577
 40
110.99999637677402
  0
ARC
  8
_0-0_0
  6
CONTINUOUS
 62
    5
 10
15295.455917888627
 20
5234.6475608560577
 40
75.000000690401293
 50
151.26019287109375
 51
253.73979187011719
  0
ARC
  8
_0-0_0
  6
CONTINUOUS
 62
    5
 10
15295.455917888627
 20
5234.6475608560577
 40
75.000000690401293
 50
286.26019287109375
 51
28.739791870117163
  0
ARC
  8
_0-0_0
  6
CONTINUOUS
 62
    5
 10
15295.455917888627
 20
5234.6475608560577
 40
75.000000690401293
 50
61.26019287109375
 51
118.73979187011717
  0
CIRCLE
  8
_0-0_0
  6
CONTINUOUS
 62
    5
 10
15295.455917888627
 20
5234.6475608560577
 40
105.0000009665618
  0
CIRCLE
  8
_1-6_文字
  6
CONTINUOUS
 62
    7
 10
8655.5137027460623
 20
10862.315084980262
 40
90.118483673191434
  0
CIRCLE
  8
_1-6_文字
  6
CONTINUOUS
 62
    7
 10
8662.0472019151366
 20
10293.737152570922
 40
103.97436896346251
  0
CIRCLE
  8
_1-1______
  6
CONTINUOUS
 62
    7
 10
8349.664040642816
 20
10858.987021133247
 40
9.126259997256934
  0
CIRCLE
  8
_1-1______
  6
CONTINUOUS
 62
    7
 10
8652.6635185447885
 20
10858.987021133247
 40
9.126259997256934
  0
CIRCLE
  8
_1-1______
  6
CONTINUOUS
 62
    7
 10
8955.6637396499464
 20
10858.987021133247
 40
9.126259997256934
  0
ARC
  8
_1-1______
  6
CONTINUOUS
 62
    7
 10
10162.162690917497
 20
10858.987021133247
 40
9.126259997256934
 50
270
 51
90
  0
CIRCLE
  8
_1-1______
  6
CONTINUOUS
 62
    7
 10
8046.9142790098449
 20
10858.987021133247
 40
9.126259997256934
  0
CIRCLE
  8
_1-1______
  6
CONTINUOUS
 62
    7
 10
7743.914057904688
 20
10858.987021133247
 40
9.126259997256934
  0
ARC
  8
_1-1______
  6
CONTINUOUS
 62
    7
 10
9258.6639607551024
 20
10858.987021133247
 40
9.126259997256934
 50
90.00006103515625
 51
269.99992370605469
  0
CIRCLE
  8
_1-1______
  6
CONTINUOUS
 62
    7
 10
8349.664040642816
 20
11458.986840855661
 40
9.126259997256934
  0
CIRCLE
  8
_1-1______
  6
CONTINUOUS
 62
    7
 10
8652.6635185447885
 20
11458.986840855661
 40
9.126259997256934
  0
CIRCLE
  8
_1-1______
  6
CONTINUOUS
 62
    7
 10
8955.6637396499464
 20
11458.986840855661
 40
9.126259997256934
  0
CIRCLE
  8
_1-1______
  6
CONTINUOUS
 62
    7
 10
9258.6639607551024
 20
11458.986840855661
 40
9.126259997256934
  0
ARC
  8
_1-1______
  6
CONTINUOUS
 62
    7
 10
10162.162690917497
 20
11458.986840855661
 40
9.126259997256934
 50
270
 51
90
  0
CIRCLE
  8
_1-1______
  6
CONTINUOUS
 62
    7
 10
8046.9142790098449
 20
11458.986840855661
 40
9.126259997256934
  0
CIRCLE
  8
_1-1______
  6
CONTINUOUS
 62
    7
 10
7743.914057904688
 20
11458.986840855661
 40
9.126259997256934
  0
CIRCLE
  8
_2-7_躯体
  6
CONTINUOUS
 62
    7
 10
7951.1971412570329
 20
6982.3857154993475
 40
2.6853636542917676
  0
CIRCLE
  8
_2-7_躯体
  6
CONTINUOUS
 62
    7
 10
7767.5843360341187
 20
6855.6777482787611
 40
18.656392860941907
  0
CIRCLE
  8
_2-7_躯体
  6
CONTINUOUS
 62
    7
 10
7867.8521068676091
 20
6904.6830796643117
 40
2.6853636542917676
  0
CIRCLE
  8
_2-7_躯体
  6
CONTINUOUS
 62
    7
 10
7879.9365905997383
 20
6947.6491419965241
 40
6.8463935147841459
  0
CIRCLE
  8
_2-7_躯体
  6
CONTINUOUS
 62
    7
 10
7905.1839458804334
 20
6915.5353325214164
 40
2.6853636542917676
  0
CIRCLE
  8
_2-7_躯体
  6
CONTINUOUS
 62
    7
 10
7863.5110570841316
 20
6887.1026084045643
 40
2.6853636542917676
  0
CIRCLE
  8
_2-7_躯体
  6
CONTINUOUS
 62
    7
 10
7906.7900079557785
 20
6991.95817247781
 40
6.8463935147841459
  0
CIRCLE
  8
_2-7_躯体
  6
CONTINUOUS
 62
    7
 10
7887.8204899497014
 20
7009.0815737808989
 40
2.6853636542917676
  0
CIRCLE
  8
_2-7_躯体
  6
CONTINUOUS
 62
    7
 10
7932.0975626941809
 20
7008.8645584518845
 40
2.6853636542917676
  0
CIRCLE
  8
_2-7_躯体
  6
CONTINUOUS
 62
    7
 10
7997.2110798368121
 20
6931.8137118070736
 40
2.6853636542917676
  0
CIRCLE
  8
_2-7_躯体
  6
CONTINUOUS
 62
    7
 10
7984.6227043475883
 20
6906.8539761576412
 40
2.6853636542917676
  0
CIRCLE
  8
_2-7_躯体
  6
CONTINUOUS
 62
    7
 10
7994.172122027423
 20
7010.6014242871852
 40
2.6853636542917676
  0
CIRCLE
  8
_2-6_文字
  6
CONTINUOUS
 62
    7
 10
9362.9100982194705
 20
7926.776227914228
 40
205.76146773850132
  0
CIRCLE
  8
_2-6_文字
  6
CONTINUOUS
 62
    7
 10
9380.5032039333037
 20
7033.0654836529466
 40
205.76146773850132
  0
CIRCLE
  8
_2-7_躯体
  6
CONTINUOUS
 62
    7
 10
9660.2166397507117
 20
6970.4476427939862
 40
15.319632665761189
  0
CIRCLE
  8
_2-7_躯体
  6
CONTINUOUS
 62
    7
 10
9518.8296664911795
 20
6800.165673038674
 40
9.4728503333095411
  0
CIRCLE
  8
_2-7_躯体
  6
CONTINUOUS
 62
    7
 10
9664.8490251813619
 20
6784.3324724587692
 40
9.4728503333095411
  0
CIRCLE
  8
_2-7_躯体
  6
CONTINUOUS
 62
    7
 10
9795.6810268564113
 20
6836.7431608222169
 40
15.319632665761189
  0
CIRCLE
  8
_2-7_躯体
  6
CONTINUOUS
 62
    7
 10
9244.3825684182884
 20
8719.5332248054401
 40
9.4728503333095411
  0
CIRCLE
  8
_2-7_躯体
  6
CONTINUOUS
 62
    7
 10
9104.400249171902
 20
8635.0548055641448
 40
9.4728503333095411
  0
CIRCLE
  8
_2-7_躯体
  6
CONTINUOUS
 62
    7
 10
9234.4726971953987
 20
8252.9584426585316
 40
15.319632665761189
  0
CIRCLE
  8
_2-7_躯体
  6
CONTINUOUS
 62
    7
 10
9142.3452308095093
 20
9022.1284001766489
 40
9.4728503333095411
  0
CIRCLE
  8
_2-7_躯体
  6
CONTINUOUS
 62
    7
 10
9250.3058977753044
 20
8949.6304162220604
 40
15.319632665761189
  0
CIRCLE
  8
_2-7_躯体
  6
CONTINUOUS
 62
    7
 10
9148.2678169633436
 20
7216.7459203653816
 40
15.319632665761189
  0
CIRCLE
  8
_2-7_躯体
  6
CONTINUOUS
 62
    7
 10
9250.7599949192354
 20
6741.6213288178315
 40
9.4728503333095411
  0
CIRCLE
  8
_2-7_躯体
  6
CONTINUOUS
 62
    7
 10
9358.4627703810293
 20
6937.2115965147277
 40
9.4728503333095411
  0
CIRCLE
  8
_2-7_躯体
  6
CONTINUOUS
 62
    7
 10
9142.9903311711005
 20
7704.0649897159292
 40
15.319632665761189
  0
CIRCLE
  8
_2-7_躯体
  6
CONTINUOUS
 62
    7
 10
9290.7688517920287
 20
7369.8026699817319
 40
15.319632665761189
  0
ARC
  8
_3-3______
  6
CONTINUOUS
 62
    7
 10
14471.146973127563
 20
7677.4085212030004
 40
30.000000276160513
 50
180
 51
0
  0
ARC
  8
_3-3______
  6
CONTINUOUS
 62
    7
 10
14471.146973127563
 20
7947.4090346406329
 40
30.000000276160513
 50
0
 51
180
  0
ARC
  8
_3-3______
  6
CONTINUOUS
 62
    7
 10
14066.147317775889
 20
8082.4089197578578
 40
30.000000276160513
 50
90
 51
270
  0
ARC
  8
_3-3______
  6
CONTINUOUS
 62
    7
 10
14336.147088010339
 20
8082.4089197578578
 40
30.000000276160513
 50
270
 51
90
  0
ARC
  8
_3-3______
  6
CONTINUOUS
 62
    7
 10
16011.382056276771
 20
7557.4399204327792
 40
30.000000276160513
 50
0
 51
180
  0
ARC
  8
_3-3______
  6
CONTINUOUS
 62
    7
 10
16251.381686884462
 20
7377.439825875419
 40
30.000000276160513
 50
270
 51
90
  0
ARC
  8
_4-3______
  6
CONTINUOUS
 62
    7
 10
16948.753014641836
 20
10669.043611209825
 40
37.500000345200647
 50
270
 51
90
  0
ARC
  8
_4-3______
  6
CONTINUOUS
 62
    7
 10
16611.252558645596
 20
10669.043611209825
 40
37.500000345200647
 50
90
 51
270
  0
ARC
  8
_4-3______
  6
CONTINUOUS
 62
    7
 10
15819.24322415503
 20
10669.043611209825
 40
37.500000345200647
 50
270
 51
90
  0
ARC
  8
_4-3______
  6
CONTINUOUS
 62
    7
 10
15481.744254565145
 20
10669.043611209825
 40
37.500000345200647
 50
90
 51
270
  0
CIRCLE
  8
_5-7_躯体
  6
CONTINUOUS
 62
    7
 10
10889.126882958137
 20
8678.5351644979928
 40
10.507291181149631
  0
CIRCLE
  8
_5-7_躯体
  6
CONTINUOUS
 62
    7
 10
10821.113387001067
 20
8915.2877404054616
 40
6.4971526142598117
  0
CIRCLE
  8
_5-7_躯体
  6
CONTINUOUS
 62
    7
 10
10941.776882746044
 20
9122.828715261805
 40
6.4971526142598117
  0
CIRCLE
  8
_5-6_文字
  6
CONTINUOUS
 62
    7
 10
11127.620040716811
 20
8860.2357079347585
 40
600.00000552321035
  0
CIRCLE
  8
_5-7_躯体
  6
CONTINUOUS
 62
    7
 10
10732.163114216337
 20
7232.9395744883413
 40
10.50728392330606
  0
CIRCLE
  8
_5-7_躯体
  6
CONTINUOUS
 62
    7
 10
10733.370076183186
 20
6915.5955319791228
 40
10.50728392330606
  0
CIRCLE
  8
_5-7_躯体
  6
CONTINUOUS
 62
    7
 10
10941.67506391017
 20
7400.9138983649173
 40
6.4971482595536694
  0
CIRCLE
  8
_5-7_躯体
  6
CONTINUOUS
 62
    7
 10
10911.095225801799
 20
7082.6832144601003
 40
6.4971482595536694
  0
CIRCLE
  8
_5-7_躯体
  6
CONTINUOUS
 62
    7
 10
10695.521710959181
 20
7583.1161039492345
 40
6.4971482595536694
  0
CIRCLE
  8
_5-7_躯体
  6
CONTINUOUS
 62
    7
 10
10718.448042703872
 20
7460.0394274737382
 40
6.4971482595536694
  0
CIRCLE
  8
_5-7_躯体
  6
CONTINUOUS
 62
    7
 10
10811.80105113615
 20
7588.8967382953897
 40
10.50728392330606
  0
CIRCLE
  8
_5-7_躯体
  6
CONTINUOUS
 62
    7
 10
11098.627684604247
 20
6999.1048142716691
 40
6.4971482595536694
  0
CIRCLE
  8
_5-7_躯体
  6
CONTINUOUS
 62
    7
 10
11354.385452270508
 20
7024.3328462696436
 40
10.50728392330606
  0
CIRCLE
  8
_5-7_躯体
  6
CONTINUOUS
 62
    7
 10
11456.613793096947
 20
6844.7586071353162
 40
6.4971482595536694
  0
CIRCLE
  8
_5-7_躯体
  6
CONTINUOUS
 62
    7
 10
11490.934916021281
 20
6821.809979295178
 40
10.50728392330606
  0
CIRCLE
  8
_5-6_文字
  6
CONTINUOUS
 62
    7
 10
11091.128021299148
 20
7218.8120252101116
 40
600.00000552321035
  0
CIRCLE
  8
_6-6_文字
  6
CONTINUOUS
 62
    7
 10
11252.554725146201
 20
11803.872506867045
 40
399.9999881987406
  0
CIRCLE
  8
_6-1______
  6
CONTINUOUS
 62
    7
 10
11252.554725146201
 20
11804.003310626998
 40
19.999999700250772
  0
ARC
  8
_6-3______
  6
CONTINUOUS
 62
    7
 10
11140.054573147452
 20
11828.872375488281
 40
24.999999262421287
 50
90
 51
180
  0
ARC
  8
_6-3______
  6
CONTINUOUS
 62
    7
 10
11140.054573147452
 20
11778.872638245808
 40
24.999999262421287
 50
180
 51
270
  0
ARC
  8
_6-3______
  6
CONTINUOUS
 62
    7
 10
11365.054877144948
 20
11828.872375488281
 40
24.999999262421287
 50
0
 51
90
  0
ARC
  8
_6-3______
  6
CONTINUOUS
 62
    7
 10
11365.054877144948
 20
11778.872638245808
 40
24.999999262421287
 50
270
 51
0
  0
CIRCLE
  8
_6-7_躯体
  6
CONTINUOUS
 62
    7
 10
11127.141417867888
 20
10245.892704554966
 40
7.0610362547359866
  0
CIRCLE
  8
_6-7_躯体
  6
CONTINUOUS
 62
    7
 10
11214.108081361042
 20
10168.352830216691
 40
7.0610362547359866
  0
CIRCLE
  8
_6-7_躯体
  6
CONTINUOUS
 62
    7
 10
11268.465218856987
 20
10296.168170177798
 40
11.419211645901894
  0
CIRCLE
  8
_6-7_躯体
  6
CONTINUOUS
 62
    7
 10
11544.461895563427
 20
10313.215764756369
 40
11.419211645901894
  0
CIRCLE
  8
_6-7_躯体
  6
CONTINUOUS
 62
    7
 10
11482.347203258381
 20
10266.280997434638
 40
7.0610362547359866
  0
CIRCLE
  8
_6-7_躯体
  6
CONTINUOUS
 62
    7
 10
10996.31461861511
 20
10321.08405683952
 40
11.419211645901894
  0
CIRCLE
  8
_6-6_文字
  6
CONTINUOUS
 62
    7
 10
11252.554725146201
 20
10544.276147496286
 40
399.9999881987406
  0
TEXT
  8
_4-5_寸法
 62
    7
 10
17455.003501568062
 20
10215.293543163874
 40
75
 41
1
 50
0
  1
15
  0
TEXT
  8
_4-5_寸法
 62
    7
 10
17305.002803434276
 20
10215.293543163874
 40
75
 41
1
 50
0
  1
25
  0
TEXT
  8
_0-0_0
 62
    7
 10
12452.361829897613
 20
4825.204293681848
 40
60
 41
1
 50
0
  1
備　　　考
  0
TEXT
  8
_0-0_0
 62
    7
 10
11858.955661523296
 20
4825.204293681848
 40
60
 41
1
 50
0
  1
重量
  0
TEXT
  8
_0-0_0
 62
    7
 10
11029.379857626662
 20
4817.7046303767493
 40
75
 41
1
 50
0
  1
材　　　料
  0
TEXT
  8
_0-0_0
 62
    7
 10
10112.635585829099
 20
4825.204293681848
 40
60
 41
1
 50
0
  1
部　品　名
  0
TEXT
  8
_0-0_0
 62
    7
 10
9731.580031700576
 20
4825.204293681848
 40
60
 41
1
 50
0
  1
部番
  0
TEXT
  8
_0-0_0
 62
    7
 10
9430.4925836099173
 20
4825.204293681848
 40
60
 41
1
 50
0
  1
訂正者
  0
TEXT
  8
_0-0_0
 62
    7
 10
8323.4927463899712
 20
4825.204293681848
 40
60
 41
1
 50
0
  1
訂　正　記　事
  0
TEXT
  8
_0-0_0
 62
    7
 10
7279.4930335085364
 20
4825.204293681848
 40
60
 41
1
 50
0
  1
年　月　日
  0
TEXT
  8
_0-0_0
 62
    7
 10
6910.4927462132273
 20
4825.204293681848
 40
60
 41
1
 50
0
  1
符　号
  0
TEXT
  8
_0-0_0
 62
    7
 10
15472.228404748392
 20
5131.3753911611193
 40
180
 41
1
 50
0
  1
三洋工業株式会社
  0
TEXT
  8
_0-0_0
 62
    7
 10
13803.300286959497
 20
5277.8648258636358
 40
75
 41
1
 50
0
  1
三角法
  0
TEXT
  8
_0-0_0
 62
    7
 10
14291.85029784685
 20
5277.8648258636358
 40
75
 41
1
 50
0
  1
ｍｍ
  0
TEXT
  8
_0-0_0
 62
    7
 10
13234.841316226548
 20
5465.3791956177283
 40
75
 41
1
 50
-0.0000025044781892
  1
尺 度
  7
TATEGAKI
  0
TEXT
  8
_0-0_0
 62
    7
 10
13234.841316226548
 20
5105.3791923038025
 40
75
 41
1
 50
-0.0000025044781892
  1
承 認
  7
TATEGAKI
  0
TEXT
  8
_0-0_0
 62
    7
 10
13684.840437815177
 20
5105.3791923038025
 40
75
 41
1
 50
-0.0000025044781466
  1
審 査
  7
TATEGAKI
  0
TEXT
  8
_0-0_0
 62
    7
 10
13684.840437815177
 20
5465.3791956177283
 40
75
 41
1
 50
-0.0000025044781466
  1
図 法
  7
TATEGAKI
  0
TEXT
  8
_0-0_0
 62
    7
 10
14134.84104581017
 20
5465.3791956177283
 40
75
 41
1
 50
-0.0000025044781466
  1
単 位
  7
TATEGAKI
  0
TEXT
  8
_0-0_0
 62
    7
 10
14134.84104581017
 20
5105.3791923038025
 40
75
 41
1
 50
-0.0000025044781466
  1
製 図
  7
TATEGAKI
  0
TEXT
  8
_0-0_0
 62
    7
 10
14584.840167398799
 20
5105.3791923038025
 40
75
 41
1
 50
-0.0000025044782319
  1
設 計
  7
TATEGAKI
  0
TEXT
  8
_0-0_0
 62
    7
 10
14584.840167398799
 20
5465.3791956177283
 40
75
 41
1
 50
-0.0000025044782319
  1
員 数
  7
TATEGAKI
  0
TEXT
  8
_0-0_0
 62
    7
 10
17134.84014442224
 20
5495.37914944369
 40
75
 41
1
 50
-0.0000025044780898
  1
図 名
  7
TATEGAKI
  0
TEXT
  8
_0-0_0
 62
    7
 10
17134.84014442224
 20
5075.3792384778408
 40
75
 41
1
 50
-0.0000025044780898
  1
図 番
  7
TATEGAKI
  0
TEXT
  8
_0-0_0
 62
    7
 10
17486.967373115214
 20
5174.709339068203
 40
120
 41
1
 50
0
  1
標準納まり図
  0
TEXT
  8
_0-0_0
 62
    7
 10
13491.505545538823
 20
5549.6475405306428
 40
60
 41
1
 50
0
  1
作　成　日
  0
TEXT
  8
_0-0_0
 62
    7
 10
7180.0280374357599
 20
12698.883856696051
 40
150
 41
1
 50
0
  1
UL壁工法 納まり図
  0
TEXT
  8
_0-0_0
 62
    7
 10
17449.468116318396
 20
5444.7094809042437
 40
120
 41
1
 50
0
  1
UL壁工法Fﾀｲﾌﾟ
  0
TEXT
  8
_0-0_0
 62
    7
 10
16040.547977285496
 20
9752.9327230563958
 40
150
 41
1
 50
0
  1
A-A'断面図
  0
TEXT
  8
_0-0_0
 62
    7
 10
10941.498177576248
 20
8097.2952794844568
 40
150
 41
1
 50
0
  1
c詳細
  0
TEXT
  8
_0-0_0
 62
    7
 10
10907.468390299086
 20
6336.2612199231007
 40
150
 41
1
 50
0
  1
d詳細
  0
TEXT
  8
_0-0_0
 62
    7
 10
11093.099735363108
 20
11170.675287430811
 40
150
 41
1
 50
0
  1
a詳細
  0
TEXT
  8
_0-0_0
 62
    7
 10
11093.099735363108
 20
9904.8568310240516
 40
150
 41
1
 50
0
  1
b詳細
  0
TEXT
  8
_0-0_0
 62
    7
 10
12530.004016183979
 20
9767.6384844098775
 40
150
 41
1
 50
0
  1
開口部納まり詳細図
  0
TEXT
  8
_0-0_0
 62
    7
 10
14174.128412666469
 20
6415.2042618681571
 40
150
 41
1
 50
0
  1
入隅
  0
TEXT
  8
_0-0_0
 62
    7
 10
16288.047977285496
 20
6415.2042618681571
 40
150
 41
1
 50
0
  1
出隅
  0
TEXT
  8
_0-0_0
 62
    7
 10
8185.2957655564223
 20
6425.0457583983434
 40
150
 41
1
 50
0
  1
断面詳細図
  0
TEXT
  8
_1-5_寸法
 62
    7
 10
10266.384210328797
 20
11945.661553047797
 40
60
 41
1
 50
0
  1
@303
  0
TEXT
  8
_1-5_寸法
 62
    7
 10
9963.3839892236429
 20
11945.661553047797
 40
60
 41
1
 50
0
  1
@303
  0
TEXT
  8
_1-5_寸法
 62
    7
 10
9660.3841397200777
 20
11945.661553047797
 40
60
 41
1
 50
0
  1
@303
  0
TEXT
  8
_1-5_寸法
 62
    7
 10
9357.3842902165125
 20
11945.661553047797
 40
60
 41
1
 50
0
  1
@303
  0
TEXT
  8
_1-5_寸法
 62
    7
 10
9054.3840691113564
 20
11945.661553047797
 40
60
 41
1
 50
0
  1
@303
  0
TEXT
  8
_1-5_寸法
 62
    7
 10
8751.3838480062004
 20
11945.661553047797
 40
60
 41
1
 50
0
  1
@303
  0
TEXT
  8
_1-5_寸法
 62
    7
 10
8448.3843701042279
 20
11945.661553047797
 40
60
 41
1
 50
0
  1
@303
  0
TEXT
  8
_1-5_寸法
 62
    7
 10
7842.383927893914
 20
11945.661553047797
 40
60
 41
1
 50
0
  1
@303
  0
TEXT
  8
_1-5_寸法
 62
    7
 10
8145.3841489990718
 20
11945.661553047797
 40
60
 41
1
 50
0
  1
@303
  0
TEXT
  8
_1-5_寸法
 62
    7
 10
7380.5278377174736
 20
11098.987302596044
 40
60
 41
1
 50
90.000002504478061
  1
@600
  0
TEXT
  8
_1-5_寸法
 62
    7
 10
7380.5278377174736
 20
11510.597750247674
 40
60
 41
1
 50
90.000002504478061
  1
@600
  0
TEXT
  8
_1-5_寸法
 62
    7
 10
10116.018878686384
 20
10058.007224241279
 40
60
 41
1
 50
0
  1
@900以内
  0
TEXT
  8
_1-5_寸法
 62
    7
 10
9392.8260711905568
 20
10058.007224241279
 40
60
 41
1
 50
0
  1
@900以内
  0
TEXT
  8
_1-5_寸法
 62
    7
 10
8492.8259700053441
 20
10058.007224241279
 40
60
 41
1
 50
0
  1
@900以内
  0
TEXT
  8
_1-5_寸法
 62
    7
 10
7380.527839684486
 20
10432.252134227385
 40
60
 41
1
 50
90.000002504478246
  1
600以内
  0
TEXT
  8
_1-5_寸法
 62
    7
 10
7773.0284862444669
 20
10062.571234979225
 40
60
 41
1
 50
0
  1
@900以内
  0
TEXT
  8
_1-6_文字
 62
    7
 10
8304.274347666149
 20
11674.911147599976
 40
60
 41
1
 50
0
  1
ULスタッド
  0
TEXT
  8
_1-6_文字
 62
    7
 10
8430.0872190026239
 20
11005.380954226932
 40
60
 41
1
 50
0
  1
注入口
  0
TEXT
  8
_1-6_文字
 62
    7
 10
9525.5891939848079
 20
10865.828206419485
 40
60
 41
1
 50
0
  1
石膏ボード等
  0
TEXT
  8
_1-6_文字
 62
    7
 10
9132.0608099270976
 20
10365.666586091618
 40
60
 41
1
 50
0
  1
ULランナーF
  0
TEXT
  8
_1-6_文字
 62
    7
 10
8728.7170563333293
 20
10946.653038820245
 40
60
 41
1
 50
0
  1
a
  0
TEXT
  8
_1-6_文字
 62
    7
 10
8725.4499351472004
 20
10387.874983562926
 40
60
 41
1
 50
0
  1
b
  0
TEXT
  8
_0-0_0
 62
    7
 10
8457.1661781988551
 20
9751.9910846253624
 40
150
 41
1
 50
0
  1
取付正面図
  0
TEXT
  8
_1-6_文字
 62
    7
 10
8236.8212269079722
 20
10610.589937777133
 40
60
 41
1
 50
0
  1
ULアンカー
  0
TEXT
  8
_1-5_寸法
 62
    7
 10
14758.084623123228
 20
11945.661553047797
 40
60
 41
1
 50
0
  1
@303
  0
TEXT
  8
_1-5_寸法
 62
    7
 10
14455.084402018072
 20
11945.661553047797
 40
60
 41
1
 50
0
  1
@303
  0
TEXT
  8
_1-5_寸法
 62
    7
 10
14152.084180912916
 20
11945.661553047797
 40
60
 41
1
 50
0
  1
@303
  0
TEXT
  8
_1-5_寸法
 62
    7
 10
13849.084703010942
 20
11945.661553047797
 40
60
 41
1
 50
0
  1
@303
  0
TEXT
  8
_1-5_寸法
 62
    7
 10
13546.084481905786
 20
11945.661553047797
 40
60
 41
1
 50
0
  1
@303
  0
TEXT
  8
_1-5_寸法
 62
    7
 10
13243.08426080063
 20
11945.661553047797
 40
60
 41
1
 50
0
  1
@303
  0
TEXT
  8
_1-5_寸法
 62
    7
 10
12940.084782898655
 20
11945.661553047797
 40
60
 41
1
 50
0
  1
@303
  0
TEXT
  8
_1-5_寸法
 62
    7
 10
12334.084340688343
 20
11945.661553047797
 40
60
 41
1
 50
0
  1
@303
  0
TEXT
  8
_1-5_寸法
 62
    7
 10
12637.084561793499
 20
11945.661553047797
 40
60
 41
1
 50
0
  1
@303
  0
TEXT
  8
_1-5_寸法
 62
    7
 10
12016.643681765525
 20
11945.661553047797
 40
60
 41
1
 50
0
  1
@303
  0
TEXT
  8
_1-5_寸法
 62
    7
 10
12353.873402363546
 20
10871.9046356319
 40
60
 41
1
 50
0
  1
A
  0
TEXT
  8
_1-5_寸法
 62
    7
 10
12753.094722791988
 20
10727.490595813884
 40
60
 41
1
 50
0
  1
25
  0
TEXT
  8
_1-5_寸法
 62
    7
 10
13395.49219403948
 20
10725.590968481822
 40
60
 41
1
 50
0
  1
W+30
  0
TEXT
  8
_1-5_寸法
 62
    7
 10
14076.363528336336
 20
10727.893411938288
 40
60
 41
1
 50
0
  1
25
  0
TEXT
  8
_1-5_寸法
 62
    7
 10
13259.69754809034
 20
10657.252971987926
 40
60
 41
1
 50
90.000002504478161
  1
H+30
  0
TEXT
  8
_1-5_寸法
 62
    7
 10
13245.881399633841
 20
11047.976669399894
 40
60
 41
1
 50
90.000002504478161
  1
25
  0
TEXT
  8
_1-5_寸法
 62
    7
 10
13250.486286546773
 20
10311.281346501532
 40
60
 41
1
 50
90.000002504478161
  1
25
  0
TEXT
  8
_1-5_寸法
 62
    7
 10
12948.974839729692
 20
10872.702835848893
 40
60
 41
1
 50
0
  1
A'
  0
TEXT
  8
_1-6_文字
 62
    7
 10
13381.054798847921
 20
11011.96870722826
 40
75
 41
1
 50
0
  1
窓枠
  0
TEXT
  8
_1-6_文字
 62
    7
 10
13561.626765718793
 20
11730.171276961515
 40
60
 41
1
 50
0
  1
ULスタッド
  0
TEXT
  8
_1-6_文字
 62
    7
 10
14174.449882949182
 20
11776.414122121214
 40
60
 41
1
 50
0
  1
ULランナーF
  0
TEXT
  8
_1-6_文字
 62
    7
 10
13788.987552834293
 20
11304.862851470592
 40
60
 41
1
 50
0
  1
ULランナーF
  0
TEXT
  8
_1-6_文字
 62
    7
 10
13588.725509938125
 20
10413.644067477075
 40
60
 41
1
 50
0
  1
ULランナーF
  0
TEXT
  8
_2-6_文字
 62
    7
 10
7695.3048312802111
 20
9156.3947437536772
 40
60
 41
1
 50
0
  1
ALC板
  0
TEXT
  8
_2-6_文字
 62
    7
 10
8206.0459961762299
 20
9471.6957207167925
 40
60
 41
1
 50
0
  1
ULスポンジF
  0
TEXT
  8
_2-6_文字
 62
    7
 10
8082.2268822570559
 20
9170.9882814267439
 40
60
 41
1
 50
0
  1
注入口
  0
TEXT
  8
_2-6_文字
 62
    7
 10
8324.9050171310828
 20
6880.1692659238124
 40
60
 41
1
 50
0
  1
スラブ
  0
TEXT
  8
_2-6_文字
 62
    7
 10
8175.6884456325215
 20
8011.5117954563457
 40
60
 41
1
 50
0
  1
石膏ボード等
  0
TEXT
  8
_2-6_文字
 62
    7
 10
8158.2483699607119
 20
7508.6850485194145
 40
60
 41
1
 50
0
  1
ULランナーF
  0
TEXT
  8
_2-6_文字
 62
    7
 10
9512.1981343155203
 20
8131.8081488296339
 40
60
 41
1
 50
0
  1
c
  0
TEXT
  8
_2-6_文字
 62
    7
 10
9507.3836641053895
 20
7221.9104392740255
 40
60
 41
1
 50
0
  1
d
  0
TEXT
  8
_2-6_文字
 62
    7
 10
9858.0573739600459
 20
6893.3291646596545
 40
60
 41
1
 50
0
  1
スラブ
  0
TEXT
  8
_2-6_文字
 62
    7
 10
9148.3457609493307
 20
9172.8775039142638
 40
60
 41
1
 50
0
  1
外壁
  0
TEXT
  8
_3-5_寸法
 62
    7
 10
14163.647202893115
 20
8427.4090390591991
 40
75
 41
1
 50
0
  1
45
  0
TEXT
  8
_3-5_寸法
 62
    7
 10
14313.647157823718
 20
8277.4090841285979
 40
75
 41
1
 50
0
  1
50
  0
TEXT
  8
_3-5_寸法
 62
    7
 10
14636.146999510724
 20
7924.9087328524192
 40
75
 41
1
 50
90.000002504478147
  1
50
  0
TEXT
  8
_3-5_寸法
 62
    7
 10
14786.147697644508
 20
7774.9087779218171
 40
75
 41
1
 50
90.000002504478147
  1
45
  0
TEXT
  8
_3-5_寸法
 62
    7
 10
14373.64743707723
 20
7077.4087014805855
 40
75
 41
1
 50
0
  1
10
  0
TEXT
  8
_3-5_寸法
 62
    7
 10
14524.589849641423
 20
7077.4087014805855
 40
75
 41
1
 50
0
  1
3～20
  0
TEXT
  8
_3-5_寸法
 62
    7
 10
14143.211147941676
 20
6987.4090258034958
 40
75
 41
1
 50
0
  1
12.5
  0
TEXT
  8
_3-5_寸法
 62
    7
 10
14508.299852172378
 20
6987.4090258034958
 40
75
 41
1
 50
0
  1
13～20
  0
TEXT
  8
_3-6_文字
 62
    7
 10
13669.771747073612
 20
8225.7230188671692
 40
60
 41
1
 50
0
  1
ULスタッド
  0
TEXT
  8
_3-6_文字
 62
    7
 10
13572.786310556774
 20
8389.3659546016261
 40
60
 41
1
 50
0
  1
ULボンドFタイプ
  0
TEXT
  8
_3-5_寸法
 62
    7
 10
17196.38237075058
 20
7279.9395466219048
 40
75
 41
1
 50
90.000002504478488
  1
10
  0
TEXT
  8
_3-5_寸法
 62
    7
 10
17196.382373209348
 20
7430.8819591860974
 40
75
 41
1
 50
90.00000250447809
  1
3～20
  0
TEXT
  8
_3-5_寸法
 62
    7
 10
17286.382791270033
 20
7049.5036290879407
 40
75
 41
1
 50
90.000002504478147
  1
12.5
  0
TEXT
  8
_3-5_寸法
 62
    7
 10
17286.382792909204
 20
7414.5923333186429
 40
75
 41
1
 50
90.00000250447826
  1
13～20
  0
TEXT
  8
_3-5_寸法
 62
    7
 10
16078.882544970418
 20
7077.4399160142111
 40
75
 41
1
 50
0
  1
45
  0
TEXT
  8
_3-5_寸法
 62
    7
 10
15681.382008427983
 20
7384.9396637139625
 40
75
 41
1
 50
90.000002504478147
  1
45
  0
TEXT
  8
_3-6_文字
 62
    7
 10
16214.264194385423
 20
7780.6684280454419
 40
60
 41
1
 50
0
  1
ULボンドFタイプ
  0
TEXT
  8
_3-6_文字
 62
    7
 10
16324.442973781277
 20
7603.930995455119
 40
60
 41
1
 50
0
  1
ULスタッド
  0
TEXT
  8
_4-5_寸法
 62
    7
 10
17046.252355263205
 20
10387.793405746401
 40
75
 41
1
 50
90.000002504478488
  1
10
  0
TEXT
  8
_4-5_寸法
 62
    7
 10
17398.753425568688
 20
11677.793289538055
 40
75
 41
1
 50
0
  1
30
  0
TEXT
  8
_4-5_寸法
 62
    7
 10
17721.253267255695
 20
11306.543408397541
 40
75
 41
1
 50
90.000002504478488
  1
35
  0
TEXT
  8
_4-5_寸法
 62
    7
 10
17721.253267255695
 20
11044.043301468189
 40
75
 41
1
 50
90.000002504478488
  1
35
  0
TEXT
  8
_4-5_寸法
 62
    7
 10
17833.753419254441
 20
11175.293354932865
 40
75
 41
1
 50
90.000002504478488
  1
70
  0
TEXT
  8
_4-6_文字
 62
    7
 10
15942.985371475512
 20
10139.584921464957
 40
60
 41
1
 50
0
  1
ULボンドFタイプ
  0
TEXT
  8
_4-6_文字
 62
    7
 10
15991.829821906957
 20
10286.773338759727
 40
60
 41
1
 50
0
  1
ULスタッド
  0
TEXT
  8
_4-6_文字
 62
    7
 10
17651.227270001153
 20
10544.194395146314
 40
60
 41
1
 50
0
  1
アルミサッシ
  0
TEXT
  8
_4-6_文字
 62
    7
 10
17621.338052344599
 20
10284.573457342318
 40
60
 41
1
 50
0
  1
額縁
  0
TEXT
  8
_4-5_寸法
 62
    7
 10
15166.086543353236
 20
10713.183912034201
 40
60
 41
1
 50
90.000002504478147
  1
3～20
  0
TEXT
  8
_4-5_寸法
 62
    7
 10
15158.315608919856
 20
10563.409681430654
 40
60
 41
1
 50
90.000002504478061
  1
10
  0
TEXT
  8
_4-5_寸法
 62
    7
 10
15064.786462644892
 20
10441.329780048385
 40
60
 41
1
 50
90.000002504478061
  1
12.5
  0
TEXT
  8
_4-5_寸法
 62
    7
 10
15066.599879719235
 20
10590.807402769111
 40
60
 41
1
 50
90.000002504478203
  1
13～30
  0
TEXT
  8
_0-0_0
 62
    7
 10
14175.718015575041
 20
5530.2046020979124
 40
120
 41
1
 50
0
  1
2017.03.14
  0
TEXT
  8
_5-6_文字
 62
    7
 10
11342.06614107699
 20
9277.4290978862518
 40
60
 41
1
 50
0
  1
ULスポンジF
  0
TEXT
  8
_5-6_文字
 62
    7
 10
11309.612595399834
 20
8623.5626547677166
 40
60
 41
1
 50
0
  1
ULボンドFタイプ
  0
TEXT
  8
_5-5_寸法
 62
    7
 10
11631.330461154146
 20
8742.3987658879942
 40
75
 41
1
 50
90.000002504478147
  1
15～20
  0
TEXT
  8
_5-6_文字
 62
    7
 10
11251.529802889436
 20
7517.064664391477
 40
60
 41
1
 50
0
  1
ULスタッド
  0
TEXT
  8
_5-6_文字
 62
    7
 10
11269.481945553342
 20
7196.4274885847753
 40
60
 41
1
 50
0
  1
ULランナーF
  0
TEXT
  8
_5-5_寸法
 62
    7
 10
10987.238773360676
 20
6674.9634354639238
 40
75
 41
1
 50
0
  1
13～30
  0
TEXT
  8
_6-6_文字
 62
    7
 10
11424.416699796109
 20
12041.546654719643
 40
60
 41
1
 50
0
  1
φ8　＠600
  0
TEXT
  8
_6-6_文字
 62
    7
 10
11424.416792144186
 20
12101.546190769976
 40
60
 41
1
 50
0
  1
注入口
  0
TEXT
  8
_6-6_文字
 62
    7
 10
11427.808748930118
 20
12213.24219692628
 40
60
 41
1
 50
0
  1
ULスポンジF
  0
TEXT
  8
_6-6_文字
 62
    7
 10
11427.808656582041
 20
11958.683959195052
 40
60
 41
1
 50
0
  1
ULボンドFタイプ
  0
TEXT
  8
_6-6_文字
 62
    7
 10
11427.808679116739
 20
11608.386287615565
 40
60
 41
1
 50
0
  1
ULスタッド
  0
TEXT
  8
_6-6_文字
 62
    7
 10
11494.413131654952
 20
10719.545753803031
 40
60
 41
1
 50
0
  1
ULランナーF
  0
TEXT
  8
_6-6_文字
 62
    7
 10
11451.419500991644
 20
10997.636033871919
 40
60
 41
1
 50
0
  1
ULスタッド
  0
POINT
  8
_4-5_寸法
 62
    7
 10
17248.752924503046
 20
10200.293473350495
  0
POINT
  8
_4-5_寸法
 62
    7
 10
17548.752834364255
 20
10200.293473350495
  0
POINT
  8
_4-5_寸法
 62
    7
 10
17436.252682365506
 20
10200.293473350495
  0
POINT
  8
_1-5_寸法
 62
    7
 10
7380.1933936630903
 20
10258.987201410831
  0
POINT
  8
_1-5_寸法
 62
    7
 10
9925.7170579240119
 20
10057.960402440842
  0
POINT
  8
_1-5_寸法
 62
    7
 10
9025.7165851372083
 20
10057.960402440842
  0
POINT
  8
_1-5_寸法
 62
    7
 10
7380.1933936630903
 20
11458.986840855661
  0
POINT
  8
_1-5_寸法
 62
    7
 10
7380.1933936630903
 20
10858.987021133247
  0
POINT
  8
_1-5_寸法
 62
    7
 10
8125.7168555535864
 20
10057.960402440842
  0
POINT
  8
_1-5_寸法
 62
    7
 10
10167.663880867389
 20
11944.135013712879
  0
POINT
  8
_1-5_寸法
 62
    7
 10
9864.663659762231
 20
11944.135013712879
  0
POINT
  8
_1-5_寸法
 62
    7
 10
9561.6634386570749
 20
11944.135013712879
  0
POINT
  8
_1-5_寸法
 62
    7
 10
9258.6639607551024
 20
11944.135013712879
  0
POINT
  8
_1-5_寸法
 62
    7
 10
8955.6637396499464
 20
11944.135013712879
  0
POINT
  8
_1-5_寸法
 62
    7
 10
8652.6635185447885
 20
11944.135013712879
  0
POINT
  8
_1-5_寸法
 62
    7
 10
8349.664040642816
 20
11944.135013712879
  0
POINT
  8
_1-5_寸法
 62
    7
 10
8046.6638195376599
 20
11944.135013712879
  0
POINT
  8
_1-5_寸法
 62
    7
 10
7743.6635984325048
 20
11944.135013712879
  0
POINT
  8
_1-5_寸法
 62
    7
 10
14659.364665263407
 20
11944.135013712879
  0
POINT
  8
_1-5_寸法
 62
    7
 10
14356.363700955069
 20
11944.135013712879
  0
POINT
  8
_1-5_寸法
 62
    7
 10
14053.364223053097
 20
11944.135013712879
  0
POINT
  8
_1-5_寸法
 62
    7
 10
13750.364745151122
 20
11944.135013712879
  0
POINT
  8
_1-5_寸法
 62
    7
 10
13447.363780842785
 20
11944.135013712879
  0
POINT
  8
_1-5_寸法
 62
    7
 10
13144.36430294081
 20
11944.135013712879
  0
POINT
  8
_1-5_寸法
 62
    7
 10
12841.363338632473
 20
11944.135013712879
  0
POINT
  8
_1-5_寸法
 62
    7
 10
12538.3638607305
 20
11944.135013712879
  0
POINT
  8
_1-5_寸法
 62
    7
 10
12235.364382828524
 20
11944.135013712879
  0
POINT
  8
_3-5_寸法
 62
    7
 10
14501.147112754319
 20
8262.4090143152189
  0
POINT
  8
_3-5_寸法
 62
    7
 10
14651.147810888107
 20
8112.409059384614
  0
POINT
  8
_3-5_寸法
 62
    7
 10
14651.147810888107
 20
7812.4084063202263
  0
POINT
  8
_3-5_寸法
 62
    7
 10
14201.147202893113
 20
8262.4090143152189
  0
POINT
  8
_3-5_寸法
 62
    7
 10
14066.147317775889
 20
8412.4089692458219
  0
POINT
  8
_3-5_寸法
 62
    7
 10
14336.147088010339
 20
8412.4089692458219
  0
POINT
  8
_3-5_寸法
 62
    7
 10
14801.147022615529
 20
7947.4090346406329
  0
POINT
  8
_3-5_寸法
 62
    7
 10
14801.147022615529
 20
7677.4085212030004
  0
POINT
  8
_3-5_寸法
 62
    7
 10
14381.148040653656
 20
7062.4086316672074
  0
POINT
  8
_3-5_寸法
 62
    7
 10
14441.146833500807
 20
7062.4086316672074
  0
POINT
  8
_3-5_寸法
 62
    7
 10
14501.147112754319
 20
7062.4086316672074
  0
POINT
  8
_3-5_寸法
 62
    7
 10
14306.146948383583
 20
6972.4089559901176
  0
POINT
  8
_3-5_寸法
 62
    7
 10
14381.148040653656
 20
6972.4089559901176
  0
POINT
  8
_3-5_寸法
 62
    7
 10
14501.147112754319
 20
6972.4089559901176
  0
POINT
  8
_3-5_寸法
 62
    7
 10
17211.3816957216
 20
7287.4394069951468
  0
POINT
  8
_3-5_寸法
 62
    7
 10
17211.3816957216
 20
7347.439686248661
  0
POINT
  8
_3-5_寸法
 62
    7
 10
17211.3816957216
 20
7407.4399655021753
  0
POINT
  8
_3-5_寸法
 62
    7
 10
17301.382114601871
 20
7212.4398011314361
  0
POINT
  8
_3-5_寸法
 62
    7
 10
17301.382114601871
 20
7287.4394069951468
  0
POINT
  8
_3-5_寸法
 62
    7
 10
17301.382114601871
 20
7407.4399655021753
  0
POINT
  8
_3-5_寸法
 62
    7
 10
15981.381916650014
 20
7062.4398462008321
  0
POINT
  8
_3-5_寸法
 62
    7
 10
16251.381686884462
 20
7062.4398462008321
  0
POINT
  8
_3-5_寸法
 62
    7
 10
15696.382819805367
 20
7557.4399204327792
  0
POINT
  8
_3-5_寸法
 62
    7
 10
15696.382819805367
 20
7287.4394069951468
  0
POINT
  8
_1-5_寸法
 62
    7
 10
14147.36456145651
 20
10717.533902790556
  0
POINT
  8
_1-5_寸法
 62
    7
 10
14172.364430077749
 20
10717.533902790556
  0
POINT
  8
_1-5_寸法
 62
    7
 10
12722.364618014184
 20
10717.533902790556
  0
POINT
  8
_1-5_寸法
 62
    7
 10
12747.364486635421
 20
10717.533902790556
  0
POINT
  8
_1-5_寸法
 62
    7
 10
13260.442235055578
 20
10272.534309004264
  0
POINT
  8
_1-5_寸法
 62
    7
 10
13260.442235055578
 20
10297.534177625501
  0
POINT
  8
_1-5_寸法
 62
    7
 10
13260.442235055578
 20
11162.534239780029
  0
POINT
  8
_1-5_寸法
 62
    7
 10
13260.442235055578
 20
11137.53437115879
  0
POINT
  8
_4-5_寸法
 62
    7
 10
17061.253166640588
 20
10462.793580279847
  0
POINT
  8
_4-5_寸法
 62
    7
 10
17061.253166640588
 20
10387.793231212954
  0
POINT
  8
_4-5_寸法
 62
    7
 10
17323.752530366757
 20
11662.793219724677
  0
POINT
  8
_4-5_寸法
 62
    7
 10
17548.752834364255
 20
11662.793219724677
  0
POINT
  8
_4-5_寸法
 62
    7
 10
17736.252592226712
 20
11475.293461862218
  0
POINT
  8
_4-5_寸法
 62
    7
 10
17736.252592226712
 20
11212.793354932865
  0
POINT
  8
_4-5_寸法
 62
    7
 10
17736.252592226712
 20
10950.293248003512
  0
POINT
  8
_4-5_寸法
 62
    7
 10
17848.752744225461
 20
11475.293461862218
  0
POINT
  8
_4-5_寸法
 62
    7
 10
17848.752744225461
 20
10950.293248003512
  0
POINT
  8
_4-5_寸法
 62
    7
 10
15169.210966250152
 20
10706.543414141681
  0
POINT
  8
_4-5_寸法
 62
    7
 10
15169.210966250152
 20
10631.543065074788
  0
POINT
  8
_4-5_寸法
 62
    7
 10
15169.210966250152
 20
10556.543459211076
  0
POINT
  8
_4-5_寸法
 62
    7
 10
15066.59987578521
 20
10556.543459211076
  0
POINT
  8
_4-5_寸法
 62
    7
 10
15066.59987578521
 20
10462.793580279847
  0
POINT
  8
_4-5_寸法
 62
    7
 10
15066.59987578521
 20
10706.543414141681
  0
POINT
  8
_5-5_寸法
 62
    7
 10
11543.49498822422
 20
8935.2360570016517
  0
POINT
  8
_5-5_寸法
 62
    7
 10
11543.49498822422
 20
8785.2361020710468
  0
POINT
  8
_5-5_寸法
 62
    7
 10
11179.781012811256
 20
6778.2337471509072
  0
POINT
  8
_5-5_寸法
 62
    7
 10
11029.781057880653
 20
6778.2337471509072
  0
ENDSEC
  0
EOF
