  0
SECTION
  2
HEADER
  9
$ACADVER
  1
AC1009
  9
$INSBASE
 10
0
 20
0
 30
0
  9
$EXTMIN
 10
0
 20
0
  9
$EXTMAX
 10
12600
 20
8910
  9
$LIMMIN
 10
0
 20
0
  9
$LIMMAX
 10
12600
 20
8910
  9
$LTSCALE
 40
30
  0
ENDSEC
  0
SECTION
  2
TABLES
  0
TABLE
  2
LTYPE
 70
     9
  0
LTYPE
  2
CONTINUOUS
 70
    64
  3
実線
 72
    65
 73
     0
 40
0.0
  0
LTYPE
  2
DASHED1
 70
    64
  3
--  --  --  --  --  --  --  --  
 72
    65
 73
     2
 40
2.5
 49
1.25
 49
-1.25
  0
LTYPE
  2
DASHED2
 70
    64
  3
----    ----    ----    ----    
 72
    65
 73
     2
 40
5.0
 49
2.5
 49
-2.5
  0
LTYPE
  2
DASHED3
 70
    64
  3
------  ------  ------  ------  
 72
    65
 73
     2
 40
5.0
 49
3.75
 49
-1.25
  0
LTYPE
  2
CENTER1
 70
    64
  3
----- - ----- - ----- - ----- - 
 72
    65
 73
     4
 40
10.0
 49
6.25
 49
-1.25
 49
1.25
 49
-1.25
  0
LTYPE
  2
CENTER2
 70
    64
  3
----------  --  ----------  --  
 72
    65
 73
     4
 40
20.0
 49
12.5
 49
-2.5
 49
2.5
 49
-2.5
  0
LTYPE
  2
PHANTOM1
 70
    64
  3
--- - - --- - - --- - - --- - - 
 72
    65
 73
     6
 40
10.0
 49
3.25
 49
-1.25
 49
1.25
 49
-1.25
 49
1.25
 49
-1.25
  0
LTYPE
  2
PHANTOM2
 70
    64
  3
--------  -  -  --------  -  -  
 72
    65
 73
     6
 40
20.0
 49
10.0
 49
-2.5
 49
1.25
 49
-2.5
 49
1.25
 49
-2.5
  0
LTYPE
  2
DOT
 70
    64
  3
-   -   -   -   -   -   -   -   
 72
    65
 73
     2
 40
2.5
 49
0.625
 49
-1.875
  0
LTYPE
  2
DUMMY
 70
    64
  3
ダミー
 72
    65
 73
     0
 40
0.0
  0
LTYPE
  2
RAND1
 70
    64
  3
ランダム線1
 72
    65
 73
     4
 40
10.0
 49
1.0
 49
-2.0
 49
3.0
 49
-4.0
  0
LTYPE
  2
RAND2
 70
    64
  3
ランダム線2
 72
    65
 73
     4
 40
14.0
 49
2.0
 49
-3.0
 49
4.0
 49
-5.0
  0
LTYPE
  2
RAND3
 70
    64
  3
ランダム線3
 72
    65
 73
     4
 40
18.0
 49
3.0
 49
-4.0
 49
5.0
 49
-6.0
  0
LTYPE
  2
RAND4
 70
    64
  3
ランダム線4
 72
    65
 73
     4
 40
22.0
 49
4.0
 49
-5.0
 49
6.0
 49
-7.0
  0
LTYPE
  2
RAND5
 70
    64
  3
ランダム線5
 72
    65
 73
     4
 40
26.0
 49
5.0
 49
-6.0
 49
7.0
 49
-8.0
  0
LTYPE
  2
LONG1
 70
    64
  3
----------  --  ----------  --  
 72
    65
 73
     4
 40
40.0
 49
32.5
 49
-2.5
 49
2.5
 49
-2.5
  0
LTYPE
  2
LONG2
 70
    64
  3
--------  -  -  --------  -  -  
 72
    65
 73
     6
 40
40.0
 49
30.0
 49
-2.5
 49
1.25
 49
-2.5
 49
1.25
 49
-2.5
  0
LTYPE
  2
LONG3
 70
    64
  3
+++++++++++++++..+++++++++++++++
 72
    65
 73
     2
 40
40.0
 49
37.5
 49
-2.5
  0
LTYPE
  2
LONG4
 70
    64
  3
+++++++++++++++..+++++++++++++++
 72
    65
 73
     2
 40
80.0
 49
75.0
 49
-5.0
  0
LTYPE
  2
LONG5
 70
    64
  3
----------  --  ----------  --  
 72
    65
 73
     4
 40
60.0
 49
37.5
 49
-7.5
 49
7.5
 49
-7.5
  0
LTYPE
  2
dashed
 70
   64
  3
-------   -------------   ------
 72
   65
 73
    2
 40
7.5
 49
6
 49
-1.5
  0
LTYPE
  2
dashed_spaced
 70
   64
  3
----        --------        ----
 72
   65
 73
    2
 40
12
 49
6
 49
-6
  0
LTYPE
  2
long_dashed_dotted
 70
   64
  3
------------- --- --------------
 72
   65
 73
    4
 40
15.25
 49
12
 49
-1.5
 49
0.25
 49
-1.5
  0
LTYPE
  2
long_dashed_double-dotted
 70
   64
  3
----------- --- --- ------------
 72
   65
 73
    6
 40
17
 49
12
 49
-1.5
 49
0.25
 49
-1.5
 49
0.25
 49
-1.5
  0
LTYPE
  2
long_dashed_triplicate-dotted
 70
   64
  3
--------- --- --- --- ----------
 72
   65
 73
    8
 40
18.75
 49
12
 49
-1.5
 49
0.25
 49
-1.5
 49
0.25
 49
-1.5
 49
0.25
 49
-1.5
  0
LTYPE
  2
dotted
 70
   64
  3
   -       -       -       -    
 72
   65
 73
    2
 40
1.75
 49
0.25
 49
-1.5
  0
LTYPE
  2
chain
 70
   64
  3
-------------- -- --------------
 72
   65
 73
    4
 40
18.5
 49
12
 49
-1.5
 49
3.5
 49
-1.5
  0
LTYPE
  2
chain_double_dash
 70
   64
  3
------------ -- -- -------------
 72
   65
 73
    6
 40
23.5
 49
12
 49
-1.5
 49
3.5
 49
-1.5
 49
3.5
 49
-1.5
  0
LTYPE
  2
dashed_dotted
 70
   64
  3
-----------     -     ----------
 72
   65
 73
    4
 40
9.25
 49
6
 49
-1.5
 49
0.25
 49
-1.5
  0
LTYPE
  2
double-dashed_dotted
 70
   64
  3
------   -----------   -   -----
 72
   65
 73
    6
 40
16.75
 49
6
 49
-1.5
 49
6
 49
-1.5
 49
0.25
 49
-1.5
  0
LTYPE
  2
dashed_double-dotted
 70
   64
  3
---------    -    -    ---------
 72
   65
 73
    6
 40
11
 49
6
 49
-1.5
 49
0.25
 49
-1.5
 49
0.25
 49
-1.5
  0
LTYPE
  2
double-dashed_double-dotted
 70
   64
  3
-----   ---------   -   -   ----
 72
   65
 73
    8
 40
18.5
 49
6
 49
-1.5
 49
6
 49
-1.5
 49
0.25
 49
-1.5
 49
0.25
 49
-1.5
  0
LTYPE
  2
dashed_triplicate-dotted
 70
   64
  3
-------    -    -    -    ------
 72
   65
 73
    8
 40
12.75
 49
6
 49
-1.5
 49
0.25
 49
-1.5
 49
0.25
 49
-1.5
 49
0.25
 49
-1.5
  0
LTYPE
  2
double-dashed_triplicate-dotted
 70
   64
  3
-----  ---------  -  -  -  -----
 72
   65
 73
   10
 40
20.25
 49
6
 49
-1.5
 49
6
 49
-1.5
 49
0.25
 49
-1.5
 49
0.25
 49
-1.5
 49
0.25
 49
-1.5
  0
LTYPE
  2
undefined
 70
   64
  3
--------------------------------
 72
   65
 73
    0
 40
0
  0
LTYPE
  2
_
 70
   64
  3
                                
 72
   65
 73
    0
 40
0
  0
LTYPE
  2
__18
 70
   64
  3
                                
 72
   65
 73
    0
 40
0
  0
LTYPE
  2
__19
 70
   64
  3
                                
 72
   65
 73
    0
 40
0
  0
LTYPE
  2
__20
 70
   64
  3
                                
 72
   65
 73
    0
 40
0
  0
LTYPE
  2
__21
 70
   64
  3
                                
 72
   65
 73
    0
 40
0
  0
LTYPE
  2
__22
 70
   64
  3
                                
 72
   65
 73
    0
 40
0
  0
LTYPE
  2
__23
 70
   64
  3
                                
 72
   65
 73
    0
 40
0
  0
LTYPE
  2
__24
 70
   64
  3
                                
 72
   65
 73
    0
 40
0
  0
LTYPE
  2
__25
 70
   64
  3
                                
 72
   65
 73
    0
 40
0
  0
LTYPE
  2
__26
 70
   64
  3
                                
 72
   65
 73
    0
 40
0
  0
LTYPE
  2
__27
 70
   64
  3
                                
 72
   65
 73
    0
 40
0
  0
LTYPE
  2
__28
 70
   64
  3
                                
 72
   65
 73
    0
 40
0
  0
LTYPE
  2
__29
 70
   64
  3
                                
 72
   65
 73
    0
 40
0
  0
LTYPE
  2
__30
 70
   64
  3
                                
 72
   65
 73
    0
 40
0
  0
LTYPE
  2
__31
 70
   64
  3
                                
 72
   65
 73
    0
 40
0
  0
LTYPE
  2
__32
 70
   64
  3
                                
 72
   65
 73
    0
 40
0
  0
ENDTAB
  0
TABLE
  2
STYLE
  5
3
100
AcDbSymbolTable
 70
     1
  0
STYLE
  5
10
100
AcDbSymbolTableRecord
100
AcDbTextStyleTableRecord
  2
STANDARD
 70
     0
 40
0.0
 41
1.0
 50
0.0
 71
     0
 42
0.2
  3
txt
  4
bigfont.shx
  0
STYLE
  5
26
100
AcDbSymbolTableRecord
100
AcDbTextStyleTableRecord
  2
TATEGAKI
 70
    68
 40
0.0
 41
1.0
 50
0.0
 71
     0
 42
1.0
  3
txt
  4
bigfont.shx
  0
ENDTAB
  0
TABLE
  2
LAYER
 70
   60
  0
LAYER
  2
_0-0_0
 70
   64
 62
    7
  6
CONTINUOUS
  0
LAYER
  2
_1-0_____
 70
   64
 62
    7
  6
CONTINUOUS
  0
LAYER
  2
_1-1______
 70
   64
 62
    7
  6
CONTINUOUS
  0
LAYER
  2
_1-4______
 70
   64
 62
    7
  6
CONTINUOUS
  0
LAYER
  2
_1-5_寸法
 70
   64
 62
    7
  6
CONTINUOUS
  0
LAYER
  2
_1-6_文字
 70
   64
 62
    7
  6
CONTINUOUS
  0
LAYER
  2
_1-7_躯体
 70
   64
 62
    7
  6
CONTINUOUS
  0
LAYER
  2
_1-8_開口
 70
   64
 62
    7
  6
CONTINUOUS
  0
LAYER
  2
_2-0_____
 70
   64
 62
    7
  6
CONTINUOUS
  0
LAYER
  2
_2-1______
 70
   64
 62
    7
  6
CONTINUOUS
  0
LAYER
  2
_2-2_______
 70
   64
 62
    7
  6
CONTINUOUS
  0
LAYER
  2
_2-3______
 70
   64
 62
    7
  6
CONTINUOUS
  0
LAYER
  2
_2-4______
 70
   64
 62
    7
  6
CONTINUOUS
  0
LAYER
  2
_2-6_文字
 70
   64
 62
    7
  6
CONTINUOUS
  0
LAYER
  2
_2-7_躯体
 70
   64
 62
    7
  6
CONTINUOUS
  0
LAYER
  2
_3-0_____
 70
   64
 62
    7
  6
CONTINUOUS
  0
LAYER
  2
_3-1______
 70
   64
 62
    7
  6
CONTINUOUS
  0
LAYER
  2
_3-3______
 70
   64
 62
    7
  6
CONTINUOUS
  0
LAYER
  2
_3-4______
 70
   64
 62
    7
  6
CONTINUOUS
  0
LAYER
  2
_3-5_寸法
 70
   64
 62
    7
  6
CONTINUOUS
  0
LAYER
  2
_3-6_文字
 70
   64
 62
    7
  6
CONTINUOUS
  0
LAYER
  2
_3-7_躯体
 70
   64
 62
    7
  6
CONTINUOUS
  0
LAYER
  2
_4-1______
 70
   64
 62
    7
  6
CONTINUOUS
  0
LAYER
  2
_4-3______
 70
   64
 62
    7
  6
CONTINUOUS
  0
LAYER
  2
_4-4______
 70
   64
 62
    7
  6
CONTINUOUS
  0
LAYER
  2
_4-5_寸法
 70
   64
 62
    7
  6
CONTINUOUS
  0
LAYER
  2
_4-6_文字
 70
   64
 62
    7
  6
CONTINUOUS
  0
LAYER
  2
_4-7_躯体
 70
   64
 62
    7
  6
CONTINUOUS
  0
LAYER
  2
_4-8_開口
 70
   64
 62
    7
  6
CONTINUOUS
  0
LAYER
  2
_5-0_____
 70
   64
 62
    7
  6
CONTINUOUS
  0
LAYER
  2
_5-1______
 70
   64
 62
    7
  6
CONTINUOUS
  0
LAYER
  2
_5-2_______
 70
   64
 62
    7
  6
CONTINUOUS
  0
LAYER
  2
_5-3______
 70
   64
 62
    7
  6
CONTINUOUS
  0
LAYER
  2
_5-5_寸法
 70
   64
 62
    7
  6
CONTINUOUS
  0
LAYER
  2
_5-6_文字
 70
   64
 62
    7
  6
CONTINUOUS
  0
LAYER
  2
_5-7_躯体
 70
   64
 62
    7
  6
CONTINUOUS
  0
LAYER
  2
_6-0_____
 70
   64
 62
    7
  6
CONTINUOUS
  0
LAYER
  2
_6-1______
 70
   64
 62
    7
  6
CONTINUOUS
  0
LAYER
  2
_6-2_______
 70
   64
 62
    7
  6
CONTINUOUS
  0
LAYER
  2
_6-3______
 70
   64
 62
    7
  6
CONTINUOUS
  0
LAYER
  2
_6-6_文字
 70
   64
 62
    7
  6
CONTINUOUS
  0
LAYER
  2
_6-7_躯体
 70
   64
 62
    7
  6
CONTINUOUS
  0
LAYER
  2
_7-0_寸法
 70
   64
 62
    7
  6
CONTINUOUS
  0
LAYER
  2
_7-1_スタッド
 70
   64
 62
    7
  6
CONTINUOUS
  0
LAYER
  2
_7-2_スポンジ
 70
   64
 62
    7
  6
CONTINUOUS
  0
LAYER
  2
_7-3_ボンド
 70
   64
 62
    7
  6
CONTINUOUS
  0
LAYER
  2
_7-4_
 70
   64
 62
    7
  6
CONTINUOUS
  0
LAYER
  2
_7-5_文字
 70
   64
 62
    7
  6
CONTINUOUS
  0
LAYER
  2
_8-0_躯体
 70
   64
 62
    7
  6
CONTINUOUS
  0
LAYER
  2
_8-1_ULスタッ
 70
   64
 62
    7
  6
CONTINUOUS
  0
LAYER
  2
_8-2_ULスポン
 70
   64
 62
    7
  6
CONTINUOUS
  0
LAYER
  2
_8-3_ULボンド
 70
   64
 62
    7
  6
CONTINUOUS
  0
LAYER
  2
_8-4_ULランナ
 70
   64
 62
    7
  6
CONTINUOUS
  0
LAYER
  2
_8-5_Lアング
 70
   64
 62
    7
  6
CONTINUOUS
  0
LAYER
  2
_8-6_仕上げ材
 70
   64
 62
    7
  6
CONTINUOUS
  0
LAYER
  2
_8-7_ビス
 70
   64
 62
    7
  6
CONTINUOUS
  0
LAYER
  2
_8-8_文字
 70
   64
 62
    7
  6
CONTINUOUS
  0
LAYER
  2
_8-9_寸法
 70
   64
 62
    7
  6
CONTINUOUS
  0
LAYER
  2
_8-a_天井材
 70
   64
 62
    7
  6
CONTINUOUS
  0
LAYER
  2
ADD_LINE
 70
   64
 62
    7
  6
CONTINUOUS
  0
ENDTAB
  0
ENDSEC
  0
SECTION
  2
BLOCKS
  0
ENDSEC
  0
SECTION
  2
ENTITIES
  0
LINE
  8
ADD_LINE
  6
DOT
 62
    5
 10
12694.480937236063
 20
8965.2045172614035
 11
94.480241311563304
 21
55.204448828826287
  0
LINE
  8
ADD_LINE
  6
DOT
 62
    7
 10
12244.467575485642
 20
2035.204480145429
 11
544.49286074251722
 21
2035.204480145429
  0
LINE
  8
_0-0_0
  6
CONTINUOUS
 62
    5
 10
544.49286074251722
 20
8665.2042698215791
 11
12244.467575485642
 21
8665.2042698215791
  0
LINE
  8
ADD_LINE
  6
DOT
 62
    7
 10
544.49286074251722
 20
8243.8830401446376
 11
12244.467575485642
 21
8243.8830401446376
  0
LINE
  8
_0-0_0
  6
CONTINUOUS
 62
    5
 10
544.49286074251722
 20
1195.20449251742
 11
12244.467575485642
 21
1195.20449251742
  0
LINE
  8
_0-0_0
  6
CONTINUOUS
 62
    5
 10
7192.3838022592909
 20
946.18145710713168
 11
7090.4299349398225
 21
844.22740420779689
  0
LINE
  8
ADD_LINE
  6
DOT
 62
    5
 10
6942.9763381545608
 20
985.20444921545072
 11
7304.4205949113184
 21
985.20444921545072
  0
LINE
  8
ADD_LINE
  6
DOT
 62
    5
 10
6940.0256182696376
 20
805.20441209947739
 11
7339.82774889147
 21
805.20441209947739
  0
LINE
  8
ADD_LINE
  6
DOT
 62
    5
 10
544.49286074251722
 20
1135.204480145429
 11
8644.4675754856416
 21
1135.204480145429
  0
LINE
  8
_0-0_0
  6
CONTINUOUS
 62
    5
 10
6994.4673280458192
 20
1075.2044677734375
 11
6994.4673280458192
 21
355.20445849444457
  0
LINE
  8
_0-0_0
  6
CONTINUOUS
 62
    5
 10
10894.467575485642
 20
1195.20449251742
 11
10894.467575485642
 21
355.20445849444457
  0
LINE
  8
_0-0_0
  6
CONTINUOUS
 62
    5
 10
10744.467822925466
 20
1195.20449251742
 11
10744.467822925466
 21
355.20445849444457
  0
LINE
  8
_0-0_0
  6
CONTINUOUS
 62
    5
 10
6844.4675754856426
 20
1195.20449251742
 11
6844.4675754856426
 21
355.20445849444457
  0
LINE
  8
_0-0_0
  6
CONTINUOUS
 62
    5
 10
8644.4675754856416
 20
1195.20449251742
 11
8644.4675754856416
 21
355.20445849444457
  0
LINE
  8
_0-0_0
  6
CONTINUOUS
 62
    5
 10
7744.4675754856426
 20
1195.20449251742
 11
7744.4675754856426
 21
355.20445849444457
  0
LINE
  8
_0-0_0
  6
CONTINUOUS
 62
    5
 10
8344.467328045821
 20
1075.2044677734375
 11
8344.467328045821
 21
355.20445849444457
  0
LINE
  8
_0-0_0
  6
CONTINUOUS
 62
    5
 10
8194.4675754856416
 20
1075.2044677734375
 11
8194.4675754856416
 21
355.20445849444457
  0
LINE
  8
_0-0_0
  6
CONTINUOUS
 62
    5
 10
7894.4673280458201
 20
1075.2044677734375
 11
7894.4673280458201
 21
355.20445849444457
  0
LINE
  8
_0-0_0
  6
CONTINUOUS
 62
    5
 10
6844.4675754856426
 20
715.20443993645745
 11
8644.4675754856416
 21
715.20443993645745
  0
LINE
  8
_0-0_0
  6
CONTINUOUS
 62
    5
 10
6844.4675754856426
 20
1075.2044677734375
 11
8644.4675754856416
 21
1075.2044677734375
  0
LINE
  8
_0-0_0
  6
CONTINUOUS
 62
    5
 10
6844.4675754856426
 20
1075.2044677734375
 11
544.49286074251722
 21
1075.2044677734375
  0
LINE
  8
_0-0_0
  6
CONTINUOUS
 62
    5
 10
694.49289167249526
 20
586.20444117365707
 11
635.60315724965699
 21
484.20445725724534
  0
LINE
  8
_0-0_0
  6
CONTINUOUS
 62
    5
 10
635.60315724965699
 20
484.20445725724534
 11
753.38257970036716
 21
484.20445725724534
  0
LINE
  8
_0-0_0
  6
CONTINUOUS
 62
    5
 10
753.38257970036716
 20
484.20445725724534
 11
694.49289167249526
 21
586.20444117365707
  0
LINE
  8
_0-0_0
  6
CONTINUOUS
 62
    5
 10
694.49289167249526
 20
706.20446591763903
 11
635.60315724965699
 21
604.20443560626097
  0
LINE
  8
_0-0_0
  6
CONTINUOUS
 62
    5
 10
635.60315724965699
 20
604.20443560626097
 11
753.38257970036716
 21
604.20443560626097
  0
LINE
  8
_0-0_0
  6
CONTINUOUS
 62
    5
 10
753.38257970036716
 20
604.20443560626097
 11
694.49289167249526
 21
706.20446591763903
  0
LINE
  8
_0-0_0
  6
CONTINUOUS
 62
    5
 10
694.49289167249526
 20
826.20444426665426
 11
635.60315724965699
 21
724.20446035024293
  0
LINE
  8
_0-0_0
  6
CONTINUOUS
 62
    5
 10
635.60315724965699
 20
724.20446035024293
 11
753.38257970036716
 21
724.20446035024293
  0
LINE
  8
_0-0_0
  6
CONTINUOUS
 62
    5
 10
753.38257970036716
 20
724.20446035024293
 11
694.49289167249526
 21
826.20444426665426
  0
LINE
  8
_0-0_0
  6
CONTINUOUS
 62
    5
 10
694.49289167249526
 20
946.20446901063679
 11
635.60315724965699
 21
844.20448509422499
  0
LINE
  8
_0-0_0
  6
CONTINUOUS
 62
    5
 10
635.60315724965699
 20
844.20448509422499
 11
753.38257970036716
 21
844.20448509422499
  0
LINE
  8
_0-0_0
  6
CONTINUOUS
 62
    5
 10
753.38257970036716
 20
844.20448509422499
 11
694.49289167249526
 21
946.20446901063679
  0
LINE
  8
_0-0_0
  6
CONTINUOUS
 62
    5
 10
694.49289167249526
 20
1066.2044937546189
 11
635.60315724965699
 21
964.20441704827385
  0
LINE
  8
_0-0_0
  6
CONTINUOUS
 62
    5
 10
635.60315724965699
 20
964.20441704827385
 11
753.38257970036716
 21
964.20441704827385
  0
LINE
  8
_0-0_0
  6
CONTINUOUS
 62
    5
 10
753.38257970036716
 20
964.20441704827385
 11
694.49289167249526
 21
1066.2044937546189
  0
LINE
  8
_0-0_0
  6
CONTINUOUS
 62
    5
 10
544.49286074251722
 20
475.20443684345935
 11
3364.4928390915334
 21
475.20443684345935
  0
LINE
  8
_0-0_0
  6
CONTINUOUS
 62
    5
 10
3394.4929380674621
 20
475.20443684345935
 11
6844.4675754856426
 21
475.20443684345935
  0
LINE
  8
_0-0_0
  6
CONTINUOUS
 62
    5
 10
544.49286074251722
 20
595.20446158744221
 11
3364.4928390915334
 21
595.20446158744221
  0
LINE
  8
_0-0_0
  6
CONTINUOUS
 62
    5
 10
3394.4929380674621
 20
595.20446158744221
 11
6844.4675754856426
 21
595.20446158744221
  0
LINE
  8
_0-0_0
  6
CONTINUOUS
 62
    5
 10
544.49286074251722
 20
715.20443993645745
 11
3364.4928390915334
 21
715.20443993645745
  0
LINE
  8
_0-0_0
  6
CONTINUOUS
 62
    5
 10
3394.4929380674621
 20
715.20443993645745
 11
6844.4675754856426
 21
715.20443993645745
  0
LINE
  8
_0-0_0
  6
CONTINUOUS
 62
    5
 10
544.49286074251722
 20
835.20441828547303
 11
3364.4928390915334
 21
835.20441828547303
  0
LINE
  8
_0-0_0
  6
CONTINUOUS
 62
    5
 10
3394.4929380674621
 20
835.20441828547303
 11
6844.4675754856426
 21
835.20441828547303
  0
LINE
  8
_0-0_0
  6
CONTINUOUS
 62
    5
 10
544.49286074251722
 20
955.20444302945543
 11
3364.4928390915334
 21
955.20444302945543
  0
LINE
  8
_0-0_0
  6
CONTINUOUS
 62
    5
 10
3394.4929380674621
 20
955.20444302945543
 11
6844.4675754856426
 21
955.20444302945543
  0
LINE
  8
_0-0_0
  6
CONTINUOUS
 62
    5
 10
844.49287620750624
 20
1195.20449251742
 11
844.49287620750624
 21
355.20445849444457
  0
LINE
  8
_0-0_0
  6
CONTINUOUS
 62
    5
 10
3064.4927772315773
 20
1195.20449251742
 11
3064.4927772315773
 21
355.20445849444457
  0
LINE
  8
_0-0_0
  6
CONTINUOUS
 62
    5
 10
3364.4928390915334
 20
1195.20449251742
 11
3364.4928390915334
 21
355.20445849444457
  0
LINE
  8
_0-0_0
  6
CONTINUOUS
 62
    5
 10
1414.492900951489
 20
1195.20449251742
 11
1414.492900951489
 21
355.20445849444457
  0
LINE
  8
_0-0_0
  6
CONTINUOUS
 62
    5
 10
4354.0039474899704
 20
1195.20449251742
 11
4354.0039474899704
 21
355.20445849444457
  0
LINE
  8
_0-0_0
  6
CONTINUOUS
 62
    5
 10
3571.2674115155196
 20
1195.20449251742
 11
3571.2674115155196
 21
355.20445849444457
  0
LINE
  8
_0-0_0
  6
CONTINUOUS
 62
    5
 10
3394.4929380674621
 20
1195.20449251742
 11
3394.4929380674621
 21
355.20445849444457
  0
LINE
  8
_0-0_0
  6
CONTINUOUS
 62
    5
 10
5460.2559270085512
 20
1195.20449251742
 11
5460.2559270085512
 21
355.20445849444457
  0
LINE
  8
_0-0_0
  6
CONTINUOUS
 62
    5
 10
5760.2558032886409
 20
1195.20449251742
 11
5760.2558032886409
 21
355.20445849444457
  0
LINE
  8
_0-0_0
  6
CONTINUOUS
 62
    5
 10
7444.4673280458192
 20
1075.2044677734375
 11
7444.4673280458192
 21
355.20445849444457
  0
LINE
  8
_0-0_0
  6
CONTINUOUS
 62
    5
 10
7294.4675754856426
 20
1075.2044677734375
 11
7294.4675754856426
 21
355.20445849444457
  0
LINE
  8
_0-0_0
  6
CONTINUOUS
 62
    5
 10
694.49289167249526
 20
1186.2044257086679
 11
635.60315724965699
 21
1084.2044417922561
  0
LINE
  8
_0-0_0
  6
CONTINUOUS
 62
    5
 10
635.60315724965699
 20
1084.2044417922561
 11
753.38257970036716
 21
1084.2044417922561
  0
LINE
  8
_0-0_0
  6
CONTINUOUS
 62
    5
 10
753.38257970036716
 20
1084.2044417922561
 11
694.49289167249526
 21
1186.2044257086679
  0
LINE
  8
_0-0_0
  6
CONTINUOUS
 62
    5
 10
10744.467822925466
 20
655.20442756446641
 11
12244.467575485642
 21
655.20442756446641
  0
LINE
  8
_0-0_0
  6
CONTINUOUS
 62
    5
 10
10954.4677734375
 20
904.21433319916605
 11
12154.467278557855
 21
904.21433319916605
  0
LINE
  8
_0-0_0
  6
CONTINUOUS
 62
    5
 10
12244.467575485642
 20
8665.2042698215791
 11
12244.467575485642
 21
355.20445849444457
  0
LINE
  8
_0-0_0
  6
CONTINUOUS
 62
    5
 10
12244.467575485642
 20
355.20445849444457
 11
544.49286074251722
 21
355.20445849444457
  0
LINE
  8
_0-0_0
  6
CONTINUOUS
 62
    5
 10
544.49286074251722
 20
355.20445849444457
 11
544.49286074251722
 21
8665.2042698215791
  0
LINE
  8
_0-0_0
  6
CONTINUOUS
 62
    5
 10
8986.4563813080658
 20
777.16218072014885
 11
9041.8170825855159
 21
832.52316036739887
  0
LINE
  8
_0-0_0
  6
CONTINUOUS
 62
    5
 10
8986.4563813080658
 20
698.86997841499965
 11
8986.4563813080658
 21
777.16218072014885
  0
LINE
  8
_0-0_0
  6
CONTINUOUS
 62
    5
 10
8974.4560447899075
 20
777.16218072014885
 11
8974.4560447899075
 21
698.86997841499965
  0
LINE
  8
_0-0_0
  6
CONTINUOUS
 62
    5
 10
8919.0953435124575
 20
832.52316036739887
 11
8974.4560447899075
 21
777.16218072014885
  0
LINE
  8
_0-0_0
  6
CONTINUOUS
 62
    5
 10
9100.4558666332359
 20
779.64746629869614
 11
9079.2737806165551
 21
773.64748361948364
  0
LINE
  8
_0-0_0
  6
CONTINUOUS
 62
    5
 10
9100.4558666332359
 20
779.64746629869614
 11
9079.4556488861908
 21
779.64746629869614
  0
LINE
  8
_0-0_0
  6
CONTINUOUS
 62
    5
 10
9079.2737806165551
 20
785.64744897790865
 11
9100.4558666332359
 21
779.64746629869614
  0
LINE
  8
_0-0_0
  6
CONTINUOUS
 62
    5
 10
8980.4562130489867
 20
659.64744155471408
 11
8980.4562130489867
 21
680.64747372189106
  0
LINE
  8
_0-0_0
  6
CONTINUOUS
 62
    5
 10
8980.4562130489867
 20
659.64744155471408
 11
8986.4563813080658
 21
680.82943478146137
  0
LINE
  8
_0-0_0
  6
CONTINUOUS
 62
    5
 10
8980.4562130489867
 20
659.64744155471408
 11
8974.4560447899075
 21
680.82943478146137
  0
LINE
  8
_0-0_0
  6
CONTINUOUS
 62
    5
 10
8860.45581714527
 20
779.64746629869614
 11
8881.6379031619508
 21
773.64748361948364
  0
LINE
  8
_0-0_0
  6
CONTINUOUS
 62
    5
 10
8860.45581714527
 20
779.64746629869614
 11
8881.4560348923133
 21
779.64746629869614
  0
LINE
  8
_0-0_0
  6
CONTINUOUS
 62
    5
 10
8860.45581714527
 20
779.64746629869614
 11
8881.6379031619508
 21
785.64744897790865
  0
LINE
  8
_0-0_0
  6
CONTINUOUS
 62
    5
 10
8980.4562130489867
 20
899.64749104267855
 11
8986.4563813080658
 21
878.46549781593126
  0
LINE
  8
_0-0_0
  6
CONTINUOUS
 62
    5
 10
8980.4562130489867
 20
899.64749104267855
 11
8974.4560447899075
 21
878.46549781593126
  0
LINE
  8
_0-0_0
  6
CONTINUOUS
 62
    5
 10
8980.4562130489867
 20
899.64749104267855
 11
8980.4562130489867
 21
878.64745887550157
  0
LINE
  8
_0-0_0
  6
CONTINUOUS
 62
    5
 10
8980.4562130489867
 20
788.13273455645583
 11
8927.5800550306176
 21
841.00842862515856
  0
LINE
  8
_0-0_0
  6
CONTINUOUS
 62
    5
 10
9033.3316287478883
 20
841.00842862515856
 11
8980.4562130489867
 21
788.13273455645583
  0
LINE
  8
_0-0_0
  6
CONTINUOUS
 62
    5
 10
8980.4562130489867
 20
779.64746629869614
 11
9037.7313562341642
 21
836.92307343354105
  0
LINE
  8
_0-0_0
  6
CONTINUOUS
 62
    5
 10
8980.4562130489867
 20
779.64746629869614
 11
8980.4562130489867
 21
698.64746815449496
  0
LINE
  8
_0-0_0
  6
CONTINUOUS
 62
    5
 10
8923.1803275443417
 20
836.92307343354105
 11
8980.4562130489867
 21
779.64746629869614
  0
LINE
  8
ADD_LINE
  6
DOT
 62
    5
 10
694.49289167249526
 20
1195.20449251742
 11
694.49289167249526
 21
475.20443684345935
  0
LINE
  8
ADD_LINE
  6
DOT
 62
    5
 10
2239.4928390915329
 20
1195.20449251742
 11
2239.4928390915329
 21
475.20443684345935
  0
LINE
  8
ADD_LINE
  6
DOT
 62
    5
 10
3214.4927153716217
 20
1195.20449251742
 11
3214.4927153716217
 21
475.20443684345935
  0
LINE
  8
ADD_LINE
  6
DOT
 62
    5
 10
3482.8801747914908
 20
1195.20449251742
 11
3482.8801747914908
 21
475.20443684345935
  0
LINE
  8
ADD_LINE
  6
DOT
 62
    5
 10
3962.6356795027455
 20
1195.20449251742
 11
3962.6356795027455
 21
475.20443684345935
  0
LINE
  8
ADD_LINE
  6
DOT
 62
    5
 10
4907.1299372492613
 20
1195.20449251742
 11
4907.1299372492613
 21
475.20443684345935
  0
LINE
  8
ADD_LINE
  6
DOT
 62
    5
 10
5610.2560507284634
 20
1195.20449251742
 11
5610.2560507284634
 21
475.20443684345935
  0
LINE
  8
ADD_LINE
  6
DOT
 62
    5
 10
6302.362060546875
 20
1195.20449251742
 11
6302.362060546875
 21
475.20443684345935
  0
LINE
  8
ADD_LINE
  6
DOT
 62
    5
 10
8194.4675754856416
 20
1195.20449251742
 11
8194.4675754856416
 21
1075.2044677734375
  0
LINE
  8
ADD_LINE
  6
DOT
 62
    5
 10
7144.467822925465
 20
1089.8300170898437
 11
7144.467822925465
 21
563.1536586864579
  0
LINE
  8
ADD_LINE
  6
DOT
 62
    5
 10
7069.4675754856426
 20
1110.4839428051098
 11
7069.4675754856426
 21
622.16499431713203
  0
LINE
  8
ADD_LINE
  6
DOT
 62
    5
 10
7219.4673280458192
 20
1073.6018928321632
 11
7219.4673280458192
 21
616.26387931205159
  0
LINE
  8
ADD_LINE
  6
DOT
 62
    5
 10
6963.6298927100934
 20
895.20443065746406
 11
7298.5198974609375
 21
895.20443065746406
  0
LINE
  8
ADD_LINE
  6
DOT
 62
    5
 10
11569.467575485642
 20
1184.2481355409368
 11
11569.467575485642
 21
358.0891815391746
  0
LINE
  8
ADD_LINE
  6
DOT
 62
    5
 10
10894.467575485642
 20
1049.709412858293
 11
12244.467575485642
 21
1049.709412858293
  0
LINE
  8
ADD_LINE
  6
DOT
 62
    5
 10
10894.467575485642
 20
779.70944997426636
 11
12244.467575485642
 21
779.70944997426636
  0
LINE
  8
ADD_LINE
  6
DOT
 62
    5
 10
10894.467575485642
 20
505.20444302945549
 11
12244.467575485642
 21
505.20444302945549
  0
LINE
  8
ADD_LINE
  6
DOT
 62
    7
 10
12244.467575485642
 20
2495.2044512774496
 11
544.49286074251722
 21
2495.2044512774496
  0
LINE
  8
ADD_LINE
  6
DOT
 62
    7
 10
544.49286074251722
 20
3387.57229366818
 11
8016.6286159206074
 21
3387.57229366818
  0
LINE
  8
ADD_LINE
  6
DOT
 62
    7
 10
665.02805142789293
 20
8665.2042698215791
 11
665.02805142789293
 21
1195.20449251742
  0
LINE
  8
ADD_LINE
  6
DOT
 62
    7
 10
865.02803080790784
 20
8665.2042698215791
 11
865.02803080790784
 21
2695.2044306574639
  0
LINE
  8
ADD_LINE
  6
DOT
 62
    7
 10
1065.0280101879218
 20
8665.2042698215791
 11
1065.0280101879218
 21
2695.2044306574639
  0
LINE
  8
ADD_LINE
  6
DOT
 62
    7
 10
8112.4026736697642
 20
7623.8131961307017
 11
544.49286074251722
 21
7623.8131961307017
  0
LINE
  8
ADD_LINE
  6
DOT
 62
    7
 10
4480.9190492372254
 20
8665.2042698215791
 11
4480.9190492372254
 21
2695.2044306574639
  0
LINE
  8
ADD_LINE
  6
DOT
 62
    7
 10
4680.919214197108
 20
8665.2042698215791
 11
4680.919214197108
 21
2695.2044306574639
  0
LINE
  8
ADD_LINE
  6
DOT
 62
    7
 10
4937.5550141205667
 20
8665.2042698215791
 11
4937.5550141205667
 21
2695.2044306574639
  0
LINE
  8
ADD_LINE
  6
DOT
 62
    7
 10
8016.6286159206074
 20
8665.2042698215791
 11
8016.6286159206074
 21
2695.2044306574639
  0
LINE
  8
ADD_LINE
  6
DOT
 62
    5
 10
12694.480937236063
 20
8965.2045172614035
 11
94.480241311563304
 21
8965.2045172614035
  0
LINE
  8
ADD_LINE
  6
DOT
 62
    5
 10
94.480241311563304
 20
8965.2045172614035
 11
94.480241311563304
 21
55.204448828826287
  0
LINE
  8
ADD_LINE
  6
DOT
 62
    5
 10
94.480241311563304
 20
55.204448828826287
 11
12694.480937236063
 21
55.204448828826287
  0
LINE
  8
ADD_LINE
  6
DOT
 62
    5
 10
12694.480937236063
 20
55.204448828826287
 11
12694.480937236063
 21
8965.2045172614035
  0
LINE
  8
ADD_LINE
  6
DOT
 62
    5
 10
94.480241311563304
 20
8965.2045172614035
 11
12694.480937236063
 21
55.204448828826287
  0
LINE
  8
ADD_LINE
  6
DOT
 62
    7
 10
10130.548095703125
 20
8646.98106920397
 11
10130.548095703125
 21
1195.20449251742
  0
LINE
  8
ADD_LINE
  6
DOT
 62
    7
 10
539.89447000864379
 20
5372.9328052417659
 11
12244.467575485642
 21
5372.9328052417659
  0
LINE
  8
ADD_LINE
  6
DOT
 62
    7
 10
9073.5883558118676
 20
8646.98106920397
 11
9073.5883558118676
 21
1195.20449251742
  0
LINE
  8
ADD_LINE
  6
DOT
 62
    7
 10
11187.507835594384
 20
1195.20449251742
 11
11187.507835594384
 21
8646.98106920397
  0
LINE
  8
ADD_LINE
  6
DOT
 62
    7
 10
5937.5550966005067
 20
8665.2042698215791
 11
5937.5550966005067
 21
1195.20449251742
  0
LINE
  8
ADD_LINE
  6
DOT
 62
    7
 10
2379.0607761692359
 20
8665.2042698215791
 11
2379.0607761692359
 21
5711.0125567462001
  0
LINE
  8
ADD_LINE
  6
DOT
 62
    5
 10
26926.851839632604
 20
8965.2045172614035
 11
14326.851839632602
 21
55.204448828826287
  0
LINE
  8
ADD_LINE
  6
DOT
 62
    7
 10
26476.839962521117
 20
2035.204480145429
 11
14776.863716744088
 21
2035.204480145429
  0
LINE
  8
_0-0_0
  6
CONTINUOUS
 62
    5
 10
14776.863716744088
 20
8665.2042698215791
 11
26476.839962521117
 21
8665.2042698215791
  0
LINE
  8
ADD_LINE
  6
DOT
 62
    7
 10
14776.863716744088
 20
8243.8830401446376
 11
26476.839962521117
 21
8243.8830401446376
  0
LINE
  8
_0-0_0
  6
CONTINUOUS
 62
    5
 10
14776.863716744088
 20
1195.20449251742
 11
26476.839962521117
 21
1195.20449251742
  0
LINE
  8
_0-0_0
  6
CONTINUOUS
 62
    5
 10
21424.754704655828
 20
946.18145710713168
 11
21322.801579655828
 21
844.22740420779689
  0
LINE
  8
ADD_LINE
  6
DOT
 62
    5
 10
21175.347240551098
 20
985.20444921545072
 11
21536.791497307855
 21
985.20444921545072
  0
LINE
  8
ADD_LINE
  6
DOT
 62
    5
 10
21172.397262985643
 20
805.20441209947739
 11
21572.19865128801
 21
805.20441209947739
  0
LINE
  8
ADD_LINE
  6
DOT
 62
    5
 10
14776.863716744088
 20
1135.204480145429
 11
22876.838477882182
 21
1135.204480145429
  0
LINE
  8
_0-0_0
  6
CONTINUOUS
 62
    5
 10
21226.838972761827
 20
1075.2044677734375
 11
21226.838972761827
 21
355.20445849444457
  0
LINE
  8
_0-0_0
  6
CONTINUOUS
 62
    5
 10
25126.839962521117
 20
1195.20449251742
 11
25126.839962521117
 21
355.20445849444457
  0
LINE
  8
_0-0_0
  6
CONTINUOUS
 62
    5
 10
24976.837983002533
 20
1195.20449251742
 11
24976.837983002533
 21
355.20445849444457
  0
LINE
  8
_0-0_0
  6
CONTINUOUS
 62
    5
 10
21076.838477882182
 20
1195.20449251742
 11
21076.838477882182
 21
355.20445849444457
  0
LINE
  8
_0-0_0
  6
CONTINUOUS
 62
    5
 10
22876.838477882182
 20
1195.20449251742
 11
22876.838477882182
 21
355.20445849444457
  0
LINE
  8
_0-0_0
  6
CONTINUOUS
 62
    5
 10
21976.838477882182
 20
1195.20449251742
 11
21976.838477882182
 21
355.20445849444457
  0
LINE
  8
_0-0_0
  6
CONTINUOUS
 62
    5
 10
22576.838972761827
 20
1075.2044677734375
 11
22576.838972761827
 21
355.20445849444457
  0
LINE
  8
_0-0_0
  6
CONTINUOUS
 62
    5
 10
22426.838477882182
 20
1075.2044677734375
 11
22426.838477882182
 21
355.20445849444457
  0
LINE
  8
_0-0_0
  6
CONTINUOUS
 62
    5
 10
22126.838972761827
 20
1075.2044677734375
 11
22126.838972761827
 21
355.20445849444457
  0
LINE
  8
_0-0_0
  6
CONTINUOUS
 62
    5
 10
21076.838477882182
 20
715.20443993645745
 11
22876.838477882182
 21
715.20443993645745
  0
LINE
  8
_0-0_0
  6
CONTINUOUS
 62
    5
 10
21076.838477882182
 20
1075.2044677734375
 11
22876.838477882182
 21
1075.2044677734375
  0
LINE
  8
_0-0_0
  6
CONTINUOUS
 62
    5
 10
21076.838477882182
 20
1075.2044677734375
 11
14776.863716744088
 21
1075.2044677734375
  0
LINE
  8
_0-0_0
  6
CONTINUOUS
 62
    5
 10
14926.864211623735
 20
586.20444117365707
 11
14867.974523595862
 21
484.20445725724534
  0
LINE
  8
_0-0_0
  6
CONTINUOUS
 62
    5
 10
14867.974523595862
 20
484.20445725724534
 11
14985.753899651607
 21
484.20445725724534
  0
LINE
  8
_0-0_0
  6
CONTINUOUS
 62
    5
 10
14985.753899651607
 20
484.20445725724534
 11
14926.864211623735
 21
586.20444117365707
  0
LINE
  8
_0-0_0
  6
CONTINUOUS
 62
    5
 10
14926.864211623735
 20
706.20446591763903
 11
14867.974523595862
 21
604.20443560626097
  0
LINE
  8
_0-0_0
  6
CONTINUOUS
 62
    5
 10
14867.974523595862
 20
604.20443560626097
 11
14985.753899651607
 21
604.20443560626097
  0
LINE
  8
_0-0_0
  6
CONTINUOUS
 62
    5
 10
14985.753899651607
 20
604.20443560626097
 11
14926.864211623735
 21
706.20446591763903
  0
LINE
  8
_0-0_0
  6
CONTINUOUS
 62
    5
 10
14926.864211623735
 20
826.20444426665426
 11
14867.974523595862
 21
724.20446035024293
  0
LINE
  8
_0-0_0
  6
CONTINUOUS
 62
    5
 10
14867.974523595862
 20
724.20446035024293
 11
14985.753899651607
 21
724.20446035024293
  0
LINE
  8
_0-0_0
  6
CONTINUOUS
 62
    5
 10
14985.753899651607
 20
724.20446035024293
 11
14926.864211623735
 21
826.20444426665426
  0
LINE
  8
_0-0_0
  6
CONTINUOUS
 62
    5
 10
14926.864211623735
 20
946.20446901063679
 11
14867.974523595862
 21
844.20448509422499
  0
LINE
  8
_0-0_0
  6
CONTINUOUS
 62
    5
 10
14867.974523595862
 20
844.20448509422499
 11
14985.753899651607
 21
844.20448509422499
  0
LINE
  8
_0-0_0
  6
CONTINUOUS
 62
    5
 10
14985.753899651607
 20
844.20448509422499
 11
14926.864211623735
 21
946.20446901063679
  0
LINE
  8
_0-0_0
  6
CONTINUOUS
 62
    5
 10
14926.864211623735
 20
1066.2044937546189
 11
14867.974523595862
 21
964.20441704827385
  0
LINE
  8
_0-0_0
  6
CONTINUOUS
 62
    5
 10
14867.974523595862
 20
964.20441704827385
 11
14985.753899651607
 21
964.20441704827385
  0
LINE
  8
_0-0_0
  6
CONTINUOUS
 62
    5
 10
14985.753899651607
 20
964.20441704827385
 11
14926.864211623735
 21
1066.2044937546189
  0
LINE
  8
_0-0_0
  6
CONTINUOUS
 62
    5
 10
14776.863716744088
 20
475.20443684345935
 11
17596.864112647807
 21
475.20443684345935
  0
LINE
  8
_0-0_0
  6
CONTINUOUS
 62
    5
 10
17626.864211623735
 20
475.20443684345935
 11
21076.838477882182
 21
475.20443684345935
  0
LINE
  8
_0-0_0
  6
CONTINUOUS
 62
    5
 10
14776.863716744088
 20
595.20446158744221
 11
17596.864112647807
 21
595.20446158744221
  0
LINE
  8
_0-0_0
  6
CONTINUOUS
 62
    5
 10
17626.864211623735
 20
595.20446158744221
 11
21076.838477882182
 21
595.20446158744221
  0
LINE
  8
_0-0_0
  6
CONTINUOUS
 62
    5
 10
14776.863716744088
 20
715.20443993645745
 11
17596.864112647807
 21
715.20443993645745
  0
LINE
  8
_0-0_0
  6
CONTINUOUS
 62
    5
 10
17626.864211623735
 20
715.20443993645745
 11
21076.838477882182
 21
715.20443993645745
  0
LINE
  8
_0-0_0
  6
CONTINUOUS
 62
    5
 10
14776.863716744088
 20
835.20441828547303
 11
17596.864112647807
 21
835.20441828547303
  0
LINE
  8
_0-0_0
  6
CONTINUOUS
 62
    5
 10
17626.864211623735
 20
835.20441828547303
 11
21076.838477882182
 21
835.20441828547303
  0
LINE
  8
_0-0_0
  6
CONTINUOUS
 62
    5
 10
14776.863716744088
 20
955.20444302945543
 11
17596.864112647807
 21
955.20444302945543
  0
LINE
  8
_0-0_0
  6
CONTINUOUS
 62
    5
 10
17626.864211623735
 20
955.20444302945543
 11
21076.838477882182
 21
955.20444302945543
  0
LINE
  8
_0-0_0
  6
CONTINUOUS
 62
    5
 10
15076.86470650338
 20
1195.20449251742
 11
15076.86470650338
 21
355.20445849444457
  0
LINE
  8
_0-0_0
  6
CONTINUOUS
 62
    5
 10
17296.864607527452
 20
1195.20449251742
 11
17296.864607527452
 21
355.20445849444457
  0
LINE
  8
_0-0_0
  6
CONTINUOUS
 62
    5
 10
17596.864112647807
 20
1195.20449251742
 11
17596.864112647807
 21
355.20445849444457
  0
LINE
  8
_0-0_0
  6
CONTINUOUS
 62
    5
 10
15646.86361776816
 20
1195.20449251742
 11
15646.86361776816
 21
355.20445849444457
  0
LINE
  8
_0-0_0
  6
CONTINUOUS
 62
    5
 10
18586.37596336571
 20
1195.20449251742
 11
18586.37596336571
 21
355.20445849444457
  0
LINE
  8
_0-0_0
  6
CONTINUOUS
 62
    5
 10
17803.63868507179
 20
1195.20449251742
 11
17803.63868507179
 21
355.20445849444457
  0
LINE
  8
_0-0_0
  6
CONTINUOUS
 62
    5
 10
17626.864211623735
 20
1195.20449251742
 11
17626.864211623735
 21
355.20445849444457
  0
LINE
  8
_0-0_0
  6
CONTINUOUS
 62
    5
 10
19692.62794288429
 20
1195.20449251742
 11
19692.62794288429
 21
355.20445849444457
  0
LINE
  8
_0-0_0
  6
CONTINUOUS
 62
    5
 10
19992.627448004649
 20
1195.20449251742
 11
19992.627448004649
 21
355.20445849444457
  0
LINE
  8
_0-0_0
  6
CONTINUOUS
 62
    5
 10
21676.838972761827
 20
1075.2044677734375
 11
21676.838972761827
 21
355.20445849444457
  0
LINE
  8
_0-0_0
  6
CONTINUOUS
 62
    5
 10
21526.838477882182
 20
1075.2044677734375
 11
21526.838477882182
 21
355.20445849444457
  0
LINE
  8
_0-0_0
  6
CONTINUOUS
 62
    5
 10
14926.864211623735
 20
1186.2044257086679
 11
14867.974523595862
 21
1084.2044417922561
  0
LINE
  8
_0-0_0
  6
CONTINUOUS
 62
    5
 10
14867.974523595862
 20
1084.2044417922561
 11
14985.753899651607
 21
1084.2044417922561
  0
LINE
  8
_0-0_0
  6
CONTINUOUS
 62
    5
 10
14985.753899651607
 20
1084.2044417922561
 11
14926.864211623735
 21
1186.2044257086679
  0
LINE
  8
_0-0_0
  6
CONTINUOUS
 62
    5
 10
24976.837983002533
 20
655.20442756446641
 11
26476.839962521117
 21
655.20442756446641
  0
LINE
  8
_0-0_0
  6
CONTINUOUS
 62
    5
 10
25186.840160472973
 20
904.21433319916605
 11
26386.838180954393
 21
904.21433319916605
  0
LINE
  8
_0-0_0
  6
CONTINUOUS
 62
    5
 10
26476.839962521117
 20
8665.2042698215791
 11
26476.839962521117
 21
355.20445849444457
  0
LINE
  8
_0-0_0
  6
CONTINUOUS
 62
    5
 10
26476.839962521117
 20
355.20445849444457
 11
14776.863716744088
 21
355.20445849444457
  0
LINE
  8
_0-0_0
  6
CONTINUOUS
 62
    5
 10
14776.863716744088
 20
355.20445849444457
 11
14776.863716744088
 21
8665.2042698215791
  0
LINE
  8
_0-0_0
  6
CONTINUOUS
 62
    5
 10
23218.828026024072
 20
777.16218072014885
 11
23274.188727301524
 21
832.52316036739887
  0
LINE
  8
_0-0_0
  6
CONTINUOUS
 62
    5
 10
23218.828026024072
 20
698.86997841499965
 11
23218.828026024072
 21
777.16218072014885
  0
LINE
  8
_0-0_0
  6
CONTINUOUS
 62
    5
 10
23206.827689505913
 20
777.16218072014885
 11
23206.827689505913
 21
698.86997841499965
  0
LINE
  8
_0-0_0
  6
CONTINUOUS
 62
    5
 10
23151.466988228462
 20
832.52316036739887
 11
23206.827689505913
 21
777.16218072014885
  0
LINE
  8
_0-0_0
  6
CONTINUOUS
 62
    5
 10
23332.827511349242
 20
779.64746629869614
 11
23311.644683013095
 21
773.64748361948364
  0
LINE
  8
_0-0_0
  6
CONTINUOUS
 62
    5
 10
23332.827511349242
 20
779.64746629869614
 11
23311.827293602197
 21
779.64746629869614
  0
LINE
  8
_0-0_0
  6
CONTINUOUS
 62
    5
 10
23311.644683013095
 20
785.64744897790865
 11
23332.827511349242
 21
779.64746629869614
  0
LINE
  8
_0-0_0
  6
CONTINUOUS
 62
    5
 10
23212.827115445525
 20
659.64744155471408
 11
23212.827115445525
 21
680.64747372189106
  0
LINE
  8
_0-0_0
  6
CONTINUOUS
 62
    5
 10
23212.827115445525
 20
659.64744155471408
 11
23218.828026024072
 21
680.82943478146137
  0
LINE
  8
_0-0_0
  6
CONTINUOUS
 62
    5
 10
23212.827115445525
 20
659.64744155471408
 11
23206.827689505913
 21
680.82943478146137
  0
LINE
  8
_0-0_0
  6
CONTINUOUS
 62
    5
 10
23092.826719541808
 20
779.64746629869614
 11
23114.009547877955
 21
773.64748361948364
  0
LINE
  8
_0-0_0
  6
CONTINUOUS
 62
    5
 10
23092.826719541808
 20
779.64746629869614
 11
23113.826937288854
 21
779.64746629869614
  0
LINE
  8
_0-0_0
  6
CONTINUOUS
 62
    5
 10
23092.826719541808
 20
779.64746629869614
 11
23114.009547877955
 21
785.64744897790865
  0
LINE
  8
_0-0_0
  6
CONTINUOUS
 62
    5
 10
23212.827115445525
 20
899.64749104267855
 11
23218.828026024072
 21
878.46549781593126
  0
LINE
  8
_0-0_0
  6
CONTINUOUS
 62
    5
 10
23212.827115445525
 20
899.64749104267855
 11
23206.827689505913
 21
878.46549781593126
  0
LINE
  8
_0-0_0
  6
CONTINUOUS
 62
    5
 10
23212.827115445525
 20
899.64749104267855
 11
23212.827115445525
 21
878.64745887550157
  0
LINE
  8
_0-0_0
  6
CONTINUOUS
 62
    5
 10
23212.827115445525
 20
788.13273455645583
 11
23159.951699746623
 21
841.00842862515856
  0
LINE
  8
_0-0_0
  6
CONTINUOUS
 62
    5
 10
23265.702531144427
 20
841.00842862515856
 11
23212.827115445525
 21
788.13273455645583
  0
LINE
  8
_0-0_0
  6
CONTINUOUS
 62
    5
 10
23212.827115445525
 20
779.64746629869614
 11
23270.10300095017
 21
836.92307343354105
  0
LINE
  8
_0-0_0
  6
CONTINUOUS
 62
    5
 10
23212.827115445525
 20
779.64746629869614
 11
23212.827115445525
 21
698.64746815449496
  0
LINE
  8
_0-0_0
  6
CONTINUOUS
 62
    5
 10
23155.551229940877
 20
836.92307343354105
 11
23212.827115445525
 21
779.64746629869614
  0
LINE
  8
ADD_LINE
  6
DOT
 62
    5
 10
14926.864211623735
 20
1195.20449251742
 11
14926.864211623735
 21
475.20443684345935
  0
LINE
  8
ADD_LINE
  6
DOT
 62
    5
 10
16471.864112647807
 20
1195.20449251742
 11
16471.864112647807
 21
475.20443684345935
  0
LINE
  8
ADD_LINE
  6
DOT
 62
    5
 10
17446.863617768158
 20
1195.20449251742
 11
17446.863617768158
 21
475.20443684345935
  0
LINE
  8
ADD_LINE
  6
DOT
 62
    5
 10
17715.25219066723
 20
1195.20449251742
 11
17715.25219066723
 21
475.20443684345935
  0
LINE
  8
ADD_LINE
  6
DOT
 62
    5
 10
18195.00732421875
 20
1195.20449251742
 11
18195.00732421875
 21
475.20443684345935
  0
LINE
  8
ADD_LINE
  6
DOT
 62
    5
 10
19139.501953125
 20
1195.20449251742
 11
19139.501953125
 21
475.20443684345935
  0
LINE
  8
ADD_LINE
  6
DOT
 62
    5
 10
19842.626953125
 20
1195.20449251742
 11
19842.626953125
 21
475.20443684345935
  0
LINE
  8
ADD_LINE
  6
DOT
 62
    5
 10
20534.732962943413
 20
1195.20449251742
 11
20534.732962943413
 21
475.20443684345935
  0
LINE
  8
ADD_LINE
  6
DOT
 62
    5
 10
22426.838477882182
 20
1195.20449251742
 11
22426.838477882182
 21
1075.2044677734375
  0
LINE
  8
ADD_LINE
  6
DOT
 62
    5
 10
21376.839467641472
 20
1089.8300170898437
 11
21376.839467641472
 21
563.1536586864579
  0
LINE
  8
ADD_LINE
  6
DOT
 62
    5
 10
21301.838477882182
 20
1110.4839428051098
 11
21301.838477882182
 21
622.16499431713203
  0
LINE
  8
ADD_LINE
  6
DOT
 62
    5
 10
21451.838972761827
 20
1073.6018928321632
 11
21451.838972761827
 21
616.26387931205159
  0
LINE
  8
ADD_LINE
  6
DOT
 62
    5
 10
21196.001537426098
 20
895.20443065746406
 11
21530.891542176945
 21
895.20443065746406
  0
LINE
  8
ADD_LINE
  6
DOT
 62
    5
 10
25801.839962521117
 20
1184.2481355409368
 11
25801.839962521117
 21
358.0891815391746
  0
LINE
  8
ADD_LINE
  6
DOT
 62
    5
 10
25126.839962521117
 20
1049.709412858293
 11
26476.839962521117
 21
1049.709412858293
  0
LINE
  8
ADD_LINE
  6
DOT
 62
    5
 10
25126.839962521117
 20
779.70944997426636
 11
26476.839962521117
 21
779.70944997426636
  0
LINE
  8
ADD_LINE
  6
DOT
 62
    5
 10
25126.839962521117
 20
505.20444302945549
 11
26476.839962521117
 21
505.20444302945549
  0
LINE
  8
ADD_LINE
  6
DOT
 62
    7
 10
26476.839962521117
 20
2495.2044512774496
 11
14776.863716744088
 21
2495.2044512774496
  0
LINE
  8
ADD_LINE
  6
DOT
 62
    7
 10
14897.400067303633
 20
8665.2042698215791
 11
14897.400067303633
 21
1195.20449251742
  0
LINE
  8
ADD_LINE
  6
DOT
 62
    7
 10
22248.999518317149
 20
8665.2042698215791
 11
22248.999518317149
 21
2695.2044306574639
  0
LINE
  8
ADD_LINE
  6
DOT
 62
    5
 10
26926.851839632604
 20
8965.2045172614035
 11
14326.851839632602
 21
8965.2045172614035
  0
LINE
  8
ADD_LINE
  6
DOT
 62
    5
 10
14326.851839632602
 20
8965.2045172614035
 11
14326.851839632602
 21
55.204448828826287
  0
LINE
  8
ADD_LINE
  6
DOT
 62
    5
 10
14326.851839632602
 20
55.204448828826287
 11
26926.851839632604
 21
55.204448828826287
  0
LINE
  8
ADD_LINE
  6
DOT
 62
    5
 10
26926.851839632604
 20
55.204448828826287
 11
26926.851839632604
 21
8965.2045172614035
  0
LINE
  8
ADD_LINE
  6
DOT
 62
    5
 10
14326.851839632602
 20
8965.2045172614035
 11
26926.851839632604
 21
55.204448828826287
  0
LINE
  8
ADD_LINE
  6
DOT
 62
    7
 10
24362.918998099663
 20
8646.98106920397
 11
24362.918998099663
 21
1195.20449251742
  0
LINE
  8
ADD_LINE
  6
DOT
 62
    7
 10
14772.265789959883
 20
5372.9328052417659
 11
26476.839962521117
 21
5372.9328052417659
  0
LINE
  8
ADD_LINE
  6
DOT
 62
    7
 10
23305.960000527873
 20
8646.98106920397
 11
23305.960000527873
 21
1195.20449251742
  0
LINE
  8
ADD_LINE
  6
DOT
 62
    7
 10
25419.877995671453
 20
1195.20449251742
 11
25419.877995671453
 21
8646.98106920397
  0
LINE
  8
ADD_LINE
  6
DOT
 62
    7
 10
20169.925998997045
 20
8665.2042698215791
 11
20169.925998997045
 21
1195.20449251742
  0
LINE
  8
ADD_LINE
  6
DOT
 62
    7
 10
16611.432049725507
 20
8665.2042698215791
 11
16611.432049725507
 21
1195.20449251742
  0
LINE
  8
ADD_LINE
  6
DOT
 62
    7
 10
14772.265789959883
 20
5772.9327640017955
 11
26476.839962521117
 21
5772.9327640017955
  0
LINE
  8
ADD_LINE
  6
DOT
 62
    7
 10
14776.863716744088
 20
3387.57229366818
 11
26476.839962521117
 21
3387.57229366818
  0
LINE
  8
ADD_LINE
  6
DOT
 62
    7
 10
18713.290322793498
 20
8665.2042698215791
 11
18713.290322793498
 21
1195.20449251742
  0
LINE
  8
ADD_LINE
  6
DOT
 62
    7
 10
18913.290487753377
 20
8665.2042698215791
 11
18913.290487753377
 21
1195.20449251742
  0
LINE
  8
ADD_LINE
  6
DOT
 62
    7
 10
19169.926658836572
 20
8665.2042698215791
 11
19169.926658836572
 21
1195.20449251742
  0
LINE
  8
ADD_LINE
  6
DOT
 62
    7
 10
15097.398747624578
 20
8665.2042698215791
 11
15097.398747624578
 21
1195.20449251742
  0
LINE
  8
ADD_LINE
  6
DOT
 62
    7
 10
15297.398912584462
 20
8665.2042698215791
 11
15297.398912584462
 21
1195.20449251742
  0
LINE
  8
ADD_LINE
  6
DOT
 62
    7
 10
26476.839962521117
 20
7623.8131961307017
 11
14776.863716744088
 21
7623.8131961307017
  0
LINE
  8
ADD_LINE
  6
DOT
 62
    7
 10
17925.465186866557
 20
8665.2042698215791
 11
17925.465186866557
 21
1195.20449251742
  0
LINE
  8
_4-5_寸法
  6
CONTINUOUS
 62
    7
 10
23688.092700855152
 20
5761.1001916833829
 11
23800.592700855152
 21
5761.1001916833829
  0
LINE
  8
_4-5_寸法
  6
CONTINUOUS
 62
    7
 10
23500.5931957348
 20
5761.1001916833829
 11
23688.092700855152
 21
5761.1001916833829
  0
LINE
  8
_4-3______
  6
DASHED1
 62
    7
 10
22825.896062077703
 20
6234.6046241554059
 11
22858.33839210304
 21
6267.0476965002117
  0
LINE
  8
_4-3______
  6
DASHED1
 62
    7
 10
22830.007027290962
 20
6212.1991956556176
 11
22885.156909839527
 21
6267.3498205236492
  0
LINE
  8
_4-3______
  6
DASHED1
 62
    7
 10
22842.70217483108
 20
6198.3783206424205
 11
22911.674045872045
 21
6267.3498205236492
  0
LINE
  8
_4-3______
  6
DASHED1
 62
    7
 10
22863.190192145274
 20
6192.3499442435605
 11
22938.189697265625
 21
6267.3498205236492
  0
LINE
  8
_4-3______
  6
DASHED1
 62
    7
 10
22889.707328177788
 20
6192.3499442435605
 11
22964.706833298143
 21
6267.3498205236492
  0
LINE
  8
_4-3______
  6
DASHED1
 62
    7
 10
22866.842403927367
 20
6169.4857623126063
 11
22885.957130225932
 21
6188.6001174514358
  0
LINE
  8
_4-3______
  6
DASHED1
 62
    7
 10
22916.222979571368
 20
6192.3499442435605
 11
22991.223969330658
 21
6267.3498205236492
  0
LINE
  8
_4-3______
  6
DASHED1
 62
    7
 10
22866.842403927367
 20
6142.9693685995571
 11
22912.472781619512
 21
6188.6001174514358
  0
LINE
  8
_4-3______
  6
DASHED1
 62
    7
 10
22871.489323796453
 20
6121.0998947555963
 11
23017.739620724242
 21
6267.3498205236492
  0
LINE
  8
_4-3______
  6
DASHED1
 62
    7
 10
22898.006459828972
 20
6121.0998947555963
 11
23044.25675675676
 21
6267.3498205236492
  0
LINE
  8
_4-3______
  6
DASHED1
 62
    7
 10
22924.523595861487
 20
6121.0998947555963
 11
23070.772408150337
 21
6267.3498205236492
  0
LINE
  8
_4-3______
  6
DASHED1
 62
    7
 10
22951.03924725507
 20
6121.0998947555963
 11
23097.289544182855
 21
6267.3498205236492
  0
LINE
  8
_4-3______
  6
DASHED1
 62
    7
 10
22977.556383287585
 20
6121.0998947555963
 11
23123.805195576439
 21
6267.3498205236492
  0
LINE
  8
_4-3______
  6
DASHED1
 62
    7
 10
23004.072034681165
 20
6121.0998947555963
 11
23150.322331608953
 21
6267.3498205236492
  0
LINE
  8
_4-3______
  6
DASHED1
 62
    7
 10
23030.589170713683
 20
6121.0998947555963
 11
23176.839467641472
 21
6267.3498205236492
  0
LINE
  8
_4-3______
  6
DASHED1
 62
    7
 10
23128.355613914697
 20
6192.3499442435605
 11
23203.260102143158
 21
6267.2548036317567
  0
LINE
  8
_4-3______
  6
DASHED1
 62
    7
 10
23057.104822107267
 20
6121.0998947555963
 11
23125.592700855152
 21
6189.58740234375
  0
LINE
  8
_4-3______
  6
DASHED1
 62
    7
 10
23154.871265308277
 20
6192.3499442435605
 11
23222.677694784627
 21
6260.156744879645
  0
LINE
  8
_4-3______
  6
DASHED1
 62
    7
 10
23083.621958139782
 20
6121.0998947555963
 11
23151.122551995355
 21
6188.6001174514358
  0
LINE
  8
_4-3______
  6
DASHED1
 62
    7
 10
23181.388401340795
 20
6192.3499442435605
 11
23234.629038217907
 21
6245.5909522804059
  0
LINE
  8
_4-3______
  6
DASHED1
 62
    7
 10
23110.1390941723
 20
6121.0998947555963
 11
23177.638203388939
 21
6188.6001174514358
  0
LINE
  8
_4-3______
  6
DASHED1
 62
    7
 10
23208.818590318835
 20
6193.2633683488184
 11
23237.179647909627
 21
6221.6247970993463
  0
LINE
  8
_4-3______
  6
DASHED1
 62
    7
 10
23136.654745565877
 20
6121.0998947555963
 11
23196.843492662585
 21
6181.2878995328338
  0
LINE
  8
_4-3______
  6
DASHED1
 62
    7
 10
23163.171881598399
 20
6121.0998947555963
 11
23196.843492662585
 21
6154.7715058197855
  0
LINE
  8
_4-3______
  6
DASHED1
 62
    7
 10
23189.687532991979
 20
6121.0998947555963
 11
23196.843492662585
 21
6128.2547409470026
  0
LINE
  8
_4-1______
  6
CONTINUOUS
 62
    7
 10
22938.0931957348
 20
6188.6001174514358
 11
22938.0931957348
 21
6192.3499442435605
  0
LINE
  8
_4-1______
  6
CONTINUOUS
 62
    7
 10
23125.592700855152
 20
6188.6001174514358
 11
23125.592700855152
 21
6192.3499442435605
  0
LINE
  8
_4-1______
  6
CONTINUOUS
 62
    7
 10
22866.842403927367
 20
6121.0998947555963
 11
22866.842403927367
 21
6188.6001174514358
  0
LINE
  8
_4-1______
  6
CONTINUOUS
 62
    7
 10
22863.09220597551
 20
6117.3500679634717
 11
22863.09220597551
 21
6192.3499442435605
  0
LINE
  8
_4-1______
  6
CONTINUOUS
 62
    7
 10
22938.0931957348
 20
6188.6001174514358
 11
22866.842403927367
 21
6188.6001174514358
  0
LINE
  8
_4-1______
  6
CONTINUOUS
 62
    7
 10
22938.0931957348
 20
6192.3499442435605
 11
22863.09220597551
 21
6192.3499442435605
  0
LINE
  8
_4-1______
  6
CONTINUOUS
 62
    7
 10
23196.843492662585
 20
6121.0998947555963
 11
22866.842403927367
 21
6121.0998947555963
  0
LINE
  8
_4-1______
  6
CONTINUOUS
 62
    7
 10
23200.59220597551
 20
6117.3500679634717
 11
22863.09220597551
 21
6117.3500679634717
  0
LINE
  8
_4-1______
  6
CONTINUOUS
 62
    7
 10
23196.843492662585
 20
6188.6001174514358
 11
23196.843492662585
 21
6121.0998947555963
  0
LINE
  8
_4-1______
  6
CONTINUOUS
 62
    7
 10
23200.59220597551
 20
6192.3499442435605
 11
23200.59220597551
 21
6117.3500679634717
  0
LINE
  8
_4-1______
  6
CONTINUOUS
 62
    7
 10
23125.592700855152
 20
6188.6001174514358
 11
23196.843492662585
 21
6188.6001174514358
  0
LINE
  8
_4-1______
  6
CONTINUOUS
 62
    7
 10
23125.592700855152
 20
6192.3499442435605
 11
23200.59220597551
 21
6192.3499442435605
  0
LINE
  8
_4-3______
  6
CENTER1
 62
    7
 10
21906.84220597551
 20
6347.2419532569684
 11
21906.84220597551
 21
5902.5721781962629
  0
LINE
  8
_4-3______
  6
DASHED1
 62
    7
 10
21696.38572899071
 20
6234.6046241554059
 11
21728.828059016047
 21
6267.0476965002117
  0
LINE
  8
_4-3______
  6
DASHED1
 62
    7
 10
21700.496694203972
 20
6212.1991956556176
 11
21755.648061391472
 21
6267.3498205236492
  0
LINE
  8
_4-3______
  6
DASHED1
 62
    7
 10
21713.193326383025
 20
6198.3783206424205
 11
21782.163712785052
 21
6267.3498205236492
  0
LINE
  8
_4-3______
  6
DASHED1
 62
    7
 10
21733.681343697212
 20
6192.3499442435605
 11
21808.68084881757
 21
6267.3498205236492
  0
LINE
  8
_4-3______
  6
DASHED1
 62
    7
 10
21760.196995090795
 20
6192.3499442435605
 11
21835.197984850085
 21
6267.3498205236492
  0
LINE
  8
_4-3______
  6
DASHED1
 62
    7
 10
21737.333555479308
 20
6169.4857623126063
 11
21756.446797138939
 21
6188.6001174514358
  0
LINE
  8
_4-3______
  6
DASHED1
 62
    7
 10
21786.714131123314
 20
6192.3499442435605
 11
21861.713636243665
 21
6267.3498205236492
  0
LINE
  8
_4-3______
  6
DASHED1
 62
    7
 10
21737.333555479308
 20
6142.9693685995571
 11
21782.963933171453
 21
6188.6001174514358
  0
LINE
  8
_4-3______
  6
DASHED1
 62
    7
 10
21741.980475348399
 20
6121.0998947555963
 11
21888.230772276183
 21
6267.3498205236492
  0
LINE
  8
_4-3______
  6
DASHED1
 62
    7
 10
21768.497611380913
 20
6121.0998947555963
 11
21914.746423669767
 21
6267.3498205236492
  0
LINE
  8
_4-3______
  6
DASHED1
 62
    7
 10
21795.013262774493
 20
6121.0998947555963
 11
21941.263559702282
 21
6267.3498205236492
  0
LINE
  8
_4-3______
  6
DASHED1
 62
    7
 10
21821.530398807012
 20
6121.0998947555963
 11
21967.779211095862
 21
6267.3498205236492
  0
LINE
  8
_4-3______
  6
DASHED1
 62
    7
 10
21848.046050200595
 20
6121.0998947555963
 11
21994.296347128377
 21
6267.3498205236492
  0
LINE
  8
_4-3______
  6
DASHED1
 62
    7
 10
21874.56318623311
 20
6121.0998947555963
 11
22020.813483160899
 21
6267.3498205236492
  0
LINE
  8
_4-3______
  6
DASHED1
 62
    7
 10
21901.07883762669
 20
6121.0998947555963
 11
22047.329134554479
 21
6267.3498205236492
  0
LINE
  8
_4-3______
  6
DASHED1
 62
    7
 10
21998.845280827703
 20
6192.3499442435605
 11
22073.751253695104
 21
6267.2548036317567
  0
LINE
  8
_4-3______
  6
DASHED1
 62
    7
 10
21927.595973659205
 20
6121.0998947555963
 11
21996.083852407097
 21
6189.58740234375
  0
LINE
  8
_4-3______
  6
DASHED1
 62
    7
 10
22025.362416860222
 20
6192.3499442435605
 11
22093.168846336572
 21
6260.156744879645
  0
LINE
  8
_4-3______
  6
DASHED1
 62
    7
 10
21954.113109691723
 20
6121.0998947555963
 11
22021.612218908362
 21
6188.6001174514358
  0
LINE
  8
_4-3______
  6
DASHED1
 62
    7
 10
22051.879552892737
 20
6192.3499442435605
 11
22105.120189769848
 21
6245.5909522804059
  0
LINE
  8
_4-3______
  6
DASHED1
 62
    7
 10
21980.628761085307
 20
6121.0998947555963
 11
22048.129354940877
 21
6188.6001174514358
  0
LINE
  8
_4-3______
  6
DASHED1
 62
    7
 10
22079.308257231845
 20
6193.2633683488184
 11
22107.670799461572
 21
6221.6247970993463
  0
LINE
  8
_4-3______
  6
DASHED1
 62
    7
 10
22007.145897117822
 20
6121.0998947555963
 11
22067.333159575595
 21
6181.2878995328338
  0
LINE
  8
_4-3______
  6
DASHED1
 62
    7
 10
22033.661548511402
 20
6121.0998947555963
 11
22067.333159575595
 21
6154.7715058197855
  0
LINE
  8
_4-3______
  6
DASHED1
 62
    7
 10
22060.17868454392
 20
6121.0998947555963
 11
22067.333159575595
 21
6128.2547409470026
  0
LINE
  8
_4-1______
  6
CONTINUOUS
 62
    7
 10
21808.582862647807
 20
6188.6001174514358
 11
21808.582862647807
 21
6192.3499442435605
  0
LINE
  8
_4-1______
  6
CONTINUOUS
 62
    7
 10
21996.083852407097
 20
6188.6001174514358
 11
21996.083852407097
 21
6192.3499442435605
  0
LINE
  8
_4-1______
  6
CONTINUOUS
 62
    7
 10
21737.333555479308
 20
6121.0998947555963
 11
21737.333555479308
 21
6188.6001174514358
  0
LINE
  8
_4-1______
  6
CONTINUOUS
 62
    7
 10
21733.583357527452
 20
6117.3500679634717
 11
21733.583357527452
 21
6192.3499442435605
  0
LINE
  8
_4-1______
  6
CONTINUOUS
 62
    7
 10
21808.582862647807
 20
6188.6001174514358
 11
21737.333555479308
 21
6188.6001174514358
  0
LINE
  8
_4-1______
  6
CONTINUOUS
 62
    7
 10
21808.582862647807
 20
6192.3499442435605
 11
21733.583357527452
 21
6192.3499442435605
  0
LINE
  8
_4-1______
  6
CONTINUOUS
 62
    7
 10
22067.333159575595
 20
6121.0998947555963
 11
21737.333555479308
 21
6121.0998947555963
  0
LINE
  8
_4-1______
  6
CONTINUOUS
 62
    7
 10
22071.083357527452
 20
6117.3500679634717
 11
21733.583357527452
 21
6117.3500679634717
  0
LINE
  8
_4-1______
  6
CONTINUOUS
 62
    7
 10
22067.333159575595
 20
6188.6001174514358
 11
22067.333159575595
 21
6121.0998947555963
  0
LINE
  8
_4-1______
  6
CONTINUOUS
 62
    7
 10
22071.083357527452
 20
6192.3499442435605
 11
22071.083357527452
 21
6117.3500679634717
  0
LINE
  8
_4-1______
  6
CONTINUOUS
 62
    7
 10
21996.083852407097
 20
6188.6001174514358
 11
22067.333159575595
 21
6188.6001174514358
  0
LINE
  8
_4-1______
  6
CONTINUOUS
 62
    7
 10
21996.083852407097
 20
6192.3499442435605
 11
22071.083357527452
 21
6192.3499442435605
  0
LINE
  8
_4-5_寸法
  6
CONTINUOUS
 62
    7
 10
23313.09220597551
 20
6023.5999442435605
 11
23313.09220597551
 21
5948.6000679634717
  0
LINE
  8
_4-5_寸法
  6
CONTINUOUS
 62
    7
 10
23313.09220597551
 20
6023.5999442435605
 11
23425.59220597551
 21
6023.5999442435605
  0
LINE
  8
_4-5_寸法
  6
CONTINUOUS
 62
    7
 10
23313.09220597551
 20
5948.6000679634717
 11
23425.59220597551
 21
5948.6000679634717
  0
LINE
  8
_4-5_寸法
  6
CONTINUOUS
 62
    7
 10
23500.5931957348
 20
5761.1001916833829
 11
23500.5931957348
 21
5873.6001916833829
  0
LINE
  8
_4-5_寸法
  6
CONTINUOUS
 62
    7
 10
23688.092700855152
 20
5761.1001916833829
 11
23688.092700855152
 21
5873.6001916833829
  0
LINE
  8
_4-5_寸法
  6
CONTINUOUS
 62
    7
 10
23800.592700855152
 20
5761.1001916833829
 11
23800.592700855152
 21
6436.0998205236492
  0
LINE
  8
_4-5_寸法
  6
CONTINUOUS
 62
    7
 10
23575.592700855152
 20
7223.5998205236492
 11
23800.592700855152
 21
7223.5998205236492
  0
LINE
  8
_4-5_寸法
  6
CONTINUOUS
 62
    7
 10
23575.592700855152
 20
7223.5998205236492
 11
23575.592700855152
 21
7111.0998205236492
  0
LINE
  8
_4-5_寸法
  6
CONTINUOUS
 62
    7
 10
23800.592700855152
 20
7223.5998205236492
 11
23800.592700855152
 21
7111.0998205236492
  0
LINE
  8
_4-5_寸法
  6
CONTINUOUS
 62
    7
 10
23988.09220597551
 20
7036.1003154032942
 11
23988.09220597551
 21
6773.5998205236492
  0
LINE
  8
_4-5_寸法
  6
CONTINUOUS
 62
    7
 10
23988.09220597551
 20
7036.1003154032942
 11
23875.59220597551
 21
7036.1003154032942
  0
LINE
  8
_4-5_寸法
  6
CONTINUOUS
 62
    7
 10
23988.09220597551
 20
6773.5998205236492
 11
23875.59220597551
 21
6773.5998205236492
  0
LINE
  8
_4-5_寸法
  6
CONTINUOUS
 62
    7
 10
23988.09220597551
 20
6773.5998205236492
 11
23988.09220597551
 21
6511.1000679634717
  0
LINE
  8
_4-5_寸法
  6
CONTINUOUS
 62
    7
 10
23988.09220597551
 20
6511.1000679634717
 11
23875.59220597551
 21
6511.1000679634717
  0
LINE
  8
_4-5_寸法
  6
CONTINUOUS
 62
    7
 10
24100.59220597551
 20
7036.1003154032942
 11
24100.59220597551
 21
6511.1000679634717
  0
LINE
  8
_4-5_寸法
  6
CONTINUOUS
 62
    7
 10
24100.59220597551
 20
7036.1003154032942
 11
23988.09220597551
 21
7036.1003154032942
  0
LINE
  8
_4-5_寸法
  6
CONTINUOUS
 62
    7
 10
24100.59220597551
 20
6511.1000679634717
 11
23988.09220597551
 21
6511.1000679634717
  0
LINE
  8
_4-5_寸法
  6
CENTER1
 62
    7
 10
23575.592700855152
 20
6773.5998205236492
 11
23800.592700855152
 21
6773.5998205236492
  0
LINE
  8
_4-6_文字
  6
CONTINUOUS
 62
    7
 10
22194.825043549408
 20
5700.3914497994092
 11
22644.825043549408
 21
5700.3914497994092
  0
LINE
  8
_4-6_文字
  6
CONTINUOUS
 62
    7
 10
22243.669664537585
 20
5847.5796673748946
 11
22543.670654296875
 21
5847.5796673748946
  0
LINE
  8
_4-6_文字
  6
CONTINUOUS
 62
    7
 10
22069.039009712837
 20
6150.0484982052367
 11
22243.669664537585
 21
5847.5796673748946
  0
LINE
  8
_4-6_文字
  6
CONTINUOUS
 62
    7
 10
22194.825043549408
 20
5700.3914497994092
 11
22020.427477037585
 21
6222.7616593644434
  0
LINE
  8
_4-6_文字
  6
CONTINUOUS
 62
    7
 10
23903.066934121623
 20
6105.0012124551313
 11
24263.066637193835
 21
6105.0012124551313
  0
LINE
  8
_4-6_文字
  6
CONTINUOUS
 62
    7
 10
23710.066841744087
 20
6518.512870169975
 11
23903.066934121623
 21
6105.0012124551313
  0
LINE
  8
_4-6_文字
  6
CONTINUOUS
 62
    7
 10
23657.034054317992
 20
6219.7511827623521
 11
23873.178183065877
 21
5845.3801747914904
  0
LINE
  8
_4-6_文字
  6
CONTINUOUS
 62
    7
 10
23873.178183065877
 20
5845.3801747914904
 11
23993.177094330658
 21
5845.3801747914904
  0
LINE
  8
_4-8_開口
  6
CONTINUOUS
 62
    7
 10
23501.369661898229
 20
6117.3500679634717
 11
23688.092700855152
 21
6304.073849239865
  0
LINE
  8
_4-8_開口
  6
CONTINUOUS
 62
    7
 10
23650.816386454815
 20
5948.6000679634717
 11
23688.092700855152
 21
5985.8756400443417
  0
LINE
  8
_4-8_開口
  6
CONTINUOUS
 62
    7
 10
23544.750811602618
 20
5948.6000679634717
 11
23688.092700855152
 21
6091.9415860562713
  0
LINE
  8
_4-8_開口
  6
CONTINUOUS
 62
    7
 10
23538.09220597551
 20
6048.0077795080242
 11
23688.092700855152
 21
6198.0075320682017
  0
LINE
  8
_4-8_開口
  6
CONTINUOUS
 62
    7
 10
23500.5931957348
 20
6222.639547811973
 11
23688.092700855152
 21
6410.1394240920608
  0
LINE
  8
_4-8_開口
  6
CONTINUOUS
 62
    7
 10
23635.592898807012
 20
6526.1001174514358
 11
23635.592898807012
 21
7021.1002659153301
  0
LINE
  8
_4-8_開口
  6
CONTINUOUS
 62
    7
 10
23646.843492662585
 20
6526.1001174514358
 11
23646.843492662585
 21
7021.1002659153301
  0
LINE
  8
_4-8_開口
  6
CONTINUOUS
 62
    7
 10
23575.592700855152
 20
6601.1003648912583
 11
23590.593492662585
 21
6601.1003648912583
  0
LINE
  8
_4-8_開口
  6
CONTINUOUS
 62
    7
 10
23590.593492662585
 20
6526.1001174514358
 11
23590.593492662585
 21
6601.1003648912583
  0
LINE
  8
_4-8_開口
  6
CONTINUOUS
 62
    7
 10
23575.592700855152
 20
6511.1000679634717
 11
23575.592700855152
 21
6601.1003648912583
  0
LINE
  8
_4-8_開口
  6
CONTINUOUS
 62
    7
 10
23590.593492662585
 20
6961.1000679634717
 11
23575.592700855152
 21
6961.1000679634717
  0
LINE
  8
_4-8_開口
  6
CONTINUOUS
 62
    7
 10
23575.592700855152
 20
7036.1003154032942
 11
23575.592700855152
 21
6961.1000679634717
  0
LINE
  8
_4-8_開口
  6
CONTINUOUS
 62
    7
 10
23590.593492662585
 20
7021.1002659153301
 11
23590.593492662585
 21
6961.1000679634717
  0
LINE
  8
_4-8_開口
  6
CONTINUOUS
 62
    7
 10
23590.593492662585
 20
6526.1001174514358
 11
23800.592700855152
 21
6526.1001174514358
  0
LINE
  8
_4-8_開口
  6
CONTINUOUS
 62
    7
 10
23590.593492662585
 20
7021.1002659153301
 11
23800.592700855152
 21
7021.1002659153301
  0
LINE
  8
_4-8_開口
  6
CONTINUOUS
 62
    7
 10
23575.592700855152
 20
7036.1003154032942
 11
23800.592700855152
 21
7036.1003154032942
  0
LINE
  8
_4-8_開口
  6
CONTINUOUS
 62
    7
 10
23800.592700855152
 20
7021.1002659153301
 11
23800.592700855152
 21
7036.1003154032942
  0
LINE
  8
_4-8_開口
  6
CONTINUOUS
 62
    7
 10
23800.592700855152
 20
6511.1000679634717
 11
23800.592700855152
 21
6526.1001174514358
  0
LINE
  8
_4-8_開口
  6
CONTINUOUS
 62
    7
 10
23800.592700855152
 20
6511.1000679634717
 11
23575.592700855152
 21
6511.1000679634717
  0
LINE
  8
_4-8_開口
  6
CONTINUOUS
 62
    7
 10
23500.5931957348
 20
5948.6000679634717
 11
23500.5931957348
 21
6023.5999442435605
  0
LINE
  8
_4-8_開口
  6
CONTINUOUS
 62
    7
 10
23688.092700855152
 20
6511.1000679634717
 11
23500.5931957348
 21
6511.1000679634717
  0
LINE
  8
_4-8_開口
  6
CONTINUOUS
 62
    7
 10
23576.921452702703
 20
6511.1000679634717
 11
23500.5931957348
 21
6434.7718109955667
  0
LINE
  8
_4-8_開口
  6
CONTINUOUS
 62
    7
 10
23682.9870275549
 20
6511.1000679634717
 11
23500.5931957348
 21
6328.7054938239025
  0
LINE
  8
_4-8_開口
  6
CONTINUOUS
 62
    7
 10
23500.5931957348
 20
6117.3500679634717
 11
23500.5931957348
 21
6511.1000679634717
  0
LINE
  8
_4-8_開口
  6
CONTINUOUS
 62
    7
 10
23688.092700855152
 20
5948.6000679634717
 11
23688.092700855152
 21
6511.1000679634717
  0
LINE
  8
_4-8_開口
  6
CONTINUOUS
 62
    7
 10
23500.5931957348
 20
5948.6000679634717
 11
23688.092700855152
 21
5948.6000679634717
  0
LINE
  8
_4-7_躯体
  6
CONTINUOUS
 62
    7
 10
21550.592700855152
 20
7112.1331292229734
 11
21643.309887035473
 21
7204.8503154032942
  0
LINE
  8
_4-7_躯体
  6
CONTINUOUS
 62
    7
 10
21550.592700855152
 20
7154.5596560916392
 11
21600.883360166808
 21
7204.8503154032942
  0
LINE
  8
_4-7_躯体
  6
CONTINUOUS
 62
    7
 10
21550.592700855152
 20
7196.9861829603051
 11
21558.456833298143
 21
7204.8503154032942
  0
LINE
  8
_4-7_躯体
  6
CONTINUOUS
 62
    7
 10
23166.54052734375
 20
6267.3498205236492
 11
23350.592700855152
 21
6451.4019940350508
  0
LINE
  8
_4-7_躯体
  6
CONTINUOUS
 62
    7
 10
23350.592700855152
 20
6379.8498205236492
 11
23350.592700855152
 21
7204.8503154032942
  0
LINE
  8
_4-7_躯体
  6
CONTINUOUS
 62
    7
 10
23208.967054212415
 20
6267.3498205236492
 11
23350.592700855152
 21
6408.975467166385
  0
LINE
  8
_4-7_躯体
  6
CONTINUOUS
 62
    7
 10
23350.592700855152
 20
6379.8498205236492
 11
23238.092700855152
 21
6267.3498205236492
  0
LINE
  8
_4-7_躯体
  6
CONTINUOUS
 62
    7
 10
23238.092700855152
 20
6267.3498205236492
 11
21550.592700855152
 21
6267.3498205236492
  0
LINE
  8
_4-7_躯体
  6
CONTINUOUS
 62
    7
 10
21550.592700855152
 20
6306.0313456767317
 11
22449.410928262248
 21
7204.8503154032942
  0
LINE
  8
_4-7_躯体
  6
CONTINUOUS
 62
    7
 10
21554.336960251268
 20
6267.3498205236492
 11
22491.837455130913
 21
7204.8503154032942
  0
LINE
  8
_4-7_躯体
  6
CONTINUOUS
 62
    7
 10
21550.592700855152
 20
6348.4578725453975
 11
22406.98440139358
 21
7204.8503154032942
  0
LINE
  8
_4-7_躯体
  6
CONTINUOUS
 62
    7
 10
22318.012959248314
 20
6267.3498205236492
 11
23255.513454127955
 21
7204.8503154032942
  0
LINE
  8
_4-7_躯体
  6
CONTINUOUS
 62
    7
 10
22402.866012985643
 20
6267.3498205236492
 11
23340.366507865288
 21
7204.8503154032942
  0
LINE
  8
_4-7_躯体
  6
CONTINUOUS
 62
    7
 10
22360.439486116979
 20
6267.3498205236492
 11
23297.939980996623
 21
7204.8503154032942
  0
LINE
  8
_4-4______
  6
CONTINUOUS
 62
    7
 10
21550.592700855152
 20
6117.3500679634717
 11
23538.09220597551
 21
6117.3500679634717
  0
LINE
  8
_4-4______
  6
CONTINUOUS
 62
    7
 10
21550.592700855152
 20
6023.5999442435605
 11
23538.09220597551
 21
6023.5999442435605
  0
LINE
  8
_4-4______
  6
CONTINUOUS
 62
    7
 10
23538.09220597551
 20
6023.5999442435605
 11
23538.09220597551
 21
6117.3500679634717
  0
LINE
  8
_4-5_寸法
  6
CONTINUOUS
 62
    7
 10
21421.05053051098
 20
6267.3498205236492
 11
21499.037129170189
 21
6267.3498205236492
  0
LINE
  8
_4-5_寸法
  6
CONTINUOUS
 62
    7
 10
21318.439710462415
 20
6267.3498205236492
 11
21421.05053051098
 21
6267.3498205236492
  0
LINE
  8
_4-5_寸法
  6
CONTINUOUS
 62
    7
 10
21421.05053051098
 20
6192.3499442435605
 11
21499.037129170189
 21
6192.3499442435605
  0
LINE
  8
_4-5_寸法
  6
CONTINUOUS
 62
    7
 10
21318.439710462415
 20
6117.3500679634717
 11
21499.037129170189
 21
6117.3500679634717
  0
LINE
  8
_4-5_寸法
  6
CONTINUOUS
 62
    7
 10
21318.439710462415
 20
6267.3498205236492
 11
21318.439710462415
 21
6117.3500679634717
  0
LINE
  8
_4-5_寸法
  6
CONTINUOUS
 62
    7
 10
21318.439710462415
 20
6117.3500679634717
 11
21318.439710462415
 21
6023.5999442435605
  0
LINE
  8
_4-5_寸法
  6
CONTINUOUS
 62
    7
 10
21318.439710462415
 20
6023.5999442435605
 11
21499.037129170189
 21
6023.5999442435605
  0
LINE
  8
_4-5_寸法
  6
CONTINUOUS
 62
    7
 10
21421.05053051098
 20
6267.3498205236492
 11
21421.05053051098
 21
6192.3499442435605
  0
LINE
  8
_4-5_寸法
  6
CONTINUOUS
 62
    7
 10
21421.05053051098
 20
6192.3499442435605
 11
21421.05053051098
 21
6117.3500679634717
  0
LINE
  8
_4-3______
  6
CENTER1
 62
    7
 10
23031.84220597551
 20
6347.2419532569684
 11
23031.84220597551
 21
5902.5721781962629
  0
LINE
  8
_5-0_____
  6
CONTINUOUS
 62
    7
 10
11443.201260953338
 20
6656.9836590741133
 11
11443.201260953338
 21
6431.9836590741133
  0
LINE
  8
_5-0_____
  6
CONTINUOUS
 62
    7
 10
11443.201260953338
 20
6431.9836590741133
 11
11529.451359929266
 21
6431.9836590741133
  0
LINE
  8
_5-0_____
  6
CONTINUOUS
 62
    7
 10
11529.451359929266
 20
6431.9836590741133
 11
11529.451359929266
 21
6581.9834116342909
  0
LINE
  8
_5-0_____
  6
CONTINUOUS
 62
    7
 10
11525.701904296875
 20
6581.9834116342909
 11
11525.701904296875
 21
6435.7338570259717
  0
LINE
  8
_5-0_____
  6
CONTINUOUS
 62
    7
 10
11525.701904296875
 20
6435.7338570259717
 11
11446.951458905196
 21
6435.7338570259717
  0
LINE
  8
_5-0_____
  6
CONTINUOUS
 62
    7
 10
11446.951458905196
 20
6435.7338570259717
 11
11446.951458905196
 21
6656.9836590741133
  0
LINE
  8
_5-0_____
  6
CONTINUOUS
 62
    7
 10
11443.201260953338
 20
6656.9836590741133
 11
11446.951458905196
 21
6656.9836590741133
  0
LINE
  8
_5-0_____
  6
CONTINUOUS
 62
    7
 10
11525.701904296875
 20
6581.9834116342909
 11
11529.451359929266
 21
6581.9834116342909
  0
LINE
  8
_5-6_文字
  6
CONTINUOUS
 62
    7
 10
11602.787327122043
 20
6871.3714599609375
 11
11884.613367029138
 21
6871.3714599609375
  0
LINE
  8
_5-6_文字
  6
CONTINUOUS
 62
    7
 10
11602.787327122043
 20
6871.3714599609375
 11
11489.641509184967
 21
6735.2894551045192
  0
LINE
  8
_5-6_文字
  6
CONTINUOUS
 62
    7
 10
11621.648180162585
 20
6550.7339889938776
 11
11931.657120988177
 21
6550.7339889938776
  0
LINE
  8
_5-6_文字
  6
CONTINUOUS
 62
    7
 10
11621.648180162585
 20
6550.7339889938776
 11
11525.330744562923
 21
6448.2196704761409
  0
LINE
  8
_5-5_寸法
  6
CONTINUOUS
 62
    7
 10
11521.951706345017
 20
6130.7233243375213
 11
11521.951706345017
 21
6387.9715378220026
  0
LINE
  8
_5-5_寸法
  6
CONTINUOUS
 62
    7
 10
11371.951953784841
 20
6130.7233243375213
 11
11371.951953784841
 21
6387.9715378220026
  0
LINE
  8
_5-5_寸法
  6
CONTINUOUS
 62
    7
 10
11521.951706345017
 20
6130.7233243375213
 11
11371.951953784841
 21
6130.7233243375213
  0
LINE
  8
_5-7_躯体
  6
CONTINUOUS
 62
    7
 10
11020.831876187711
 20
6387.7763078019434
 11
11371.951953784841
 21
6738.8963853990708
  0
LINE
  8
_5-7_躯体
  6
CONTINUOUS
 62
    7
 10
11020.831876187711
 20
6358.8095175253384
 11
11371.951953784841
 21
6709.9295951224667
  0
LINE
  8
_5-7_躯体
  6
CONTINUOUS
 62
    7
 10
11020.831876187711
 20
6332.1595063080667
 11
11371.951953784841
 21
6683.2795839051942
  0
LINE
  8
_5-7_躯体
  6
CONTINUOUS
 62
    7
 10
11020.831876187711
 20
7007.0437044710725
 11
11020.831876187711
 21
6135.5595356709255
  0
LINE
  8
_5-7_躯体
  6
CONTINUOUS
 62
    7
 10
11371.951953784841
 20
7168.1574641047309
 11
11371.951953784841
 21
6431.9836590741133
  0
LINE
  8
_5-7_躯体
  6
CONTINUOUS
 62
    7
 10
11371.951953784841
 20
6431.9836590741133
 11
12016.899892446158
 21
6431.9836590741133
  0
LINE
  8
_5-7_躯体
  6
CONTINUOUS
 62
    7
 10
11401.232002876901
 20
5972.159060916385
 11
11861.05660103463
 21
6431.9836590741133
  0
LINE
  8
_5-7_躯体
  6
CONTINUOUS
 62
    7
 10
11432.088738518793
 20
5971.3027954101562
 11
11892.769231023016
 21
6431.9836590741133
  0
LINE
  8
_5-7_躯体
  6
CONTINUOUS
 62
    7
 10
11467.413495038008
 20
5972.2722646352404
 11
11927.125260636614
 21
6431.9836590741133
  0
LINE
  8
_5-1______
  6
CONTINUOUS
 62
    7
 10
11446.951458905196
 20
7171.1460422825176
 11
11446.951458905196
 21
6473.2336095861492
  0
LINE
  8
_5-1______
  6
CONTINUOUS
 62
    7
 10
11521.951706345017
 20
7164.71607105152
 11
11521.951706345017
 21
6473.2336095861492
  0
LINE
  8
_5-1______
  6
CONTINUOUS
 62
    7
 10
11521.951706345017
 20
6473.2336095861492
 11
11446.951458905196
 21
6473.2336095861492
  0
LINE
  8
_5-0_____
  6
LONG3
 62
    7
 10
10037.163564321158
 20
6862.9684035842483
 11
10112.16381176098
 21
6862.9684035842483
  0
LINE
  8
_5-0_____
  6
LONG3
 62
    7
 10
10037.163564321158
 20
6279.6344653980159
 11
10112.16381176098
 21
6279.6344653980159
  0
LINE
  8
_5-6_文字
  6
CONTINUOUS
 62
    7
 10
10176.610503325592
 20
6988.4946256070525
 11
10002.145385742187
 21
6772.7721343169342
  0
LINE
  8
_5-6_文字
  6
CONTINUOUS
 62
    7
 10
10144.156296188767
 20
6334.6284608583192
 11
10006.14277607686
 21
6539.386893607475
  0
LINE
  8
_5-6_文字
  6
CONTINUOUS
 62
    7
 10
10506.610107421875
 20
6988.4946256070525
 11
10176.610503325592
 21
6988.4946256070525
  0
LINE
  8
_5-6_文字
  6
CONTINUOUS
 62
    7
 10
10144.156296188767
 20
6334.6284608583192
 11
10594.156296188767
 21
6334.6284608583192
  0
LINE
  8
_5-5_寸法
  6
CONTINUOUS
 62
    7
 10
10378.038890941723
 20
6646.3016819309551
 11
10197.964807458826
 21
6646.3016819309551
  0
LINE
  8
_5-5_寸法
  6
CONTINUOUS
 62
    7
 10
10378.038890941723
 20
6487.9679087046034
 11
10378.038890941723
 21
6646.3016819309551
  0
LINE
  8
_5-5_寸法
  6
CONTINUOUS
 62
    7
 10
10378.038890941723
 20
6496.3019293707775
 11
10197.964807458826
 21
6496.3019293707775
  0
LINE
  8
_5-5_寸法
  6
CENTER1
 62
    7
 10
10197.964807458826
 20
6496.3019293707775
 11
10037.163564321158
 21
6496.3019293707775
  0
LINE
  8
_5-5_寸法
  6
CENTER1
 62
    7
 10
10197.964807458826
 20
6646.3016819309551
 11
10037.163564321158
 21
6646.3016819309551
  0
LINE
  8
_5-7_躯体
  6
CONTINUOUS
 62
    7
 10
9624.6640592008025
 20
7067.3801731418926
 11
9624.6640592008025
 21
6075.2230670001063
  0
LINE
  8
_5-7_躯体
  6
CONTINUOUS
 62
    7
 10
9624.6640592008025
 20
6478.582763671875
 11
9962.1640592008025
 21
6816.082763671875
  0
LINE
  8
_5-7_躯体
  6
CONTINUOUS
 62
    7
 10
9624.6640592008025
 20
6449.6152310758025
 11
9962.1640592008025
 21
6787.1152310758025
  0
LINE
  8
_5-7_躯体
  6
CONTINUOUS
 62
    7
 10
9624.6640592008025
 20
6422.9652198585309
 11
9962.1640592008025
 21
6760.4652198585309
  0
LINE
  8
_5-7_躯体
  6
CONTINUOUS
 62
    7
 10
9962.1640592008025
 20
7171.3019293707775
 11
9962.1640592008025
 21
5971.3016819309551
  0
LINE
  8
_5-2_______
  6
CONTINUOUS
 62
    7
 10
9962.1640592008025
 20
6496.3019293707775
 11
10037.163564321158
 21
6496.3019293707775
  0
LINE
  8
_5-2_______
  6
CONTINUOUS
 62
    7
 10
9962.1640592008025
 20
6646.3016819309551
 11
10037.163564321158
 21
6646.3016819309551
  0
LINE
  8
_5-2_______
  6
DASHED2
 62
    7
 10
10032.446124102618
 20
6279.6344653980159
 11
10036.783496753591
 21
6283.9718380489867
  0
LINE
  8
_5-2_______
  6
DASHED2
 62
    7
 10
10032.446124102618
 20
6279.6344653980159
 11
10036.783496753591
 21
6283.9718380489867
  0
LINE
  8
_5-2_______
  6
CONTINUOUS
 62
    7
 10
10037.163564321158
 20
6908.8014344911317
 11
9962.1640592008025
 21
6908.8014344911317
  0
LINE
  8
_5-2_______
  6
CONTINUOUS
 62
    7
 10
10037.163564321158
 20
6233.8014344911317
 11
9962.1640592008025
 21
6233.8014344911317
  0
LINE
  8
_5-2_______
  6
DASHED1
 62
    7
 10
10032.282071500211
 20
6646.3016819309551
 11
10037.163564321158
 21
6651.1831747519009
  0
LINE
  8
_5-2_______
  6
DASHED1
 62
    7
 10
9989.8555446315477
 20
6646.3016819309551
 11
10037.163564321158
 21
6693.6097016205667
  0
LINE
  8
_5-2_______
  6
DASHED1
 62
    7
 10
9962.1640592008025
 20
6661.0359810494092
 11
10037.163564321158
 21
6736.0362284892317
  0
LINE
  8
_5-2_______
  6
DASHED1
 62
    7
 10
9962.1640592008025
 20
6703.4625079180751
 11
10037.163564321158
 21
6778.4620130384301
  0
LINE
  8
_5-2_______
  6
DASHED1
 62
    7
 10
9962.1640592008025
 20
6745.88903478674
 11
10037.163564321158
 21
6820.888539907095
  0
LINE
  8
_5-2_______
  6
DASHED1
 62
    7
 10
9962.1640592008025
 20
6788.3148193359375
 11
10037.163564321158
 21
6863.31506677576
  0
LINE
  8
_5-2_______
  6
DASHED1
 62
    7
 10
9962.1640592008025
 20
6830.7413462046034
 11
10037.163564321158
 21
6905.7415936444258
  0
LINE
  8
_5-2_______
  6
DASHED1
 62
    7
 10
9962.1640592008025
 20
6873.1678730732692
 11
9997.797620618665
 21
6908.8014344911317
  0
LINE
  8
_5-2_______
  6
DASHED1
 62
    7
 10
10001.619823558911
 20
6233.8014344911317
 11
10037.163564321158
 21
6269.3451752533792
  0
LINE
  8
_5-2_______
  6
DASHED1
 62
    7
 10
9962.1640592008025
 20
6236.7721970016901
 11
10037.163564321158
 21
6311.7717021220442
  0
LINE
  8
_5-2_______
  6
DASHED1
 62
    7
 10
9962.1640592008025
 20
6279.1979815508876
 11
10037.163564321158
 21
6354.19822899071
  0
LINE
  8
_5-2_______
  6
DASHED1
 62
    7
 10
9962.1640592008025
 20
6321.6245084195525
 11
10037.163564321158
 21
6396.624755859375
  0
LINE
  8
_5-2_______
  6
DASHED1
 62
    7
 10
9962.1640592008025
 20
6364.0510352882184
 11
10037.163564321158
 21
6439.0512827280409
  0
LINE
  8
_5-2_______
  6
DASHED1
 62
    7
 10
9962.1640592008025
 20
6406.4775621568833
 11
10037.163564321158
 21
6481.4778095967067
  0
LINE
  8
_5-2_______
  6
DASHED1
 62
    7
 10
9962.1640592008025
 20
6448.9040890255492
 11
10009.561157226562
 21
6496.3019293707775
  0
LINE
  8
_5-2_______
  6
DASHED1
 62
    7
 10
9962.1640592008025
 20
6491.330615894215
 11
9967.1346303578975
 21
6496.3019293707775
  0
LINE
  8
_5-2_______
  6
CONTINUOUS
 62
    7
 10
9962.1640592008025
 20
6908.8014344911317
 11
9962.1640592008025
 21
6646.3016819309551
  0
LINE
  8
_5-2_______
  6
CONTINUOUS
 62
    7
 10
10037.163564321158
 20
6908.8014344911317
 11
10037.163564321158
 21
6646.3016819309551
  0
LINE
  8
_5-2_______
  6
CONTINUOUS
 62
    7
 10
10037.163564321158
 20
6496.3019293707775
 11
10037.163564321158
 21
6233.8014344911317
  0
LINE
  8
_5-2_______
  6
CONTINUOUS
 62
    7
 10
9962.1640592008025
 20
6496.3019293707775
 11
9962.1640592008025
 21
6233.8014344911317
  0
LINE
  8
_5-3______
  6
CONTINUOUS
 62
    7
 10
10009.561157226562
 20
6496.3019293707775
 11
10037.163564321158
 21
6523.9035941459042
  0
LINE
  8
_5-3______
  6
CONTINUOUS
 62
    7
 10
9967.1346303578975
 20
6496.3019293707775
 11
10037.163564321158
 21
6566.3301210145692
  0
LINE
  8
_5-3______
  6
CONTINUOUS
 62
    7
 10
9962.1640592008025
 20
6533.7564004434125
 11
10037.163564321158
 21
6608.756647883235
  0
LINE
  8
_5-3______
  6
CONTINUOUS
 62
    7
 10
9962.1640592008025
 20
6576.1829273120784
 11
10032.282071500211
 21
6646.3016819309551
  0
LINE
  8
_5-3______
  6
CONTINUOUS
 62
    7
 10
9962.1640592008025
 20
6618.6094541807433
 11
9989.8555446315477
 21
6646.3016819309551
  0
LINE
  8
_5-3______
  6
CONTINUOUS
 62
    7
 10
9962.1640592008025
 20
6523.99341480152
 11
9989.8555446315477
 21
6496.3019293707775
  0
LINE
  8
_5-3______
  6
CONTINUOUS
 62
    7
 10
9962.1640592008025
 20
6566.4199416701858
 11
10032.282071500211
 21
6496.3019293707775
  0
LINE
  8
_5-3______
  6
CONTINUOUS
 62
    7
 10
9962.1640592008025
 20
6608.8464685388517
 11
10037.163564321158
 21
6533.8462210990292
  0
LINE
  8
_5-3______
  6
CONTINUOUS
 62
    7
 10
9967.1346303578975
 20
6646.3016819309551
 11
10037.163564321158
 21
6576.2727479676942
  0
LINE
  8
_5-3______
  6
CONTINUOUS
 62
    7
 10
10009.561157226562
 20
6646.3016819309551
 11
10037.163564321158
 21
6618.69927483636
  0
LINE
  8
_5-3______
  6
CONTINUOUS
 62
    7
 10
9962.1640592008025
 20
6646.3016819309551
 11
10037.163564321158
 21
6646.3016819309551
  0
LINE
  8
_5-3______
  6
CONTINUOUS
 62
    7
 10
9962.1640592008025
 20
6646.3016819309551
 11
9962.1640592008025
 21
6496.3019293707775
  0
LINE
  8
_5-3______
  6
CONTINUOUS
 62
    7
 10
10037.163564321158
 20
6496.3019293707775
 11
9962.1640592008025
 21
6496.3019293707775
  0
LINE
  8
_5-3______
  6
CONTINUOUS
 62
    7
 10
10037.163564321158
 20
6496.3019293707775
 11
10037.163564321158
 21
6646.3016819309551
  0
LINE
  8
_5-1______
  6
CONTINUOUS
 62
    7
 10
10037.163564321158
 20
7166.5956239442567
 11
10037.163564321158
 21
5976.0076161977404
  0
LINE
  8
_5-1______
  6
CONTINUOUS
 62
    7
 10
10112.16381176098
 20
7152.2488155880492
 11
10112.16381176098
 21
5990.354053394215
  0
LINE
  8
_6-7_躯体
  6
CONTINUOUS
 62
    7
 10
7832.0998733108108
 20
6289.06340727935
 11
8891.0460600981842
 21
6289.06340727935
  0
LINE
  8
_6-7_躯体
  6
CONTINUOUS
 62
    7
 10
7946.6672330289284
 20
6137.8811398067992
 11
8097.8495005014784
 21
6289.06340727935
  0
LINE
  8
_6-7_躯体
  6
CONTINUOUS
 62
    7
 10
7973.8702722497892
 20
6113.3860820048567
 11
8149.5475975242825
 21
6289.06340727935
  0
LINE
  8
_6-7_躯体
  6
CONTINUOUS
 62
    7
 10
8005.1382528769
 20
6088.6482857369092
 11
8205.5541167388092
 21
6289.06340727935
  0
LINE
  8
_6-7_躯体
  6
CONTINUOUS
 62
    7
 10
8336.370849609375
 20
5971.8309557115708
 11
8653.6040434966217
 21
6289.06340727935
  0
LINE
  8
_6-7_躯体
  6
CONTINUOUS
 62
    7
 10
8388.1275898701442
 20
5971.8895989495359
 11
8705.3021405194268
 21
6289.06340727935
  0
LINE
  8
_6-7_躯体
  6
CONTINUOUS
 62
    7
 10
8450.114977037585
 20
5977.8704669024501
 11
8761.3079174144859
 21
6289.06340727935
  0
LINE
  8
_6-1______
  6
CONTINUOUS
 62
    7
 10
8192.8233378642308
 20
7147.0822720914275
 11
8192.8233378642308
 21
6439.063902158995
  0
LINE
  8
_6-1______
  6
CONTINUOUS
 62
    7
 10
8530.3233378642308
 20
7147.0822720914275
 11
8530.3233378642308
 21
6439.063902158995
  0
LINE
  8
_6-0_____
  6
CONTINUOUS
 62
    7
 10
7776.3271847286751
 20
6439.063902158995
 11
8946.8194909997892
 21
6439.063902158995
  0
LINE
  8
_6-0_____
  6
CONTINUOUS
 62
    7
 10
7764.3097748627533
 20
6514.06340727935
 11
8192.8233378642308
 21
6514.06340727935
  0
LINE
  8
_6-0_____
  6
CONTINUOUS
 62
    7
 10
8530.3233378642308
 20
6514.06340727935
 11
8958.83690086571
 21
6514.06340727935
  0
LINE
  8
_6-0_____
  6
CONTINUOUS
 62
    7
 10
7832.0998733108108
 20
6289.06340727935
 11
8891.0460600981842
 21
6289.06340727935
  0
LINE
  8
_6-6_文字
  6
CONTINUOUS
 62
    7
 10
8468.3181350295617
 20
6715.3856432115708
 11
8609.2125969964109
 21
7241.2098652607692
  0
LINE
  8
_6-6_文字
  6
CONTINUOUS
 62
    7
 10
8550.5701013513517
 20
6383.4396774704401
 11
8668.6382396801109
 21
6824.0753173828125
  0
LINE
  8
_6-6_文字
  6
CONTINUOUS
 62
    7
 10
8609.2125969964109
 20
7241.2098652607692
 11
8909.2128444362334
 21
7241.2098652607692
  0
LINE
  8
_6-6_文字
  6
CONTINUOUS
 62
    7
 10
8668.6382396801109
 20
6824.0753173828125
 11
8998.6378437763942
 21
6824.0753173828125
  0
LINE
  8
_6-2_______
  6
DASHED1
 62
    7
 10
6664.471435546875
 20
6646.3016819309551
 11
6926.9711881070525
 21
6908.8014344911317
  0
LINE
  8
_6-2_______
  6
DASHED1
 62
    7
 10
6697.448235589105
 20
6233.8014344911317
 11
6959.94873046875
 21
6496.3019293707775
  0
LINE
  8
_6-2_______
  6
DASHED1
 62
    7
 10
6646.6461181640625
 20
6692.1161548511409
 11
6863.3313978040551
 21
6908.8014344911317
  0
LINE
  8
_6-2_______
  6
DASHED1
 62
    7
 10
6646.6461181640625
 20
6755.7559451541392
 11
6799.6923498205242
 21
6908.8014344911317
  0
LINE
  8
_6-2_______
  6
DASHED1
 62
    7
 10
6646.6461181640625
 20
6819.3949931376692
 11
6736.0525595175259
 21
6908.8014344911317
  0
LINE
  8
_6-2_______
  6
DASHED1
 62
    7
 10
6646.6461181640625
 20
6883.0347834406684
 11
6672.4127692145275
 21
6908.8014344911317
  0
LINE
  8
_6-2_______
  6
DASHED1
 62
    7
 10
6646.6461181640625
 20
6246.63836504962
 11
6896.3089401657526
 21
6496.3019293707775
  0
LINE
  8
_6-2_______
  6
DASHED1
 62
    7
 10
6646.6461181640625
 20
6310.2781553526183
 11
6832.6691498627542
 21
6496.3019293707775
  0
LINE
  8
_6-2_______
  6
DASHED1
 62
    7
 10
6646.6461181640625
 20
6373.9179456556176
 11
6769.0301018792234
 21
6496.3019293707775
  0
LINE
  8
_6-2_______
  6
DASHED1
 62
    7
 10
6646.6461181640625
 20
6437.557735958615
 11
6705.390311576225
 21
6496.3019293707775
  0
LINE
  8
_6-2_______
  6
CENTER1
 62
    7
 10
6646.6461181640625
 20
6908.8014344911317
 11
6976.6464645798151
 21
6908.8014344911317
  0
LINE
  8
_6-2_______
  6
CENTER1
 62
    7
 10
6646.6461181640625
 20
6233.8014344911317
 11
6976.6464645798151
 21
6233.8014344911317
  0
LINE
  8
_6-2_______
  6
DASHED1
 62
    7
 10
6919.0298544394009
 20
6646.3016819309551
 11
6976.6464645798151
 21
6703.9175497519009
  0
LINE
  8
_6-2_______
  6
DASHED1
 62
    7
 10
6855.3900641364025
 20
6646.3016819309551
 11
6976.6464645798151
 21
6767.5573400548992
  0
LINE
  8
_6-2_______
  6
DASHED1
 62
    7
 10
6791.7502738334042
 20
6646.3016819309551
 11
6976.6464645798151
 21
6831.1971303578975
  0
LINE
  8
_6-2_______
  6
DASHED1
 62
    7
 10
6728.1112258498733
 20
6646.3016819309551
 11
6976.6464645798151
 21
6894.836920660895
  0
LINE
  8
_6-2_______
  6
DASHED1
 62
    7
 10
6952.0066544816309
 20
6233.8014344911317
 11
6976.6464645798151
 21
6258.4405022698484
  0
LINE
  8
_6-2_______
  6
DASHED1
 62
    7
 10
6888.3676064981
 20
6233.8014344911317
 11
6976.6464645798151
 21
6322.0802925728467
  0
LINE
  8
_6-2_______
  6
DASHED1
 62
    7
 10
6824.7278161951017
 20
6233.8014344911317
 11
6976.6464645798151
 21
6385.7200828758441
  0
LINE
  8
_6-2_______
  6
DASHED1
 62
    7
 10
6761.0880258921034
 20
6233.8014344911317
 11
6976.6464645798151
 21
6449.359130859375
  0
LINE
  8
_6-2_______
  6
CENTER1
 62
    7
 10
6646.6461181640625
 20
6646.3016819309551
 11
6976.6464645798151
 21
6646.3016819309551
  0
LINE
  8
_6-2_______
  6
CENTER1
 62
    7
 10
6646.6461181640625
 20
6496.3019293707775
 11
6976.6464645798151
 21
6496.3019293707775
  0
LINE
  8
_6-6_文字
  6
CONTINUOUS
 62
    7
 10
6811.6459202122051
 20
6730.0330909522809
 11
7074.527224978885
 21
7185.3562638566309
  0
LINE
  8
_6-6_文字
  6
CONTINUOUS
 62
    7
 10
6811.6459202122051
 20
6571.3014344911317
 11
7069.4393673458617
 21
7017.8117906725083
  0
LINE
  8
_6-6_文字
  6
CONTINUOUS
 62
    7
 10
6940.45690588049
 20
6571.3014344911317
 11
7074.527224978885
 21
6803.5182643581084
  0
LINE
  8
_6-6_文字
  6
CONTINUOUS
 62
    7
 10
6940.45690588049
 20
6045.8546818913637
 11
7074.527224978885
 21
6278.0718829180751
  0
LINE
  8
_6-1______
  6
CONTINUOUS
 62
    7
 10
6642.8959202122051
 20
7147.0822720914275
 11
6642.8959202122051
 21
5995.5209680505704
  0
LINE
  8
_6-1______
  6
DASHED1
 62
    7
 10
6646.6461181640625
 20
7148.1682854729734
 11
6646.6461181640625
 21
5994.4349546690246
  0
LINE
  8
_6-1______
  6
DASHED1
 62
    7
 10
6976.6464645798151
 20
7148.1682854729734
 11
6976.6464645798151
 21
5994.4349546690246
  0
LINE
  8
_6-1______
  6
CONTINUOUS
 62
    7
 10
6980.3959202122051
 20
7147.0822720914275
 11
6980.3959202122051
 21
5995.5209680505704
  0
LINE
  8
_6-3______
  6
CONTINUOUS
 62
    7
 10
6605.3961676520275
 20
6608.8019293707775
 11
6605.3961676520275
 21
6533.8016819309551
  0
LINE
  8
_6-3______
  6
CONTINUOUS
 62
    7
 10
7017.89641509185
 20
6608.8019293707775
 11
7017.89641509185
 21
6533.8016819309551
  0
LINE
  8
_6-3______
  6
CENTER1
 62
    7
 10
6642.8959202122051
 20
6646.3016819309551
 11
6980.3959202122051
 21
6646.3016819309551
  0
LINE
  8
_6-3______
  6
CENTER1
 62
    7
 10
6642.8959202122051
 20
6496.3019293707775
 11
6980.3959202122051
 21
6496.3019293707775
  0
LINE
  8
_6-6_文字
  6
CONTINUOUS
 62
    7
 10
7074.527224978885
 20
7185.3562638566309
 11
7404.5268290751692
 21
7185.3562638566309
  0
LINE
  8
_6-6_文字
  6
CONTINUOUS
 62
    7
 10
7069.4393673458617
 20
7017.8117906725083
 11
7369.4388724662167
 21
7017.8117906725083
  0
LINE
  8
_6-6_文字
  6
CONTINUOUS
 62
    7
 10
7074.527224978885
 20
6803.5182643581084
 11
7524.527224978885
 21
6803.5182643581084
  0
LINE
  8
_6-6_文字
  6
CONTINUOUS
 62
    7
 10
7074.527224978885
 20
6278.0718829180751
 11
7374.5267300992409
 21
6278.0718829180751
  0
LINE
  8
ADD_LINE
  6
DOT
 62
    7
 10
539.89447000864379
 20
5772.9327640017955
 11
12244.467575485642
 21
5772.9327640017955
  0
LINE
  8
_3-3______
  6
DASHED1
 62
    7
 10
9638.3190258129234
 20
2816.2205051731421
 11
9833.3189268369933
 21
3011.2204061972129
  0
LINE
  8
_3-3______
  6
DASHED1
 62
    7
 10
9638.3190258129234
 20
2780.8651279758765
 11
9833.3189268369933
 21
2975.8652145798146
  0
LINE
  8
_3-1______
  6
CONTINUOUS
 62
    7
 10
9728.31932274071
 20
3090.6398670093436
 11
9728.31932274071
 21
3185.6398711333404
  0
LINE
  8
_3-4______
  6
CONTINUOUS
 62
    7
 10
9633.3195041965791
 20
2615.6398463893584
 11
9633.3195041965791
 21
4240.6398876293288
  0
LINE
  8
_3-4______
  6
CONTINUOUS
 62
    7
 10
9508.31958667652
 20
2615.6398463893584
 11
9508.31958667652
 21
4240.6398876293288
  0
LINE
  8
_3-4______
  6
CONTINUOUS
 62
    7
 10
9633.3195041965791
 20
2740.6399494892844
 11
11533.31958667652
 21
2740.6399494892844
  0
LINE
  8
_3-4______
  6
CONTINUOUS
 62
    7
 10
9633.3195041965791
 20
2615.6398463893584
 11
11533.31958667652
 21
2615.6398463893584
  0
LINE
  8
_3-4______
  6
CONTINUOUS
 62
    7
 10
9508.31958667652
 20
2615.6398463893584
 11
9633.3195041965791
 21
2615.6398463893584
  0
LINE
  8
_3-7_躯体
  6
CONTINUOUS
 62
    7
 10
9833.3189268369933
 20
2940.6399288692992
 11
11533.31958667652
 21
2940.6399288692992
  0
LINE
  8
_3-7_躯体
  6
CONTINUOUS
 62
    7
 10
9833.3189268369933
 20
2940.6399288692992
 11
9833.3189268369933
 21
4240.6398876293288
  0
LINE
  8
_3-1______
  6
CONTINUOUS
 62
    7
 10
9733.31958667652
 20
2840.6398463893584
 11
9733.31958667652
 21
2740.6399494892844
  0
LINE
  8
_3-1______
  6
CONTINUOUS
 62
    7
 10
9728.31932274071
 20
2840.6398463893584
 11
9728.31932274071
 21
2745.6398422653615
  0
LINE
  8
_3-1______
  6
CONTINUOUS
 62
    7
 10
9733.31958667652
 20
2740.6399494892844
 11
9633.3195041965791
 21
2740.6399494892844
  0
LINE
  8
_3-1______
  6
CONTINUOUS
 62
    7
 10
9728.31932274071
 20
2745.6398422653615
 11
9638.3190258129234
 21
2745.6398422653615
  0
LINE
  8
_3-1______
  6
CONTINUOUS
 62
    7
 10
9633.3195041965791
 20
2740.6399494892844
 11
9633.3195041965791
 21
3190.6397639094175
  0
LINE
  8
_3-1______
  6
CONTINUOUS
 62
    7
 10
9638.3190258129234
 20
2745.6398422653615
 11
9638.3190258129234
 21
3185.6398711333404
  0
LINE
  8
_3-1______
  6
CONTINUOUS
 62
    7
 10
9733.31958667652
 20
3090.6398670093436
 11
9733.31958667652
 21
3190.6397639094175
  0
LINE
  8
_3-1______
  6
CONTINUOUS
 62
    7
 10
9633.3195041965791
 20
3190.6397639094175
 11
9733.31958667652
 21
3190.6397639094175
  0
LINE
  8
_3-1______
  6
CONTINUOUS
 62
    7
 10
9638.3190258129234
 20
3185.6398711333404
 11
9728.31932274071
 21
3185.6398711333404
  0
LINE
  8
_3-1______
  6
CONTINUOUS
 62
    7
 10
9728.31932274071
 20
2840.6398463893584
 11
9733.31958667652
 21
2840.6398463893584
  0
LINE
  8
_3-1______
  6
CONTINUOUS
 62
    7
 10
9728.31932274071
 20
3090.6398670093436
 11
9733.31958667652
 21
3090.6398670093436
  0
LINE
  8
_3-1______
  6
CONTINUOUS
 62
    7
 10
10083.319504196579
 20
2840.6398463893584
 11
10183.31958667652
 21
2840.6398463893584
  0
LINE
  8
_3-1______
  6
CONTINUOUS
 62
    7
 10
10083.319504196579
 20
2835.6399536132812
 11
10178.31932274071
 21
2835.6399536132812
  0
LINE
  8
_3-1______
  6
CONTINUOUS
 62
    7
 10
10183.31958667652
 20
2840.6398463893584
 11
10183.31958667652
 21
2740.6399494892844
  0
LINE
  8
_3-1______
  6
CONTINUOUS
 62
    7
 10
10178.31932274071
 20
2835.6399536132812
 11
10178.31932274071
 21
2745.6398422653615
  0
LINE
  8
_3-1______
  6
CONTINUOUS
 62
    7
 10
10183.31958667652
 20
2740.6399494892844
 11
9733.31958667652
 21
2740.6399494892844
  0
LINE
  8
_3-1______
  6
CONTINUOUS
 62
    7
 10
10178.31932274071
 20
2745.6398422653615
 11
9738.3191082928643
 21
2745.6398422653615
  0
LINE
  8
_3-1______
  6
CONTINUOUS
 62
    7
 10
9833.3189268369933
 20
2840.6398463893584
 11
9733.31958667652
 21
2840.6398463893584
  0
LINE
  8
_3-1______
  6
CONTINUOUS
 62
    7
 10
9833.3189268369933
 20
2835.6399536132812
 11
9738.3191082928643
 21
2835.6399536132812
  0
LINE
  8
_3-1______
  6
CONTINUOUS
 62
    7
 10
9733.31958667652
 20
2740.6399494892844
 11
9733.31958667652
 21
2840.6398463893584
  0
LINE
  8
_3-1______
  6
CONTINUOUS
 62
    7
 10
9738.3191082928643
 20
2745.6398422653615
 11
9738.3191082928643
 21
2835.6399536132812
  0
LINE
  8
_3-1______
  6
CONTINUOUS
 62
    7
 10
10083.319504196579
 20
2835.6399536132812
 11
10083.319504196579
 21
2840.6398463893584
  0
LINE
  8
_3-1______
  6
CONTINUOUS
 62
    7
 10
9833.3189268369933
 20
2835.6399536132812
 11
9833.3189268369933
 21
2840.6398463893584
  0
LINE
  8
_3-3______
  6
DASHED1
 62
    7
 10
9733.4494925834042
 20
2840.6398463893584
 11
9833.449575063345
 21
2940.6399288692992
  0
LINE
  8
_3-3______
  6
DASHED1
 62
    7
 10
10168.779775258658
 20
2745.6398422653615
 11
10178.31932274071
 21
2755.1797609071477
  0
LINE
  8
_3-3______
  6
DASHED1
 62
    7
 10
10133.42384132179
 20
2745.6398422653615
 11
10178.31932274071
 21
2790.534952524546
  0
LINE
  8
_3-3______
  6
DASHED1
 62
    7
 10
10098.068649704392
 20
2745.6398422653615
 11
10178.31932274071
 21
2825.8903297218117
  0
LINE
  8
_3-3______
  6
DASHED1
 62
    7
 10
10194.286614495355
 20
2841.8574358965902
 11
10232.101852829392
 21
2879.6728598104942
  0
LINE
  8
_3-3______
  6
DASHED1
 62
    7
 10
10062.713458086993
 20
2745.6398422653615
 11
10152.713755014782
 21
2835.6399536132812
  0
LINE
  8
_3-3______
  6
DASHED1
 62
    7
 10
10157.713276631124
 20
2840.6398463893584
 11
10228.701287346918
 21
2911.6276715252852
  0
LINE
  8
_3-3______
  6
DASHED1
 62
    7
 10
10027.358266469595
 20
2745.6398422653615
 11
10117.357821077914
 21
2835.6399536132812
  0
LINE
  8
_3-3______
  6
DASHED1
 62
    7
 10
10122.358085013726
 20
2840.6398463893584
 11
10212.766657648861
 21
2931.0484190244933
  0
LINE
  8
_3-3______
  6
DASHED1
 62
    7
 10
9992.0030748521967
 20
2745.6398422653615
 11
10083.319504196579
 21
2836.9564571896117
  0
LINE
  8
_3-3______
  6
DASHED1
 62
    7
 10
10087.002893396326
 20
2840.6398463893584
 11
10186.876039247256
 21
2940.5131778201544
  0
LINE
  8
_3-3______
  6
DASHED1
 62
    7
 10
9956.6471409153291
 20
2745.6398422653615
 11
10151.647784258868
 21
2940.6399288692992
  0
LINE
  8
_3-3______
  6
DASHED1
 62
    7
 10
9921.2919492979308
 20
2745.6398422653615
 11
10116.291850322001
 21
2940.6399288692992
  0
LINE
  8
_3-3______
  6
DASHED1
 62
    7
 10
9885.9367576805325
 20
2745.6398422653615
 11
10080.936658704602
 21
2940.6399288692992
  0
LINE
  8
_3-3______
  6
DASHED1
 62
    7
 10
9850.5815660631342
 20
2745.6398422653615
 11
10045.581467087204
 21
2940.6399288692992
  0
LINE
  8
_3-3______
  6
DASHED1
 62
    7
 10
9815.2263744457359
 20
2745.6398422653615
 11
10010.226275469806
 21
2940.6399288692992
  0
LINE
  8
_3-3______
  6
DASHED1
 62
    7
 10
9779.8704405088683
 20
2745.6398422653615
 11
9974.8710838524075
 21
2940.6399288692992
  0
LINE
  8
_3-3______
  6
DASHED1
 62
    7
 10
9744.51524889147
 20
2745.6398422653615
 11
9939.51514991554
 21
2940.6399288692992
  0
LINE
  8
_3-3______
  6
DASHED1
 62
    7
 10
9804.1598758182008
 20
2840.6398463893584
 11
9904.1599582981416
 21
2940.6399288692992
  0
LINE
  8
_3-3______
  6
DASHED1
 62
    7
 10
9768.8046842008025
 20
2840.6398463893584
 11
9868.8047666807433
 21
2940.6399288692992
  0
LINE
  8
_3-3______
  6
DASHED1
 62
    7
 10
9638.3190258129234
 20
2851.5758823704077
 11
9833.3189268369933
 21
3046.5757833944785
  0
LINE
  8
_3-3______
  6
DASHED1
 62
    7
 10
9638.4496740392733
 20
2745.6398422653615
 11
9728.31932274071
 21
2835.5098621265311
  0
LINE
  8
_3-3______
  6
DASHED1
 62
    7
 10
9738.3191082928643
 20
2810.1544560612861
 11
9763.8044202649926
 21
2835.6399536132812
  0
LINE
  8
_3-3______
  6
DASHED1
 62
    7
 10
9738.3191082928643
 20
2774.7990788640204
 11
9799.1603542018602
 21
2835.6399536132812
  0
LINE
  8
_3-3______
  6
DASHED1
 62
    7
 10
9673.8048656566734
 20
2745.6398422653615
 11
9728.31932274071
 21
2800.1544849292654
  0
LINE
  8
_3-3______
  6
DASHED1
 62
    7
 10
9709.1600572740717
 20
2745.6398422653615
 11
9728.31932274071
 21
2764.7991077319998
  0
LINE
  8
_3-3______
  6
DASHED1
 62
    7
 10
9733.4450386665976
 20
3194.1891644452071
 11
9779.7694850612352
 21
3240.5136108398437
  0
LINE
  8
_3-3______
  6
DASHED1
 62
    7
 10
9733.31958667652
 20
3158.7077785182646
 11
9808.4668133709893
 21
3233.8553763724663
  0
LINE
  8
_3-3______
  6
DASHED1
 62
    7
 10
9638.3190258129234
 20
3169.7739059860646
 11
9654.1853621199334
 21
3185.6398711333404
  0
LINE
  8
_3-3______
  6
DASHED1
 62
    7
 10
9638.3190258129234
 20
2886.9310739878065
 11
9833.3189268369933
 21
3081.9311605917442
  0
LINE
  8
_3-3______
  6
DASHED1
 62
    7
 10
9638.3190258129234
 20
2922.2864511850721
 11
9833.3189268369933
 21
3117.2863522091429
  0
LINE
  8
_3-3______
  6
DASHED1
 62
    7
 10
9638.3190258129234
 20
2957.6418283823377
 11
9833.3189268369933
 21
3152.6419149862754
  0
LINE
  8
_3-3______
  6
DASHED1
 62
    7
 10
9638.3190258129234
 20
2992.9972055796034
 11
9833.3189268369933
 21
3187.9971066036742
  0
LINE
  8
_3-3______
  6
DASHED1
 62
    7
 10
9638.3190258129234
 20
3028.352582776869
 11
9728.31932274071
 21
3118.352322965055
  0
LINE
  8
_3-3______
  6
DASHED1
 62
    7
 10
9638.3190258129234
 20
3063.7077743942677
 11
9728.31932274071
 21
3153.7078857421875
  0
LINE
  8
_3-3______
  6
DASHED1
 62
    7
 10
9638.3190258129234
 20
3099.0631515915334
 11
9724.89574535473
 21
3185.6398711333404
  0
LINE
  8
_3-3______
  6
DASHED1
 62
    7
 10
9638.3190258129234
 20
3134.4183432089317
 11
9689.5405537373317
 21
3185.6398711333404
  0
LINE
  8
_3-3______
  6
DASHED1
 62
    7
 10
9733.31958667652
 20
3123.3525869008658
 11
9826.2453646273243
 21
3216.2787360114025
  0
LINE
  8
_3-7_躯体
  6
CONTINUOUS
 62
    5
 10
9833.449575063345
 20
3760.4241448479729
 11
10033.319091796875
 21
3960.2940327412375
  0
LINE
  8
_3-7_躯体
  6
CONTINUOUS
 62
    5
 10
9833.449575063345
 20
3620.0400275153088
 11
10033.319091796875
 21
3819.9099154085725
  0
LINE
  8
_3-7_躯体
  6
CONTINUOUS
 62
    5
 10
9833.449575063345
 20
3690.2319006017738
 11
10033.319091796875
 21
3890.1017884950384
  0
LINE
  8
_3-7_躯体
  6
CONTINUOUS
 62
    5
 10
10498.919677734375
 20
2940.6399288692992
 11
10698.919842694258
 21
3140.6400938291808
  0
LINE
  8
_3-7_躯体
  6
CONTINUOUS
 62
    5
 10
10639.304166226773
 20
2940.6399288692992
 11
10839.304331186657
 21
3140.6400938291808
  0
LINE
  8
_3-7_躯体
  6
CONTINUOUS
 62
    5
 10
10569.111921980575
 20
2940.6399288692992
 11
10769.112086940457
 21
3140.6400938291808
  0
LINE
  8
_3-5_寸法
  6
CONTINUOUS
 62
    7
 10
11783.319421716638
 20
2740.6399494892844
 11
11783.319421716638
 21
2840.6398463893584
  0
LINE
  8
_3-5_寸法
  6
CONTINUOUS
 62
    7
 10
11783.319421716638
 20
2740.6399494892844
 11
11633.318926836993
 21
2740.6399494892844
  0
LINE
  8
_3-5_寸法
  6
CONTINUOUS
 62
    7
 10
11783.319421716638
 20
2840.6398463893584
 11
11633.318926836993
 21
2840.6398463893584
  0
LINE
  8
_3-5_寸法
  6
CONTINUOUS
 62
    7
 10
11783.319421716638
 20
2840.6398463893584
 11
11783.319421716638
 21
2940.6399288692992
  0
LINE
  8
_3-5_寸法
  6
CONTINUOUS
 62
    7
 10
11783.319421716638
 20
2940.6399288692992
 11
11633.318926836993
 21
2940.6399288692992
  0
LINE
  8
_3-5_寸法
  6
CONTINUOUS
 62
    7
 10
11933.319174276818
 20
2615.6398463893584
 11
11933.319174276818
 21
2740.6399494892844
  0
LINE
  8
_3-5_寸法
  6
CONTINUOUS
 62
    7
 10
11933.319174276818
 20
2740.6399494892844
 11
11783.319421716638
 21
2740.6399494892844
  0
LINE
  8
_3-5_寸法
  6
CONTINUOUS
 62
    7
 10
11933.319174276818
 20
2740.6399494892844
 11
11933.319174276818
 21
2940.6399288692992
  0
LINE
  8
_3-5_寸法
  6
CONTINUOUS
 62
    7
 10
11933.319174276818
 20
2940.6399288692992
 11
11783.319421716638
 21
2940.6399288692992
  0
LINE
  8
_3-5_寸法
  6
CONTINUOUS
 62
    7
 10
11933.319174276818
 20
2615.6398463893584
 11
11633.318926836993
 21
2615.6398463893584
  0
LINE
  8
_3-5_寸法
  6
CONTINUOUS
 62
    7
 10
9733.31958667652
 20
2365.6398257693731
 11
10183.31958667652
 21
2365.6398257693731
  0
LINE
  8
_3-5_寸法
  6
CONTINUOUS
 62
    7
 10
9733.31958667652
 20
2365.6398257693731
 11
9733.31958667652
 21
2515.6399494892844
  0
LINE
  8
_3-5_寸法
  6
CONTINUOUS
 62
    7
 10
10183.31958667652
 20
2365.6398257693731
 11
10183.31958667652
 21
2515.6399494892844
  0
LINE
  8
_3-5_寸法
  6
CONTINUOUS
 62
    7
 10
9258.3190093169342
 20
3190.6397639094175
 11
9258.3190093169342
 21
2740.6399494892844
  0
LINE
  8
_3-5_寸法
  6
CONTINUOUS
 62
    7
 10
9258.3190093169342
 20
3190.6397639094175
 11
9408.3195041965791
 21
3190.6397639094175
  0
LINE
  8
_3-5_寸法
  6
CONTINUOUS
 62
    7
 10
9258.3190093169342
 20
2740.6399494892844
 11
9408.3195041965791
 21
2740.6399494892844
  0
LINE
  8
_3-6_文字
  6
CONTINUOUS
 62
    5
 10
9751.523486987966
 20
2921.9464688687713
 11
10121.455424540751
 21
3562.6876831054687
  0
LINE
  8
_3-6_文字
  6
CONTINUOUS
 62
    5
 10
10121.455424540751
 20
3562.6876831054687
 11
10871.454929661106
 21
3562.6876831054687
  0
LINE
  8
_3-6_文字
  6
CONTINUOUS
 62
    5
 10
10002.183244035052
 20
2743.4826618916281
 11
10305.086702913852
 21
3268.126039247255
  0
LINE
  8
_3-6_文字
  6
CONTINUOUS
 62
    5
 10
10305.086702913852
 20
3268.126039247255
 11
10805.086372994088
 21
3268.126039247255
  0
LINE
  8
_3-1______
  6
CONTINUOUS
 62
    7
 10
7842.7722003008876
 20
4038.6161597999367
 11
7942.7722827808284
 21
4038.6161597999367
  0
LINE
  8
_3-1______
  6
CONTINUOUS
 62
    7
 10
7842.7722003008876
 20
4033.6158958641258
 11
7937.7720188450176
 21
4033.6158958641258
  0
LINE
  8
_3-1______
  6
CONTINUOUS
 62
    7
 10
7942.7722827808284
 20
4038.6161597999367
 11
7942.7722827808284
 21
3938.6160773199963
  0
LINE
  8
_3-1______
  6
CONTINUOUS
 62
    7
 10
7937.7720188450176
 20
4033.6158958641258
 11
7937.7720188450176
 21
3943.6159700960725
  0
LINE
  8
_3-1______
  6
CONTINUOUS
 62
    7
 10
7942.7722827808284
 20
3938.6160773199963
 11
7492.7722827808284
 21
3938.6160773199963
  0
LINE
  8
_3-1______
  6
CONTINUOUS
 62
    7
 10
7937.7720188450176
 20
3943.6159700960725
 11
7497.7718043971709
 21
3943.6159700960725
  0
LINE
  8
_3-1______
  6
CONTINUOUS
 62
    7
 10
7592.7723652607692
 20
4038.6161597999367
 11
7492.7722827808284
 21
4038.6161597999367
  0
LINE
  8
_3-1______
  6
CONTINUOUS
 62
    7
 10
7592.7723652607692
 20
4033.6158958641258
 11
7497.7718043971709
 21
4033.6158958641258
  0
LINE
  8
_3-1______
  6
CONTINUOUS
 62
    7
 10
7492.7722827808284
 20
3938.6160773199963
 11
7492.7722827808284
 21
4038.6161597999367
  0
LINE
  8
_3-1______
  6
CONTINUOUS
 62
    7
 10
7497.7718043971709
 20
3943.6159700960725
 11
7497.7718043971709
 21
4033.6158958641258
  0
LINE
  8
_3-1______
  6
CONTINUOUS
 62
    7
 10
7842.7722003008876
 20
4033.6158958641258
 11
7842.7722003008876
 21
4038.6161597999367
  0
LINE
  8
_3-1______
  6
CONTINUOUS
 62
    7
 10
7592.7723652607692
 20
4033.6158958641258
 11
7592.7723652607692
 21
4038.6161597999367
  0
LINE
  8
_3-1______
  6
CONTINUOUS
 62
    7
 10
8112.7723487647818
 20
3763.6161185599663
 11
8117.7718703811233
 21
3763.6161185599663
  0
LINE
  8
_3-1______
  6
CONTINUOUS
 62
    7
 10
8112.7723487647818
 20
3513.6159123601142
 11
8117.7718703811233
 21
3513.6159123601142
  0
LINE
  8
_3-1______
  6
CONTINUOUS
 62
    7
 10
8022.7720518369933
 20
3858.6159371040962
 11
8112.7723487647818
 21
3858.6159371040962
  0
LINE
  8
_3-1______
  6
CONTINUOUS
 62
    7
 10
8017.7717879011825
 20
3863.6162010399071
 11
8117.7718703811233
 21
3863.6162010399071
  0
LINE
  8
_3-1______
  6
CONTINUOUS
 62
    7
 10
8112.7723487647818
 20
3763.6161185599663
 11
8112.7723487647818
 21
3858.6159371040962
  0
LINE
  8
_3-1______
  6
CONTINUOUS
 62
    7
 10
8117.7718703811233
 20
3763.6161185599663
 11
8117.7718703811233
 21
3863.6162010399071
  0
LINE
  8
_3-1______
  6
CONTINUOUS
 62
    7
 10
8022.7720518369933
 20
3418.6160938159842
 11
8022.7720518369933
 21
3858.6159371040962
  0
LINE
  8
_3-1______
  6
CONTINUOUS
 62
    7
 10
8017.7717879011825
 20
3413.6162010399075
 11
8017.7717879011825
 21
3863.6162010399071
  0
LINE
  8
_3-1______
  6
CONTINUOUS
 62
    7
 10
8112.7723487647818
 20
3418.6160938159842
 11
8022.7720518369933
 21
3418.6160938159842
  0
LINE
  8
_3-1______
  6
CONTINUOUS
 62
    7
 10
8117.7718703811233
 20
3413.6162010399075
 11
8017.7717879011825
 21
3413.6162010399075
  0
LINE
  8
_3-1______
  6
CONTINUOUS
 62
    7
 10
8112.7723487647818
 20
3513.6159123601142
 11
8112.7723487647818
 21
3418.6160938159842
  0
LINE
  8
_3-1______
  6
CONTINUOUS
 62
    7
 10
8117.7718703811233
 20
3513.6159123601142
 11
8117.7718703811233
 21
3413.6162010399075
  0
LINE
  8
_3-3______
  6
DASHED1
 62
    7
 10
7928.232471362966
 20
3943.6159700960725
 11
7937.7720188450176
 21
3953.1558887378596
  0
LINE
  8
_3-3______
  6
DASHED1
 62
    7
 10
7892.8772797455658
 20
3943.6159700960725
 11
7937.7720188450176
 21
3988.5110803552579
  0
LINE
  8
_3-3______
  6
DASHED1
 62
    7
 10
7857.5213458087001
 20
3943.6159700960725
 11
7937.7720188450176
 21
4023.8666431323909
  0
LINE
  8
_3-3______
  6
DASHED1
 62
    7
 10
7953.7393105996625
 20
4039.8335637273017
 11
7991.5545489337001
 21
4077.6488020613392
  0
LINE
  8
_3-3______
  6
DASHED1
 62
    7
 10
7822.1661541913018
 20
3943.6159700960725
 11
7912.1664511190875
 21
4033.6158958641258
  0
LINE
  8
_3-3______
  6
DASHED1
 62
    7
 10
7917.1659727354308
 20
4038.6161597999367
 11
7988.153983451225
 21
4109.6037993559967
  0
LINE
  8
_3-3______
  6
DASHED1
 62
    7
 10
7786.8109625739035
 20
3943.6159700960725
 11
7876.8112595016892
 21
4033.6158958641258
  0
LINE
  8
_3-3______
  6
DASHED1
 62
    7
 10
7881.8107811180325
 20
4038.6161597999367
 11
7972.2193537531675
 21
4129.0247324350721
  0
LINE
  8
_3-3______
  6
DASHED1
 62
    7
 10
7751.4557709565033
 20
3943.6159700960725
 11
7842.7722003008876
 21
4034.9323994404563
  0
LINE
  8
_3-3______
  6
DASHED1
 62
    7
 10
7846.4555895006342
 20
4038.6161597999367
 11
7946.3287353515625
 21
4138.4893056508654
  0
LINE
  8
_3-3______
  6
DASHED1
 62
    7
 10
7716.100579339105
 20
3943.6159700960725
 11
7911.1004803631768
 21
4138.6158711201442
  0
LINE
  8
_3-3______
  6
DASHED1
 62
    7
 10
7680.7446454022393
 20
3943.6159700960725
 11
7875.7452887457785
 21
4138.6158711201442
  0
LINE
  8
_3-3______
  6
DASHED1
 62
    7
 10
7645.38945378484
 20
3943.6159700960725
 11
7840.3893548089109
 21
4138.6158711201442
  0
LINE
  8
_3-3______
  6
DASHED1
 62
    7
 10
7610.0342621674417
 20
3943.6159700960725
 11
7805.0341631915126
 21
4138.6158711201442
  0
LINE
  8
_3-3______
  6
DASHED1
 62
    7
 10
7574.6790705500434
 20
3943.6159700960725
 11
7769.6789715741143
 21
4138.6158711201442
  0
LINE
  8
_3-3______
  6
DASHED1
 62
    7
 10
7539.3238789326442
 20
3943.6159700960725
 11
7734.323779956716
 21
4138.6158711201442
  0
LINE
  8
_3-3______
  6
DASHED1
 62
    7
 10
7503.9679449957775
 20
3943.6159700960725
 11
7698.9685883393158
 21
4138.6158711201442
  0
LINE
  8
_3-3______
  6
DASHED1
 62
    7
 10
7497.7718043971709
 20
3972.7753922745992
 11
7558.6130503061659
 21
4033.6158958641258
  0
LINE
  8
_3-3______
  6
DASHED1
 62
    7
 10
7563.6125719225083
 20
4038.6161597999367
 11
7663.6126544024501
 21
4138.6158711201442
  0
LINE
  8
_3-3______
  6
DASHED1
 62
    7
 10
7497.7718043971709
 20
4008.1305838919975
 11
7523.2578586887676
 21
4033.6158958641258
  0
LINE
  8
_3-3______
  6
DASHED1
 62
    7
 10
7528.25738030511
 20
4038.6161597999367
 11
7628.2574627850508
 21
4138.6158711201442
  0
LINE
  8
_3-3______
  6
DASHED1
 62
    7
 10
7492.9021886877117
 20
4038.6161597999367
 11
7592.9022711676525
 21
4138.6158711201442
  0
LINE
  8
_3-3______
  6
DASHED1
 62
    7
 10
7465.5848322687934
 20
4046.653623838683
 11
7557.5470795502542
 21
4138.6158711201442
  0
LINE
  8
_3-3______
  6
DASHED1
 62
    7
 10
7448.6569791226784
 20
4065.0817046294342
 11
7522.1918879328559
 21
4138.6158711201442
  0
LINE
  8
_3-3______
  6
DASHED1
 62
    7
 10
7443.1756921716642
 20
4094.955238136085
 11
7486.4328745249159
 21
4138.2124204893371
  0
LINE
  8
_3-3______
  6
DASHED1
 62
    7
 10
8022.7720518369933
 20
3428.1556412980362
 11
8032.3115993190449
 21
3418.6160938159842
  0
LINE
  8
_3-3______
  6
DASHED1
 62
    7
 10
8022.7720518369933
 20
3463.5112040751692
 11
8067.6675332559125
 21
3418.6160938159842
  0
LINE
  8
_3-3______
  6
DASHED1
 62
    7
 10
8022.7720518369933
 20
3498.8663956925675
 11
8103.0227248733108
 21
3418.6160938159842
  0
LINE
  8
_3-3______
  6
DASHED1
 62
    7
 10
8118.9900166279567
 20
3402.6488020613388
 11
8156.8052549619933
 21
3364.8335637273017
  0
LINE
  8
_3-3______
  6
DASHED1
 62
    7
 10
8022.7720518369933
 20
3534.2219584697004
 11
8112.7723487647818
 21
3444.2216615419134
  0
LINE
  8
_3-3______
  6
DASHED1
 62
    7
 10
8117.7718703811233
 20
3439.2217687658363
 11
8188.7598810969175
 21
3368.2341292097763
  0
LINE
  8
_3-3______
  6
DASHED1
 62
    7
 10
8022.7720518369933
 20
3569.5771500870987
 11
8112.7723487647818
 21
3479.5772243190459
  0
LINE
  8
_3-3______
  6
DASHED1
 62
    7
 10
8117.7718703811233
 20
3474.5773315429687
 11
8208.1804430162592
 21
3384.1687589078338
  0
LINE
  8
_3-3______
  6
DASHED1
 62
    7
 10
8022.7720518369933
 20
3604.9323417044975
 11
8114.0884811813767
 21
3513.6159123601142
  0
LINE
  8
_3-3______
  6
DASHED1
 62
    7
 10
8117.7718703811233
 20
3509.9325231603675
 11
8217.64575855152
 21
3410.0590061497046
  0
LINE
  8
_3-3______
  6
DASHED1
 62
    7
 10
8022.7720518369933
 20
3640.28790448163
 11
8217.7719528610633
 21
3445.2880034575592
  0
LINE
  8
_3-3______
  6
DASHED1
 62
    7
 10
8022.7720518369933
 20
3675.6430960990288
 11
8217.7719528610633
 21
3480.6431950749579
  0
LINE
  8
_3-3______
  6
DASHED1
 62
    7
 10
8022.7720518369933
 20
3710.9986588761612
 11
8217.7719528610633
 21
3515.9983866923567
  0
LINE
  8
_3-3______
  6
DASHED1
 62
    7
 10
8022.7720518369933
 20
3746.35385049356
 11
8217.7719528610633
 21
3551.3539494694892
  0
LINE
  8
_3-3______
  6
DASHED1
 62
    7
 10
8022.7720518369933
 20
3781.7090421109592
 11
8217.7719528610633
 21
3586.7091410868879
  0
LINE
  8
_3-3______
  6
DASHED1
 62
    7
 10
8022.7720518369933
 20
3817.0646048880913
 11
8217.7719528610633
 21
3622.0647038640204
  0
LINE
  8
_3-3______
  6
DASHED1
 62
    7
 10
8022.7720518369933
 20
3852.41979650549
 11
8217.7719528610633
 21
3657.4198954814192
  0
LINE
  8
_3-3______
  6
DASHED1
 62
    7
 10
8051.9311028557859
 20
3858.6159371040962
 11
8112.7723487647818
 21
3797.7750623548354
  0
LINE
  8
_3-3______
  6
DASHED1
 62
    7
 10
8117.7718703811233
 20
3792.7751695787588
 11
8217.7719528610633
 21
3692.7750870988175
  0
LINE
  8
_3-3______
  6
DASHED1
 62
    7
 10
8087.2862944731842
 20
3858.6159371040962
 11
8112.7723487647818
 21
3833.1306251319679
  0
LINE
  8
_3-3______
  6
DASHED1
 62
    7
 10
8117.7718703811233
 20
3828.1307323558913
 11
8217.7719528610633
 21
3728.1306498759504
  0
LINE
  8
_3-3______
  6
DASHED1
 62
    7
 10
8117.7718703811233
 20
3863.48592397329
 11
8217.7719528610633
 21
3763.4858414933487
  0
LINE
  8
_3-3______
  6
DASHED1
 62
    7
 10
8125.8097055796034
 20
3890.8036515519429
 11
8217.7719528610633
 21
3798.8414042704817
  0
LINE
  8
_3-3______
  6
DASHED1
 62
    7
 10
8144.237786370355
 20
3907.7311335383233
 11
8217.7719528610633
 21
3834.19659588788
  0
LINE
  8
_3-3______
  6
DASHED1
 62
    7
 10
8174.1116910367409
 20
3913.2124204893375
 11
8217.3688733899926
 21
3869.955238136085
  0
LINE
  8
_3-5_寸法
  6
CONTINUOUS
 62
    7
 10
8217.7719528610633
 20
4388.6160773199963
 11
7717.7722827808284
 21
4388.6160773199963
  0
LINE
  8
_3-5_寸法
  6
CONTINUOUS
 62
    7
 10
8217.7719528610633
 20
4388.6160773199963
 11
8217.7719528610633
 21
4238.6159536000841
  0
LINE
  8
_3-5_寸法
  6
CONTINUOUS
 62
    7
 10
8467.7717879011834
 20
4138.6158711201442
 11
8317.7720353410059
 21
4138.6158711201442
  0
LINE
  8
_3-5_寸法
  6
CONTINUOUS
 62
    7
 10
8467.7717879011834
 20
4138.6158711201442
 11
8467.7717879011834
 21
3638.6162010399075
  0
LINE
  8
_3-5_寸法
  6
CONTINUOUS
 62
    7
 10
8467.7717879011834
 20
3638.6162010399075
 11
8317.7720353410059
 21
3638.6162010399075
  0
LINE
  8
_3-5_寸法
  6
CENTER1
 62
    7
 10
7792.7717879011825
 20
3638.6162010399075
 11
8317.7720353410059
 21
3638.6162010399075
  0
LINE
  8
_3-5_寸法
  6
CENTER1
 62
    7
 10
7717.7722827808284
 20
4238.6159536000841
 11
7717.7722827808284
 21
3713.6160773199963
  0
LINE
  8
_3-4______
  6
CONTINUOUS
 62
    7
 10
8017.7717879011825
 20
3938.6160773199963
 11
8017.7717879011825
 21
3813.6161597999367
  0
LINE
  8
_3-4______
  6
CONTINUOUS
 62
    7
 10
8017.7717879011825
 20
2638.6159329800994
 11
8017.7717879011825
 21
3813.6161597999367
  0
LINE
  8
_3-4______
  6
CONTINUOUS
 62
    7
 10
7892.7718703811233
 20
3813.6161597999367
 11
7892.7718703811233
 21
2638.6159329800994
  0
LINE
  8
_3-0_____
  6
CONTINUOUS
 62
    7
 10
8217.7719528610633
 20
2638.6159329800994
 11
8217.7719528610633
 21
4138.6158711201442
  0
LINE
  8
_3-5_寸法
  6
CONTINUOUS
 62
    7
 10
7717.7722827808284
 20
4388.6160773199963
 11
7717.7722827808284
 21
4238.6159536000841
  0
LINE
  8
_3-5_寸法
  6
CONTINUOUS
 62
    7
 10
7492.7722827808284
 20
4638.6159123601137
 11
7942.7722827808284
 21
4638.6159123601137
  0
LINE
  8
_3-5_寸法
  6
CONTINUOUS
 62
    7
 10
7492.7722827808284
 20
4638.6159123601137
 11
7492.7722827808284
 21
4238.6159536000841
  0
LINE
  8
_3-5_寸法
  6
CONTINUOUS
 62
    7
 10
7942.7722827808284
 20
4638.6159123601137
 11
7942.7722827808284
 21
4238.6159536000841
  0
LINE
  8
_3-5_寸法
  6
CONTINUOUS
 62
    7
 10
8717.7723652607692
 20
3863.6162010399071
 11
8717.7723652607692
 21
3413.6162010399075
  0
LINE
  8
_3-5_寸法
  6
CONTINUOUS
 62
    7
 10
8717.7723652607692
 20
3863.6162010399071
 11
8317.7720353410059
 21
3863.6162010399071
  0
LINE
  8
_3-5_寸法
  6
CONTINUOUS
 62
    7
 10
8717.7723652607692
 20
3413.6162010399075
 11
8317.7720353410059
 21
3413.6162010399075
  0
LINE
  8
_3-5_寸法
  6
CONTINUOUS
 62
    7
 10
8017.7717879011825
 20
2388.616097939981
 11
8117.7718703811233
 21
2388.616097939981
  0
LINE
  8
_3-5_寸法
  6
CONTINUOUS
 62
    7
 10
8017.7717879011825
 20
2388.616097939981
 11
8017.7717879011825
 21
2538.6160360800254
  0
LINE
  8
_3-5_寸法
  6
CONTINUOUS
 62
    7
 10
8117.7718703811233
 20
2388.616097939981
 11
8117.7718703811233
 21
2538.6160360800254
  0
LINE
  8
_3-5_寸法
  6
CONTINUOUS
 62
    7
 10
8117.7718703811233
 20
2388.616097939981
 11
8217.7719528610633
 21
2388.616097939981
  0
LINE
  8
_3-5_寸法
  6
CONTINUOUS
 62
    7
 10
8217.7719528610633
 20
2388.616097939981
 11
8217.7719528610633
 21
2538.6160360800254
  0
LINE
  8
_3-5_寸法
  6
CONTINUOUS
 62
    7
 10
7892.7718703811233
 20
2238.6159742200698
 11
8017.7717879011825
 21
2238.6159742200698
  0
LINE
  8
_3-5_寸法
  6
CONTINUOUS
 62
    7
 10
8017.7717879011825
 20
2238.6159742200698
 11
8017.7717879011825
 21
2388.616097939981
  0
LINE
  8
_3-5_寸法
  6
CONTINUOUS
 62
    7
 10
8017.7717879011825
 20
2238.6159742200698
 11
8217.7719528610633
 21
2238.6159742200698
  0
LINE
  8
_3-5_寸法
  6
CONTINUOUS
 62
    7
 10
8217.7719528610633
 20
2238.6159742200698
 11
8217.7719528610633
 21
2388.616097939981
  0
LINE
  8
_3-0_____
  6
CONTINUOUS
 62
    7
 10
6317.7718703811233
 20
4138.6158711201442
 11
8217.7719528610633
 21
4138.6158711201442
  0
LINE
  8
_3-4______
  6
CONTINUOUS
 62
    7
 10
6317.7718703811233
 20
3813.6161597999367
 11
8017.7717879011825
 21
3813.6161597999367
  0
LINE
  8
_3-4______
  6
CONTINUOUS
 62
    7
 10
6317.7718703811233
 20
3938.6160773199963
 11
8017.7717879011825
 21
3938.6160773199963
  0
LINE
  8
_3-6_文字
  6
CONTINUOUS
 62
    7
 10
7501.282233160895
 20
4034.5204121357688
 11
7332.146227037585
 21
4327.4727073875629
  0
LINE
  8
_3-6_文字
  6
CONTINUOUS
 62
    7
 10
7701.1977737014358
 20
4114.0354465793926
 11
7420.5037709828975
 21
4600.2116435282942
  0
LINE
  8
_3-6_文字
  6
CONTINUOUS
 62
    5
 10
7420.5037709828975
 20
4600.2116435282942
 11
6670.5042658625425
 21
4600.2116435282942
  0
LINE
  8
_3-5_寸法
  6
CONTINUOUS
 62
    7
 10
7892.7718703811233
 20
2238.6159742200698
 11
7892.7718703811233
 21
2538.6160360800254
  0
LINE
  8
_3-6_文字
  6
CONTINUOUS
 62
    7
 10
7332.146227037585
 20
4327.4727073875629
 11
6832.1458146378809
 21
4327.4727073875629
  0
LINE
  8
_3-7_躯体
  6
CONTINUOUS
 62
    7
 10
6495.8758379962001
 20
4138.6158711201442
 11
6695.8760029560817
 21
4338.6160360800259
  0
LINE
  8
_3-7_躯体
  6
CONTINUOUS
 62
    7
 10
6636.2603264885984
 20
4138.6158711201442
 11
6836.2597491290126
 21
4338.6160360800259
  0
LINE
  8
_3-7_躯体
  6
CONTINUOUS
 62
    7
 10
6566.0680822423992
 20
4138.6158711201442
 11
6766.0682472022809
 21
4338.6160360800259
  0
LINE
  8
_3-7_躯体
  6
CONTINUOUS
 62
    7
 10
8060.3653366501267
 20
4138.6158711201442
 11
8260.3655016100092
 21
4338.6160360800259
  0
LINE
  8
_3-7_躯体
  6
CONTINUOUS
 62
    7
 10
8130.5575808963267
 20
4138.6158711201442
 11
8330.5577458562075
 21
4338.6160360800259
  0
LINE
  8
_3-7_躯体
  6
CONTINUOUS
 62
    7
 10
8200.7498251425241
 20
4138.6158711201442
 11
8400.7499901024075
 21
4338.6160360800259
  0
LINE
  8
_3-7_躯体
  6
CONTINUOUS
 62
    7
 10
8217.7719528610633
 20
2918.5234482223927
 11
8417.7721178209467
 21
3118.5234276024075
  0
LINE
  8
_3-7_躯体
  6
CONTINUOUS
 62
    7
 10
8217.7719528610633
 20
2848.3312039761931
 11
8417.7721178209467
 21
3048.3311833562079
  0
LINE
  8
_3-7_躯体
  6
CONTINUOUS
 62
    7
 10
8217.7719528610633
 20
2778.1391453098609
 11
8417.7721178209467
 21
2978.1391246898752
  0
LINE
  8
_1-0_____
  6
CONTINUOUS
 62
    7
 10
1437.485875310125
 20
5293.9080728066938
 11
5769.7782774229308
 21
5293.9080728066938
  0
LINE
  8
_1-5_寸法
  6
CONTINUOUS
 62
    7
 10
5769.7782774229308
 20
7821.5062321843325
 11
5714.5519359691725
 21
7843.6147328969591
  0
LINE
  8
_1-5_寸法
  6
CONTINUOUS
 62
    7
 10
5769.7782774229308
 20
7821.5062321843325
 11
5711.3581064585096
 21
7798.901862067145
  0
LINE
  8
_1-5_寸法
  6
CONTINUOUS
 62
    7
 10
1437.485875310125
 20
7821.5062321843325
 11
1492.7122167638827
 21
7799.3977314717067
  0
LINE
  8
_1-5_寸法
  6
CONTINUOUS
 62
    7
 10
1437.485875310125
 20
7821.5062321843325
 11
1495.906046274546
 21
7844.11060230152
  0
LINE
  8
_1-5_寸法
  6
CONTINUOUS
 62
    7
 10
4809.919120169975
 20
7821.6301995354734
 11
5769.7782774229308
 21
7821.6301995354734
  0
LINE
  8
_1-5_寸法
  6
CONTINUOUS
 62
    7
 10
1083.2137236724031
 20
5293.9080728066938
 11
1437.485875310125
 21
5293.9080728066938
  0
LINE
  8
_1-5_寸法
  6
CONTINUOUS
 62
    7
 10
1083.2137236724031
 20
6193.9080728066938
 11
1083.2137236724031
 21
7451.72869708087
  0
LINE
  8
_1-5_寸法
  6
CONTINUOUS
 62
    7
 10
1083.2137236724031
 20
6193.9080728066938
 11
1083.2137236724031
 21
5293.9080728066938
  0
LINE
  8
_1-5_寸法
  6
CONTINUOUS
 62
    7
 10
5769.7782774229308
 20
4992.3678836307017
 11
5714.5519359691725
 21
5014.4763843433284
  0
LINE
  8
_1-5_寸法
  6
CONTINUOUS
 62
    7
 10
5769.7782774229308
 20
4992.3678836307017
 11
5711.3581064585096
 21
4969.7631423537796
  0
LINE
  8
_1-5_寸法
  6
CONTINUOUS
 62
    7
 10
5769.7782774229308
 20
4992.3678836307017
 11
1437.485875310125
 21
4992.3678836307017
  0
LINE
  8
_1-5_寸法
  6
CENTER1
 62
    7
 10
4901.4987017657304
 20
4992.3678836307017
 11
4901.4987017657304
 21
5470.6231606973188
  0
LINE
  8
_1-5_寸法
  6
CENTER1
 62
    7
 10
3551.4987017657309
 20
4992.3678836307017
 11
3551.4987017657309
 21
5470.6231606973188
  0
LINE
  8
_1-5_寸法
  6
CENTER1
 62
    7
 10
1437.485875310125
 20
6193.9080728066938
 11
5366.6030471389358
 21
6193.9080728066938
  0
LINE
  8
_1-5_寸法
  6
CENTER1
 62
    7
 10
1437.485875310125
 20
7093.90770164696
 11
5366.6030471389358
 21
7093.90770164696
  0
LINE
  8
_1-5_寸法
  6
CONTINUOUS
 62
    7
 10
1083.2137236724031
 20
7093.90770164696
 11
1437.485875310125
 21
7093.90770164696
  0
LINE
  8
_1-5_寸法
  6
CONTINUOUS
 62
    7
 10
1083.2137236724031
 20
6193.9080728066938
 11
1437.485875310125
 21
6193.9080728066938
  0
LINE
  8
_1-5_寸法
  6
CENTER1
 62
    7
 10
2201.4987017657313
 20
4992.3678836307017
 11
2201.4987017657313
 21
5470.6231606973188
  0
LINE
  8
_1-5_寸法
  6
CENTER1
 62
    7
 10
5264.4194319441513
 20
6990.6005859375
 11
5264.4194319441513
 21
7974.1152376741984
  0
LINE
  8
_1-5_寸法
  6
CENTER1
 62
    7
 10
4809.919120169975
 20
6990.6005859375
 11
4809.919120169975
 21
7974.1152376741984
  0
LINE
  8
_1-5_寸法
  6
CENTER1
 62
    7
 10
4355.4191795555316
 20
6990.6005859375
 11
4355.4191795555316
 21
7974.1152376741984
  0
LINE
  8
_1-5_寸法
  6
CENTER1
 62
    7
 10
3900.91923894109
 20
6990.6005859375
 11
3900.91923894109
 21
7974.1152376741984
  0
LINE
  8
_1-5_寸法
  6
CENTER1
 62
    7
 10
3446.4192983266471
 20
6990.6005859375
 11
3446.4192983266471
 21
7974.1152376741984
  0
LINE
  8
_1-5_寸法
  6
CENTER1
 62
    7
 10
2991.9193577122046
 20
6990.6005859375
 11
2991.9193577122046
 21
7974.1152376741984
  0
LINE
  8
_1-5_寸法
  6
CENTER1
 62
    7
 10
2537.4192315178948
 20
6990.6005859375
 11
2537.4192315178948
 21
7974.1152376741984
  0
LINE
  8
_1-5_寸法
  6
CENTER1
 62
    7
 10
2082.9192909034523
 20
6990.6005859375
 11
2082.9192909034523
 21
7974.1152376741984
  0
LINE
  8
_1-5_寸法
  6
CENTER1
 62
    7
 10
1628.4193502890093
 20
6990.6005859375
 11
1628.4193502890093
 21
7974.1152376741984
  0
LINE
  8
_1-5_寸法
  6
CONTINUOUS
 62
    7
 10
1083.0897563212625
 20
7480.1402323954817
 11
1060.9812556086358
 21
7424.9138909417234
  0
LINE
  8
_1-5_寸法
  6
CONTINUOUS
 62
    7
 10
1083.0897563212625
 20
7480.1402323954817
 11
1105.6942192283836
 21
7421.7204325907942
  0
LINE
  8
_1-5_寸法
  6
CONTINUOUS
 62
    7
 10
1437.485875310125
 20
4992.3678836307017
 11
1492.7122167638827
 21
4970.2593829180742
  0
LINE
  8
_1-5_寸法
  6
CONTINUOUS
 62
    7
 10
1437.485875310125
 20
4992.3678836307017
 11
1495.906046274546
 21
5014.9722537478892
  0
LINE
  8
_1-5_寸法
  6
CONTINUOUS
 62
    7
 10
4355.4191795555316
 20
7821.6301995354734
 11
4809.919120169975
 21
7821.6301995354734
  0
LINE
  8
_1-5_寸法
  6
CONTINUOUS
 62
    7
 10
3900.91923894109
 20
7821.6301995354734
 11
4355.4191795555316
 21
7821.6301995354734
  0
LINE
  8
_1-5_寸法
  6
CONTINUOUS
 62
    7
 10
3446.4192983266471
 20
7821.6301995354734
 11
3900.91923894109
 21
7821.6301995354734
  0
LINE
  8
_1-5_寸法
  6
CONTINUOUS
 62
    7
 10
2991.9193577122046
 20
7821.6301995354734
 11
3446.4192983266471
 21
7821.6301995354734
  0
LINE
  8
_1-5_寸法
  6
CONTINUOUS
 62
    7
 10
2537.4192315178948
 20
7821.6301995354734
 11
2991.9193577122046
 21
7821.6301995354734
  0
LINE
  8
_1-5_寸法
  6
CONTINUOUS
 62
    7
 10
2082.9192909034523
 20
7821.6301995354734
 11
2537.4192315178948
 21
7821.6301995354734
  0
LINE
  8
_1-5_寸法
  6
CONTINUOUS
 62
    7
 10
1437.485875310125
 20
7821.6301995354734
 11
2082.9192909034523
 21
7821.6301995354734
  0
LINE
  8
_1-6_文字
  6
CONTINUOUS
 62
    7
 10
2090.6483212032836
 20
6761.8897309174417
 11
2469.33498898068
 21
7417.7943049250434
  0
LINE
  8
_1-6_文字
  6
CONTINUOUS
 62
    7
 10
2658.0544961465371
 20
6413.4991620038008
 11
2948.7427170212209
 21
6413.4991620038008
  0
LINE
  8
_1-6_文字
  6
CONTINUOUS
 62
    7
 10
2542.5237913389465
 20
6200.3335901208829
 11
2658.0544961465371
 21
6413.4991620038008
  0
LINE
  8
_1-6_文字
  6
CONTINUOUS
 62
    7
 10
3711.0146187447217
 20
5453.9272823849242
 11
3619.0308441986908
 21
5309.2455064928208
  0
LINE
  8
_1-6_文字
  6
CONTINUOUS
 62
    7
 10
2368.1559176058381
 20
5821.3123218433284
 11
2818.1559176058381
 21
5821.3123218433284
  0
LINE
  8
_1-6_文字
  6
CONTINUOUS
 62
    7
 10
2204.5917614086247
 20
5338.9650087098817
 11
2368.1559176058381
 21
5821.3123218433284
  0
LINE
  8
_1-0_____
  6
CONTINUOUS
 62
    7
 10
1437.485875310125
 20
5338.9078501108534
 11
1594.6692389410898
 21
5338.9078501108534
  0
LINE
  8
_1-0_____
  6
CONTINUOUS
 62
    7
 10
1437.485875310125
 20
5323.908171782623
 11
3900.91923894109
 21
5323.908171782623
  0
LINE
  8
_1-0_____
  6
CONTINUOUS
 62
    7
 10
5256.1681798986492
 20
5323.908171782623
 11
5769.7782774229308
 21
5323.908171782623
  0
LINE
  8
_1-0_____
  6
DASHED1
 62
    7
 10
3900.91923894109
 20
5323.908171782623
 11
5256.1681798986492
 21
5323.908171782623
  0
LINE
  8
_1-1______
  6
CONTINUOUS
 62
    7
 10
1594.6692389410898
 20
5323.908171782623
 11
1594.6692389410898
 21
7451.72869708087
  0
LINE
  8
_1-1______
  6
CONTINUOUS
 62
    7
 10
1662.1692760570634
 20
5323.908171782623
 11
1662.1692760570634
 21
7451.72869708087
  0
LINE
  8
_1-1______
  6
CONTINUOUS
 62
    7
 10
2049.1693651353994
 20
5323.908171782623
 11
2049.1693651353994
 21
7451.72869708087
  0
LINE
  8
_1-1______
  6
CONTINUOUS
 62
    7
 10
2116.6692166715056
 20
5323.908171782623
 11
2116.6692166715056
 21
7451.72869708087
  0
LINE
  8
_1-1______
  6
CONTINUOUS
 62
    7
 10
2503.6693057498419
 20
5323.908171782623
 11
2503.6693057498419
 21
7451.72869708087
  0
LINE
  8
_1-1______
  6
CONTINUOUS
 62
    7
 10
2571.1693428658155
 20
5323.908171782623
 11
2571.1693428658155
 21
7451.72869708087
  0
LINE
  8
_1-1______
  6
CONTINUOUS
 62
    7
 10
2958.1692463642844
 20
5323.908171782623
 11
2958.1692463642844
 21
7451.72869708087
  0
LINE
  8
_1-1______
  6
CONTINUOUS
 62
    7
 10
3025.6692834802579
 20
5323.908171782623
 11
3025.6692834802579
 21
7451.72869708087
  0
LINE
  8
_1-1______
  6
CONTINUOUS
 62
    7
 10
3412.6693725585937
 20
5323.908171782623
 11
3412.6693725585937
 21
7451.72869708087
  0
LINE
  8
_1-1______
  6
CONTINUOUS
 62
    7
 10
3480.1692240947004
 20
5323.908171782623
 11
3480.1692240947004
 21
7451.72869708087
  0
LINE
  8
_1-1______
  6
CONTINUOUS
 62
    7
 10
3867.1693131730367
 20
5323.908171782623
 11
3867.1693131730367
 21
7451.72869708087
  0
LINE
  8
_1-1______
  6
CONTINUOUS
 62
    7
 10
5298.1693577122051
 20
5323.908171782623
 11
5298.1693577122051
 21
7451.72869708087
  0
LINE
  8
_1-1______
  6
CONTINUOUS
 62
    7
 10
3934.6691647091429
 20
6936.9256921716642
 11
3934.6691647091429
 21
7451.72869708087
  0
LINE
  8
_1-1______
  6
CONTINUOUS
 62
    7
 10
4321.6692537874787
 20
7097.2422006967909
 11
4321.6692537874787
 21
7451.72869708087
  0
LINE
  8
_1-1______
  6
CONTINUOUS
 62
    7
 10
4389.1694764833192
 20
7125.2038904138517
 11
4389.1694764833192
 21
7451.72869708087
  0
LINE
  8
_1-1______
  6
CONTINUOUS
 62
    7
 10
4776.1691944019221
 20
7285.5203989389784
 11
4776.1691944019221
 21
7451.72869708087
  0
LINE
  8
_1-1______
  6
CONTINUOUS
 62
    7
 10
4843.6694170977617
 20
7313.4820886560392
 11
4843.6694170977617
 21
7451.72869708087
  0
LINE
  8
_1-1______
  6
DASHED1
 62
    7
 10
3934.6691647091429
 20
5323.908171782623
 11
3934.6691647091429
 21
6936.9256921716642
  0
LINE
  8
_1-1______
  6
DASHED1
 62
    7
 10
4321.6692537874787
 20
5323.908171782623
 11
4321.6692537874787
 21
7097.2422006967909
  0
LINE
  8
_1-1______
  6
DASHED1
 62
    7
 10
4389.1694764833192
 20
5323.908171782623
 11
4389.1694764833192
 21
7125.2038904138517
  0
LINE
  8
_1-1______
  6
DASHED1
 62
    7
 10
4776.1691944019221
 20
5323.908171782623
 11
4776.1691944019221
 21
7285.5203989389784
  0
LINE
  8
_1-1______
  6
DASHED1
 62
    7
 10
4843.6694170977617
 20
5323.908171782623
 11
4843.6694170977617
 21
7313.4820886560392
  0
LINE
  8
_1-1______
  6
DASHED1
 62
    7
 10
5230.6691350163637
 20
5323.908171782623
 11
5230.6691350163637
 21
7451.72869708087
  0
LINE
  8
_1-4______
  6
CONTINUOUS
 62
    7
 10
5256.1681798986492
 20
7451.72869708087
 11
5177.3928668047929
 21
7451.72869708087
  0
LINE
  8
_1-4______
  6
CONTINUOUS
 62
    7
 10
5177.3928668047929
 20
7451.72869708087
 11
3900.91923894109
 21
6922.9448473131333
  0
LINE
  8
_1-4______
  6
CONTINUOUS
 62
    7
 10
3900.91923894109
 20
6922.9448473131333
 11
3900.91923894109
 21
5293.9080728066938
  0
LINE
  8
_1-4______
  6
CONTINUOUS
 62
    7
 10
3900.91923894109
 20
5293.9080728066938
 11
5256.1681798986492
 21
5293.9080728066938
  0
LINE
  8
_1-4______
  6
CONTINUOUS
 62
    7
 10
5256.1681798986492
 20
5293.9080728066938
 11
5256.1681798986492
 21
7451.72869708087
  0
LINE
  8
_1-0_____
  6
CONTINUOUS
 62
    7
 10
1662.1692760570634
 20
5338.9078501108534
 11
2049.1693651353994
 21
5338.9078501108534
  0
LINE
  8
_1-0_____
  6
CONTINUOUS
 62
    7
 10
2116.6692166715056
 20
5338.9078501108534
 11
2503.6693057498419
 21
5338.9078501108534
  0
LINE
  8
_1-0_____
  6
CONTINUOUS
 62
    7
 10
2571.1693428658155
 20
5338.9078501108534
 11
2958.1692463642844
 21
5338.9078501108534
  0
LINE
  8
_1-0_____
  6
CONTINUOUS
 62
    7
 10
3025.6692834802579
 20
5338.9078501108534
 11
3412.6693725585937
 21
5338.9078501108534
  0
LINE
  8
_1-0_____
  6
CONTINUOUS
 62
    7
 10
3480.1692240947004
 20
5338.9078501108534
 11
3867.1693131730367
 21
5338.9078501108534
  0
LINE
  8
_1-0_____
  6
DASHED1
 62
    7
 10
3934.6691647091429
 20
5338.9078501108534
 11
4321.6692537874787
 21
5338.9078501108534
  0
LINE
  8
_1-0_____
  6
DASHED1
 62
    7
 10
4389.1694764833192
 20
5338.9078501108534
 11
4776.1691944019221
 21
5338.9078501108534
  0
LINE
  8
_1-0_____
  6
DASHED1
 62
    7
 10
4843.6694170977617
 20
5338.9078501108534
 11
5230.6691350163637
 21
5338.9078501108534
  0
LINE
  8
_1-0_____
  6
CONTINUOUS
 62
    7
 10
5298.1693577122051
 20
5338.9078501108534
 11
5769.7782774229308
 21
5338.9078501108534
  0
LINE
  8
_1-7_躯体
  6
CONTINUOUS
 62
    7
 10
1622.9258150667758
 20
5154.4459162531675
 11
1762.3877860404352
 21
5293.9080728066938
  0
LINE
  8
_1-7_躯体
  6
CONTINUOUS
 62
    7
 10
5297.1913518132387
 20
5154.4459162531675
 11
5436.6535083667659
 21
5293.9080728066938
  0
LINE
  8
_1-7_躯体
  6
CONTINUOUS
 62
    7
 10
1700.3645819586679
 20
5154.4459162531675
 11
1839.8267385121937
 21
5293.9080728066938
  0
LINE
  8
_1-7_躯体
  6
CONTINUOUS
 62
    7
 10
1661.6451985127219
 20
5154.4459162531675
 11
1801.1073550662486
 21
5293.9080728066938
  0
LINE
  8
_1-7_躯体
  6
CONTINUOUS
 62
    7
 10
3660.1883759369721
 20
5154.4459162531675
 11
3799.6505324904983
 21
5293.9080728066938
  0
LINE
  8
_1-7_躯体
  6
CONTINUOUS
 62
    7
 10
3621.4689924910263
 20
5154.4459162531675
 11
3760.931149044553
 21
5293.9080728066938
  0
LINE
  8
_1-7_躯体
  6
CONTINUOUS
 62
    7
 10
3582.7496090450804
 20
5154.4459162531675
 11
3722.2117655986067
 21
5293.9080728066938
  0
LINE
  8
_1-7_躯体
  6
CONTINUOUS
 62
    7
 10
5219.752584921348
 20
5154.4459162531675
 11
5359.2147414748733
 21
5293.9080728066938
  0
LINE
  8
_1-7_躯体
  6
CONTINUOUS
 62
    7
 10
5258.4719683672929
 20
5154.4459162531675
 11
5397.9341249208192
 21
5293.9080728066938
  0
LINE
  8
_1-7_躯体
  6
CONTINUOUS
 62
    7
 10
1437.485875310125
 20
5293.9080728066938
 11
5769.7782774229308
 21
5293.9080728066938
  0
LINE
  8
_1-6_文字
  6
CONTINUOUS
 62
    7
 10
2469.33498898068
 20
7417.7943049250434
 11
3009.3351003286002
 21
7417.7943049250434
  0
LINE
  8
_1-6_文字
  6
CONTINUOUS
 62
    7
 10
3711.0146187447217
 20
5453.9272823849242
 11
4318.514767208615
 21
5453.9272823849242
  0
LINE
  8
_2-7_躯体
  6
CONTINUOUS
 62
    7
 10
3990.0551048485008
 20
4439.4757245038008
 11
3990.0551048485008
 21
1724.6618116224133
  0
LINE
  8
_2-6_文字
  6
CONTINUOUS
 62
    7
 10
2777.744231352935
 20
3897.1887124551313
 11
3121.0699545370567
 21
4491.8463629645275
  0
LINE
  8
_2-6_文字
  6
CONTINUOUS
 62
    7
 10
2796.3272713326123
 20
3843.1289260451858
 11
2997.2506961307013
 21
4191.1386850717909
  0
LINE
  8
_2-6_文字
  6
CONTINUOUS
 62
    7
 10
3121.0699545370567
 20
4491.8463629645275
 11
3451.0699297930746
 21
4491.8463629645275
  0
LINE
  8
_2-6_文字
  6
CONTINUOUS
 62
    7
 10
2997.2506961307013
 20
4191.1386850717909
 11
3177.2509188265412
 21
4191.1386850717909
  0
LINE
  8
_2-4______
  6
CONTINUOUS
 62
    7
 10
2821.9549230627113
 20
4444.1148500184754
 11
2821.9549230627113
 21
2054.7523498535156
  0
LINE
  8
_2-2_______
  6
CONTINUOUS
 62
    7
 10
2758.2048983187287
 20
2958.9468260069152
 11
2788.2049972946584
 21
2958.9468260069152
  0
LINE
  8
_2-2_______
  6
CONTINUOUS
 62
    7
 10
2758.2048983187287
 20
2928.9469126108534
 11
2788.2049972946584
 21
2928.9469126108534
  0
LINE
  8
_2-2_______
  6
CONTINUOUS
 62
    7
 10
2758.2048983187287
 20
3011.446999214791
 11
2788.2049972946584
 21
3011.446999214791
  0
LINE
  8
_2-2_______
  6
CONTINUOUS
 62
    7
 10
2758.2048983187287
 20
2876.4469249828439
 11
2788.2049972946584
 21
2876.4469249828439
  0
LINE
  8
_2-2_______
  6
CONTINUOUS
 62
    7
 10
2758.2048983187287
 20
3011.446999214791
 11
2758.2048983187287
 21
2958.9468260069152
  0
LINE
  8
_2-2_______
  6
CONTINUOUS
 62
    7
 10
2788.2049972946584
 20
3011.446999214791
 11
2788.2049972946584
 21
2958.9468260069152
  0
LINE
  8
_2-2_______
  6
CONTINUOUS
 62
    7
 10
2788.2049972946584
 20
2928.9469126108534
 11
2788.2049972946584
 21
2876.4469249828439
  0
LINE
  8
_2-2_______
  6
CONTINUOUS
 62
    7
 10
2758.2048983187287
 20
2928.9469126108534
 11
2758.2048983187287
 21
2876.4469249828439
  0
LINE
  8
_2-3______
  6
CONTINUOUS
 62
    7
 10
2758.2048983187287
 20
2958.9468260069152
 11
2788.2049972946584
 21
2958.9468260069152
  0
LINE
  8
_2-3______
  6
CONTINUOUS
 62
    7
 10
2788.2049972946584
 20
2958.9468260069152
 11
2788.2049972946584
 21
2928.9469126108534
  0
LINE
  8
_2-3______
  6
CONTINUOUS
 62
    7
 10
2788.2049972946584
 20
2928.9469126108534
 11
2758.2048983187287
 21
2928.9469126108534
  0
LINE
  8
_2-3______
  6
CONTINUOUS
 62
    7
 10
2758.2048983187287
 20
2928.9469126108534
 11
2758.2048983187287
 21
2958.9468260069152
  0
LINE
  8
_2-2_______
  6
CONTINUOUS
 62
    7
 10
2758.2048983187287
 20
3858.9473827465163
 11
2788.2049972946584
 21
3858.9473827465163
  0
LINE
  8
_2-2_______
  6
CONTINUOUS
 62
    7
 10
2758.2048983187287
 20
3828.9476549303213
 11
2788.2049972946584
 21
3828.9476549303213
  0
LINE
  8
_2-2_______
  6
CONTINUOUS
 62
    7
 10
2758.2048983187287
 20
3911.4475559543921
 11
2788.2049972946584
 21
3911.4475559543921
  0
LINE
  8
_2-2_______
  6
CONTINUOUS
 62
    7
 10
2758.2048983187287
 20
3776.4474817224454
 11
2788.2049972946584
 21
3776.4474817224454
  0
LINE
  8
_2-2_______
  6
CONTINUOUS
 62
    7
 10
2758.2048983187287
 20
3911.4475559543921
 11
2758.2048983187287
 21
3858.9473827465163
  0
LINE
  8
_2-2_______
  6
CONTINUOUS
 62
    7
 10
2788.2049972946584
 20
3911.4475559543921
 11
2788.2049972946584
 21
3858.9473827465163
  0
LINE
  8
_2-2_______
  6
CONTINUOUS
 62
    7
 10
2788.2049972946584
 20
3828.9476549303213
 11
2788.2049972946584
 21
3776.4474817224454
  0
LINE
  8
_2-2_______
  6
CONTINUOUS
 62
    7
 10
2758.2048983187287
 20
3828.9476549303213
 11
2758.2048983187287
 21
3776.4474817224454
  0
LINE
  8
_2-3______
  6
CONTINUOUS
 62
    7
 10
2758.2048983187287
 20
3858.9473827465163
 11
2788.2049972946584
 21
3858.9473827465163
  0
LINE
  8
_2-3______
  6
CONTINUOUS
 62
    7
 10
2788.2049972946584
 20
3858.9473827465163
 11
2788.2049972946584
 21
3828.9476549303213
  0
LINE
  8
_2-3______
  6
CONTINUOUS
 62
    7
 10
2788.2049972946584
 20
3828.9476549303213
 11
2758.2048983187287
 21
3828.9476549303213
  0
LINE
  8
_2-3______
  6
CONTINUOUS
 62
    7
 10
2758.2048983187287
 20
3828.9476549303213
 11
2758.2048983187287
 21
3858.9473827465163
  0
LINE
  8
_2-0_____
  6
CONTINUOUS
 62
    7
 10
2804.7049032675254
 20
2073.9463187552788
 11
2803.9549750250744
 21
2073.9463187552788
  0
LINE
  8
_2-0_____
  6
CONTINUOUS
 62
    7
 10
2787.45488347234
 20
2088.9463682432433
 11
2788.2049972946584
 21
2088.9463682432433
  0
LINE
  8
_2-0_____
  6
CONTINUOUS
 62
    7
 10
2787.45488347234
 20
2088.9463682432433
 11
2787.45488347234
 21
2043.9464053592169
  0
LINE
  8
_2-0_____
  6
CONTINUOUS
 62
    7
 10
2788.2049972946584
 20
2088.9463682432433
 11
2788.2049972946584
 21
2044.6963336016684
  0
LINE
  8
_2-0_____
  6
CONTINUOUS
 62
    7
 10
2804.7049032675254
 20
2073.9463187552788
 11
2804.7049032675254
 21
2043.9464053592169
  0
LINE
  8
_2-0_____
  6
CONTINUOUS
 62
    7
 10
2803.9549750250744
 20
2073.9463187552788
 11
2803.9549750250744
 21
2044.6963336016684
  0
LINE
  8
_2-0_____
  6
CONTINUOUS
 62
    7
 10
2787.45488347234
 20
2043.9464053592169
 11
2804.7049032675254
 21
2043.9464053592169
  0
LINE
  8
_2-0_____
  6
CONTINUOUS
 62
    7
 10
2788.2049972946584
 20
2044.6963336016684
 11
2803.9549750250744
 21
2044.6963336016684
  0
LINE
  8
_2-7_躯体
  6
CONTINUOUS
 62
    7
 10
2758.2048983187287
 20
2043.9464053592169
 11
3426.8703151393584
 21
2043.9464053592169
  0
LINE
  8
_2-7_躯体
  6
CENTER1
 62
    7
 10
2758.2048983187287
 20
2043.9464053592169
 11
2499.4273211504965
 21
2043.9464053592169
  0
LINE
  8
_2-7_躯体
  6
CENTER1
 62
    7
 10
2499.4273211504965
 20
2943.9469620988175
 11
2940.2838011045715
 21
2943.9469620988175
  0
LINE
  8
_2-7_躯体
  6
CENTER1
 62
    7
 10
2499.4273211504965
 20
3843.9473332585517
 11
2940.2838011045715
 21
3843.9473332585517
  0
LINE
  8
_2-7_躯体
  6
CONTINUOUS
 62
    7
 10
2608.2047745988175
 20
3550.949756519215
 11
2758.2048983187287
 21
3700.9498802391263
  0
LINE
  8
_2-7_躯体
  6
CONTINUOUS
 62
    7
 10
2608.2047745988175
 20
3508.5232296505492
 11
2758.2048983187287
 21
3658.5233533704604
  0
LINE
  8
_2-7_躯体
  6
CONTINUOUS
 62
    7
 10
2774.3115605534736
 20
2019.9893435916388
 11
2774.3115605534736
 21
1982.3984713167758
  0
LINE
  8
_2-7_躯体
  6
CONTINUOUS
 62
    7
 10
2608.2047745988175
 20
1833.4275735391157
 11
2632.4882713524075
 21
1857.7108847128379
  0
LINE
  8
_2-7_躯体
  6
CONTINUOUS
 62
    7
 10
2608.2047745988175
 20
1920.9279240788642
 11
2635.1864170383765
 21
1893.9462816393054
  0
LINE
  8
_2-7_躯体
  6
CONTINUOUS
 62
    7
 10
2608.2047745988175
 20
1833.4275735391157
 11
2608.2047745988175
 21
1746.5175525562183
  0
LINE
  8
_2-7_躯体
  6
CONTINUOUS
 62
    7
 10
2635.1864170383765
 20
1893.9462816393054
 11
2758.2048983187287
 21
1893.9462816393054
  0
LINE
  8
_2-7_躯体
  6
CONTINUOUS
 62
    7
 10
2635.1864170383765
 20
1893.9462816393054
 11
2758.2048983187287
 21
1893.9462816393054
  0
LINE
  8
_2-7_躯体
  6
CONTINUOUS
 62
    7
 10
2632.4882713524075
 20
1857.7108847128379
 11
2742.8672790527344
 21
1857.7108847128379
  0
LINE
  8
_2-7_躯体
  6
CONTINUOUS
 62
    7
 10
2664.3235696328652
 20
1893.9462816393054
 11
2664.3235696328652
 21
1857.7108847128379
  0
LINE
  8
_2-7_躯体
  6
CONTINUOUS
 62
    7
 10
2635.1864170383765
 20
1893.9462816393054
 11
2635.1864170383765
 21
1857.7108847128379
  0
LINE
  8
_2-7_躯体
  6
CONTINUOUS
 62
    7
 10
2774.3115605534736
 20
1964.5815050279773
 11
2774.3115605534736
 21
1883.6751783216321
  0
LINE
  8
_2-7_躯体
  6
CONTINUOUS
 62
    7
 10
2790.4733400087102
 20
1949.8360711175044
 11
2790.4733400087102
 21
1897.0202265559014
  0
LINE
  8
_2-7_躯体
  6
CONTINUOUS
 62
    7
 10
2800.1839921281144
 20
1956.5260397421348
 11
2800.1839921281144
 21
1905.0385758683487
  0
LINE
  8
_2-7_躯体
  6
CONTINUOUS
 62
    7
 10
2758.2048983187287
 20
1982.1045128074852
 11
2790.4733400087102
 21
1949.8360711175044
  0
LINE
  8
_2-7_躯体
  6
CONTINUOUS
 62
    7
 10
2774.3115605534736
 20
1982.3984713167758
 11
2800.1839921281144
 21
1956.5260397421348
  0
LINE
  8
_2-7_躯体
  6
CONTINUOUS
 62
    7
 10
2758.2048983187287
 20
2019.9893435916388
 11
2774.3115605534736
 21
2019.9893435916388
  0
LINE
  8
_2-7_躯体
  6
CONTINUOUS
 62
    7
 10
2608.2047745988175
 20
2492.6683168153509
 11
2758.2048983187287
 21
2642.6684405352621
  0
LINE
  8
_2-7_躯体
  6
CONTINUOUS
 62
    7
 10
2608.2047745988175
 20
2450.2419755265519
 11
2758.2048983187287
 21
2600.2420992464631
  0
LINE
  8
_2-7_躯体
  6
CONTINUOUS
 62
    7
 10
2929.2289940086575
 20
2043.9464053592169
 11
2929.2289940086575
 21
1912.5285792995144
  0
LINE
  8
_2-7_躯体
  6
CONTINUOUS
 62
    7
 10
3075.0366829537061
 20
1893.9462816393054
 11
3225.03662109375
 21
2043.9464053592169
  0
LINE
  8
_2-7_躯体
  6
CONTINUOUS
 62
    7
 10
3117.4630242425042
 20
1893.9462816393054
 11
3267.4631479624159
 21
2043.9464053592169
  0
LINE
  8
_2-7_躯体
  6
CONTINUOUS
 62
    7
 10
3032.6101560850402
 20
1893.9462816393054
 11
3182.6100942250846
 21
2043.9464053592169
  0
LINE
  8
_2-7_躯体
  6
CONTINUOUS
 62
    7
 10
2758.2048983187287
 20
1893.9462816393054
 11
2758.2048983187287
 21
4444.1148500184754
  0
LINE
  8
_2-7_躯体
  6
CONTINUOUS
 62
    7
 10
2608.2047745988175
 20
4444.1148500184754
 11
2608.2047745988175
 21
1920.9279240788642
  0
LINE
  8
_2-1______
  6
CONTINUOUS
 62
    7
 10
2788.2049972946584
 20
4444.1148500184754
 11
2788.2049972946584
 21
2052.1963583456504
  0
LINE
  8
_2-1______
  6
CONTINUOUS
 62
    7
 10
2803.2048612027556
 20
2052.1963583456504
 11
2803.2048612027556
 21
4444.1148500184754
  0
LINE
  8
_2-1______
  6
CONTINUOUS
 62
    7
 10
2788.2049972946584
 20
2052.1963583456504
 11
2803.2048612027556
 21
2052.1963583456504
  0
LINE
  8
_2-4______
  6
CONTINUOUS
 62
    7
 10
2804.7049032675254
 20
2054.7523498535156
 11
2821.9549230627113
 21
2054.7523498535156
  0
LINE
  8
_2-4______
  6
CONTINUOUS
 62
    7
 10
2803.2048612027556
 20
4444.1148500184754
 11
2803.2048612027556
 21
2073.9463187552788
  0
LINE
  8
_2-6_文字
  6
CONTINUOUS
 62
    7
 10
3090.7126143171981
 20
3031.6622141245252
 11
3450.7125029692779
 21
3031.6622141245252
  0
LINE
  8
_2-6_文字
  6
CONTINUOUS
 62
    7
 10
2807.8590186866554
 20
2541.7454693768477
 11
3090.7126143171981
 21
3031.6622141245252
  0
LINE
  8
_2-6_文字
  6
CONTINUOUS
 62
    7
 10
3073.2721895784944
 20
2528.8356059306379
 11
3403.2719792546454
 21
2528.8356059306379
  0
LINE
  8
_2-6_文字
  6
CONTINUOUS
 62
    7
 10
2804.7049032675254
 20
2063.6637094858534
 11
3073.2721895784944
 21
2528.8356059306379
  0
LINE
  8
_2-1______
  6
CONTINUOUS
 62
    7
 10
2788.2049972946584
 20
3837.9475361592063
 11
2803.2048612027556
 21
3837.9475361592063
  0
LINE
  8
_2-1______
  6
CONTINUOUS
 62
    7
 10
2788.2049972946584
 20
3849.9475015176313
 11
2803.2048612027556
 21
3849.9475015176313
  0
LINE
  8
_2-1______
  6
CONTINUOUS
 62
    7
 10
2788.2049972946584
 20
2937.9469794196057
 11
2803.2048612027556
 21
2937.9469794196057
  0
LINE
  8
_2-1______
  6
CONTINUOUS
 62
    7
 10
2788.2049972946584
 20
2949.9469447780302
 11
2803.2048612027556
 21
2949.9469447780302
  0
LINE
  8
_2-4______
  6
CONTINUOUS
 62
    7
 10
4329.4940432986705
 20
4444.1148500184754
 11
4329.4940432986705
 21
2054.7523498535156
  0
LINE
  8
_2-2_______
  6
CONTINUOUS
 62
    7
 10
4265.7440185546875
 20
2958.9468260069152
 11
4295.7437463708829
 21
2958.9468260069152
  0
LINE
  8
_2-2_______
  6
CONTINUOUS
 62
    7
 10
4265.7440185546875
 20
2928.9469126108534
 11
4295.7437463708829
 21
2928.9469126108534
  0
LINE
  8
_2-2_______
  6
CONTINUOUS
 62
    7
 10
4265.7440185546875
 20
3011.446999214791
 11
4295.7437463708829
 21
3011.446999214791
  0
LINE
  8
_2-2_______
  6
CONTINUOUS
 62
    7
 10
4265.7440185546875
 20
2876.4469249828439
 11
4295.7437463708829
 21
2876.4469249828439
  0
LINE
  8
_2-2_______
  6
CONTINUOUS
 62
    7
 10
4265.7440185546875
 20
3011.446999214791
 11
4265.7440185546875
 21
2958.9468260069152
  0
LINE
  8
_2-2_______
  6
CONTINUOUS
 62
    7
 10
4295.7437463708829
 20
3011.446999214791
 11
4295.7437463708829
 21
2958.9468260069152
  0
LINE
  8
_2-2_______
  6
CONTINUOUS
 62
    7
 10
4295.7437463708829
 20
2928.9469126108534
 11
4295.7437463708829
 21
2876.4469249828439
  0
LINE
  8
_2-2_______
  6
CONTINUOUS
 62
    7
 10
4265.7440185546875
 20
2928.9469126108534
 11
4265.7440185546875
 21
2876.4469249828439
  0
LINE
  8
_2-3______
  6
CONTINUOUS
 62
    7
 10
4265.7440185546875
 20
2958.9468260069152
 11
4295.7437463708829
 21
2958.9468260069152
  0
LINE
  8
_2-3______
  6
CONTINUOUS
 62
    7
 10
4295.7437463708829
 20
2958.9468260069152
 11
4295.7437463708829
 21
2928.9469126108534
  0
LINE
  8
_2-3______
  6
CONTINUOUS
 62
    7
 10
4295.7437463708829
 20
2928.9469126108534
 11
4265.7440185546875
 21
2928.9469126108534
  0
LINE
  8
_2-3______
  6
CONTINUOUS
 62
    7
 10
4265.7440185546875
 20
2928.9469126108534
 11
4265.7440185546875
 21
2958.9468260069152
  0
LINE
  8
_2-2_______
  6
CONTINUOUS
 62
    7
 10
4265.7440185546875
 20
3858.9473827465163
 11
4295.7437463708829
 21
3858.9473827465163
  0
LINE
  8
_2-2_______
  6
CONTINUOUS
 62
    7
 10
4265.7440185546875
 20
3828.9476549303213
 11
4295.7437463708829
 21
3828.9476549303213
  0
LINE
  8
_2-2_______
  6
CONTINUOUS
 62
    7
 10
4265.7440185546875
 20
3911.4475559543921
 11
4295.7437463708829
 21
3911.4475559543921
  0
LINE
  8
_2-2_______
  6
CONTINUOUS
 62
    7
 10
4265.7440185546875
 20
3776.4474817224454
 11
4295.7437463708829
 21
3776.4474817224454
  0
LINE
  8
_2-2_______
  6
CONTINUOUS
 62
    7
 10
4265.7440185546875
 20
3911.4475559543921
 11
4265.7440185546875
 21
3858.9473827465163
  0
LINE
  8
_2-2_______
  6
CONTINUOUS
 62
    7
 10
4295.7437463708829
 20
3911.4475559543921
 11
4295.7437463708829
 21
3858.9473827465163
  0
LINE
  8
_2-2_______
  6
CONTINUOUS
 62
    7
 10
4295.7437463708829
 20
3828.9476549303213
 11
4295.7437463708829
 21
3776.4474817224454
  0
LINE
  8
_2-2_______
  6
CONTINUOUS
 62
    7
 10
4265.7440185546875
 20
3828.9476549303213
 11
4265.7440185546875
 21
3776.4474817224454
  0
LINE
  8
_2-3______
  6
CONTINUOUS
 62
    7
 10
4265.7440185546875
 20
3858.9473827465163
 11
4295.7437463708829
 21
3858.9473827465163
  0
LINE
  8
_2-3______
  6
CONTINUOUS
 62
    7
 10
4295.7437463708829
 20
3858.9473827465163
 11
4295.7437463708829
 21
3828.9476549303213
  0
LINE
  8
_2-3______
  6
CONTINUOUS
 62
    7
 10
4295.7437463708829
 20
3828.9476549303213
 11
4265.7440185546875
 21
3828.9476549303213
  0
LINE
  8
_2-3______
  6
CONTINUOUS
 62
    7
 10
4265.7440185546875
 20
3828.9476549303213
 11
4265.7440185546875
 21
3858.9473827465163
  0
LINE
  8
_2-0_____
  6
CONTINUOUS
 62
    7
 10
4312.2440235034846
 20
2073.9463187552788
 11
4311.4939096811659
 21
2073.9463187552788
  0
LINE
  8
_2-0_____
  6
CONTINUOUS
 62
    7
 10
4294.9940037082988
 20
2088.9463682432433
 11
4295.7437463708829
 21
2088.9463682432433
  0
LINE
  8
_2-0_____
  6
CONTINUOUS
 62
    7
 10
4294.9940037082988
 20
2088.9463682432433
 11
4294.9940037082988
 21
2043.9464053592169
  0
LINE
  8
_2-0_____
  6
CONTINUOUS
 62
    7
 10
4295.7437463708829
 20
2088.9463682432433
 11
4295.7437463708829
 21
2044.6963336016684
  0
LINE
  8
_2-0_____
  6
CONTINUOUS
 62
    7
 10
4312.2440235034846
 20
2073.9463187552788
 11
4312.2440235034846
 21
2043.9464053592169
  0
LINE
  8
_2-0_____
  6
CONTINUOUS
 62
    7
 10
4311.4939096811659
 20
2073.9463187552788
 11
4311.4939096811659
 21
2044.6963336016684
  0
LINE
  8
_2-0_____
  6
CONTINUOUS
 62
    7
 10
4294.9940037082988
 20
2043.9464053592169
 11
4312.2440235034846
 21
2043.9464053592169
  0
LINE
  8
_2-0_____
  6
CONTINUOUS
 62
    7
 10
4295.7437463708829
 20
2044.6963336016684
 11
4311.4939096811659
 21
2044.6963336016684
  0
LINE
  8
_2-1______
  6
CONTINUOUS
 62
    7
 10
4295.7437463708829
 20
4444.1148500184754
 11
4295.7437463708829
 21
2052.1963583456504
  0
LINE
  8
_2-1______
  6
CONTINUOUS
 62
    7
 10
4310.743795858848
 20
2052.1963583456504
 11
4310.743795858848
 21
4444.1148500184754
  0
LINE
  8
_2-1______
  6
CONTINUOUS
 62
    7
 10
4295.7437463708829
 20
2052.1963583456504
 11
4310.743795858848
 21
2052.1963583456504
  0
LINE
  8
_2-4______
  6
CONTINUOUS
 62
    7
 10
4312.2440235034846
 20
2054.7523498535156
 11
4329.4940432986705
 21
2054.7523498535156
  0
LINE
  8
_2-4______
  6
CONTINUOUS
 62
    7
 10
4310.743795858848
 20
4444.1148500184754
 11
4310.743795858848
 21
2073.9463187552788
  0
LINE
  8
_2-1______
  6
CONTINUOUS
 62
    7
 10
4295.7437463708829
 20
3837.9475361592063
 11
4310.743795858848
 21
3837.9475361592063
  0
LINE
  8
_2-1______
  6
CONTINUOUS
 62
    7
 10
4295.7437463708829
 20
3849.9475015176313
 11
4310.743795858848
 21
3849.9475015176313
  0
LINE
  8
_2-1______
  6
CONTINUOUS
 62
    7
 10
4295.7437463708829
 20
2937.9469794196057
 11
4310.743795858848
 21
2937.9469794196057
  0
LINE
  8
_2-1______
  6
CONTINUOUS
 62
    7
 10
4295.7437463708829
 20
2949.9469447780302
 11
4310.743795858848
 21
2949.9469447780302
  0
LINE
  8
_2-7_躯体
  6
CENTER1
 62
    7
 10
3904.83682993296
 20
3843.9473332585517
 11
4447.8227357606629
 21
3843.9473332585517
  0
LINE
  8
_2-7_躯体
  6
CENTER1
 62
    7
 10
3904.83682993296
 20
2943.9469620988175
 11
4447.8227357606629
 21
2943.9469620988175
  0
LINE
  8
_2-0_____
  6
CENTER1
 62
    7
 10
4265.7440185546875
 20
2043.9464053592169
 11
3881.2774658203125
 21
2043.9464053592169
  0
LINE
  8
_2-7_躯体
  6
CONTINUOUS
 62
    7
 10
4582.5756176097975
 20
1893.9462816393054
 11
4732.5757413297088
 21
2043.9464053592169
  0
LINE
  8
_2-7_躯体
  6
CONTINUOUS
 62
    7
 10
4540.1490907411317
 20
1893.9462816393054
 11
4690.1492144610429
 21
2043.9464053592169
  0
LINE
  8
_2-7_躯体
  6
CONTINUOUS
 62
    7
 10
4625.0021444784634
 20
1893.9462816393054
 11
4775.0022681983746
 21
2043.9464053592169
  0
LINE
  8
_2-7_躯体
  6
CONTINUOUS
 62
    7
 10
3990.0551048485008
 20
3449.8306274414062
 11
4265.7440185546875
 21
3725.5195411475929
  0
LINE
  8
_2-7_躯体
  6
CONTINUOUS
 62
    7
 10
3990.0551048485008
 20
3399.1495080896329
 11
4265.7440185546875
 21
3674.8384217958196
  0
LINE
  8
_2-7_躯体
  6
CONTINUOUS
 62
    7
 10
3990.0551048485008
 20
3353.5365749049834
 11
4265.7440185546875
 21
3629.22548861117
  0
LINE
  8
_2-7_躯体
  6
CONTINUOUS
 62
    7
 10
3990.0551048485008
 20
2317.9543366303315
 11
4265.7440185546875
 21
2593.6428791767844
  0
LINE
  8
_2-7_躯体
  6
CONTINUOUS
 62
    7
 10
3990.0551048485008
 20
2399.0440162452492
 11
4265.7440185546875
 21
2674.7325587917021
  0
LINE
  8
_2-7_躯体
  6
CONTINUOUS
 62
    7
 10
3990.0551048485008
 20
2356.8097501187713
 11
4265.7440185546875
 21
2632.4984782450911
  0
LINE
  8
_2-7_躯体
  6
CONTINUOUS
 62
    7
 10
4265.7440185546875
 20
2043.9464053592169
 11
4265.7440185546875
 21
4444.1148500184754
  0
LINE
  8
_2-7_躯体
  6
CONTINUOUS
 62
    7
 10
4265.7440185546875
 20
2043.9464053592169
 11
4934.4090642155825
 21
2043.9464053592169
  0
LINE
  8
_7-1_スタッド
  6
CONTINUOUS
 62
    7
 10
17677.650740339952
 20
3062.1136433369406
 11
17947.650146484375
 21
3062.1136433369406
  0
LINE
  8
_7-1_スタッド
  6
CONTINUOUS
 62
    7
 10
17677.650740339952
 20
3044.1136952993033
 11
17947.650146484375
 21
3044.1136952993033
  0
LINE
  8
_7-4_
  6
CONTINUOUS
 62
    7
 10
17682.150680954393
 20
3062.1136433369406
 11
17682.150680954393
 21
3044.1136952993033
  0
LINE
  8
_7-4_
  6
CONTINUOUS
 62
    7
 10
17943.150205869933
 20
3062.1136433369406
 11
17943.150205869933
 21
3044.1136952993033
  0
LINE
  8
_7-2_スポンジ
  6
DASHED1
 62
    7
 10
17694.911152607689
 20
2063.113650760135
 11
17904.910360800252
 21
1853.1137002481
  0
LINE
  8
_7-2_スポンジ
  6
DASHED1
 62
    7
 10
17721.293186497045
 20
2393.1136260161529
 11
17931.292394689612
 21
2183.1136755041175
  0
LINE
  8
_7-2_スポンジ
  6
DASHED1
 62
    7
 10
17680.651195629223
 20
2026.4621837719067
 11
17853.999122413432
 21
1853.1137002481
  0
LINE
  8
_7-2_スポンジ
  6
DASHED1
 62
    7
 10
17680.651195629223
 20
1975.5503886454817
 11
17803.087884026605
 21
1853.1137002481
  0
LINE
  8
_7-2_スポンジ
  6
DASHED1
 62
    7
 10
17680.651195629223
 20
1924.6387790989231
 11
17752.176645639782
 21
1853.1137002481
  0
LINE
  8
_7-2_スポンジ
  6
DASHED1
 62
    7
 10
17680.651195629223
 20
1873.7269839724981
 11
17701.263922614024
 21
1853.1137002481
  0
LINE
  8
_7-2_スポンジ
  6
DASHED1
 62
    7
 10
17680.651195629223
 20
2382.8440073374159
 11
17880.381156302788
 21
2183.1136755041175
  0
LINE
  8
_7-2_スポンジ
  6
DASHED1
 62
    7
 10
17680.651195629223
 20
2331.9322122109902
 11
17829.469917915962
 21
2183.1136755041175
  0
LINE
  8
_7-2_スポンジ
  6
DASHED1
 62
    7
 10
17680.651195629223
 20
2281.0206026644319
 11
17778.557194890203
 21
2183.1136755041175
  0
LINE
  8
_7-2_スポンジ
  6
DASHED1
 62
    7
 10
17680.651195629223
 20
2230.1088075380071
 11
17727.645956503377
 21
2183.1136755041175
  0
LINE
  8
_7-2_スポンジ
  6
CENTER1
 62
    7
 10
17680.651195629223
 20
1853.1137002481
 11
17944.651175834038
 21
1853.1137002481
  0
LINE
  8
_7-2_スポンジ
  6
CENTER1
 62
    7
 10
17680.651195629223
 20
2393.1136260161529
 11
17944.651175834038
 21
2393.1136260161529
  0
LINE
  8
_7-2_スポンジ
  6
DASHED1
 62
    7
 10
17898.55759079392
 20
2063.113650760135
 11
17944.651175834038
 21
2017.0206224596179
  0
LINE
  8
_7-2_スポンジ
  6
DASHED1
 62
    7
 10
17847.646352407097
 20
2063.113650760135
 11
17944.651175834038
 21
1966.1088273331925
  0
LINE
  8
_7-2_スポンジ
  6
DASHED1
 62
    7
 10
17796.735114020274
 20
2063.113650760135
 11
17944.651175834038
 21
1915.1972177866344
  0
LINE
  8
_7-2_スポンジ
  6
DASHED1
 62
    7
 10
17745.822390994512
 20
2063.113650760135
 11
17944.651175834038
 21
1864.2854226602094
  0
LINE
  8
_7-2_スポンジ
  6
DASHED1
 62
    7
 10
17924.939624683277
 20
2393.1136260161529
 11
17944.651175834038
 21
2373.4024460251271
  0
LINE
  8
_7-2_スポンジ
  6
DASHED1
 62
    7
 10
17874.028386296453
 20
2393.1136260161529
 11
17944.651175834038
 21
2322.4906508987015
  0
LINE
  8
_7-2_スポンジ
  6
DASHED1
 62
    7
 10
17823.115663270695
 20
2393.1136260161529
 11
17944.651175834038
 21
2271.5790413521436
  0
LINE
  8
_7-2_スポンジ
  6
DASHED1
 62
    7
 10
17772.204424883868
 20
2393.1136260161529
 11
17944.651175834038
 21
2220.6672462257179
  0
LINE
  8
_7-2_スポンジ
  6
CENTER1
 62
    7
 10
17680.651195629223
 20
2063.113650760135
 11
17944.651175834038
 21
2063.113650760135
  0
LINE
  8
_7-2_スポンジ
  6
CENTER1
 62
    7
 10
17680.651195629223
 20
2183.1136755041175
 11
17944.651175834038
 21
2183.1136755041175
  0
LINE
  8
_7-1_スタッド
  6
CONTINUOUS
 62
    7
 10
17677.650740339952
 20
1662.4890301678633
 11
17677.650740339952
 21
3044.1136952993033
  0
LINE
  8
_7-1_スタッド
  6
CONTINUOUS
 62
    7
 10
17947.650146484375
 20
1662.4890301678633
 11
17947.650146484375
 21
3044.1136952993033
  0
LINE
  8
_7-3_ボンド
  6
CONTINUOUS
 62
    7
 10
17647.650641364024
 20
2093.1135641561973
 11
17647.650641364024
 21
2153.1135765281883
  0
LINE
  8
_7-3_ボンド
  6
CONTINUOUS
 62
    7
 10
17977.650245460307
 20
2093.1135641561973
 11
17977.650245460307
 21
2153.1135765281883
  0
LINE
  8
_7-3_ボンド
  6
CENTER1
 62
    7
 10
17677.650740339952
 20
2063.113650760135
 11
17947.650146484375
 21
2063.113650760135
  0
LINE
  8
_7-3_ボンド
  6
CENTER1
 62
    7
 10
17677.650740339952
 20
2183.1136755041175
 11
17947.650146484375
 21
2183.1136755041175
  0
LINE
  8
_7-1_スタッド
  6
DASHED1
 62
    7
 10
17944.651175834038
 20
1661.6203308105469
 11
17944.651175834038
 21
3044.1136952993033
  0
LINE
  8
_7-1_スタッド
  6
DASHED1
 62
    7
 10
17680.651195629223
 20
1661.6203308105469
 11
17680.651195629223
 21
3044.1136952993033
  0
LINE
  8
_7-2_スポンジ
  6
DASHED1
 62
    7
 10
17694.911152607689
 20
4043.1135022962412
 11
17904.910360800252
 21
4253.1134528082775
  0
LINE
  8
_7-2_スポンジ
  6
DASHED1
 62
    7
 10
17721.293186497045
 20
3713.1135270402237
 11
17931.292394689612
 21
3923.1134775522596
  0
LINE
  8
_7-2_スポンジ
  6
DASHED1
 62
    7
 10
17680.651195629223
 20
4079.7651548643375
 11
17853.999122413432
 21
4253.1134528082775
  0
LINE
  8
_7-2_スポンジ
  6
DASHED1
 62
    7
 10
17680.651195629223
 20
4130.676764410895
 11
17803.087884026605
 21
4253.1134528082775
  0
LINE
  8
_7-2_スポンジ
  6
DASHED1
 62
    7
 10
17680.651195629223
 20
4181.5883739574538
 11
17752.176645639782
 21
4253.1134528082775
  0
LINE
  8
_7-2_スポンジ
  6
DASHED1
 62
    7
 10
17680.651195629223
 20
4232.5003546637463
 11
17701.263922614024
 21
4253.1134528082775
  0
LINE
  8
_7-2_スポンジ
  6
DASHED1
 62
    7
 10
17680.651195629223
 20
3723.3831457189613
 11
17880.381156302788
 21
3923.1134775522596
  0
LINE
  8
_7-2_スポンジ
  6
DASHED1
 62
    7
 10
17680.651195629223
 20
3774.2951264252533
 11
17829.469917915962
 21
3923.1134775522596
  0
LINE
  8
_7-2_スポンジ
  6
DASHED1
 62
    7
 10
17680.651195629223
 20
3825.2067359718117
 11
17778.557194890203
 21
3923.1134775522596
  0
LINE
  8
_7-2_スポンジ
  6
DASHED1
 62
    7
 10
17680.651195629223
 20
3876.1183455183705
 11
17727.645956503377
 21
3923.1134775522596
  0
LINE
  8
_7-2_スポンジ
  6
CENTER1
 62
    7
 10
17680.651195629223
 20
4253.1134528082775
 11
17944.651175834038
 21
4253.1134528082775
  0
LINE
  8
_7-2_スポンジ
  6
CENTER1
 62
    7
 10
17680.651195629223
 20
3713.1135270402237
 11
17944.651175834038
 21
3713.1135270402237
  0
LINE
  8
_7-2_スポンジ
  6
DASHED1
 62
    7
 10
17898.55759079392
 20
4043.1135022962412
 11
17944.651175834038
 21
4089.2067161766258
  0
LINE
  8
_7-2_スポンジ
  6
DASHED1
 62
    7
 10
17847.646352407097
 20
4043.1135022962412
 11
17944.651175834038
 21
4140.1183257231842
  0
LINE
  8
_7-2_スポンジ
  6
DASHED1
 62
    7
 10
17796.735114020274
 20
4043.1135022962412
 11
17944.651175834038
 21
4191.029935269743
  0
LINE
  8
_7-2_スポンジ
  6
DASHED1
 62
    7
 10
17745.822390994512
 20
4043.1135022962412
 11
17944.651175834038
 21
4241.9419159760355
  0
LINE
  8
_7-2_スポンジ
  6
DASHED1
 62
    7
 10
17924.939624683277
 20
3713.1135270402237
 11
17944.651175834038
 21
3732.82470703125
  0
LINE
  8
_7-2_スポンジ
  6
DASHED1
 62
    7
 10
17874.028386296453
 20
3713.1135270402237
 11
17944.651175834038
 21
3783.7366877375425
  0
LINE
  8
_7-2_スポンジ
  6
DASHED1
 62
    7
 10
17823.115663270695
 20
3713.1135270402237
 11
17944.651175834038
 21
3834.6482972841009
  0
LINE
  8
_7-2_スポンジ
  6
DASHED1
 62
    7
 10
17772.204424883868
 20
3713.1135270402237
 11
17944.651175834038
 21
3885.5599068306587
  0
LINE
  8
_7-2_スポンジ
  6
CENTER1
 62
    7
 10
17680.651195629223
 20
4043.1135022962412
 11
17944.651175834038
 21
4043.1135022962412
  0
LINE
  8
_7-2_スポンジ
  6
CENTER1
 62
    7
 10
17680.651195629223
 20
3923.1134775522596
 11
17944.651175834038
 21
3923.1134775522596
  0
LINE
  8
_7-1_スタッド
  6
CONTINUOUS
 62
    7
 10
17677.650740339952
 20
4443.7381228885142
 11
17677.650740339952
 21
3062.1136433369406
  0
LINE
  8
_7-1_スタッド
  6
CONTINUOUS
 62
    7
 10
17947.650146484375
 20
4443.7381228885142
 11
17947.650146484375
 21
3062.1136433369406
  0
LINE
  8
_7-3_ボンド
  6
CONTINUOUS
 62
    7
 10
17647.650641364024
 20
4013.1137744800471
 11
17647.650641364024
 21
3953.1135765281883
  0
LINE
  8
_7-3_ボンド
  6
CONTINUOUS
 62
    7
 10
17977.650245460307
 20
4013.1137744800471
 11
17977.650245460307
 21
3953.1135765281883
  0
LINE
  8
_7-3_ボンド
  6
CENTER1
 62
    7
 10
17677.650740339952
 20
4043.1135022962412
 11
17947.650146484375
 21
4043.1135022962412
  0
LINE
  8
_7-3_ボンド
  6
CENTER1
 62
    7
 10
17677.650740339952
 20
3923.1134775522596
 11
17947.650146484375
 21
3923.1134775522596
  0
LINE
  8
_7-1_スタッド
  6
DASHED1
 62
    7
 10
17944.651175834038
 20
4444.6070078256971
 11
17944.651175834038
 21
3062.1136433369406
  0
LINE
  8
_7-1_スタッド
  6
DASHED1
 62
    7
 10
17680.651195629223
 20
4444.6070078256971
 11
17680.651195629223
 21
3062.1136433369406
  0
LINE
  8
_7-4_
  6
DASHED1
 62
    7
 10
17682.150680954393
 20
3062.1136433369406
 11
17682.150680954393
 21
3653.1137002481
  0
LINE
  8
_7-4_
  6
DASHED1
 62
    7
 10
17682.150680954393
 20
3653.1137002481
 11
17943.150205869933
 21
3653.1137002481
  0
LINE
  8
_7-4_
  6
DASHED1
 62
    7
 10
17943.150205869933
 20
3062.1136433369406
 11
17943.150205869933
 21
3653.1137002481
  0
LINE
  8
_7-4_
  6
DASHED1
 62
    7
 10
17682.150680954393
 20
3044.1136952993033
 11
17682.150680954393
 21
2453.113638388144
  0
LINE
  8
_7-4_
  6
DASHED1
 62
    7
 10
17682.150680954393
 20
2453.113638388144
 11
17943.150205869933
 21
2453.113638388144
  0
LINE
  8
_7-4_
  6
DASHED1
 62
    7
 10
17943.150205869933
 20
3044.1136952993033
 11
17943.150205869933
 21
2453.113638388144
  0
LINE
  8
_7-5_文字
  6
CONTINUOUS
 62
    7
 10
17277.859744510137
 20
4261.2949268237971
 11
17607.85934860642
 21
4261.2949268237971
  0
LINE
  8
_7-5_文字
  6
CONTINUOUS
 62
    7
 10
17607.85934860642
 20
4261.2949268237971
 11
17724.234256228887
 21
4148.9125844594591
  0
LINE
  8
_7-5_文字
  6
CONTINUOUS
 62
    7
 10
17160.227347709038
 20
4071.4515479835304
 11
17610.227347709038
 21
4071.4515479835304
  0
LINE
  8
_7-5_文字
  6
CONTINUOUS
 62
    7
 10
17610.227347709038
 20
4071.4515479835304
 11
17724.234256228887
 21
3965.849180479308
  0
LINE
  8
_7-5_文字
  6
CONTINUOUS
 62
    7
 10
17296.248482369087
 20
3766.3463695629225
 11
17596.249472128377
 21
3766.3463695629225
  0
LINE
  8
_7-5_文字
  6
CONTINUOUS
 62
    7
 10
17596.249472128377
 20
3766.3463695629225
 11
17717.453910209038
 21
3664.1341750686233
  0
LINE
  8
_7-5_文字
  6
CONTINUOUS
 62
    7
 10
17235.739053262248
 20
3590.0633116026183
 11
17595.73875633446
 21
3590.0633116026183
  0
LINE
  8
_7-5_文字
  6
CONTINUOUS
 62
    7
 10
17595.73875633446
 20
3590.0633116026183
 11
17747.964724978887
 21
3128.5046551678633
  0
LINE
  8
_7-0_寸法
  6
CONTINUOUS
 62
    7
 10
18206.850289009712
 20
2122.9566625646644
 11
18110.64717060811
 21
2122.9566625646644
  0
LINE
  8
_7-0_寸法
  6
CONTINUOUS
 62
    7
 10
18206.850289009712
 20
3983.2706760715796
 11
18110.64717060811
 21
3983.2706760715796
  0
LINE
  8
_7-0_寸法
  6
CONTINUOUS
 62
    7
 10
18206.850289009712
 20
3983.2706760715796
 11
18206.850289009712
 21
2122.9566625646644
  0
LINE
  8
_7-5_文字
  6
CONTINUOUS
 62
    7
 10
18110.64717060811
 20
3983.2706760715796
 11
18110.64717060811
 21
3053.1135765281888
  0
LINE
  8
_7-5_文字
  6
CONTINUOUS
 62
    7
 10
18110.64717060811
 20
3983.2706760715796
 11
18028.954913165118
 21
3983.2706760715796
  0
LINE
  8
_7-5_文字
  6
CONTINUOUS
 62
    7
 10
18110.64717060811
 20
3053.1135765281888
 11
18028.954913165118
 21
3053.1135765281888
  0
LINE
  8
_7-5_文字
  6
CONTINUOUS
 62
    7
 10
18110.64717060811
 20
3053.1135765281888
 11
18110.64717060811
 21
2122.9566625646644
  0
LINE
  8
_7-5_文字
  6
CONTINUOUS
 62
    7
 10
18110.64717060811
 20
2122.9566625646644
 11
18028.954913165118
 21
2122.9566625646644
  0
LINE
  8
_8-0_躯体
  6
CONTINUOUS
 62
    7
 10
21967.920251794767
 20
2446.9625936972129
 11
23767.920251794767
 21
2446.9625936972129
  0
LINE
  8
_8-0_躯体
  6
CONTINUOUS
 62
    7
 10
21967.920251794767
 20
4246.9625936972134
 11
21967.920251794767
 21
2446.9625936972129
  0
LINE
  8
_8-0_躯体
  6
CONTINUOUS
 62
    7
 10
21067.920251794767
 20
4246.9625936972134
 11
21967.920251794767
 21
4246.9625936972134
  0
LINE
  8
_8-0_躯体
  6
CONTINUOUS
 62
    7
 10
23767.920251794767
 20
2446.9625936972129
 11
23767.920251794767
 21
1546.9626864871466
  0
LINE
  8
_8-5_Lアング
  6
CONTINUOUS
 62
    7
 10
21967.920251794767
 20
2527.9626382363808
 11
21963.120414115288
 21
2527.9626382363808
  0
LINE
  8
_8-4_ULランナ
  6
CONTINUOUS
 62
    7
 10
23739.419638144002
 20
2446.9625936972129
 11
23739.419638144002
 21
2356.9626679291596
  0
LINE
  8
_8-4_ULランナ
  6
CONTINUOUS
 62
    7
 10
23739.419638144002
 20
2446.9625936972129
 11
23704.919598553635
 21
2446.9625936972129
  0
LINE
  8
_8-4_ULランナ
  6
CONTINUOUS
 62
    7
 10
23704.919598553635
 20
2446.9625936972129
 11
23704.919598553635
 21
2386.9627669050888
  0
LINE
  8
_8-4_ULランナ
  6
CONTINUOUS
 62
    7
 10
23706.420568517737
 20
2386.9627669050888
 11
23706.420568517737
 21
2445.46273721231
  0
LINE
  8
_8-4_ULランナ
  6
CONTINUOUS
 62
    7
 10
23706.420568517737
 20
2445.46273721231
 11
23737.920152818835
 21
2445.46273721231
  0
LINE
  8
_8-4_ULランナ
  6
CONTINUOUS
 62
    7
 10
23737.920152818835
 20
2445.46273721231
 11
23737.920152818835
 21
2356.9626679291596
  0
LINE
  8
_8-4_ULランナ
  6
CONTINUOUS
 62
    7
 10
23704.919598553635
 20
2386.9627669050888
 11
23706.420568517737
 21
2386.9627669050888
  0
LINE
  8
_8-4_ULランナ
  6
CONTINUOUS
 62
    7
 10
23737.920152818835
 20
2356.9626679291596
 11
23739.419638144002
 21
2356.9626679291596
  0
LINE
  8
_8-5_Lアング
  6
CONTINUOUS
 62
    7
 10
23554.920588312925
 20
2446.9625936972129
 11
23704.919598553635
 21
2446.9625936972129
  0
LINE
  8
_8-5_Lアング
  6
CONTINUOUS
 62
    7
 10
23704.919598553635
 20
2446.9625936972129
 11
23704.919598553635
 21
2386.9627669050888
  0
LINE
  8
_8-5_Lアング
  6
CONTINUOUS
 62
    7
 10
23700.119760874157
 20
2386.9627669050888
 11
23700.119760874157
 21
2442.1627560177367
  0
LINE
  8
_8-5_Lアング
  6
CONTINUOUS
 62
    7
 10
23700.119760874157
 20
2442.1627560177367
 11
23554.920588312925
 21
2442.1627560177367
  0
LINE
  8
_8-5_Lアング
  6
CONTINUOUS
 62
    7
 10
23554.920588312925
 20
2446.9625936972129
 11
23554.920588312925
 21
2442.1627560177367
  0
LINE
  8
_8-5_Lアング
  6
CONTINUOUS
 62
    7
 10
23700.119760874157
 20
2386.9627669050888
 11
23704.919598553635
 21
2386.9627669050888
  0
LINE
  8
_8-4_ULランナ
  6
CONTINUOUS
 62
    7
 10
23700.119760874157
 20
2418.4627223659209
 11
23610.120948585307
 21
2418.4627223659209
  0
LINE
  8
_8-4_ULランナ
  6
CONTINUOUS
 62
    7
 10
23700.119760874157
 20
2418.4627223659209
 11
23700.119760874157
 21
2383.9626827755492
  0
LINE
  8
_8-4_ULランナ
  6
CONTINUOUS
 62
    7
 10
23700.119760874157
 20
2383.9626827755492
 11
23640.1195629223
 21
2383.9626827755492
  0
LINE
  8
_8-4_ULランナ
  6
CONTINUOUS
 62
    7
 10
23640.1195629223
 20
2385.462724840319
 11
23698.620275548987
 21
2385.462724840319
  0
LINE
  8
_8-4_ULランナ
  6
CONTINUOUS
 62
    7
 10
23698.620275548987
 20
2385.462724840319
 11
23698.620275548987
 21
2416.9626803011506
  0
LINE
  8
_8-4_ULランナ
  6
CONTINUOUS
 62
    7
 10
23698.620275548987
 20
2416.9626803011506
 11
23610.120948585307
 21
2416.9626803011506
  0
LINE
  8
_8-4_ULランナ
  6
CONTINUOUS
 62
    7
 10
23640.1195629223
 20
2383.9626827755492
 11
23640.1195629223
 21
2385.462724840319
  0
LINE
  8
_8-4_ULランナ
  6
CONTINUOUS
 62
    7
 10
23610.120948585307
 20
2416.9626803011506
 11
23610.120948585307
 21
2418.4627223659209
  0
LINE
  8
_8-4_ULランナ
  6
CONTINUOUS
 62
    7
 10
21967.920251794767
 20
2418.4627223659209
 11
22057.920548722552
 21
2418.4627223659209
  0
LINE
  8
_8-4_ULランナ
  6
CONTINUOUS
 62
    7
 10
21967.920251794767
 20
2418.4627223659209
 11
21967.920251794767
 21
2383.9626827755492
  0
LINE
  8
_8-4_ULランナ
  6
CONTINUOUS
 62
    7
 10
21967.920251794767
 20
2383.9626827755492
 11
22027.920449746623
 21
2383.9626827755492
  0
LINE
  8
_8-4_ULランナ
  6
CONTINUOUS
 62
    7
 10
22027.920449746623
 20
2385.462724840319
 11
21969.419737119933
 21
2385.462724840319
  0
LINE
  8
_8-4_ULランナ
  6
CONTINUOUS
 62
    7
 10
21969.419737119933
 20
2385.462724840319
 11
21969.419737119933
 21
2416.9626803011506
  0
LINE
  8
_8-4_ULランナ
  6
CONTINUOUS
 62
    7
 10
21969.419737119933
 20
2416.9626803011506
 11
22057.920548722552
 21
2416.9626803011506
  0
LINE
  8
_8-4_ULランナ
  6
CONTINUOUS
 62
    7
 10
22027.920449746623
 20
2383.9626827755492
 11
22027.920449746623
 21
2385.462724840319
  0
LINE
  8
_8-4_ULランナ
  6
CONTINUOUS
 62
    7
 10
22057.920548722552
 20
2416.9626803011506
 11
22057.920548722552
 21
2418.4627223659209
  0
LINE
  8
_8-4_ULランナ
  6
CONTINUOUS
 62
    7
 10
21939.419638144002
 20
4246.9625936972134
 11
21939.419638144002
 21
4156.9626679291605
  0
LINE
  8
_8-4_ULランナ
  6
CONTINUOUS
 62
    7
 10
21939.419638144002
 20
4246.9625936972134
 11
21904.919598553635
 21
4246.9625936972134
  0
LINE
  8
_8-4_ULランナ
  6
CONTINUOUS
 62
    7
 10
21904.919598553635
 20
4246.9625936972134
 11
21904.919598553635
 21
4186.9627669050888
  0
LINE
  8
_8-4_ULランナ
  6
CONTINUOUS
 62
    7
 10
21906.420568517737
 20
4186.9627669050888
 11
21906.420568517737
 21
4245.4627372123105
  0
LINE
  8
_8-4_ULランナ
  6
CONTINUOUS
 62
    7
 10
21906.420568517737
 20
4245.4627372123105
 11
21937.920152818835
 21
4245.4627372123105
  0
LINE
  8
_8-4_ULランナ
  6
CONTINUOUS
 62
    7
 10
21937.920152818835
 20
4245.4627372123105
 11
21937.920152818835
 21
4156.9626679291605
  0
LINE
  8
_8-4_ULランナ
  6
CONTINUOUS
 62
    7
 10
21904.919598553635
 20
4186.9627669050888
 11
21906.420568517737
 21
4186.9627669050888
  0
LINE
  8
_8-4_ULランナ
  6
CONTINUOUS
 62
    7
 10
21937.920152818835
 20
4156.9626679291605
 11
21939.419638144002
 21
4156.9626679291605
  0
LINE
  8
_8-7_ビス
  6
CONTINUOUS
 62
    7
 10
23734.919697529564
 20
2445.46273721231
 11
23710.920509132182
 21
2445.46273721231
  0
LINE
  8
_8-7_ビス
  6
CONTINUOUS
 62
    7
 10
23727.120889199748
 20
2427.4626035948058
 11
23718.720802100932
 21
2427.4626035948058
  0
LINE
  8
_8-7_ビス
  6
CONTINUOUS
 62
    7
 10
23718.720802100932
 20
2427.4626035948058
 11
23718.720802100932
 21
2439.4627545330977
  0
LINE
  8
_8-7_ビス
  6
CONTINUOUS
 62
    7
 10
23727.120889199748
 20
2427.4626035948058
 11
23727.120889199748
 21
2439.4627545330977
  0
LINE
  8
_8-7_ビス
  6
DASHED1
 62
    7
 10
23728.920271589952
 20
2445.46273721231
 11
23728.920271589952
 21
2505.462749584301
  0
LINE
  8
_8-7_ビス
  6
DASHED1
 62
    7
 10
23728.920271589952
 20
2505.462749584301
 11
23716.91993507179
 21
2505.462749584301
  0
LINE
  8
_8-7_ビス
  6
DASHED1
 62
    7
 10
23716.91993507179
 20
2445.46273721231
 11
23716.91993507179
 21
2505.462749584301
  0
LINE
  8
_8-1_ULスタッ
  6
CONTINUOUS
 62
    7
 10
23707.920053842907
 20
2421.4626209155936
 11
23707.920053842907
 21
1546.9626864871466
  0
LINE
  8
_8-1_ULスタッ
  6
CONTINUOUS
 62
    7
 10
23737.920152818835
 20
2421.4626209155936
 11
23737.920152818835
 21
1546.9626864871466
  0
LINE
  8
_8-1_ULスタッ
  6
CONTINUOUS
 62
    7
 10
23674.61960251267
 20
2386.9627669050888
 11
23674.61960251267
 21
2416.9626803011506
  0
LINE
  8
_8-7_ビス
  6
CONTINUOUS
 62
    7
 10
21934.919697529564
 20
4245.4627372123105
 11
21910.920509132182
 21
4245.4627372123105
  0
LINE
  8
_8-7_ビス
  6
CONTINUOUS
 62
    7
 10
21927.120889199748
 20
4227.4626035948058
 11
21918.720802100932
 21
4227.4626035948058
  0
LINE
  8
_8-7_ビス
  6
CONTINUOUS
 62
    7
 10
21918.720802100932
 20
4227.4626035948058
 11
21918.720802100932
 21
4239.4625689532304
  0
LINE
  8
_8-7_ビス
  6
CONTINUOUS
 62
    7
 10
21927.120889199748
 20
4227.4626035948058
 11
21927.120889199748
 21
4239.4625689532304
  0
LINE
  8
_8-7_ビス
  6
DASHED1
 62
    7
 10
21928.920271589952
 20
4245.4627372123105
 11
21928.920271589952
 21
4305.4625640044342
  0
LINE
  8
_8-7_ビス
  6
DASHED1
 62
    7
 10
21928.920271589952
 20
4305.4625640044342
 11
21916.91993507179
 21
4305.4625640044342
  0
LINE
  8
_8-7_ビス
  6
DASHED1
 62
    7
 10
21916.91993507179
 20
4245.4627372123105
 11
21916.91993507179
 21
4305.4625640044342
  0
LINE
  8
_8-1_ULスタッ
  6
CONTINUOUS
 62
    7
 10
23707.920053842907
 20
2421.4626209155936
 11
23737.920152818835
 21
2421.4626209155936
  0
LINE
  8
_8-1_ULスタッ
  6
CONTINUOUS
 62
    7
 10
21907.920053842907
 20
4221.4628064954604
 11
21937.920152818835
 21
4221.4628064954604
  0
LINE
  8
_8-1_ULスタッ
  6
CONTINUOUS
 62
    7
 10
21993.42041015625
 20
2416.9626803011506
 11
23674.61960251267
 21
2416.9626803011506
  0
LINE
  8
_8-1_ULスタッ
  6
CONTINUOUS
 62
    7
 10
21993.42041015625
 20
2386.9627669050888
 11
23674.61960251267
 21
2386.9627669050888
  0
LINE
  8
_8-1_ULスタッ
  6
CONTINUOUS
 62
    7
 10
21993.42041015625
 20
2386.9627669050888
 11
21993.42041015625
 21
2416.9626803011506
  0
LINE
  8
_8-2_ULスポン
  6
CONTINUOUS
 62
    7
 10
21937.920152818835
 20
3376.9626926731421
 11
21967.920251794767
 21
3376.9626926731421
  0
LINE
  8
_8-2_ULスポン
  6
CONTINUOUS
 62
    7
 10
21937.920152818835
 20
3316.9624947212842
 11
21967.920251794767
 21
3316.9624947212842
  0
LINE
  8
_8-2_ULスポン
  6
CONTINUOUS
 62
    7
 10
23737.920152818835
 20
1876.9627545330977
 11
23767.920251794767
 21
1876.9627545330977
  0
LINE
  8
_8-2_ULスポン
  6
CONTINUOUS
 62
    7
 10
23737.920152818835
 20
1816.9627421611062
 11
23767.920251794767
 21
1816.9627421611062
  0
LINE
  8
_8-2_ULスポン
  6
CONTINUOUS
 62
    7
 10
21937.920152818835
 20
3451.9625689532309
 11
21967.920251794767
 21
3451.9625689532309
  0
LINE
  8
_8-2_ULスポン
  6
CONTINUOUS
 62
    7
 10
21937.920152818835
 20
3241.9626184411954
 11
21967.920251794767
 21
3241.9626184411954
  0
LINE
  8
_8-2_ULスポン
  6
CONTINUOUS
 62
    7
 10
23737.920152818835
 20
1951.9626308131863
 11
23767.920251794767
 21
1951.9626308131863
  0
LINE
  8
_8-2_ULスポン
  6
CONTINUOUS
 62
    7
 10
23737.920152818835
 20
1741.9626803011508
 11
23767.920251794767
 21
1741.9626803011508
  0
LINE
  8
_8-2_ULスポン
  6
CONTINUOUS
 62
    7
 10
23767.920251794767
 20
1951.9626308131863
 11
23767.920251794767
 21
1876.9627545330977
  0
LINE
  8
_8-2_ULスポン
  6
CONTINUOUS
 62
    7
 10
23767.920251794767
 20
1816.9627421611062
 11
23767.920251794767
 21
1741.9626803011508
  0
LINE
  8
_8-2_ULスポン
  6
CONTINUOUS
 62
    7
 10
21967.920251794767
 20
3451.9625689532309
 11
21967.920251794767
 21
3376.9626926731421
  0
LINE
  8
_8-2_ULスポン
  6
CONTINUOUS
 62
    7
 10
21967.920251794767
 20
3316.9624947212842
 11
21967.920251794767
 21
3241.9626184411954
  0
LINE
  8
_8-2_ULスポン
  6
DASHED1
 62
    7
 10
23759.634481894002
 20
1741.9626803011508
 11
23767.920251794767
 21
1750.2486357817781
  0
LINE
  8
_8-2_ULスポン
  6
DASHED1
 62
    7
 10
23742.66357421875
 20
1741.9626803011508
 11
23767.920251794767
 21
1767.2191722972977
  0
LINE
  8
_8-2_ULスポン
  6
DASHED1
 62
    7
 10
23737.920152818835
 20
1754.1897954167548
 11
23767.920251794767
 21
1784.1897088128169
  0
LINE
  8
_8-2_ULスポン
  6
DASHED1
 62
    7
 10
23737.920152818835
 20
1771.1603319322742
 11
23767.920251794767
 21
1801.1604309082031
  0
LINE
  8
_8-2_ULスポン
  6
DASHED1
 62
    7
 10
23737.920152818835
 20
1788.1308684477938
 11
23766.751840952282
 21
1816.9627421611062
  0
LINE
  8
_8-2_ULスポン
  6
DASHED1
 62
    7
 10
23737.920152818835
 20
1805.1014049633134
 11
23749.780933277027
 21
1816.9627421611062
  0
LINE
  8
_8-2_ULスポン
  6
DASHED1
 62
    7
 10
23758.869892842064
 20
1876.9627545330977
 11
23767.920251794767
 21
1886.0131134858004
  0
LINE
  8
_8-2_ULスポン
  6
DASHED1
 62
    7
 10
23741.898985166808
 20
1876.9627545330977
 11
23767.920251794767
 21
1902.9836500013196
  0
LINE
  8
_8-2_ULスポン
  6
DASHED1
 62
    7
 10
23737.920152818835
 20
1889.9542731207773
 11
23767.920251794767
 21
1919.9543720967063
  0
LINE
  8
_8-2_ULスポン
  6
DASHED1
 62
    7
 10
23737.920152818835
 20
1906.9248096362965
 11
23767.920251794767
 21
1936.9249086122259
  0
LINE
  8
_8-2_ULスポン
  6
DASHED1
 62
    7
 10
23737.920152818835
 20
1923.8953461518161
 11
23765.987251900337
 21
1951.9626308131863
  0
LINE
  8
_8-2_ULスポン
  6
DASHED1
 62
    7
 10
23737.920152818835
 20
1940.8660682472023
 11
23749.016344225085
 21
1951.9626308131863
  0
LINE
  8
_8-2_ULスポン
  6
DASHED1
 62
    7
 10
21967.345696526605
 20
3241.9626184411954
 11
21967.920251794767
 21
3242.5379160288221
  0
LINE
  8
_8-2_ULスポン
  6
DASHED1
 62
    7
 10
21950.374788851354
 20
3241.9626184411954
 11
21967.920251794767
 21
3259.5084525443413
  0
LINE
  8
_8-2_ULスポン
  6
DASHED1
 62
    7
 10
21937.920152818835
 20
3246.4788900839317
 11
21967.920251794767
 21
3276.4789890598609
  0
LINE
  8
_8-2_ULスポン
  6
DASHED1
 62
    7
 10
21937.920152818835
 20
3263.4494265994513
 11
21967.920251794767
 21
3293.44952557538
  0
LINE
  8
_8-2_ULスポン
  6
DASHED1
 62
    7
 10
21937.920152818835
 20
3280.4199631149709
 11
21967.920251794767
 21
3310.4200620908996
  0
LINE
  8
_8-2_ULスポン
  6
DASHED1
 62
    7
 10
21937.920152818835
 20
3297.39049963049
 11
21957.492147909627
 21
3316.9624947212842
  0
LINE
  8
_8-2_ULスポン
  6
DASHED1
 62
    7
 10
21937.920152818835
 20
3314.3610361460096
 11
21940.521240234375
 21
3316.9624947212842
  0
LINE
  8
_8-2_ULスポン
  6
DASHED1
 62
    7
 10
21966.581107474663
 20
3376.9626926731421
 11
21967.920251794767
 21
3378.3022081529775
  0
LINE
  8
_8-2_ULスポン
  6
DASHED1
 62
    7
 10
21949.610199799408
 20
3376.9626926731421
 11
21967.920251794767
 21
3395.2727446684967
  0
LINE
  8
_8-2_ULスポン
  6
DASHED1
 62
    7
 10
21937.920152818835
 20
3382.2435533678213
 11
21967.920251794767
 21
3412.24365234375
  0
LINE
  8
_8-2_ULスポン
  6
DASHED1
 62
    7
 10
21937.920152818835
 20
3399.2140898833404
 11
21967.920251794767
 21
3429.2141888592696
  0
LINE
  8
_8-2_ULスポン
  6
DASHED1
 62
    7
 10
21937.920152818835
 20
3416.18462639886
 11
21967.920251794767
 21
3446.1847253747892
  0
LINE
  8
_8-2_ULスポン
  6
DASHED1
 62
    7
 10
21937.920152818835
 20
3433.1551629143792
 11
21956.727558857689
 21
3451.9625689532309
  0
LINE
  8
_8-2_ULスポン
  6
DASHED1
 62
    7
 10
21937.920152818835
 20
3450.1256994298988
 11
21939.756651182433
 21
3451.9625689532309
  0
LINE
  8
_8-3_ULボンド
  6
CONTINUOUS
 62
    7
 10
23737.920152818835
 20
1876.9627545330977
 11
23767.920251794767
 21
1876.9627545330977
  0
LINE
  8
_8-3_ULボンド
  6
CONTINUOUS
 62
    7
 10
23767.920251794767
 20
1876.9627545330977
 11
23767.920251794767
 21
1816.9627421611062
  0
LINE
  8
_8-3_ULボンド
  6
CONTINUOUS
 62
    7
 10
23737.920152818835
 20
1816.9627421611062
 11
23767.920251794767
 21
1816.9627421611062
  0
LINE
  8
_8-3_ULボンド
  6
CONTINUOUS
 62
    7
 10
21937.920152818835
 20
3376.9626926731421
 11
21967.920251794767
 21
3376.9626926731421
  0
LINE
  8
_8-3_ULボンド
  6
CONTINUOUS
 62
    7
 10
21967.920251794767
 20
3376.9626926731421
 11
21967.920251794767
 21
3316.9624947212842
  0
LINE
  8
_8-3_ULボンド
  6
CONTINUOUS
 62
    7
 10
21967.920251794767
 20
3316.9624947212842
 11
21937.920152818835
 21
3316.9624947212842
  0
LINE
  8
_8-5_Lアング
  6
CONTINUOUS
 62
    7
 10
21907.920053842907
 20
2390.2627480996621
 11
21963.120414115288
 21
2390.2627480996621
  0
LINE
  8
_8-5_Lアング
  6
CONTINUOUS
 62
    7
 10
21907.920053842907
 20
2390.2627480996621
 11
21907.920053842907
 21
2385.462724840319
  0
LINE
  8
_8-4_ULランナ
  6
CONTINUOUS
 62
    7
 10
21939.419638144002
 20
2390.2627480996621
 11
21939.419638144002
 21
2480.2626738677154
  0
LINE
  8
_8-4_ULランナ
  6
CONTINUOUS
 62
    7
 10
21939.419638144002
 20
2390.2627480996621
 11
21904.919598553635
 21
2390.2627480996621
  0
LINE
  8
_8-4_ULランナ
  6
CONTINUOUS
 62
    7
 10
21904.919598553635
 20
2390.2627480996621
 11
21904.919598553635
 21
2450.2627604716536
  0
LINE
  8
_8-4_ULランナ
  6
CONTINUOUS
 62
    7
 10
21906.420568517737
 20
2450.2627604716536
 11
21906.420568517737
 21
2391.7626045845655
  0
LINE
  8
_8-4_ULランナ
  6
CONTINUOUS
 62
    7
 10
21906.420568517737
 20
2391.7626045845655
 11
21937.920152818835
 21
2391.7626045845655
  0
LINE
  8
_8-4_ULランナ
  6
CONTINUOUS
 62
    7
 10
21937.920152818835
 20
2391.7626045845655
 11
21937.920152818835
 21
2480.2626738677154
  0
LINE
  8
_8-4_ULランナ
  6
CONTINUOUS
 62
    7
 10
21904.919598553635
 20
2450.2627604716536
 11
21906.420568517737
 21
2450.2627604716536
  0
LINE
  8
_8-4_ULランナ
  6
CONTINUOUS
 62
    7
 10
21937.920152818835
 20
2480.2626738677154
 11
21939.419638144002
 21
2480.2626738677154
  0
LINE
  8
_8-1_ULスタッ
  6
CONTINUOUS
 62
    7
 10
21907.920053842907
 20
4221.4628064954604
 11
21907.920053842907
 21
2415.7627208812814
  0
LINE
  8
_8-1_ULスタッ
  6
CONTINUOUS
 62
    7
 10
21907.920053842907
 20
2415.7627208812814
 11
21937.920152818835
 21
2415.7627208812814
  0
LINE
  8
_8-5_Lアング
  6
CONTINUOUS
 62
    7
 10
21963.120414115288
 20
2390.2627480996621
 11
21963.120414115288
 21
2527.9626382363808
  0
LINE
  8
_8-5_Lアング
  6
CONTINUOUS
 62
    7
 10
21907.920053842907
 20
2385.462724840319
 11
21967.920251794767
 21
2385.462724840319
  0
LINE
  8
_8-5_Lアング
  6
CONTINUOUS
 62
    7
 10
21967.920251794767
 20
2527.9626382363808
 11
21967.920251794767
 21
2385.462724840319
  0
LINE
  8
_8-1_ULスタッ
  6
CONTINUOUS
 62
    7
 10
21937.920152818835
 20
4221.4628064954604
 11
21937.920152818835
 21
2415.7627208812814
  0
LINE
  8
_8-6_仕上げ材
  6
CONTINUOUS
 62
    7
 10
23679.42092483108
 20
2355.4626258643898
 11
21876.420469541808
 21
2355.4626258643898
  0
LINE
  8
_8-6_仕上げ材
  6
CONTINUOUS
 62
    7
 10
23707.920053842907
 20
2383.9626827755492
 11
23707.920053842907
 21
1546.9626864871466
  0
LINE
  8
_8-6_仕上げ材
  6
CONTINUOUS
 62
    7
 10
23679.42092483108
 20
2383.9626827755492
 11
23679.42092483108
 21
1546.9626864871466
  0
LINE
  8
_8-6_仕上げ材
  6
CONTINUOUS
 62
    7
 10
23707.920053842907
 20
2383.9626827755492
 11
21876.420469541808
 21
2383.9626827755492
  0
LINE
  8
_8-7_ビス
  6
CONTINUOUS
 62
    5
 10
21959.8913244299
 20
2405.7126431851775
 11
21965.503259607267
 21
2394.9126372466217
  0
LINE
  8
_8-7_ビス
  6
CONTINUOUS
 62
    5
 10
21966.882489178635
 20
2396.7127619562921
 11
21961.270554001268
 21
2407.512582314981
  0
LINE
  8
_8-7_ビス
  6
CONTINUOUS
 62
    5
 10
21965.503259607267
 20
2394.9126372466217
 11
21961.270554001268
 21
2407.512582314981
  0
LINE
  8
_8-7_ビス
  6
CONTINUOUS
 62
    5
 10
21967.62035472973
 20
2396.7127619562921
 11
21965.503259607267
 21
2407.512582314981
  0
LINE
  8
_8-7_ビス
  6
CONTINUOUS
 62
    5
 10
21969.419737119933
 20
2391.662948195999
 11
21969.419737119933
 21
2410.7622713656037
  0
LINE
  8
_8-7_ビス
  6
CONTINUOUS
 62
    5
 10
21967.62035472973
 20
2396.7127619562921
 11
21964.124030035899
 21
2405.7126431851775
  0
LINE
  8
_8-7_ビス
  6
CONTINUOUS
 62
    5
 10
21967.62035472973
 20
2396.7127619562921
 11
21966.438582136827
 21
2405.7126431851775
  0
LINE
  8
_8-7_ビス
  6
CONTINUOUS
 62
    5
 10
21964.124030035899
 20
2405.7126431851775
 11
21962.205876530828
 21
2405.7126431851775
  0
LINE
  8
_8-7_ビス
  6
CONTINUOUS
 62
    5
 10
21976.92013302365
 20
2402.7127446355048
 11
21978.376563819682
 21
2402.7127446355048
  0
LINE
  8
_8-7_ビス
  6
CONTINUOUS
 62
    5
 10
21978.376563819682
 20
2399.7126605059652
 11
21976.92013302365
 21
2399.7126605059652
  0
LINE
  8
_8-7_ビス
  6
CONTINUOUS
 62
    5
 10
21976.92013302365
 20
2399.7126605059652
 11
21976.92013302365
 21
2402.7127446355048
  0
LINE
  8
_8-7_ビス
  6
CONTINUOUS
 62
    5
 10
21966.438582136827
 20
2405.7126431851775
 11
21965.503259607267
 21
2407.512582314981
  0
LINE
  8
_8-7_ビス
  6
CONTINUOUS
 62
    5
 10
21965.503259607267
 20
2407.512582314981
 11
21964.124030035899
 21
2405.7126431851775
  0
LINE
  8
_8-7_ビス
  6
CONTINUOUS
 62
    5
 10
21969.419737119933
 20
2405.7126431851775
 11
21966.438582136827
 21
2405.7126431851775
  0
LINE
  8
_8-7_ビス
  6
CONTINUOUS
 62
    5
 10
21961.270554001268
 20
2407.512582314981
 11
21959.8913244299
 21
2405.7126431851775
  0
LINE
  8
_8-7_ビス
  6
CONTINUOUS
 62
    5
 10
21959.8913244299
 20
2405.7126431851775
 11
21957.971686285899
 21
2405.7126431851775
  0
LINE
  8
_8-7_ビス
  6
CONTINUOUS
 62
    5
 10
21964.567937077703
 20
2396.7127619562921
 11
21962.649783572637
 21
2396.7127619562921
  0
LINE
  8
_8-7_ビス
  6
CONTINUOUS
 62
    5
 10
21965.503259607267
 20
2394.9126372466217
 11
21966.882489178635
 21
2396.7127619562921
  0
LINE
  8
_8-7_ビス
  6
CONTINUOUS
 62
    5
 10
21969.419737119933
 20
2396.7127619562921
 11
21966.882489178635
 21
2396.7127619562921
  0
LINE
  8
_8-7_ビス
  6
CONTINUOUS
 62
    5
 10
21957.036363756335
 20
2394.9126372466217
 11
21952.803658150337
 21
2407.512582314981
  0
LINE
  8
_8-7_ビス
  6
CONTINUOUS
 62
    5
 10
21951.424428578972
 20
2405.7126431851775
 11
21957.036363756335
 21
2394.9126372466217
  0
LINE
  8
_8-7_ビス
  6
CONTINUOUS
 62
    5
 10
21958.415593327703
 20
2396.7127619562921
 11
21952.803658150337
 21
2407.512582314981
  0
LINE
  8
_8-7_ビス
  6
CONTINUOUS
 62
    5
 10
21955.658618823902
 20
2405.7126431851775
 11
21961.270554001268
 21
2394.9126372466217
  0
LINE
  8
_8-7_ビス
  6
CONTINUOUS
 62
    5
 10
21962.649783572637
 20
2396.7127619562921
 11
21957.036363756335
 21
2407.512582314981
  0
LINE
  8
_8-7_ビス
  6
CONTINUOUS
 62
    5
 10
21961.270554001268
 20
2394.9126372466217
 11
21957.036363756335
 21
2407.512582314981
  0
LINE
  8
_8-7_ビス
  6
CONTINUOUS
 62
    5
 10
21952.803658150337
 20
2394.9126372466217
 11
21950.686563027873
 21
2405.7126431851775
  0
LINE
  8
_8-7_ビス
  6
CONTINUOUS
 62
    5
 10
21938.413052945525
 20
2396.0376224002325
 11
21934.653947160052
 21
2401.2127025707346
  0
LINE
  8
_8-7_ビス
  6
CONTINUOUS
 62
    5
 10
21949.653254328547
 20
2396.0376224002325
 11
21949.653254328547
 21
2406.3875971613702
  0
LINE
  8
_8-7_ビス
  6
CONTINUOUS
 62
    5
 10
21951.868335620777
 20
2396.7127619562921
 11
21950.686563027873
 21
2405.7126431851775
  0
LINE
  8
_8-7_ビス
  6
CONTINUOUS
 62
    5
 10
21950.686563027873
 20
2405.7126431851775
 11
21954.182887721705
 21
2396.7127619562921
  0
LINE
  8
_8-7_ビス
  6
CONTINUOUS
 62
    5
 10
21949.653254328547
 20
2396.0376224002325
 11
21934.653947160052
 21
2401.2127025707346
  0
LINE
  8
_8-7_ビス
  6
CONTINUOUS
 62
    5
 10
21951.424428578972
 20
2405.7126431851775
 11
21949.653254328547
 21
2405.7126431851775
  0
LINE
  8
_8-7_ビス
  6
CONTINUOUS
 62
    5
 10
21952.803658150337
 20
2407.512582314981
 11
21951.424428578972
 21
2405.7126431851775
  0
LINE
  8
_8-7_ビス
  6
CONTINUOUS
 62
    5
 10
21957.036363756335
 20
2407.512582314981
 11
21955.658618823902
 21
2405.7126431851775
  0
LINE
  8
_8-7_ビス
  6
CONTINUOUS
 62
    5
 10
21955.658618823902
 20
2405.7126431851775
 11
21953.7389806799
 21
2405.7126431851775
  0
LINE
  8
_8-7_ビス
  6
CONTINUOUS
 62
    5
 10
21938.413052945525
 20
2406.3875971613702
 11
21949.653254328547
 21
2406.3875971613702
  0
LINE
  8
_8-7_ビス
  6
CONTINUOUS
 62
    5
 10
21934.653947160052
 20
2401.2127025707346
 11
21938.413052945525
 21
2406.3875971613702
  0
LINE
  8
_8-7_ビス
  6
CONTINUOUS
 62
    5
 10
21934.653947160052
 20
2401.2127025707346
 11
21939.000969964105
 21
2402.3774018158783
  0
LINE
  8
_8-7_ビス
  6
CONTINUOUS
 62
    5
 10
21951.868335620777
 20
2396.7127619562921
 11
21949.653254328547
 21
2396.7127619562921
  0
LINE
  8
_8-7_ビス
  6
CONTINUOUS
 62
    5
 10
21960.335231471705
 20
2396.7127619562921
 11
21958.415593327703
 21
2396.7127619562921
  0
LINE
  8
_8-7_ビス
  6
CONTINUOUS
 62
    5
 10
21961.270554001268
 20
2394.9126372466217
 11
21962.649783572637
 21
2396.7127619562921
  0
LINE
  8
_8-7_ビス
  6
CONTINUOUS
 62
    5
 10
21957.036363756335
 20
2394.9126372466217
 11
21958.415593327703
 21
2396.7127619562921
  0
LINE
  8
_8-7_ビス
  6
CONTINUOUS
 62
    5
 10
21951.868335620777
 20
2396.7127619562921
 11
21952.803658150337
 21
2394.9126372466217
  0
LINE
  8
_8-7_ビス
  6
CONTINUOUS
 62
    5
 10
21952.803658150337
 20
2394.9126372466217
 11
21954.182887721705
 21
2396.7127619562921
  0
LINE
  8
_8-7_ビス
  6
CONTINUOUS
 62
    5
 10
21956.101041226775
 20
2396.7127619562921
 11
21954.182887721705
 21
2396.7127619562921
  0
LINE
  8
_8-7_ビス
  6
CONTINUOUS
 62
    5
 10
21949.653254328547
 20
2396.0376224002325
 11
21938.413052945525
 21
2396.0376224002325
  0
LINE
  8
_8-7_ビス
  6
CONTINUOUS
 62
    5
 10
21917.669677734375
 20
2382.2338207347971
 11
21928.4704259924
 21
2387.8459414920294
  0
LINE
  8
_8-7_ビス
  6
CONTINUOUS
 62
    5
 10
21926.669558963262
 20
2389.2247999036636
 11
21915.870295344172
 21
2383.6126791464317
  0
LINE
  8
_8-7_ビス
  6
CONTINUOUS
 62
    5
 10
21928.4704259924
 20
2387.8459414920294
 11
21915.870295344172
 21
2383.6126791464317
  0
LINE
  8
_8-7_ビス
  6
CONTINUOUS
 62
    5
 10
21926.669558963262
 20
2389.9626654547619
 11
21915.870295344172
 21
2387.8459414920294
  0
LINE
  8
_8-7_ビス
  6
CONTINUOUS
 62
    5
 10
21931.720300622892
 20
2391.7626045845655
 11
21912.620420713683
 21
2391.7626045845655
  0
LINE
  8
_8-7_ビス
  6
CONTINUOUS
 62
    5
 10
21926.669558963262
 20
2389.9626654547619
 11
21917.669677734375
 21
2386.4670830803948
  0
LINE
  8
_8-7_ビス
  6
CONTINUOUS
 62
    5
 10
21926.669558963262
 20
2389.9626654547619
 11
21917.669677734375
 21
2388.7814496014571
  0
LINE
  8
_8-7_ビス
  6
CONTINUOUS
 62
    5
 10
21917.669677734375
 20
2386.4670830803948
 11
21917.669677734375
 21
2384.5480016759925
  0
LINE
  8
_8-7_ビス
  6
CONTINUOUS
 62
    5
 10
21920.67013302365
 20
2399.2626293285471
 11
21920.67013302365
 21
2400.7185033849769
  0
LINE
  8
_8-7_ビス
  6
CONTINUOUS
 62
    5
 10
21923.670588312922
 20
2400.7185033849769
 11
21923.670588312922
 21
2399.2626293285471
  0
LINE
  8
_8-7_ビス
  6
CONTINUOUS
 62
    5
 10
21923.670588312922
 20
2399.2626293285471
 11
21920.67013302365
 21
2399.2626293285471
  0
LINE
  8
_8-7_ビス
  6
CONTINUOUS
 62
    5
 10
21917.669677734375
 20
2388.7814496014571
 11
21915.870295344172
 21
2387.8459414920294
  0
LINE
  8
_8-7_ビス
  6
CONTINUOUS
 62
    5
 10
21915.870295344172
 20
2387.8459414920294
 11
21917.669677734375
 21
2386.4670830803948
  0
LINE
  8
_8-7_ビス
  6
CONTINUOUS
 62
    5
 10
21917.669677734375
 20
2391.7626045845655
 11
21917.669677734375
 21
2388.7814496014571
  0
LINE
  8
_8-7_ビス
  6
CONTINUOUS
 62
    5
 10
21915.870295344172
 20
2383.6126791464317
 11
21917.669677734375
 21
2382.2338207347971
  0
LINE
  8
_8-7_ビス
  6
CONTINUOUS
 62
    5
 10
21917.669677734375
 20
2382.2338207347971
 11
21917.669677734375
 21
2380.3147393303948
  0
LINE
  8
_8-7_ビス
  6
CONTINUOUS
 62
    5
 10
21926.669558963262
 20
2386.9106189624686
 11
21926.669558963262
 21
2384.9915375580658
  0
LINE
  8
_8-7_ビス
  6
CONTINUOUS
 62
    5
 10
21928.4704259924
 20
2387.8459414920294
 11
21926.669558963262
 21
2389.2247999036636
  0
LINE
  8
_8-7_ビス
  6
CONTINUOUS
 62
    5
 10
21926.669558963262
 20
2391.7626045845655
 11
21926.669558963262
 21
2389.2247999036636
  0
LINE
  8
_8-7_ビス
  6
CONTINUOUS
 62
    5
 10
21928.4704259924
 20
2379.379416800834
 11
21915.870295344172
 21
2375.1459688753694
  0
LINE
  8
_8-7_ビス
  6
CONTINUOUS
 62
    5
 10
21917.669677734375
 20
2373.7671104637352
 11
21928.4704259924
 21
2379.379416800834
  0
LINE
  8
_8-7_ビス
  6
CONTINUOUS
 62
    5
 10
21926.669558963262
 20
2380.7582752124686
 11
21915.870295344172
 21
2375.1459688753694
  0
LINE
  8
_8-7_ビス
  6
CONTINUOUS
 62
    5
 10
21917.669677734375
 20
2378.0005583891998
 11
21928.4704259924
 21
2383.6126791464317
  0
LINE
  8
_8-7_ビス
  6
CONTINUOUS
 62
    5
 10
21926.669558963262
 20
2384.9915375580658
 11
21915.870295344172
 21
2379.379416800834
  0
LINE
  8
_8-7_ビス
  6
CONTINUOUS
 62
    5
 10
21928.4704259924
 20
2383.6126791464317
 11
21915.870295344172
 21
2379.379416800834
  0
LINE
  8
_8-7_ビス
  6
CONTINUOUS
 62
    5
 10
21928.4704259924
 20
2375.1459688753694
 11
21917.669677734375
 21
2373.0294304925042
  0
LINE
  8
_8-7_ビス
  6
CONTINUOUS
 62
    5
 10
21927.345069679057
 20
2360.7559204101562
 11
21922.16961834882
 21
2356.9960723052154
  0
LINE
  8
_8-7_ビス
  6
CONTINUOUS
 62
    5
 10
21927.345069679057
 20
2371.9959362133127
 11
21916.995651657518
 21
2371.9959362133127
  0
LINE
  8
_8-7_ビス
  6
CONTINUOUS
 62
    5
 10
21926.669558963262
 20
2374.210646345809
 11
21917.669677734375
 21
2373.0294304925042
  0
LINE
  8
_8-7_ビス
  6
CONTINUOUS
 62
    5
 10
21917.669677734375
 20
2373.0294304925042
 11
21926.669558963262
 21
2376.524827287004
  0
LINE
  8
_8-7_ビス
  6
CONTINUOUS
 62
    5
 10
21927.345069679057
 20
2371.9959362133127
 11
21922.16961834882
 21
2356.9960723052154
  0
LINE
  8
_8-7_ビス
  6
CONTINUOUS
 62
    5
 10
21917.669677734375
 20
2373.7671104637352
 11
21917.669677734375
 21
2371.9959362133127
  0
LINE
  8
_8-7_ビス
  6
CONTINUOUS
 62
    5
 10
21915.870295344172
 20
2375.1459688753694
 11
21917.669677734375
 21
2373.7671104637352
  0
LINE
  8
_8-7_ビス
  6
CONTINUOUS
 62
    5
 10
21915.870295344172
 20
2379.379416800834
 11
21917.669677734375
 21
2378.0005583891998
  0
LINE
  8
_8-7_ビス
  6
CONTINUOUS
 62
    5
 10
21917.669677734375
 20
2378.0005583891998
 11
21917.669677734375
 21
2376.0812914049307
  0
LINE
  8
_8-7_ビス
  6
CONTINUOUS
 62
    5
 10
21916.995651657518
 20
2360.7559204101562
 11
21916.995651657518
 21
2371.9959362133127
  0
LINE
  8
_8-7_ビス
  6
CONTINUOUS
 62
    5
 10
21922.16961834882
 20
2356.9960723052154
 11
21916.995651657518
 21
2360.7559204101562
  0
LINE
  8
_8-7_ビス
  6
CONTINUOUS
 62
    5
 10
21922.16961834882
 20
2356.9960723052154
 11
21921.005661423143
 21
2361.3427239495354
  0
LINE
  8
_8-7_ビス
  6
CONTINUOUS
 62
    5
 10
21926.669558963262
 20
2374.210646345809
 11
21926.669558963262
 21
2371.9959362133127
  0
LINE
  8
_8-7_ビス
  6
CONTINUOUS
 62
    5
 10
21926.669558963262
 20
2382.6773566168708
 11
21926.669558963262
 21
2380.7582752124686
  0
LINE
  8
_8-7_ビス
  6
CONTINUOUS
 62
    5
 10
21928.4704259924
 20
2383.6126791464317
 11
21926.669558963262
 21
2384.9915375580658
  0
LINE
  8
_8-7_ビス
  6
CONTINUOUS
 62
    5
 10
21928.4704259924
 20
2379.379416800834
 11
21926.669558963262
 21
2380.7582752124686
  0
LINE
  8
_8-7_ビス
  6
CONTINUOUS
 62
    5
 10
21926.669558963262
 20
2374.210646345809
 11
21928.4704259924
 21
2375.1459688753694
  0
LINE
  8
_8-7_ビス
  6
CONTINUOUS
 62
    5
 10
21928.4704259924
 20
2375.1459688753694
 11
21926.669558963262
 21
2376.524827287004
  0
LINE
  8
_8-7_ビス
  6
CONTINUOUS
 62
    5
 10
21926.669558963262
 20
2378.4439086914062
 11
21926.669558963262
 21
2376.524827287004
  0
LINE
  8
_8-7_ビス
  6
CONTINUOUS
 62
    5
 10
21927.345069679057
 20
2371.9959362133127
 11
21927.345069679057
 21
2360.7559204101562
  0
LINE
  8
_8-7_ビス
  6
CONTINUOUS
 62
    5
 10
23708.148688239024
 20
2396.7127619562921
 11
23702.536753061657
 21
2407.512582314981
  0
LINE
  8
_8-7_ビス
  6
CONTINUOUS
 62
    5
 10
23701.157523490288
 20
2405.7126431851775
 11
23706.770943306587
 21
2394.9126372466217
  0
LINE
  8
_8-7_ビス
  6
CONTINUOUS
 62
    5
 10
23702.536753061657
 20
2407.512582314981
 11
23706.770943306587
 21
2394.9126372466217
  0
LINE
  8
_8-7_ビス
  6
CONTINUOUS
 62
    5
 10
23700.41965793919
 20
2405.7126431851775
 11
23702.536753061657
 21
2394.9126372466217
  0
LINE
  8
_8-7_ビス
  6
CONTINUOUS
 62
    5
 10
23698.620275548987
 20
2410.7622713656037
 11
23698.620275548987
 21
2391.662948195999
  0
LINE
  8
_8-7_ビス
  6
CONTINUOUS
 62
    5
 10
23700.41965793919
 20
2405.7126431851775
 11
23703.915982633025
 21
2396.7127619562921
  0
LINE
  8
_8-7_ビス
  6
CONTINUOUS
 62
    5
 10
23700.41965793919
 20
2405.7126431851775
 11
23701.601430532097
 21
2396.7127619562921
  0
LINE
  8
_8-7_ビス
  6
CONTINUOUS
 62
    5
 10
23703.915982633025
 20
2396.7127619562921
 11
23705.835620777027
 21
2396.7127619562921
  0
LINE
  8
_8-7_ビス
  6
CONTINUOUS
 62
    5
 10
23691.119879645274
 20
2399.7126605059652
 11
23689.664933488177
 21
2399.7126605059652
  0
LINE
  8
_8-7_ビス
  6
CONTINUOUS
 62
    5
 10
23689.664933488177
 20
2402.7127446355048
 11
23691.119879645274
 21
2402.7127446355048
  0
LINE
  8
_8-7_ビス
  6
CONTINUOUS
 62
    5
 10
23691.119879645274
 20
2402.7127446355048
 11
23691.119879645274
 21
2399.7126605059652
  0
LINE
  8
_8-7_ビス
  6
CONTINUOUS
 62
    5
 10
23701.601430532097
 20
2396.7127619562921
 11
23702.536753061657
 21
2394.9126372466217
  0
LINE
  8
_8-7_ビス
  6
CONTINUOUS
 62
    5
 10
23702.536753061657
 20
2394.9126372466217
 11
23703.915982633025
 21
2396.7127619562921
  0
LINE
  8
_8-7_ビス
  6
CONTINUOUS
 62
    5
 10
23698.620275548987
 20
2396.7127619562921
 11
23701.601430532097
 21
2396.7127619562921
  0
LINE
  8
_8-7_ビス
  6
CONTINUOUS
 62
    5
 10
23706.770943306587
 20
2394.9126372466217
 11
23708.148688239024
 21
2396.7127619562921
  0
LINE
  8
_8-7_ビス
  6
CONTINUOUS
 62
    5
 10
23708.148688239024
 20
2396.7127619562921
 11
23710.068326383025
 21
2396.7127619562921
  0
LINE
  8
_8-7_ビス
  6
CONTINUOUS
 62
    5
 10
23703.47207559122
 20
2405.7126431851775
 11
23705.391713735222
 21
2405.7126431851775
  0
LINE
  8
_8-7_ビス
  6
CONTINUOUS
 62
    5
 10
23702.536753061657
 20
2407.512582314981
 11
23701.157523490288
 21
2405.7126431851775
  0
LINE
  8
_8-7_ビス
  6
CONTINUOUS
 62
    5
 10
23698.620275548987
 20
2405.7126431851775
 11
23701.157523490288
 21
2405.7126431851775
  0
LINE
  8
_8-7_ビス
  6
CONTINUOUS
 62
    5
 10
23711.003648912585
 20
2407.512582314981
 11
23715.23635451858
 21
2394.9126372466217
  0
LINE
  8
_8-7_ビス
  6
CONTINUOUS
 62
    5
 10
23716.615584089952
 20
2396.7127619562921
 11
23711.003648912585
 21
2407.512582314981
  0
LINE
  8
_8-7_ビス
  6
CONTINUOUS
 62
    5
 10
23709.62441934122
 20
2405.7126431851775
 11
23715.23635451858
 21
2394.9126372466217
  0
LINE
  8
_8-7_ビス
  6
CONTINUOUS
 62
    5
 10
23712.382878483953
 20
2396.7127619562921
 11
23706.770943306587
 21
2407.512582314981
  0
LINE
  8
_8-7_ビス
  6
CONTINUOUS
 62
    5
 10
23705.391713735222
 20
2405.7126431851775
 11
23711.003648912585
 21
2394.9126372466217
  0
LINE
  8
_8-7_ビス
  6
CONTINUOUS
 62
    5
 10
23706.770943306587
 20
2407.512582314981
 11
23711.003648912585
 21
2394.9126372466217
  0
LINE
  8
_8-7_ビス
  6
CONTINUOUS
 62
    5
 10
23715.23635451858
 20
2407.512582314981
 11
23717.35344964105
 21
2396.7127619562921
  0
LINE
  8
_8-7_ビス
  6
CONTINUOUS
 62
    5
 10
23729.626959723399
 20
2406.3875971613702
 11
23733.387550147807
 21
2401.2127025707346
  0
LINE
  8
_8-7_ビス
  6
CONTINUOUS
 62
    5
 10
23718.386758340373
 20
2406.3875971613702
 11
23718.386758340373
 21
2396.0376224002325
  0
LINE
  8
_8-7_ビス
  6
CONTINUOUS
 62
    5
 10
23716.171677048143
 20
2405.7126431851775
 11
23717.35344964105
 21
2396.7127619562921
  0
LINE
  8
_8-7_ビス
  6
CONTINUOUS
 62
    5
 10
23717.35344964105
 20
2396.7127619562921
 11
23713.85860958615
 21
2405.7126431851775
  0
LINE
  8
_8-7_ビス
  6
CONTINUOUS
 62
    5
 10
23718.386758340373
 20
2406.3875971613702
 11
23733.387550147807
 21
2401.2127025707346
  0
LINE
  8
_8-7_ビス
  6
CONTINUOUS
 62
    5
 10
23716.615584089952
 20
2396.7127619562921
 11
23718.386758340373
 21
2396.7127619562921
  0
LINE
  8
_8-7_ビス
  6
CONTINUOUS
 62
    5
 10
23715.23635451858
 20
2394.9126372466217
 11
23716.615584089952
 21
2396.7127619562921
  0
LINE
  8
_8-7_ビス
  6
CONTINUOUS
 62
    5
 10
23711.003648912585
 20
2394.9126372466217
 11
23712.382878483953
 21
2396.7127619562921
  0
LINE
  8
_8-7_ビス
  6
CONTINUOUS
 62
    5
 10
23712.382878483953
 20
2396.7127619562921
 11
23714.301031989024
 21
2396.7127619562921
  0
LINE
  8
_8-7_ビス
  6
CONTINUOUS
 62
    5
 10
23729.626959723399
 20
2396.0376224002325
 11
23718.386758340373
 21
2396.0376224002325
  0
LINE
  8
_8-7_ビス
  6
CONTINUOUS
 62
    5
 10
23733.387550147807
 20
2401.2127025707346
 11
23729.626959723399
 21
2396.0376224002325
  0
LINE
  8
_8-7_ビス
  6
CONTINUOUS
 62
    5
 10
23733.387550147807
 20
2401.2127025707346
 11
23729.04052734375
 21
2400.0480033255913
  0
LINE
  8
_8-7_ビス
  6
CONTINUOUS
 62
    5
 10
23716.171677048143
 20
2405.7126431851775
 11
23718.386758340373
 21
2405.7126431851775
  0
LINE
  8
_8-7_ビス
  6
CONTINUOUS
 62
    5
 10
23707.70626583615
 20
2405.7126431851775
 11
23709.62441934122
 21
2405.7126431851775
  0
LINE
  8
_8-7_ビス
  6
CONTINUOUS
 62
    5
 10
23706.770943306587
 20
2407.512582314981
 11
23705.391713735222
 21
2405.7126431851775
  0
LINE
  8
_8-7_ビス
  6
CONTINUOUS
 62
    5
 10
23711.003648912585
 20
2407.512582314981
 11
23709.62441934122
 21
2405.7126431851775
  0
LINE
  8
_8-7_ビス
  6
CONTINUOUS
 62
    5
 10
23716.171677048143
 20
2405.7126431851775
 11
23715.23635451858
 21
2407.512582314981
  0
LINE
  8
_8-7_ビス
  6
CONTINUOUS
 62
    5
 10
23715.23635451858
 20
2407.512582314981
 11
23713.85860958615
 21
2405.7126431851775
  0
LINE
  8
_8-7_ビス
  6
CONTINUOUS
 62
    5
 10
23711.938971442149
 20
2405.7126431851775
 11
23713.85860958615
 21
2405.7126431851775
  0
LINE
  8
_8-7_ビス
  6
CONTINUOUS
 62
    5
 10
23718.386758340373
 20
2406.3875971613702
 11
23729.626959723399
 21
2406.3875971613702
  0
LINE
  8
_8-a_天井材
  6
CONTINUOUS
 62
    7
 10
21907.920053842907
 20
3610.9625739020275
 11
21907.920053842907
 21
3496.9627174171242
  0
LINE
  8
_8-a_天井材
  6
CONTINUOUS
 62
    7
 10
21873.420014252533
 20
3610.9625739020275
 11
21873.420014252533
 21
3496.9627174171242
  0
LINE
  8
_8-a_天井材
  6
CONTINUOUS
 62
    3
 10
21873.420014252533
 20
3612.7626986116975
 11
21873.420014252533
 21
3541.9624947212842
  0
LINE
  8
_8-a_天井材
  6
CONTINUOUS
 62
    3
 10
21873.420014252533
 20
3612.7626986116975
 11
21729.420429951439
 21
3612.7626986116975
  0
LINE
  8
_8-a_天井材
  6
CONTINUOUS
 62
    3
 10
21729.420429951439
 20
3612.7626986116975
 11
21729.420429951439
 21
3541.9624947212842
  0
LINE
  8
_8-a_天井材
  6
CONTINUOUS
 62
    3
 10
21874.920984216642
 20
3448.962855983425
 11
21874.920984216642
 21
3492.4627768026817
  0
LINE
  8
_8-a_天井材
  6
CONTINUOUS
 62
    3
 10
21876.420469541808
 20
3448.962855983425
 11
21876.420469541808
 21
3492.4627768026817
  0
LINE
  8
_8-a_天井材
  6
CONTINUOUS
 62
    3
 10
21871.920528927367
 20
3495.4624897724875
 11
21868.920073638095
 21
3495.4624897724875
  0
LINE
  8
_8-a_天井材
  6
CONTINUOUS
 62
    3
 10
21865.91961834882
 20
3492.4627768026817
 11
21865.91961834882
 21
3487.9628361882392
  0
LINE
  8
_8-a_天井材
  6
CONTINUOUS
 62
    3
 10
21865.91961834882
 20
3487.9628361882392
 11
21864.42013302365
 21
3487.9628361882392
  0
LINE
  8
_8-a_天井材
  6
CONTINUOUS
 62
    3
 10
21864.42013302365
 20
3487.9628361882392
 11
21864.42013302365
 21
3492.4627768026817
  0
LINE
  8
_8-a_天井材
  6
CONTINUOUS
 62
    3
 10
21867.420588312922
 20
3468.7627431508658
 11
21735.419855891047
 21
3468.7627431508658
  0
LINE
  8
_8-a_天井材
  6
CONTINUOUS
 62
    3
 10
21729.420429951439
 20
3495.0608949403509
 11
21729.420429951439
 21
3474.7625402502113
  0
LINE
  8
_8-a_天井材
  6
CONTINUOUS
 62
    3
 10
21727.920944626268
 20
3448.962855983425
 11
21727.920944626268
 21
3492.4627768026817
  0
LINE
  8
_8-a_天井材
  6
CONTINUOUS
 62
    3
 10
21726.419974662163
 20
3448.962855983425
 11
21726.419974662163
 21
3492.4627768026817
  0
LINE
  8
_8-a_天井材
  6
CONTINUOUS
 62
    3
 10
21730.919915276605
 20
3495.4624897724875
 11
21733.920370565877
 21
3495.4624897724875
  0
LINE
  8
_8-a_天井材
  6
CONTINUOUS
 62
    3
 10
21736.920825855152
 20
3492.4627768026817
 11
21736.920825855152
 21
3487.9628361882392
  0
LINE
  8
_8-a_天井材
  6
CONTINUOUS
 62
    3
 10
21736.920825855152
 20
3487.9628361882392
 11
21738.420311180322
 21
3487.9628361882392
  0
LINE
  8
_8-a_天井材
  6
CONTINUOUS
 62
    3
 10
21738.420311180322
 20
3487.9628361882392
 11
21738.420311180322
 21
3492.4627768026817
  0
LINE
  8
_8-a_天井材
  6
CONTINUOUS
 62
    3
 10
21744.419737119933
 20
3521.8682778848188
 11
21744.419737119933
 21
3489.4626926731421
  0
LINE
  8
_8-a_天井材
  6
CONTINUOUS
 62
    3
 10
21855.420251794767
 20
3589.9627273147171
 11
21855.420251794767
 21
3547.9626629803633
  0
LINE
  8
_8-a_天井材
  6
CONTINUOUS
 62
    3
 10
21747.420192409205
 20
3547.9626629803633
 11
21747.420192409205
 21
3589.9627273147171
  0
LINE
  8
_8-a_天井材
  6
CONTINUOUS
 62
    3
 10
21849.420825855152
 20
3595.9625244140625
 11
21753.41961834882
 21
3595.9625244140625
  0
LINE
  8
_8-a_天井材
  6
CONTINUOUS
 62
    3
 10
21754.920588312922
 20
3541.9624947212842
 11
21753.41961834882
 21
3541.9624947212842
  0
LINE
  8
_8-a_天井材
  6
CONTINUOUS
 62
    3
 10
21735.774684596705
 20
3487.6885491448479
 11
21734.606273754223
 21
3493.5332014754013
  0
LINE
  8
_8-a_天井材
  6
CONTINUOUS
 62
    3
 10
21763.920469541808
 20
3484.6628549936659
 11
21763.920469541808
 21
3532.9626134923988
  0
LINE
  8
_8-a_天井材
  6
CONTINUOUS
 62
    3
 10
21867.065759607267
 20
3487.6885491448479
 11
21868.234170449748
 21
3493.5332014754013
  0
LINE
  8
_8-a_天井材
  6
CONTINUOUS
 62
    3
 10
21787.91965793919
 20
3541.9624947212842
 11
21814.920786264782
 21
3541.9624947212842
  0
LINE
  8
_8-a_天井材
  6
CONTINUOUS
 62
    3
 10
21778.919776710307
 20
3484.6628549936659
 11
21778.919776710307
 21
3532.9626134923988
  0
LINE
  8
_8-a_天井材
  6
CONTINUOUS
 62
    3
 10
21847.919855891047
 20
3541.9624947212842
 11
21849.420825855152
 21
3541.9624947212842
  0
LINE
  8
_8-a_天井材
  6
CONTINUOUS
 62
    3
 10
21838.919974662163
 20
3484.6628549936659
 11
21838.919974662163
 21
3532.9626134923988
  0
LINE
  8
_8-a_天井材
  6
CONTINUOUS
 62
    3
 10
21823.920667493665
 20
3484.6628549936659
 11
21823.920667493665
 21
3532.9626134923988
  0
LINE
  8
_8-a_天井材
  6
CONTINUOUS
 62
    3
 10
21815.940733213683
 20
3441.4628312394425
 11
21804.846026446368
 21
3441.4628312394425
  0
LINE
  8
_8-a_天井材
  6
CONTINUOUS
 62
    3
 10
21867.420588312922
 20
3441.4628312394425
 11
21858.791866817992
 21
3441.4628312394425
  0
LINE
  8
_8-a_天井材
  6
CONTINUOUS
 62
    3
 10
21815.940733213683
 20
3439.9626035948058
 11
21804.846026446368
 21
3439.9626035948058
  0
LINE
  8
_8-a_天井材
  6
CONTINUOUS
 62
    3
 10
21857.98867715372
 20
3441.6517515440246
 11
21856.03192303632
 21
3442.6297574429905
  0
LINE
  8
_8-a_天井材
  6
CONTINUOUS
 62
    3
 10
21854.658632020695
 20
3441.2256601694471
 11
21851.433996252112
 21
3440.1515238993879
  0
LINE
  8
_8-a_天井材
  6
CONTINUOUS
 62
    3
 10
21857.98867715372
 20
3440.1515238993879
 11
21856.03192303632
 21
3441.1295297983534
  0
LINE
  8
_8-a_天井材
  6
CONTINUOUS
 62
    3
 10
21845.796822212837
 20
3441.2735397751271
 11
21842.435599662163
 21
3440.1515238993879
  0
LINE
  8
_8-a_天井材
  6
CONTINUOUS
 62
    3
 10
21845.796822212837
 20
3442.7737674197638
 11
21842.435599662163
 21
3441.6517515440246
  0
LINE
  8
_8-a_天井材
  6
CONTINUOUS
 62
    3
 10
21841.296881598399
 20
3441.6517515440246
 11
21837.935659047722
 21
3442.7737674197638
  0
LINE
  8
_8-a_天井材
  6
CONTINUOUS
 62
    3
 10
21841.296881598399
 20
3440.1515238993879
 11
21837.935659047722
 21
3441.2735397751271
  0
LINE
  8
_8-a_天井材
  6
CONTINUOUS
 62
    3
 10
21836.796940983953
 20
3442.7737674197638
 11
21833.435718433277
 21
3441.6517515440246
  0
LINE
  8
_8-a_天井材
  6
CONTINUOUS
 62
    3
 10
21836.796940983953
 20
3441.2735397751271
 11
21833.435718433277
 21
3440.1515238993879
  0
LINE
  8
_8-a_天井材
  6
CONTINUOUS
 62
    3
 10
21832.297000369512
 20
3441.6517515440246
 11
21828.935777818835
 21
3442.7737674197638
  0
LINE
  8
_8-a_天井材
  6
CONTINUOUS
 62
    3
 10
21832.297000369512
 20
3440.1515238993879
 11
21828.935777818835
 21
3441.2735397751271
  0
LINE
  8
_8-a_天井材
  6
CONTINUOUS
 62
    3
 10
21827.795575116135
 20
3441.2735397751271
 11
21824.435837204393
 21
3440.1515238993879
  0
LINE
  8
_8-a_天井材
  6
CONTINUOUS
 62
    3
 10
21827.795575116135
 20
3442.7737674197638
 11
21824.435837204393
 21
3441.6517515440246
  0
LINE
  8
_8-a_天井材
  6
CONTINUOUS
 62
    3
 10
21823.29563450169
 20
3441.6517515440246
 11
21820.07396801098
 21
3442.72551665435
  0
LINE
  8
_8-a_天井材
  6
CONTINUOUS
 62
    3
 10
21823.29563450169
 20
3440.1515238993879
 11
21820.07396801098
 21
3441.2256601694471
  0
LINE
  8
_8-a_天井材
  6
CONTINUOUS
 62
    3
 10
21818.700676995355
 20
3442.6297574429905
 11
21816.743922877955
 21
3441.6517515440246
  0
LINE
  8
_8-a_天井材
  6
CONTINUOUS
 62
    3
 10
21854.658632020695
 20
3442.7288570919554
 11
21851.436965529985
 21
3441.6517515440246
  0
LINE
  8
_8-a_天井材
  6
CONTINUOUS
 62
    3
 10
21850.296762827282
 20
3441.6517515440246
 11
21846.935540276605
 21
3442.7737674197638
  0
LINE
  8
_8-a_天井材
  6
CONTINUOUS
 62
    3
 10
21850.296762827282
 20
3440.1515238993879
 11
21846.935540276605
 21
3441.2735397751271
  0
LINE
  8
_8-a_天井材
  6
CONTINUOUS
 62
    3
 10
21744.851767050252
 20
3441.6517515440246
 11
21746.808521167652
 21
3442.6297574429905
  0
LINE
  8
_8-a_天井材
  6
CONTINUOUS
 62
    3
 10
21748.181812183277
 20
3441.2256601694471
 11
21751.407932590795
 21
3440.1515238993879
  0
LINE
  8
_8-a_天井材
  6
CONTINUOUS
 62
    3
 10
21744.851767050252
 20
3440.1515238993879
 11
21746.808521167652
 21
3441.1295297983534
  0
LINE
  8
_8-a_天井材
  6
CONTINUOUS
 62
    3
 10
21757.043621991135
 20
3441.2735397751271
 11
21760.404844541808
 21
3440.1515238993879
  0
LINE
  8
_8-a_天井材
  6
CONTINUOUS
 62
    3
 10
21757.043621991135
 20
3442.7737674197638
 11
21760.404844541808
 21
3441.6517515440246
  0
LINE
  8
_8-a_天井材
  6
CONTINUOUS
 62
    3
 10
21761.543562605577
 20
3441.6517515440246
 11
21764.90478515625
 21
3442.7737674197638
  0
LINE
  8
_8-a_天井材
  6
CONTINUOUS
 62
    3
 10
21761.543562605577
 20
3440.1515238993879
 11
21764.90478515625
 21
3441.2735397751271
  0
LINE
  8
_8-a_天井材
  6
CONTINUOUS
 62
    3
 10
21766.044987858953
 20
3442.7737674197638
 11
21769.404725770695
 21
3441.6517515440246
  0
LINE
  8
_8-a_天井材
  6
CONTINUOUS
 62
    3
 10
21766.044987858953
 20
3441.2735397751271
 11
21769.404725770695
 21
3440.1515238993879
  0
LINE
  8
_8-a_天井材
  6
CONTINUOUS
 62
    3
 10
21770.544928473399
 20
3441.6517515440246
 11
21773.904666385137
 21
3442.7737674197638
  0
LINE
  8
_8-a_天井材
  6
CONTINUOUS
 62
    3
 10
21770.544928473399
 20
3440.1515238993879
 11
21773.904666385137
 21
3441.2735397751271
  0
LINE
  8
_8-a_天井材
  6
CONTINUOUS
 62
    3
 10
21775.044869087837
 20
3441.2735397751271
 11
21778.404606999578
 21
3440.1515238993879
  0
LINE
  8
_8-a_天井材
  6
CONTINUOUS
 62
    3
 10
21786.899710990288
 20
3439.9626035948058
 11
21797.994417757604
 21
3439.9626035948058
  0
LINE
  8
_8-a_天井材
  6
CONTINUOUS
 62
    3
 10
21735.419855891047
 20
3441.4628312394425
 11
21744.04857738598
 21
3441.4628312394425
  0
LINE
  8
_8-a_天井材
  6
CONTINUOUS
 62
    3
 10
21818.700676995355
 20
3441.1295297983534
 11
21816.743922877955
 21
3440.1515238993879
  0
LINE
  8
_8-a_天井材
  6
CONTINUOUS
 62
    3
 10
21867.420588312922
 20
3439.9626035948058
 11
21858.600348395274
 21
3439.9626035948058
  0
LINE
  8
_8-a_天井材
  6
CONTINUOUS
 62
    3
 10
21804.042836782097
 20
3441.6517515440246
 11
21802.224154085729
 21
3442.560721732475
  0
LINE
  8
_8-a_天井材
  6
CONTINUOUS
 62
    3
 10
21804.042836782097
 20
3440.1515238993879
 11
21802.224154085729
 21
3441.0604940878379
  0
LINE
  8
_8-a_天井材
  6
CONTINUOUS
 62
    3
 10
21786.899710990288
 20
3441.4628312394425
 11
21797.994417757604
 21
3441.4628312394425
  0
LINE
  8
_8-a_天井材
  6
CONTINUOUS
 62
    3
 10
21775.044869087837
 20
3442.7737674197638
 11
21778.404606999578
 21
3441.6517515440246
  0
LINE
  8
_8-a_天井材
  6
CONTINUOUS
 62
    3
 10
21779.544809702282
 20
3441.6517515440246
 11
21782.766476192992
 21
3442.72551665435
  0
LINE
  8
_8-a_天井材
  6
CONTINUOUS
 62
    3
 10
21779.544809702282
 20
3440.1515238993879
 11
21782.766476192992
 21
3441.2256601694471
  0
LINE
  8
_8-a_天井材
  6
CONTINUOUS
 62
    3
 10
21784.139767208617
 20
3442.6297574429905
 11
21786.096521326017
 21
3441.6517515440246
  0
LINE
  8
_8-a_天井材
  6
CONTINUOUS
 62
    3
 10
21748.181812183277
 20
3442.7288570919554
 11
21751.404963312922
 21
3441.6517515440246
  0
LINE
  8
_8-a_天井材
  6
CONTINUOUS
 62
    3
 10
21752.54368137669
 20
3441.6517515440246
 11
21755.904903927367
 21
3442.7737674197638
  0
LINE
  8
_8-a_天井材
  6
CONTINUOUS
 62
    3
 10
21752.54368137669
 20
3440.1515238993879
 11
21755.904903927367
 21
3441.2735397751271
  0
LINE
  8
_8-a_天井材
  6
CONTINUOUS
 62
    3
 10
21784.139767208617
 20
3441.1295297983534
 11
21786.096521326017
 21
3440.1515238993879
  0
LINE
  8
_8-a_天井材
  6
CONTINUOUS
 62
    3
 10
21735.419855891047
 20
3439.9626035948058
 11
21744.240095808702
 21
3439.9626035948058
  0
LINE
  8
_8-a_天井材
  6
CONTINUOUS
 62
    3
 10
21798.797607421875
 20
3440.1515238993879
 11
21800.616290118243
 21
3441.0604940878379
  0
LINE
  8
_8-a_天井材
  6
CONTINUOUS
 62
    3
 10
21798.797607421875
 20
3441.6517515440246
 11
21800.616290118243
 21
3442.560721732475
  0
LINE
  8
_8-a_天井材
  6
CONTINUOUS
 62
    3
 10
21858.420707084038
 20
3521.8682778848188
 11
21858.420707084038
 21
3489.4626926731421
  0
LINE
  8
_8-a_天井材
  6
CONTINUOUS
 62
    3
 10
21873.420014252533
 20
3474.7625402502113
 11
21873.420014252533
 21
3495.0608949403509
  0
LINE
  8
_8-a_天井材
  6
CONTINUOUS
 62
    7
 10
21907.920053842907
 20
3496.9627174171242
 11
21858.420707084038
 21
3496.9627174171242
  0
LINE
  8
_8-a_天井材
  6
CONTINUOUS
 62
    7
 10
21907.920053842907
 20
3610.9625739020275
 11
21873.420014252533
 21
3610.9625739020275
  0
LINE
  8
_8-a_天井材
  6
CONTINUOUS
 62
    7
 10
21461.62274334882
 20
3784.9626283387884
 11
21461.62274334882
 21
3490.962549158045
  0
LINE
  8
_8-a_天井材
  6
CONTINUOUS
 62
    7
 10
21392.622664168077
 20
3784.9626283387884
 11
21461.62274334882
 21
3784.9626283387884
  0
LINE
  8
_8-a_天井材
  6
CONTINUOUS
 62
    7
 10
21392.622664168077
 20
3490.962549158045
 11
21392.622664168077
 21
3784.9626283387884
  0
LINE
  8
_8-a_天井材
  6
CONTINUOUS
 62
    7
 10
21461.62274334882
 20
3490.962549158045
 11
21392.622664168077
 21
3490.962549158045
  0
LINE
  8
_8-a_天井材
  6
CONTINUOUS
 62
    7
 10
21455.621832770274
 20
3757.4077296901396
 11
21455.621832770274
 21
3778.9628312394425
  0
LINE
  8
_8-a_天井材
  6
CONTINUOUS
 62
    7
 10
21455.621832770274
 20
3757.4077296901396
 11
21451.387642525337
 21
3754.9625293628592
  0
LINE
  8
_8-a_天井材
  6
CONTINUOUS
 62
    7
 10
21451.387642525337
 20
3754.9625293628592
 11
21402.857764991557
 21
3754.9625293628592
  0
LINE
  8
_8-a_天井材
  6
CONTINUOUS
 62
    7
 10
21402.857764991557
 20
3754.9625293628592
 11
21398.622090107689
 21
3757.4077296901396
  0
LINE
  8
_8-a_天井材
  6
CONTINUOUS
 62
    7
 10
21412.873139252533
 20
3757.4077296901396
 11
21412.873139252533
 21
3778.9628312394425
  0
LINE
  8
_8-a_天井材
  6
CONTINUOUS
 62
    7
 10
21441.37226826436
 20
3778.9628312394425
 11
21441.37226826436
 21
3757.4077296901396
  0
LINE
  8
_8-a_天井材
  6
CONTINUOUS
 62
    7
 10
21398.622090107689
 20
3757.4077296901396
 11
21398.622090107689
 21
3778.9628312394425
  0
LINE
  8
_8-a_天井材
  6
CONTINUOUS
 62
    7
 10
21461.62274334882
 20
3640.9626728779563
 11
21392.622664168077
 21
3640.9626728779563
  0
LINE
  8
_8-a_天井材
  6
CONTINUOUS
 62
    7
 10
21392.622664168077
 20
3778.9628312394425
 11
21461.62274334882
 21
3778.9628312394425
  0
LINE
  8
_8-a_天井材
  6
CONTINUOUS
 62
    7
 10
21455.621832770274
 20
3806.5177298880913
 11
21455.621832770274
 21
3784.9626283387884
  0
LINE
  8
_8-a_天井材
  6
CONTINUOUS
 62
    7
 10
21455.621832770274
 20
3806.5177298880913
 11
21451.387642525337
 21
3808.9625590556379
  0
LINE
  8
_8-a_天井材
  6
CONTINUOUS
 62
    7
 10
21451.387642525337
 20
3808.9625590556379
 11
21402.857764991557
 21
3808.9625590556379
  0
LINE
  8
_8-a_天井材
  6
CONTINUOUS
 62
    7
 10
21402.857764991557
 20
3808.9625590556379
 11
21398.622090107689
 21
3806.5177298880913
  0
LINE
  8
_8-a_天井材
  6
CONTINUOUS
 62
    7
 10
21412.873139252533
 20
3806.5177298880913
 11
21412.873139252533
 21
3784.9626283387884
  0
LINE
  8
_8-a_天井材
  6
CONTINUOUS
 62
    7
 10
21441.37226826436
 20
3784.9626283387884
 11
21441.37226826436
 21
3806.5177298880913
  0
LINE
  8
_8-a_天井材
  6
CONTINUOUS
 62
    7
 10
21398.622090107689
 20
3806.5177298880913
 11
21398.622090107689
 21
3784.9626283387884
  0
LINE
  8
_8-a_天井材
  6
CONTINUOUS
 62
    7
 10
21441.37226826436
 20
3694.962702570735
 11
21412.873139252533
 21
3694.962702570735
  0
LINE
  8
_8-a_天井材
  6
CONTINUOUS
 62
    7
 10
21412.873139252533
 20
3694.962702570735
 11
21412.873139252533
 21
3754.9625293628592
  0
LINE
  8
_8-a_天井材
  6
CONTINUOUS
 62
    7
 10
21441.37226826436
 20
3754.9625293628592
 11
21441.37226826436
 21
3694.962702570735
  0
LINE
  8
_8-a_天井材
  6
CONTINUOUS
 62
    7
 10
21067.920251794767
 20
3439.9626035948058
 11
21876.420469541808
 21
3439.9626035948058
  0
LINE
  8
_8-a_天井材
  6
CONTINUOUS
 62
    7
 10
21067.920251794767
 20
3411.4627322635138
 11
21876.420469541808
 21
3411.4627322635138
  0
LINE
  8
_8-a_天井材
  6
CONTINUOUS
 62
    7
 10
21392.622664168077
 20
3496.9627174171242
 11
21067.920251794767
 21
3496.9627174171242
  0
LINE
  8
_8-a_天井材
  6
CONTINUOUS
 62
    7
 10
21744.419737119933
 20
3496.9627174171242
 11
21461.62274334882
 21
3496.9627174171242
  0
LINE
  8
_8-a_天井材
  6
CONTINUOUS
 62
    7
 10
21392.622664168077
 20
3610.9625739020275
 11
21067.920251794767
 21
3610.9625739020275
  0
LINE
  8
_8-a_天井材
  6
CONTINUOUS
 62
    7
 10
21729.420429951439
 20
3610.9625739020275
 11
21461.62274334882
 21
3610.9625739020275
  0
LINE
  8
_8-a_天井材
  6
CONTINUOUS
 62
    7
 10
21412.873139252533
 20
4246.9625936972134
 11
21412.873139252533
 21
3808.9625590556379
  0
LINE
  8
_8-a_天井材
  6
CONTINUOUS
 62
    7
 10
21441.37226826436
 20
4246.9625936972134
 11
21441.37226826436
 21
3808.9625590556379
  0
LINE
  8
_8-6_仕上げ材
  6
CONTINUOUS
 62
    7
 10
21876.420469541808
 20
2355.4626258643898
 11
21876.420469541808
 21
3439.9626035948058
  0
LINE
  8
_8-6_仕上げ材
  6
CONTINUOUS
 62
    7
 10
21904.919598553635
 20
2383.9626827755492
 11
21904.919598553635
 21
3439.9626035948058
  0
LINE
  8
_8-6_仕上げ材
  6
CONTINUOUS
 62
    7
 10
21904.919598553635
 20
3439.9626035948058
 11
21876.420469541808
 21
3439.9626035948058
  0
LINE
  8
_8-0_躯体
  6
CONTINUOUS
 62
    7
 10
23767.920251794767
 20
1912.3715787320523
 11
24067.919756915118
 21
2212.3714550121408
  0
LINE
  8
_8-0_躯体
  6
CONTINUOUS
 62
    7
 10
23767.920251794767
 20
1954.7979200208513
 11
24067.919756915118
 21
2254.7979818808067
  0
LINE
  8
_8-0_躯体
  6
CONTINUOUS
 62
    7
 10
23767.920251794767
 20
1997.2242613096496
 11
24067.919756915118
 21
2297.2243231696052
  0
LINE
  8
_8-0_躯体
  6
CONTINUOUS
 62
    7
 10
23453.982956345018
 20
2446.9625936972129
 11
24067.919756915118
 21
3060.8997654270484
  0
LINE
  8
_8-0_躯体
  6
CONTINUOUS
 62
    7
 10
23411.556429476354
 20
2446.9625936972129
 11
24067.919756915118
 21
3103.3261067158469
  0
LINE
  8
_8-0_躯体
  6
CONTINUOUS
 62
    7
 10
23369.129902607689
 20
2446.9625936972129
 11
24067.919756915118
 21
3145.7524480046454
  0
LINE
  8
_8-0_躯体
  6
CONTINUOUS
 62
    7
 10
22605.455388249578
 20
2446.9625936972129
 11
24067.919756915118
 21
3909.4277046822212
  0
LINE
  8
_8-0_躯体
  6
CONTINUOUS
 62
    7
 10
22563.028861380913
 20
2446.9625936972129
 11
24067.919756915118
 21
3951.8542315508867
  0
LINE
  8
_8-0_躯体
  6
CONTINUOUS
 62
    7
 10
22520.602334512248
 20
2446.9625936972129
 11
24067.919756915118
 21
3994.2807584195525
  0
LINE
  8
_8-0_躯体
  6
CONTINUOUS
 62
    7
 10
21967.920251794767
 20
2657.9559532371732
 11
23856.927325274493
 21
4546.9628411370359
  0
LINE
  8
_8-0_躯体
  6
CONTINUOUS
 62
    7
 10
21967.920251794767
 20
2700.3822945259717
 11
23814.500798405828
 21
4546.9628411370359
  0
LINE
  8
_8-0_躯体
  6
CONTINUOUS
 62
    7
 10
21967.920251794767
 20
2742.8088213946371
 11
23772.074271537163
 21
4546.9628411370359
  0
LINE
  8
_8-0_躯体
  6
CONTINUOUS
 62
    7
 10
21967.920251794767
 20
3506.4840780722129
 11
23008.398272540118
 21
4546.9628411370359
  0
LINE
  8
_8-0_躯体
  6
CONTINUOUS
 62
    7
 10
21967.920251794767
 20
3548.9106049408783
 11
22965.971745671453
 21
4546.9628411370359
  0
LINE
  8
_8-0_躯体
  6
CONTINUOUS
 62
    7
 10
21967.920251794767
 20
3591.33676064981
 11
22923.546703441723
 21
4546.9628411370359
  0
LINE
  8
_8-0_躯体
  6
CONTINUOUS
 62
    7
 10
21859.871199324327
 20
4246.9625936972134
 11
22159.870704444682
 21
4546.9628411370359
  0
LINE
  8
_8-0_躯体
  6
CONTINUOUS
 62
    7
 10
21817.444672455658
 20
4246.9625936972134
 11
22117.444177576017
 21
4546.9628411370359
  0
LINE
  8
_8-0_躯体
  6
CONTINUOUS
 62
    7
 10
21775.018145586993
 20
4246.9625936972134
 11
22075.017650707348
 21
4546.9628411370359
  0
LINE
  8
_8-0_躯体
  6
CONTINUOUS
 62
    7
 10
21067.920251794767
 20
4303.5403277422929
 11
21311.343136349242
 21
4546.9628411370359
  0
LINE
  8
_8-0_躯体
  6
CONTINUOUS
 62
    7
 10
21067.920251794767
 20
4345.9668546109588
 11
21268.916609480577
 21
4546.9628411370359
  0
LINE
  8
_8-0_躯体
  6
CONTINUOUS
 62
    7
 10
21067.920251794767
 20
4388.3930103198909
 11
21226.490082611908
 21
4546.9628411370359
  0
LINE
  8
_8-9_寸法
  6
CONTINUOUS
 62
    7
 10
21967.920251794767
 20
2925.5955257931273
 11
23767.920251794767
 21
2925.5955257931273
  0
LINE
  8
_8-9_寸法
  6
CONTINUOUS
 62
    7
 10
21967.920251794767
 20
2925.5955257931273
 11
21967.920251794767
 21
2485.9020748653929
  0
LINE
  8
_8-9_寸法
  6
CONTINUOUS
 62
    7
 10
23767.920251794767
 20
2925.5955257931273
 11
23767.920251794767
 21
2485.9020748653929
  0
LINE
  8
_1-5_寸法
  6
CONTINUOUS
 62
    7
 10
17426.057887721705
 20
6495.6939697265625
 11
17426.057887721705
 21
5235.69426665435
  0
LINE
  8
_1-5_寸法
  6
CONTINUOUS
 62
    7
 10
17426.057887721705
 20
6533.1944646062075
 11
17426.057887721705
 21
6495.6939697265625
  0
LINE
  8
_1-5_寸法
  6
CONTINUOUS
 62
    7
 10
17426.057887721705
 20
5235.69426665435
 11
17426.057887721705
 21
5198.1941429344379
  0
LINE
  8
_1-1______
  6
CONTINUOUS
 62
    7
 10
18581.69044288429
 20
5168.1944151182433
 11
18581.69044288429
 21
4876.3333294842696
  0
LINE
  8
_1-1______
  6
CONTINUOUS
 62
    7
 10
18194.689611486487
 20
5168.1944151182433
 11
18194.689611486487
 21
4876.3333294842696
  0
LINE
  8
_1-1______
  6
CONTINUOUS
 62
    7
 10
18127.190502269848
 20
5168.1944151182433
 11
18127.190502269848
 21
4876.3333294842696
  0
LINE
  8
_1-1______
  6
CONTINUOUS
 62
    7
 10
17740.189670872045
 20
5168.1944151182433
 11
17740.189670872045
 21
4876.3333294842696
  0
LINE
  8
_1-1______
  6
CONTINUOUS
 62
    7
 10
17672.690561655407
 20
5168.1944151182433
 11
17672.690561655407
 21
4876.3333294842696
  0
LINE
  8
_1-1______
  6
CONTINUOUS
 62
    7
 10
17285.689730257604
 20
5168.1944151182433
 11
17285.689730257604
 21
4876.3333294842696
  0
LINE
  8
_1-1______
  6
CONTINUOUS
 62
    7
 10
17218.189136402027
 20
5168.1944151182433
 11
17218.189136402027
 21
4876.3333294842696
  0
LINE
  8
_1-1______
  6
CONTINUOUS
 62
    7
 10
16831.189789643158
 20
5168.1944151182433
 11
16831.189789643158
 21
4876.3333294842696
  0
LINE
  8
_1-1______
  6
CONTINUOUS
 62
    7
 10
18649.189552100932
 20
5168.1944151182433
 11
18649.189552100932
 21
4876.3333294842696
  0
LINE
  8
_1-1______
  6
CONTINUOUS
 62
    7
 10
16763.689195787585
 20
5168.1944151182433
 11
16763.689195787585
 21
4876.3333294842696
  0
LINE
  8
_1-0_____
  6
CONTINUOUS
 62
    7
 10
18793.940363703547
 20
5198.1941429344379
 11
18793.940363703547
 21
5153.1943656302792
  0
LINE
  8
_1-0_____
  6
CONTINUOUS
 62
    7
 10
16618.939868823902
 20
5198.1941429344379
 11
16618.939868823902
 21
5153.1943656302792
  0
LINE
  8
_1-0_____
  6
CONTINUOUS
 62
    7
 10
16618.939868823902
 20
5168.1944151182433
 11
18793.940363703547
 21
5168.1944151182433
  0
LINE
  8
_1-0_____
  6
CONTINUOUS
 62
    7
 10
18649.189552100932
 20
5153.1943656302792
 11
18793.940363703547
 21
5153.1943656302792
  0
LINE
  8
_1-0_____
  6
CONTINUOUS
 62
    7
 10
16618.939868823902
 20
5198.1941429344379
 11
18793.940363703547
 21
5198.1941429344379
  0
LINE
  8
_1-0_____
  6
CONTINUOUS
 62
    7
 10
16618.939868823902
 20
5153.1943656302792
 11
16763.689195787585
 21
5153.1943656302792
  0
LINE
  8
_1-0_____
  6
CONTINUOUS
 62
    7
 10
18194.689611486487
 20
5153.1943656302792
 11
18581.69044288429
 21
5153.1943656302792
  0
LINE
  8
_1-0_____
  6
CONTINUOUS
 62
    7
 10
17740.189670872045
 20
5153.1943656302792
 11
18127.190502269848
 21
5153.1943656302792
  0
LINE
  8
_1-0_____
  6
CONTINUOUS
 62
    7
 10
17285.689730257604
 20
5153.1943656302792
 11
17672.690561655407
 21
5153.1943656302792
  0
LINE
  8
_1-0_____
  6
CONTINUOUS
 62
    7
 10
16831.189789643158
 20
5153.1943656302792
 11
17218.189136402027
 21
5153.1943656302792
  0
LINE
  8
_1-1______
  6
CONTINUOUS
 62
    7
 10
18581.69044288429
 20
7335.6945140941725
 11
18581.69044288429
 21
6563.1945635821376
  0
LINE
  8
_1-1______
  6
CONTINUOUS
 62
    7
 10
18194.689611486487
 20
7335.6945140941725
 11
18194.689611486487
 21
6563.1945635821376
  0
LINE
  8
_1-1______
  6
CONTINUOUS
 62
    7
 10
18127.190502269848
 20
7335.6945140941725
 11
18127.190502269848
 21
6563.1945635821376
  0
LINE
  8
_1-1______
  6
CONTINUOUS
 62
    7
 10
17740.189670872045
 20
7335.6945140941725
 11
17740.189670872045
 21
6563.1945635821376
  0
LINE
  8
_1-1______
  6
CONTINUOUS
 62
    7
 10
17672.690561655407
 20
7335.6945140941725
 11
17672.690561655407
 21
6563.1945635821376
  0
LINE
  8
_1-1______
  6
CONTINUOUS
 62
    7
 10
17285.689730257604
 20
7335.6945140941725
 11
17285.689730257604
 21
6563.1945635821376
  0
LINE
  8
_1-1______
  6
CONTINUOUS
 62
    7
 10
17218.189136402027
 20
7335.6945140941725
 11
17218.189136402027
 21
6563.1945635821376
  0
LINE
  8
_1-1______
  6
CONTINUOUS
 62
    7
 10
16831.189789643158
 20
7335.6945140941725
 11
16831.189789643158
 21
6563.1945635821376
  0
LINE
  8
_1-1______
  6
CONTINUOUS
 62
    7
 10
18649.189552100932
 20
7335.6945140941725
 11
18649.189552100932
 21
6563.1945635821376
  0
LINE
  8
_1-1______
  6
CONTINUOUS
 62
    7
 10
16763.689195787585
 20
7335.6945140941725
 11
16763.689195787585
 21
6563.1945635821376
  0
LINE
  8
_1-0_____
  6
CONTINUOUS
 62
    7
 10
18793.940363703547
 20
6578.1946130701017
 11
18793.940363703547
 21
6533.1944646062075
  0
LINE
  8
_1-0_____
  6
CONTINUOUS
 62
    7
 10
16618.939868823902
 20
6578.1946130701017
 11
16618.939868823902
 21
6533.1944646062075
  0
LINE
  8
_1-0_____
  6
CONTINUOUS
 62
    7
 10
16618.939868823902
 20
6563.1945635821376
 11
18793.940363703547
 21
6563.1945635821376
  0
LINE
  8
_1-0_____
  6
CONTINUOUS
 62
    7
 10
16618.939868823902
 20
6533.1944646062075
 11
18793.940363703547
 21
6533.1944646062075
  0
LINE
  8
_1-0_____
  6
CONTINUOUS
 62
    7
 10
18649.189552100932
 20
6578.1946130701017
 11
18793.940363703547
 21
6578.1946130701017
  0
LINE
  8
_1-0_____
  6
CONTINUOUS
 62
    7
 10
16618.939868823902
 20
6578.1946130701017
 11
16763.689195787585
 21
6578.1946130701017
  0
LINE
  8
_1-0_____
  6
CONTINUOUS
 62
    7
 10
18194.689611486487
 20
6578.1946130701017
 11
18581.69044288429
 21
6578.1946130701017
  0
LINE
  8
_1-0_____
  6
CONTINUOUS
 62
    7
 10
17740.189670872045
 20
6578.1946130701017
 11
18127.190502269848
 21
6578.1946130701017
  0
LINE
  8
_1-0_____
  6
CONTINUOUS
 62
    7
 10
17285.689730257604
 20
6578.1946130701017
 11
17672.690561655407
 21
6578.1946130701017
  0
LINE
  8
_1-0_____
  6
CONTINUOUS
 62
    7
 10
16831.189789643158
 20
6578.1946130701017
 11
17218.189136402027
 21
6578.1946130701017
  0
LINE
  8
_1-5_寸法
  6
CONTINUOUS
 62
    7
 10
16618.939868823902
 20
5865.6941181904567
 11
16656.440363703547
 21
5865.6941181904567
  0
LINE
  8
_1-5_寸法
  6
CONTINUOUS
 62
    7
 10
16656.440363703547
 20
5865.6941181904567
 11
18756.439868823902
 21
5865.6941181904567
  0
LINE
  8
_1-5_寸法
  6
CONTINUOUS
 62
    7
 10
18756.439868823902
 20
5865.6941181904567
 11
18793.940363703547
 21
5865.6941181904567
  0
LINE
  8
_1-1______
  6
CONTINUOUS
 62
    7
 10
18876.440264727618
 20
7335.6945140941725
 11
18876.440264727618
 21
4876.3333294842696
  0
LINE
  8
_1-1______
  6
CONTINUOUS
 62
    7
 10
18808.939670872045
 20
7335.6945140941725
 11
18808.939670872045
 21
4876.3333294842696
  0
LINE
  8
_1-1______
  6
CONTINUOUS
 62
    7
 10
16536.43996779983
 20
7335.6945140941725
 11
16536.43996779983
 21
4876.3333294842696
  0
LINE
  8
_1-1______
  6
CONTINUOUS
 62
    7
 10
16376.689849028715
 20
7335.6945140941725
 11
16376.689849028715
 21
4876.3333294842696
  0
LINE
  8
_1-1______
  6
CONTINUOUS
 62
    7
 10
16309.189255173143
 20
7335.6945140941725
 11
16309.189255173143
 21
4876.3333294842696
  0
LINE
  8
_1-1______
  6
CONTINUOUS
 62
    7
 10
19490.690324113177
 20
7335.6945140941725
 11
19490.690324113177
 21
4876.3333294842696
  0
LINE
  8
_1-1______
  6
CONTINUOUS
 62
    7
 10
15922.189908414275
 20
7335.6945140941725
 11
15922.189908414275
 21
4876.3333294842696
  0
LINE
  8
_1-1______
  6
CONTINUOUS
 62
    7
 10
19103.689492715373
 20
7335.6945140941725
 11
19103.689492715373
 21
4876.3333294842696
  0
LINE
  8
_1-1______
  6
CONTINUOUS
 62
    7
 10
19036.190383498735
 20
7335.6945140941725
 11
19036.190383498735
 21
4876.3333294842696
  0
LINE
  8
_1-1______
  6
CONTINUOUS
 62
    7
 10
19558.189433329815
 20
7335.6945140941725
 11
19558.189433329815
 21
4876.3333294842696
  0
LINE
  8
_1-1______
  6
CONTINUOUS
 62
    7
 10
15854.6893145587
 20
7335.6945140941725
 11
15854.6893145587
 21
4876.3333294842696
  0
LINE
  8
_1-6_文字
  6
CONTINUOUS
 62
    7
 10
17918.4814453125
 20
5409.8594871727191
 11
18413.480851456927
 21
5409.8594871727191
  0
LINE
  8
_1-6_文字
  6
CONTINUOUS
 62
    7
 10
18218.874379750847
 20
6746.6877705342067
 11
18713.873785895274
 21
6746.6877705342067
  0
LINE
  8
_1-6_文字
  6
CONTINUOUS
 62
    7
 10
18797.069982580237
 20
7454.0142987225508
 11
19292.069388724663
 21
7454.0142987225508
  0
LINE
  8
_1-6_文字
  6
CONTINUOUS
 62
    7
 10
17877.835000527873
 20
7384.6497406830667
 11
18327.835000527873
 21
7384.6497406830667
  0
LINE
  8
_1-6_文字
  6
CONTINUOUS
 62
    7
 10
18731.588497677367
 20
7340.5990188186233
 11
18797.069982580237
 21
7454.0142987225508
  0
LINE
  8
_1-6_文字
  6
CONTINUOUS
 62
    7
 10
17724.302549619933
 20
7118.7241837785059
 11
17877.835000527873
 21
7384.6497406830667
  0
LINE
  8
_1-0_____
  6
CONTINUOUS
 62
    7
 10
18808.939670872045
 20
7320.6944646062075
 11
18649.189552100932
 21
7320.6944646062075
  0
LINE
  8
_1-0_____
  6
CONTINUOUS
 62
    7
 10
19036.190383498735
 20
7320.6944646062075
 11
18876.440264727618
 21
7320.6944646062075
  0
LINE
  8
_1-0_____
  6
CONTINUOUS
 62
    7
 10
16536.43996779983
 20
7320.6944646062075
 11
16376.689849028715
 21
7320.6944646062075
  0
LINE
  8
_1-0_____
  6
CONTINUOUS
 62
    7
 10
16763.689195787585
 20
7320.6944646062075
 11
16603.940561655407
 21
7320.6944646062075
  0
LINE
  8
_1-0_____
  6
CONTINUOUS
 62
    7
 10
20029.79835304054
 20
7365.6946130701017
 11
15383.080394847975
 21
7365.6946130701017
  0
LINE
  8
_1-6_文字
  6
CONTINUOUS
 62
    7
 10
17791.2389806799
 20
5189.4696622281463
 11
17918.4814453125
 21
5409.8594871727191
  0
LINE
  8
_1-6_文字
  6
CONTINUOUS
 62
    7
 10
18091.631915118243
 20
6526.2975744298992
 11
18218.874379750847
 21
6746.6877705342067
  0
LINE
  8
_1-5_寸法
  6
CONTINUOUS
 62
    7
 10
16131.672462257182
 20
6136.3066802153717
 11
16144.899110536318
 21
6185.66795555321
  0
LINE
  8
_1-5_寸法
  6
CONTINUOUS
 62
    7
 10
16923.947061074748
 20
6136.3066802153717
 11
16910.72041279561
 21
6185.66795555321
  0
LINE
  8
_1-5_寸法
  6
CONTINUOUS
 62
    7
 10
16849.89475559544
 20
6061.4311424461566
 11
16910.72041279561
 21
6061.4311424461566
  0
LINE
  8
_1-5_寸法
  6
CONTINUOUS
 62
    7
 10
16144.899110536318
 20
6061.4311424461566
 11
16211.492590002112
 21
6061.4311424461566
  0
LINE
  8
_1-5_寸法
  6
CONTINUOUS
 62
    7
 10
16910.72041279561
 20
6061.4311424461566
 11
16910.72041279561
 21
6185.66795555321
  0
LINE
  8
_1-5_寸法
  6
CONTINUOUS
 62
    7
 10
16144.899110536318
 20
6061.4311424461566
 11
16144.899110536318
 21
6185.66795555321
  0
LINE
  8
_1-5_寸法
  6
CONTINUOUS
 62
    7
 10
16211.492590002112
 20
6061.4311424461566
 11
16849.89475559544
 21
6061.4311424461566
  0
LINE
  8
_1-5_寸法
  6
CONTINUOUS
 62
    7
 10
15383.080394847975
 20
7705.596016548775
 11
16342.939552100932
 21
7705.596016548775
  0
LINE
  8
_1-5_寸法
  6
CONTINUOUS
 62
    7
 10
15383.080394847975
 20
7705.4720491976359
 11
15441.500936972128
 21
7682.8676790804484
  0
LINE
  8
_1-5_寸法
  6
CONTINUOUS
 62
    7
 10
15383.080394847975
 20
7705.4720491976359
 11
15438.3074786212
 21
7727.5805499102626
  0
LINE
  8
_1-0_____
  6
CONTINUOUS
 62
    7
 10
20029.79835304054
 20
7320.6944646062075
 11
19558.189433329815
 21
7320.6944646062075
  0
LINE
  8
_1-5_寸法
  6
CENTER1
 62
    7
 10
15888.439611486487
 20
6874.565660631335
 11
15888.439611486487
 21
7858.0810546875
  0
LINE
  8
_1-5_寸法
  6
CENTER1
 62
    7
 10
16342.939552100932
 20
6874.565660631335
 11
16342.939552100932
 21
7858.0810546875
  0
LINE
  8
_1-5_寸法
  6
CENTER1
 62
    7
 10
16797.439492715373
 20
6874.565660631335
 11
16797.439492715373
 21
7858.0810546875
  0
LINE
  8
_1-5_寸法
  6
CENTER1
 62
    7
 10
17251.939433329815
 20
6874.565660631335
 11
17251.939433329815
 21
7858.0810546875
  0
LINE
  8
_1-5_寸法
  6
CENTER1
 62
    7
 10
17706.439373944257
 20
6874.565660631335
 11
17706.439373944257
 21
7858.0810546875
  0
LINE
  8
_1-5_寸法
  6
CENTER1
 62
    7
 10
18160.939314558702
 20
6874.565660631335
 11
18160.939314558702
 21
7858.0810546875
  0
LINE
  8
_1-5_寸法
  6
CENTER1
 62
    7
 10
18615.439255173143
 20
6874.565660631335
 11
18615.439255173143
 21
7858.0810546875
  0
LINE
  8
_1-5_寸法
  6
CENTER1
 62
    7
 10
19069.939195787585
 20
6874.565660631335
 11
19069.939195787585
 21
7858.0810546875
  0
LINE
  8
_1-5_寸法
  6
CENTER1
 62
    7
 10
19524.439136402027
 20
6874.565660631335
 11
19524.439136402027
 21
7858.0810546875
  0
LINE
  8
_1-5_寸法
  6
CONTINUOUS
 62
    7
 10
16342.939552100932
 20
7705.596016548775
 11
16797.439492715373
 21
7705.596016548775
  0
LINE
  8
_1-5_寸法
  6
CONTINUOUS
 62
    7
 10
16797.439492715373
 20
7705.596016548775
 11
17251.939433329815
 21
7705.596016548775
  0
LINE
  8
_1-5_寸法
  6
CONTINUOUS
 62
    7
 10
17251.939433329815
 20
7705.596016548775
 11
17706.439373944257
 21
7705.596016548775
  0
LINE
  8
_1-5_寸法
  6
CONTINUOUS
 62
    7
 10
17706.439373944257
 20
7705.596016548775
 11
18160.939314558702
 21
7705.596016548775
  0
LINE
  8
_1-5_寸法
  6
CONTINUOUS
 62
    7
 10
18160.939314558702
 20
7705.596016548775
 11
18615.439255173143
 21
7705.596016548775
  0
LINE
  8
_1-5_寸法
  6
CONTINUOUS
 62
    7
 10
18615.439255173143
 20
7705.596016548775
 11
19069.939195787585
 21
7705.596016548775
  0
LINE
  8
_1-5_寸法
  6
CONTINUOUS
 62
    7
 10
19069.939195787585
 20
7705.596016548775
 11
20029.79835304054
 21
7705.596016548775
  0
LINE
  8
_1-5_寸法
  6
CONTINUOUS
 62
    7
 10
20029.79835304054
 20
7705.4720491976359
 11
19971.379295555322
 21
7682.8676790804484
  0
LINE
  8
_1-5_寸法
  6
CONTINUOUS
 62
    7
 10
20029.79835304054
 20
7705.4720491976359
 11
19974.57275390625
 21
7727.5805499102626
  0
LINE
  8
_1-0_____
  6
CONTINUOUS
 62
    7
 10
16309.189255173143
 20
7320.6944646062075
 11
15922.189908414275
 21
7320.6944646062075
  0
LINE
  8
_1-0_____
  6
CONTINUOUS
 62
    7
 10
17218.189136402027
 20
7320.6944646062075
 11
16831.189789643158
 21
7320.6944646062075
  0
LINE
  8
_1-0_____
  6
CONTINUOUS
 62
    7
 10
15854.6893145587
 20
7320.6944646062075
 11
15383.080394847975
 21
7320.6944646062075
  0
LINE
  8
_1-0_____
  6
CONTINUOUS
 62
    7
 10
17672.690561655407
 20
7320.6944646062075
 11
17285.689730257604
 21
7320.6944646062075
  0
LINE
  8
_1-0_____
  6
CONTINUOUS
 62
    7
 10
18127.190502269848
 20
7320.6944646062075
 11
17740.189670872045
 21
7320.6944646062075
  0
LINE
  8
_1-0_____
  6
CONTINUOUS
 62
    7
 10
18581.69044288429
 20
7320.6944646062075
 11
18194.689611486487
 21
7320.6944646062075
  0
LINE
  8
_1-0_____
  6
CONTINUOUS
 62
    7
 10
19490.690324113177
 20
7320.6944646062075
 11
19103.689492715373
 21
7320.6944646062075
  0
LINE
  8
_1-0_____
  6
CONTINUOUS
 62
    7
 10
20029.79835304054
 20
7335.6945140941725
 11
15383.080394847975
 21
7335.6945140941725
  0
LINE
  8
_1-1______
  6
CONTINUOUS
 62
    7
 10
16603.940561655407
 20
7335.6945140941725
 11
16603.940561655407
 21
4876.3333294842696
  0
LINE
  8
_1-8_開口
  6
CONTINUOUS
 62
    7
 10
16656.440363703547
 20
5235.69426665435
 11
16656.440363703547
 21
6495.6939697265625
  0
LINE
  8
_1-8_開口
  6
CONTINUOUS
 62
    7
 10
16618.939868823902
 20
5198.1941429344379
 11
16618.939868823902
 21
6533.1944646062075
  0
LINE
  8
_1-8_開口
  6
CONTINUOUS
 62
    7
 10
16656.440363703547
 20
6495.6939697265625
 11
18756.439868823902
 21
6495.6939697265625
  0
LINE
  8
_1-8_開口
  6
CONTINUOUS
 62
    7
 10
16618.939868823902
 20
6533.1944646062075
 11
18793.940363703547
 21
6533.1944646062075
  0
LINE
  8
_1-8_開口
  6
CONTINUOUS
 62
    7
 10
16656.440363703547
 20
5235.69426665435
 11
18756.439868823902
 21
5235.69426665435
  0
LINE
  8
_1-8_開口
  6
CONTINUOUS
 62
    7
 10
16618.939868823902
 20
5198.1941429344379
 11
18793.940363703547
 21
5198.1941429344379
  0
LINE
  8
_1-8_開口
  6
CONTINUOUS
 62
    7
 10
18793.940363703547
 20
6533.1944646062075
 11
18793.940363703547
 21
5198.1941429344379
  0
LINE
  8
_1-8_開口
  6
CONTINUOUS
 62
    7
 10
18756.439868823902
 20
6495.6939697265625
 11
18756.439868823902
 21
5235.69426665435
  0
LINE
  8
_8-8_文字
  6
CONTINUOUS
 62
    7
 10
22030.871911951017
 20
2244.2605714540227
 11
22443.371417071368
 21
2244.2605714540227
  0
LINE
  8
_8-8_文字
  6
CONTINUOUS
 62
    7
 10
22030.871911951017
 20
2244.2605714540227
 11
21969.240095808702
 21
2385.6392112938133
  0
LINE
  8
_8-8_文字
  6
CONTINUOUS
 62
    7
 10
22030.871911951017
 20
2137.5996563885665
 11
21950.49355996622
 21
2388.3171287742821
  0
LINE
  8
_8-8_文字
  6
CONTINUOUS
 62
    7
 10
22057.711214632604
 20
3705.1547488650763
 11
22432.711709512248
 21
3705.1547488650763
  0
LINE
  8
_8-8_文字
  6
CONTINUOUS
 62
    7
 10
22057.711214632604
 20
3705.1547488650763
 11
21928.61592060811
 21
3568.9550863729942
  0
LINE
  8
_8-8_文字
  6
CONTINUOUS
 62
    7
 10
22062.297264305322
 20
3567.5936724688559
 11
22624.797264305322
 21
3567.5936724688559
  0
LINE
  8
_8-8_文字
  6
CONTINUOUS
 62
    7
 10
22062.297264305322
 20
3567.5936724688559
 11
21946.732969541808
 21
3353.368439545503
  0
LINE
  8
_8-8_文字
  6
CONTINUOUS
 62
    7
 10
22071.467879011827
 20
3434.6179034258871
 11
22483.967384132182
 21
3434.6179034258871
  0
LINE
  8
_8-8_文字
  6
CONTINUOUS
 62
    7
 10
22071.467879011827
 20
3434.6179034258871
 11
21955.79075168919
 21
3296.3015169710725
  0
LINE
  8
_8-8_文字
  6
CONTINUOUS
 62
    7
 10
22030.871911951017
 20
2137.5996563885665
 11
22968.370922191723
 21
2137.5996563885665
  0
LINE
  8
_8-8_文字
  6
CONTINUOUS
 62
    7
 10
21059.497895111908
 20
3275.1925494219809
 11
21284.497895111908
 21
3275.1925494219809
  0
LINE
  8
_8-8_文字
  6
CONTINUOUS
 62
    7
 10
21284.497895111908
 20
3275.1925494219809
 11
21436.37794288429
 21
3447.7970432590796
  0
ARC
  8
_0-0_0
  6
CONTINUOUS
 62
    5
 10
8980.4562130489867
 20
779.64746629869614
 40
68.999997989551446
 50
62.71891784667968
 51
117.28106689453124
  0
ARC
  8
_0-0_0
  6
CONTINUOUS
 62
    5
 10
8980.4562130489867
 20
779.64746629869614
 40
80.999998144201328
 50
60.026107788085938
 51
119.97387695312499
  0
ARC
  8
_0-0_0
  6
CONTINUOUS
 62
    5
 10
8980.4562130489867
 20
779.64746629869614
 40
80.999998144201328
 50
285.02610778808594
 51
29.973876953124979
  0
ARC
  8
_0-0_0
  6
CONTINUOUS
 62
    5
 10
8980.4562130489867
 20
779.64746629869614
 40
68.999997989551446
 50
287.71891784667969
 51
27.281066894531271
  0
ARC
  8
_0-0_0
  6
CONTINUOUS
 62
    5
 10
8980.4562130489867
 20
779.64746629869614
 40
68.999997989551446
 50
152.71891784667969
 51
252.28106689453122
  0
ARC
  8
_0-0_0
  6
CONTINUOUS
 62
    5
 10
8980.4562130489867
 20
779.64746629869614
 40
80.999998144201328
 50
150.02610778808594
 51
254.973876953125
  0
CIRCLE
  8
_0-0_0
  6
CONTINUOUS
 62
    5
 10
8980.4562130489867
 20
779.64746629869614
 40
99.000004175547005
  0
CIRCLE
  8
_0-0_0
  6
CONTINUOUS
 62
    5
 10
8980.4562130489867
 20
779.64746629869614
 40
111.0000043301969
  0
ARC
  8
_0-0_0
  6
CONTINUOUS
 62
    5
 10
8980.4562130489867
 20
779.64746629869614
 40
74.999998066876387
 50
151.26019287109375
 51
253.73979187011719
  0
ARC
  8
_0-0_0
  6
CONTINUOUS
 62
    5
 10
8980.4562130489867
 20
779.64746629869614
 40
74.999998066876387
 50
286.26019287109375
 51
28.739791870117163
  0
ARC
  8
_0-0_0
  6
CONTINUOUS
 62
    5
 10
8980.4562130489867
 20
779.64746629869614
 40
74.999998066876387
 50
61.26019287109375
 51
118.73979187011717
  0
CIRCLE
  8
_0-0_0
  6
CONTINUOUS
 62
    5
 10
8980.4562130489867
 20
779.64746629869614
 40
104.99999845350111
  0
ARC
  8
_0-0_0
  6
CONTINUOUS
 62
    5
 10
23212.827115445525
 20
779.64746629869614
 40
68.999997989551446
 50
62.71891784667968
 51
117.28106689453124
  0
ARC
  8
_0-0_0
  6
CONTINUOUS
 62
    5
 10
23212.827115445525
 20
779.64746629869614
 40
80.999998144201328
 50
60.026107788085938
 51
119.97387695312499
  0
ARC
  8
_0-0_0
  6
CONTINUOUS
 62
    5
 10
23212.827115445525
 20
779.64746629869614
 40
80.999998144201328
 50
285.02610778808594
 51
29.973876953124979
  0
ARC
  8
_0-0_0
  6
CONTINUOUS
 62
    5
 10
23212.827115445525
 20
779.64746629869614
 40
68.999997989551446
 50
287.71891784667969
 51
27.281066894531271
  0
ARC
  8
_0-0_0
  6
CONTINUOUS
 62
    5
 10
23212.827115445525
 20
779.64746629869614
 40
68.999997989551446
 50
152.71891784667969
 51
252.28106689453122
  0
ARC
  8
_0-0_0
  6
CONTINUOUS
 62
    5
 10
23212.827115445525
 20
779.64746629869614
 40
80.999998144201328
 50
150.02610778808594
 51
254.973876953125
  0
CIRCLE
  8
_0-0_0
  6
CONTINUOUS
 62
    5
 10
23212.827115445525
 20
779.64746629869614
 40
99.000004175547005
  0
CIRCLE
  8
_0-0_0
  6
CONTINUOUS
 62
    5
 10
23212.827115445525
 20
779.64746629869614
 40
111.0000043301969
  0
ARC
  8
_0-0_0
  6
CONTINUOUS
 62
    5
 10
23212.827115445525
 20
779.64746629869614
 40
74.999998066876387
 50
151.26019287109375
 51
253.73979187011719
  0
ARC
  8
_0-0_0
  6
CONTINUOUS
 62
    5
 10
23212.827115445525
 20
779.64746629869614
 40
74.999998066876387
 50
286.26019287109375
 51
28.739791870117163
  0
ARC
  8
_0-0_0
  6
CONTINUOUS
 62
    5
 10
23212.827115445525
 20
779.64746629869614
 40
74.999998066876387
 50
61.26019287109375
 51
118.73979187011717
  0
CIRCLE
  8
_0-0_0
  6
CONTINUOUS
 62
    5
 10
23212.827115445525
 20
779.64746629869614
 40
104.99999845350111
  0
ARC
  8
_4-3______
  6
CONTINUOUS
 62
    7
 10
23200.59220597551
 20
6229.8500679634717
 40
37.499999033438193
 50
270
 51
90
  0
ARC
  8
_4-3______
  6
CONTINUOUS
 62
    7
 10
22863.09220597551
 20
6229.8500679634717
 40
37.499999033438193
 50
90
 51
270
  0
ARC
  8
_4-3______
  6
CONTINUOUS
 62
    7
 10
22071.083357527452
 20
6229.8500679634717
 40
37.499999033438193
 50
270
 51
90
  0
ARC
  8
_4-3______
  6
CONTINUOUS
 62
    7
 10
21733.583357527452
 20
6229.8500679634717
 40
37.499999033438193
 50
90
 51
270
  0
CIRCLE
  8
_5-7_躯体
  6
CONTINUOUS
 62
    7
 10
11074.333809517526
 20
6585.4292586043075
 40
10.507284145097474
  0
CIRCLE
  8
_5-7_躯体
  6
CONTINUOUS
 62
    7
 10
11075.540820972341
 20
6268.084716796875
 40
10.507284145097474
  0
CIRCLE
  8
_5-7_躯体
  6
CONTINUOUS
 62
    7
 10
11283.846056139148
 20
6753.4035347603467
 40
6.4971482431566399
  0
CIRCLE
  8
_5-7_躯体
  6
CONTINUOUS
 62
    7
 10
11253.265463339318
 20
6435.1734058277034
 40
6.4971482431566399
  0
CIRCLE
  8
_5-7_躯体
  6
CONTINUOUS
 62
    7
 10
11037.692920581716
 20
6935.60510583826
 40
6.4971482431566399
  0
CIRCLE
  8
_5-7_躯体
  6
CONTINUOUS
 62
    7
 10
11060.618715028506
 20
6812.5285380595442
 40
6.4971482431566399
  0
CIRCLE
  8
_5-7_躯体
  6
CONTINUOUS
 62
    7
 10
11153.972068992822
 20
6941.3862898543075
 40
10.507284145097474
  0
CIRCLE
  8
_5-7_躯体
  6
CONTINUOUS
 62
    7
 10
11440.798372835727
 20
6351.5941722972975
 40
6.4971482431566399
  0
CIRCLE
  8
_5-7_躯体
  6
CONTINUOUS
 62
    7
 10
11696.556379988388
 20
6376.8218994140625
 40
10.507284145097474
  0
CIRCLE
  8
_5-7_躯体
  6
CONTINUOUS
 62
    7
 10
11798.78490551098
 20
6197.2485104122679
 40
6.4971482431566399
  0
CIRCLE
  8
_5-7_躯体
  6
CONTINUOUS
 62
    7
 10
11833.105303790118
 20
6174.2993329022383
 40
10.507284145097474
  0
CIRCLE
  8
_5-6_文字
  6
CONTINUOUS
 62
    7
 10
11433.298719251477
 20
6571.3014344911317
 40
599.99998453501109
  0
CIRCLE
  8
_5-7_躯体
  6
CONTINUOUS
 62
    7
 10
9723.6709182326867
 20
6389.6009290540551
 40
10.507291394311029
  0
CIRCLE
  8
_5-7_躯体
  6
CONTINUOUS
 62
    7
 10
9655.6573816247892
 20
6626.3533308699325
 40
6.4971525926847722
  0
CIRCLE
  8
_5-7_躯体
  6
CONTINUOUS
 62
    7
 10
9776.320668813345
 20
6833.8947193042659
 40
6.4971525926847722
  0
CIRCLE
  8
_5-6_文字
  6
CONTINUOUS
 62
    7
 10
9962.1640592008025
 20
6571.3014344911317
 40
599.99998453501109
  0
CIRCLE
  8
_6-7_躯体
  6
CONTINUOUS
 62
    7
 10
8173.4525113492409
 20
6123.7265921927792
 40
10.591554077895912
  0
CIRCLE
  8
_6-7_躯体
  6
CONTINUOUS
 62
    7
 10
8303.9025384026609
 20
6007.4166375237546
 40
10.591554077895912
  0
CIRCLE
  8
_6-7_躯体
  6
CONTINUOUS
 62
    7
 10
8385.4389087573909
 20
6199.1406827359588
 40
17.128817294095015
  0
CIRCLE
  8
_6-7_躯体
  6
CONTINUOUS
 62
    7
 10
8799.4334452861058
 20
6224.7121037663637
 40
17.128817294095015
  0
CIRCLE
  8
_6-7_躯体
  6
CONTINUOUS
 62
    7
 10
8706.26121727196
 20
6154.309783110748
 40
10.591554077895912
  0
CIRCLE
  8
_6-7_躯体
  6
CONTINUOUS
 62
    7
 10
7977.2121944943001
 20
6236.5146121463267
 40
17.128817294095015
  0
CIRCLE
  8
_6-6_文字
  6
CONTINUOUS
 62
    7
 10
8361.5733378642308
 20
6571.3014344911317
 40
599.99998453501109
  0
CIRCLE
  8
_6-6_文字
  6
CONTINUOUS
 62
    7
 10
6811.6459202122051
 20
6571.3014344911317
 40
599.99998453501109
  0
CIRCLE
  8
_6-1______
  6
CONTINUOUS
 62
    7
 10
6811.6459202122051
 20
6571.4974068306592
 40
30.000000386624727
  0
ARC
  8
_6-3______
  6
CONTINUOUS
 62
    7
 10
6642.8959202122051
 20
6608.8019293707775
 40
37.499999033438193
 50
90
 51
180
  0
ARC
  8
_6-3______
  6
CONTINUOUS
 62
    7
 10
6642.8959202122051
 20
6533.8016819309551
 40
37.499999033438193
 50
180
 51
270
  0
ARC
  8
_6-3______
  6
CONTINUOUS
 62
    7
 10
6980.3959202122051
 20
6608.8019293707775
 40
37.499999033438193
 50
0
 51
90
  0
ARC
  8
_6-3______
  6
CONTINUOUS
 62
    7
 10
6980.3959202122051
 20
6533.8016819309551
 40
37.499999033438193
 50
270
 51
0
  0
ARC
  8
_3-3______
  6
CONTINUOUS
 62
    7
 10
9783.3192567567585
 20
3190.6397639094175
 40
50.000000644374545
 50
0
 51
180
  0
ARC
  8
_3-3______
  6
CONTINUOUS
 62
    7
 10
10183.31958667652
 20
2890.6398876293283
 40
50.000000644374545
 50
270
 51
90
  0
ARC
  8
_3-3______
  6
CONTINUOUS
 62
    7
 10
8167.7722827808284
 20
3413.6162010399075
 40
50.000000644374545
 50
180
 51
0
  0
ARC
  8
_3-3______
  6
CONTINUOUS
 62
    7
 10
8167.7722827808284
 20
3863.6162010399071
 40
50.000000644374545
 50
0
 51
180
  0
ARC
  8
_3-3______
  6
CONTINUOUS
 62
    7
 10
7492.7722827808284
 20
4088.6162010399071
 40
50.000000644374545
 50
90
 51
270
  0
ARC
  8
_3-3______
  6
CONTINUOUS
 62
    7
 10
7942.7722827808284
 20
4088.6162010399071
 40
50.000000644374545
 50
270
 51
90
  0
CIRCLE
  8
_1-6_文字
  6
CONTINUOUS
 62
    7
 10
2996.1941899480048
 20
6198.8998000686233
 40
135.17772055960992
  0
CIRCLE
  8
_1-6_文字
  6
CONTINUOUS
 62
    7
 10
3005.9944771431592
 20
5346.0330035235429
 40
155.96154058301772
  0
CIRCLE
  8
_1-1______
  6
CONTINUOUS
 62
    7
 10
2537.4192315178948
 20
6193.9080728066938
 40
13.689390227601335
  0
CIRCLE
  8
_1-1______
  6
CONTINUOUS
 62
    7
 10
2991.9193577122046
 20
6193.9080728066938
 40
13.689390227601335
  0
CIRCLE
  8
_1-1______
  6
CONTINUOUS
 62
    7
 10
3446.4192983266471
 20
6193.9080728066938
 40
13.689390227601335
  0
ARC
  8
_1-1______
  6
CONTINUOUS
 62
    7
 10
5256.1681798986492
 20
6193.9080728066938
 40
13.689390227601335
 50
270
 51
90
  0
CIRCLE
  8
_1-1______
  6
CONTINUOUS
 62
    7
 10
2083.2949045542127
 20
6193.9080728066938
 40
13.689390227601335
  0
CIRCLE
  8
_1-1______
  6
CONTINUOUS
 62
    7
 10
1628.7947783599031
 20
6193.9080728066938
 40
13.689390227601335
  0
ARC
  8
_1-1______
  6
CONTINUOUS
 62
    7
 10
3900.91923894109
 20
6193.9080728066938
 40
13.689390227601335
 50
90.00006103515625
 51
269.99992370605469
  0
CIRCLE
  8
_1-1______
  6
CONTINUOUS
 62
    7
 10
2537.4192315178948
 20
7093.90770164696
 40
13.689390227601335
  0
CIRCLE
  8
_1-1______
  6
CONTINUOUS
 62
    7
 10
2991.9193577122046
 20
7093.90770164696
 40
13.689390227601335
  0
CIRCLE
  8
_1-1______
  6
CONTINUOUS
 62
    7
 10
3446.4192983266471
 20
7093.90770164696
 40
13.689390227601335
  0
CIRCLE
  8
_1-1______
  6
CONTINUOUS
 62
    7
 10
3900.91923894109
 20
7093.90770164696
 40
13.689390227601335
  0
ARC
  8
_1-1______
  6
CONTINUOUS
 62
    7
 10
5256.1681798986492
 20
7093.90770164696
 40
13.689390227601335
 50
270
 51
90
  0
CIRCLE
  8
_1-1______
  6
CONTINUOUS
 62
    7
 10
2083.2949045542127
 20
7093.90770164696
 40
13.689390227601335
  0
CIRCLE
  8
_1-1______
  6
CONTINUOUS
 62
    7
 10
1628.7947783599031
 20
7093.90770164696
 40
13.689390227601335
  0
CIRCLE
  8
_2-7_躯体
  6
CONTINUOUS
 62
    7
 10
2866.2214743124473
 20
2002.5359282622469
 40
2.6853636914008372
  0
CIRCLE
  8
_2-7_躯体
  6
CONTINUOUS
 62
    7
 10
2682.6081971864446
 20
1875.828675966005
 40
18.656391871942056
  0
CIRCLE
  8
_2-7_躯体
  6
CONTINUOUS
 62
    7
 10
2782.8762569942992
 20
1924.8338235391152
 40
2.6853636914008372
  0
CIRCLE
  8
_2-7_躯体
  6
CONTINUOUS
 62
    7
 10
2794.9602900324639
 20
1967.7998310810813
 40
6.8463936045363143
  0
CIRCLE
  8
_2-7_躯体
  6
CONTINUOUS
 62
    7
 10
2820.2078741949963
 20
1935.6861630001586
 40
2.6853636914008372
  0
CIRCLE
  8
_2-7_躯体
  6
CONTINUOUS
 62
    7
 10
2778.5353583258557
 20
1907.2532860008446
 40
2.6853636914008372
  0
CIRCLE
  8
_2-7_躯体
  6
CONTINUOUS
 62
    7
 10
2821.814067943676
 20
2012.1085089606206
 40
6.8463936045363143
  0
CIRCLE
  8
_2-7_躯体
  6
CONTINUOUS
 62
    7
 10
2802.8442795212209
 20
2029.2325200261298
 40
2.6853636914008372
  0
CIRCLE
  8
_2-7_躯体
  6
CONTINUOUS
 62
    7
 10
2847.1214088233742
 20
2029.0153915817675
 40
2.6853636914008372
  0
CIRCLE
  8
_2-7_躯体
  6
CONTINUOUS
 62
    7
 10
2912.2348888500314
 20
1951.9644866118563
 40
2.6853636914008372
  0
CIRCLE
  8
_2-7_躯体
  6
CONTINUOUS
 62
    7
 10
2899.6462641535577
 20
1927.0043656632706
 40
2.6853636914008372
  0
CIRCLE
  8
_2-7_躯体
  6
CONTINUOUS
 62
    7
 10
2909.1963896880279
 20
2030.7518623970652
 40
2.6853636914008372
  0
CIRCLE
  8
_2-6_文字
  6
CONTINUOUS
 62
    7
 10
4277.9343888566309
 20
2946.9268180228569
 40
205.76146873267922
  0
CIRCLE
  8
_2-6_文字
  6
CONTINUOUS
 62
    7
 10
4295.5269890862546
 20
2053.2157485549515
 40
205.76146873267922
  0
CIRCLE
  8
_2-7_躯体
  6
CONTINUOUS
 62
    7
 10
4575.2407589474242
 20
1990.598132159259
 40
15.319632517324912
  0
CIRCLE
  8
_2-7_躯体
  6
CONTINUOUS
 62
    7
 10
4433.853396853885
 20
1820.3161703573692
 40
9.4728503678296061
  0
CIRCLE
  8
_2-7_躯体
  6
CONTINUOUS
 62
    7
 10
4579.8732035868879
 20
1804.482681686814
 40
9.4728503678296061
  0
CIRCLE
  8
_2-7_躯体
  6
CONTINUOUS
 62
    7
 10
4710.7047828468121
 20
1856.8934053988071
 40
15.319632517324912
  0
CIRCLE
  8
_2-7_躯体
  6
CONTINUOUS
 62
    7
 10
4159.4067547772383
 20
3739.6837389146963
 40
9.4728503678296061
  0
CIRCLE
  8
_2-7_躯体
  6
CONTINUOUS
 62
    7
 10
4019.42423227671
 20
3655.2055565086575
 40
9.4728503678296061
  0
CIRCLE
  8
_2-7_躯体
  6
CONTINUOUS
 62
    7
 10
4149.4964187209671
 20
3273.1088586755704
 40
15.319632517324912
  0
CIRCLE
  8
_2-7_躯体
  6
CONTINUOUS
 62
    7
 10
4057.3690053578966
 20
4042.2787640545821
 40
9.4728503678296061
  0
CIRCLE
  8
_2-7_躯体
  6
CONTINUOUS
 62
    7
 10
4165.3297218116559
 20
3969.7812467008025
 40
15.319632517324912
  0
CIRCLE
  8
_2-7_躯体
  6
CONTINUOUS
 62
    7
 10
4063.2919723923142
 20
2236.8965767525342
 40
15.319632517324912
  0
CIRCLE
  8
_2-7_躯体
  6
CONTINUOUS
 62
    7
 10
4165.7840213260142
 20
1761.7722176216741
 40
9.4728503678296061
  0
CIRCLE
  8
_2-7_躯体
  6
CONTINUOUS
 62
    7
 10
4273.4864106049417
 20
1957.36226262273
 40
9.4728503678296061
  0
CIRCLE
  8
_2-7_躯体
  6
CONTINUOUS
 62
    7
 10
4058.0140809755071
 20
2724.2153889424094
 40
15.319632517324912
  0
CIRCLE
  8
_2-7_躯体
  6
CONTINUOUS
 62
    7
 10
4205.7931848474454
 20
2389.9533864614127
 40
15.319632517324912
  0
ARC
  8
_7-4_
  6
CONTINUOUS
 62
    7
 10
17682.150680954393
 20
3053.1135765281888
 40
9.000000115987417
 50
90
 51
270
  0
ARC
  8
_7-4_
  6
CONTINUOUS
 62
    7
 10
17943.150205869933
 20
3053.1135765281888
 40
9.000000115987417
 50
270
 51
90
  0
CIRCLE
  8
_7-1_スタッド
  6
CONTINUOUS
 62
    7
 10
17812.650443412163
 20
2122.9566625646644
 40
24.000000309299779
  0
ARC
  8
_7-3_ボンド
  6
CONTINUOUS
 62
    7
 10
17677.650740339952
 20
2093.1135641561973
 40
30.000000386624727
 50
180
 51
270
  0
ARC
  8
_7-3_ボンド
  6
CONTINUOUS
 62
    7
 10
17677.650740339952
 20
2153.1135765281883
 40
30.000000386624727
 50
90
 51
180
  0
ARC
  8
_7-3_ボンド
  6
CONTINUOUS
 62
    7
 10
17947.650146484375
 20
2093.1135641561973
 40
30.000000386624727
 50
270
 51
0
  0
ARC
  8
_7-3_ボンド
  6
CONTINUOUS
 62
    7
 10
17947.650146484375
 20
2153.1135765281883
 40
30.000000386624727
 50
0
 51
90
  0
CIRCLE
  8
_7-1_スタッド
  6
CONTINUOUS
 62
    7
 10
17812.650443412163
 20
3983.2706760715796
 40
24.000000309299779
  0
ARC
  8
_7-3_ボンド
  6
CONTINUOUS
 62
    7
 10
17677.650740339952
 20
4013.1137744800471
 40
30.000000386624727
 50
90
 51
180
  0
ARC
  8
_7-3_ボンド
  6
CONTINUOUS
 62
    7
 10
17677.650740339952
 20
3953.1135765281883
 40
30.000000386624727
 50
180
 51
270
  0
ARC
  8
_7-3_ボンド
  6
CONTINUOUS
 62
    7
 10
17947.650146484375
 20
4013.1137744800471
 40
30.000000386624727
 50
0
 51
90
  0
ARC
  8
_7-3_ボンド
  6
CONTINUOUS
 62
    7
 10
17947.650146484375
 20
3953.1135765281883
 40
30.000000386624727
 50
270
 51
0
  0
ARC
  8
_8-7_ビス
  6
CONTINUOUS
 62
    7
 10
23722.920845650337
 20
2452.9926403148752
 40
14.166894474545041
 50
212.10826110839844
 51
327.8917236328125
  0
ARC
  8
_8-7_ビス
  6
CONTINUOUS
 62
    7
 10
21922.920845650337
 20
4252.992825894743
 40
14.166894474545041
 50
212.10826110839844
 51
327.8917236328125
  0
ARC
  8
_8-7_ビス
  6
CONTINUOUS
 62
    5
 10
21952.920944626268
 20
2401.2127025707346
 40
25.499998878788304
 50
334.9423828125
 51
356.62770080566406
  0
ARC
  8
_8-7_ビス
  6
CONTINUOUS
 62
    5
 10
21952.920944626268
 20
2401.2127025707346
 40
25.499998878788304
 50
3.3722839355468657
 51
25.05760192871093
  0
ARC
  8
_8-7_ビス
  6
CONTINUOUS
 62
    5
 10
21971.820398279142
 20
2410.7622713656037
 40
2.4000000309299776
 50
99.594055175781264
 51
179.99998474121097
  0
ARC
  8
_8-7_ビス
  6
CONTINUOUS
 62
    5
 10
21972.420192409205
 20
2407.2126852499473
 40
6.0000000773249447
 50
53.130096435546918
 51
99.594055175781278
  0
ARC
  8
_8-7_ビス
  6
CONTINUOUS
 62
    5
 10
21971.820398279142
 20
2391.662948195999
 40
2.4000000309299776
 50
180
 51
260.40592956542969
  0
ARC
  8
_8-7_ビス
  6
CONTINUOUS
 62
    5
 10
21972.420192409205
 20
2395.2127198915227
 40
6.0000000773249447
 50
260.40591430664062
 51
306.86988830566406
  0
ARC
  8
_8-7_ビス
  6
CONTINUOUS
 62
    5
 10
21945.432425834038
 20
2394.9779613597971
 40
4.3518109096063151
 50
14.094711303710929
 51
58.180480957031243
  0
ARC
  8
_8-7_ビス
  6
CONTINUOUS
 62
    5
 10
21931.456034892315
 20
2372.4524626860748
 40
30.861375138566302
 50
58.180480957031257
 51
75.849807739257813
  0
ARC
  8
_8-7_ビス
  6
CONTINUOUS
 62
    5
 10
21937.676672033362
 20
2404.2317158467063
 40
2.2782717806261941
 50
305.51495361328125
 51
71.13446044921875
  0
ARC
  8
_8-7_ビス
  6
CONTINUOUS
 62
    5
 10
21922.16961834882
 20
2375.2626986116975
 40
25.499998878788304
 50
64.9423828125
 51
86.627700805664063
  0
ARC
  8
_8-7_ビス
  6
CONTINUOUS
 62
    5
 10
21922.16961834882
 20
2375.2626986116975
 40
25.499998878788304
 50
93.372283935546875
 51
115.05760192871094
  0
ARC
  8
_8-7_ビス
  6
CONTINUOUS
 62
    5
 10
21912.620420713683
 20
2394.1627090041702
 40
2.4000000309299776
 50
189.59405517578125
 51
269.99998474121094
  0
ARC
  8
_8-7_ビス
  6
CONTINUOUS
 62
    5
 10
21916.170192409205
 20
2394.7626887141046
 40
6.0000000773249447
 50
143.1300964355469
 51
189.59405517578128
  0
ARC
  8
_8-7_ビス
  6
CONTINUOUS
 62
    5
 10
21931.720300622892
 20
2394.1627090041702
 40
2.4000000309299776
 50
270
 51
350.40592956542969
  0
ARC
  8
_8-7_ビス
  6
CONTINUOUS
 62
    5
 10
21928.170528927367
 20
2394.7626887141046
 40
6.0000000773249447
 50
350.40591430664062
 51
36.86988830566407
  0
ARC
  8
_8-7_ビス
  6
CONTINUOUS
 62
    5
 10
21928.405101879223
 20
2367.77529329867
 40
4.3518109096063151
 50
104.09471130371094
 51
148.18048095703125
  0
ARC
  8
_8-7_ビス
  6
CONTINUOUS
 62
    5
 10
21950.930043813347
 20
2353.7981600374787
 40
30.861375138566302
 50
148.18048095703125
 51
165.84980773925781
  0
ARC
  8
_8-7_ビス
  6
CONTINUOUS
 62
    5
 10
21919.151347392315
 20
2360.01916833826
 40
2.2782717806261941
 50
35.514953613281243
 51
161.13446044921872
  0
ARC
  8
_8-7_ビス
  6
CONTINUOUS
 62
    5
 10
23715.120552681587
 20
2401.2127025707346
 40
25.499998878788304
 50
154.9423828125
 51
176.62770080566406
  0
ARC
  8
_8-7_ビス
  6
CONTINUOUS
 62
    5
 10
23715.120552681587
 20
2401.2127025707346
 40
25.499998878788304
 50
183.37228393554687
 51
205.05760192871094
  0
ARC
  8
_8-7_ビス
  6
CONTINUOUS
 62
    5
 10
23696.219614389782
 20
2391.662948195999
 40
2.4000000309299776
 50
279.59405517578125
 51
359.99998474121094
  0
ARC
  8
_8-7_ビス
  6
CONTINUOUS
 62
    5
 10
23695.619820259712
 20
2395.2127198915227
 40
6.0000000773249447
 50
233.13009643554693
 51
279.59405517578131
  0
ARC
  8
_8-7_ビス
  6
CONTINUOUS
 62
    5
 10
23696.219614389782
 20
2410.7622713656037
 40
2.4000000309299776
 50
0
 51
80.405929565429687
  0
ARC
  8
_8-7_ビス
  6
CONTINUOUS
 62
    5
 10
23695.619820259712
 20
2407.2126852499473
 40
6.0000000773249447
 50
80.405914306640639
 51
126.86988830566406
  0
ARC
  8
_8-7_ビス
  6
CONTINUOUS
 62
    5
 10
23722.607586834885
 20
2407.4474437816721
 40
4.3518109096063151
 50
194.09471130371094
 51
238.18048095703125
  0
ARC
  8
_8-7_ビス
  6
CONTINUOUS
 62
    5
 10
23736.58546241554
 20
2429.9729424553948
 40
30.861375138566302
 50
238.18048095703125
 51
255.84980773925781
  0
ARC
  8
_8-7_ビス
  6
CONTINUOUS
 62
    5
 10
23730.363340635558
 20
2398.1935037148965
 40
2.2782717806261941
 50
125.51495361328124
 51
251.13446044921872
  0
ARC
  8
_8-a_天井材
  6
CONTINUOUS
 62
    3
 10
21871.920528927367
 20
3492.4627768026817
 40
3.0000000386624723
 50
0
 51
90
  0
ARC
  8
_8-a_天井材
  6
CONTINUOUS
 62
    3
 10
21868.920073638095
 20
3492.4627768026817
 40
3.0000000386624723
 50
90
 51
180
  0
ARC
  8
_8-a_天井材
  6
CONTINUOUS
 62
    3
 10
21868.920073638095
 20
3492.4627768026817
 40
4.5000000579937085
 50
90
 51
180
  0
ARC
  8
_8-a_天井材
  6
CONTINUOUS
 62
    3
 10
21871.920528927367
 20
3492.4627768026817
 40
4.5000000579937085
 50
0
 51
90
  0
ARC
  8
_8-a_天井材
  6
CONTINUOUS
 62
    3
 10
21867.420588312922
 20
3474.7625402502113
 40
6.0000000773249447
 50
270
 51
0
  0
ARC
  8
_8-a_天井材
  6
CONTINUOUS
 62
    3
 10
21730.919915276605
 20
3492.4627768026817
 40
3.0000000386624723
 50
90
 51
180
  0
ARC
  8
_8-a_天井材
  6
CONTINUOUS
 62
    3
 10
21733.920370565877
 20
3492.4627768026817
 40
3.0000000386624723
 50
0
 51
90
  0
ARC
  8
_8-a_天井材
  6
CONTINUOUS
 62
    3
 10
21733.920370565877
 20
3492.4627768026817
 40
4.5000000579937085
 50
0
 51
90
  0
ARC
  8
_8-a_天井材
  6
CONTINUOUS
 62
    3
 10
21730.919915276605
 20
3492.4627768026817
 40
4.5000000579937085
 50
90
 51
180
  0
ARC
  8
_8-a_天井材
  6
CONTINUOUS
 62
    3
 10
21735.419855891047
 20
3474.7625402502113
 40
6.0000000773249447
 50
180
 51
270
  0
ARC
  8
_8-a_天井材
  6
CONTINUOUS
 62
    3
 10
21849.420825855152
 20
3589.9627273147171
 40
6.0000000773249447
 50
0
 51
90
  0
ARC
  8
_8-a_天井材
  6
CONTINUOUS
 62
    3
 10
21753.41961834882
 20
3547.9626629803633
 40
6.0000000773249447
 50
180
 51
270
  0
ARC
  8
_8-a_天井材
  6
CONTINUOUS
 62
    3
 10
21753.41961834882
 20
3589.9627273147171
 40
6.0000000773249447
 50
90
 51
180
  0
ARC
  8
_8-a_天井材
  6
CONTINUOUS
 62
    3
 10
21735.419855891047
 20
3541.9624947212842
 40
6.0000000773249447
 50
180
 51
258.2626953125
  0
ARC
  8
_8-a_天井材
  6
CONTINUOUS
 62
    3
 10
21732.253121040962
 20
3493.0625709327492
 40
2.4000000309299776
 50
11.309921264648438
 51
90
  0
ARC
  8
_8-a_天井材
  6
CONTINUOUS
 62
    3
 10
21739.919796505492
 20
3489.4400519293713
 40
4.5000569643201054
 50
202.79606628417969
 51
0.2864685058593706
  0
ARC
  8
_8-a_天井材
  6
CONTINUOUS
 62
    3
 10
21754.920588312922
 20
3532.9626134923988
 40
9.000000115987417
 50
0
 51
90
  0
ARC
  8
_8-a_天井材
  6
CONTINUOUS
 62
    3
 10
21870.58732316301
 20
3493.0625709327492
 40
2.4000000309299776
 50
90
 51
168.69006347656253
  0
ARC
  8
_8-a_天井材
  6
CONTINUOUS
 62
    3
 10
21862.92064769848
 20
3489.4400519293713
 40
4.5000569643201054
 50
179.71351623535156
 51
337.20391845703119
  0
ARC
  8
_8-a_天井材
  6
CONTINUOUS
 62
    3
 10
21787.91965793919
 20
3532.9626134923988
 40
9.000000115987417
 50
90
 51
180
  0
ARC
  8
_8-a_天井材
  6
CONTINUOUS
 62
    3
 10
21814.920786264782
 20
3532.9626134923988
 40
9.000000115987417
 50
0
 51
90
  0
ARC
  8
_8-a_天井材
  6
CONTINUOUS
 62
    3
 10
21771.420865445525
 20
3484.6628549936659
 40
7.5000000966561817
 50
180
 51
0
  0
ARC
  8
_8-a_天井材
  6
CONTINUOUS
 62
    3
 10
21729.420429951439
 20
3521.8682778848188
 40
15.000000193312363
 50
0
 51
71.732574462890625
  0
ARC
  8
_8-a_天井材
  6
CONTINUOUS
 62
    3
 10
21849.420825855152
 20
3547.9626629803633
 40
6.0000000773249447
 50
270
 51
0
  0
ARC
  8
_8-a_天井材
  6
CONTINUOUS
 62
    3
 10
21847.919855891047
 20
3532.9626134923988
 40
9.000000115987417
 50
90
 51
180
  0
ARC
  8
_8-a_天井材
  6
CONTINUOUS
 62
    3
 10
21831.419578758447
 20
3484.6628549936659
 40
7.5000000966561817
 50
180
 51
0
  0
ARC
  8
_8-a_天井材
  6
CONTINUOUS
 62
    3
 10
21867.420588312922
 20
3448.962855983425
 40
9.000000115987417
 50
270
 51
0
  0
ARC
  8
_8-a_天井材
  6
CONTINUOUS
 62
    3
 10
21867.420588312922
 20
3448.962855983425
 40
7.5000000966561817
 50
270
 51
0
  0
ARC
  8
_8-a_天井材
  6
CONTINUOUS
 62
    3
 10
21855.228733372045
 20
3439.5186965529983
 40
1.8000000231974835
 50
63.477630615234375
 51
108.46514892578125
  0
ARC
  8
_8-a_天井材
  6
CONTINUOUS
 62
    3
 10
21855.228733372045
 20
3441.0185530379013
 40
1.8000000231974835
 50
63.477630615234375
 51
108.43495178222656
  0
ARC
  8
_8-a_天井材
  6
CONTINUOUS
 62
    3
 10
21850.866864178635
 20
3441.8588586755704
 40
1.8000000231974835
 50
251.53483581542969
 51
288.37451171875
  0
ARC
  8
_8-a_天井材
  6
CONTINUOUS
 62
    3
 10
21837.365557696368
 20
3441.0668038033155
 40
1.8000000231974835
 50
71.534835815429673
 51
108.46514892578125
  0
ARC
  8
_8-a_天井材
  6
CONTINUOUS
 62
    3
 10
21837.365557696368
 20
3439.5665761586783
 40
1.8000000231974835
 50
71.534835815429673
 51
108.46514892578125
  0
ARC
  8
_8-a_天井材
  6
CONTINUOUS
 62
    3
 10
21832.865617081927
 20
3443.3587151604729
 40
1.8000000231974835
 50
251.53483581542969
 51
288.46514892578125
  0
ARC
  8
_8-a_天井材
  6
CONTINUOUS
 62
    3
 10
21832.865617081927
 20
3441.8588586755704
 40
1.8000000231974835
 50
251.53483581542969
 51
288.46514892578125
  0
ARC
  8
_8-a_天井材
  6
CONTINUOUS
 62
    3
 10
21828.365676467485
 20
3441.0668038033155
 40
1.8000000231974835
 50
71.534835815429673
 51
108.46514892578125
  0
ARC
  8
_8-a_天井材
  6
CONTINUOUS
 62
    3
 10
21828.365676467485
 20
3439.5665761586783
 40
1.8000000231974835
 50
71.534835815429673
 51
108.46514892578125
  0
ARC
  8
_8-a_天井材
  6
CONTINUOUS
 62
    3
 10
21823.86573585304
 20
3441.8588586755704
 40
1.8000000231974835
 50
251.53483581542969
 51
288.46514892578125
  0
ARC
  8
_8-a_天井材
  6
CONTINUOUS
 62
    3
 10
21823.86573585304
 20
3443.3587151604729
 40
1.8000000231974835
 50
251.53483581542969
 51
288.46514892578125
  0
ARC
  8
_8-a_天井材
  6
CONTINUOUS
 62
    3
 10
21819.503866659627
 20
3441.0185530379013
 40
1.8000000231974835
 50
71.534835815429673
 51
116.52233886718751
  0
ARC
  8
_8-a_天井材
  6
CONTINUOUS
 62
    3
 10
21819.503866659627
 20
3439.5186965529983
 40
1.8000000231974835
 50
71.534835815429673
 51
116.52233886718751
  0
ARC
  8
_8-a_天井材
  6
CONTINUOUS
 62
    3
 10
21850.866864178635
 20
3443.361684438345
 40
1.8000000231974835
 50
251.56503295898437
 51
288.4349365234375
  0
ARC
  8
_8-a_天井材
  6
CONTINUOUS
 62
    3
 10
21846.36692356419
 20
3441.0668038033155
 40
1.8000000231974835
 50
71.534835815429673
 51
108.46514892578125
  0
ARC
  8
_8-a_天井材
  6
CONTINUOUS
 62
    3
 10
21846.36692356419
 20
3439.5665761586783
 40
1.8000000231974835
 50
71.534835815429673
 51
108.46514892578125
  0
ARC
  8
_8-a_天井材
  6
CONTINUOUS
 62
    3
 10
21841.866982949748
 20
3441.8588586755704
 40
1.8000000231974835
 50
251.53483581542969
 51
288.46514892578125
  0
ARC
  8
_8-a_天井材
  6
CONTINUOUS
 62
    3
 10
21841.866982949748
 20
3443.3587151604729
 40
1.8000000231974835
 50
251.53483581542969
 51
288.46514892578125
  0
ARC
  8
_8-a_天井材
  6
CONTINUOUS
 62
    3
 10
21747.611710831927
 20
3439.5186965529983
 40
1.8000000231974835
 50
71.534835815429673
 51
116.52233886718751
  0
ARC
  8
_8-a_天井材
  6
CONTINUOUS
 62
    3
 10
21747.611710831927
 20
3441.0185530379013
 40
1.8000000231974835
 50
71.565032958984375
 51
116.52233886718751
  0
ARC
  8
_8-a_天井材
  6
CONTINUOUS
 62
    3
 10
21751.973580025337
 20
3441.8588586755704
 40
1.8000000231974835
 50
251.62547302246094
 51
288.46514892578125
  0
ARC
  8
_8-a_天井材
  6
CONTINUOUS
 62
    3
 10
21765.474886507604
 20
3441.0668038033155
 40
1.8000000231974835
 50
71.534835815429673
 51
108.46514892578125
  0
ARC
  8
_8-a_天井材
  6
CONTINUOUS
 62
    3
 10
21765.474886507604
 20
3439.5665761586783
 40
1.8000000231974835
 50
71.534835815429673
 51
108.46514892578125
  0
ARC
  8
_8-a_天井材
  6
CONTINUOUS
 62
    3
 10
21769.974827122045
 20
3443.3587151604729
 40
1.8000000231974835
 50
251.53483581542969
 51
288.46514892578125
  0
ARC
  8
_8-a_天井材
  6
CONTINUOUS
 62
    3
 10
21769.974827122045
 20
3441.8588586755704
 40
1.8000000231974835
 50
251.53483581542969
 51
288.46514892578125
  0
ARC
  8
_8-a_天井材
  6
CONTINUOUS
 62
    3
 10
21774.474767736487
 20
3441.0668038033155
 40
1.8000000231974835
 50
71.534835815429673
 51
108.46514892578125
  0
ARC
  8
_8-a_天井材
  6
CONTINUOUS
 62
    3
 10
21774.474767736487
 20
3439.5665761586783
 40
1.8000000231974835
 50
71.534835815429673
 51
108.46514892578125
  0
ARC
  8
_8-a_天井材
  6
CONTINUOUS
 62
    3
 10
21778.974708350932
 20
3441.8588586755704
 40
1.8000000231974835
 50
251.53483581542969
 51
288.46514892578125
  0
ARC
  8
_8-a_天井材
  6
CONTINUOUS
 62
    3
 10
21815.940733213683
 20
3443.2625847893792
 40
1.8000000231974835
 50
270
 51
296.52235412597656
  0
ARC
  8
_8-a_天井材
  6
CONTINUOUS
 62
    3
 10
21815.940733213683
 20
3441.7627283044767
 40
1.8000000231974835
 50
270
 51
296.52235412597656
  0
ARC
  8
_8-a_天井材
  6
CONTINUOUS
 62
    3
 10
21858.791866817992
 20
3443.2625847893792
 40
1.8000000231974835
 50
243.47764587402344
 51
270
  0
ARC
  8
_8-a_天井材
  6
CONTINUOUS
 62
    3
 10
21858.791866817992
 20
3441.7627283044767
 40
1.8000000231974835
 50
243.47764587402344
 51
270
  0
ARC
  8
_8-a_天井材
  6
CONTINUOUS
 62
    3
 10
21735.419855891047
 20
3448.962855983425
 40
9.000000115987417
 50
180
 51
270
  0
ARC
  8
_8-a_天井材
  6
CONTINUOUS
 62
    3
 10
21735.419855891047
 20
3448.962855983425
 40
7.5000000966561817
 50
180
 51
270
  0
ARC
  8
_8-a_天井材
  6
CONTINUOUS
 62
    3
 10
21778.974708350932
 20
3443.3587151604729
 40
1.8000000231974835
 50
251.53483581542969
 51
288.46514892578125
  0
ARC
  8
_8-a_天井材
  6
CONTINUOUS
 62
    3
 10
21783.336577544345
 20
3441.0185530379013
 40
1.8000000231974835
 50
63.477630615234375
 51
108.46514892578125
  0
ARC
  8
_8-a_天井材
  6
CONTINUOUS
 62
    3
 10
21783.336577544345
 20
3439.5186965529983
 40
1.8000000231974835
 50
63.477630615234375
 51
108.46514892578125
  0
ARC
  8
_8-a_天井材
  6
CONTINUOUS
 62
    3
 10
21751.973580025337
 20
3443.361684438345
 40
1.8000000231974835
 50
251.56503295898437
 51
288.4349365234375
  0
ARC
  8
_8-a_天井材
  6
CONTINUOUS
 62
    3
 10
21756.47500527872
 20
3441.0668038033155
 40
1.8000000231974835
 50
71.534835815429673
 51
108.46514892578125
  0
ARC
  8
_8-a_天井材
  6
CONTINUOUS
 62
    3
 10
21756.47500527872
 20
3439.5665761586783
 40
1.8000000231974835
 50
71.534835815429673
 51
108.46514892578125
  0
ARC
  8
_8-a_天井材
  6
CONTINUOUS
 62
    3
 10
21760.974945893158
 20
3441.8588586755704
 40
1.8000000231974835
 50
251.53483581542969
 51
288.46514892578125
  0
ARC
  8
_8-a_天井材
  6
CONTINUOUS
 62
    3
 10
21760.974945893158
 20
3443.3587151604729
 40
1.8000000231974835
 50
251.53483581542969
 51
288.46514892578125
  0
ARC
  8
_8-a_天井材
  6
CONTINUOUS
 62
    3
 10
21786.899710990288
 20
3443.2625847893792
 40
1.8000000231974835
 50
243.47764587402344
 51
270
  0
ARC
  8
_8-a_天井材
  6
CONTINUOUS
 62
    3
 10
21786.899710990288
 20
3441.7627283044767
 40
1.8000000231974835
 50
243.47764587402344
 51
270
  0
ARC
  8
_8-a_天井材
  6
CONTINUOUS
 62
    3
 10
21744.04857738598
 20
3443.2625847893792
 40
1.8000000231974835
 50
270
 51
296.52235412597656
  0
ARC
  8
_8-a_天井材
  6
CONTINUOUS
 62
    3
 10
21744.04857738598
 20
3441.7627283044767
 40
1.8000000231974835
 50
270
 51
296.52235412597656
  0
ARC
  8
_8-a_天井材
  6
CONTINUOUS
 62
    3
 10
21801.420964421453
 20
3440.9495173273863
 40
1.8000000231974835
 50
63.477630615234375
 51
116.52233886718751
  0
ARC
  8
_8-a_天井材
  6
CONTINUOUS
 62
    3
 10
21801.420964421453
 20
3439.4496608424834
 40
1.8000000231974835
 50
63.477630615234375
 51
116.52233886718751
  0
ARC
  8
_8-a_天井材
  6
CONTINUOUS
 62
    3
 10
21804.846026446368
 20
3443.2625847893792
 40
1.8000000231974835
 50
243.47764587402344
 51
270
  0
ARC
  8
_8-a_天井材
  6
CONTINUOUS
 62
    3
 10
21804.846026446368
 20
3441.7627283044767
 40
1.8000000231974835
 50
243.47764587402344
 51
270
  0
ARC
  8
_8-a_天井材
  6
CONTINUOUS
 62
    3
 10
21797.994417757604
 20
3441.7627283044767
 40
1.8000000231974835
 50
270
 51
296.52235412597656
  0
ARC
  8
_8-a_天井材
  6
CONTINUOUS
 62
    3
 10
21797.994417757604
 20
3443.2625847893792
 40
1.8000000231974835
 50
270
 51
296.52235412597656
  0
ARC
  8
_8-a_天井材
  6
CONTINUOUS
 62
    3
 10
21867.420588312922
 20
3541.9624947212842
 40
6.0000000773249447
 50
281.73728942871094
 51
0.0000000000000254
  0
ARC
  8
_8-a_天井材
  6
CONTINUOUS
 62
    3
 10
21873.420014252533
 20
3521.8682778848188
 40
15.000000193312363
 50
108.2674102783203
 51
180
  0
ARC
  8
_8-a_天井材
  6
CONTINUOUS
 62
    7
 10
21427.122703758447
 20
3797.7127075195312
 40
42.750001275861592
 50
250.52877807617187
 51
289.47120666503906
  0
ARC
  8
_8-a_天井材
  6
CONTINUOUS
 62
    7
 10
21448.246146537163
 20
3765.8486443596917
 40
10.886030905955547
 50
230.84204101562503
 51
270
  0
ARC
  8
_8-a_天井材
  6
CONTINUOUS
 62
    7
 10
21405.997776340795
 20
3765.8486443596917
 40
10.886030905955547
 50
270
 51
309.15794372558594
  0
ARC
  8
_8-a_天井材
  6
CONTINUOUS
 62
    7
 10
21427.122703758447
 20
3766.2127520586996
 40
42.750001275861592
 50
70.528778076171875
 51
109.47120666503906
  0
ARC
  8
_8-a_天井材
  6
CONTINUOUS
 62
    7
 10
21448.246146537163
 20
3798.0768152185392
 40
10.886030905955547
 50
90
 51
129.15794372558594
  0
ARC
  8
_8-a_天井材
  6
CONTINUOUS
 62
    7
 10
21405.997776340795
 20
3798.0768152185392
 40
10.886030905955547
 50
50.842041015625
 51
90
  0
TEXT
  8
_0-0_0
 62
    7
 10
6137.3618254790435
 20
370.20443838995902
 40
60
 41
1
 50
0
  1
備　　　考
  0
TEXT
  8
_0-0_0
 62
    7
 10
5543.9557998244827
 20
370.20443838995902
 40
60
 41
1
 50
0
  1
重量
  0
TEXT
  8
_0-0_0
 62
    7
 10
4714.3798828125
 20
362.70446004094339
 40
75
 41
1
 50
0
  1
材　　　料
  0
TEXT
  8
_0-0_0
 62
    7
 10
3797.6358155946477
 20
370.20443838995902
 40
60
 41
1
 50
0
  1
部　品　名
  0
TEXT
  8
_0-0_0
 62
    7
 10
3416.580109467378
 20
370.20443838995902
 40
60
 41
1
 50
0
  1
部番
  0
TEXT
  8
_0-0_0
 62
    7
 10
3115.4928341427367
 20
370.20443838995902
 40
60
 41
1
 50
0
  1
訂正者
  0
TEXT
  8
_0-0_0
 62
    7
 10
2008.4928069243563
 20
370.20443838995902
 40
60
 41
1
 50
0
  1
訂　正　記　事
  0
TEXT
  8
_0-0_0
 62
    7
 10
964.49288548649997
 20
370.20443838995902
 40
60
 41
1
 50
0
  1
年　月　日
  0
TEXT
  8
_0-0_0
 62
    7
 10
595.49284806122614
 20
370.20443838995902
 40
60
 41
1
 50
0
  1
符　号
  0
TEXT
  8
_0-0_0
 62
    7
 10
9157.2282120988184
 20
676.37542518409532
 40
180
 41
1
 50
0
  1
三洋工業株式会社
  0
TEXT
  8
_0-0_0
 62
    7
 10
7488.3001791464312
 20
822.86484177048123
 40
75
 41
1
 50
0
  1
三角法
  0
TEXT
  8
_0-0_0
 62
    7
 10
7976.8501900337842
 20
822.86484177048123
 40
75
 41
1
 50
0
  1
ｍｍ
  0
TEXT
  8
_0-0_0
 62
    7
 10
6919.8407188361189
 20
1010.3792071060063
 40
75
 41
1
 50
-0.0000025044781892
  1
尺 度
  7
TATEGAKI
  0
TEXT
  8
_0-0_0
 62
    7
 10
6919.8407188361189
 20
650.3792256639922
 40
75
 41
1
 50
-0.0000025044781892
  1
承 認
  7
TATEGAKI
  0
TEXT
  8
_0-0_0
 62
    7
 10
7369.8407188361189
 20
650.37922566399266
 40
75
 41
1
 50
-0.0000025044781466
  1
審 査
  7
TATEGAKI
  0
TEXT
  8
_0-0_0
 62
    7
 10
7369.8407188361189
 20
1010.3792071060068
 40
75
 41
1
 50
-0.0000025044781466
  1
図 法
  7
TATEGAKI
  0
TEXT
  8
_0-0_0
 62
    7
 10
7819.8407188361198
 20
1010.3792071060068
 40
75
 41
1
 50
-0.0000025044781466
  1
単 位
  7
TATEGAKI
  0
TEXT
  8
_0-0_0
 62
    7
 10
7819.8407188361198
 20
650.37922566399266
 40
75
 41
1
 50
-0.0000025044781466
  1
製 図
  7
TATEGAKI
  0
TEXT
  8
_0-0_0
 62
    7
 10
8269.8407188361198
 20
650.3792256639922
 40
75
 41
1
 50
-0.0000025044782319
  1
設 計
  7
TATEGAKI
  0
TEXT
  8
_0-0_0
 62
    7
 10
8269.8407188361198
 20
1010.3792071060063
 40
75
 41
1
 50
-0.0000025044782319
  1
員 数
  7
TATEGAKI
  0
TEXT
  8
_0-0_0
 62
    7
 10
10819.84096627594
 20
1040.3792132920021
 40
75
 41
1
 50
-0.0000025044780898
  1
図 名
  7
TATEGAKI
  0
TEXT
  8
_0-0_0
 62
    7
 10
10819.84096627594
 20
620.37921947799737
 40
75
 41
1
 50
-0.0000025044780898
  1
図 番
  7
TATEGAKI
  0
TEXT
  8
_0-0_0
 62
    7
 10
11171.967575485642
 20
719.70939120730861
 40
120
 41
1
 50
0
  1
標準納まり図
  0
TEXT
  8
_0-0_0
 62
    7
 10
7176.5057125607063
 20
1094.6474848566827
 40
60
 41
1
 50
0
  1
作　成　日
  0
TEXT
  8
_0-0_0
 62
    7
 10
20369.732913455449
 20
370.20443838995902
 40
60
 41
1
 50
0
  1
備　　　考
  0
TEXT
  8
_0-0_0
 62
    7
 10
19776.327630120355
 20
370.20443838995902
 40
60
 41
1
 50
0
  1
重量
  0
TEXT
  8
_0-0_0
 62
    7
 10
18946.751527528508
 20
362.70446004094339
 40
75
 41
1
 50
0
  1
材　　　料
  0
TEXT
  8
_0-0_0
 62
    7
 10
18030.007274730786
 20
370.20443838995902
 40
60
 41
1
 50
0
  1
部　品　名
  0
TEXT
  8
_0-0_0
 62
    7
 10
17648.95138302365
 20
370.20443838995902
 40
60
 41
1
 50
0
  1
部番
  0
TEXT
  8
_0-0_0
 62
    7
 10
17347.864478858744
 20
370.20443838995902
 40
60
 41
1
 50
0
  1
訂正者
  0
TEXT
  8
_0-0_0
 62
    7
 10
16240.863894900762
 20
370.20443838995902
 40
60
 41
1
 50
0
  1
訂　正　記　事
  0
TEXT
  8
_0-0_0
 62
    7
 10
15196.864112647805
 20
370.20443838995902
 40
60
 41
1
 50
0
  1
年　月　日
  0
TEXT
  8
_0-0_0
 62
    7
 10
14827.864330394848
 20
370.20443838995902
 40
60
 41
1
 50
0
  1
符　号
  0
TEXT
  8
_0-0_0
 62
    7
 10
23389.599856814824
 20
676.37542518409532
 40
180
 41
1
 50
0
  1
三洋工業株式会社
  0
TEXT
  8
_0-0_0
 62
    7
 10
21720.671452702703
 20
822.86484177048123
 40
75
 41
1
 50
0
  1
三角法
  0
TEXT
  8
_0-0_0
 62
    7
 10
22209.221834749791
 20
822.86484177048123
 40
75
 41
1
 50
0
  1
ｍｍ
  0
TEXT
  8
_0-0_0
 62
    7
 10
21152.211621232658
 20
1010.3792071060068
 40
75
 41
1
 50
-0.0000025044780898
  1
尺 度
  7
TATEGAKI
  0
TEXT
  8
_0-0_0
 62
    7
 10
21152.211621232658
 20
650.37922566399266
 40
75
 41
1
 50
-0.0000025044780898
  1
承 認
  7
TATEGAKI
  0
TEXT
  8
_0-0_0
 62
    7
 10
21602.211621232658
 20
650.37922566399266
 40
75
 41
1
 50
-0.0000025044780898
  1
審 査
  7
TATEGAKI
  0
TEXT
  8
_0-0_0
 62
    7
 10
21602.211621232658
 20
1010.3792071060068
 40
75
 41
1
 50
-0.0000025044780898
  1
図 法
  7
TATEGAKI
  0
TEXT
  8
_0-0_0
 62
    7
 10
22052.211621232658
 20
1010.3792071060068
 40
75
 41
1
 50
-0.0000025044780898
  1
単 位
  7
TATEGAKI
  0
TEXT
  8
_0-0_0
 62
    7
 10
22052.211621232658
 20
650.37922566399266
 40
75
 41
1
 50
-0.0000025044780898
  1
製 図
  7
TATEGAKI
  0
TEXT
  8
_0-0_0
 62
    7
 10
22502.211621232658
 20
650.37922566399266
 40
75
 41
1
 50
-0.0000025044780898
  1
設 計
  7
TATEGAKI
  0
TEXT
  8
_0-0_0
 62
    7
 10
22502.211621232658
 20
1010.3792071060068
 40
75
 41
1
 50
-0.0000025044780898
  1
員 数
  7
TATEGAKI
  0
TEXT
  8
_0-0_0
 62
    7
 10
25052.211126353013
 20
1040.3792132920021
 40
75
 41
1
 50
-0.0000025044780898
  1
図 名
  7
TATEGAKI
  0
TEXT
  8
_0-0_0
 62
    7
 10
25052.211126353013
 20
620.37921947799737
 40
75
 41
1
 50
-0.0000025044780898
  1
図 番
  7
TATEGAKI
  0
TEXT
  8
_0-0_0
 62
    7
 10
25404.33996252112
 20
719.70939120730861
 40
120
 41
1
 50
0
  1
標準納まり図
  0
TEXT
  8
_0-0_0
 62
    7
 10
21408.876986116975
 20
1094.6474848566827
 40
60
 41
1
 50
0
  1
作　成　日
  0
TEXT
  8
_4-5_寸法
 62
    7
 10
23706.842700855155
 20
5776.0998700116133
 40
75
 41
1
 50
0
  1
15
  0
TEXT
  8
_4-5_寸法
 62
    7
 10
23556.842948294976
 20
5776.0998700116133
 40
75
 41
1
 50
0
  1
25
  0
TEXT
  8
_0-0_0
 62
    7
 10
22292.387942752324
 20
5313.73950855152
 40
150
 41
1
 50
0
  1
A-A'断面図
  0
TEXT
  8
_4-5_寸法
 62
    7
 10
23298.09290044619
 20
5948.6000061035156
 40
75
 41
1
 50
90.000002504479127
  1
10
  0
TEXT
  8
_4-5_寸法
 62
    7
 10
23650.592700855155
 20
7238.5998700116133
 40
75
 41
1
 50
0
  1
30
  0
TEXT
  8
_4-5_寸法
 62
    7
 10
23973.09290044619
 20
6867.3500679634717
 40
75
 41
1
 50
90.000002504479127
  1
35
  0
TEXT
  8
_4-5_寸法
 62
    7
 10
23973.09290044619
 20
6604.8499442435614
 40
75
 41
1
 50
90.000002504479127
  1
35
  0
TEXT
  8
_4-5_寸法
 62
    7
 10
24085.59290044619
 20
6736.1001916833829
 40
75
 41
1
 50
90.000002504479127
  1
70
  0
TEXT
  8
_4-6_文字
 62
    7
 10
22243.67015941723
 20
5847.5796673748946
 40
60
 41
1
 50
0
  1
ULスタッド
  0
TEXT
  8
_4-6_文字
 62
    7
 10
23903.066785657727
 20
6105.0012124551313
 40
60
 41
1
 50
0
  1
アルミサッシ
  0
TEXT
  8
_4-6_文字
 62
    7
 10
23873.177638698267
 20
5845.3801747914904
 40
60
 41
1
 50
0
  1
額縁
  0
TEXT
  8
_4-5_寸法
 62
    7
 10
21417.925368829456
 20
6273.9908579233534
 40
60
 41
1
 50
90.000002504478459
  1
3～20
  0
TEXT
  8
_4-5_寸法
 62
    7
 10
21410.156251311342
 20
6124.2162508577921
 40
60
 41
1
 50
90.000002504478459
  1
10
  0
TEXT
  8
_4-5_寸法
 62
    7
 10
21316.626968944474
 20
6002.1361603608002
 40
60
 41
1
 50
90.000002504478459
  1
12.5
  0
TEXT
  8
_4-5_寸法
 62
    7
 10
21318.439714396442
 20
6151.6141613109694
 40
60
 41
1
 50
90.000002504477948
  1
13～30
  0
TEXT
  8
_5-6_文字
 62
    7
 10
11593.70034707559
 20
6869.5535195840375
 40
60
 41
1
 50
0
  1
ULスタッド
  0
TEXT
  8
_5-6_文字
 62
    7
 10
11611.652650575381
 20
6548.9167909364442
 40
60
 41
1
 50
0
  1
ULランナーF
  0
TEXT
  8
_5-5_寸法
 62
    7
 10
11329.409625079181
 20
6027.4529534417234
 40
75
 41
1
 50
0
  1
13～30
  0
TEXT
  8
_5-6_文字
 62
    7
 10
10176.610305373735
 20
6988.4946256070525
 40
60
 41
1
 50
0
  1
ULスポンジF
  0
TEXT
  8
_5-5_寸法
 62
    7
 10
10465.874589218631
 20
6453.4641575168926
 40
75
 41
1
 50
90.00000250447826
  1
15～20
  0
TEXT
  8
_6-6_文字
 62
    7
 10
8609.2127207163212
 20
7241.2098652607692
 40
60
 41
1
 50
0
  1
ULスタッド
  0
TEXT
  8
_6-6_文字
 62
    7
 10
8668.6380417282526
 20
6824.0753173828125
 40
60
 41
1
 50
0
  1
ULランナーF
  0
TEXT
  8
_6-6_文字
 62
    7
 10
7074.5270270270275
 20
7185.3562638566309
 40
60
 41
1
 50
0
  1
ULスポンジF
  0
TEXT
  8
_6-6_文字
 62
    7
 10
7074.5269775390625
 20
6278.0718829180751
 40
60
 41
1
 50
0
  1
ULスタッド
  0
TEXT
  8
_6-6_文字
 62
    7
 10
7069.4392931139146
 20
7017.8117906725083
 40
60
 41
1
 50
0
  1
注入口
  0
TEXT
  8
_6-6_文字
 62
    7
 10
7069.4391199060392
 20
6957.8123350401183
 40
60
 41
1
 50
0
  1
φ8　＠600
  0
TEXT
  8
_0-0_0
 62
    7
 10
6626.16265374261
 20
5695.7545512431379
 40
150
 41
1
 50
0
  1
a詳細
  0
TEXT
  8
_0-0_0
 62
    7
 10
8187.8476694467909
 20
5697.284842826225
 40
150
 41
1
 50
0
  1
b詳細
  0
TEXT
  8
_0-0_0
 62
    7
 10
9810.0202158335087
 20
5702.7835742847346
 40
150
 41
1
 50
0
  1
c詳細
  0
TEXT
  8
_0-0_0
 62
    7
 10
11272.724724846919
 20
5702.7835742847346
 40
150
 41
1
 50
0
  1
d詳細
  0
TEXT
  8
_3-5_寸法
 62
    7
 10
11733.319010956113
 20
2753.1398979393211
 40
75
 41
1
 50
90.000002504478459
  1
10
  0
TEXT
  8
_3-5_寸法
 62
    7
 10
11733.319013414877
 20
3042.2106974833719
 40
75
 41
1
 50
90.00000250447809
  1
3～20
  0
TEXT
  8
_3-5_寸法
 62
    7
 10
11883.319507474933
 20
2394.079445503854
 40
75
 41
1
 50
90.000002504478147
  1
12.5
  0
TEXT
  8
_3-5_寸法
 62
    7
 10
11883.319509114111
 20
3027.561084644215
 40
75
 41
1
 50
90.00000250447826
  1
13～20
  0
TEXT
  8
_3-5_寸法
 62
    7
 10
9920.8192155167872
 20
2415.6398670093436
 40
75
 41
1
 50
0
  1
45
  0
TEXT
  8
_3-5_寸法
 62
    7
 10
9208.3193408758762
 20
2928.1398566993507
 40
75
 41
1
 50
90.000002504478147
  1
45
  0
TEXT
  8
_3-6_文字
 62
    7
 10
10405.086537953968
 20
3288.1259815112967
 40
60
 41
1
 50
0
  1
ULスタッド
  0
TEXT
  8
_3-5_寸法
 62
    7
 10
7680.2719116210937
 20
4688.6159536000841
 40
75
 41
1
 50
0
  1
45
  0
TEXT
  8
_3-5_寸法
 62
    7
 10
7930.2721178209467
 20
4438.6161185599667
 40
75
 41
1
 50
0
  1
50
  0
TEXT
  8
_3-5_寸法
 62
    7
 10
8417.7721194601254
 20
3851.116036080025
 40
75
 41
1
 50
90.000002504478147
  1
50
  0
TEXT
  8
_3-5_寸法
 62
    7
 10
8667.7719545002419
 20
3601.1160154600407
 40
75
 41
1
 50
90.000002504478147
  1
45
  0
TEXT
  8
_3-5_寸法
 62
    7
 10
8030.2722003008876
 20
2438.6159536000846
 40
75
 41
1
 50
0
  1
10
  0
TEXT
  8
_3-5_寸法
 62
    7
 10
8319.3429070550046
 20
2438.6159536000846
 40
75
 41
1
 50
0
  1
3～20
  0
TEXT
  8
_3-5_寸法
 62
    7
 10
7671.2116550754863
 20
2288.6160154600402
 40
75
 41
1
 50
0
  1
12.5
  0
TEXT
  8
_3-5_寸法
 62
    7
 10
8304.69310863598
 20
2288.6160154600402
 40
75
 41
1
 50
0
  1
13～20
  0
TEXT
  8
_3-6_文字
 62
    7
 10
6932.146020837733
 20
4347.472649651605
 40
60
 41
1
 50
0
  1
ULスタッド
  0
TEXT
  8
_0-0_0
 62
    7
 10
7352.0160406989025
 20
1963.5381750158363
 40
150
 41
1
 50
0
  1
入隅
  0
TEXT
  8
_0-0_0
 62
    7
 10
10332.414600269216
 20
1952.5405265189509
 40
150
 41
1
 50
0
  1
出隅
  0
TEXT
  8
_1-5_寸法
 62
    7
 10
5397.4998309161219
 20
7823.9195127744933
 40
90
 41
1
 50
0
  1
@303
  0
TEXT
  8
_1-5_寸法
 62
    7
 10
4942.9998903016785
 20
7823.9195127744933
 40
90
 41
1
 50
0
  1
@303
  0
TEXT
  8
_1-5_寸法
 62
    7
 10
4488.499949687236
 20
7823.9195127744933
 40
90
 41
1
 50
0
  1
@303
  0
TEXT
  8
_1-5_寸法
 62
    7
 10
4033.9998234929267
 20
7823.9195127744933
 40
90
 41
1
 50
0
  1
@303
  0
TEXT
  8
_1-5_寸法
 62
    7
 10
3579.4996972986173
 20
7823.9195127744933
 40
90
 41
1
 50
0
  1
@303
  0
TEXT
  8
_1-5_寸法
 62
    7
 10
3124.9997566841748
 20
7823.9195127744933
 40
90
 41
1
 50
0
  1
@303
  0
TEXT
  8
_1-5_寸法
 62
    7
 10
2670.4998160697319
 20
7823.9195127744933
 40
90
 41
1
 50
0
  1
@303
  0
TEXT
  8
_1-5_寸法
 62
    7
 10
1761.4998420509132
 20
7823.9195127744933
 40
90
 41
1
 50
0
  1
@303
  0
TEXT
  8
_1-5_寸法
 62
    7
 10
2215.9998754552889
 20
7823.9195127744933
 40
90
 41
1
 50
0
  1
@303
  0
TEXT
  8
_1-5_寸法
 62
    7
 10
1023.715338106627
 20
6568.9079738307637
 40
90
 41
1
 50
90.000002504478118
  1
@600
  0
TEXT
  8
_1-5_寸法
 62
    7
 10
1023.715338106627
 20
7186.3243969066725
 40
90
 41
1
 50
90.000002504478118
  1
@600
  0
TEXT
  8
_1-5_寸法
 62
    7
 10
5201.9522465886294
 20
4992.4384039801525
 40
90
 41
1
 50
0
  1
@900以内
  0
TEXT
  8
_1-5_寸法
 62
    7
 10
4117.162578685864
 20
4992.4384039801525
 40
90
 41
1
 50
0
  1
@900以内
  0
TEXT
  8
_1-5_寸法
 62
    7
 10
2767.1626714757972
 20
4992.4384039801525
 40
90
 41
1
 50
0
  1
@900以内
  0
TEXT
  8
_1-5_寸法
 62
    7
 10
1023.7153413849808
 20
5591.3054017762879
 40
90
 41
1
 50
90.000002504478118
  1
600以内
  0
TEXT
  8
_1-5_寸法
 62
    7
 10
1687.466243022197
 20
4999.2844452729105
 40
90
 41
1
 50
0
  1
@900以内
  0
TEXT
  8
_1-6_文字
 62
    7
 10
2499.3350941426047
 20
7417.7943049250434
 40
90
 41
1
 50
0
  1
ULスタッド
  0
TEXT
  8
_1-6_文字
 62
    7
 10
2658.0545270765147
 20
6413.4991620038008
 40
90
 41
1
 50
0
  1
注入口
  0
TEXT
  8
_1-6_文字
 62
    7
 10
4346.3072946909315
 20
6204.1698971310179
 40
90
 41
1
 50
0
  1
石膏ボード等
  0
TEXT
  8
_1-6_文字
 62
    7
 10
3748.514754836624
 20
5453.9272823849242
 40
90
 41
1
 50
0
  1
ULランナーF
  0
TEXT
  8
_1-6_文字
 62
    7
 10
3068.4992424217435
 20
6325.4066261085309
 40
90
 41
1
 50
0
  1
a
  0
TEXT
  8
_1-6_文字
 62
    7
 10
3063.5990060342328
 20
5487.2399819863813
 40
90
 41
1
 50
0
  1
b
  0
TEXT
  8
_1-6_文字
 62
    7
 10
2398.1558371878959
 20
5821.3123218433284
 40
90
 41
1
 50
0
  1
ULアンカー
  0
TEXT
  8
_0-0_0
 62
    7
 10
3130.3517686998525
 20
4648.0418849635771
 40
150
 41
1
 50
0
  1
取付正面図
  0
TEXT
  8
_0-0_0
 62
    7
 10
3100.3195644069369
 20
1445.1962548333247
 40
150
 41
1
 50
0
  1
断面詳細図
  0
TEXT
  8
_2-6_文字
 62
    7
 10
2610.3288908262512
 20
4176.5450554925046
 40
60
 41
1
 50
0
  1
ALC板
  0
TEXT
  8
_2-6_文字
 62
    7
 10
3121.0699421650656
 20
4491.8463629645275
 40
60
 41
1
 50
0
  1
ULスポンジF
  0
TEXT
  8
_2-6_文字
 62
    7
 10
2997.250807478621
 20
4191.1386850717909
 40
60
 41
1
 50
0
  1
注入口
  0
TEXT
  8
_2-6_文字
 62
    7
 10
3239.9289600269221
 20
1900.3200221706081
 40
60
 41
1
 50
0
  1
スラブ
  0
TEXT
  8
_2-6_文字
 62
    7
 10
3090.7125586432385
 20
3031.6622141245252
 40
60
 41
1
 50
0
  1
石膏ボード等
  0
TEXT
  8
_2-6_文字
 62
    7
 10
3073.2720844165701
 20
2528.8356059306379
 40
60
 41
1
 50
0
  1
ULランナーF
  0
TEXT
  8
_2-6_文字
 62
    7
 10
4427.2219353753171
 20
3151.9589810758025
 40
60
 41
1
 50
0
  1
c
  0
TEXT
  8
_2-6_文字
 62
    7
 10
4422.4076224662167
 20
2242.0607077108848
 40
60
 41
1
 50
0
  1
d
  0
TEXT
  8
_2-6_文字
 62
    7
 10
4773.0816279230894
 20
1913.4800472775023
 40
60
 41
1
 50
0
  1
スラブ
  0
TEXT
  8
_2-6_文字
 62
    7
 10
4063.3699283084361
 20
4193.02788811761
 40
60
 41
1
 50
0
  1
外壁
  0
TEXT
  8
_7-5_文字
 62
    7
 10
17235.738904798352
 20
3590.0633116026183
 40
60
 41
1
 50
0
  1
ULジョイント
  0
TEXT
  8
_7-5_文字
 62
    7
 10
17296.248977248732
 20
3766.3463695629225
 40
60
 41
1
 50
0
  1
ULスタッド
  0
TEXT
  8
_7-5_文字
 62
    7
 10
17277.859546558277
 20
4261.2949268237971
 40
60
 41
1
 50
0
  1
ULスポンジF
  0
TEXT
  8
_7-5_文字
 62
    7
 10
18095.647871635498
 20
3330.6921262998844
 40
75
 41
1
 50
90.00000250447809
  1
120～150mm
  0
TEXT
  8
_7-5_文字
 62
    7
 10
18095.647871635498
 20
2400.5351195464264
 40
75
 41
1
 50
90.00000250447809
  1
120～150mm
  0
TEXT
  8
_7-0_寸法
 62
    7
 10
18202.472096983893
 20
2866.0546998719915
 40
75
 41
1
 50
90.00000250447809
  1
240～300mm
  0
TEXT
  8
_0-0_0
 62
    7
 10
17097.702719198689
 20
4571.5466061153929
 40
150
 41
1
 50
0
  1
開口部納まり詳細図
  0
TEXT
  8
_1-5_寸法
 62
    7
 10
16973.856514595649
 20
6113.4476945206934
 40
90
 41
1
 50
0
  1
A'
  0
TEXT
  8
_1-5_寸法
 62
    7
 10
17396.123114989881
 20
5271.3151838972763
 40
90
 41
1
 50
90.00000250447772
  1
25
  0
TEXT
  8
_1-5_寸法
 62
    7
 10
17389.215090021557
 20
6376.3579250026396
 40
90
 41
1
 50
90.00000250447772
  1
25
  0
TEXT
  8
_1-5_寸法
 62
    7
 10
17409.93916722139
 20
5805.2724312447217
 40
90
 41
1
 50
90.00000250447836
  1
H+30
  0
TEXT
  8
_1-5_寸法
 62
    7
 10
18664.938948347764
 20
5896.2331411000841
 40
90
 41
1
 50
0
  1
25
  0
TEXT
  8
_1-5_寸法
 62
    7
 10
17658.632664036108
 20
5892.7791286159209
 40
90
 41
1
 50
0
  1
W+30
  0
TEXT
  8
_1-5_寸法
 62
    7
 10
16680.036076726145
 20
5895.6281507337426
 40
90
 41
1
 50
0
  1
25
  0
TEXT
  8
_1-5_寸法
 62
    7
 10
16073.703695761194
 20
6112.2503332189617
 40
90
 41
1
 50
0
  1
A
  0
TEXT
  8
_1-5_寸法
 62
    7
 10
15590.359892974027
 20
7722.8846369562925
 40
90
 41
1
 50
0
  1
@303
  0
TEXT
  8
_1-5_寸法
 62
    7
 10
16521.020656276392
 20
7722.8846369562925
 40
90
 41
1
 50
0
  1
@303
  0
TEXT
  8
_1-5_寸法
 62
    7
 10
16066.520715661953
 20
7722.8846369562925
 40
90
 41
1
 50
0
  1
@303
  0
TEXT
  8
_1-5_寸法
 62
    7
 10
16975.520596890838
 20
7722.8846369562925
 40
90
 41
1
 50
0
  1
@303
  0
TEXT
  8
_1-5_寸法
 62
    7
 10
17430.020537505283
 20
7722.8846369562925
 40
90
 41
1
 50
0
  1
@303
  0
TEXT
  8
_1-5_寸法
 62
    7
 10
17884.520478119721
 20
7722.8846369562925
 40
90
 41
1
 50
0
  1
@303
  0
TEXT
  8
_1-5_寸法
 62
    7
 10
18339.020418734166
 20
7722.8846369562925
 40
90
 41
1
 50
0
  1
@303
  0
TEXT
  8
_1-5_寸法
 62
    7
 10
18793.520359348608
 20
7722.8846369562925
 40
90
 41
1
 50
0
  1
@303
  0
TEXT
  8
_1-5_寸法
 62
    7
 10
19248.020299963049
 20
7722.8846369562925
 40
90
 41
1
 50
0
  1
@303
  0
TEXT
  8
_1-5_寸法
 62
    7
 10
19702.520240577494
 20
7722.8846369562925
 40
90
 41
1
 50
0
  1
@303
  0
TEXT
  8
_1-6_文字
 62
    7
 10
18797.069438212628
 20
7454.0142987225508
 40
90
 41
1
 50
0
  1
ULランナーF
  0
TEXT
  8
_1-6_文字
 62
    7
 10
17877.835099503798
 20
7384.6497406830667
 40
90
 41
1
 50
0
  1
ULスタッド
  0
TEXT
  8
_1-6_文字
 62
    7
 10
18218.874577702707
 20
6746.6877705342067
 40
90
 41
1
 50
0
  1
ULランナーF
  0
TEXT
  8
_1-6_文字
 62
    7
 10
17925.465384818413
 20
5409.8594871727191
 40
90
 41
1
 50
0
  1
ULランナーF
  0
TEXT
  8
_1-6_文字
 62
    7
 10
17637.103716876056
 20
6374.0782866606842
 40
90
 41
1
 50
0
  1
窓枠
  0
TEXT
  8
_0-0_0
 62
    7
 10
16999.05875541069
 20
1340.9538165943043
 40
150
 41
1
 50
0
  1
ULジョイント納まり図
  0
TEXT
  8
_0-0_0
 62
    7
 10
22562.023513381548
 20
1279.3013082968223
 40
150
 41
1
 50
0
  1
梁下納まり図
  0
TEXT
  8
_8-9_寸法
 62
    7
 10
22699.170251794767
 20
2940.5955752810919
 40
75
 41
1
 50
0
  1
600mm以内
  0
TEXT
  8
_8-8_文字
 62
    7
 10
21059.497895111908
 20
3275.1925494219809
 40
75
 41
1
 50
0
  1
天井材
  0
TEXT
  8
_8-8_文字
 62
    7
 10
22071.467631572003
 20
3434.6179034258871
 40
75
 41
1
 50
0
  1
ULスポンジF
  0
TEXT
  8
_8-8_文字
 62
    7
 10
22057.711462072424
 20
3705.1547488650763
 40
75
 41
1
 50
0
  1
ULスタッド
  0
TEXT
  8
_8-8_文字
 62
    7
 10
22030.871664511193
 20
2244.2605714540227
 40
75
 41
1
 50
0
  1
ULランナーF
  0
TEXT
  8
_8-8_文字
 62
    7
 10
22030.871911951017
 20
2137.5996563885665
 40
75
 41
1
 50
0
  1
ULランナーF取付け下地
  0
TEXT
  8
_8-8_文字
 62
    7
 10
22030.871417071368
 20
2062.5995945286109
 40
75
 41
1
 50
0
  1
50×20×50×t1.6程度 @600
  0
TEXT
  8
_0-0_0
 62
    7
 10
865.02804317989842
 20
8243.8830401446376
 40
150
 41
1
 50
0
  1
STU壁工法 納まり図
  0
TEXT
  8
_6-6_文字
 62
    7
 10
7074.5272992108321
 20
6803.5182643581084
 40
60
 41
1
 50
0
  1
STUボンド
  0
TEXT
  8
_5-6_文字
 62
    7
 10
10144.156370420715
 20
6334.6284608583192
 40
60
 41
1
 50
0
  1
STUボンド
  0
TEXT
  8
_3-6_文字
 62
    7
 10
10271.455251332876
 20
3582.68762536951
 40
60
 41
1
 50
0
  1
STUボンド
  0
TEXT
  8
_3-6_文字
 62
    7
 10
6820.5040926546671
 20
4620.2115857923354
 40
60
 41
1
 50
0
  1
STUボンド
  0
TEXT
  8
_0-0_0
 62
    7
 10
11134.467674461572
 20
989.70940048630155
 40
120
 41
1
 50
0
  1
STU壁工法
  0
TEXT
  8
_0-0_0
 62
    7
 10
7860.7175754856426
 20
1075.2044677734375
 40
120
 41
1
 50
0
  1
2019.12.24
  0
TEXT
  8
_0-0_0
 62
    7
 10
15097.398747624578
 20
8243.8830401446376
 40
150
 41
1
 50
0
  1
STU壁工法 詳細納まり図
  0
TEXT
  8
_7-5_文字
 62
    7
 10
17160.227793100719
 20
4071.4515479835304
 40
60
 41
1
 50
0
  1
STUボンド
  0
TEXT
  8
_8-8_文字
 62
    7
 10
22062.297264305322
 20
3567.5936724688559
 40
75
 41
1
 50
0
  1
STUボンド
  0
TEXT
  8
_0-0_0
 62
    7
 10
22093.088477882182
 20
1075.2044677734375
 40
120
 41
1
 50
0
  1
2019.12.24
  0
TEXT
  8
_0-0_0
 62
    7
 10
25366.83857685811
 20
989.70940048630155
 40
120
 41
1
 50
0
  1
STU壁工法
  0
TEXT
  8
_4-6_文字
 62
    7
 10
22194.825488941089
 20
5700.3914497994092
 40
60
 41
1
 50
0
  1
STUボンド
  0
POINT
  8
_4-5_寸法
 62
    7
 10
23500.5931957348
 20
5761.1001916833829
  0
POINT
  8
_4-5_寸法
 62
    7
 10
23800.592700855152
 20
5761.1001916833829
  0
POINT
  8
_4-5_寸法
 62
    7
 10
23688.092700855152
 20
5761.1001916833829
  0
POINT
  8
_4-5_寸法
 62
    7
 10
23313.09220597551
 20
6023.5999442435605
  0
POINT
  8
_4-5_寸法
 62
    7
 10
23313.09220597551
 20
5948.6000679634717
  0
POINT
  8
_4-5_寸法
 62
    7
 10
23575.592700855152
 20
7223.5998205236492
  0
POINT
  8
_4-5_寸法
 62
    7
 10
23800.592700855152
 20
7223.5998205236492
  0
POINT
  8
_4-5_寸法
 62
    7
 10
23988.09220597551
 20
7036.1003154032942
  0
POINT
  8
_4-5_寸法
 62
    7
 10
23988.09220597551
 20
6773.5998205236492
  0
POINT
  8
_4-5_寸法
 62
    7
 10
23988.09220597551
 20
6511.1000679634717
  0
POINT
  8
_4-5_寸法
 62
    7
 10
24100.59220597551
 20
7036.1003154032942
  0
POINT
  8
_4-5_寸法
 62
    7
 10
24100.59220597551
 20
6511.1000679634717
  0
POINT
  8
_4-5_寸法
 62
    7
 10
21421.05053051098
 20
6267.3498205236492
  0
POINT
  8
_4-5_寸法
 62
    7
 10
21421.05053051098
 20
6192.3499442435605
  0
POINT
  8
_4-5_寸法
 62
    7
 10
21421.05053051098
 20
6117.3500679634717
  0
POINT
  8
_4-5_寸法
 62
    7
 10
21318.439710462415
 20
6117.3500679634717
  0
POINT
  8
_4-5_寸法
 62
    7
 10
21318.439710462415
 20
6023.5999442435605
  0
POINT
  8
_4-5_寸法
 62
    7
 10
21318.439710462415
 20
6267.3498205236492
  0
POINT
  8
_5-5_寸法
 62
    7
 10
11521.951706345017
 20
6130.7233243375213
  0
POINT
  8
_5-5_寸法
 62
    7
 10
11371.951953784841
 20
6130.7233243375213
  0
POINT
  8
_5-5_寸法
 62
    7
 10
10378.038890941723
 20
6646.3016819309551
  0
POINT
  8
_5-5_寸法
 62
    7
 10
10378.038890941723
 20
6496.3019293707775
  0
POINT
  8
_3-5_寸法
 62
    7
 10
11783.319421716638
 20
2740.6399494892844
  0
POINT
  8
_3-5_寸法
 62
    7
 10
11783.319421716638
 20
2840.6398463893584
  0
POINT
  8
_3-5_寸法
 62
    7
 10
11783.319421716638
 20
2940.6399288692992
  0
POINT
  8
_3-5_寸法
 62
    7
 10
11933.319174276818
 20
2615.6398463893584
  0
POINT
  8
_3-5_寸法
 62
    7
 10
11933.319174276818
 20
2740.6399494892844
  0
POINT
  8
_3-5_寸法
 62
    7
 10
11933.319174276818
 20
2940.6399288692992
  0
POINT
  8
_3-5_寸法
 62
    7
 10
9733.31958667652
 20
2365.6398257693731
  0
POINT
  8
_3-5_寸法
 62
    7
 10
10183.31958667652
 20
2365.6398257693731
  0
POINT
  8
_3-5_寸法
 62
    7
 10
9258.3190093169342
 20
3190.6397639094175
  0
POINT
  8
_3-5_寸法
 62
    7
 10
9258.3190093169342
 20
2740.6399494892844
  0
POINT
  8
_3-5_寸法
 62
    7
 10
8217.7719528610633
 20
4388.6160773199963
  0
POINT
  8
_3-5_寸法
 62
    7
 10
8467.7717879011834
 20
4138.6158711201442
  0
POINT
  8
_3-5_寸法
 62
    7
 10
8467.7717879011834
 20
3638.6162010399075
  0
POINT
  8
_3-5_寸法
 62
    7
 10
7717.7722827808284
 20
4388.6160773199963
  0
POINT
  8
_3-5_寸法
 62
    7
 10
7492.7722827808284
 20
4638.6159123601137
  0
POINT
  8
_3-5_寸法
 62
    7
 10
7942.7722827808284
 20
4638.6159123601137
  0
POINT
  8
_3-5_寸法
 62
    7
 10
8717.7723652607692
 20
3863.6162010399071
  0
POINT
  8
_3-5_寸法
 62
    7
 10
8717.7723652607692
 20
3413.6162010399075
  0
POINT
  8
_3-5_寸法
 62
    7
 10
8017.7717879011825
 20
2388.616097939981
  0
POINT
  8
_3-5_寸法
 62
    7
 10
8117.7718703811233
 20
2388.616097939981
  0
POINT
  8
_3-5_寸法
 62
    7
 10
8217.7719528610633
 20
2388.616097939981
  0
POINT
  8
_3-5_寸法
 62
    7
 10
7892.7718703811233
 20
2238.6159742200698
  0
POINT
  8
_3-5_寸法
 62
    7
 10
8017.7717879011825
 20
2238.6159742200698
  0
POINT
  8
_3-5_寸法
 62
    7
 10
8217.7719528610633
 20
2238.6159742200698
  0
POINT
  8
_1-5_寸法
 62
    7
 10
1083.2137236724031
 20
5293.9080728066938
  0
POINT
  8
_1-5_寸法
 62
    7
 10
4901.4987017657304
 20
4992.3678836307017
  0
POINT
  8
_1-5_寸法
 62
    7
 10
3551.4987017657309
 20
4992.3678836307017
  0
POINT
  8
_1-5_寸法
 62
    7
 10
1083.2137236724031
 20
7093.90770164696
  0
POINT
  8
_1-5_寸法
 62
    7
 10
1083.2137236724031
 20
6193.9080728066938
  0
POINT
  8
_1-5_寸法
 62
    7
 10
2201.4987017657313
 20
4992.3678836307017
  0
POINT
  8
_1-5_寸法
 62
    7
 10
5264.4194319441513
 20
7821.6301995354734
  0
POINT
  8
_1-5_寸法
 62
    7
 10
4809.919120169975
 20
7821.6301995354734
  0
POINT
  8
_1-5_寸法
 62
    7
 10
4355.4191795555316
 20
7821.6301995354734
  0
POINT
  8
_1-5_寸法
 62
    7
 10
3900.91923894109
 20
7821.6301995354734
  0
POINT
  8
_1-5_寸法
 62
    7
 10
3446.4192983266471
 20
7821.6301995354734
  0
POINT
  8
_1-5_寸法
 62
    7
 10
2991.9193577122046
 20
7821.6301995354734
  0
POINT
  8
_1-5_寸法
 62
    7
 10
2537.4192315178948
 20
7821.6301995354734
  0
POINT
  8
_1-5_寸法
 62
    7
 10
2082.9192909034523
 20
7821.6301995354734
  0
POINT
  8
_1-5_寸法
 62
    7
 10
1628.4193502890093
 20
7821.6301995354734
  0
POINT
  8
_7-0_寸法
 62
    7
 10
18206.850289009712
 20
2122.9566625646644
  0
POINT
  8
_7-0_寸法
 62
    7
 10
18206.850289009712
 20
3983.2706760715796
  0
POINT
  8
_7-5_文字
 62
    7
 10
18110.64717060811
 20
3983.2706760715796
  0
POINT
  8
_7-5_文字
 62
    7
 10
18110.64717060811
 20
3053.1135765281888
  0
POINT
  8
_7-5_文字
 62
    7
 10
18110.64717060811
 20
2122.9566625646644
  0
POINT
  8
_8-9_寸法
 62
    7
 10
21967.920251794767
 20
2925.5955257931273
  0
POINT
  8
_8-9_寸法
 62
    7
 10
23767.920251794767
 20
2925.5955257931273
  0
POINT
  8
_1-5_寸法
 62
    7
 10
17426.057887721705
 20
6495.6939697265625
  0
POINT
  8
_1-5_寸法
 62
    7
 10
17426.057887721705
 20
6533.1944646062075
  0
POINT
  8
_1-5_寸法
 62
    7
 10
17426.057887721705
 20
5235.69426665435
  0
POINT
  8
_1-5_寸法
 62
    7
 10
17426.057887721705
 20
5198.1941429344379
  0
POINT
  8
_1-5_寸法
 62
    7
 10
16656.440363703547
 20
5865.6941181904567
  0
POINT
  8
_1-5_寸法
 62
    7
 10
16618.939868823902
 20
5865.6941181904567
  0
POINT
  8
_1-5_寸法
 62
    7
 10
18793.940363703547
 20
5865.6941181904567
  0
POINT
  8
_1-5_寸法
 62
    7
 10
18756.439868823902
 20
5865.6941181904567
  0
POINT
  8
_1-5_寸法
 62
    7
 10
15888.439611486487
 20
7705.596016548775
  0
POINT
  8
_1-5_寸法
 62
    7
 10
16342.939552100932
 20
7705.596016548775
  0
POINT
  8
_1-5_寸法
 62
    7
 10
16797.439492715373
 20
7705.596016548775
  0
POINT
  8
_1-5_寸法
 62
    7
 10
17251.939433329815
 20
7705.596016548775
  0
POINT
  8
_1-5_寸法
 62
    7
 10
17706.439373944257
 20
7705.596016548775
  0
POINT
  8
_1-5_寸法
 62
    7
 10
18160.939314558702
 20
7705.596016548775
  0
POINT
  8
_1-5_寸法
 62
    7
 10
18615.439255173143
 20
7705.596016548775
  0
POINT
  8
_1-5_寸法
 62
    7
 10
19069.939195787585
 20
7705.596016548775
  0
POINT
  8
_1-5_寸法
 62
    7
 10
19524.439136402027
 20
7705.596016548775
  0
ENDSEC
  0
EOF
