  0
SECTION
  2
HEADER
  9
$ACADVER
  1
AC1009
  9
$INSBASE
 10
0
 20
0
 30
0
  9
$EXTMIN
 10
0
 20
0
  9
$EXTMAX
 10
841
 20
594
  9
$LIMMIN
 10
0
 20
0
  9
$LIMMAX
 10
841
 20
594
  9
$LTSCALE
 40
1
  0
ENDSEC
  0
SECTION
  2
TABLES
  0
TABLE
  2
LTYPE
 70
     9
  0
LTYPE
  2
CONTINUOUS
 70
    64
  3
実線
 72
    65
 73
     0
 40
0.0
  0
LTYPE
  2
DASHED1
 70
    64
  3
--  --  --  --  --  --  --  --  
 72
    65
 73
     2
 40
2.5
 49
1.25
 49
-1.25
  0
LTYPE
  2
DASHED2
 70
    64
  3
----    ----    ----    ----    
 72
    65
 73
     2
 40
5.0
 49
2.5
 49
-2.5
  0
LTYPE
  2
DASHED3
 70
    64
  3
------  ------  ------  ------  
 72
    65
 73
     2
 40
5.0
 49
3.75
 49
-1.25
  0
LTYPE
  2
CENTER1
 70
    64
  3
----- - ----- - ----- - ----- - 
 72
    65
 73
     4
 40
10.0
 49
6.25
 49
-1.25
 49
1.25
 49
-1.25
  0
LTYPE
  2
CENTER2
 70
    64
  3
----------  --  ----------  --  
 72
    65
 73
     4
 40
20.0
 49
12.5
 49
-2.5
 49
2.5
 49
-2.5
  0
LTYPE
  2
PHANTOM1
 70
    64
  3
--- - - --- - - --- - - --- - - 
 72
    65
 73
     6
 40
10.0
 49
3.25
 49
-1.25
 49
1.25
 49
-1.25
 49
1.25
 49
-1.25
  0
LTYPE
  2
PHANTOM2
 70
    64
  3
--------  -  -  --------  -  -  
 72
    65
 73
     6
 40
20.0
 49
10.0
 49
-2.5
 49
1.25
 49
-2.5
 49
1.25
 49
-2.5
  0
LTYPE
  2
DOT
 70
    64
  3
-   -   -   -   -   -   -   -   
 72
    65
 73
     2
 40
2.5
 49
0.625
 49
-1.875
  0
LTYPE
  2
DUMMY
 70
    64
  3
ダミー
 72
    65
 73
     0
 40
0.0
  0
LTYPE
  2
RAND1
 70
    64
  3
ランダム線1
 72
    65
 73
     4
 40
10.0
 49
1.0
 49
-2.0
 49
3.0
 49
-4.0
  0
LTYPE
  2
RAND2
 70
    64
  3
ランダム線2
 72
    65
 73
     4
 40
14.0
 49
2.0
 49
-3.0
 49
4.0
 49
-5.0
  0
LTYPE
  2
RAND3
 70
    64
  3
ランダム線3
 72
    65
 73
     4
 40
18.0
 49
3.0
 49
-4.0
 49
5.0
 49
-6.0
  0
LTYPE
  2
RAND4
 70
    64
  3
ランダム線4
 72
    65
 73
     4
 40
22.0
 49
4.0
 49
-5.0
 49
6.0
 49
-7.0
  0
LTYPE
  2
RAND5
 70
    64
  3
ランダム線5
 72
    65
 73
     4
 40
26.0
 49
5.0
 49
-6.0
 49
7.0
 49
-8.0
  0
LTYPE
  2
LONG1
 70
    64
  3
----------  --  ----------  --  
 72
    65
 73
     4
 40
40.0
 49
32.5
 49
-2.5
 49
2.5
 49
-2.5
  0
LTYPE
  2
LONG2
 70
    64
  3
--------  -  -  --------  -  -  
 72
    65
 73
     6
 40
40.0
 49
30.0
 49
-2.5
 49
1.25
 49
-2.5
 49
1.25
 49
-2.5
  0
LTYPE
  2
LONG3
 70
    64
  3
+++++++++++++++..+++++++++++++++
 72
    65
 73
     2
 40
40.0
 49
37.5
 49
-2.5
  0
LTYPE
  2
LONG4
 70
    64
  3
+++++++++++++++..+++++++++++++++
 72
    65
 73
     2
 40
80.0
 49
75.0
 49
-5.0
  0
LTYPE
  2
LONG5
 70
    64
  3
----------  --  ----------  --  
 72
    65
 73
     4
 40
60.0
 49
37.5
 49
-7.5
 49
7.5
 49
-7.5
  0
LTYPE
  2
dashed
 70
   64
  3
-------   -------------   ------
 72
   65
 73
    2
 40
7.5
 49
6
 49
-1.5
  0
LTYPE
  2
dashed_spaced
 70
   64
  3
----        --------        ----
 72
   65
 73
    2
 40
12
 49
6
 49
-6
  0
LTYPE
  2
long_dashed_dotted
 70
   64
  3
------------- --- --------------
 72
   65
 73
    4
 40
15.25
 49
12
 49
-1.5
 49
0.25
 49
-1.5
  0
LTYPE
  2
long_dashed_double-dotted
 70
   64
  3
----------- --- --- ------------
 72
   65
 73
    6
 40
17
 49
12
 49
-1.5
 49
0.25
 49
-1.5
 49
0.25
 49
-1.5
  0
LTYPE
  2
long_dashed_triplicate-dotted
 70
   64
  3
--------- --- --- --- ----------
 72
   65
 73
    8
 40
18.75
 49
12
 49
-1.5
 49
0.25
 49
-1.5
 49
0.25
 49
-1.5
 49
0.25
 49
-1.5
  0
LTYPE
  2
dotted
 70
   64
  3
   -       -       -       -    
 72
   65
 73
    2
 40
1.75
 49
0.25
 49
-1.5
  0
LTYPE
  2
chain
 70
   64
  3
-------------- -- --------------
 72
   65
 73
    4
 40
18.5
 49
12
 49
-1.5
 49
3.5
 49
-1.5
  0
LTYPE
  2
chain_double_dash
 70
   64
  3
------------ -- -- -------------
 72
   65
 73
    6
 40
23.5
 49
12
 49
-1.5
 49
3.5
 49
-1.5
 49
3.5
 49
-1.5
  0
LTYPE
  2
dashed_dotted
 70
   64
  3
-----------     -     ----------
 72
   65
 73
    4
 40
9.25
 49
6
 49
-1.5
 49
0.25
 49
-1.5
  0
LTYPE
  2
double-dashed_dotted
 70
   64
  3
------   -----------   -   -----
 72
   65
 73
    6
 40
16.75
 49
6
 49
-1.5
 49
6
 49
-1.5
 49
0.25
 49
-1.5
  0
LTYPE
  2
dashed_double-dotted
 70
   64
  3
---------    -    -    ---------
 72
   65
 73
    6
 40
11
 49
6
 49
-1.5
 49
0.25
 49
-1.5
 49
0.25
 49
-1.5
  0
LTYPE
  2
double-dashed_double-dotted
 70
   64
  3
-----   ---------   -   -   ----
 72
   65
 73
    8
 40
18.5
 49
6
 49
-1.5
 49
6
 49
-1.5
 49
0.25
 49
-1.5
 49
0.25
 49
-1.5
  0
LTYPE
  2
dashed_triplicate-dotted
 70
   64
  3
-------    -    -    -    ------
 72
   65
 73
    8
 40
12.75
 49
6
 49
-1.5
 49
0.25
 49
-1.5
 49
0.25
 49
-1.5
 49
0.25
 49
-1.5
  0
LTYPE
  2
double-dashed_triplicate-dotted
 70
   64
  3
-----  ---------  -  -  -  -----
 72
   65
 73
   10
 40
20.25
 49
6
 49
-1.5
 49
6
 49
-1.5
 49
0.25
 49
-1.5
 49
0.25
 49
-1.5
 49
0.25
 49
-1.5
  0
LTYPE
  2
undefined
 70
   64
  3
--------------------------------
 72
   65
 73
    0
 40
0
  0
LTYPE
  2
PLINE2
 70
   64
  3
------     -----------     -----
 72
   65
 73
    2
 40
3
 49
2.1000000000000001
 49
-0.9
  0
LTYPE
  2
PLINE3
 70
   64
  3
------------   ---   -----------
 72
   65
 73
    4
 40
10
 49
7
 49
-1
 49
1
 49
-1
  0
LTYPE
  2
PLINE4
 70
   64
  3
---------   ---   ---   --------
 72
   65
 73
    6
 40
10
 49
5
 49
-1
 49
1
 49
-1
 49
1
 49
-1
  0
LTYPE
  2
PLINE5
 70
   64
  3
------     -----------     -----
 72
   65
 73
    2
 40
5
 49
3.5
 49
-1.5
  0
LTYPE
  2
PLINE6
 70
   64
  3
------------   ---   -----------
 72
   65
 73
    4
 40
15
 49
10.5
 49
-1.5
 49
1.5
 49
-1.5
  0
LTYPE
  2
PLINE7
 70
   64
  3
---------   ---   ---   --------
 72
   65
 73
    6
 40
15
 49
7.5
 49
-1.5
 49
1.5
 49
-1.5
 49
1.5
 49
-1.5
  0
LTYPE
  2
PLINE8
 70
   64
  3
------     -----------     -----
 72
   65
 73
    2
 40
7
 49
4.9000000000000004
 49
-2.1000000000000001
  0
LTYPE
  2
PLINE9
 70
   64
  3
------------   ---   -----------
 72
   65
 73
    4
 40
20
 49
14
 49
-2
 49
2
 49
-2
  0
LTYPE
  2
PLINE10
 70
   64
  3
---------   ---   ---   --------
 72
   65
 73
    6
 40
20
 49
10
 49
-2
 49
2
 49
-2
 49
2
 49
-2
  0
LTYPE
  2
PLINE11
 70
   64
  3
------     -----------     -----
 72
   65
 73
    2
 40
9
 49
6.2999999999999989
 49
-2.7000000000000002
  0
LTYPE
  2
PLINE12
 70
   64
  3
------------   ---   -----------
 72
   65
 73
    4
 40
25
 49
17.5
 49
-2.5
 49
2.5
 49
-2.5
  0
LTYPE
  2
PLINE13
 70
   64
  3
---------   ---   ---   --------
 72
   65
 73
    6
 40
25
 49
12.5
 49
-2.5
 49
2.5
 49
-2.5
 49
2.5
 49
-2.5
  0
LTYPE
  2
PLINE14
 70
   64
  3
------     -----------     -----
 72
   65
 73
    2
 40
11
 49
7.7000000000000002
 49
-3.2999999999999989
  0
LTYPE
  2
PLINE15
 70
   64
  3
------------   ---   -----------
 72
   65
 73
    4
 40
30
 49
21
 49
-3
 49
3
 49
-3
  0
LTYPE
  2
PLINE16
 70
   64
  3
---------   ---   ---   --------
 72
   65
 73
    6
 40
30
 49
15
 49
-3
 49
3
 49
-3
 49
3
 49
-3
  0
ENDTAB
  0
TABLE
  2
STYLE
  5
3
100
AcDbSymbolTable
 70
     1
  0
STYLE
  5
10
100
AcDbSymbolTableRecord
100
AcDbTextStyleTableRecord
  2
STANDARD
 70
     0
 40
0.0
 41
1.0
 50
0.0
 71
     0
 42
0.2
  3
txt
  4
bigfont.shx
  0
STYLE
  5
26
100
AcDbSymbolTableRecord
100
AcDbTextStyleTableRecord
  2
TATEGAKI
 70
    68
 40
0.0
 41
1.0
 50
0.0
 71
     0
 42
1.0
  3
txt
  4
bigfont.shx
  0
ENDTAB
  0
TABLE
  2
LAYER
 70
    7
  0
LAYER
  2
_0-2_寸法
 70
   64
 62
    7
  6
CONTINUOUS
  0
LAYER
  2
_0-3_躯体
 70
   64
 62
    7
  6
CONTINUOUS
  0
LAYER
  2
_0-4_笠木
 70
   64
 62
    7
  6
CONTINUOUS
  0
LAYER
  2
_0-5_TG
 70
   64
 62
    7
  6
CONTINUOUS
  0
LAYER
  2
_0-6_受金具
 70
   64
 62
    7
  6
CONTINUOUS
  0
LAYER
  2
_0-7_パネル
 70
   64
 62
    7
  6
CONTINUOUS
  0
LAYER
  2
ADD_LINE
 70
   64
 62
    7
  6
CONTINUOUS
  0
ENDTAB
  0
ENDSEC
  0
SECTION
  2
BLOCKS
  0
BLOCK
  2
-000-_Dot
 70
   64
 10
0
 20
0
 30
0
  0
CIRCLE
  8
_0-0_0
  6
CONTINUOUS
 62
    7
 10
0
 20
0
 40
1
  0
LINE
  8
_0-0_0
  6
CONTINUOUS
 62
    7
 10
1
 20
0
 11
-1
 21
0
  0
LINE
  8
_0-0_0
  6
CONTINUOUS
 62
    7
 10
-2
 20
0
 11
-4
 21
0
  0
ENDBLK
  0
BLOCK
  2
-001-_D4
 70
   64
 10
0
 20
0
 30
0
  0
LINE
  8
_0-2_寸法
  6
CONTINUOUS
 62
    4
 10
2372.8285685796545
 20
-2749.1600751566298
 11
2302.8929546298014
 21
-2749.1600751566298
  0
LINE
  8
_0-2_寸法
  6
CONTINUOUS
 62
    4
 10
2372.8285685796545
 20
-2565.1600751566298
 11
2302.8929546298014
 21
-2565.1600751566298
  0
LINE
  8
_0-2_寸法
  6
CONTINUOUS
 62
    4
 10
2302.8929546298014
 20
-2745.1600751566298
 11
2302.8929546298014
 21
-2569.1600751566298
  0
INSERT
  2
-000-_Dot
  8
_0-2_寸法
 10
2302.8929546298014
 20
-2749.1600751566298
 41
1
 42
1
 50
270
  0
INSERT
  2
-000-_Dot
  8
_0-2_寸法
 10
2302.8929546298014
 20
-2565.1600751566298
 41
1
 42
1
 50
90
  0
TEXT
  8
_0-2_寸法
 62
    7
 10
2298.8929546298018
 20
-2668.0100751566297
 40
20
 41
1
 50
90
  1
46
  0
POINT
  8
_0-1_Defpoints
 62
    7
 10
2372.8285685796545
 20
-2749.1600751566298
  0
POINT
  8
_0-1_Defpoints
 62
    7
 10
2372.8285685796545
 20
-2565.1600751566298
  0
POINT
  8
_0-1_Defpoints
 62
    7
 10
2302.8929546298014
 20
-2565.1600751566298
  0
ENDBLK
  0
BLOCK
  2
-002-_D5
 70
   64
 10
0
 20
0
 30
0
  0
LINE
  8
_0-2_寸法
  6
CONTINUOUS
 62
    4
 10
2372.8285685796545
 20
-2565.1600751566298
 11
2302.8929546298014
 21
-2565.1600751566298
  0
LINE
  8
_0-2_寸法
  6
CONTINUOUS
 62
    4
 10
2372.8285685796545
 20
-2461.1600751566298
 11
2302.8929546298014
 21
-2461.1600751566298
  0
LINE
  8
_0-2_寸法
  6
CONTINUOUS
 62
    4
 10
2302.8929546298014
 20
-2561.1600751566298
 11
2302.8929546298014
 21
-2465.1600751566298
  0
INSERT
  2
-000-_Dot
  8
_0-2_寸法
 10
2302.8929546298014
 20
-2565.1600751566298
 41
1
 42
1
 50
270
  0
INSERT
  2
-000-_Dot
  8
_0-2_寸法
 10
2302.8929546298014
 20
-2461.1600751566298
 41
1
 42
1
 50
90
  0
TEXT
  8
_0-2_寸法
 62
    7
 10
2298.8929546298018
 20
-2524.0100751566297
 40
20
 41
1
 50
90
  1
26
  0
POINT
  8
_0-1_Defpoints
 62
    7
 10
2372.8285685796545
 20
-2565.1600751566298
  0
POINT
  8
_0-1_Defpoints
 62
    7
 10
2372.8285685796545
 20
-2461.1600751566298
  0
POINT
  8
_0-1_Defpoints
 62
    7
 10
2302.8929546298014
 20
-2461.1600751566298
  0
ENDBLK
  0
BLOCK
  2
-003-_D6
 70
   64
 10
0
 20
0
 30
0
  0
LINE
  8
_0-2_寸法
  6
CONTINUOUS
 62
    4
 10
2372.8285685796545
 20
-2461.1600751566298
 11
2242.8929546298014
 21
-2461.1600751566298
  0
LINE
  8
_0-2_寸法
  6
CONTINUOUS
 62
    4
 10
2372.8285685796545
 20
-2749.1600751566298
 11
2242.8929546298014
 21
-2749.1600751566298
  0
LINE
  8
_0-2_寸法
  6
CONTINUOUS
 62
    4
 10
2242.8929546298014
 20
-2465.1600751566298
 11
2242.8929546298014
 21
-2745.1600751566298
  0
INSERT
  2
-000-_Dot
  8
_0-2_寸法
 10
2242.8929546298014
 20
-2461.1600751566298
 41
1
 42
1
 50
90
  0
INSERT
  2
-000-_Dot
  8
_0-2_寸法
 10
2242.8929546298014
 20
-2749.1600751566298
 41
1
 42
1
 50
270
  0
TEXT
  8
_0-2_寸法
 62
    7
 10
2238.8929546298018
 20
-2616.0100751566297
 40
20
 41
1
 50
90
  1
72
  0
POINT
  8
_0-1_Defpoints
 62
    7
 10
2372.8285685796545
 20
-2461.1600751566298
  0
POINT
  8
_0-1_Defpoints
 62
    7
 10
2372.8285685796545
 20
-2749.1600751566298
  0
POINT
  8
_0-1_Defpoints
 62
    7
 10
2242.8929546298014
 20
-2749.1600751566298
  0
ENDBLK
  0
BLOCK
  2
-004-_D7
 70
   64
 10
0
 20
0
 30
0
  0
LINE
  8
_0-2_寸法
  6
CONTINUOUS
 62
    4
 10
2402.8929546298014
 20
-2430.1185728731466
 11
2402.8929546298014
 21
-2365.1600751566298
  0
LINE
  8
_0-2_寸法
  6
CONTINUOUS
 62
    4
 10
3202.8929546298018
 20
-2429.1600751566298
 11
3202.8929546298018
 21
-2365.1600751566298
  0
LINE
  8
_0-2_寸法
  6
CONTINUOUS
 62
    4
 10
2406.8929546298014
 20
-2365.1600751566298
 11
3198.8929546298014
 21
-2365.1600751566298
  0
INSERT
  2
-000-_Dot
  8
_0-2_寸法
 10
2402.8929546298014
 20
-2365.1600751566298
 41
1
 42
1
 50
180
  0
INSERT
  2
-000-_Dot
  8
_0-2_寸法
 10
3202.8929546298018
 20
-2365.1600751566298
 41
1
 42
1
 50
0
  0
TEXT
  8
_0-2_寸法
 62
    7
 10
2652.4929546298013
 20
-2361.1600751566298
 40
20
 41
1
 50
0
  1
笠木（トップライン）幅　Ｗ
  0
POINT
  8
_0-1_Defpoints
 62
    7
 10
2402.8929546298014
 20
-2430.1185728731466
  0
POINT
  8
_0-1_Defpoints
 62
    7
 10
3202.8929546298018
 20
-2429.1600751566298
  0
POINT
  8
_0-1_Defpoints
 62
    7
 10
3202.8929546298018
 20
-2365.1600751566298
  0
ENDBLK
  0
BLOCK
  2
-005-_D8
 70
   64
 10
0
 20
0
 30
0
  0
LINE
  8
_0-2_寸法
  6
CONTINUOUS
 62
    4
 10
3247.7580885804091
 20
-2509.1600751566298
 11
3362.8929546298009
 21
-2509.1600751566298
  0
LINE
  8
_0-2_寸法
  6
CONTINUOUS
 62
    4
 10
3247.7580885804091
 20
-2565.1600751566298
 11
3362.8929546298009
 21
-2565.1600751566298
  0
LINE
  8
_0-2_寸法
  6
CONTINUOUS
 62
    4
 10
3362.8929546298009
 20
-2513.1600751566298
 11
3362.8929546298009
 21
-2561.1600751566298
  0
INSERT
  2
-000-_Dot
  8
_0-2_寸法
 10
3362.8929546298009
 20
-2509.1600751566298
 41
1
 42
1
 50
90
  0
INSERT
  2
-000-_Dot
  8
_0-2_寸法
 10
3362.8929546298009
 20
-2565.1600751566298
 41
1
 42
1
 50
270
  0
TEXT
  8
_0-2_寸法
 62
    7
 10
3358.8929546298018
 20
-2548.0100751566292
 40
20
 41
1
 50
90
  1
14
  0
POINT
  8
_0-1_Defpoints
 62
    7
 10
3247.7580885804091
 20
-2509.1600751566298
  0
POINT
  8
_0-1_Defpoints
 62
    7
 10
3247.7580885804091
 20
-2565.1600751566298
  0
POINT
  8
_0-1_Defpoints
 62
    7
 10
3362.8929546298009
 20
-2565.1600751566298
  0
ENDBLK
  0
BLOCK
  2
-006-_D9
 70
   64
 10
0
 20
0
 30
0
  0
LINE
  8
_0-2_寸法
  6
CONTINUOUS
 62
    4
 10
3247.7580885804091
 20
-2565.1600751566298
 11
3362.8929546298009
 21
-2565.1600751566298
  0
LINE
  8
_0-2_寸法
  6
CONTINUOUS
 62
    4
 10
3247.7580885804091
 20
-2701.1600751566298
 11
3362.8929546298009
 21
-2701.1600751566298
  0
LINE
  8
_0-2_寸法
  6
CONTINUOUS
 62
    4
 10
3362.8929546298009
 20
-2569.1600751566298
 11
3362.8929546298009
 21
-2697.1600751566298
  0
INSERT
  2
-000-_Dot
  8
_0-2_寸法
 10
3362.8929546298009
 20
-2565.1600751566298
 41
1
 42
1
 50
90
  0
INSERT
  2
-000-_Dot
  8
_0-2_寸法
 10
3362.8929546298009
 20
-2701.1600751566298
 41
1
 42
1
 50
270
  0
TEXT
  8
_0-2_寸法
 62
    7
 10
3358.8929546298018
 20
-2644.0100751566292
 40
20
 41
1
 50
90
  1
34
  0
POINT
  8
_0-1_Defpoints
 62
    7
 10
3247.7580885804091
 20
-2565.1600751566298
  0
POINT
  8
_0-1_Defpoints
 62
    7
 10
3247.7580885804091
 20
-2701.1600751566298
  0
POINT
  8
_0-1_Defpoints
 62
    7
 10
3362.8929546298009
 20
-2701.1600751566298
  0
ENDBLK
  0
BLOCK
  2
-007-_D10
 70
   64
 10
0
 20
0
 30
0
  0
LINE
  8
_0-2_寸法
  6
CONTINUOUS
 62
    4
 10
3247.7580885804091
 20
-2701.1600751566298
 11
3362.8929546298009
 21
-2701.1600751566298
  0
LINE
  8
_0-2_寸法
  6
CONTINUOUS
 62
    4
 10
3247.7580885804091
 20
-2749.1600751566298
 11
3362.8929546298009
 21
-2749.1600751566298
  0
LINE
  8
_0-2_寸法
  6
CONTINUOUS
 62
    4
 10
3362.8929546298009
 20
-2705.1600751566298
 11
3362.8929546298009
 21
-2745.1600751566298
  0
INSERT
  2
-000-_Dot
  8
_0-2_寸法
 10
3362.8929546298009
 20
-2701.1600751566298
 41
1
 42
1
 50
90
  0
INSERT
  2
-000-_Dot
  8
_0-2_寸法
 10
3362.8929546298009
 20
-2749.1600751566298
 41
1
 42
1
 50
270
  0
TEXT
  8
_0-2_寸法
 62
    7
 10
3358.8929546298018
 20
-2736.0100751566292
 40
20
 41
1
 50
90
  1
12
  0
POINT
  8
_0-1_Defpoints
 62
    7
 10
3247.7580885804091
 20
-2701.1600751566298
  0
POINT
  8
_0-1_Defpoints
 62
    7
 10
3247.7580885804091
 20
-2749.1600751566298
  0
POINT
  8
_0-1_Defpoints
 62
    7
 10
3362.8929546298009
 20
-2749.1600751566298
  0
ENDBLK
  0
BLOCK
  2
-008-_D11
 70
   64
 10
0
 20
0
 30
0
  0
LINE
  8
_0-2_寸法
  6
CONTINUOUS
 62
    4
 10
3247.7580885804091
 20
-2749.1600751566298
 11
3362.8929546298009
 21
-2749.1600751566298
  0
LINE
  8
_0-2_寸法
  6
CONTINUOUS
 62
    4
 10
3247.7580885804091
 20
-3237.1598351566295
 11
3362.8929546298009
 21
-3237.1598351566295
  0
LINE
  8
_0-2_寸法
  6
CONTINUOUS
 62
    4
 10
3362.8929546298009
 20
-2753.1600751566298
 11
3362.8929546298009
 21
-3233.1598351566295
  0
INSERT
  2
-000-_Dot
  8
_0-2_寸法
 10
3362.8929546298009
 20
-2749.1600751566298
 41
1
 42
1
 50
90
  0
INSERT
  2
-000-_Dot
  8
_0-2_寸法
 10
3362.8929546298009
 20
-3237.1598351566295
 41
1
 42
1
 50
270
  0
TEXT
  8
_0-2_寸法
 62
    7
 10
3358.8929546298018
 20
-3038.2599551566291
 40
20
 41
1
 50
90
  1
開口寸法
  0
POINT
  8
_0-1_Defpoints
 62
    7
 10
3247.7580885804091
 20
-2749.1600751566298
  0
POINT
  8
_0-1_Defpoints
 62
    7
 10
3247.7580885804091
 20
-3237.1598351566295
  0
POINT
  8
_0-1_Defpoints
 62
    7
 10
3362.8929546298009
 20
-3237.1598351566295
  0
ENDBLK
  0
BLOCK
  2
-009-_D12
 70
   64
 10
0
 20
0
 30
0
  0
LINE
  8
_0-2_寸法
  6
CONTINUOUS
 62
    4
 10
3247.7580885804091
 20
-3237.1598351566295
 11
3362.8929546298009
 21
-3237.1598351566295
  0
LINE
  8
_0-2_寸法
  6
CONTINUOUS
 62
    4
 10
3247.7580885804091
 20
-3297.1595951566301
 11
3362.8929546298009
 21
-3297.1595951566301
  0
LINE
  8
_0-2_寸法
  6
CONTINUOUS
 62
    4
 10
3362.8929546298009
 20
-3241.1598351566295
 11
3362.8929546298009
 21
-3293.1595951566301
  0
INSERT
  2
-000-_Dot
  8
_0-2_寸法
 10
3362.8929546298009
 20
-3237.1598351566295
 41
1
 42
1
 50
90
  0
INSERT
  2
-000-_Dot
  8
_0-2_寸法
 10
3362.8929546298009
 20
-3297.1595951566301
 41
1
 42
1
 50
270
  0
TEXT
  8
_0-2_寸法
 62
    7
 10
3358.8929546298018
 20
-3278.0097151566292
 40
20
 41
1
 50
90
  1
15
  0
POINT
  8
_0-1_Defpoints
 62
    7
 10
3247.7580885804091
 20
-3237.1598351566295
  0
POINT
  8
_0-1_Defpoints
 62
    7
 10
3247.7580885804091
 20
-3297.1595951566301
  0
POINT
  8
_0-1_Defpoints
 62
    7
 10
3362.8929546298009
 20
-3297.1595951566301
  0
ENDBLK
  0
BLOCK
  2
-010-_D13
 70
   64
 10
0
 20
0
 30
0
  0
LINE
  8
_0-2_寸法
  6
CONTINUOUS
 62
    4
 10
3349.1499946298013
 20
-3365.1600751566302
 11
3422.8929546298014
 21
-3365.1600751566302
  0
LINE
  8
_0-2_寸法
  6
CONTINUOUS
 62
    4
 10
3247.7580885804091
 20
-3297.1595951566301
 11
3422.8929546298014
 21
-3297.1595951566301
  0
LINE
  8
_0-2_寸法
  6
CONTINUOUS
 62
    4
 10
3422.8929546298014
 20
-3361.1600751566298
 11
3422.8929546298014
 21
-3301.1595951566296
  0
INSERT
  2
-000-_Dot
  8
_0-2_寸法
 10
3422.8929546298014
 20
-3365.1600751566302
 41
1
 42
1
 50
270
  0
INSERT
  2
-000-_Dot
  8
_0-2_寸法
 10
3422.8929546298014
 20
-3297.1595951566301
 41
1
 42
1
 50
90
  0
TEXT
  8
_0-2_寸法
 62
    7
 10
3418.8929546298023
 20
-3342.0098351566289
 40
20
 41
1
 50
90
  1
17
  0
POINT
  8
_0-1_Defpoints
 62
    7
 10
3349.1499946298013
 20
-3365.1600751566302
  0
POINT
  8
_0-1_Defpoints
 62
    7
 10
3247.7580885804091
 20
-3297.1595951566301
  0
POINT
  8
_0-1_Defpoints
 62
    7
 10
3422.8929546298014
 20
-3297.1595951566301
  0
ENDBLK
  0
BLOCK
  2
-011-_D14
 70
   64
 10
0
 20
0
 30
0
  0
LINE
  8
_0-2_寸法
  6
CONTINUOUS
 62
    4
 10
3247.7580885804091
 20
-3297.1595951566301
 11
3422.8929546298014
 21
-3297.1595951566301
  0
LINE
  8
_0-2_寸法
  6
CONTINUOUS
 62
    4
 10
3247.7580885804091
 20
-2701.1600751566298
 11
3422.8929546298018
 21
-2701.1600751566298
  0
LINE
  8
_0-2_寸法
  6
CONTINUOUS
 62
    4
 10
3422.8929546298014
 20
-3293.1595951566301
 11
3422.8929546298018
 21
-2705.1600751566298
  0
INSERT
  2
-000-_Dot
  8
_0-2_寸法
 10
3422.8929546298014
 20
-3297.1595951566301
 41
1
 42
1
 50
270
  0
INSERT
  2
-000-_Dot
  8
_0-2_寸法
 10
3422.8929546298018
 20
-2701.1600751566298
 41
1
 42
1
 50
90
  0
TEXT
  8
_0-2_寸法
 62
    7
 10
3418.8929546298023
 20
-3067.659835156629
 40
20
 41
1
 50
90
  1
ボートＨ寸法
  0
POINT
  8
_0-1_Defpoints
 62
    7
 10
3247.7580885804091
 20
-3297.1595951566301
  0
POINT
  8
_0-1_Defpoints
 62
    7
 10
3247.7580885804091
 20
-2701.1600751566298
  0
POINT
  8
_0-1_Defpoints
 62
    7
 10
3422.8929546298018
 20
-2701.1600751566298
  0
ENDBLK
  0
BLOCK
  2
-012-_D15
 70
   64
 10
0
 20
0
 30
0
  0
LINE
  8
_0-2_寸法
  6
CONTINUOUS
 62
    4
 10
3247.7580885804091
 20
-2565.1600751566298
 11
3482.8929546298018
 21
-2565.1600751566298
  0
LINE
  8
_0-2_寸法
  6
CONTINUOUS
 62
    4
 10
3349.1499946298013
 20
-3365.1600751566302
 11
3482.8929546298014
 21
-3365.1600751566302
  0
LINE
  8
_0-2_寸法
  6
CONTINUOUS
 62
    4
 10
3482.8929546298018
 20
-2569.1600751566298
 11
3482.8929546298014
 21
-3361.1600751566298
  0
INSERT
  2
-000-_Dot
  8
_0-2_寸法
 10
3482.8929546298018
 20
-2565.1600751566298
 41
1
 42
1
 50
90
  0
INSERT
  2
-000-_Dot
  8
_0-2_寸法
 10
3482.8929546298014
 20
-3365.1600751566302
 41
1
 42
1
 50
270
  0
TEXT
  8
_0-2_寸法
 62
    7
 10
3478.8929546298018
 20
-2975.1600751566293
 40
20
 41
1
 50
90
  1
Ｈ
  0
POINT
  8
_0-1_Defpoints
 62
    7
 10
3247.7580885804091
 20
-2565.1600751566298
  0
POINT
  8
_0-1_Defpoints
 62
    7
 10
3349.1499946298013
 20
-3365.1600751566302
  0
POINT
  8
_0-1_Defpoints
 62
    7
 10
3482.8929546298014
 20
-3365.1600751566302
  0
ENDBLK
  0
BLOCK
  2
-013-_D16
 70
   64
 10
0
 20
0
 30
0
  0
LINE
  8
_0-2_寸法
  6
CONTINUOUS
 62
    4
 10
2402.8929546298014
 20
-2757.1600751566302
 11
2402.8929546298014
 21
-2865.1600751566298
  0
LINE
  8
_0-2_寸法
  6
CONTINUOUS
 62
    4
 10
2482.8929546298014
 20
-2757.1600751566302
 11
2482.8929546298014
 21
-2865.1600751566298
  0
LINE
  8
_0-2_寸法
  6
CONTINUOUS
 62
    4
 10
2398.8929546298014
 20
-2865.1600751566298
 11
2394.8929546298014
 21
-2865.1600751566298
  0
LINE
  8
_0-2_寸法
  6
CONTINUOUS
 62
    4
 10
2486.8929546298014
 20
-2865.1600751566298
 11
2490.8929546298014
 21
-2865.1600751566298
  0
INSERT
  2
-000-_Dot
  8
_0-2_寸法
 10
2402.8929546298014
 20
-2865.1600751566298
 41
1
 42
1
 50
0
  0
INSERT
  2
-000-_Dot
  8
_0-2_寸法
 10
2482.8929546298014
 20
-2865.1600751566298
 41
1
 42
1
 50
180
  0
TEXT
  8
_0-2_寸法
 62
    7
 10
2396.9429546298015
 20
-2861.1600751566298
 40
20
 41
1
 50
0
  1
12.5～20
  0
POINT
  8
_0-1_Defpoints
 62
    7
 10
2402.8929546298014
 20
-2757.1600751566302
  0
POINT
  8
_0-1_Defpoints
 62
    7
 10
2482.8929546298014
 20
-2757.1600751566302
  0
POINT
  8
_0-1_Defpoints
 62
    7
 10
2482.8929546298014
 20
-2865.1600751566298
  0
ENDBLK
  0
BLOCK
  2
-014-_D17
 70
   64
 10
0
 20
0
 30
0
  0
LINE
  8
_0-2_寸法
  6
CONTINUOUS
 62
    4
 10
2482.8929546298014
 20
-2757.1600751566302
 11
2482.8929546298014
 21
-2865.1600751566298
  0
LINE
  8
_0-2_寸法
  6
CONTINUOUS
 62
    4
 10
2922.8929546298014
 20
-2767.7378883910424
 11
2922.8929546298014
 21
-2865.1600751566298
  0
LINE
  8
_0-2_寸法
  6
CONTINUOUS
 62
    4
 10
2486.8929546298014
 20
-2865.1600751566298
 11
2918.8929546298014
 21
-2865.1600751566298
  0
INSERT
  2
-000-_Dot
  8
_0-2_寸法
 10
2482.8929546298014
 20
-2865.1600751566298
 41
1
 42
1
 50
180
  0
INSERT
  2
-000-_Dot
  8
_0-2_寸法
 10
2922.8929546298014
 20
-2865.1600751566298
 41
1
 42
1
 50
0
  0
TEXT
  8
_0-2_寸法
 62
    7
 10
2669.4929546298013
 20
-2861.1600751566298
 40
20
 41
1
 50
0
  1
躯体幅
  0
POINT
  8
_0-1_Defpoints
 62
    7
 10
2482.8929546298014
 20
-2757.1600751566302
  0
POINT
  8
_0-1_Defpoints
 62
    7
 10
2922.8929546298014
 20
-2767.7378883910424
  0
POINT
  8
_0-1_Defpoints
 62
    7
 10
2922.8929546298014
 20
-2865.1600751566298
  0
ENDBLK
  0
BLOCK
  2
-015-_D18
 70
   64
 10
0
 20
0
 30
0
  0
LINE
  8
_0-2_寸法
  6
CONTINUOUS
 62
    4
 10
2922.8929546298014
 20
-2767.7378883910424
 11
2922.8929546298014
 21
-2865.1600751566298
  0
LINE
  8
_0-2_寸法
  6
CONTINUOUS
 62
    4
 10
3082.8929546298014
 20
-2739.96007515663
 11
3082.8929546298014
 21
-2865.1600751566298
  0
LINE
  8
_0-2_寸法
  6
CONTINUOUS
 62
    4
 10
2926.8929546298014
 20
-2865.1600751566298
 11
3078.8929546298014
 21
-2865.1600751566298
  0
INSERT
  2
-000-_Dot
  8
_0-2_寸法
 10
2922.8929546298014
 20
-2865.1600751566298
 41
1
 42
1
 50
180
  0
INSERT
  2
-000-_Dot
  8
_0-2_寸法
 10
3082.8929546298014
 20
-2865.1600751566298
 41
1
 42
1
 50
0
  0
TEXT
  8
_0-2_寸法
 62
    7
 10
2957.7929546298014
 20
-2861.1600751566298
 40
20
 41
1
 50
0
  1
４０以上
  0
POINT
  8
_0-1_Defpoints
 62
    7
 10
2922.8929546298014
 20
-2767.7378883910424
  0
POINT
  8
_0-1_Defpoints
 62
    7
 10
3082.8929546298014
 20
-2739.96007515663
  0
POINT
  8
_0-1_Defpoints
 62
    7
 10
3082.8929546298014
 20
-2865.1600751566298
  0
ENDBLK
  0
BLOCK
  2
-016-_D19
 70
   64
 10
0
 20
0
 30
0
  0
LINE
  8
_0-2_寸法
  6
CONTINUOUS
 62
    4
 10
3082.8929546298014
 20
-2762.6317406762023
 11
3082.8929546298014
 21
-2865.1600751566298
  0
LINE
  8
_0-2_寸法
  6
CONTINUOUS
 62
    4
 10
3142.8929546298014
 20
-2763.4100652381708
 11
3142.8929546298014
 21
-2865.1600751566298
  0
LINE
  8
_0-2_寸法
  6
CONTINUOUS
 62
    4
 10
3086.8929546298014
 20
-2865.1600751566298
 11
3138.8929546298014
 21
-2865.1600751566298
  0
INSERT
  2
-000-_Dot
  8
_0-2_寸法
 10
3082.8929546298014
 20
-2865.1600751566298
 41
1
 42
1
 50
180
  0
INSERT
  2
-000-_Dot
  8
_0-2_寸法
 10
3142.8929546298014
 20
-2865.1600751566298
 41
1
 42
1
 50
0
  0
TEXT
  8
_0-2_寸法
 62
    7
 10
3102.0429546298014
 20
-2861.1600751566298
 40
20
 41
1
 50
0
  1
15
  0
POINT
  8
_0-1_Defpoints
 62
    7
 10
3082.8929546298014
 20
-2762.6317406762023
  0
POINT
  8
_0-1_Defpoints
 62
    7
 10
3142.8929546298014
 20
-2763.4100652381708
  0
POINT
  8
_0-1_Defpoints
 62
    7
 10
3142.8929546298014
 20
-2865.1600751566298
  0
ENDBLK
  0
BLOCK
  2
-017-_D20
 70
   64
 10
0
 20
0
 30
0
  0
LINE
  8
_0-2_寸法
  6
CONTINUOUS
 62
    4
 10
3142.8929546298014
 20
-2701.1600751566298
 11
3142.8929546298014
 21
-2865.1600751566298
  0
LINE
  8
_0-2_寸法
  6
CONTINUOUS
 62
    4
 10
3202.8929546298018
 20
-2757.1600751566302
 11
3202.8929546298018
 21
-2865.1600751566298
  0
LINE
  8
_0-2_寸法
  6
CONTINUOUS
 62
    4
 10
3146.8929546298014
 20
-2865.1600751566298
 11
3198.8929546298014
 21
-2865.1600751566298
  0
INSERT
  2
-000-_Dot
  8
_0-2_寸法
 10
3142.8929546298014
 20
-2865.1600751566298
 41
1
 42
1
 50
180
  0
INSERT
  2
-000-_Dot
  8
_0-2_寸法
 10
3202.8929546298018
 20
-2865.1600751566298
 41
1
 42
1
 50
0
  0
TEXT
  8
_0-2_寸法
 62
    7
 10
3162.0429546298014
 20
-2861.1600751566298
 40
20
 41
1
 50
0
  1
15
  0
POINT
  8
_0-1_Defpoints
 62
    7
 10
3142.8929546298014
 20
-2701.1600751566298
  0
POINT
  8
_0-1_Defpoints
 62
    7
 10
3202.8929546298018
 20
-2757.1600751566302
  0
POINT
  8
_0-1_Defpoints
 62
    7
 10
3202.8929546298018
 20
-2865.1600751566298
  0
ENDBLK
  0
BLOCK
  2
-018-_D21
 70
   64
 10
0
 20
0
 30
0
  0
LINE
  8
_0-2_寸法
  6
CONTINUOUS
 62
    4
 10
2922.8929546298014
 20
-2865.1600751566298
 11
2922.8929546298014
 21
-2925.1600751566302
  0
LINE
  8
_0-2_寸法
  6
CONTINUOUS
 62
    4
 10
3202.8929546298018
 20
-2865.1600751566298
 11
3202.8929546298018
 21
-2925.1600751566302
  0
LINE
  8
_0-2_寸法
  6
CONTINUOUS
 62
    4
 10
2926.8929546298014
 20
-2925.1600751566302
 11
3198.8929546298014
 21
-2925.1600751566302
  0
INSERT
  2
-000-_Dot
  8
_0-2_寸法
 10
2922.8929546298014
 20
-2925.1600751566302
 41
1
 42
1
 50
180
  0
INSERT
  2
-000-_Dot
  8
_0-2_寸法
 10
3202.8929546298018
 20
-2925.1600751566302
 41
1
 42
1
 50
0
  0
TEXT
  8
_0-2_寸法
 62
    7
 10
3017.7929546298014
 20
-2921.1600751566298
 40
20
 41
1
 50
0
  1
７０以上
  0
POINT
  8
_0-1_Defpoints
 62
    7
 10
2922.8929546298014
 20
-2865.1600751566298
  0
POINT
  8
_0-1_Defpoints
 62
    7
 10
3202.8929546298018
 20
-2865.1600751566298
  0
POINT
  8
_0-1_Defpoints
 62
    7
 10
3202.8929546298018
 20
-2925.1600751566302
  0
ENDBLK
  0
BLOCK
  2
-019-_D22
 70
   64
 10
0
 20
0
 30
0
  0
LINE
  8
_0-2_寸法
  6
CONTINUOUS
 62
    4
 10
2922.8929546298014
 20
-3556.3513567553814
 11
2922.8929546298014
 21
-3605.1600591566298
  0
LINE
  8
_0-2_寸法
  6
CONTINUOUS
 62
    4
 10
3112.8929546298014
 20
-3556.3513567553814
 11
3112.8929546298014
 21
-3605.1600591566298
  0
LINE
  8
_0-2_寸法
  6
CONTINUOUS
 62
    4
 10
2926.8929546298014
 20
-3605.1600591566298
 11
3108.8929546298014
 21
-3605.1600591566298
  0
INSERT
  2
-000-_Dot
  8
_0-2_寸法
 10
2922.8929546298014
 20
-3605.1600591566298
 41
1
 42
1
 50
180
  0
INSERT
  2
-000-_Dot
  8
_0-2_寸法
 10
3112.8929546298014
 20
-3605.1600591566298
 41
1
 42
1
 50
0
  0
TEXT
  8
_0-2_寸法
 62
    7
 10
2949.3929546298014
 20
-3601.1600591566298
 40
20
 41
1
 50
0
  1
４７．５以上
  0
POINT
  8
_0-1_Defpoints
 62
    7
 10
2922.8929546298014
 20
-3556.3513567553814
  0
POINT
  8
_0-1_Defpoints
 62
    7
 10
3112.8929546298014
 20
-3556.3513567553814
  0
POINT
  8
_0-1_Defpoints
 62
    7
 10
3112.8929546298014
 20
-3605.1600591566298
  0
ENDBLK
  0
ENDSEC
  0
SECTION
  2
ENTITIES
  0
LINE
  8
_0-3_躯体
  6
CONTINUOUS
 62
    4
 10
332.54999999999995
 20
396.24999800000012
 11
431.11395999999979
 21
396.24999800000012
  0
LINE
  8
_0-3_躯体
  6
CONTINUOUS
 62
    4
 10
333.14999999999975
 20
397.74999800000012
 11
431.73527999999988
 21
397.74999800000012
  0
LINE
  8
_0-6_受金具
  6
CONTINUOUS
 62
    4
 10
354.3138399999998
 20
404.24999800000012
 11
407.74999999999989
 21
404.24999800000012
  0
LINE
  8
_0-3_躯体
  6
CONTINUOUS
 62
    4
 10
331.3499999999998
 20
393.24999800000012
 11
429.87131999999986
 21
393.24999800000012
  0
LINE
  8
_0-3_躯体
  6
CONTINUOUS
 62
    4
 10
429.24999999999989
 20
391.74999800000012
 11
330.74999999999989
 21
391.74999800000012
  0
LINE
  8
_0-3_躯体
  6
CONTINUOUS
 62
    4
 10
331.94999999999993
 20
394.74999800000012
 11
430.49263999999982
 21
394.74999800000012
  0
LINE
  8
_0-3_躯体
  6
CONTINUOUS
 62
    3
 10
328.24999999999989
 20
191.8405180000002
 11
430.74999999999989
 21
294.34051799999997
  0
LINE
  8
_0-3_躯体
  6
CONTINUOUS
 62
    3
 10
328.24999999999989
 20
194.66893800000003
 11
430.74999999999989
 21
297.16893800000003
  0
LINE
  8
_0-3_躯体
  6
CONTINUOUS
 62
    3
 10
328.24999999999989
 20
197.49735800000019
 11
430.74999999999989
 21
299.99735800000019
  0
LINE
  8
_0-4_笠木
  6
CONTINUOUS
 62
    4
 10
328.24999999999989
 20
422.24999800000001
 11
506.25249999999971
 21
413.34985800000004
  0
LINE
  8
_0-4_笠木
  6
CONTINUOUS
 62
    4
 10
503.39981999999986
 20
411.48999800000001
 11
327.32273999999995
 21
420.29385800000011
  0
LINE
  8
_0-6_受金具
  6
CONTINUOUS
 62
    4
 10
494.3311799999999
 20
399.24999800000012
 11
322.10907999999995
 21
399.24999800000012
  0
LINE
  8
_0-3_躯体
  6
CONTINUOUS
 62
    4
 10
328.24999999999989
 20
152.50279400000011
 11
328.24999999999989
 21
389.24999800000012
  0
LINE
  8
_0-6_受金具
  6
CONTINUOUS
 62
    4
 10
382.7521999999999
 20
405.24999800000001
 11
382.7521999999999
 21
404.24999800000012
  0
LINE
  8
_0-6_受金具
  6
CONTINUOUS
 62
    4
 10
362.7521999999999
 20
405.24999800000001
 11
362.7521999999999
 21
404.24999800000012
  0
LINE
  8
_0-6_受金具
  6
CONTINUOUS
 62
    4
 10
341.8499999999998
 20
415.08615800000018
 11
341.8499999999998
 21
403.1861580000002
  0
LINE
  8
_0-6_受金具
  6
CONTINUOUS
 62
    4
 10
338.84999999999991
 20
403.1861580000002
 11
338.84999999999991
 21
415.08615800000018
  0
LINE
  8
_0-4_笠木
  6
CONTINUOUS
 62
    4
 10
308.24999999999989
 20
353.74999800000012
 11
308.24999999999989
 21
423.24999800000012
  0
LINE
  8
_0-4_笠木
  6
CONTINUOUS
 62
    4
 10
310.24999999999989
 20
419.99373800000012
 11
310.24999999999989
 21
363.24999800000012
  0
LINE
  8
_0-3_躯体
  6
CONTINUOUS
 62
    4
 10
328.24999999999989
 20
389.24999800000012
 11
330.74999999999989
 21
391.74999800000012
  0
LINE
  8
_0-3_躯体
  6
CONTINUOUS
 62
    3
 10
328.24999999999989
 20
333.26187800000002
 11
386.73813999999982
 21
391.74999800000012
  0
LINE
  8
_0-3_躯体
  6
CONTINUOUS
 62
    3
 10
383.90969999999993
 20
391.74999800000012
 11
328.24999999999989
 21
336.09029800000019
  0
LINE
  8
_0-3_躯体
  6
CONTINUOUS
 62
    3
 10
328.24999999999989
 20
338.91871800000013
 11
381.08127999999988
 21
391.74999800000012
  0
LINE
  8
_0-6_受金具
  6
CONTINUOUS
 62
    4
 10
321.3700399999999
 20
403.1861580000002
 11
338.84999999999991
 21
403.1861580000002
  0
LINE
  8
_0-4_笠木
  6
CONTINUOUS
 62
    4
 10
310.24999999999989
 20
353.74999800000012
 11
310.24999999999989
 21
360.24999800000012
  0
ARC
  8
_0-4_笠木
  6
CONTINUOUS
 62
    4
 10
309.74999999999989
 20
353.74999800000012
 40
0.5
 50
270
 51
0
  0
ARC
  8
_0-4_笠木
  6
CONTINUOUS
 62
    4
 10
308.74999999999989
 20
353.74999800000012
 40
0.5
 50
180
 51
270
  0
LINE
  8
_0-4_笠木
  6
CONTINUOUS
 62
    4
 10
308.74999999999989
 20
353.24999800000012
 11
309.74999999999989
 21
353.24999800000012
  0
LINE
  8
_0-6_受金具
  6
CONTINUOUS
 62
    4
 10
319.65519999999992
 20
397.22797800000012
 11
313.07511999999986
 21
363.44753800000012
  0
LINE
  8
_0-6_受金具
  6
CONTINUOUS
 62
    4
 10
316.46227999999974
 20
399.14213800000016
 11
310.24999999999989
 21
367.24999800000012
  0
ARC
  8
_0-4_笠木
  6
CONTINUOUS
 62
    4
 10
312.74999999999989
 20
362.62469800000008
 40
1.5
 50
287.7408600000021
 51
0
  0
ARC
  8
_0-4_笠木
  6
CONTINUOUS
 62
    4
 10
313.74999999999989
 20
362.99351799999999
 40
0.5
 50
0
 51
93.99999999999649
  0
LINE
  8
_0-4_笠木
  6
CONTINUOUS
 62
    4
 10
313.20707999999979
 20
361.19603800000004
 11
310.24999999999989
 21
360.24999800000012
  0
LINE
  8
_0-4_笠木
  6
CONTINUOUS
 62
    4
 10
313.71511999999973
 20
363.49229800000012
 11
310.24999999999989
 21
363.24999800000012
  0
LINE
  8
_0-4_笠木
  6
CONTINUOUS
 62
    4
 10
314.24999999999989
 20
362.62469800000008
 11
314.24999999999989
 21
362.99351799999999
  0
ARC
  8
_0-6_受金具
  6
CONTINUOUS
 62
    4
 10
322.10907999999995
 20
396.74999800000001
 40
2.5
 50
90
 51
168.9773899999966
  0
ARC
  8
_0-6_受金具
  6
CONTINUOUS
 62
    4
 10
321.3700399999999
 20
398.18615800000009
 40
5
 50
90
 51
168.9773899999966
  0
LINE
  8
_0-6_受金具
  6
CONTINUOUS
 62
    4
 10
362.7521999999999
 20
404.24999800000012
 11
382.7521999999999
 21
404.24999800000012
  0
LINE
  8
_0-6_受金具
  6
CONTINUOUS
 62
    4
 10
341.8499999999998
 20
403.1861580000002
 11
353.24999999999989
 21
403.1861580000002
  0
LINE
  8
_0-3_躯体
  6
CONTINUOUS
 62
    4
 10
333.74999999999989
 20
399.24999800000012
 11
330.74999999999989
 21
391.74999800000012
  0
LINE
  8
_0-6_受金具
  6
CONTINUOUS
 62
    4
 10
353.24999999999989
 20
403.1861580000002
 11
354.3138399999998
 21
404.24999800000012
  0
LINE
  8
_0-4_笠木
  6
CONTINUOUS
 62
    4
 10
313.39981999999986
 20
422.98999800000001
 11
325.42747999999983
 21
422.38861799999995
  0
LINE
  8
_0-4_笠木
  6
CONTINUOUS
 62
    4
 10
310.24751999999989
 20
425.15011800000002
 11
326.35473999999988
 21
424.34475799999996
  0
ARC
  8
_0-4_笠木
  6
CONTINUOUS
 62
    4
 10
313.24999999999989
 20
419.99373800000012
 40
3
 50
87.13759500000215
 51
180
  0
LINE
  8
_0-4_笠木
  6
CONTINUOUS
 62
    4
 10
308.24999999999989
 20
423.24999800000012
 11
310.24751999999989
 21
425.15011800000002
  0
LINE
  8
_0-4_笠木
  6
CONTINUOUS
 62
    4
 10
325.42747999999983
 20
422.38861799999995
 11
327.32273999999995
 21
420.29385800000011
  0
LINE
  8
_0-4_笠木
  6
CONTINUOUS
 62
    4
 10
326.35473999999988
 20
424.34475799999996
 11
328.24999999999989
 21
422.24999800000001
  0
LINE
  8
_0-6_受金具
  6
CONTINUOUS
 62
    4
 10
382.7521999999999
 20
405.24999800000001
 11
362.7521999999999
 21
405.24999800000001
  0
LINE
  8
_0-6_受金具
  6
CONTINUOUS
 62
    4
 10
346.3499999999998
 20
419.34249800000009
 11
346.3499999999998
 21
416.35547800000029
  0
LINE
  8
_0-6_受金具
  6
CONTINUOUS
 62
    4
 10
334.3499999999998
 20
416.35547800000029
 11
334.3499999999998
 21
419.94249800000011
  0
ARC
  8
_0-6_受金具
  6
CONTINUOUS
 62
    4
 10
340.3499999999998
 20
392.08615800000007
 40
25
 50
76.11345999999979
 51
103.88654000000018
  0
LINE
  8
_0-6_受金具
  6
CONTINUOUS
 62
    4
 10
334.3499999999998
 20
415.08615800000018
 11
338.84999999999991
 21
415.08615800000018
  0
LINE
  8
_0-6_受金具
  6
CONTINUOUS
 62
    4
 10
334.3499999999998
 20
416.35547800000029
 11
334.3499999999998
 21
415.08615800000018
  0
LINE
  8
_0-6_受金具
  6
CONTINUOUS
 62
    4
 10
341.8499999999998
 20
415.08615800000018
 11
346.3499999999998
 21
415.08615800000018
  0
LINE
  8
_0-6_受金具
  6
CONTINUOUS
 62
    4
 10
346.3499999999998
 20
416.35547800000029
 11
346.3499999999998
 21
415.08615800000018
  0
ARC
  8
_0-6_受金具
  6
CONTINUOUS
 62
    4
 10
372.7521999999999
 20
403.24999800000012
 40
5.25
 50
50.690629000000563
 51
129.3031299999958
  0
ARC
  8
_0-6_受金具
  6
CONTINUOUS
 62
    4
 10
371.24301999999989
 20
405.08385800000019
 40
2.875
 50
129.17951000000113
 51
176.68724999999841
  0
LINE
  8
_0-6_受金具
  6
CONTINUOUS
 62
    4
 10
372.1271999999999
 20
407.83213800000021
 11
373.3771999999999
 21
407.83213800000021
  0
ARC
  8
_0-6_受金具
  6
CONTINUOUS
 62
    4
 10
371.6271999999999
 20
407.86483800000019
 40
0.5
 50
0
 51
103.7002300000009
  0
ARC
  8
_0-6_受金具
  6
CONTINUOUS
 62
    4
 10
373.8771999999999
 20
407.86483800000019
 40
0.5
 50
76.299767000001523
 51
180
  0
ARC
  8
_0-6_受金具
  6
CONTINUOUS
 62
    4
 10
374.25677999999994
 20
405.08761800000002
 40
2.875
 50
3.2378370000027248
 51
50.690875999999889
  0
LINE
  8
_0-5_TG
  6
CONTINUOUS
 62
    4
 10
493.8499999999998
 20
216.25005800000019
 11
493.8499999999998
 21
219.75005800000019
  0
LINE
  8
_0-5_TG
  6
CONTINUOUS
 62
    4
 10
477.8499999999998
 20
219.75005800000019
 11
477.8499999999998
 21
216.25005800000019
  0
LINE
  8
_0-5_TG
  6
CONTINUOUS
 62
    4
 10
495.64999999999986
 20
204.55005800000004
 11
495.64999999999986
 21
230.95005800000013
  0
LINE
  8
_0-5_TG
  6
CONTINUOUS
 62
    4
 10
476.04999999999984
 20
243.95005800000013
 11
476.04999999999984
 21
204.55005800000004
  0
LINE
  8
_0-3_躯体
  6
CONTINUOUS
 62
    4
 10
430.74999999999989
 20
159.25000200000011
 11
430.74999999999989
 21
390.24999800000012
  0
LINE
  8
_0-3_躯体
  6
CONTINUOUS
 62
    4
 10
432.24999999999989
 20
159.25000200000011
 11
432.24999999999989
 21
390.87131800000009
  0
LINE
  8
_0-3_躯体
  6
CONTINUOUS
 62
    4
 10
433.74999999999989
 20
160.75000200000011
 11
433.74999999999989
 21
391.49263800000017
  0
LINE
  8
_0-3_躯体
  6
CONTINUOUS
 62
    4
 10
435.24999999999989
 20
157.75000200000011
 11
435.24999999999989
 21
392.11395800000014
  0
LINE
  8
_0-3_躯体
  6
CONTINUOUS
 62
    4
 10
436.74999999999989
 20
159.25000200000011
 11
436.74999999999989
 21
392.73527800000011
  0
LINE
  8
_0-3_躯体
  6
CONTINUOUS
 62
    4
 10
438.24999999999989
 20
159.25000200000011
 11
438.24999999999989
 21
393.35659800000019
  0
LINE
  8
_0-3_躯体
  6
CONTINUOUS
 62
    4
 10
438.24999999999989
 20
199.24999800000001
 11
542.81425999999988
 21
199.24999800000001
  0
LINE
  8
_0-3_躯体
  6
CONTINUOUS
 62
    3
 10
448.24999999999989
 20
176.0760200000002
 11
471.42397999999991
 21
199.24999800000001
  0
LINE
  8
_0-3_躯体
  6
CONTINUOUS
 62
    3
 10
448.24999999999989
 20
173.24759200000005
 11
474.2524199999998
 21
199.24999800000001
  0
LINE
  8
_0-3_躯体
  6
CONTINUOUS
 62
    3
 10
448.24999999999989
 20
170.41916600000002
 11
477.08083999999985
 21
199.24999800000001
  0
LINE
  8
_0-3_躯体
  6
CONTINUOUS
 62
    3
 10
438.24999999999989
 20
172.27943800000014
 11
448.24999999999989
 21
182.27943800000003
  0
LINE
  8
_0-3_躯体
  6
CONTINUOUS
 62
    3
 10
448.24999999999989
 20
170.96573000000001
 11
438.24999999999989
 21
180.96573000000001
  0
LINE
  8
_0-3_躯体
  6
CONTINUOUS
 62
    3
 10
438.24999999999989
 20
169.45101200000011
 11
448.24999999999989
 21
179.45101200000011
  0
LINE
  8
_0-3_躯体
  6
CONTINUOUS
 62
    3
 10
438.24999999999989
 20
166.62258400000007
 11
448.24999999999989
 21
176.62258400000007
  0
LINE
  8
_0-3_躯体
  6
CONTINUOUS
 62
    3
 10
438.24999999999989
 20
163.79415800000015
 11
448.24999999999989
 21
173.79415800000004
  0
LINE
  8
_0-3_躯体
  6
CONTINUOUS
 62
    3
 10
448.24999999999989
 20
168.1373040000002
 11
438.24999999999989
 21
178.1373040000002
  0
LINE
  8
_0-3_躯体
  6
CONTINUOUS
 62
    3
 10
448.24999999999989
 20
165.30887600000005
 11
438.24999999999989
 21
175.30887600000005
  0
LINE
  8
_0-3_躯体
  6
CONTINUOUS
 62
    3
 10
448.24999999999989
 20
159.25000200000011
 11
448.24999999999989
 21
199.24999800000001
  0
LINE
  8
_0-3_躯体
  6
CONTINUOUS
 62
    3
 10
445.82359999999983
 20
159.25000200000011
 11
438.24999999999989
 21
166.82359400000007
  0
LINE
  8
_0-3_躯体
  6
CONTINUOUS
 62
    3
 10
439.3626999999999
 20
159.25000200000011
 11
448.24999999999989
 21
168.1373040000002
  0
LINE
  8
_0-3_躯体
  6
CONTINUOUS
 62
    3
 10
442.1911399999999
 20
159.25000200000011
 11
448.24999999999989
 21
165.30887600000005
  0
LINE
  8
_0-3_躯体
  6
CONTINUOUS
 62
    3
 10
445.01955999999996
 20
159.25000200000011
 11
448.24999999999989
 21
162.48044800000014
  0
LINE
  8
_0-3_躯体
  6
CONTINUOUS
 62
    3
 10
448.24999999999989
 20
159.65202200000022
 11
438.24999999999989
 21
169.65202200000022
  0
LINE
  8
_0-3_躯体
  6
CONTINUOUS
 62
    3
 10
438.24999999999989
 20
160.96573000000001
 11
448.24999999999989
 21
170.96573000000001
  0
LINE
  8
_0-3_躯体
  6
CONTINUOUS
 62
    3
 10
448.24999999999989
 20
162.48044800000014
 11
438.24999999999989
 21
172.48044800000002
  0
LINE
  8
_0-3_躯体
  6
CONTINUOUS
 62
    4
 10
433.49999999999989
 20
159.25000200000011
 11
433.49999999999989
 21
161.25000200000011
  0
LINE
  8
_0-3_躯体
  6
CONTINUOUS
 62
    3
 10
442.99517999999989
 20
159.25000200000011
 11
438.24999999999989
 21
163.99516800000004
  0
LINE
  8
_0-3_躯体
  6
CONTINUOUS
 62
    4
 10
433.49999999999989
 20
161.25000200000011
 11
435.49999999999989
 21
157.25000200000011
  0
LINE
  8
_0-3_躯体
  6
CONTINUOUS
 62
    4
 10
435.49999999999989
 20
159.25000200000011
 11
439.49999999999989
 21
159.25000200000011
  0
LINE
  8
_0-3_躯体
  6
CONTINUOUS
 62
    4
 10
429.49999999999989
 20
159.25000200000011
 11
433.49999999999989
 21
159.25000200000011
  0
LINE
  8
_0-3_躯体
  6
CONTINUOUS
 62
    4
 10
435.49999999999989
 20
157.25000200000011
 11
435.49999999999989
 21
159.25000200000011
  0
LINE
  8
_0-3_躯体
  6
CONTINUOUS
 62
    3
 10
440.16673999999989
 20
159.25000200000011
 11
438.24999999999989
 21
161.16674000000012
  0
LINE
  8
_0-3_躯体
  6
CONTINUOUS
 62
    3
 10
447.84797999999989
 20
159.25000200000011
 11
448.24999999999989
 21
159.65202200000022
  0
LINE
  8
_0-3_躯体
  6
CONTINUOUS
 62
    3
 10
438.24999999999989
 20
194.90401800000006
 11
442.59597999999983
 21
199.24999800000001
  0
LINE
  8
_0-3_躯体
  6
CONTINUOUS
 62
    3
 10
448.24999999999989
 20
193.59313800000007
 11
442.5931599999999
 21
199.24999800000001
  0
LINE
  8
_0-3_躯体
  6
CONTINUOUS
 62
    4
 10
448.24999999999989
 20
185.44283800000017
 11
448.24999999999989
 21
199.24999800000001
  0
LINE
  8
_0-3_躯体
  6
CONTINUOUS
 62
    3
 10
438.24999999999989
 20
186.42157400000008
 11
448.24999999999989
 21
196.42155800000012
  0
LINE
  8
_0-3_躯体
  6
CONTINUOUS
 62
    3
 10
438.24999999999989
 20
189.24801800000012
 11
448.24999999999989
 21
199.24789800000008
  0
LINE
  8
_0-3_躯体
  6
CONTINUOUS
 62
    3
 10
438.24999999999989
 20
192.07699800000012
 11
445.42299999999989
 21
199.24999800000001
  0
LINE
  8
_0-3_躯体
  6
CONTINUOUS
 62
    3
 10
448.24999999999989
 20
190.76471800000013
 11
439.7647199999999
 21
199.24999800000001
  0
LINE
  8
_0-3_躯体
  6
CONTINUOUS
 62
    3
 10
448.24999999999989
 20
187.93629200000021
 11
438.24999999999989
 21
197.93627800000002
  0
LINE
  8
_0-3_躯体
  6
CONTINUOUS
 62
    3
 10
438.24999999999989
 20
175.10786600000006
 11
448.24999999999989
 21
185.10786600000006
  0
LINE
  8
_0-3_躯体
  6
CONTINUOUS
 62
    3
 10
438.24999999999989
 20
177.93629200000021
 11
448.24999999999989
 21
187.93629200000021
  0
LINE
  8
_0-3_躯体
  6
CONTINUOUS
 62
    3
 10
438.24999999999989
 20
180.76472000000012
 11
448.24999999999989
 21
190.76471800000013
  0
LINE
  8
_0-3_躯体
  6
CONTINUOUS
 62
    3
 10
448.24999999999989
 20
182.27943800000003
 11
438.24999999999989
 21
192.27943800000003
  0
LINE
  8
_0-3_躯体
  6
CONTINUOUS
 62
    3
 10
448.24999999999989
 20
179.45101200000011
 11
438.24999999999989
 21
189.45099800000003
  0
LINE
  8
_0-3_躯体
  6
CONTINUOUS
 62
    3
 10
448.24999999999989
 20
176.62258400000007
 11
438.24999999999989
 21
186.62258400000019
  0
LINE
  8
_0-3_躯体
  6
CONTINUOUS
 62
    3
 10
448.24999999999989
 20
173.79415800000004
 11
438.24999999999989
 21
183.79415800000004
  0
LINE
  8
_0-3_躯体
  6
CONTINUOUS
 62
    3
 10
438.24999999999989
 20
183.59314800000004
 11
448.24999999999989
 21
193.59313800000007
  0
LINE
  8
_0-3_躯体
  6
CONTINUOUS
 62
    3
 10
448.24999999999989
 20
185.10786600000006
 11
438.24999999999989
 21
195.10785800000008
  0
LINE
  8
_0-3_躯体
  6
CONTINUOUS
 62
    3
 10
438.24999999999989
 20
197.73103800000001
 11
439.76895999999988
 21
199.24999800000001
  0
LINE
  8
_0-3_躯体
  6
CONTINUOUS
 62
    3
 10
448.24999999999989
 20
199.24789800000008
 11
448.24791999999979
 21
199.24999800000001
  0
LINE
  8
_0-3_躯体
  6
CONTINUOUS
 62
    3
 10
448.24999999999989
 20
196.42155800000012
 11
445.42157999999995
 21
199.24999800000001
  0
LINE
  8
_0-5_TG
  6
DASHED1
 62
    3
 10
490.73491999999987
 20
174.45647600000007
 11
490.8395999999999
 21
172.4592160000002
  0
LINE
  8
_0-5_TG
  6
DASHED1
 62
    3
 10
480.96509999999989
 20
174.45647600000007
 11
480.86041999999986
 21
172.4592160000002
  0
LINE
  8
_0-5_TG
  6
DASHED1
 62
    3
 10
483.72759999999971
 20
160.29248600000017
 11
485.3499999999998
 21
191.24999800000012
  0
LINE
  8
_0-5_TG
  6
DASHED1
 62
    3
 10
487.97241999999983
 20
160.29248600000017
 11
486.3499999999998
 21
191.24999800000012
  0
LINE
  8
_0-2_寸法
  6
CENTER1
 62
    3
 10
485.8499999999998
 20
154.25000200000011
 11
485.8499999999998
 21
218.24999800000012
  0
LINE
  8
_0-5_TG
  6
DASHED1
 62
    3
 10
491.36295999999982
 20
162.47292000000004
 11
489.47035999999991
 21
160.37099000000012
  0
LINE
  8
_0-5_TG
  6
DASHED1
 62
    3
 10
480.33705999999995
 20
162.47292000000004
 11
482.2296399999999
 21
160.37099000000012
  0
LINE
  8
_0-5_TG
  6
DASHED1
 62
    3
 10
482.2296399999999
 20
160.37099000000012
 11
483.72759999999971
 21
160.29248600000017
  0
LINE
  8
_0-5_TG
  6
DASHED1
 62
    3
 10
489.47035999999991
 20
160.37099000000012
 11
487.97241999999983
 21
160.29248600000017
  0
LINE
  8
_0-5_TG
  6
DASHED1
 62
    3
 10
485.7906999999999
 20
163.30930800000021
 11
487.72439999999972
 21
165.02497800000003
  0
LINE
  8
_0-5_TG
  6
DASHED1
 62
    3
 10
480.59873999999979
 20
167.46606800000006
 11
482.54365999999993
 21
166.36276600000008
  0
LINE
  8
_0-5_TG
  6
DASHED1
 62
    3
 10
483.83225999999979
 20
162.28974400000004
 11
480.33705999999995
 21
162.47292000000004
  0
LINE
  8
_0-5_TG
  6
DASHED1
 62
    3
 10
482.43899999999974
 20
164.3655080000002
 11
480.44173999999987
 21
164.47017999999991
  0
LINE
  8
_0-5_TG
  6
DASHED1
 62
    3
 10
480.44173999999987
 20
164.47017999999991
 11
480.33705999999995
 21
162.47292000000004
  0
LINE
  8
_0-5_TG
  6
DASHED1
 62
    3
 10
482.54365999999993
 20
166.36276600000008
 11
482.43899999999974
 21
164.3655080000002
  0
LINE
  8
_0-5_TG
  6
DASHED1
 62
    3
 10
483.98055999999997
 20
165.11944600000004
 11
485.8499999999998
 21
163.25000200000011
  0
LINE
  8
_0-5_TG
  6
DASHED1
 62
    3
 10
480.86041999999986
 20
172.4592160000002
 11
482.80533999999989
 21
171.3559140000001
  0
LINE
  8
_0-5_TG
  6
DASHED1
 62
    3
 10
482.70067999999992
 20
169.35865600000011
 11
480.70341999999982
 21
169.46332800000016
  0
LINE
  8
_0-5_TG
  6
DASHED1
 62
    3
 10
480.70341999999982
 20
169.46332800000016
 11
480.59873999999979
 21
167.46606800000006
  0
LINE
  8
_0-5_TG
  6
DASHED1
 62
    3
 10
482.80533999999989
 20
171.3559140000001
 11
482.70067999999992
 21
169.35865600000011
  0
LINE
  8
_0-5_TG
  6
DASHED1
 62
    3
 10
491.10127999999997
 20
167.46606800000006
 11
489.15635999999995
 21
166.36276600000008
  0
LINE
  8
_0-5_TG
  6
DASHED1
 62
    3
 10
489.2610199999998
 20
164.3655080000002
 11
491.2582799999999
 21
164.47017999999991
  0
LINE
  8
_0-5_TG
  6
DASHED1
 62
    3
 10
487.86775999999998
 20
162.28974400000004
 11
491.36295999999982
 21
162.47292000000004
  0
LINE
  8
_0-5_TG
  6
DASHED1
 62
    3
 10
489.15635999999995
 20
166.36276600000008
 11
489.2610199999998
 21
164.3655080000002
  0
LINE
  8
_0-5_TG
  6
DASHED1
 62
    3
 10
491.2582799999999
 20
164.47017999999991
 11
491.36295999999982
 21
162.47292000000004
  0
LINE
  8
_0-5_TG
  6
DASHED1
 62
    3
 10
490.8395999999999
 20
172.4592160000002
 11
488.89467999999999
 21
171.3559140000001
  0
LINE
  8
_0-5_TG
  6
DASHED1
 62
    3
 10
488.99933999999996
 20
169.35865600000011
 11
490.99659999999972
 21
169.46332800000016
  0
LINE
  8
_0-5_TG
  6
DASHED1
 62
    3
 10
488.89467999999999
 20
171.3559140000001
 11
488.99933999999996
 21
169.35865600000011
  0
LINE
  8
_0-5_TG
  6
DASHED1
 62
    3
 10
490.99659999999972
 20
169.46332800000016
 11
491.10127999999997
 21
167.46606800000006
  0
LINE
  8
_0-5_TG
  6
CONTINUOUS
 62
    4
 10
494.0842399999998
 20
204.25005800000019
 11
495.3499999999998
 21
204.25005800000019
  0
LINE
  8
_0-5_TG
  6
DASHED1
 62
    3
 10
490.8499999999998
 20
199.24999800000001
 11
489.8499999999998
 21
194.24999800000023
  0
LINE
  8
_0-5_TG
  6
DASHED1
 62
    3
 10
485.8499999999998
 20
194.24999800000023
 11
485.8499999999998
 21
199.24999800000001
  0
LINE
  8
_0-5_TG
  6
DASHED1
 62
    3
 10
486.8499999999998
 20
199.24999800000001
 11
485.8499999999998
 21
194.24999800000023
  0
LINE
  8
_0-5_TG
  6
DASHED1
 62
    3
 10
484.84999999999991
 20
199.24999800000001
 11
485.8499999999998
 21
194.24999800000023
  0
LINE
  8
_0-5_TG
  6
DASHED1
 62
    3
 10
480.84999999999991
 20
199.24999800000001
 11
481.8499999999998
 21
194.24999800000023
  0
LINE
  8
_0-5_TG
  6
DASHED1
 62
    3
 10
489.8499999999998
 20
199.24999800000001
 11
489.8499999999998
 21
191.24999800000012
  0
LINE
  8
_0-5_TG
  6
DASHED1
 62
    3
 10
481.8499999999998
 20
199.24999800000001
 11
481.8499999999998
 21
191.24999800000012
  0
LINE
  8
_0-5_TG
  6
DASHED1
 62
    3
 10
491.26859999999988
 20
184.10760200000004
 11
492.26095999999984
 21
190.91121800000008
  0
LINE
  8
_0-5_TG
  6
DASHED1
 62
    3
 10
491.26859999999988
 20
184.10760200000004
 11
492.26095999999984
 21
190.91121800000008
  0
LINE
  8
_0-5_TG
  6
DASHED1
 62
    3
 10
490.32047999999998
 20
182.36458200000004
 11
490.21155999999996
 21
184.44277000000022
  0
LINE
  8
_0-5_TG
  6
DASHED1
 62
    3
 10
488.1096399999999
 20
186.33535800000016
 11
488.21429999999987
 21
184.33809800000006
  0
LINE
  8
_0-5_TG
  6
DASHED1
 62
    3
 10
481.4884599999998
 20
184.44277000000022
 11
481.38378
 21
182.44551200000012
  0
LINE
  8
_0-5_TG
  6
DASHED1
 62
    3
 10
483.59037999999998
 20
186.33535800000016
 11
483.4857199999999
 21
184.33809800000006
  0
LINE
  8
_0-5_TG
  6
DASHED1
 62
    3
 10
483.4857199999999
 20
184.33809800000006
 11
481.4884599999998
 21
184.44277000000022
  0
LINE
  8
_0-5_TG
  6
DASHED1
 62
    3
 10
488.21429999999987
 20
184.33809800000006
 11
490.21155999999996
 21
184.44277000000022
  0
LINE
  8
_0-5_TG
  6
DASHED1
 62
    3
 10
489.40905999999984
 20
179.44962200000009
 11
491.2289199999999
 21
184.4496220000002
  0
LINE
  8
_0-5_TG
  6
DASHED1
 62
    3
 10
482.29095999999981
 20
179.44962200000009
 11
480.47109999999975
 21
184.4496220000002
  0
LINE
  8
_0-5_TG
  6
DASHED1
 62
    3
 10
479.53139999999985
 20
184.10760200000004
 11
478.53905999999995
 21
190.91121800000008
  0
LINE
  8
_0-5_TG
  6
DASHED1
 62
    3
 10
481.22677999999996
 20
179.44962200000009
 11
481.1220999999997
 21
177.45236400000022
  0
LINE
  8
_0-5_TG
  6
DASHED1
 62
    3
 10
481.1220999999997
 20
177.45236400000022
 11
483.06701999999973
 21
176.34906200000023
  0
LINE
  8
_0-5_TG
  6
DASHED1
 62
    3
 10
482.96235999999988
 20
174.35180400000013
 11
480.96509999999989
 21
174.45647600000007
  0
LINE
  8
_0-5_TG
  6
DASHED1
 62
    3
 10
483.06701999999973
 20
176.34906200000023
 11
482.96235999999988
 21
174.35180400000013
  0
LINE
  8
_0-5_TG
  6
DASHED1
 62
    3
 10
483.22403999999995
 20
179.34495000000004
 11
481.22677999999996
 21
179.44962200000009
  0
LINE
  8
_0-5_TG
  6
DASHED1
 62
    3
 10
481.38378
 20
182.44551200000012
 11
483.3286999999998
 21
181.34220999999991
  0
LINE
  8
_0-5_TG
  6
DASHED1
 62
    3
 10
481.22677999999996
 20
179.44962200000009
 11
479.53139999999985
 21
184.10760200000004
  0
LINE
  8
_0-5_TG
  6
DASHED1
 62
    3
 10
483.3286999999998
 20
181.34220999999991
 11
483.22403999999995
 21
179.34495000000004
  0
LINE
  8
_0-5_TG
  6
DASHED1
 62
    3
 10
490.47323999999981
 20
179.44962200000009
 11
490.57791999999984
 21
177.45236400000022
  0
LINE
  8
_0-5_TG
  6
DASHED1
 62
    3
 10
490.57791999999984
 20
177.45236400000022
 11
488.63299999999981
 21
176.34906200000023
  0
LINE
  8
_0-5_TG
  6
DASHED1
 62
    3
 10
488.73765999999989
 20
174.35180400000013
 11
490.73491999999987
 21
174.45647600000007
  0
LINE
  8
_0-5_TG
  6
DASHED1
 62
    3
 10
488.63299999999981
 20
176.34906200000023
 11
488.73765999999989
 21
174.35180400000013
  0
LINE
  8
_0-5_TG
  6
DASHED1
 62
    3
 10
488.47597999999982
 20
179.34495000000004
 11
490.47323999999981
 21
179.44962200000009
  0
LINE
  8
_0-5_TG
  6
DASHED1
 62
    3
 10
488.37131999999986
 20
181.34220999999991
 11
488.47597999999982
 21
179.34495000000004
  0
LINE
  8
_0-5_TG
  6
DASHED1
 62
    3
 10
490.12707999999998
 20
182.26294800000016
 11
488.38671999999974
 21
181.3483040000001
  0
LINE
  8
_0-5_TG
  6
DASHED1
 62
    3
 10
488.38671999999974
 20
181.3483040000001
 11
490.32047999999998
 21
182.36458200000004
  0
LINE
  8
_0-5_TG
  6
DASHED1
 62
    3
 10
490.47323999999981
 20
179.44962200000009
 11
492.16859999999974
 21
184.10760200000004
  0
LINE
  8
_0-5_TG
  6
DASHED1
 62
    3
 10
486.3499999999998
 20
191.24999800000012
 11
485.8499999999998
 21
191.24999800000012
  0
LINE
  8
_0-5_TG
  6
DASHED1
 62
    3
 10
481.8499999999998
 20
187.25000200000011
 11
481.8499999999998
 21
191.24999800000012
  0
LINE
  8
_0-5_TG
  6
DASHED1
 62
    3
 10
479.52765999999997
 20
191.05363800000021
 11
480.47109999999975
 21
184.4496220000002
  0
LINE
  8
_0-5_TG
  6
DASHED1
 62
    3
 10
481.8499999999998
 20
187.25000200000011
 11
483.59037999999998
 21
186.33535800000016
  0
ARC
  8
_0-5_TG
  6
DASHED1
 62
    3
 10
478.93485999999984
 20
190.96893800000021
 40
0.4
 50
98.130101999998274
 51
188.29845999999864
  0
LINE
  8
_0-5_TG
  6
DASHED1
 62
    3
 10
478.87829999999985
 20
191.36491800000022
 11
479.07511999999986
 21
191.39303800000016
  0
ARC
  8
_0-5_TG
  6
DASHED1
 62
    3
 10
479.13167999999996
 20
190.99705800000004
 40
0.4
 50
8.1301019999982547
 51
98.13010199999826
  0
LINE
  8
_0-5_TG
  6
DASHED1
 62
    3
 10
485.3499999999998
 20
191.24999800000012
 11
485.8499999999998
 21
191.24999800000012
  0
LINE
  8
_0-5_TG
  6
DASHED1
 62
    3
 10
489.8499999999998
 20
187.25000200000011
 11
489.8499999999998
 21
191.24999800000012
  0
LINE
  8
_0-5_TG
  6
DASHED1
 62
    3
 10
492.17233999999985
 20
191.05363800000021
 11
491.2289199999999
 21
184.4496220000002
  0
LINE
  8
_0-5_TG
  6
DASHED1
 62
    3
 10
492.17233999999985
 20
191.05363800000021
 11
491.2289199999999
 21
184.4496220000002
  0
LINE
  8
_0-5_TG
  6
DASHED1
 62
    3
 10
489.8499999999998
 20
187.25000200000011
 11
488.1096399999999
 21
186.33535800000016
  0
ARC
  8
_0-5_TG
  6
DASHED1
 62
    3
 10
491.86515999999995
 20
190.96893800000021
 40
0.4
 50
351.70152999999942
 51
81.869898000001754
  0
LINE
  8
_0-5_TG
  6
DASHED1
 62
    3
 10
491.92171999999982
 20
191.36491800000022
 11
491.72489999999971
 21
191.39303800000016
  0
ARC
  8
_0-5_TG
  6
DASHED1
 62
    3
 10
492.56831999999986
 20
190.99705800000004
 40
0.4
 50
81.869898000001754
 51
171.869889999999
  0
ARC
  8
_0-5_TG
  6
DASHED1
 62
    3
 10
491.86515999999995
 20
190.96893800000021
 40
0.4
 50
351.70152999999942
 51
81.869898000001754
  0
LINE
  8
_0-5_TG
  6
DASHED1
 62
    3
 10
491.92171999999982
 20
191.36491800000022
 11
491.72489999999971
 21
191.39303800000016
  0
ARC
  8
_0-5_TG
  6
DASHED1
 62
    3
 10
492.56831999999986
 20
190.99705800000004
 40
0.4
 50
81.869898000001754
 51
171.869889999999
  0
LINE
  8
_0-5_TG
  6
CONTINUOUS
 62
    4
 10
477.8499999999998
 20
208.75005800000019
 11
478.29999999999984
 21
208.75005800000019
  0
LINE
  8
_0-5_TG
  6
CONTINUOUS
 62
    4
 10
478.09999999999991
 20
200.74999800000012
 11
473.39999999999986
 21
200.74999800000012
  0
LINE
  8
_0-5_TG
  6
CONTINUOUS
 62
    4
 10
473.39999999999986
 20
199.24999800000001
 11
479.79999999999973
 21
199.24999800000001
  0
LINE
  8
_0-5_TG
  6
CONTINUOUS
 62
    4
 10
478.59999999999991
 20
207.25005800000019
 11
477.90681999999981
 21
204.47729800000002
  0
LINE
  8
_0-5_TG
  6
CONTINUOUS
 62
    4
 10
477.8499999999998
 20
214.25005800000019
 11
493.8499999999998
 21
214.25005800000019
  0
LINE
  8
_0-5_TG
  6
CONTINUOUS
 62
    4
 10
477.8499999999998
 20
216.25005800000019
 11
485.54999999999973
 21
216.25005800000019
  0
ARC
  8
_0-5_TG
  6
CONTINUOUS
 62
    4
 10
473.39999999999986
 20
199.54999800000019
 40
0.2999999999999999
 50
180
 51
270
  0
LINE
  8
_0-5_TG
  6
CONTINUOUS
 62
    4
 10
473.0999999999998
 20
200.44999799999994
 11
473.0999999999998
 21
199.54999800000019
  0
ARC
  8
_0-5_TG
  6
CONTINUOUS
 62
    4
 10
473.39999999999986
 20
200.44999799999994
 40
0.2999999999999999
 50
90
 51
180
  0
ARC
  8
_0-5_TG
  6
CONTINUOUS
 62
    4
 10
476.34999999999991
 20
204.55005800000004
 40
0.2999999999999999
 50
180
 51
270
  0
ARC
  8
_0-5_TG
  6
CONTINUOUS
 62
    4
 10
477.61577999999997
 20
204.55005800000004
 40
0.2999999999999999
 50
270
 51
345.96374999999779
  0
LINE
  8
_0-5_TG
  6
CONTINUOUS
 62
    4
 10
476.34999999999991
 20
204.25005800000019
 11
477.61577999999997
 21
204.25005800000019
  0
LINE
  8
_0-5_TG
  6
CONTINUOUS
 62
    4
 10
477.8499999999998
 20
214.25005800000019
 11
477.8499999999998
 21
208.75005800000019
  0
LINE
  8
_0-5_TG
  6
CONTINUOUS
 62
    4
 10
493.0999999999998
 20
207.25005800000019
 11
493.0999999999998
 21
208.45005800000013
  0
ARC
  8
_0-5_TG
  6
CONTINUOUS
 62
    4
 10
483.8499999999998
 20
205.24999800000001
 40
2
 50
90
 51
180
  0
ARC
  8
_0-5_TG
  6
CONTINUOUS
 62
    4
 10
487.8499999999998
 20
205.24999800000001
 40
2
 50
0
 51
90
  0
LINE
  8
_0-5_TG
  6
CONTINUOUS
 62
    4
 10
493.0999999999998
 20
209.24999800000012
 11
493.0999999999998
 21
204.24999800000012
  0
LINE
  8
_0-5_TG
  6
CONTINUOUS
 62
    4
 10
491.5999999999998
 20
204.24999800000012
 11
491.5999999999998
 21
213.94999800000016
  0
LINE
  8
_0-5_TG
  6
CONTINUOUS
 62
    4
 10
478.59999999999991
 20
207.25005800000019
 11
478.59999999999991
 21
208.45005800000013
  0
LINE
  8
_0-5_TG
  6
CONTINUOUS
 62
    4
 10
480.0999999999998
 20
204.24999800000012
 11
480.0999999999998
 21
213.94999800000016
  0
LINE
  8
_0-5_TG
  6
CONTINUOUS
 62
    4
 10
478.59999999999991
 20
209.24999800000012
 11
478.59999999999991
 21
204.24999800000012
  0
LINE
  8
_0-5_TG
  6
CONTINUOUS
 62
    4
 10
483.8499999999998
 20
207.24999800000001
 11
487.8499999999998
 21
207.24999800000001
  0
LINE
  8
_0-5_TG
  6
CONTINUOUS
 62
    4
 10
480.5999999999998
 20
202.44999800000016
 11
491.09999999999991
 21
202.44999800000016
  0
LINE
  8
_0-5_TG
  6
CONTINUOUS
 62
    4
 10
480.0999999999998
 20
204.24999800000012
 11
491.5999999999998
 21
204.24999800000012
  0
LINE
  8
_0-5_TG
  6
CONTINUOUS
 62
    3
 10
483.54999999999984
 20
202.44999800000016
 11
483.54999999999984
 21
199.24999800000001
  0
LINE
  8
_0-5_TG
  6
CONTINUOUS
 62
    4
 10
480.0999999999998
 20
201.94999800000005
 11
480.0999999999998
 21
199.54999800000019
  0
LINE
  8
_0-5_TG
  6
CONTINUOUS
 62
    4
 10
478.09999999999991
 20
200.74999800000012
 11
478.09999999999991
 21
203.94999800000005
  0
ARC
  8
_0-5_TG
  6
CONTINUOUS
 62
    4
 10
479.79999999999973
 20
199.54999800000019
 40
0.2999999999999999
 50
270
 51
0
  0
LINE
  8
_0-5_TG
  6
CONTINUOUS
 62
    4
 10
481.8499999999998
 20
205.24999800000001
 11
481.8499999999998
 21
204.24999800000012
  0
ARC
  8
_0-5_TG
  6
CONTINUOUS
 62
    4
 10
478.39999999999986
 20
203.94999800000005
 40
0.2999999999999999
 50
90
 51
180
  0
LINE
  8
_0-5_TG
  6
CONTINUOUS
 62
    4
 10
478.59999999999991
 20
204.24999800000012
 11
478.39999999999986
 21
204.24999800000012
  0
ARC
  8
_0-5_TG
  6
CONTINUOUS
 62
    4
 10
480.5999999999998
 20
201.94999800000005
 40
0.5
 50
90
 51
180
  0
LINE
  8
_0-5_TG
  6
CONTINUOUS
 62
    4
 10
485.54999999999973
 20
204.24999800000012
 11
485.8499999999998
 21
203.94999800000005
  0
LINE
  8
_0-5_TG
  6
CONTINUOUS
 62
    4
 10
485.8499999999998
 20
203.94999800000005
 11
486.14999999999986
 21
204.24999800000012
  0
LINE
  8
_0-5_TG
  6
CONTINUOUS
 62
    4
 10
493.5999999999998
 20
199.54999800000019
 11
493.5999999999998
 21
203.94999800000005
  0
LINE
  8
_0-5_TG
  6
CONTINUOUS
 62
    4
 10
491.5999999999998
 20
201.94999800000005
 11
491.5999999999998
 21
199.54999800000019
  0
LINE
  8
_0-5_TG
  6
CONTINUOUS
 62
    3
 10
487.8499999999998
 20
199.24999800000001
 11
487.8499999999998
 21
202.44999800000016
  0
ARC
  8
_0-5_TG
  6
CONTINUOUS
 62
    4
 10
491.89999999999986
 20
199.54999800000019
 40
0.2999999999999999
 50
180
 51
270
  0
ARC
  8
_0-5_TG
  6
CONTINUOUS
 62
    4
 10
493.29999999999984
 20
199.54999800000019
 40
0.2999999999999999
 50
270
 51
0
  0
LINE
  8
_0-5_TG
  6
CONTINUOUS
 62
    4
 10
491.89999999999986
 20
199.24999800000001
 11
493.29999999999984
 21
199.24999800000001
  0
LINE
  8
_0-5_TG
  6
CONTINUOUS
 62
    4
 10
489.8499999999998
 20
205.24999800000001
 11
489.8499999999998
 21
204.24999800000012
  0
ARC
  8
_0-5_TG
  6
CONTINUOUS
 62
    4
 10
493.29999999999984
 20
203.94999800000005
 40
0.2999999999999999
 50
0
 51
90
  0
LINE
  8
_0-5_TG
  6
CONTINUOUS
 62
    4
 10
493.0999999999998
 20
204.24999800000012
 11
493.29999999999984
 21
204.24999800000012
  0
ARC
  8
_0-5_TG
  6
CONTINUOUS
 62
    4
 10
491.09999999999991
 20
201.94999800000005
 40
0.5
 50
0
 51
90
  0
ARC
  8
_0-5_TG
  6
CONTINUOUS
 62
    4
 10
494.0842399999998
 20
204.55005800000004
 40
0.2999999999999999
 50
194.03623999999911
 51
270
  0
LINE
  8
_0-5_TG
  6
CONTINUOUS
 62
    4
 10
493.0999999999998
 20
207.25005800000019
 11
493.79319999999973
 21
204.47729800000002
  0
LINE
  8
_0-5_TG
  6
CONTINUOUS
 62
    4
 10
486.14999999999986
 20
216.25005800000019
 11
493.8499999999998
 21
216.25005800000019
  0
LINE
  8
_0-5_TG
  6
CONTINUOUS
 62
    4
 10
478.09999999999991
 20
212.24999800000012
 11
478.54319999999973
 21
214.02275800000007
  0
LINE
  8
_0-5_TG
  6
CONTINUOUS
 62
    4
 10
478.09999999999991
 20
212.24999800000012
 11
478.09999999999991
 21
209.54999800000007
  0
ARC
  8
_0-5_TG
  6
CONTINUOUS
 62
    4
 10
478.39999999999986
 20
209.54999800000007
 40
0.2999999999999999
 50
180
 51
270
  0
LINE
  8
_0-5_TG
  6
CONTINUOUS
 62
    4
 10
478.59999999999991
 20
209.24999800000012
 11
478.39999999999986
 21
209.24999800000012
  0
ARC
  8
_0-5_TG
  6
CONTINUOUS
 62
    4
 10
478.29999999999984
 20
208.45005800000013
 40
0.2999999999999999
 50
0
 51
90
  0
ARC
  8
_0-5_TG
  6
CONTINUOUS
 62
    4
 10
478.8342399999998
 20
213.94999800000016
 40
0.2999999999999999
 50
90
 51
165.96374999999779
  0
LINE
  8
_0-5_TG
  6
CONTINUOUS
 62
    4
 10
478.8342399999998
 20
214.24999800000001
 11
479.79999999999973
 21
214.24999800000001
  0
ARC
  8
_0-5_TG
  6
CONTINUOUS
 62
    4
 10
479.79999999999973
 20
213.94999800000016
 40
0.2999999999999999
 50
0
 51
90
  0
LINE
  8
_0-5_TG
  6
CONTINUOUS
 62
    4
 10
478.14999999999986
 20
214.25005800000019
 11
480.14999999999986
 21
214.25005800000019
  0
LINE
  8
_0-5_TG
  6
CONTINUOUS
 62
    4
 10
483.3499999999998
 20
216.25005800000019
 11
483.3499999999998
 21
214.25005800000019
  0
LINE
  8
_0-5_TG
  6
CONTINUOUS
 62
    4
 10
485.54999999999973
 20
216.25005800000019
 11
485.8499999999998
 21
215.95005800000001
  0
LINE
  8
_0-5_TG
  6
CONTINUOUS
 62
    4
 10
485.8499999999998
 20
215.95005800000001
 11
486.14999999999986
 21
216.25005800000019
  0
LINE
  8
_0-5_TG
  6
CONTINUOUS
 62
    4
 10
493.5999999999998
 20
212.24999800000012
 11
493.15681999999981
 21
214.02275800000007
  0
LINE
  8
_0-5_TG
  6
CONTINUOUS
 62
    4
 10
493.8499999999998
 20
214.25005800000019
 11
493.8499999999998
 21
208.75005800000019
  0
LINE
  8
_0-5_TG
  6
CONTINUOUS
 62
    4
 10
493.5999999999998
 20
212.24999800000012
 11
493.5999999999998
 21
209.54999800000007
  0
ARC
  8
_0-5_TG
  6
CONTINUOUS
 62
    4
 10
493.29999999999984
 20
209.54999800000007
 40
0.2999999999999999
 50
270
 51
0
  0
LINE
  8
_0-5_TG
  6
CONTINUOUS
 62
    4
 10
493.0999999999998
 20
209.24999800000012
 11
493.29999999999984
 21
209.24999800000012
  0
ARC
  8
_0-5_TG
  6
CONTINUOUS
 62
    4
 10
493.39999999999975
 20
208.45005800000013
 40
0.2999999999999999
 50
90
 51
180
  0
LINE
  8
_0-5_TG
  6
CONTINUOUS
 62
    4
 10
493.8499999999998
 20
208.75005800000019
 11
493.39999999999975
 21
208.75005800000019
  0
LINE
  8
_0-5_TG
  6
CONTINUOUS
 62
    4
 10
488.3499999999998
 20
216.25005800000019
 11
488.3499999999998
 21
214.25005800000019
  0
ARC
  8
_0-5_TG
  6
CONTINUOUS
 62
    4
 10
492.86577999999997
 20
213.94999800000016
 40
0.2999999999999999
 50
14.036242999997201
 51
90
  0
ARC
  8
_0-5_TG
  6
CONTINUOUS
 62
    4
 10
491.89999999999986
 20
213.94999800000016
 40
0.2999999999999999
 50
90
 51
180
  0
LINE
  8
_0-5_TG
  6
CONTINUOUS
 62
    4
 10
492.86577999999997
 20
214.24999800000001
 11
491.89999999999986
 21
214.24999800000001
  0
LINE
  8
_0-5_TG
  6
CONTINUOUS
 62
    4
 10
491.54999999999984
 20
214.25005800000019
 11
493.54999999999973
 21
214.25005800000019
  0
ARC
  8
_0-5_TG
  6
CONTINUOUS
 62
    4
 10
495.3499999999998
 20
204.55005800000004
 40
0.2999999999999999
 50
270
 51
0
  0
LINE
  8
_0-5_TG
  6
CONTINUOUS
 62
    4
 10
481.4499999999997
 20
406.39999800000021
 11
481.4499999999997
 21
402.24999800000012
  0
LINE
  8
_0-5_TG
  6
CONTINUOUS
 62
    4
 10
486.44999999999982
 20
405.8999980000001
 11
486.44999999999982
 21
402.24999800000012
  0
LINE
  8
_0-5_TG
  6
CONTINUOUS
 62
    4
 10
476.4499999999997
 20
402.24999800000012
 11
476.4499999999997
 21
405.8999980000001
  0
LINE
  8
_0-5_TG
  6
CONTINUOUS
 62
    4
 10
494.54999999999973
 20
405.24999800000001
 11
494.54999999999973
 21
399.24999800000012
  0
LINE
  8
_0-5_TG
  6
CONTINUOUS
 62
    4
 10
469.54999999999973
 20
405.24999800000001
 11
469.54999999999973
 21
399.24999800000012
  0
LINE
  8
_0-4_笠木
  6
CONTINUOUS
 62
    4
 10
508.25
 20
411.24999800000012
 11
508.25
 21
353.74999800000012
  0
LINE
  8
_0-4_笠木
  6
CONTINUOUS
 62
    4
 10
506.24999999999989
 20
408.49373800000012
 11
506.24999999999989
 21
363.24999800000012
  0
LINE
  8
_0-6_受金具
  6
CONTINUOUS
 62
    4
 10
427.7521999999999
 20
405.24999800000001
 11
427.7521999999999
 21
404.24999800000012
  0
LINE
  8
_0-6_受金具
  6
CONTINUOUS
 62
    4
 10
407.7521999999999
 20
405.24999800000001
 11
407.7521999999999
 21
404.24999800000012
  0
LINE
  8
_0-7_パネル
  6
CONTINUOUS
 62
    4
 10
493.24999999999989
 20
292.09999800000014
 11
493.24999999999989
 21
365.24999800000012
  0
LINE
  8
_0-7_パネル
  6
CONTINUOUS
 62
    4
 10
478.24999999999989
 20
292.09999800000014
 11
478.24999999999989
 21
365.24999800000012
  0
LINE
  8
_0-7_パネル
  6
CONTINUOUS
 62
    4
 10
493.24999999999989
 20
287.09999800000014
 11
493.24999999999989
 21
221.25005800000019
  0
LINE
  8
_0-7_パネル
  6
CONTINUOUS
 62
    4
 10
478.24999999999989
 20
287.09999800000014
 11
478.24999999999989
 21
221.25005800000019
  0
LINE
  8
_0-5_TG
  6
CONTINUOUS
 62
    4
 10
494.14999999999986
 20
231.25005800000019
 11
495.3499999999998
 21
231.25005800000019
  0
LINE
  8
_0-5_TG
  6
CONTINUOUS
 62
    4
 10
477.54999999999973
 20
242.75005800000008
 11
477.54999999999973
 21
232.25005800000019
  0
LINE
  8
_0-5_TG
  6
CONTINUOUS
 62
    4
 10
477.8499999999998
 20
221.25005800000019
 11
480.84999999999991
 21
221.25005800000019
  0
LINE
  8
_0-5_TG
  6
CONTINUOUS
 62
    4
 10
480.84999999999991
 20
219.75005800000019
 11
477.8499999999998
 21
219.75005800000019
  0
LINE
  8
_0-5_TG
  6
CONTINUOUS
 62
    4
 10
477.8499999999998
 20
231.95005800000013
 11
477.8499999999998
 21
221.25005800000019
  0
ARC
  8
_0-5_TG
  6
CONTINUOUS
 62
    4
 10
477.54999999999973
 20
231.95005800000013
 40
0.2999999999999999
 50
0
 51
90
  0
LINE
  8
_0-5_TG
  6
CONTINUOUS
 62
    4
 10
493.8499999999998
 20
221.25005800000019
 11
493.8499999999998
 21
230.95005800000013
  0
LINE
  8
_0-7_パネル
  6
CONTINUOUS
 62
    4
 10
478.24999999999989
 20
221.25005800000019
 11
493.24999999999989
 21
221.25005800000019
  0
LINE
  8
_0-5_TG
  6
CONTINUOUS
 62
    4
 10
480.84999999999991
 20
221.25005800000019
 11
480.84999999999991
 21
219.75005800000019
  0
LINE
  8
_0-5_TG
  6
CONTINUOUS
 62
    4
 10
493.8499999999998
 20
221.25005800000019
 11
490.8499999999998
 21
221.25005800000019
  0
LINE
  8
_0-5_TG
  6
CONTINUOUS
 62
    4
 10
490.8499999999998
 20
221.25005800000019
 11
490.8499999999998
 21
219.75005800000019
  0
LINE
  8
_0-5_TG
  6
CONTINUOUS
 62
    4
 10
490.8499999999998
 20
219.75005800000019
 11
493.8499999999998
 21
219.75005800000019
  0
ARC
  8
_0-5_TG
  6
CONTINUOUS
 62
    4
 10
494.14999999999986
 20
230.95005800000013
 40
0.2999999999999999
 50
90
 51
180
  0
LINE
  8
_0-5_TG
  6
CONTINUOUS
 62
    4
 10
477.8499999999998
 20
243.05005800000004
 11
477.8499999999998
 21
243.95005800000013
  0
ARC
  8
_0-5_TG
  6
CONTINUOUS
 62
    4
 10
476.34999999999991
 20
243.95005800000013
 40
0.2999999999999999
 50
90
 51
180
  0
ARC
  8
_0-5_TG
  6
CONTINUOUS
 62
    4
 10
477.54999999999973
 20
243.95005800000013
 40
0.2999999999999999
 50
0
 51
90
  0
LINE
  8
_0-5_TG
  6
CONTINUOUS
 62
    4
 10
477.54999999999973
 20
244.25005800000019
 11
476.34999999999991
 21
244.25005800000019
  0
ARC
  8
_0-5_TG
  6
CONTINUOUS
 62
    4
 10
477.54999999999973
 20
243.05005800000004
 40
0.2999999999999999
 50
270
 51
0
  0
ARC
  8
_0-5_TG
  6
CONTINUOUS
 62
    4
 10
495.3499999999998
 20
230.95005800000013
 40
0.2999999999999999
 50
0
 51
90
  0
LINE
  8
_0-6_受金具
  6
CONTINUOUS
 62
    4
 10
408.74999999999989
 20
404.24999800000012
 11
462.24999999999989
 21
404.24999800000012
  0
LINE
  8
_0-2_寸法
  6
CONTINUOUS
 62
    3
 10
438.24999999999989
 20
324.24999800000012
 11
478.24999999999989
 21
324.24999800000012
  0
LINE
  8
_0-6_受金具
  6
CONTINUOUS
 62
    4
 10
407.74999999999989
 20
404.24999800000012
 11
427.7521999999999
 21
404.24999800000012
  0
LINE
  8
_0-6_受金具
  6
CONTINUOUS
 62
    4
 10
408.24999999999989
 20
403.74999800000012
 11
408.74999999999989
 21
404.24999800000012
  0
LINE
  8
_0-6_受金具
  6
CONTINUOUS
 62
    7
 10
408.24999999999989
 20
403.74999800000012
 11
408.74999999999989
 21
404.24999800000012
  0
LINE
  8
_0-6_受金具
  6
CONTINUOUS
 62
    7
 10
407.74999999999989
 20
404.24999800000012
 11
408.24999999999989
 21
403.74999800000012
  0
LINE
  8
_0-6_受金具
  6
CONTINUOUS
 62
    4
 10
407.74999999999989
 20
404.24999800000012
 11
408.24999999999989
 21
403.74999800000012
  0
LINE
  8
_0-3_躯体
  6
CONTINUOUS
 62
    4
 10
436.74999999999989
 20
392.73527800000011
 11
431.73527999999988
 21
397.74999800000012
  0
LINE
  8
_0-3_躯体
  6
CONTINUOUS
 62
    4
 10
435.24999999999989
 20
392.11395800000014
 11
431.11395999999979
 21
396.24999800000012
  0
LINE
  8
_0-3_躯体
  6
CONTINUOUS
 62
    4
 10
433.74999999999989
 20
391.49263800000017
 11
430.49263999999982
 21
394.74999800000012
  0
LINE
  8
_0-3_躯体
  6
CONTINUOUS
 62
    4
 10
432.24999999999989
 20
390.87131800000009
 11
429.87131999999986
 21
393.24999800000012
  0
LINE
  8
_0-3_躯体
  6
CONTINUOUS
 62
    4
 10
429.24999999999989
 20
391.74999800000012
 11
430.74999999999989
 21
390.24999800000012
  0
LINE
  8
_0-3_躯体
  6
CONTINUOUS
 62
    4
 10
432.35659999999996
 20
399.24999800000012
 11
438.24999999999989
 21
393.35659800000019
  0
LINE
  8
_0-4_笠木
  6
CONTINUOUS
 62
    4
 10
506.24999999999989
 20
353.74999800000012
 11
506.24999999999989
 21
360.24999800000012
  0
LINE
  8
_0-5_TG
  6
CONTINUOUS
 62
    4
 10
476.4499999999997
 20
362.94999800000005
 11
476.4499999999997
 21
355.54999800000007
  0
LINE
  8
_0-5_TG
  6
CONTINUOUS
 62
    4
 10
478.24999999999989
 20
370.44999800000005
 11
478.24999999999989
 21
355.54999800000007
  0
LINE
  8
_0-5_TG
  6
CONTINUOUS
 62
    4
 10
495.64999999999986
 20
354.44999800000005
 11
495.64999999999986
 21
375.44999800000005
  0
LINE
  8
_0-5_TG
  6
CONTINUOUS
 62
    4
 10
494.44999999999982
 20
354.44999800000005
 11
494.44999999999982
 21
375.44999800000005
  0
LINE
  8
_0-5_TG
  6
CONTINUOUS
 62
    3
 10
494.44999999999982
 20
372.94999800000005
 11
494.44999999999982
 21
354.94999800000005
  0
LINE
  8
_0-5_TG
  6
CONTINUOUS
 62
    3
 10
493.64999999999986
 20
354.94999800000005
 11
493.64999999999986
 21
372.14999800000021
  0
LINE
  8
_0-5_TG
  6
CONTINUOUS
 62
    4
 10
493.74999999999989
 20
353.24999800000012
 11
496.3499999999998
 21
353.24999800000012
  0
LINE
  8
_0-5_TG
  6
CONTINUOUS
 62
    4
 10
494.44999999999982
 20
354.44999800000005
 11
493.74999999999989
 21
354.44999800000005
  0
LINE
  8
_0-5_TG
  6
CONTINUOUS
 62
    3
 10
494.44999999999982
 20
354.94999800000005
 11
493.64999999999986
 21
354.94999800000005
  0
ARC
  8
_0-5_TG
  6
CONTINUOUS
 62
    4
 10
477.94999999999982
 20
355.54999800000007
 40
0.2999999999999999
 50
270
 51
0
  0
LINE
  8
_0-5_TG
  6
CONTINUOUS
 62
    4
 10
476.74999999999989
 20
355.24999800000001
 11
477.94999999999982
 21
355.24999800000001
  0
ARC
  8
_0-5_TG
  6
CONTINUOUS
 62
    4
 10
476.74999999999989
 20
355.54999800000007
 40
0.2999999999999999
 50
180
 51
270
  0
ARC
  8
_0-5_TG
  6
CONTINUOUS
 62
    4
 10
493.74999999999989
 20
353.54999800000019
 40
0.2999999999999999
 50
180
 51
270
  0
ARC
  8
_0-5_TG
  6
CONTINUOUS
 62
    4
 10
493.74999999999989
 20
354.14999800000021
 40
0.2999999999999999
 50
90
 51
180
  0
LINE
  8
_0-5_TG
  6
CONTINUOUS
 62
    4
 10
493.4499999999997
 20
354.14999800000021
 11
493.4499999999997
 21
353.54999800000019
  0
LINE
  8
_0-2_寸法
  6
CONTINUOUS
 62
    3
 10
508.25
 20
351.24999800000001
 11
508.25
 21
320.24999800000012
  0
LINE
  8
_0-5_TG
  6
CONTINUOUS
 62
    4
 10
496.64999999999986
 20
353.54999800000019
 11
496.64999999999986
 21
354.14999800000021
  0
LINE
  8
_0-5_TG
  6
CONTINUOUS
 62
    4
 10
495.64999999999986
 20
354.44999800000005
 11
496.3499999999998
 21
354.44999800000005
  0
ARC
  8
_0-5_TG
  6
CONTINUOUS
 62
    4
 10
496.3499999999998
 20
353.54999800000019
 40
0.2999999999999999
 50
270
 51
0
  0
ARC
  8
_0-5_TG
  6
CONTINUOUS
 62
    4
 10
496.3499999999998
 20
354.14999800000021
 40
0.2999999999999999
 50
0
 51
90
  0
ARC
  8
_0-4_笠木
  6
CONTINUOUS
 62
    4
 10
506.74999999999989
 20
353.74999800000012
 40
0.5
 50
180
 51
270
  0
LINE
  8
_0-4_笠木
  6
CONTINUOUS
 62
    4
 10
506.74999999999989
 20
353.24999800000012
 11
507.74999999999989
 21
353.24999800000012
  0
ARC
  8
_0-4_笠木
  6
CONTINUOUS
 62
    4
 10
507.74999999999989
 20
353.74999800000012
 40
0.5
 50
270
 51
0
  0
LINE
  8
_0-5_TG
  6
CONTINUOUS
 62
    4
 10
494.54999999999973
 20
401.24999800000001
 11
469.54999999999973
 21
401.24999800000001
  0
LINE
  8
_0-5_TG
  6
CONTINUOUS
 62
    4
 10
469.54999999999973
 20
397.24999800000001
 11
494.54999999999973
 21
397.24999800000001
  0
ARC
  8
_0-6_受金具
  6
CONTINUOUS
 62
    4
 10
494.3311799999999
 20
396.74999800000001
 40
2.5
 50
11.30993200000206
 51
89.999999999999986
  0
LINE
  8
_0-5_TG
  6
CONTINUOUS
 62
    4
 10
494.44999999999982
 20
375.44999800000005
 11
488.74999999999989
 21
375.44999800000005
  0
LINE
  8
_0-5_TG
  6
CONTINUOUS
 62
    4
 10
494.44999999999982
 20
372.94999800000005
 11
476.4499999999997
 21
372.94999800000005
  0
LINE
  8
_0-5_TG
  6
CONTINUOUS
 62
    3
 10
476.4499999999997
 20
372.94999800000005
 11
494.44999999999982
 21
372.94999800000005
  0
LINE
  8
_0-5_TG
  6
CONTINUOUS
 62
    4
 10
489.64999999999986
 20
376.74999800000012
 11
496.84999999999991
 21
376.74999800000012
  0
LINE
  8
_0-6_受金具
  6
CONTINUOUS
 62
    3
 10
489.64999999999986
 20
380.93541800000003
 11
489.64999999999986
 21
388.02253800000017
  0
ARC
  8
_0-6_受金具
  6
CONTINUOUS
 62
    3
 10
490.6952799999998
 20
382.29837800000007
 40
1.266672
 50
275
 51
344.64197999999811
  0
LINE
  8
_0-5_TG
  6
CONTINUOUS
 62
    4
 10
486.44999999999982
 20
386.94999800000005
 11
486.44999999999982
 21
381.24999800000012
  0
LINE
  8
_0-5_TG
  6
CONTINUOUS
 62
    4
 10
471.9499999999997
 20
363.24999800000012
 11
471.9499999999997
 21
388.44999800000005
  0
LINE
  8
_0-5_TG
  6
CONTINUOUS
 62
    4
 10
473.74999999999989
 20
364.94999800000005
 11
473.74999999999989
 21
386.94999800000005
  0
LINE
  8
_0-5_TG
  6
CONTINUOUS
 62
    4
 10
488.4499999999997
 20
391.44999800000005
 11
488.4499999999997
 21
375.74999800000012
  0
ARC
  8
_0-5_TG
  6
CONTINUOUS
 62
    4
 10
477.74999999999989
 20
370.44999800000005
 40
0.5
 50
0
 51
180
  0
LINE
  8
_0-5_TG
  6
CONTINUOUS
 62
    3
 10
477.24999999999989
 20
372.14999800000021
 11
493.64999999999986
 21
372.14999800000021
  0
LINE
  8
_0-5_TG
  6
CONTINUOUS
 62
    4
 10
477.24999999999989
 20
364.94999800000005
 11
477.24999999999989
 21
370.44999800000005
  0
LINE
  8
_0-5_TG
  6
CONTINUOUS
 62
    3
 10
476.4499999999997
 20
372.94999800000005
 11
476.4499999999997
 21
364.94999800000005
  0
LINE
  8
_0-5_TG
  6
CONTINUOUS
 62
    3
 10
477.24999999999989
 20
364.94999800000005
 11
477.24999999999989
 21
372.14999800000021
  0
LINE
  8
_0-5_TG
  6
CONTINUOUS
 62
    4
 10
476.4499999999997
 20
362.94999800000005
 11
472.24999999999989
 21
362.94999800000005
  0
ARC
  8
_0-5_TG
  6
CONTINUOUS
 62
    4
 10
472.24999999999989
 20
363.24999800000012
 40
0.2999999999999999
 50
180
 51
270
  0
LINE
  8
_0-5_TG
  6
CONTINUOUS
 62
    4
 10
477.24999999999989
 20
364.94999800000005
 11
473.74999999999989
 21
364.94999800000005
  0
LINE
  8
_0-5_TG
  6
CONTINUOUS
 62
    3
 10
476.4499999999997
 20
364.94999800000005
 11
477.24999999999989
 21
364.94999800000005
  0
LINE
  8
_0-7_パネル
  6
CONTINUOUS
 62
    4
 10
478.24999999999989
 20
365.24999800000012
 11
493.24999999999989
 21
365.24999800000012
  0
ARC
  8
_0-5_TG
  6
CONTINUOUS
 62
    4
 10
488.74999999999989
 20
375.74999800000012
 40
0.2999999999999999
 50
180
 51
270
  0
LINE
  8
_0-6_受金具
  6
CONTINUOUS
 62
    3
 10
490.85001999999986
 20
381.04041800000005
 11
489.64999999999986
 21
380.93541800000003
  0
ARC
  8
_0-5_TG
  6
CONTINUOUS
 62
    4
 10
486.74999999999989
 20
381.24999800000012
 40
0.2999999999999999
 50
180
 51
270
  0
LINE
  8
_0-5_TG
  6
CONTINUOUS
 62
    4
 10
486.74999999999989
 20
380.94999800000005
 11
488.14999999999986
 21
380.94999800000005
  0
ARC
  8
_0-5_TG
  6
CONTINUOUS
 62
    4
 10
488.14999999999986
 20
381.24999800000012
 40
0.2999999999999999
 50
270
 51
0
  0
LINE
  8
_0-5_TG
  6
CONTINUOUS
 62
    4
 10
486.44999999999982
 20
402.24999800000012
 11
476.4499999999997
 21
402.24999800000012
  0
LINE
  8
_0-5_TG
  6
CONTINUOUS
 62
    4
 10
487.44999999999982
 20
402.24999800000012
 11
475.4499999999997
 21
402.24999800000012
  0
LINE
  8
_0-6_受金具
  6
CONTINUOUS
 62
    3
 10
478.74999999999989
 20
385.94999800000005
 11
477.24999999999989
 21
384.44999800000005
  0
LINE
  8
_0-6_受金具
  6
CONTINUOUS
 62
    3
 10
477.24999999999989
 20
384.44999800000005
 11
478.74999999999989
 21
382.94999800000005
  0
LINE
  8
_0-5_TG
  6
CONTINUOUS
 62
    4
 10
476.24999999999989
 20
388.74999800000001
 11
486.64999999999986
 21
388.74999800000001
  0
LINE
  8
_0-5_TG
  6
CONTINUOUS
 62
    4
 10
486.44999999999982
 20
386.94999800000005
 11
473.74999999999989
 21
386.94999800000005
  0
LINE
  8
_0-5_TG
  6
CONTINUOUS
 62
    4
 10
487.44999999999982
 20
401.24999800000001
 11
475.4499999999997
 21
401.24999800000001
  0
LINE
  8
_0-5_TG
  6
CONTINUOUS
 62
    4
 10
475.4499999999997
 20
395.44999800000005
 11
487.44999999999982
 21
395.44999800000005
  0
LINE
  8
_0-5_TG
  6
CONTINUOUS
 62
    4
 10
487.44999999999982
 20
394.44999800000016
 11
475.4499999999997
 21
394.44999800000016
  0
LINE
  8
_0-5_TG
  6
CONTINUOUS
 62
    4
 10
485.9499999999997
 20
390.29999800000019
 11
476.9499999999997
 21
390.29999800000019
  0
LINE
  8
_0-6_受金具
  6
CONTINUOUS
 62
    3
 10
483.24999999999989
 20
382.94999800000005
 11
477.24999999999989
 21
384.44999800000005
  0
ARC
  8
_0-5_TG
  6
CONTINUOUS
 62
    4
 10
475.9499999999997
 20
392.94999800000005
 40
0.2999999999999999
 50
0
 51
90
  0
LINE
  8
_0-5_TG
  6
CONTINUOUS
 62
    4
 10
473.14999999999986
 20
395.44999800000005
 11
473.14999999999986
 21
391.74999800000012
  0
LINE
  8
_0-5_TG
  6
CONTINUOUS
 62
    4
 10
476.4499999999997
 20
390.79999800000007
 11
476.4499999999997
 21
394.44999800000016
  0
LINE
  8
_0-5_TG
  6
CONTINUOUS
 62
    4
 10
474.44999999999982
 20
391.44999800000005
 11
473.4499999999997
 21
391.44999800000005
  0
LINE
  8
_0-5_TG
  6
CONTINUOUS
 62
    4
 10
474.44999999999982
 20
388.74999800000001
 11
472.24999999999989
 21
388.74999800000001
  0
ARC
  8
_0-5_TG
  6
CONTINUOUS
 62
    4
 10
473.4499999999997
 20
391.74999800000012
 40
0.2999999999999999
 50
180
 51
270
  0
ARC
  8
_0-5_TG
  6
CONTINUOUS
 62
    4
 10
472.24999999999989
 20
388.44999800000005
 40
0.2999999999999999
 50
90
 51
180
  0
LINE
  8
_0-5_TG
  6
CONTINUOUS
 62
    4
 10
474.44999999999982
 20
391.44999800000005
 11
474.44999999999982
 21
388.74999800000001
  0
LINE
  8
_0-5_TG
  6
CONTINUOUS
 62
    4
 10
476.24999999999989
 20
388.74999800000001
 11
476.24999999999989
 21
392.94999800000005
  0
LINE
  8
_0-5_TG
  6
CONTINUOUS
 62
    4
 10
476.9499999999997
 20
390.29999800000019
 11
476.4499999999997
 21
390.79999800000007
  0
LINE
  8
_0-5_TG
  6
CONTINUOUS
 62
    4
 10
477.64999999999986
 20
397.24999800000001
 11
469.24999999999989
 21
397.24999800000001
  0
LINE
  8
_0-5_TG
  6
CONTINUOUS
 62
    4
 10
473.14999999999986
 20
395.44999800000005
 11
469.24999999999989
 21
395.44999800000005
  0
LINE
  8
_0-5_TG
  6
CONTINUOUS
 62
    4
 10
469.54999999999973
 20
399.24999800000012
 11
469.54999999999973
 21
397.24999800000001
  0
ARC
  8
_0-5_TG
  6
CONTINUOUS
 62
    4
 10
469.24999999999989
 20
396.94999800000005
 40
0.2999999999999999
 50
90
 51
180
  0
LINE
  8
_0-5_TG
  6
CONTINUOUS
 62
    4
 10
468.9499999999997
 20
396.94999800000005
 11
468.9499999999997
 21
395.74999800000012
  0
ARC
  8
_0-5_TG
  6
CONTINUOUS
 62
    4
 10
469.24999999999989
 20
395.74999800000012
 40
0.2999999999999999
 50
180
 51
270
  0
LINE
  8
_0-6_受金具
  6
CONTINUOUS
 62
    4
 10
469.54999999999973
 20
403.24999800000012
 11
463.24999999999989
 21
403.24999800000012
  0
LINE
  8
_0-6_受金具
  6
CONTINUOUS
 62
    4
 10
462.24999999999989
 20
404.24999800000012
 11
463.24999999999989
 21
403.24999800000012
  0
LINE
  8
_0-5_TG
  6
CONTINUOUS
 62
    4
 10
477.94999999999982
 20
395.74999800000012
 11
477.94999999999982
 21
396.94999800000005
  0
ARC
  8
_0-5_TG
  6
CONTINUOUS
 62
    4
 10
477.64999999999986
 20
395.74999800000012
 40
0.2999999999999999
 50
270
 51
0
  0
LINE
  8
_0-5_TG
  6
CONTINUOUS
 62
    4
 10
474.94999999999982
 20
395.44999800000005
 11
477.64999999999986
 21
395.44999800000005
  0
LINE
  8
_0-5_TG
  6
CONTINUOUS
 62
    4
 10
474.94999999999982
 20
393.24999800000012
 11
474.94999999999982
 21
395.44999800000005
  0
LINE
  8
_0-5_TG
  6
CONTINUOUS
 62
    4
 10
474.94999999999982
 20
393.24999800000012
 11
475.9499999999997
 21
393.24999800000012
  0
ARC
  8
_0-5_TG
  6
CONTINUOUS
 62
    4
 10
477.64999999999986
 20
396.94999800000005
 40
0.2999999999999999
 50
0
 51
90
  0
LINE
  8
_0-5_TG
  6
CONTINUOUS
 62
    4
 10
475.4499999999997
 20
394.44999800000016
 11
475.4499999999997
 21
395.44999800000005
  0
LINE
  8
_0-5_TG
  6
CONTINUOUS
 62
    4
 10
475.4499999999997
 20
402.24999800000012
 11
475.4499999999997
 21
401.24999800000001
  0
LINE
  8
_0-5_TG
  6
CONTINUOUS
 62
    4
 10
489.74999999999989
 20
395.44999800000005
 11
489.74999999999989
 21
391.74999800000012
  0
ARC
  8
_0-5_TG
  6
CONTINUOUS
 62
    4
 10
486.94999999999982
 20
392.94999800000005
 40
0.2999999999999999
 50
90
 51
180
  0
LINE
  8
_0-5_TG
  6
CONTINUOUS
 62
    4
 10
486.44999999999982
 20
394.44999800000016
 11
486.44999999999982
 21
390.79999800000007
  0
LINE
  8
_0-5_TG
  6
CONTINUOUS
 62
    4
 10
481.4499999999997
 20
394.44999800000016
 11
481.4499999999997
 21
390.29999800000019
  0
LINE
  8
_0-5_TG
  6
CONTINUOUS
 62
    4
 10
481.4499999999997
 20
394.44999800000016
 11
481.4499999999997
 21
390.29999800000019
  0
LINE
  8
_0-6_受金具
  6
CONTINUOUS
 62
    3
 10
486.24999999999989
 20
382.44999800000016
 11
484.74999999999989
 21
386.44999800000016
  0
LINE
  8
_0-6_受金具
  6
CONTINUOUS
 62
    3
 10
485.25789999999984
 20
385.94999800000005
 11
486.38289999999972
 21
382.94999800000005
  0
LINE
  8
_0-6_受金具
  6
CONTINUOUS
 62
    3
 10
486.24999999999989
 20
382.44999800000016
 11
485.74209999999982
 21
382.94999800000005
  0
LINE
  8
_0-6_受金具
  6
CONTINUOUS
 62
    3
 10
487.24209999999971
 20
382.94999800000005
 11
486.11709999999982
 21
385.94999800000005
  0
LINE
  8
_0-6_受金具
  6
CONTINUOUS
 62
    3
 10
486.11709999999982
 20
385.94999800000005
 11
486.24999999999989
 21
386.44999800000016
  0
LINE
  8
_0-5_TG
  6
CONTINUOUS
 62
    4
 10
486.44999999999982
 20
390.79999800000007
 11
485.9499999999997
 21
390.29999800000019
  0
LINE
  8
_0-6_受金具
  6
CONTINUOUS
 62
    3
 10
483.11709999999982
 20
385.94999800000005
 11
478.74999999999989
 21
385.94999800000005
  0
LINE
  8
_0-6_受金具
  6
CONTINUOUS
 62
    3
 10
478.74999999999989
 20
382.94999800000005
 11
483.24999999999989
 21
382.94999800000005
  0
LINE
  8
_0-6_受金具
  6
CONTINUOUS
 62
    3
 10
478.74999999999989
 20
385.94999800000005
 11
478.74999999999989
 21
384.07499800000005
  0
LINE
  8
_0-6_受金具
  6
CONTINUOUS
 62
    3
 10
483.24999999999989
 20
382.94999800000005
 11
483.24999999999989
 21
385.59559800000011
  0
LINE
  8
_0-6_受金具
  6
CONTINUOUS
 62
    3
 10
483.11709999999982
 20
382.94999800000005
 11
483.24999999999989
 21
382.44999800000016
  0
LINE
  8
_0-6_受金具
  6
CONTINUOUS
 62
    3
 10
483.24999999999989
 20
382.44999800000016
 11
483.75789999999984
 21
382.94999800000005
  0
LINE
  8
_0-6_受金具
  6
CONTINUOUS
 62
    3
 10
484.56249999999989
 20
385.94999800000005
 11
483.75789999999984
 21
385.94999800000005
  0
LINE
  8
_0-6_受金具
  6
CONTINUOUS
 62
    3
 10
485.74209999999982
 20
382.94999800000005
 11
484.88289999999984
 21
382.94999800000005
  0
LINE
  8
_0-6_受金具
  6
CONTINUOUS
 62
    3
 10
484.24209999999971
 20
382.94999800000005
 11
483.24999999999989
 21
382.94999800000005
  0
LINE
  8
_0-6_受金具
  6
CONTINUOUS
 62
    3
 10
486.11709999999982
 20
385.94999800000005
 11
485.25789999999984
 21
385.94999800000005
  0
LINE
  8
_0-6_受金具
  6
CONTINUOUS
 62
    3
 10
485.74209999999982
 20
382.94999800000005
 11
484.61709999999971
 21
385.94999800000005
  0
LINE
  8
_0-6_受金具
  6
CONTINUOUS
 62
    3
 10
484.61709999999971
 20
385.94999800000005
 11
484.74999999999989
 21
386.44999800000016
  0
LINE
  8
_0-6_受金具
  6
CONTINUOUS
 62
    3
 10
484.74999999999989
 20
386.44999800000016
 11
485.25789999999984
 21
385.94999800000005
  0
LINE
  8
_0-6_受金具
  6
CONTINUOUS
 62
    3
 10
483.75789999999984
 20
385.94999800000005
 11
484.88289999999984
 21
382.94999800000005
  0
LINE
  8
_0-6_受金具
  6
CONTINUOUS
 62
    3
 10
484.88289999999984
 20
382.94999800000005
 11
484.74999999999989
 21
382.44999800000016
  0
LINE
  8
_0-6_受金具
  6
CONTINUOUS
 62
    3
 10
484.74999999999989
 20
382.44999800000016
 11
484.24209999999971
 21
382.94999800000005
  0
LINE
  8
_0-6_受金具
  6
CONTINUOUS
 62
    3
 10
484.24209999999971
 20
382.94999800000005
 11
483.11709999999982
 21
385.94999800000005
  0
LINE
  8
_0-6_受金具
  6
CONTINUOUS
 62
    3
 10
483.11709999999982
 20
385.94999800000005
 11
483.24999999999989
 21
386.44999800000016
  0
LINE
  8
_0-6_受金具
  6
CONTINUOUS
 62
    3
 10
483.24999999999989
 20
386.44999800000016
 11
483.75789999999984
 21
385.94999800000005
  0
LINE
  8
_0-6_受金具
  6
CONTINUOUS
 62
    3
 10
484.74999999999989
 20
382.44999800000016
 11
483.24999999999989
 21
386.44999800000016
  0
ARC
  8
_0-6_受金具
  6
CONTINUOUS
 62
    3
 10
490.66985999999986
 20
386.6617980000002
 40
1.266672
 50
16.025696999997098
 51
84.999989000003495
  0
LINE
  8
_0-5_TG
  6
CONTINUOUS
 62
    4
 10
489.64999999999986
 20
376.74999800000012
 11
489.64999999999986
 21
391.1499980000001
  0
LINE
  8
_0-6_受金具
  6
CONTINUOUS
 62
    4
 10
489.4499999999997
 20
384.44999800000005
 11
489.64999999999986
 21
384.64999800000021
  0
LINE
  8
_0-6_受金具
  6
CONTINUOUS
 62
    4
 10
489.4499999999997
 20
384.44999800000005
 11
489.64999999999986
 21
384.24999800000001
  0
LINE
  8
_0-6_受金具
  6
CONTINUOUS
 62
    3
 10
489.24999999999989
 20
382.44999800000016
 11
488.74209999999971
 21
382.94999800000005
  0
LINE
  8
_0-6_受金具
  6
CONTINUOUS
 62
    3
 10
489.64999999999986
 20
382.94999800000005
 11
489.38289999999972
 21
382.94999800000005
  0
LINE
  8
_0-6_受金具
  6
CONTINUOUS
 62
    3
 10
489.38289999999972
 20
382.94999800000005
 11
489.24999999999989
 21
382.44999800000016
  0
LINE
  8
_0-6_受金具
  6
CONTINUOUS
 62
    3
 10
489.24999999999989
 20
382.44999800000016
 11
488.74209999999971
 21
382.94999800000005
  0
LINE
  8
_0-6_受金具
  6
CONTINUOUS
 62
    3
 10
487.74999999999989
 20
386.44999800000016
 11
488.25789999999984
 21
385.94999800000005
  0
LINE
  8
_0-6_受金具
  6
CONTINUOUS
 62
    3
 10
487.61709999999971
 20
385.94999800000005
 11
487.74999999999989
 21
386.44999800000016
  0
LINE
  8
_0-6_受金具
  6
CONTINUOUS
 62
    3
 10
487.61709999999971
 20
385.94999800000005
 11
486.75789999999972
 21
385.94999800000005
  0
LINE
  8
_0-6_受金具
  6
CONTINUOUS
 62
    3
 10
487.24209999999971
 20
382.94999800000005
 11
486.38289999999972
 21
382.94999800000005
  0
LINE
  8
_0-6_受金具
  6
CONTINUOUS
 62
    3
 10
486.38289999999972
 20
382.94999800000005
 11
486.24999999999989
 21
382.44999800000016
  0
LINE
  8
_0-6_受金具
  6
CONTINUOUS
 62
    3
 10
487.74999999999989
 20
382.44999800000016
 11
486.24999999999989
 21
386.44999800000016
  0
LINE
  8
_0-6_受金具
  6
CONTINUOUS
 62
    3
 10
486.75789999999972
 20
385.94999800000005
 11
487.88289999999984
 21
382.94999800000005
  0
LINE
  8
_0-6_受金具
  6
CONTINUOUS
 62
    3
 10
487.88289999999984
 20
382.94999800000005
 11
487.74999999999989
 21
382.44999800000016
  0
LINE
  8
_0-6_受金具
  6
CONTINUOUS
 62
    3
 10
487.74999999999989
 20
382.44999800000016
 11
487.24209999999971
 21
382.94999800000005
  0
LINE
  8
_0-6_受金具
  6
CONTINUOUS
 62
    3
 10
486.24999999999989
 20
386.44999800000016
 11
486.75789999999972
 21
385.94999800000005
  0
LINE
  8
_0-6_受金具
  6
CONTINUOUS
 62
    4
 10
488.4499999999997
 20
384.14999800000021
 11
488.14999999999986
 21
384.44999800000005
  0
LINE
  8
_0-6_受金具
  6
CONTINUOUS
 62
    4
 10
488.14999999999986
 20
384.44999800000005
 11
488.4499999999997
 21
384.74999800000001
  0
LINE
  8
_0-6_受金具
  6
CONTINUOUS
 62
    3
 10
488.74209999999971
 20
382.94999800000005
 11
487.61709999999971
 21
385.94999800000005
  0
LINE
  8
_0-6_受金具
  6
CONTINUOUS
 62
    3
 10
489.64999999999986
 20
385.94999800000005
 11
488.25789999999984
 21
385.94999800000005
  0
LINE
  8
_0-6_受金具
  6
CONTINUOUS
 62
    3
 10
488.25789999999984
 20
385.94999800000005
 11
489.38289999999972
 21
382.94999800000005
  0
LINE
  8
_0-6_受金具
  6
CONTINUOUS
 62
    3
 10
488.74209999999971
 20
382.94999800000005
 11
487.88289999999984
 21
382.94999800000005
  0
LINE
  8
_0-6_受金具
  6
CONTINUOUS
 62
    3
 10
489.24999999999989
 20
382.44999800000016
 11
487.74999999999989
 21
386.44999800000016
  0
ARC
  8
_0-6_受金具
  6
CONTINUOUS
 62
    3
 10
482.9166399999998
 20
384.43483800000013
 40
9.33338
 50
2.4562859999974762
 51
16.025696999997098
  0
LINE
  8
_0-6_受金具
  6
CONTINUOUS
 62
    3
 10
490.85001999999986
 20
384.83483800000022
 11
492.2414399999999
 21
384.83483800000022
  0
LINE
  8
_0-6_受金具
  6
CONTINUOUS
 62
    3
 10
490.85001999999986
 20
384.03483800000004
 11
490.85001999999986
 21
384.83483800000022
  0
LINE
  8
_0-6_受金具
  6
CONTINUOUS
 62
    3
 10
492.2414399999999
 20
384.03483800000004
 11
490.85001999999986
 21
384.03483800000004
  0
ARC
  8
_0-6_受金具
  6
CONTINUOUS
 62
    3
 10
482.9166399999998
 20
384.43483800000013
 40
9.33338
 50
344.64207999999877
 51
357.54371000000225
  0
LINE
  8
_0-6_受金具
  6
CONTINUOUS
 62
    3
 10
490.85001999999986
 20
387.91559800000005
 11
489.64999999999986
 21
388.02253800000017
  0
ARC
  8
_0-5_TG
  6
CONTINUOUS
 62
    4
 10
489.4499999999997
 20
391.74999800000012
 40
0.2999999999999999
 50
270
 51
0
  0
LINE
  8
_0-5_TG
  6
CONTINUOUS
 62
    4
 10
488.4499999999997
 20
391.44999800000005
 11
489.4499999999997
 21
391.44999800000005
  0
ARC
  8
_0-5_TG
  6
CONTINUOUS
 62
    4
 10
488.74999999999989
 20
391.1499980000001
 40
0.2999999999999999
 50
90
 51
180
  0
ARC
  8
_0-5_TG
  6
CONTINUOUS
 62
    4
 10
489.34999999999991
 20
391.1499980000001
 40
0.2999999999999999
 50
0
 51
90
  0
LINE
  8
_0-5_TG
  6
CONTINUOUS
 62
    4
 10
488.74999999999989
 20
391.44999800000005
 11
489.34999999999991
 21
391.44999800000005
  0
LINE
  8
_0-5_TG
  6
CONTINUOUS
 62
    4
 10
486.64999999999986
 20
388.74999800000001
 11
486.64999999999986
 21
392.94999800000005
  0
LINE
  8
_0-5_TG
  6
CONTINUOUS
 62
    4
 10
487.9499999999997
 20
395.44999800000005
 11
485.24999999999989
 21
395.44999800000005
  0
LINE
  8
_0-5_TG
  6
CONTINUOUS
 62
    4
 10
493.64999999999986
 20
397.24999800000001
 11
485.24999999999989
 21
397.24999800000001
  0
LINE
  8
_0-5_TG
  6
CONTINUOUS
 62
    4
 10
478.1999999999997
 20
397.24999800000001
 11
478.1999999999997
 21
395.44999800000005
  0
LINE
  8
_0-5_TG
  6
CONTINUOUS
 62
    3
 10
478.6999999999997
 20
397.24999800000001
 11
478.6999999999997
 21
395.44999800000005
  0
LINE
  8
_0-5_TG
  6
CONTINUOUS
 62
    4
 10
484.69999999999982
 20
397.24999800000001
 11
484.69999999999982
 21
395.44999800000005
  0
LINE
  8
_0-5_TG
  6
CONTINUOUS
 62
    3
 10
484.19999999999982
 20
397.24999800000001
 11
484.19999999999982
 21
395.44999800000005
  0
ARC
  8
_0-5_TG
  6
CONTINUOUS
 62
    4
 10
485.24999999999989
 20
396.94999800000005
 40
0.2999999999999999
 50
90
 51
180
  0
ARC
  8
_0-5_TG
  6
CONTINUOUS
 62
    4
 10
485.24999999999989
 20
395.74999800000012
 40
0.2999999999999999
 50
180
 51
270
  0
LINE
  8
_0-5_TG
  6
CONTINUOUS
 62
    4
 10
484.9499999999997
 20
396.94999800000005
 11
484.9499999999997
 21
395.74999800000012
  0
LINE
  8
_0-5_TG
  6
CONTINUOUS
 62
    4
 10
489.74999999999989
 20
395.44999800000005
 11
493.64999999999986
 21
395.44999800000005
  0
LINE
  8
_0-5_TG
  6
CONTINUOUS
 62
    4
 10
487.9499999999997
 20
393.24999800000012
 11
487.9499999999997
 21
395.44999800000005
  0
LINE
  8
_0-5_TG
  6
CONTINUOUS
 62
    4
 10
487.9499999999997
 20
393.24999800000012
 11
486.94999999999982
 21
393.24999800000012
  0
LINE
  8
_0-5_TG
  6
CONTINUOUS
 62
    4
 10
487.44999999999982
 20
395.44999800000005
 11
487.44999999999982
 21
394.44999800000016
  0
ARC
  8
_0-5_TG
  6
CONTINUOUS
 62
    4
 10
493.64999999999986
 20
395.74999800000012
 40
0.2999999999999999
 50
270
 51
0
  0
ARC
  8
_0-5_TG
  6
CONTINUOUS
 62
    4
 10
493.64999999999986
 20
396.94999800000005
 40
0.2999999999999999
 50
0
 51
90
  0
LINE
  8
_0-5_TG
  6
CONTINUOUS
 62
    4
 10
493.9499999999997
 20
395.74999800000012
 11
493.9499999999997
 21
396.94999800000005
  0
LINE
  8
_0-5_TG
  6
CONTINUOUS
 62
    4
 10
487.44999999999982
 20
401.24999800000001
 11
487.44999999999982
 21
402.24999800000012
  0
LINE
  8
_0-6_受金具
  6
CONTINUOUS
 62
    4
 10
499.95389999999986
 20
399.23057800000015
 11
506.14999999999986
 21
368.24999800000012
  0
LINE
  8
_0-6_受金具
  6
CONTINUOUS
 62
    4
 10
496.98069999999984
 20
396.24999800000012
 11
503.54283999999996
 21
363.43929800000001
  0
ARC
  8
_0-4_笠木
  6
CONTINUOUS
 62
    4
 10
503.74999999999989
 20
362.62469800000008
 40
1.5
 50
180
 51
252.25912999999844
  0
ARC
  8
_0-4_笠木
  6
CONTINUOUS
 62
    4
 10
502.74999999999989
 20
362.99351799999999
 40
0.5
 50
86.000000000003496
 51
180
  0
LINE
  8
_0-4_笠木
  6
CONTINUOUS
 62
    4
 10
502.24999999999989
 20
362.62469800000008
 11
502.24999999999989
 21
362.99351799999999
  0
LINE
  8
_0-6_受金具
  6
CONTINUOUS
 62
    4
 10
506.14999999999986
 20
368.24999800000012
 11
506.14999999999986
 21
363.25697800000012
  0
LINE
  8
_0-4_笠木
  6
CONTINUOUS
 62
    4
 10
503.29293999999993
 20
361.19603800000004
 11
506.24999999999989
 21
360.24999800000012
  0
LINE
  8
_0-4_笠木
  6
CONTINUOUS
 62
    4
 10
502.78487999999982
 20
363.49229800000012
 11
506.24999999999989
 21
363.24999800000012
  0
LINE
  8
_0-5_TG
  6
CONTINUOUS
 62
    4
 10
497.14999999999986
 20
375.74999800000012
 11
497.14999999999986
 21
376.44999800000005
  0
ARC
  8
_0-5_TG
  6
CONTINUOUS
 62
    4
 10
496.84999999999991
 20
375.74999800000012
 40
0.2999999999999999
 50
270
 51
0
  0
LINE
  8
_0-5_TG
  6
CONTINUOUS
 62
    4
 10
495.64999999999986
 20
375.44999800000005
 11
496.84999999999991
 21
375.44999800000005
  0
ARC
  8
_0-5_TG
  6
CONTINUOUS
 62
    4
 10
496.84999999999991
 20
376.44999800000005
 40
0.2999999999999999
 50
0
 51
90
  0
LINE
  8
_0-5_TG
  6
CONTINUOUS
 62
    4
 10
494.54999999999973
 20
399.24999800000012
 11
494.54999999999973
 21
397.24999800000001
  0
LINE
  8
_0-6_受金具
  6
CONTINUOUS
 62
    4
 10
496.7826399999999
 20
397.24027799999999
 11
496.98069999999984
 21
396.24999800000012
  0
ARC
  8
_0-6_受金具
  6
CONTINUOUS
 62
    4
 10
494.98410939432665
 20
398.20984596074311
 40
5.0735144354290806
 50
11.60646690447016
 51
94.908448838671433
  0
LINE
  8
_0-6_受金具
  6
CONTINUOUS
 62
    4
 10
427.7521999999999
 20
405.24999800000001
 11
407.7521999999999
 21
405.24999800000001
  0
ARC
  8
_0-6_受金具
  6
CONTINUOUS
 62
    4
 10
417.7521999999999
 20
403.24999800000012
 40
5.25
 50
50.690629000000563
 51
129.3031299999958
  0
ARC
  8
_0-6_受金具
  6
CONTINUOUS
 62
    4
 10
416.24301999999989
 20
405.08385800000019
 40
2.875
 50
129.17951000000113
 51
176.68724999999841
  0
LINE
  8
_0-6_受金具
  6
CONTINUOUS
 62
    4
 10
417.1271999999999
 20
407.83213800000021
 11
418.3771999999999
 21
407.83213800000021
  0
ARC
  8
_0-6_受金具
  6
CONTINUOUS
 62
    4
 10
416.6271999999999
 20
407.86483800000019
 40
0.5
 50
0
 51
103.7002300000009
  0
ARC
  8
_0-6_受金具
  6
CONTINUOUS
 62
    4
 10
418.8771999999999
 20
407.86483800000019
 40
0.5
 50
76.299767000001523
 51
180
  0
ARC
  8
_0-6_受金具
  6
CONTINUOUS
 62
    4
 10
419.25677999999982
 20
405.08761800000002
 40
2.875
 50
3.2378370000027248
 51
50.690875999999889
  0
LINE
  8
_0-5_TG
  6
CONTINUOUS
 62
    4
 10
494.54999999999973
 20
405.24999800000001
 11
486.44999999999982
 21
405.24999800000001
  0
LINE
  8
_0-6_受金具
  6
CONTINUOUS
 62
    4
 10
478.1999999999997
 20
408.28615800000011
 11
477.64999999999986
 21
408.28615800000011
  0
ARC
  8
_0-6_受金具
  6
CONTINUOUS
 62
    4
 10
476.14999999999986
 20
385.28615800000011
 40
25
 50
76.11345999999979
 51
103.88654000000018
  0
LINE
  8
_0-5_TG
  6
CONTINUOUS
 62
    4
 10
476.9499999999997
 20
406.39999800000021
 11
485.9499999999997
 21
406.39999800000021
  0
LINE
  8
_0-5_TG
  6
CONTINUOUS
 62
    4
 10
469.54999999999973
 20
405.24999800000001
 11
476.4499999999997
 21
405.24999800000001
  0
LINE
  8
_0-6_受金具
  6
CONTINUOUS
 62
    4
 10
470.14999999999975
 20
413.15249799999992
 11
470.14999999999975
 21
409.55547800000011
  0
LINE
  8
_0-6_受金具
  6
CONTINUOUS
 62
    4
 10
470.14999999999975
 20
408.28615800000011
 11
474.64999999999975
 21
408.28615800000011
  0
LINE
  8
_0-6_受金具
  6
CONTINUOUS
 62
    4
 10
470.14999999999975
 20
409.55547800000011
 11
470.14999999999975
 21
408.28615800000011
  0
LINE
  8
_0-6_受金具
  6
CONTINUOUS
 62
    4
 10
474.64999999999975
 20
405.24999800000001
 11
474.64999999999975
 21
408.28615800000011
  0
LINE
  8
_0-6_受金具
  6
CONTINUOUS
 62
    4
 10
477.64999999999986
 20
408.28615800000011
 11
477.89999999999986
 21
408.28615800000011
  0
LINE
  8
_0-6_受金具
  6
CONTINUOUS
 62
    4
 10
477.64999999999986
 20
406.39999800000021
 11
477.64999999999986
 21
408.28615800000011
  0
LINE
  8
_0-5_TG
  6
CONTINUOUS
 62
    4
 10
476.4499999999997
 20
405.8999980000001
 11
476.9499999999997
 21
406.39999800000021
  0
LINE
  8
_0-5_TG
  6
CONTINUOUS
 62
    4
 10
485.9499999999997
 20
406.39999800000021
 11
486.44999999999982
 21
405.8999980000001
  0
LINE
  8
_0-6_受金具
  6
CONTINUOUS
 62
    4
 10
482.14999999999986
 20
412.55249800000001
 11
482.14999999999986
 21
409.55547800000011
  0
LINE
  8
_0-5_TG
  6
CONTINUOUS
 62
    3
 10
484.69999999999982
 20
408.94999800000005
 11
478.1999999999997
 21
408.94999800000005
  0
LINE
  8
_0-5_TG
  6
CONTINUOUS
 62
    4
 10
484.19999999999982
 20
409.44999800000005
 11
478.6999999999997
 21
409.44999800000005
  0
LINE
  8
_0-5_TG
  6
CONTINUOUS
 62
    3
 10
478.6999999999997
 20
409.44999800000005
 11
478.6999999999997
 21
406.39999800000021
  0
LINE
  8
_0-5_TG
  6
CONTINUOUS
 62
    4
 10
478.6999999999997
 20
409.44999800000005
 11
478.1999999999997
 21
408.94999800000005
  0
LINE
  8
_0-5_TG
  6
CONTINUOUS
 62
    4
 10
478.1999999999997
 20
408.94999800000005
 11
478.1999999999997
 21
406.39999800000021
  0
LINE
  8
_0-5_TG
  6
CONTINUOUS
 62
    3
 10
484.19999999999982
 20
409.44999800000005
 11
484.19999999999982
 21
406.39999800000021
  0
LINE
  8
_0-5_TG
  6
CONTINUOUS
 62
    4
 10
484.69999999999982
 20
408.94999800000005
 11
484.69999999999982
 21
406.39999800000021
  0
LINE
  8
_0-5_TG
  6
CONTINUOUS
 62
    4
 10
484.19999999999982
 20
409.44999800000005
 11
484.69999999999982
 21
408.94999800000005
  0
LINE
  8
_0-5_TG
  6
CONTINUOUS
 62
    4
 10
482.14999999999986
 20
409.44999800000005
 11
482.14999999999986
 21
409.55547800000011
  0
ARC
  8
_0-4_笠木
  6
CONTINUOUS
 62
    4
 10
503.24999999999989
 20
408.49373800000012
 40
3
 50
0
 51
87.13759500000215
  0
LINE
  8
_0-4_笠木
  6
CONTINUOUS
 62
    4
 10
506.25249999999971
 20
413.34985800000004
 11
508.25
 21
411.24999800000012
  0
LINE
  8
_0-4_笠木
  6
CONTINUOUS
 62
    7
 10
310.24999999999989
 20
367.24999800000012
 11
310.24999999999989
 21
363.24999800000012
  0
LINE
  8
_0-6_受金具
  6
CONTINUOUS
 62
    4
 10
310.24999999999989
 20
363.24999800000012
 11
313.07512152570814
 21
363.44754583259441
  0
LINE
  8
_0-6_受金具
  6
CONTINUOUS
 62
    4
 10
310.24999999999989
 20
367.24999800000012
 11
310.24999999999989
 21
363.24999800000012
  0
LINE
  8
_0-6_受金具
  6
CONTINUOUS
 62
    4
 10
503.54283999999996
 20
363.43929800000001
 11
506.14999999999986
 21
363.25697800000012
  0
INSERT
  2
-001-_D4
  8
_0-2_寸法
 10
-292.47323865745045
 20
1040.5400167891576
 41
0.25
 42
0.25
 50
0
  0
INSERT
  2
-002-_D5
  8
_0-2_寸法
 10
-292.47323865745045
 20
1040.5400167891576
 41
0.25
 42
0.25
 50
0
  0
INSERT
  2
-003-_D6
  8
_0-2_寸法
 10
-292.47323865745045
 20
1040.5400167891576
 41
0.25
 42
0.25
 50
0
  0
INSERT
  2
-004-_D7
  8
_0-2_寸法
 10
-292.47323865745045
 20
1040.5400167891576
 41
0.25
 42
0.25
 50
0
  0
INSERT
  2
-005-_D8
  8
_0-2_寸法
 10
-292.47323865745045
 20
1040.5400167891576
 41
0.25
 42
0.25
 50
0
  0
INSERT
  2
-006-_D9
  8
_0-2_寸法
 10
-292.47323865745045
 20
1040.5400167891576
 41
0.25
 42
0.25
 50
0
  0
INSERT
  2
-007-_D10
  8
_0-2_寸法
 10
-292.47323865745045
 20
1040.5400167891576
 41
0.25
 42
0.25
 50
0
  0
INSERT
  2
-008-_D11
  8
_0-2_寸法
 10
-292.47323865745045
 20
1040.5400167891576
 41
0.25
 42
0.25
 50
0
  0
INSERT
  2
-009-_D12
  8
_0-2_寸法
 10
-292.47323865745045
 20
1040.5400167891576
 41
0.25
 42
0.25
 50
0
  0
INSERT
  2
-010-_D13
  8
_0-2_寸法
 10
-292.47323865745045
 20
1040.5400167891576
 41
0.25
 42
0.25
 50
0
  0
INSERT
  2
-011-_D14
  8
_0-2_寸法
 10
-292.47323865745045
 20
1040.5400167891576
 41
0.25
 42
0.25
 50
0
  0
INSERT
  2
-012-_D15
  8
_0-2_寸法
 10
-292.47323865745045
 20
1040.5400167891576
 41
0.25
 42
0.25
 50
0
  0
INSERT
  2
-013-_D16
  8
_0-2_寸法
 10
-292.47323865745045
 20
1040.5400167891576
 41
0.25
 42
0.25
 50
0
  0
INSERT
  2
-014-_D17
  8
_0-2_寸法
 10
-292.47323865745045
 20
1040.5400167891576
 41
0.25
 42
0.25
 50
0
  0
INSERT
  2
-015-_D18
  8
_0-2_寸法
 10
-292.47323865745045
 20
1040.5400167891576
 41
0.25
 42
0.25
 50
0
  0
INSERT
  2
-016-_D19
  8
_0-2_寸法
 10
-292.47323865745045
 20
1040.5400167891576
 41
0.25
 42
0.25
 50
0
  0
INSERT
  2
-017-_D20
  8
_0-2_寸法
 10
-292.47323865745045
 20
1040.5400167891576
 41
0.25
 42
0.25
 50
0
  0
INSERT
  2
-018-_D21
  8
_0-2_寸法
 10
-292.47323865745045
 20
1040.5400167891576
 41
0.25
 42
0.25
 50
0
  0
INSERT
  2
-019-_D22
  8
_0-2_寸法
 10
-292.47323865745045
 20
1040.5400167891576
 41
0.25
 42
0.25
 50
0
  0
LINE
  8
_0-3_躯体
  6
CONTINUOUS
 62
    4
 10
432.35659999999996
 20
399.24999800000012
 11
333.74999999999989
 21
399.24999800000012
  0
ENDSEC
  0
EOF
