  0
SECTION
  2
HEADER
  9
$ACADVER
  1
AC1009
  9
$INSBASE
 10
0
 20
0
 30
0
  9
$EXTMIN
 10
0
 20
0
  9
$EXTMAX
 10
420
 20
297
  9
$LIMMIN
 10
0
 20
0
  9
$LIMMAX
 10
420
 20
297
  9
$LTSCALE
 40
1
  0
ENDSEC
  0
SECTION
  2
TABLES
  0
TABLE
  2
LTYPE
 70
     9
  0
LTYPE
  2
CONTINUOUS
 70
    64
  3
実線
 72
    65
 73
     0
 40
0.0
  0
LTYPE
  2
DASHED1
 70
    64
  3
--  --  --  --  --  --  --  --  
 72
    65
 73
     2
 40
2.5
 49
1.25
 49
-1.25
  0
LTYPE
  2
DASHED2
 70
    64
  3
----    ----    ----    ----    
 72
    65
 73
     2
 40
5.0
 49
2.5
 49
-2.5
  0
LTYPE
  2
DASHED3
 70
    64
  3
------  ------  ------  ------  
 72
    65
 73
     2
 40
5.0
 49
3.75
 49
-1.25
  0
LTYPE
  2
CENTER1
 70
    64
  3
----- - ----- - ----- - ----- - 
 72
    65
 73
     4
 40
10.0
 49
6.25
 49
-1.25
 49
1.25
 49
-1.25
  0
LTYPE
  2
CENTER2
 70
    64
  3
----------  --  ----------  --  
 72
    65
 73
     4
 40
20.0
 49
12.5
 49
-2.5
 49
2.5
 49
-2.5
  0
LTYPE
  2
PHANTOM1
 70
    64
  3
--- - - --- - - --- - - --- - - 
 72
    65
 73
     6
 40
10.0
 49
3.25
 49
-1.25
 49
1.25
 49
-1.25
 49
1.25
 49
-1.25
  0
LTYPE
  2
PHANTOM2
 70
    64
  3
--------  -  -  --------  -  -  
 72
    65
 73
     6
 40
20.0
 49
10.0
 49
-2.5
 49
1.25
 49
-2.5
 49
1.25
 49
-2.5
  0
LTYPE
  2
DOT
 70
    64
  3
-   -   -   -   -   -   -   -   
 72
    65
 73
     2
 40
2.5
 49
0.625
 49
-1.875
  0
LTYPE
  2
DUMMY
 70
    64
  3
ダミー
 72
    65
 73
     0
 40
0.0
  0
LTYPE
  2
RAND1
 70
    64
  3
ランダム線1
 72
    65
 73
     4
 40
10.0
 49
1.0
 49
-2.0
 49
3.0
 49
-4.0
  0
LTYPE
  2
RAND2
 70
    64
  3
ランダム線2
 72
    65
 73
     4
 40
14.0
 49
2.0
 49
-3.0
 49
4.0
 49
-5.0
  0
LTYPE
  2
RAND3
 70
    64
  3
ランダム線3
 72
    65
 73
     4
 40
18.0
 49
3.0
 49
-4.0
 49
5.0
 49
-6.0
  0
LTYPE
  2
RAND4
 70
    64
  3
ランダム線4
 72
    65
 73
     4
 40
22.0
 49
4.0
 49
-5.0
 49
6.0
 49
-7.0
  0
LTYPE
  2
RAND5
 70
    64
  3
ランダム線5
 72
    65
 73
     4
 40
26.0
 49
5.0
 49
-6.0
 49
7.0
 49
-8.0
  0
LTYPE
  2
LONG1
 70
    64
  3
----------  --  ----------  --  
 72
    65
 73
     4
 40
40.0
 49
32.5
 49
-2.5
 49
2.5
 49
-2.5
  0
LTYPE
  2
LONG2
 70
    64
  3
--------  -  -  --------  -  -  
 72
    65
 73
     6
 40
40.0
 49
30.0
 49
-2.5
 49
1.25
 49
-2.5
 49
1.25
 49
-2.5
  0
LTYPE
  2
LONG3
 70
    64
  3
+++++++++++++++..+++++++++++++++
 72
    65
 73
     2
 40
40.0
 49
37.5
 49
-2.5
  0
LTYPE
  2
LONG4
 70
    64
  3
+++++++++++++++..+++++++++++++++
 72
    65
 73
     2
 40
80.0
 49
75.0
 49
-5.0
  0
LTYPE
  2
LONG5
 70
    64
  3
----------  --  ----------  --  
 72
    65
 73
     4
 40
60.0
 49
37.5
 49
-7.5
 49
7.5
 49
-7.5
  0
LTYPE
  2
dashed
 70
   64
  3
-------   -------------   ------
 72
   65
 73
    2
 40
7.5
 49
6
 49
-1.5
  0
LTYPE
  2
dashed_spaced
 70
   64
  3
----        --------        ----
 72
   65
 73
    2
 40
12
 49
6
 49
-6
  0
LTYPE
  2
long_dashed_dotted
 70
   64
  3
------------- --- --------------
 72
   65
 73
    4
 40
15.25
 49
12
 49
-1.5
 49
0.25
 49
-1.5
  0
LTYPE
  2
long_dashed_double-dotted
 70
   64
  3
----------- --- --- ------------
 72
   65
 73
    6
 40
17
 49
12
 49
-1.5
 49
0.25
 49
-1.5
 49
0.25
 49
-1.5
  0
LTYPE
  2
long_dashed_triplicate-dotted
 70
   64
  3
--------- --- --- --- ----------
 72
   65
 73
    8
 40
18.75
 49
12
 49
-1.5
 49
0.25
 49
-1.5
 49
0.25
 49
-1.5
 49
0.25
 49
-1.5
  0
LTYPE
  2
dotted
 70
   64
  3
   -       -       -       -    
 72
   65
 73
    2
 40
1.75
 49
0.25
 49
-1.5
  0
LTYPE
  2
chain
 70
   64
  3
-------------- -- --------------
 72
   65
 73
    4
 40
18.5
 49
12
 49
-1.5
 49
3.5
 49
-1.5
  0
LTYPE
  2
chain_double_dash
 70
   64
  3
------------ -- -- -------------
 72
   65
 73
    6
 40
23.5
 49
12
 49
-1.5
 49
3.5
 49
-1.5
 49
3.5
 49
-1.5
  0
LTYPE
  2
dashed_dotted
 70
   64
  3
-----------     -     ----------
 72
   65
 73
    4
 40
9.25
 49
6
 49
-1.5
 49
0.25
 49
-1.5
  0
LTYPE
  2
double-dashed_dotted
 70
   64
  3
------   -----------   -   -----
 72
   65
 73
    6
 40
16.75
 49
6
 49
-1.5
 49
6
 49
-1.5
 49
0.25
 49
-1.5
  0
LTYPE
  2
dashed_double-dotted
 70
   64
  3
---------    -    -    ---------
 72
   65
 73
    6
 40
11
 49
6
 49
-1.5
 49
0.25
 49
-1.5
 49
0.25
 49
-1.5
  0
LTYPE
  2
double-dashed_double-dotted
 70
   64
  3
-----   ---------   -   -   ----
 72
   65
 73
    8
 40
18.5
 49
6
 49
-1.5
 49
6
 49
-1.5
 49
0.25
 49
-1.5
 49
0.25
 49
-1.5
  0
LTYPE
  2
dashed_triplicate-dotted
 70
   64
  3
-------    -    -    -    ------
 72
   65
 73
    8
 40
12.75
 49
6
 49
-1.5
 49
0.25
 49
-1.5
 49
0.25
 49
-1.5
 49
0.25
 49
-1.5
  0
LTYPE
  2
double-dashed_triplicate-dotted
 70
   64
  3
-----  ---------  -  -  -  -----
 72
   65
 73
   10
 40
20.25
 49
6
 49
-1.5
 49
6
 49
-1.5
 49
0.25
 49
-1.5
 49
0.25
 49
-1.5
 49
0.25
 49
-1.5
  0
LTYPE
  2
undefined
 70
   64
  3
--------------------------------
 72
   65
 73
    0
 40
0
  0
LTYPE
  2
PLINE2
 70
   64
  3
------     -----------     -----
 72
   65
 73
    2
 40
3
 49
2.1000000000000001
 49
-0.9
  0
LTYPE
  2
PLINE3
 70
   64
  3
------------   ---   -----------
 72
   65
 73
    4
 40
10
 49
7
 49
-1
 49
1
 49
-1
  0
LTYPE
  2
PLINE4
 70
   64
  3
---------   ---   ---   --------
 72
   65
 73
    6
 40
10
 49
5
 49
-1
 49
1
 49
-1
 49
1
 49
-1
  0
LTYPE
  2
PLINE5
 70
   64
  3
------     -----------     -----
 72
   65
 73
    2
 40
5
 49
3.5
 49
-1.5
  0
LTYPE
  2
PLINE6
 70
   64
  3
------------   ---   -----------
 72
   65
 73
    4
 40
15
 49
10.5
 49
-1.5
 49
1.5
 49
-1.5
  0
LTYPE
  2
PLINE7
 70
   64
  3
---------   ---   ---   --------
 72
   65
 73
    6
 40
15
 49
7.5
 49
-1.5
 49
1.5
 49
-1.5
 49
1.5
 49
-1.5
  0
LTYPE
  2
PLINE8
 70
   64
  3
------     -----------     -----
 72
   65
 73
    2
 40
7
 49
4.9000000000000004
 49
-2.1000000000000001
  0
LTYPE
  2
PLINE9
 70
   64
  3
------------   ---   -----------
 72
   65
 73
    4
 40
20
 49
14
 49
-2
 49
2
 49
-2
  0
LTYPE
  2
PLINE10
 70
   64
  3
---------   ---   ---   --------
 72
   65
 73
    6
 40
20
 49
10
 49
-2
 49
2
 49
-2
 49
2
 49
-2
  0
LTYPE
  2
PLINE11
 70
   64
  3
------     -----------     -----
 72
   65
 73
    2
 40
9
 49
6.2999999999999989
 49
-2.7000000000000002
  0
LTYPE
  2
PLINE12
 70
   64
  3
------------   ---   -----------
 72
   65
 73
    4
 40
25
 49
17.5
 49
-2.5
 49
2.5
 49
-2.5
  0
LTYPE
  2
PLINE13
 70
   64
  3
---------   ---   ---   --------
 72
   65
 73
    6
 40
25
 49
12.5
 49
-2.5
 49
2.5
 49
-2.5
 49
2.5
 49
-2.5
  0
LTYPE
  2
PLINE14
 70
   64
  3
------     -----------     -----
 72
   65
 73
    2
 40
11
 49
7.7000000000000002
 49
-3.2999999999999989
  0
LTYPE
  2
PLINE15
 70
   64
  3
------------   ---   -----------
 72
   65
 73
    4
 40
30
 49
21
 49
-3
 49
3
 49
-3
  0
LTYPE
  2
PLINE16
 70
   64
  3
---------   ---   ---   --------
 72
   65
 73
    6
 40
30
 49
15
 49
-3
 49
3
 49
-3
 49
3
 49
-3
  0
ENDTAB
  0
TABLE
  2
STYLE
  5
3
100
AcDbSymbolTable
 70
     1
  0
STYLE
  5
10
100
AcDbSymbolTableRecord
100
AcDbTextStyleTableRecord
  2
STANDARD
 70
     0
 40
0.0
 41
1.0
 50
0.0
 71
     0
 42
0.2
  3
txt
  4
bigfont.shx
  0
STYLE
  5
26
100
AcDbSymbolTableRecord
100
AcDbTextStyleTableRecord
  2
TATEGAKI
 70
    68
 40
0.0
 41
1.0
 50
0.0
 71
     0
 42
1.0
  3
txt
  4
bigfont.shx
  0
ENDTAB
  0
TABLE
  2
LAYER
 70
    5
  0
LAYER
  2
_0-2_寸法
 70
   64
 62
    7
  6
CONTINUOUS
  0
LAYER
  2
_0-3_躯体と製品
 70
   64
 62
    7
  6
CONTINUOUS
  0
LAYER
  2
_0-4_図面枠
 70
   64
 62
    7
  6
CONTINUOUS
  0
LAYER
  2
_0-5_文字-記号
 70
   64
 62
    7
  6
CONTINUOUS
  0
LAYER
  2
ADD_LINE
 70
   64
 62
    7
  6
CONTINUOUS
  0
ENDTAB
  0
ENDSEC
  0
SECTION
  2
BLOCKS
  0
BLOCK
  2
-000-_Open30
 70
   64
 10
0
 20
0
 30
0
  0
LINE
  8
_0-0_0
  6
CONTINUOUS
 62
    7
 10
-2
 20
0.53589838
 11
0
 21
0
  0
LINE
  8
_0-0_0
  6
CONTINUOUS
 62
    7
 10
0
 20
0
 11
-2
 21
-0.53589838
  0
LINE
  8
_0-0_0
  6
CONTINUOUS
 62
    7
 10
0
 20
0
 11
-2
 21
0
  0
ENDBLK
  0
BLOCK
  2
-001-_D4
 70
   64
 10
0
 20
0
 30
0
  0
LINE
  8
_0-2_寸法
  6
CONTINUOUS
 62
    4
 10
192.01410657136589
 20
435.30584394445123
 11
192.01410657136589
 21
452.28034994445119
  0
LINE
  8
_0-2_寸法
  6
CONTINUOUS
 62
    4
 10
298.68077257136582
 20
435.30584394445123
 11
298.68077257136582
 21
452.28034994445119
  0
LINE
  8
_0-2_寸法
  6
CONTINUOUS
 62
    4
 10
194.01410657136594
 20
452.28034994445119
 11
296.68077257136582
 21
452.28034994445119
  0
INSERT
  2
-000-_Open30
  8
_0-2_寸法
 10
192.01410657136589
 20
452.28034994445119
 41
1
 42
1
 50
180
  0
INSERT
  2
-000-_Open30
  8
_0-2_寸法
 10
298.68077257136582
 20
452.28034994445119
 41
1
 42
1
 50
0
  0
TEXT
  8
_0-2_寸法
 62
    7
 10
242.34743957136581
 20
454.28034994445119
 40
4
 41
1
 50
0
  1
160
  0
POINT
  8
_0-1_Defpoints
 62
    7
 10
192.01410657136589
 20
435.30584394445123
  0
POINT
  8
_0-1_Defpoints
 62
    7
 10
298.68077257136582
 20
435.30584394445123
  0
POINT
  8
_0-1_Defpoints
 62
    7
 10
298.68077257136582
 20
452.28034994445119
  0
ENDBLK
  0
BLOCK
  2
-002-_D5
 70
   64
 10
0
 20
0
 30
0
  0
LINE
  8
_0-2_寸法
  6
CONTINUOUS
 62
    4
 10
309.68077257136582
 20
424.97251194445118
 11
315.9758565713658
 21
424.97251194445118
  0
LINE
  8
_0-2_寸法
  6
CONTINUOUS
 62
    4
 10
299.0141065713658
 20
434.97251194445118
 11
315.9758565713658
 21
434.97251194445118
  0
LINE
  8
_0-2_寸法
  6
CONTINUOUS
 62
    4
 10
315.9758565713658
 20
426.97251194445118
 11
315.9758565713658
 21
432.97251194445118
  0
INSERT
  2
-000-_Open30
  8
_0-2_寸法
 10
315.9758565713658
 20
424.97251194445118
 41
1
 42
1
 50
270
  0
INSERT
  2
-000-_Open30
  8
_0-2_寸法
 10
315.9758565713658
 20
434.97251194445118
 41
1
 42
1
 50
90
  0
TEXT
  8
_0-2_寸法
 62
    7
 10
313.9758565713658
 20
427.97251194445118
 40
4
 41
1
 50
90
  1
15
  0
POINT
  8
_0-1_Defpoints
 62
    7
 10
309.68077257136582
 20
424.97251194445118
  0
POINT
  8
_0-1_Defpoints
 62
    7
 10
299.0141065713658
 20
434.97251194445118
  0
POINT
  8
_0-1_Defpoints
 62
    7
 10
315.9758565713658
 20
434.97251194445118
  0
ENDBLK
  0
BLOCK
  2
-003-_D6
 70
   64
 10
0
 20
0
 30
0
  0
LINE
  8
_0-2_寸法
  6
CONTINUOUS
 62
    4
 10
228.68077257136579
 20
390.63917794445121
 11
228.68077257136579
 21
385.22188994445122
  0
LINE
  8
_0-2_寸法
  6
CONTINUOUS
 62
    4
 10
262.0141065713658
 20
390.63917794445121
 11
262.0141065713658
 21
385.22188994445122
  0
LINE
  8
_0-2_寸法
  6
CONTINUOUS
 62
    4
 10
230.68077257136579
 20
385.22188994445122
 11
260.0141065713658
 21
385.22188994445122
  0
INSERT
  2
-000-_Open30
  8
_0-2_寸法
 10
228.68077257136579
 20
385.22188994445122
 41
1
 42
1
 50
180
  0
INSERT
  2
-000-_Open30
  8
_0-2_寸法
 10
262.0141065713658
 20
385.22188994445122
 41
1
 42
1
 50
0
  0
TEXT
  8
_0-2_寸法
 62
    7
 10
243.34743957136581
 20
387.22188994445122
 40
4
 41
1
 50
0
  1
50
  0
POINT
  8
_0-1_Defpoints
 62
    7
 10
228.68077257136579
 20
390.63917794445121
  0
POINT
  8
_0-1_Defpoints
 62
    7
 10
262.0141065713658
 20
390.63917794445121
  0
POINT
  8
_0-1_Defpoints
 62
    7
 10
262.0141065713658
 20
385.22188994445122
  0
ENDBLK
  0
BLOCK
  2
-004-_D7
 70
   64
 10
0
 20
0
 30
0
  0
LINE
  8
_0-2_寸法
  6
CONTINUOUS
 62
    4
 10
262.0141065713658
 20
390.63917794445121
 11
262.0141065713658
 21
385.22188994445122
  0
LINE
  8
_0-2_寸法
  6
CONTINUOUS
 62
    4
 10
276.0141065713658
 20
390.84872194445097
 11
276.0141065713658
 21
385.22188994445122
  0
LINE
  8
_0-2_寸法
  6
CONTINUOUS
 62
    4
 10
264.0141065713658
 20
385.22188994445122
 11
274.0141065713658
 21
385.22188994445122
  0
INSERT
  2
-000-_Open30
  8
_0-2_寸法
 10
262.0141065713658
 20
385.22188994445122
 41
1
 42
1
 50
180
  0
INSERT
  2
-000-_Open30
  8
_0-2_寸法
 10
276.0141065713658
 20
385.22188994445122
 41
1
 42
1
 50
0
  0
TEXT
  8
_0-2_寸法
 62
    7
 10
267.0141065713658
 20
387.22188994445122
 40
4
 41
1
 50
0
  1
21
  0
POINT
  8
_0-1_Defpoints
 62
    7
 10
262.0141065713658
 20
390.63917794445121
  0
POINT
  8
_0-1_Defpoints
 62
    7
 10
276.0141065713658
 20
390.84872194445097
  0
POINT
  8
_0-1_Defpoints
 62
    7
 10
276.0141065713658
 20
385.22188994445122
  0
ENDBLK
  0
BLOCK
  2
-005-_D8
 70
   64
 10
0
 20
0
 30
0
  0
LINE
  8
_0-2_寸法
  6
CONTINUOUS
 62
    4
 10
498.03505257136578
 20
398.33764194445121
 11
527.36838457136582
 21
398.33764194445121
  0
INSERT
  2
-000-_Open30
  8
_0-2_寸法
 10
496.03505257136578
 20
398.33764194445121
 41
1
 42
1
 50
180
  0
INSERT
  2
-000-_Open30
  8
_0-2_寸法
 10
529.36838457136582
 20
398.33764194445121
 41
1
 42
1
 50
0
  0
TEXT
  8
_0-2_寸法
 62
    7
 10
510.70171857136575
 20
400.33764194445098
 40
4
 41
1
 50
0
  1
50
  0
POINT
  8
_0-1_Defpoints
 62
    7
 10
496.03505257136578
 20
398.33764194445121
  0
POINT
  8
_0-1_Defpoints
 62
    7
 10
529.36838457136582
 20
398.33764194445121
  0
POINT
  8
_0-1_Defpoints
 62
    7
 10
529.36838457136582
 20
398.33764194445121
  0
ENDBLK
  0
BLOCK
  2
-006-_D9
 70
   64
 10
0
 20
0
 30
0
  0
LINE
  8
_0-2_寸法
  6
CONTINUOUS
 62
    4
 10
448.36838457136582
 20
424.97251194445118
 11
439.80945457136579
 21
424.97251194445118
  0
LINE
  8
_0-2_寸法
  6
CONTINUOUS
 62
    4
 10
459.36838457136582
 20
468.30584394445123
 11
439.80945457136579
 21
468.30584394445123
  0
LINE
  8
_0-2_寸法
  6
CONTINUOUS
 62
    4
 10
439.80945457136579
 20
426.97251194445118
 11
439.80945457136579
 21
466.30584394445123
  0
INSERT
  2
-000-_Open30
  8
_0-2_寸法
 10
439.80945457136579
 20
424.97251194445118
 41
1
 42
1
 50
270
  0
INSERT
  2
-000-_Open30
  8
_0-2_寸法
 10
439.80945457136579
 20
468.30584394445123
 41
1
 42
1
 50
90
  0
TEXT
  8
_0-2_寸法
 62
    7
 10
437.80945457136579
 20
444.63917794445138
 40
4
 41
1
 50
90
  1
65
  0
POINT
  8
_0-1_Defpoints
 62
    7
 10
448.36838457136582
 20
424.97251194445118
  0
POINT
  8
_0-1_Defpoints
 62
    7
 10
459.36838457136582
 20
468.30584394445123
  0
POINT
  8
_0-1_Defpoints
 62
    7
 10
439.80945457136579
 20
468.30584394445123
  0
ENDBLK
  0
BLOCK
  2
-007-_D10
 70
   64
 10
0
 20
0
 30
0
  0
LINE
  8
_0-2_寸法
  6
CONTINUOUS
 62
    4
 10
459.03505257136578
 20
434.97251194445118
 11
449.36838457136582
 21
434.97251194445118
  0
LINE
  8
_0-2_寸法
  6
CONTINUOUS
 62
    4
 10
449.36838457136582
 20
426.97251194445118
 11
449.36838457136582
 21
432.97251194445118
  0
INSERT
  2
-000-_Open30
  8
_0-2_寸法
 10
449.36838457136582
 20
424.97251194445118
 41
1
 42
1
 50
270
  0
INSERT
  2
-000-_Open30
  8
_0-2_寸法
 10
449.36838457136582
 20
434.97251194445118
 41
1
 42
1
 50
90
  0
TEXT
  8
_0-2_寸法
 62
    7
 10
447.36838457136582
 20
427.97251194445118
 40
4
 41
1
 50
90
  1
15
  0
POINT
  8
_0-1_Defpoints
 62
    7
 10
449.36838457136582
 20
424.97251194445118
  0
POINT
  8
_0-1_Defpoints
 62
    7
 10
459.03505257136578
 20
434.97251194445118
  0
POINT
  8
_0-1_Defpoints
 62
    7
 10
449.36838457136582
 20
434.97251194445118
  0
ENDBLK
  0
BLOCK
  2
-008-_D11
 70
   64
 10
0
 20
0
 30
0
  0
LINE
  8
_0-2_寸法
  6
CONTINUOUS
 62
    4
 10
459.03505257136578
 20
434.97251194445118
 11
449.36838457136582
 21
434.97251194445118
  0
LINE
  8
_0-2_寸法
  6
CONTINUOUS
 62
    4
 10
519.03505257136578
 20
468.30584394445123
 11
449.36838457136582
 21
468.30584394445123
  0
LINE
  8
_0-2_寸法
  6
CONTINUOUS
 62
    4
 10
449.36838457136582
 20
436.97251194445118
 11
449.36838457136582
 21
466.30584394445123
  0
INSERT
  2
-000-_Open30
  8
_0-2_寸法
 10
449.36838457136582
 20
434.97251194445118
 41
1
 42
1
 50
270
  0
INSERT
  2
-000-_Open30
  8
_0-2_寸法
 10
449.36838457136582
 20
468.30584394445123
 41
1
 42
1
 50
90
  0
TEXT
  8
_0-2_寸法
 62
    7
 10
447.36838457136582
 20
449.63917794445121
 40
4
 41
1
 50
90
  1
50
  0
POINT
  8
_0-1_Defpoints
 62
    7
 10
459.03505257136578
 20
434.97251194445118
  0
POINT
  8
_0-1_Defpoints
 62
    7
 10
519.03505257136578
 20
468.30584394445123
  0
POINT
  8
_0-1_Defpoints
 62
    7
 10
449.36838457136582
 20
468.30584394445123
  0
ENDBLK
  0
BLOCK
  2
-009-_D12
 70
   64
 10
0
 20
0
 30
0
  0
LINE
  8
_0-2_寸法
  6
CONTINUOUS
 62
    4
 10
459.36838457136582
 20
435.30584394445123
 11
459.36838457136582
 21
476.22370794445118
  0
LINE
  8
_0-2_寸法
  6
CONTINUOUS
 62
    4
 10
519.36838457136582
 20
468.63917794445121
 11
519.36838457136582
 21
476.22370794445118
  0
LINE
  8
_0-2_寸法
  6
CONTINUOUS
 62
    4
 10
461.36838457136582
 20
476.22370794445118
 11
517.36838457136582
 21
476.22370794445118
  0
INSERT
  2
-000-_Open30
  8
_0-2_寸法
 10
459.36838457136582
 20
476.22370794445118
 41
1
 42
1
 50
180
  0
INSERT
  2
-000-_Open30
  8
_0-2_寸法
 10
519.36838457136582
 20
476.22370794445118
 41
1
 42
1
 50
0
  0
TEXT
  8
_0-2_寸法
 62
    7
 10
487.36838457136582
 20
478.22370794445118
 40
4
 41
1
 50
0
  1
90
  0
POINT
  8
_0-1_Defpoints
 62
    7
 10
459.36838457136582
 20
435.30584394445123
  0
POINT
  8
_0-1_Defpoints
 62
    7
 10
519.36838457136582
 20
468.63917794445121
  0
POINT
  8
_0-1_Defpoints
 62
    7
 10
519.36838457136582
 20
476.22370794445118
  0
ENDBLK
  0
BLOCK
  2
-010-_D13
 70
   64
 10
0
 20
0
 30
0
  0
LINE
  8
_0-2_寸法
  6
CONTINUOUS
 62
    4
 10
519.36838457136582
 20
468.63917794445121
 11
519.36838457136582
 21
476.22370794445118
  0
LINE
  8
_0-2_寸法
  6
CONTINUOUS
 62
    4
 10
521.36838457136582
 20
476.22370794445118
 11
527.36838457136582
 21
476.22370794445118
  0
INSERT
  2
-000-_Open30
  8
_0-2_寸法
 10
519.36838457136582
 20
476.22370794445118
 41
1
 42
1
 50
180
  0
INSERT
  2
-000-_Open30
  8
_0-2_寸法
 10
529.36838457136582
 20
476.22370794445118
 41
1
 42
1
 50
0
  0
TEXT
  8
_0-2_寸法
 62
    7
 10
522.36838457136582
 20
478.22370794445118
 40
4
 41
1
 50
0
  1
15
  0
POINT
  8
_0-1_Defpoints
 62
    7
 10
519.36838457136582
 20
468.63917794445121
  0
POINT
  8
_0-1_Defpoints
 62
    7
 10
529.36838457136582
 20
476.22370794445118
  0
POINT
  8
_0-1_Defpoints
 62
    7
 10
529.36838457136582
 20
476.22370794445118
  0
ENDBLK
  0
BLOCK
  2
-011-_D14
 70
   64
 10
0
 20
0
 30
0
  0
LINE
  8
_0-2_寸法
  6
CONTINUOUS
 62
    4
 10
529.36838457136582
 20
478.23142994445118
 11
529.36838457136582
 21
484.26660194445122
  0
LINE
  8
_0-2_寸法
  6
CONTINUOUS
 62
    4
 10
459.36838457136582
 20
435.30584394445123
 11
459.36838457136582
 21
484.26660194445122
  0
LINE
  8
_0-2_寸法
  6
CONTINUOUS
 62
    4
 10
527.36838457136582
 20
484.26660194445122
 11
461.36838457136582
 21
484.26660194445122
  0
INSERT
  2
-000-_Open30
  8
_0-2_寸法
 10
529.36838457136582
 20
484.26660194445122
 41
1
 42
1
 50
0
  0
INSERT
  2
-000-_Open30
  8
_0-2_寸法
 10
459.36838457136582
 20
484.26660194445122
 41
1
 42
1
 50
180
  0
TEXT
  8
_0-2_寸法
 62
    7
 10
491.36838457136582
 20
486.26660194445122
 40
4
 41
1
 50
0
  1
105
  0
POINT
  8
_0-1_Defpoints
 62
    7
 10
529.36838457136582
 20
478.23142994445118
  0
POINT
  8
_0-1_Defpoints
 62
    7
 10
459.36838457136582
 20
435.30584394445123
  0
POINT
  8
_0-1_Defpoints
 62
    7
 10
459.36838457136582
 20
484.26660194445122
  0
ENDBLK
  0
BLOCK
  2
-012-_D15
 70
   64
 10
0
 20
0
 30
0
  0
LINE
  8
_0-2_寸法
  6
CONTINUOUS
 62
    4
 10
497.03505257136578
 20
424.97251194445118
 11
559.82051657136583
 21
424.97251194445118
  0
LINE
  8
_0-2_寸法
  6
CONTINUOUS
 62
    4
 10
556.20204257136584
 20
445.63917794445121
 11
559.82051657136583
 21
445.63917794445121
  0
LINE
  8
_0-2_寸法
  6
CONTINUOUS
 62
    4
 10
559.82051657136583
 20
426.97251194445118
 11
559.82051657136583
 21
443.63917794445121
  0
INSERT
  2
-000-_Open30
  8
_0-2_寸法
 10
559.82051657136583
 20
424.97251194445118
 41
1
 42
1
 50
270
  0
INSERT
  2
-000-_Open30
  8
_0-2_寸法
 10
559.82051657136583
 20
445.63917794445121
 41
1
 42
1
 50
90
  0
TEXT
  8
_0-2_寸法
 62
    7
 10
557.8205165713656
 20
433.30584494445122
 40
4
 41
1
 50
90
  1
31
  0
POINT
  8
_0-1_Defpoints
 62
    7
 10
497.03505257136578
 20
424.97251194445118
  0
POINT
  8
_0-1_Defpoints
 62
    7
 10
556.20204257136584
 20
445.63917794445121
  0
POINT
  8
_0-1_Defpoints
 62
    7
 10
559.82051657136583
 20
445.63917794445121
  0
ENDBLK
  0
ENDSEC
  0
SECTION
  2
ENTITIES
  0
TEXT
  8
_0-4_図面枠
 62
    7
 10
317.92443883333328
 20
87.468633499999981
 40
2
 41
0.8
 50
0
  1
〃
  0
TEXT
  8
_0-4_図面枠
 62
    7
 10
313.89778116666668
 20
87.468633499999981
 40
2
 41
0.8
 50
0
  1
６
  0
TEXT
  8
_0-4_図面枠
 62
    7
 10
317.92443883333328
 20
91.468629499999992
 40
2
 41
0.8
 50
0
  1
〃
  0
TEXT
  8
_0-4_図面枠
 62
    7
 10
313.89778116666668
 20
91.468629499999992
 40
2
 41
0.8
 50
0
  1
６
  0
LINE
  8
_0-3_躯体と製品
  6
CONTINUOUS
 62
    2
 10
283.35551149999998
 20
189.02819549999998
 11
283.12217849999996
 21
188.79486249999997
  0
LINE
  8
_0-3_躯体と製品
  6
CONTINUOUS
 62
    2
 10
283.35551149999998
 20
189.02819549999998
 11
283.12217849999996
 21
189.26152849999997
  0
LINE
  8
_0-3_躯体と製品
  6
CONTINUOUS
 62
    2
 10
283.12217849999996
 20
189.76152849999997
 11
283.5221785
 21
189.76152849999997
  0
LINE
  8
_0-3_躯体と製品
  6
CONTINUOUS
 62
    2
 10
284.28884449999998
 20
189.16152849999997
 11
284.28884449999998
 21
189.26152849999997
  0
ARC
  8
_0-3_躯体と製品
  6
CONTINUOUS
 62
    2
 10
283.5221785
 20
189.26152849999997
 40
0.7666669999999999
 50
0
 51
90
  0
LINE
  8
_0-3_躯体と製品
  6
CONTINUOUS
 62
    2
 10
284.0221785
 20
189.16152849999997
 11
284.0221785
 21
189.26152849999997
  0
ARC
  8
_0-3_躯体と製品
  6
CONTINUOUS
 62
    2
 10
283.5221785
 20
189.26152849999997
 40
0.5
 50
0
 51
90
  0
ARC
  8
_0-3_躯体と製品
  6
CONTINUOUS
 62
    2
 10
284.15551149999999
 20
189.16152849999997
 40
0.133333
 50
180
 51
0
  0
LINE
  8
_0-3_躯体と製品
  6
CONTINUOUS
 62
    2
 10
283.12217849999996
 20
189.26152849999997
 11
283.12217849999996
 21
189.76152849999997
  0
LINE
  8
_0-3_躯体と製品
  6
CONTINUOUS
 62
    2
 10
283.12217849999996
 20
188.29486249999997
 11
283.12217849999996
 21
188.79486249999997
  0
ARC
  8
_0-3_躯体と製品
  6
CONTINUOUS
 62
    2
 10
281.42474550000009
 20
189.02819549999998
 40
0.166667
 50
123.42481099999992
 51
236.57518900000002
  0
LINE
  8
_0-3_躯体と製品
  6
CONTINUOUS
 62
    2
 10
282.28884449999998
 20
188.52819549999998
 11
282.12217849999996
 21
188.69486249999997
  0
LINE
  8
_0-3_躯体と製品
  6
CONTINUOUS
 62
    2
 10
282.28884449999998
 20
188.52819549999998
 11
282.45551149999994
 21
188.69486249999997
  0
LINE
  8
_0-3_躯体と製品
  6
CONTINUOUS
 62
    2
 10
282.45551149999994
 20
188.69486249999997
 11
282.62217849999996
 21
188.69486249999997
  0
LINE
  8
_0-3_躯体と製品
  6
CONTINUOUS
 62
    2
 10
281.33293749999996
 20
188.88909349999997
 11
281.95551150000006
 21
188.47819549999997
  0
LINE
  8
_0-3_躯体と製品
  6
CONTINUOUS
 62
    2
 10
282.62217849999996
 20
188.69486249999997
 11
282.62217849999996
 21
188.02819549999998
  0
LINE
  8
_0-3_躯体と製品
  6
CONTINUOUS
 62
    2
 10
283.12217849999996
 20
188.29486249999997
 11
283.5221785
 21
188.29486249999997
  0
LINE
  8
_0-3_躯体と製品
  6
CONTINUOUS
 62
    2
 10
282.62217849999996
 20
188.02819549999998
 11
283.5221785
 21
188.02819549999998
  0
LINE
  8
_0-3_躯体と製品
  6
CONTINUOUS
 62
    2
 10
281.95551150000006
 20
188.47819549999997
 11
282.12217849999996
 21
188.69486249999997
  0
LINE
  8
_0-3_躯体と製品
  6
CONTINUOUS
 62
    2
 10
282.45551149999994
 20
189.36152849999999
 11
282.62217849999996
 21
189.36152849999999
  0
LINE
  8
_0-3_躯体と製品
  6
CONTINUOUS
 62
    2
 10
281.33293749999996
 20
189.16729749999999
 11
281.95551150000006
 21
189.57819549999999
  0
LINE
  8
_0-3_躯体と製品
  6
CONTINUOUS
 62
    2
 10
282.62217849999996
 20
189.36152849999999
 11
282.62217849999996
 21
190.02819549999998
  0
LINE
  8
_0-3_躯体と製品
  6
CONTINUOUS
 62
    2
 10
283.5221785
 20
190.02819549999998
 11
282.62217849999996
 21
190.02819549999998
  0
LINE
  8
_0-3_躯体と製品
  6
CONTINUOUS
 62
    2
 10
282.12217849999996
 20
189.36152849999999
 11
281.95551150000006
 21
189.57819549999999
  0
LINE
  8
_0-3_躯体と製品
  6
CONTINUOUS
 62
    2
 10
282.28884449999998
 20
189.52819549999998
 11
282.12217849999996
 21
189.36152849999999
  0
LINE
  8
_0-3_躯体と製品
  6
CONTINUOUS
 62
    2
 10
282.28884449999998
 20
189.52819549999998
 11
282.45551149999994
 21
189.36152849999999
  0
LINE
  8
_0-3_躯体と製品
  6
CONTINUOUS
 62
    2
 10
284.28884449999998
 20
188.89486249999999
 11
284.28884449999998
 21
188.79486249999997
  0
ARC
  8
_0-3_躯体と製品
  6
CONTINUOUS
 62
    2
 10
283.5221785
 20
188.79486249999997
 40
0.7666669999999999
 50
270
 51
0
  0
LINE
  8
_0-3_躯体と製品
  6
CONTINUOUS
 62
    2
 10
284.0221785
 20
188.89486249999999
 11
284.0221785
 21
188.79486249999997
  0
ARC
  8
_0-3_躯体と製品
  6
CONTINUOUS
 62
    2
 10
283.5221785
 20
188.79486249999997
 40
0.5
 50
270
 51
0
  0
ARC
  8
_0-3_躯体と製品
  6
CONTINUOUS
 62
    2
 10
284.15551149999999
 20
188.89486249999999
 40
0.133333
 50
0
 51
180
  0
LINE
  8
_0-3_躯体と製品
  6
CONTINUOUS
 62
    2
 10
282.45551149999994
 20
190.11152849999999
 11
279.62217849999996
 21
190.11152849999999
  0
LINE
  8
_0-3_躯体と製品
  6
CONTINUOUS
 62
    2
 10
280.78884449999998
 20
188.01152849999997
 11
282.45551149999994
 21
188.01152849999997
  0
LINE
  8
_0-3_躯体と製品
  6
CONTINUOUS
 62
    2
 10
281.22217849999998
 20
189.61152849999999
 11
281.95551150000006
 21
189.61152849999999
  0
LINE
  8
_0-3_躯体と製品
  6
CONTINUOUS
 62
    2
 10
281.22217849999998
 20
188.44486249999997
 11
281.95551150000006
 21
188.44486249999997
  0
LINE
  8
_0-3_躯体と製品
  6
CONTINUOUS
 62
    2
 10
282.62217849999996
 20
189.61152849999999
 11
282.45551149999994
 21
189.44486249999997
  0
LINE
  8
_0-3_躯体と製品
  6
CONTINUOUS
 62
    2
 10
282.45551149999994
 20
189.44486249999997
 11
282.28884449999998
 21
189.61152849999999
  0
ARC
  8
_0-3_躯体と製品
  6
CONTINUOUS
 62
    2
 10
282.45551149999994
 20
189.94486249999997
 40
0.166667
 50
0
 51
90
  0
LINE
  8
_0-3_躯体と製品
  6
CONTINUOUS
 62
    2
 10
282.62217849999996
 20
188.17819549999999
 11
282.62217849999996
 21
188.34486249999998
  0
ARC
  8
_0-3_躯体と製品
  6
CONTINUOUS
 62
    2
 10
282.45551149999994
 20
188.17819549999999
 40
0.166667
 50
270
 51
0
  0
LINE
  8
_0-3_躯体と製品
  6
CONTINUOUS
 62
    2
 10
282.28884449999998
 20
189.61152849999999
 11
282.12217849999996
 21
189.44486249999997
  0
LINE
  8
_0-3_躯体と製品
  6
CONTINUOUS
 62
    2
 10
282.12217849999996
 20
189.44486249999997
 11
281.95551150000006
 21
189.61152849999999
  0
LINE
  8
_0-3_躯体と製品
  6
CONTINUOUS
 62
    2
 10
282.62217849999996
 20
188.44486249999997
 11
282.45551149999994
 21
188.61152849999999
  0
LINE
  8
_0-3_躯体と製品
  6
CONTINUOUS
 62
    2
 10
282.45551149999994
 20
188.61152849999999
 11
282.28884449999998
 21
188.44486249999997
  0
LINE
  8
_0-3_躯体と製品
  6
CONTINUOUS
 62
    2
 10
282.28884449999998
 20
188.44486249999997
 11
282.12217849999996
 21
188.61152849999999
  0
LINE
  8
_0-3_躯体と製品
  6
CONTINUOUS
 62
    2
 10
282.12217849999996
 20
188.61152849999999
 11
281.95551150000006
 21
188.44486249999997
  0
LINE
  8
_0-3_躯体と製品
  6
CONTINUOUS
 62
    2
 10
282.62217849999996
 20
189.61152849999999
 11
282.62217849999996
 21
189.94486249999997
  0
LINE
  8
_0-3_躯体と製品
  6
CONTINUOUS
 62
    2
 10
282.62217849999996
 20
188.17819549999999
 11
282.62217849999996
 21
188.44486249999997
  0
ARC
  8
_0-3_躯体と製品
  6
CONTINUOUS
 62
    2
 10
279.62217849999996
 20
189.77819549999998
 40
0.3333329999999999
 50
90
 51
180
  0
ARC
  8
_0-3_躯体と製品
  6
CONTINUOUS
 62
    2
 10
280.78884449999998
 20
188.34486249999998
 40
0.3333329999999999
 50
180
 51
270
  0
LINE
  8
_0-3_躯体と製品
  6
CONTINUOUS
 62
    2
 10
280.88884449999995
 20
189.27819549999998
 11
280.88884449999995
 21
188.77819549999998
  0
ARC
  8
_0-3_躯体と製品
  6
CONTINUOUS
 62
    2
 10
281.22217849999998
 20
189.27819549999998
 40
0.3333329999999999
 50
90
 51
180
  0
ARC
  8
_0-3_躯体と製品
  6
CONTINUOUS
 62
    2
 10
281.22217849999998
 20
188.77819549999998
 40
0.3333329999999999
 50
180
 51
270
  0
LINE
  8
_0-3_躯体と製品
  6
CONTINUOUS
 62
    2
 10
280.45551149999994
 20
189.44486249999997
 11
280.45551149999994
 21
188.34486249999998
  0
ARC
  8
_0-3_躯体と製品
  6
CONTINUOUS
 62
    2
 10
280.28884449999998
 20
189.44486249999997
 40
0.166667
 50
0
 51
90
  0
LINE
  8
_0-3_躯体と製品
  6
CONTINUOUS
 62
    2
 10
280.28884449999998
 20
189.61152849999999
 11
279.95551150000006
 21
189.61152849999999
  0
ARC
  8
_0-3_躯体と製品
  6
CONTINUOUS
 62
    2
 10
279.95551150000006
 20
189.44486249999997
 40
0.166667
 50
90
 51
180
  0
LINE
  8
_0-3_躯体と製品
  6
CONTINUOUS
 62
    2
 10
250.37217849999996
 20
169.37819549999998
 11
250.60551149999998
 21
169.61152849999999
  0
LINE
  8
_0-3_躯体と製品
  6
CONTINUOUS
 62
    2
 10
250.37217849999996
 20
169.37819549999998
 11
250.13884449999998
 21
169.61152849999999
  0
LINE
  8
_0-3_躯体と製品
  6
CONTINUOUS
 62
    2
 10
249.63884449999998
 20
169.61152849999999
 11
249.63884449999998
 21
169.21152849999999
  0
LINE
  8
_0-3_躯体と製品
  6
CONTINUOUS
 62
    2
 10
250.23884449999997
 20
168.44486249999997
 11
250.13884449999998
 21
168.44486249999997
  0
ARC
  8
_0-3_躯体と製品
  6
CONTINUOUS
 62
    2
 10
250.13884449999998
 20
169.21152849999999
 40
0.7666669999999999
 50
180
 51
270
  0
LINE
  8
_0-3_躯体と製品
  6
CONTINUOUS
 62
    2
 10
250.23884449999997
 20
168.71152849999999
 11
250.13884449999998
 21
168.71152849999999
  0
ARC
  8
_0-3_躯体と製品
  6
CONTINUOUS
 62
    2
 10
250.13884449999998
 20
169.21152849999999
 40
0.5
 50
180
 51
270
  0
ARC
  8
_0-3_躯体と製品
  6
CONTINUOUS
 62
    2
 10
250.23884449999997
 20
168.57819549999999
 40
0.133333
 50
270
 51
90
  0
LINE
  8
_0-3_躯体と製品
  6
CONTINUOUS
 62
    2
 10
250.13884449999998
 20
169.61152849999999
 11
249.63884449999998
 21
169.61152849999999
  0
LINE
  8
_0-3_躯体と製品
  6
CONTINUOUS
 62
    2
 10
251.10551149999998
 20
169.61152849999999
 11
250.60551149999998
 21
169.61152849999999
  0
ARC
  8
_0-3_躯体と製品
  6
CONTINUOUS
 62
    2
 10
250.37217849999996
 20
171.30896149999987
 40
0.166667
 50
33.424810999999949
 51
146.57518899999999
  0
LINE
  8
_0-3_躯体と製品
  6
CONTINUOUS
 62
    2
 10
250.87217849999996
 20
170.44486249999997
 11
250.70551149999997
 21
170.61152849999999
  0
LINE
  8
_0-3_躯体と製品
  6
CONTINUOUS
 62
    2
 10
250.87217849999996
 20
170.44486249999997
 11
250.70551149999997
 21
170.27819549999998
  0
LINE
  8
_0-3_躯体と製品
  6
CONTINUOUS
 62
    2
 10
250.70551149999997
 20
170.27819549999998
 11
250.70551149999997
 21
170.11152849999999
  0
LINE
  8
_0-3_躯体と製品
  6
CONTINUOUS
 62
    2
 10
250.51127949999997
 20
171.40076849999997
 11
250.92217849999997
 21
170.77819549999998
  0
LINE
  8
_0-3_躯体と製品
  6
CONTINUOUS
 62
    2
 10
250.70551149999997
 20
170.11152849999999
 11
251.37217850000008
 21
170.11152849999999
  0
LINE
  8
_0-3_躯体と製品
  6
CONTINUOUS
 62
    2
 10
251.10551149999998
 20
169.61152849999999
 11
251.10551149999998
 21
169.21152849999999
  0
LINE
  8
_0-3_躯体と製品
  6
CONTINUOUS
 62
    2
 10
251.37217850000008
 20
170.11152849999999
 11
251.37217850000008
 21
169.21152849999999
  0
LINE
  8
_0-3_躯体と製品
  6
CONTINUOUS
 62
    2
 10
250.92217849999997
 20
170.77819549999998
 11
250.70551149999997
 21
170.61152849999999
  0
LINE
  8
_0-3_躯体と製品
  6
CONTINUOUS
 62
    2
 10
250.03884449999998
 20
170.27819549999998
 11
250.03884449999998
 21
170.11152849999999
  0
LINE
  8
_0-3_躯体と製品
  6
CONTINUOUS
 62
    2
 10
250.23307649999998
 20
171.40076849999997
 11
249.82217849999998
 21
170.77819549999998
  0
LINE
  8
_0-3_躯体と製品
  6
CONTINUOUS
 62
    2
 10
250.03884449999998
 20
170.11152849999999
 11
249.37217849999996
 21
170.11152849999999
  0
LINE
  8
_0-3_躯体と製品
  6
CONTINUOUS
 62
    2
 10
249.37217849999996
 20
169.21152849999999
 11
249.37217849999996
 21
170.11152849999999
  0
LINE
  8
_0-3_躯体と製品
  6
CONTINUOUS
 62
    2
 10
250.03884449999998
 20
170.61152849999999
 11
249.82217849999998
 21
170.77819549999998
  0
LINE
  8
_0-3_躯体と製品
  6
CONTINUOUS
 62
    2
 10
249.87217849999996
 20
170.44486249999997
 11
250.03884449999998
 21
170.61152849999999
  0
LINE
  8
_0-3_躯体と製品
  6
CONTINUOUS
 62
    2
 10
249.87217849999996
 20
170.44486249999997
 11
250.03884449999998
 21
170.27819549999998
  0
LINE
  8
_0-3_躯体と製品
  6
CONTINUOUS
 62
    2
 10
250.50551149999998
 20
168.44486249999997
 11
250.60551149999998
 21
168.44486249999997
  0
ARC
  8
_0-3_躯体と製品
  6
CONTINUOUS
 62
    2
 10
250.60551149999998
 20
169.21152849999999
 40
0.7666669999999999
 50
270
 51
0
  0
LINE
  8
_0-3_躯体と製品
  6
CONTINUOUS
 62
    2
 10
250.50551149999998
 20
168.71152849999999
 11
250.60551149999998
 21
168.71152849999999
  0
ARC
  8
_0-3_躯体と製品
  6
CONTINUOUS
 62
    2
 10
250.60551149999998
 20
169.21152849999999
 40
0.5
 50
270
 51
0
  0
ARC
  8
_0-3_躯体と製品
  6
CONTINUOUS
 62
    2
 10
250.50551149999998
 20
168.57819549999999
 40
0.133333
 50
90
 51
270
  0
LINE
  8
_0-3_躯体と製品
  6
CONTINUOUS
 62
    2
 10
249.28884449999998
 20
170.27819549999998
 11
249.28884449999998
 21
173.11152849999988
  0
LINE
  8
_0-3_躯体と製品
  6
CONTINUOUS
 62
    2
 10
251.38884449999998
 20
171.94486249999997
 11
251.38884449999998
 21
170.27819549999998
  0
LINE
  8
_0-3_躯体と製品
  6
CONTINUOUS
 62
    2
 10
249.78884449999998
 20
171.51152849999997
 11
249.78884449999998
 21
170.77819549999998
  0
LINE
  8
_0-3_躯体と製品
  6
CONTINUOUS
 62
    2
 10
250.95551149999997
 20
171.51152849999997
 11
250.95551149999997
 21
170.77819549999998
  0
LINE
  8
_0-3_躯体と製品
  6
CONTINUOUS
 62
    2
 10
249.78884449999998
 20
170.11152849999999
 11
249.95551149999997
 21
170.27819549999998
  0
LINE
  8
_0-3_躯体と製品
  6
CONTINUOUS
 62
    2
 10
249.95551149999997
 20
170.27819549999998
 11
249.78884449999998
 21
170.44486249999997
  0
ARC
  8
_0-3_躯体と製品
  6
CONTINUOUS
 62
    2
 10
249.45551149999997
 20
170.27819549999998
 40
0.166667
 50
180
 51
270
  0
LINE
  8
_0-3_躯体と製品
  6
CONTINUOUS
 62
    2
 10
251.22217849999998
 20
170.11152849999999
 11
251.05551149999997
 21
170.11152849999999
  0
ARC
  8
_0-3_躯体と製品
  6
CONTINUOUS
 62
    2
 10
251.22217849999998
 20
170.27819549999998
 40
0.166667
 50
270
 51
0
  0
LINE
  8
_0-3_躯体と製品
  6
CONTINUOUS
 62
    2
 10
249.78884449999998
 20
170.44486249999997
 11
249.95551149999997
 21
170.61152849999999
  0
LINE
  8
_0-3_躯体と製品
  6
CONTINUOUS
 62
    2
 10
249.95551149999997
 20
170.61152849999999
 11
249.78884449999998
 21
170.77819549999998
  0
LINE
  8
_0-3_躯体と製品
  6
CONTINUOUS
 62
    2
 10
250.95551149999997
 20
170.11152849999999
 11
250.78884449999998
 21
170.27819549999998
  0
LINE
  8
_0-3_躯体と製品
  6
CONTINUOUS
 62
    2
 10
250.78884449999998
 20
170.27819549999998
 11
250.95551149999997
 21
170.44486249999997
  0
LINE
  8
_0-3_躯体と製品
  6
CONTINUOUS
 62
    2
 10
250.95551149999997
 20
170.44486249999997
 11
250.78884449999998
 21
170.61152849999999
  0
LINE
  8
_0-3_躯体と製品
  6
CONTINUOUS
 62
    2
 10
250.78884449999998
 20
170.61152849999999
 11
250.95551149999997
 21
170.77819549999998
  0
LINE
  8
_0-3_躯体と製品
  6
CONTINUOUS
 62
    2
 10
249.78884449999998
 20
170.11152849999999
 11
249.45551149999997
 21
170.11152849999999
  0
LINE
  8
_0-3_躯体と製品
  6
CONTINUOUS
 62
    2
 10
251.22217849999998
 20
170.11152849999999
 11
250.95551149999997
 21
170.11152849999999
  0
ARC
  8
_0-3_躯体と製品
  6
CONTINUOUS
 62
    2
 10
249.62217849999996
 20
173.11152849999988
 40
0.3333329999999999
 50
90
 51
180
  0
ARC
  8
_0-3_躯体と製品
  6
CONTINUOUS
 62
    2
 10
251.05551149999997
 20
171.94486249999997
 40
0.3333329999999999
 50
0
 51
90
  0
LINE
  8
_0-3_躯体と製品
  6
CONTINUOUS
 62
    2
 10
250.12217849999996
 20
171.84486249999998
 11
250.62217849999996
 21
171.84486249999998
  0
ARC
  8
_0-3_躯体と製品
  6
CONTINUOUS
 62
    2
 10
250.12217849999996
 20
171.51152849999997
 40
0.3333329999999999
 50
90
 51
180
  0
ARC
  8
_0-3_躯体と製品
  6
CONTINUOUS
 62
    2
 10
250.62217849999996
 20
171.51152849999997
 40
0.3333329999999999
 50
0
 51
90
  0
LINE
  8
_0-3_躯体と製品
  6
CONTINUOUS
 62
    2
 10
249.95551149999997
 20
172.27819549999998
 11
251.05551149999997
 21
172.27819549999998
  0
ARC
  8
_0-3_躯体と製品
  6
CONTINUOUS
 62
    2
 10
249.95551149999997
 20
172.44486249999997
 40
0.166667
 50
180
 51
270
  0
LINE
  8
_0-3_躯体と製品
  6
CONTINUOUS
 62
    2
 10
249.78884449999998
 20
172.44486249999997
 11
249.78884449999998
 21
172.77819549999998
  0
ARC
  8
_0-3_躯体と製品
  6
CONTINUOUS
 62
    2
 10
249.95551149999997
 20
172.77819549999998
 40
0.166667
 50
90
 51
180
  0
LINE
  8
_0-3_躯体と製品
  6
CONTINUOUS
 62
    2
 10
280.21030149999996
 20
185.82199349999999
 11
282.11774949999995
 21
185.30455249999997
  0
LINE
  8
_0-3_躯体と製品
  6
CONTINUOUS
 62
    2
 10
282.06538749999999
 20
185.11152849999999
 11
280.15793950000005
 21
185.62896949999998
  0
LINE
  8
_0-3_躯体と製品
  6
CONTINUOUS
 62
    2
 10
282.11774949999995
 20
185.30455249999997
 11
282.06538749999999
 21
185.11152849999999
  0
ARC
  8
_0-3_躯体と製品
  6
CONTINUOUS
 62
    2
 10
280.28884449999998
 20
186.11152849999999
 40
0.5
 50
90
 51
254.82243099999999
  0
ARC
  8
_0-3_躯体と製品
  6
CONTINUOUS
 62
    2
 10
280.28884449999998
 20
186.11152849999999
 40
0.2999999999999999
 50
90
 51
254.82243099999999
  0
LINE
  8
_0-3_躯体と製品
  6
CONTINUOUS
 62
    2
 10
283.42215949999996
 20
185.44486249999997
 11
284.08882649999998
 21
185.44486249999997
  0
LINE
  8
_0-3_躯体と製品
  6
CONTINUOUS
 62
    2
 10
283.42217449999998
 20
172.11152849999999
 11
283.42215949999996
 21
185.44486249999997
  0
LINE
  8
_0-3_躯体と製品
  6
CONTINUOUS
 62
    2
 10
283.42217449999998
 20
172.11152849999999
 11
284.08884049999995
 21
172.11152849999999
  0
LINE
  8
_0-3_躯体と製品
  6
CONTINUOUS
 62
    2
 10
280.21030149999996
 20
171.73439749999989
 11
282.11774949999995
 21
172.25183849999999
  0
LINE
  8
_0-3_躯体と製品
  6
CONTINUOUS
 62
    2
 10
282.06538749999999
 20
172.44486249999997
 11
280.15793950000005
 21
171.92742149999998
  0
LINE
  8
_0-3_躯体と製品
  6
CONTINUOUS
 62
    2
 10
282.11774949999995
 20
172.25183849999999
 11
282.06538749999999
 21
172.44486249999997
  0
ARC
  8
_0-3_躯体と製品
  6
CONTINUOUS
 62
    2
 10
284.08885049999998
 20
183.47819049999998
 40
0.300005
 50
90.00212900000011
 51
179.99896999999973
  0
LINE
  8
_0-3_躯体と製品
  6
CONTINUOUS
 62
    2
 10
280.28884449999998
 20
186.41152849999997
 11
283.98884149999998
 21
186.41152849999997
  0
LINE
  8
_0-3_躯体と製品
  6
CONTINUOUS
 62
    2
 10
280.28884449999998
 20
186.61152849999999
 11
283.98884449999997
 21
186.61152849999999
  0
ARC
  8
_0-5_文字-記号
  6
CONTINUOUS
 62
    2
 10
283.98884149999998
 20
186.31152849999998
 40
0.1
 50
0
 51
90
  0
ARC
  8
_0-3_躯体と製品
  6
CONTINUOUS
 62
    2
 10
283.98884449999997
 20
186.31152849999998
 40
0.2999999999999999
 50
0
 51
90
  0
LINE
  8
_0-3_躯体と製品
  6
PLINE2
 62
    3
 10
284.08884450000005
 20
176.27819549999998
 11
284.28884449999998
 21
176.27819549999998
  0
ARC
  8
_0-3_躯体と製品
  6
CONTINUOUS
 62
    2
 10
280.28884449999998
 20
171.44486249999997
 40
0.5
 50
105.17756899999991
 51
270
  0
ARC
  8
_0-3_躯体と製品
  6
CONTINUOUS
 62
    2
 10
280.28884449999998
 20
171.44486249999997
 40
0.2999999999999999
 50
105.17756899999991
 51
270
  0
LINE
  8
_0-3_躯体と製品
  6
CONTINUOUS
 62
    2
 10
280.28884449999998
 20
171.14486249999999
 11
283.98884149999998
 21
171.14486249999999
  0
LINE
  8
_0-3_躯体と製品
  6
CONTINUOUS
 62
    2
 10
280.28884449999998
 20
170.94486249999997
 11
283.98884449999997
 21
170.94486249999997
  0
LINE
  8
_0-3_躯体と製品
  6
CONTINUOUS
 62
    2
 10
284.08882549999998
 20
186.31330949999997
 11
284.08884149999994
 21
171.24486249999987
  0
ARC
  8
_0-3_躯体と製品
  6
CONTINUOUS
 62
    2
 10
283.98884149999998
 20
171.24486249999987
 40
0.1
 50
270
 51
0
  0
ARC
  8
_0-3_躯体と製品
  6
CONTINUOUS
 62
    2
 10
283.98884449999997
 20
171.24486249999987
 40
0.2999999999999999
 50
270
 51
0
  0
LINE
  8
_0-3_躯体と製品
  6
CONTINUOUS
 62
    2
 10
284.08883249999997
 20
179.44486249999997
 11
284.28884449999998
 21
179.44486249999997
  0
LINE
  8
_0-3_躯体と製品
  6
CONTINUOUS
 62
    2
 10
284.08883449999996
 20
178.11152849999999
 11
284.28884449999998
 21
178.11152849999999
  0
ARC
  8
_0-3_躯体と製品
  6
CONTINUOUS
 62
    2
 10
284.08885049999998
 20
174.07820049999998
 40
0.300005
 50
180.00103000000021
 51
269.99787099999992
  0
LINE
  8
_0-3_躯体と製品
  6
CONTINUOUS
 62
    2
 10
283.78884449999998
 20
183.47819049999998
 11
283.78884449999998
 21
174.07820049999998
  0
LINE
  8
_0-3_躯体と製品
  6
PLINE2
 62
    3
 10
284.08884450000005
 20
181.27819549999998
 11
284.28884449999998
 21
181.27819549999998
  0
LINE
  8
_0-3_躯体と製品
  6
CONTINUOUS
 62
    2
 10
283.19915149999997
 20
177.51152849999997
 11
283.42216749999994
 21
177.51152849999997
  0
LINE
  8
_0-3_躯体と製品
  6
PLINE2
 62
    3
 10
290.48722649999996
 20
177.55696649999999
 11
290.98654149999999
 21
177.53079849999989
  0
LINE
  8
_0-3_躯体と製品
  6
PLINE2
 62
    3
 10
289.23893949999996
 20
177.62238649999998
 11
289.73825449999998
 21
177.59621849999999
  0
LINE
  8
_0-3_躯体と製品
  6
PLINE2
 62
    3
 10
287.99065249999995
 20
177.68780649999988
 11
288.48996749999998
 21
177.66163849999998
  0
LINE
  8
_0-3_躯体と製品
  6
PLINE2
 62
    3
 10
284.28884449999998
 20
177.52819549999998
 11
285.53884449999998
 21
177.77819549999998
  0
LINE
  8
_0-3_躯体と製品
  6
PLINE2
 62
    3
 10
287.28884449999998
 20
177.77819549999998
 11
286.28884449999998
 21
177.77819549999998
  0
LINE
  8
_0-3_躯体と製品
  6
PLINE2
 62
    3
 10
284.28884449999998
 20
177.77819549999998
 11
286.28884449999998
 21
177.77819549999998
  0
LINE
  8
_0-3_躯体と製品
  6
PLINE2
 62
    3
 10
286.33793449999996
 20
177.19761049999997
 11
287.98893949999996
 21
177.43346849999998
  0
ARC
  8
_0-3_躯体と製品
  6
PLINE2
 62
    3
 10
286.35207649999995
 20
177.09861549999997
 40
0.1
 50
98.130101999999809
 51
188.13010200000019
  0
LINE
  8
_0-3_躯体と製品
  6
PLINE2
 62
    3
 10
286.26011050000005
 20
177.03526749999997
 11
286.25308149999995
 21
177.08447349999989
  0
ARC
  8
_0-3_躯体と製品
  6
PLINE2
 62
    3
 10
286.3591055
 20
177.04940949999997
 40
0.1
 50
188.13010200000019
 51
278.29846600000008
  0
LINE
  8
_0-3_躯体と製品
  6
PLINE2
 62
    3
 10
288.07444449999997
 20
177.19854549999997
 11
286.3735385
 21
176.95045649999997
  0
LINE
  8
_0-3_躯体と製品
  6
PLINE2
 62
    3
 10
286.33793449999996
 20
177.19761049999997
 11
287.98893949999996
 21
177.43346849999998
  0
ARC
  8
_0-3_躯体と製品
  6
PLINE2
 62
    3
 10
286.35207649999995
 20
177.09861549999997
 40
0.1
 50
98.130101999999809
 51
188.13010200000019
  0
LINE
  8
_0-3_躯体と製品
  6
PLINE2
 62
    3
 10
286.26011050000005
 20
177.03526749999997
 11
286.25308149999995
 21
177.08447349999989
  0
ARC
  8
_0-3_躯体と製品
  6
PLINE2
 62
    3
 10
286.3591055
 20
177.04940949999997
 40
0.1
 50
188.13010200000019
 51
278.29846600000008
  0
LINE
  8
_0-3_躯体と製品
  6
PLINE2
 62
    3
 10
288.07444449999997
 20
177.19854549999997
 11
286.3735385
 21
176.95045649999997
  0
LINE
  8
_0-3_躯体と製品
  6
PLINE2
 62
    3
 10
289.23893949999996
 20
177.62238649999998
 11
288.07444449999997
 21
177.19854549999997
  0
LINE
  8
_0-3_躯体と製品
  6
PLINE2
 62
    3
 10
289.23893949999996
 20
177.88843149999997
 11
287.98893949999996
 21
177.43346849999998
  0
LINE
  8
_0-3_躯体と製品
  6
CONTINUOUS
 62
    2
 10
279.95551150000006
 20
172.44486249999997
 11
282.12217849999996
 21
172.44486249999997
  0
ARC
  8
_0-3_躯体と製品
  6
CONTINUOUS
 62
    2
 10
279.95551150000006
 20
172.27819549999998
 40
0.166667
 50
90
 51
180
  0
LINE
  8
_0-3_躯体と製品
  6
CONTINUOUS
 62
    2
 10
282.12217849999996
 20
172.11152849999999
 11
282.12217849999996
 21
172.44486249999997
  0
LINE
  8
_0-3_躯体と製品
  6
PLINE2
 62
    3
 10
292.98380049999997
 20
177.42612649999998
 11
293.48311449999994
 21
177.39995849999997
  0
LINE
  8
_0-3_躯体と製品
  6
PLINE2
 62
    3
 10
291.73551349999997
 20
177.49154649999997
 11
292.23482750000005
 21
177.46537849999999
  0
ARC
  8
_0-3_躯体と製品
  6
CONTINUOUS
 62
    2
 10
278.78884449999998
 20
173.94486249999997
 40
0.5
 50
270
 51
0
  0
ARC
  8
_0-3_躯体と製品
  6
CONTINUOUS
 62
    2
 10
278.95551149999994
 20
172.61152849999999
 40
0.3333329999999999
 50
0
 51
90
  0
LINE
  8
_0-3_躯体と製品
  6
CONTINUOUS
 62
    2
 10
279.28884449999998
 20
172.61152849999999
 11
279.28884449999998
 21
170.11152849999999
  0
ARC
  8
_0-3_躯体と製品
  6
CONTINUOUS
 62
    2
 10
279.95551150000006
 20
173.01152849999997
 40
0.166667
 50
180
 51
270
  0
LINE
  8
_0-3_躯体と製品
  6
CONTINUOUS
 62
    2
 10
279.28884449999998
 20
170.11152849999999
 11
279.78884449999998
 21
170.11152849999999
  0
LINE
  8
_0-3_躯体と製品
  6
CONTINUOUS
 62
    2
 10
279.78884449999998
 20
172.27819549999998
 11
279.78884449999998
 21
170.11152849999999
  0
LINE
  8
_0-3_躯体と製品
  6
CONTINUOUS
 62
    2
 10
282.55551149999997
 20
173.01152849999997
 11
282.55551149999997
 21
173.47819549999997
  0
ARC
  8
_0-3_躯体と製品
  6
CONTINUOUS
 62
    2
 10
282.38884449999995
 20
173.01152849999997
 40
0.166667
 50
270
 51
0
  0
LINE
  8
_0-3_躯体と製品
  6
CONTINUOUS
 62
    2
 10
282.38884449999995
 20
172.84486249999998
 11
279.95551150000006
 21
172.84486249999998
  0
LINE
  8
_0-3_躯体と製品
  6
CONTINUOUS
 62
    2
 10
282.95551149999994
 20
173.00905649999999
 11
282.95551149999994
 21
173.47819549999997
  0
ARC
  8
_0-3_躯体と製品
  6
CONTINUOUS
 62
    2
 10
282.12217849999996
 20
173.00905649999999
 40
0.8333329999999999
 50
291.80140900000015
 51
0.0000000000000381
  0
LINE
  8
_0-3_躯体と製品
  6
CONTINUOUS
 62
    2
 10
282.4316705
 20
172.23532549999999
 11
282.12217849999996
 21
172.11152849999999
  0
ARC
  8
_0-3_躯体と製品
  6
CONTINUOUS
 62
    2
 10
282.75551149999995
 20
173.47819549999997
 40
0.2
 50
0
 51
180
  0
ARC
  8
_0-3_躯体と製品
  6
CONTINUOUS
 62
    2
 10
283.19915149999997
 20
177.84486249999998
 40
0.3333329999999999
 50
227.46310199999982
 51
270
  0
LINE
  8
_0-3_躯体と製品
  6
CONTINUOUS
 62
    2
 10
278.78884449999998
 20
173.44486249999997
 11
249.62217849999996
 21
173.44486249999997
  0
LINE
  8
_0-3_躯体と製品
  6
CONTINUOUS
 62
    2
 10
249.95551149999997
 20
172.94486249999997
 11
278.95551149999994
 21
172.94486249999997
  0
LINE
  8
_0-3_躯体と製品
  6
CONTINUOUS
 62
    2
 10
244.28884449999998
 20
168.44486249999997
 11
267.62217849999996
 21
168.44486249999997
  0
LINE
  8
_0-3_躯体と製品
  6
CONTINUOUS
 62
    2
 10
267.62217849999996
 20
153.44486249999997
 11
267.62217849999996
 21
168.44486249999997
  0
LINE
  8
_0-3_躯体と製品
  6
CONTINUOUS
 62
    2
 10
284.28884449999998
 20
194.57432149999997
 11
284.28884449999998
 21
153.44486249999997
  0
LINE
  8
_0-3_躯体と製品
  6
CONTINUOUS
 62
    2
 10
279.28884449999998
 20
173.94486249999997
 11
279.28884449999998
 21
189.77819549999998
  0
LINE
  8
_0-3_躯体と製品
  6
CONTINUOUS
 62
    2
 10
279.78884449999998
 20
173.01152849999997
 11
279.78884449999998
 21
184.54486249999997
  0
ARC
  8
_0-3_躯体と製品
  6
CONTINUOUS
 62
    2
 10
284.05550049999999
 20
178.77819549999998
 40
1.6000000000000001
 50
132.5368829999997
 51
227.46308900000002
  0
LINE
  8
_0-3_躯体と製品
  6
PLINE2
 62
    3
 10
291.76168149999995
 20
177.99086149999997
 11
291.73551349999997
 21
177.49154649999997
  0
LINE
  8
_0-3_躯体と製品
  6
PLINE2
 62
    3
 10
291.26236649999998
 20
178.01702949999998
 11
291.76168149999995
 21
177.99086149999997
  0
LINE
  8
_0-3_躯体と製品
  6
PLINE2
 62
    3
 10
290.98654149999999
 20
177.53079849999989
 11
291.26236649999998
 21
178.01702949999998
  0
LINE
  8
_0-3_躯体と製品
  6
PLINE2
 62
    3
 10
290.51339449999995
 20
178.05628149999998
 11
290.48722649999996
 21
177.55696649999999
  0
LINE
  8
_0-3_躯体と製品
  6
PLINE2
 62
    3
 10
290.01407949999998
 20
178.08244949999997
 11
290.51339449999995
 21
178.05628149999998
  0
LINE
  8
_0-3_躯体と製品
  6
PLINE2
 62
    3
 10
289.73825449999998
 20
177.59621849999999
 11
290.01407949999998
 21
178.08244949999997
  0
LINE
  8
_0-3_躯体と製品
  6
PLINE2
 62
    3
 10
289.26510749999994
 20
178.12170149999997
 11
289.23893949999996
 21
177.62238649999998
  0
LINE
  8
_0-3_躯体と製品
  6
PLINE2
 62
    3
 10
288.76579249999998
 20
178.14786949999998
 11
289.26510749999994
 21
178.12170149999997
  0
LINE
  8
_0-3_躯体と製品
  6
PLINE2
 62
    3
 10
288.48996749999998
 20
177.66163849999998
 11
288.76579249999998
 21
178.14786949999998
  0
LINE
  8
_0-3_躯体と製品
  6
PLINE2
 62
    3
 10
288.01682049999999
 20
178.18712149999999
 11
287.99065249999995
 21
177.68780649999988
  0
LINE
  8
_0-3_躯体と製品
  6
PLINE2
 62
    3
 10
287.51750549999997
 20
178.21328949999997
 11
288.01682049999999
 21
178.18712149999999
  0
LINE
  8
_0-3_躯体と製品
  6
PLINE2
 62
    3
 10
287.28884449999998
 20
177.77819549999998
 11
287.51750549999997
 21
178.21328949999997
  0
LINE
  8
_0-3_躯体と製品
  6
PLINE2
 62
    3
 10
293.00996849999996
 20
177.92544149999998
 11
292.98380049999997
 21
177.42612649999998
  0
LINE
  8
_0-3_躯体と製品
  6
PLINE2
 62
    3
 10
292.51065349999999
 20
177.95160949999988
 11
293.00996849999996
 21
177.92544149999998
  0
LINE
  8
_0-3_躯体と製品
  6
PLINE2
 62
    3
 10
292.23482750000005
 20
177.46537849999999
 11
292.51065349999999
 21
177.95160949999988
  0
LINE
  8
_0-3_躯体と製品
  6
PLINE2
 62
    3
 10
294.02822349999997
 20
178.24759149999997
 11
286.28884449999998
 21
178.65319549999998
  0
LINE
  8
_0-3_躯体と製品
  6
PLINE2
 62
    3
 10
294.00859749999995
 20
177.87310549999998
 11
294.02822349999997
 21
178.24759149999997
  0
LINE
  8
_0-3_躯体と製品
  6
PLINE2
 62
    3
 10
293.48311449999994
 20
177.39995849999997
 11
294.00859749999995
 21
177.87310549999998
  0
LINE
  8
_0-3_躯体と製品
  6
PLINE2
 62
    3
 10
293.52890849999994
 20
178.27375949999998
 11
293.48311449999994
 21
177.39995849999997
  0
LINE
  8
_0-3_躯体と製品
  6
CONTINUOUS
 62
    2
 10
282.4316705
 20
185.32106549999997
 11
282.12217849999996
 21
185.44486249999997
  0
LINE
  8
_0-3_躯体と製品
  6
CONTINUOUS
 62
    2
 10
279.78884449999998
 20
189.44486249999997
 11
279.78884449999998
 21
185.27819549999998
  0
LINE
  8
_0-3_躯体と製品
  6
CONTINUOUS
 62
    2
 10
282.12217849999996
 20
185.44486249999997
 11
282.12217849999996
 21
185.11152849999999
  0
ARC
  8
_0-3_躯体と製品
  6
CONTINUOUS
 62
    2
 10
282.12217849999996
 20
184.54733449999998
 40
0.8333329999999999
 50
0
 51
68.198590999999951
  0
ARC
  8
_0-3_躯体と製品
  6
CONTINUOUS
 62
    2
 10
279.95551150000006
 20
185.27819549999998
 40
0.166667
 50
180
 51
270
  0
ARC
  8
_0-3_躯体と製品
  6
CONTINUOUS
 62
    2
 10
279.95551150000006
 20
184.54486249999997
 40
0.166667
 50
90
 51
180
  0
LINE
  8
_0-3_躯体と製品
  6
CONTINUOUS
 62
    2
 10
282.55551149999997
 20
184.54486249999997
 11
282.55551149999997
 21
184.07819549999999
  0
ARC
  8
_0-3_躯体と製品
  6
CONTINUOUS
 62
    2
 10
282.38884449999995
 20
184.54486249999997
 40
0.166667
 50
0
 51
90
  0
LINE
  8
_0-3_躯体と製品
  6
CONTINUOUS
 62
    2
 10
282.38884449999995
 20
184.71152849999999
 11
279.95551150000006
 21
184.71152849999999
  0
LINE
  8
_0-3_躯体と製品
  6
CONTINUOUS
 62
    2
 10
282.95551149999994
 20
184.54733449999998
 11
282.95551149999994
 21
184.07819549999999
  0
ARC
  8
_0-3_躯体と製品
  6
CONTINUOUS
 62
    2
 10
282.75551149999995
 20
184.07819549999999
 40
0.2
 50
180
 51
0
  0
LINE
  8
_0-3_躯体と製品
  6
CONTINUOUS
 62
    2
 10
279.95551150000006
 20
185.11152849999999
 11
282.12217849999996
 21
185.11152849999999
  0
LINE
  8
_0-3_躯体と製品
  6
CONTINUOUS
 62
    2
 10
283.19915149999997
 20
180.04486249999997
 11
283.42216749999994
 21
180.04486249999997
  0
ARC
  8
_0-3_躯体と製品
  6
CONTINUOUS
 62
    2
 10
283.19915149999997
 20
179.71152849999999
 40
0.3333329999999999
 50
90
 51
132.53689800000009
  0
LINE
  8
_0-3_躯体と製品
  6
PLINE2
 62
    3
 10
286.28884449999998
 20
178.65319549999998
 11
286.28884449999998
 21
178.77819549999998
  0
LINE
  8
_0-3_躯体と製品
  6
PLINE2
 62
    3
 10
291.76168149999995
 20
179.56552949999997
 11
291.73551349999997
 21
180.06484449999999
  0
LINE
  8
_0-3_躯体と製品
  6
PLINE2
 62
    3
 10
291.26236649999998
 20
179.53936149999998
 11
291.76168149999995
 21
179.56552949999997
  0
LINE
  8
_0-3_躯体と製品
  6
PLINE2
 62
    3
 10
290.98654149999999
 20
180.02559249999999
 11
291.26236649999998
 21
179.53936149999998
  0
LINE
  8
_0-3_躯体と製品
  6
PLINE2
 62
    3
 10
290.48722649999996
 20
179.99942449999998
 11
290.98654149999999
 21
180.02559249999999
  0
LINE
  8
_0-3_躯体と製品
  6
PLINE2
 62
    3
 10
290.51339449999995
 20
179.50010949999998
 11
290.48722649999996
 21
179.99942449999998
  0
LINE
  8
_0-3_躯体と製品
  6
PLINE2
 62
    3
 10
290.01407949999998
 20
179.47394149999997
 11
290.51339449999995
 21
179.50010949999998
  0
LINE
  8
_0-3_躯体と製品
  6
PLINE2
 62
    3
 10
289.73825449999998
 20
179.96017249999997
 11
290.01407949999998
 21
179.47394149999997
  0
LINE
  8
_0-3_躯体と製品
  6
PLINE2
 62
    3
 10
289.23893949999996
 20
179.93400449999999
 11
289.73825449999998
 21
179.96017249999997
  0
LINE
  8
_0-3_躯体と製品
  6
PLINE2
 62
    3
 10
289.26510749999994
 20
179.43468949999999
 11
289.23893949999996
 21
179.93400449999999
  0
LINE
  8
_0-3_躯体と製品
  6
PLINE2
 62
    3
 10
288.76579249999998
 20
179.40852149999989
 11
289.26510749999994
 21
179.43468949999999
  0
LINE
  8
_0-3_躯体と製品
  6
PLINE2
 62
    3
 10
288.48996749999998
 20
179.89475249999987
 11
288.76579249999998
 21
179.40852149999989
  0
LINE
  8
_0-3_躯体と製品
  6
PLINE2
 62
    3
 10
287.99065249999995
 20
179.86858449999997
 11
288.48996749999998
 21
179.89475249999987
  0
LINE
  8
_0-3_躯体と製品
  6
PLINE2
 62
    3
 10
288.01682049999999
 20
179.36926949999997
 11
287.99065249999995
 21
179.86858449999997
  0
LINE
  8
_0-3_躯体と製品
  6
PLINE2
 62
    3
 10
287.51750549999997
 20
179.34310149999999
 11
288.01682049999999
 21
179.36926949999997
  0
LINE
  8
_0-3_躯体と製品
  6
PLINE2
 62
    3
 10
285.53884449999998
 20
178.77819549999998
 11
284.28884449999998
 21
178.77819549999998
  0
LINE
  8
_0-3_躯体と製品
  6
PLINE2
 62
    3
 10
284.28884449999998
 20
178.52819549999998
 11
285.53884449999998
 21
178.77819549999998
  0
LINE
  8
_0-3_躯体と製品
  6
PLINE2
 62
    3
 10
284.28884449999998
 20
179.02819549999998
 11
285.53884449999998
 21
178.77819549999998
  0
LINE
  8
_0-3_躯体と製品
  6
PLINE2
 62
    3
 10
284.28884449999998
 20
180.02819549999998
 11
285.53884449999998
 21
179.77819549999998
  0
LINE
  8
_0-3_躯体と製品
  6
PLINE2
 62
    3
 10
287.28884449999998
 20
179.77819549999998
 11
287.51750549999997
 21
179.34310149999999
  0
LINE
  8
_0-3_躯体と製品
  6
PLINE2
 62
    3
 10
287.28884449999998
 20
179.77819549999998
 11
286.28884449999998
 21
179.77819549999998
  0
LINE
  8
_0-3_躯体と製品
  6
PLINE2
 62
    3
 10
284.28884449999998
 20
179.77819549999998
 11
286.28884449999998
 21
179.77819549999998
  0
LINE
  8
_0-3_躯体と製品
  6
PLINE2
 62
    3
 10
286.28884449999998
 20
178.90319549999998
 11
286.28884449999998
 21
178.77819549999998
  0
LINE
  8
_0-3_躯体と製品
  6
PLINE2
 62
    3
 10
286.33793449999996
 20
180.35878049999997
 11
287.98893949999996
 21
180.12292249999999
  0
ARC
  8
_0-3_躯体と製品
  6
PLINE2
 62
    3
 10
286.35207649999995
 20
180.45777549999997
 40
0.1
 50
171.86989799999969
 51
261.86989799999981
  0
LINE
  8
_0-3_躯体と製品
  6
PLINE2
 62
    3
 10
286.26011050000005
 20
180.52112349999999
 11
286.25308149999995
 21
180.47191749999999
  0
ARC
  8
_0-3_躯体と製品
  6
PLINE2
 62
    3
 10
286.3591055
 20
180.50698149999997
 40
0.1
 50
81.701533999999882
 51
171.86989799999969
  0
LINE
  8
_0-3_躯体と製品
  6
PLINE2
 62
    3
 10
288.07444449999997
 20
180.35784549999997
 11
286.3735385
 21
180.60593449999988
  0
LINE
  8
_0-3_躯体と製品
  6
PLINE2
 62
    3
 10
289.23893949999996
 20
179.93400449999999
 11
288.07444449999997
 21
180.35784549999997
  0
LINE
  8
_0-3_躯体と製品
  6
PLINE2
 62
    3
 10
289.23893949999996
 20
179.66795949999997
 11
287.98893949999996
 21
180.12292249999999
  0
LINE
  8
_0-3_躯体と製品
  6
PLINE2
 62
    3
 10
292.98380049999997
 20
180.13026349999998
 11
293.48311449999994
 21
180.15643149999997
  0
LINE
  8
_0-3_躯体と製品
  6
PLINE2
 62
    3
 10
293.00996849999996
 20
179.63094949999999
 11
292.98380049999997
 21
180.13026349999998
  0
LINE
  8
_0-3_躯体と製品
  6
PLINE2
 62
    3
 10
292.51065349999999
 20
179.60478149999997
 11
293.00996849999996
 21
179.63094949999999
  0
LINE
  8
_0-3_躯体と製品
  6
PLINE2
 62
    3
 10
292.23482750000005
 20
180.09101249999998
 11
292.51065349999999
 21
179.60478149999997
  0
LINE
  8
_0-3_躯体と製品
  6
PLINE2
 62
    3
 10
293.27401849999995
 20
178.79302149999998
 11
292.84510049999994
 21
178.30959649999988
  0
LINE
  8
_0-3_躯体と製品
  6
PLINE2
 62
    3
 10
292.82148349999994
 20
179.24555649999999
 11
293.28884449999998
 21
178.77819549999998
  0
LINE
  8
_0-3_躯体と製品
  6
PLINE3
 62
    3
 10
280.87670749999995
 20
178.77819549999998
 11
298.12710749999997
 21
178.77819549999998
  0
LINE
  8
_0-3_躯体と製品
  6
PLINE2
 62
    3
 10
291.73551349999997
 20
180.06484449999999
 11
292.23482750000005
 21
180.09101249999998
  0
LINE
  8
_0-3_躯体と製品
  6
PLINE2
 62
    3
 10
294.02822349999997
 20
179.30879949999999
 11
286.28884449999998
 21
178.90319549999998
  0
LINE
  8
_0-3_躯体と製品
  6
PLINE2
 62
    3
 10
294.00859749999995
 20
179.68328549999998
 11
294.02822349999997
 21
179.30879949999999
  0
LINE
  8
_0-3_躯体と製品
  6
PLINE2
 62
    3
 10
293.48311449999994
 20
180.15643149999997
 11
294.00859749999995
 21
179.68328549999998
  0
LINE
  8
_0-3_躯体と製品
  6
PLINE2
 62
    3
 10
293.52890849999994
 20
179.28263149999998
 11
293.48311449999994
 21
180.15643149999997
  0
TEXT
  8
_0-5_文字-記号
 62
    7
 10
286.16923583333329
 20
193.12732449999999
 40
2
 41
0.8
 50
0
  1
４
  0
CIRCLE
  8
_0-5_文字-記号
  6
CONTINUOUS
 62
    3
 10
282.8161485
 20
189.10810649999999
 40
0.2
  0
CIRCLE
  8
_0-5_文字-記号
  6
CONTINUOUS
 62
    3
 10
286.91589649999997
 20
193.99399649999998
 40
1.666666999999999
  0
LINE
  8
_0-5_文字-記号
  6
CONTINUOUS
 62
    3
 10
282.8161485
 20
189.10810649999999
 11
285.8445845
 21
192.71725549999996
  0
TEXT
  8
_0-5_文字-記号
 62
    7
 10
286.43544416666668
 20
189.28687049999999
 40
2
 41
0.8
 50
0
  1
２
  0
CIRCLE
  8
_0-5_文字-記号
  6
CONTINUOUS
 62
    3
 10
283.98884149999998
 20
186.41152849999997
 40
0.2
  0
CIRCLE
  8
_0-5_文字-記号
  6
CONTINUOUS
 62
    3
 10
287.12875949999994
 20
190.15353749999997
 40
1.666666999999999
  0
LINE
  8
_0-5_文字-記号
  6
CONTINUOUS
 62
    3
 10
283.98884149999998
 20
186.41152849999997
 11
286.05744649999997
 21
188.87679649999987
  0
TEXT
  8
_0-5_文字-記号
 62
    7
 10
286.86310216666669
 20
183.99059049999997
 40
2
 41
0.8
 50
0
  1
６
  0
CIRCLE
  8
_0-5_文字-記号
  6
CONTINUOUS
 62
    3
 10
282.45550049999997
 20
178.77819549999998
 40
0.2
  0
CIRCLE
  8
_0-5_文字-記号
  6
CONTINUOUS
 62
    3
 10
287.55643449999997
 20
184.85725249999999
 40
1.666666999999999
  0
LINE
  8
_0-5_文字-記号
  6
CONTINUOUS
 62
    3
 10
282.45550049999997
 20
178.77819549999998
 11
286.48512249999999
 21
183.58051149999997
  0
TEXT
  8
_0-5_文字-記号
 62
    7
 10
294.92218416666668
 20
183.82220949999999
 40
2
 41
0.8
 50
0
  1
５
  0
CIRCLE
  8
_0-5_文字-記号
  6
CONTINUOUS
 62
    3
 10
291.73551349999997
 20
180.06484449999999
 40
0.2
  0
CIRCLE
  8
_0-5_文字-記号
  6
CONTINUOUS
 62
    3
 10
295.61553149999997
 20
184.68886949999998
 40
1.666666999999999
  0
LINE
  8
_0-5_文字-記号
  6
CONTINUOUS
 62
    3
 10
291.73551349999997
 20
180.06484449999999
 11
294.54421850000006
 21
183.41212849999997
  0
TEXT
  8
_0-5_文字-記号
 62
    7
 10
288.92888316666665
 20
164.47214249999999
 40
2
 41
0.8
 50
0
  1
３
  0
CIRCLE
  8
_0-5_文字-記号
  6
CONTINUOUS
 62
    3
 10
283.42217349999999
 20
172.72774549999997
 40
0.2
  0
CIRCLE
  8
_0-5_文字-記号
  6
CONTINUOUS
 62
    3
 10
289.62222249999996
 20
165.33881549999998
 40
1.666666999999999
  0
LINE
  8
_0-5_文字-記号
  6
CONTINUOUS
 62
    3
 10
283.42217349999999
 20
172.72774549999997
 11
288.55090949999999
 21
166.61555549999997
  0
TEXT
  8
_0-5_文字-記号
 62
    7
 10
259.75984183333327
 20
177.38956949999996
 40
2
 41
0.8
 50
0
  1
１
  0
CIRCLE
  8
_0-5_文字-記号
  6
CONTINUOUS
 62
    3
 10
264.54374350000001
 20
173.44486249999997
 40
0.2
  0
CIRCLE
  8
_0-5_文字-記号
  6
CONTINUOUS
 62
    3
 10
260.50651949999997
 20
178.25623849999997
 40
1.666666999999999
  0
LINE
  8
_0-5_文字-記号
  6
CONTINUOUS
 62
    3
 10
264.54374350000001
 20
173.44486249999997
 11
261.5778315
 21
176.97949749999998
  0
TEXT
  8
_0-5_文字-記号
 62
    7
 10
245.18379283333326
 20
163.66126749999998
 40
2
 41
0.8
 50
0
  1
４
  0
CIRCLE
  8
_0-5_文字-記号
  6
CONTINUOUS
 62
    3
 10
250.37602949999996
 20
169.82595949999998
 40
0.2
  0
CIRCLE
  8
_0-5_文字-記号
  6
CONTINUOUS
 62
    3
 10
245.93046249999998
 20
164.52793949999997
 40
1.666666999999999
  0
LINE
  8
_0-5_文字-記号
  6
CONTINUOUS
 62
    3
 10
250.37602949999996
 20
169.82595949999998
 11
247.00177449999998
 21
165.80467949999999
  0
LINE
  8
_0-3_躯体と製品
  6
CONTINUOUS
 62
    2
 10
167.86170549999997
 20
169.37819549999998
 11
167.62837149999996
 21
169.61152849999999
  0
LINE
  8
_0-3_躯体と製品
  6
CONTINUOUS
 62
    2
 10
167.86170549999997
 20
169.37819549999998
 11
168.09503849999996
 21
169.61152849999999
  0
LINE
  8
_0-3_躯体と製品
  6
CONTINUOUS
 62
    2
 10
168.59503849999996
 20
169.61152849999999
 11
168.59503849999996
 21
169.21152849999999
  0
LINE
  8
_0-3_躯体と製品
  6
CONTINUOUS
 62
    2
 10
167.99503849999996
 20
168.44486249999997
 11
168.09503849999996
 21
168.44486249999997
  0
ARC
  8
_0-3_躯体と製品
  6
CONTINUOUS
 62
    2
 10
168.09503849999996
 20
169.21152849999999
 40
0.7666669999999999
 50
270
 51
0
  0
LINE
  8
_0-3_躯体と製品
  6
CONTINUOUS
 62
    2
 10
167.99503849999996
 20
168.71152849999999
 11
168.09503849999996
 21
168.71152849999999
  0
ARC
  8
_0-3_躯体と製品
  6
CONTINUOUS
 62
    2
 10
168.09503849999996
 20
169.21152849999999
 40
0.5
 50
270
 51
0
  0
ARC
  8
_0-3_躯体と製品
  6
CONTINUOUS
 62
    2
 10
167.99503849999996
 20
168.57819549999999
 40
0.133333
 50
90
 51
270
  0
LINE
  8
_0-3_躯体と製品
  6
CONTINUOUS
 62
    2
 10
168.09503849999996
 20
169.61152849999999
 11
168.59503849999996
 21
169.61152849999999
  0
LINE
  8
_0-3_躯体と製品
  6
CONTINUOUS
 62
    2
 10
167.12837149999996
 20
169.61152849999999
 11
167.62837149999996
 21
169.61152849999999
  0
ARC
  8
_0-3_躯体と製品
  6
CONTINUOUS
 62
    2
 10
167.86170549999997
 20
171.30896149999987
 40
0.166667
 50
33.424810999999949
 51
146.57518899999999
  0
LINE
  8
_0-3_躯体と製品
  6
CONTINUOUS
 62
    2
 10
167.36170549999997
 20
170.44486249999997
 11
167.52837149999996
 21
170.61152849999999
  0
LINE
  8
_0-3_躯体と製品
  6
CONTINUOUS
 62
    2
 10
167.36170549999997
 20
170.44486249999997
 11
167.52837149999996
 21
170.27819549999998
  0
LINE
  8
_0-3_躯体と製品
  6
CONTINUOUS
 62
    2
 10
167.52837149999996
 20
170.27819549999998
 11
167.52837149999996
 21
170.11152849999999
  0
LINE
  8
_0-3_躯体と製品
  6
CONTINUOUS
 62
    2
 10
167.72260349999996
 20
171.40076849999997
 11
167.31170549999996
 21
170.77819549999998
  0
LINE
  8
_0-3_躯体と製品
  6
CONTINUOUS
 62
    2
 10
167.52837149999996
 20
170.11152849999999
 11
166.86170549999997
 21
170.11152849999999
  0
LINE
  8
_0-3_躯体と製品
  6
CONTINUOUS
 62
    2
 10
167.12837149999996
 20
169.61152849999999
 11
167.12837149999996
 21
169.21152849999999
  0
LINE
  8
_0-3_躯体と製品
  6
CONTINUOUS
 62
    2
 10
166.86170549999997
 20
170.11152849999999
 11
166.86170549999997
 21
169.21152849999999
  0
LINE
  8
_0-3_躯体と製品
  6
CONTINUOUS
 62
    2
 10
167.31170549999996
 20
170.77819549999998
 11
167.52837149999996
 21
170.61152849999999
  0
LINE
  8
_0-3_躯体と製品
  6
CONTINUOUS
 62
    2
 10
168.19503849999998
 20
170.27819549999998
 11
168.19503849999998
 21
170.11152849999999
  0
LINE
  8
_0-3_躯体と製品
  6
CONTINUOUS
 62
    2
 10
168.00080649999998
 20
171.40076849999997
 11
168.41170549999998
 21
170.77819549999998
  0
LINE
  8
_0-3_躯体と製品
  6
CONTINUOUS
 62
    2
 10
168.19503849999998
 20
170.11152849999999
 11
168.86170549999997
 21
170.11152849999999
  0
LINE
  8
_0-3_躯体と製品
  6
CONTINUOUS
 62
    2
 10
168.86170549999997
 20
169.21152849999999
 11
168.86170549999997
 21
170.11152849999999
  0
LINE
  8
_0-3_躯体と製品
  6
CONTINUOUS
 62
    2
 10
168.19503849999998
 20
170.61152849999999
 11
168.41170549999998
 21
170.77819549999998
  0
LINE
  8
_0-3_躯体と製品
  6
CONTINUOUS
 62
    2
 10
168.36170549999997
 20
170.44486249999997
 11
168.19503849999998
 21
170.61152849999999
  0
LINE
  8
_0-3_躯体と製品
  6
CONTINUOUS
 62
    2
 10
168.36170549999997
 20
170.44486249999997
 11
168.19503849999998
 21
170.27819549999998
  0
LINE
  8
_0-3_躯体と製品
  6
CONTINUOUS
 62
    2
 10
167.72837149999998
 20
168.44486249999997
 11
167.62837149999996
 21
168.44486249999997
  0
ARC
  8
_0-3_躯体と製品
  6
CONTINUOUS
 62
    2
 10
167.62837149999996
 20
169.21152849999999
 40
0.7666669999999999
 50
180
 51
270
  0
LINE
  8
_0-3_躯体と製品
  6
CONTINUOUS
 62
    2
 10
167.72837149999998
 20
168.71152849999999
 11
167.62837149999996
 21
168.71152849999999
  0
ARC
  8
_0-3_躯体と製品
  6
CONTINUOUS
 62
    2
 10
167.62837149999996
 20
169.21152849999999
 40
0.5
 50
180
 51
270
  0
ARC
  8
_0-3_躯体と製品
  6
CONTINUOUS
 62
    2
 10
167.72837149999998
 20
168.57819549999999
 40
0.133333
 50
270
 51
90
  0
LINE
  8
_0-3_躯体と製品
  6
CONTINUOUS
 62
    2
 10
168.94503849999998
 20
170.27819549999998
 11
168.94503849999998
 21
173.11152849999988
  0
LINE
  8
_0-3_躯体と製品
  6
CONTINUOUS
 62
    2
 10
166.84503849999996
 20
171.94486249999997
 11
166.84503849999996
 21
170.27819549999998
  0
LINE
  8
_0-3_躯体と製品
  6
CONTINUOUS
 62
    2
 10
168.44503849999998
 20
171.51152849999997
 11
168.44503849999998
 21
170.77819549999998
  0
LINE
  8
_0-3_躯体と製品
  6
CONTINUOUS
 62
    2
 10
167.27837149999996
 20
171.51152849999997
 11
167.27837149999996
 21
170.77819549999998
  0
LINE
  8
_0-3_躯体と製品
  6
CONTINUOUS
 62
    2
 10
168.44503849999998
 20
170.11152849999999
 11
168.27837149999996
 21
170.27819549999998
  0
LINE
  8
_0-3_躯体と製品
  6
CONTINUOUS
 62
    2
 10
168.27837149999996
 20
170.27819549999998
 11
168.44503849999998
 21
170.44486249999997
  0
ARC
  8
_0-3_躯体と製品
  6
CONTINUOUS
 62
    2
 10
168.77837149999996
 20
170.27819549999998
 40
0.166667
 50
270
 51
0
  0
LINE
  8
_0-3_躯体と製品
  6
CONTINUOUS
 62
    2
 10
167.01170549999998
 20
170.11152849999999
 11
167.17837149999997
 21
170.11152849999999
  0
ARC
  8
_0-3_躯体と製品
  6
CONTINUOUS
 62
    2
 10
167.01170549999998
 20
170.27819549999998
 40
0.166667
 50
180
 51
270
  0
LINE
  8
_0-3_躯体と製品
  6
CONTINUOUS
 62
    2
 10
168.44503849999998
 20
170.44486249999997
 11
168.27837149999996
 21
170.61152849999999
  0
LINE
  8
_0-3_躯体と製品
  6
CONTINUOUS
 62
    2
 10
168.27837149999996
 20
170.61152849999999
 11
168.44503849999998
 21
170.77819549999998
  0
LINE
  8
_0-3_躯体と製品
  6
CONTINUOUS
 62
    2
 10
167.27837149999996
 20
170.11152849999999
 11
167.44503849999998
 21
170.27819549999998
  0
LINE
  8
_0-3_躯体と製品
  6
CONTINUOUS
 62
    2
 10
167.44503849999998
 20
170.27819549999998
 11
167.27837149999996
 21
170.44486249999997
  0
LINE
  8
_0-3_躯体と製品
  6
CONTINUOUS
 62
    2
 10
167.27837149999996
 20
170.44486249999997
 11
167.44503849999998
 21
170.61152849999999
  0
LINE
  8
_0-3_躯体と製品
  6
CONTINUOUS
 62
    2
 10
167.44503849999998
 20
170.61152849999999
 11
167.27837149999996
 21
170.77819549999998
  0
LINE
  8
_0-3_躯体と製品
  6
CONTINUOUS
 62
    2
 10
168.44503849999998
 20
170.11152849999999
 11
168.77837149999996
 21
170.11152849999999
  0
LINE
  8
_0-3_躯体と製品
  6
CONTINUOUS
 62
    2
 10
167.01170549999998
 20
170.11152849999999
 11
167.27837149999996
 21
170.11152849999999
  0
ARC
  8
_0-3_躯体と製品
  6
CONTINUOUS
 62
    2
 10
168.61170549999997
 20
173.11152849999988
 40
0.3333329999999999
 50
0
 51
90
  0
ARC
  8
_0-3_躯体と製品
  6
CONTINUOUS
 62
    2
 10
167.17837149999997
 20
171.94486249999997
 40
0.3333329999999999
 50
90
 51
180
  0
LINE
  8
_0-3_躯体と製品
  6
CONTINUOUS
 62
    2
 10
168.11170549999997
 20
171.84486249999998
 11
167.61170549999997
 21
171.84486249999998
  0
ARC
  8
_0-3_躯体と製品
  6
CONTINUOUS
 62
    2
 10
168.11170549999997
 20
171.51152849999997
 40
0.3333329999999999
 50
0
 51
90
  0
ARC
  8
_0-3_躯体と製品
  6
CONTINUOUS
 62
    2
 10
167.61170549999997
 20
171.51152849999997
 40
0.3333329999999999
 50
90
 51
180
  0
LINE
  8
_0-3_躯体と製品
  6
CONTINUOUS
 62
    2
 10
168.27837149999996
 20
172.27819549999998
 11
167.17837149999997
 21
172.27819549999998
  0
ARC
  8
_0-3_躯体と製品
  6
CONTINUOUS
 62
    2
 10
168.27837149999996
 20
172.44486249999997
 40
0.166667
 50
270
 51
0
  0
LINE
  8
_0-3_躯体と製品
  6
CONTINUOUS
 62
    2
 10
168.44503849999998
 20
172.44486249999997
 11
168.44503849999998
 21
172.77819549999998
  0
ARC
  8
_0-3_躯体と製品
  6
CONTINUOUS
 62
    2
 10
168.27837149999996
 20
172.77819549999998
 40
0.166667
 50
0
 51
90
  0
LINE
  8
_0-3_躯体と製品
  6
CONTINUOUS
 62
    2
 10
116.69503850000004
 20
169.37819549999998
 11
116.92837150000003
 21
169.61152849999999
  0
LINE
  8
_0-3_躯体と製品
  6
CONTINUOUS
 62
    2
 10
116.69503850000004
 20
169.37819549999998
 11
116.46170550000004
 21
169.61152849999999
  0
LINE
  8
_0-3_躯体と製品
  6
CONTINUOUS
 62
    2
 10
115.96170550000002
 20
169.61152849999999
 11
115.96170550000002
 21
169.21152849999999
  0
LINE
  8
_0-3_躯体と製品
  6
CONTINUOUS
 62
    2
 10
116.56170550000003
 20
168.44486249999997
 11
116.46170550000004
 21
168.44486249999997
  0
ARC
  8
_0-3_躯体と製品
  6
CONTINUOUS
 62
    2
 10
116.46170550000004
 20
169.21152849999999
 40
0.7666669999999999
 50
180
 51
270
  0
LINE
  8
_0-3_躯体と製品
  6
CONTINUOUS
 62
    2
 10
116.56170550000003
 20
168.71152849999999
 11
116.46170550000004
 21
168.71152849999999
  0
ARC
  8
_0-3_躯体と製品
  6
CONTINUOUS
 62
    2
 10
116.46170550000004
 20
169.21152849999999
 40
0.5
 50
180
 51
270
  0
ARC
  8
_0-3_躯体と製品
  6
CONTINUOUS
 62
    2
 10
116.56170550000003
 20
168.57819549999999
 40
0.133333
 50
270
 51
90
  0
LINE
  8
_0-3_躯体と製品
  6
CONTINUOUS
 62
    2
 10
116.46170550000004
 20
169.61152849999999
 11
115.96170550000002
 21
169.61152849999999
  0
LINE
  8
_0-3_躯体と製品
  6
CONTINUOUS
 62
    2
 10
117.42837150000003
 20
169.61152849999999
 11
116.92837150000003
 21
169.61152849999999
  0
ARC
  8
_0-3_躯体と製品
  6
CONTINUOUS
 62
    2
 10
116.69503850000004
 20
171.30896149999987
 40
0.166667
 50
33.424810999999949
 51
146.57518899999999
  0
LINE
  8
_0-3_躯体と製品
  6
CONTINUOUS
 62
    2
 10
117.19503850000005
 20
170.44486249999997
 11
117.02837150000003
 21
170.61152849999999
  0
LINE
  8
_0-3_躯体と製品
  6
CONTINUOUS
 62
    2
 10
117.19503850000005
 20
170.44486249999997
 11
117.02837150000003
 21
170.27819549999998
  0
LINE
  8
_0-3_躯体と製品
  6
CONTINUOUS
 62
    2
 10
117.02837150000003
 20
170.27819549999998
 11
117.02837150000003
 21
170.11152849999999
  0
LINE
  8
_0-3_躯体と製品
  6
CONTINUOUS
 62
    2
 10
116.83414050000002
 20
171.40076849999997
 11
117.24503850000004
 21
170.77819549999998
  0
LINE
  8
_0-3_躯体と製品
  6
CONTINUOUS
 62
    2
 10
117.02837150000003
 20
170.11152849999999
 11
117.69503850000004
 21
170.11152849999999
  0
LINE
  8
_0-3_躯体と製品
  6
CONTINUOUS
 62
    2
 10
117.42837150000003
 20
169.61152849999999
 11
117.42837150000003
 21
169.21152849999999
  0
LINE
  8
_0-3_躯体と製品
  6
CONTINUOUS
 62
    2
 10
117.69503850000004
 20
170.11152849999999
 11
117.69503850000004
 21
169.21152849999999
  0
LINE
  8
_0-3_躯体と製品
  6
CONTINUOUS
 62
    2
 10
117.24503850000004
 20
170.77819549999998
 11
117.02837150000003
 21
170.61152849999999
  0
LINE
  8
_0-3_躯体と製品
  6
CONTINUOUS
 62
    2
 10
116.36170550000003
 20
170.27819549999998
 11
116.36170550000003
 21
170.11152849999999
  0
LINE
  8
_0-3_躯体と製品
  6
CONTINUOUS
 62
    2
 10
116.55593650000002
 20
171.40076849999997
 11
116.14503850000003
 21
170.77819549999998
  0
LINE
  8
_0-3_躯体と製品
  6
CONTINUOUS
 62
    2
 10
116.36170550000003
 20
170.11152849999999
 11
115.69503850000004
 21
170.11152849999999
  0
LINE
  8
_0-3_躯体と製品
  6
CONTINUOUS
 62
    2
 10
115.69503850000004
 20
169.21152849999999
 11
115.69503850000004
 21
170.11152849999999
  0
LINE
  8
_0-3_躯体と製品
  6
CONTINUOUS
 62
    2
 10
116.36170550000003
 20
170.61152849999999
 11
116.14503850000003
 21
170.77819549999998
  0
LINE
  8
_0-3_躯体と製品
  6
CONTINUOUS
 62
    2
 10
116.19503850000002
 20
170.44486249999997
 11
116.36170550000003
 21
170.61152849999999
  0
LINE
  8
_0-3_躯体と製品
  6
CONTINUOUS
 62
    2
 10
116.19503850000002
 20
170.44486249999997
 11
116.36170550000003
 21
170.27819549999998
  0
LINE
  8
_0-3_躯体と製品
  6
CONTINUOUS
 62
    2
 10
116.82837150000003
 20
168.44486249999997
 11
116.92837150000003
 21
168.44486249999997
  0
ARC
  8
_0-3_躯体と製品
  6
CONTINUOUS
 62
    2
 10
116.92837150000003
 20
169.21152849999999
 40
0.7666669999999999
 50
270
 51
0
  0
LINE
  8
_0-3_躯体と製品
  6
CONTINUOUS
 62
    2
 10
116.82837150000003
 20
168.71152849999999
 11
116.92837150000003
 21
168.71152849999999
  0
ARC
  8
_0-3_躯体と製品
  6
CONTINUOUS
 62
    2
 10
116.92837150000003
 20
169.21152849999999
 40
0.5
 50
270
 51
0
  0
ARC
  8
_0-3_躯体と製品
  6
CONTINUOUS
 62
    2
 10
116.82837150000003
 20
168.57819549999999
 40
0.133333
 50
90
 51
270
  0
LINE
  8
_0-3_躯体と製品
  6
CONTINUOUS
 62
    2
 10
115.61170550000001
 20
170.27819549999998
 11
115.61170550000001
 21
173.11152849999988
  0
LINE
  8
_0-3_躯体と製品
  6
CONTINUOUS
 62
    2
 10
117.71170550000004
 20
171.94486249999997
 11
117.71170550000004
 21
170.27819549999998
  0
LINE
  8
_0-3_躯体と製品
  6
CONTINUOUS
 62
    2
 10
116.11170550000003
 20
171.51152849999997
 11
116.11170550000003
 21
170.77819549999998
  0
LINE
  8
_0-3_躯体と製品
  6
CONTINUOUS
 62
    2
 10
117.27837150000003
 20
171.51152849999997
 11
117.27837150000003
 21
170.77819549999998
  0
LINE
  8
_0-3_躯体と製品
  6
CONTINUOUS
 62
    2
 10
116.11170550000003
 20
170.11152849999999
 11
116.27837150000003
 21
170.27819549999998
  0
LINE
  8
_0-3_躯体と製品
  6
CONTINUOUS
 62
    2
 10
116.27837150000003
 20
170.27819549999998
 11
116.11170550000003
 21
170.44486249999997
  0
ARC
  8
_0-3_躯体と製品
  6
CONTINUOUS
 62
    2
 10
115.77837150000003
 20
170.27819549999998
 40
0.166667
 50
180
 51
270
  0
LINE
  8
_0-3_躯体と製品
  6
CONTINUOUS
 62
    2
 10
117.54503850000003
 20
170.11152849999999
 11
117.37837150000003
 21
170.11152849999999
  0
ARC
  8
_0-3_躯体と製品
  6
CONTINUOUS
 62
    2
 10
117.54503850000003
 20
170.27819549999998
 40
0.166667
 50
270
 51
0
  0
LINE
  8
_0-3_躯体と製品
  6
CONTINUOUS
 62
    2
 10
116.11170550000003
 20
170.44486249999997
 11
116.27837150000003
 21
170.61152849999999
  0
LINE
  8
_0-3_躯体と製品
  6
CONTINUOUS
 62
    2
 10
116.27837150000003
 20
170.61152849999999
 11
116.11170550000003
 21
170.77819549999998
  0
LINE
  8
_0-3_躯体と製品
  6
CONTINUOUS
 62
    2
 10
117.27837150000003
 20
170.11152849999999
 11
117.11170550000003
 21
170.27819549999998
  0
LINE
  8
_0-3_躯体と製品
  6
CONTINUOUS
 62
    2
 10
117.11170550000003
 20
170.27819549999998
 11
117.27837150000003
 21
170.44486249999997
  0
LINE
  8
_0-3_躯体と製品
  6
CONTINUOUS
 62
    2
 10
117.27837150000003
 20
170.44486249999997
 11
117.11170550000003
 21
170.61152849999999
  0
LINE
  8
_0-3_躯体と製品
  6
CONTINUOUS
 62
    2
 10
117.11170550000003
 20
170.61152849999999
 11
117.27837150000003
 21
170.77819549999998
  0
LINE
  8
_0-3_躯体と製品
  6
CONTINUOUS
 62
    2
 10
116.11170550000003
 20
170.11152849999999
 11
115.77837150000003
 21
170.11152849999999
  0
LINE
  8
_0-3_躯体と製品
  6
CONTINUOUS
 62
    2
 10
117.54503850000003
 20
170.11152849999999
 11
117.27837150000003
 21
170.11152849999999
  0
ARC
  8
_0-3_躯体と製品
  6
CONTINUOUS
 62
    2
 10
115.94503850000005
 20
173.11152849999988
 40
0.3333329999999999
 50
90
 51
180
  0
ARC
  8
_0-3_躯体と製品
  6
CONTINUOUS
 62
    2
 10
117.37837150000003
 20
171.94486249999997
 40
0.3333329999999999
 50
0
 51
90
  0
LINE
  8
_0-3_躯体と製品
  6
CONTINUOUS
 62
    2
 10
116.44503850000004
 20
171.84486249999998
 11
116.94503850000004
 21
171.84486249999998
  0
ARC
  8
_0-3_躯体と製品
  6
CONTINUOUS
 62
    2
 10
116.44503850000004
 20
171.51152849999997
 40
0.3333329999999999
 50
90
 51
180
  0
ARC
  8
_0-3_躯体と製品
  6
CONTINUOUS
 62
    2
 10
116.94503850000004
 20
171.51152849999997
 40
0.3333329999999999
 50
0
 51
90
  0
LINE
  8
_0-3_躯体と製品
  6
CONTINUOUS
 62
    2
 10
116.27837150000003
 20
172.27819549999998
 11
117.37837150000003
 21
172.27819549999998
  0
ARC
  8
_0-3_躯体と製品
  6
CONTINUOUS
 62
    2
 10
116.27837150000003
 20
172.44486249999997
 40
0.166667
 50
180
 51
270
  0
LINE
  8
_0-3_躯体と製品
  6
CONTINUOUS
 62
    2
 10
116.11170550000003
 20
172.44486249999997
 11
116.11170550000003
 21
172.77819549999998
  0
ARC
  8
_0-3_躯体と製品
  6
CONTINUOUS
 62
    2
 10
116.27837150000003
 20
172.77819549999998
 40
0.166667
 50
90
 51
180
  0
LINE
  8
_0-3_躯体と製品
  6
CONTINUOUS
 62
    2
 10
164.65550249999998
 20
172.52340549999997
 11
164.13806249999996
 21
170.61595749999998
  0
LINE
  8
_0-3_躯体と製品
  6
CONTINUOUS
 62
    2
 10
163.94503849999998
 20
170.66831949999997
 11
164.46247849999997
 21
172.57576749999998
  0
LINE
  8
_0-3_躯体と製品
  6
CONTINUOUS
 62
    2
 10
164.13806249999996
 20
170.61595749999998
 11
163.94503849999998
 21
170.66831949999997
  0
ARC
  8
_0-3_躯体と製品
  6
CONTINUOUS
 62
    2
 10
164.94503849999998
 20
172.44486249999997
 40
0.5
 50
0
 51
164.82243099999999
  0
ARC
  8
_0-3_躯体と製品
  6
CONTINUOUS
 62
    2
 10
164.94503849999998
 20
172.44486249999997
 40
0.2999999999999999
 50
0
 51
164.82243099999999
  0
ARC
  8
_0-3_躯体と製品
  6
CONTINUOUS
 62
    2
 10
164.11170549999997
 20
172.77819549999998
 40
0.166667
 50
90
 51
180
  0
LINE
  8
_0-3_躯体と製品
  6
CONTINUOUS
 62
    2
 10
163.94503849999998
 20
172.77819549999998
 11
163.94503849999998
 21
170.61152849999999
  0
LINE
  8
_0-3_躯体と製品
  6
CONTINUOUS
 62
    2
 10
163.54503849999998
 20
170.34486249999998
 11
163.54503849999998
 21
172.77819549999998
  0
ARC
  8
_0-3_躯体と製品
  6
CONTINUOUS
 62
    2
 10
163.37837149999996
 20
170.34486249999998
 40
0.166667
 50
270
 51
0
  0
LINE
  8
_0-3_躯体と製品
  6
CONTINUOUS
 62
    2
 10
163.37837149999996
 20
170.17819549999999
 11
162.91170549999998
 21
170.17819549999999
  0
ARC
  8
_0-3_躯体と製品
  6
CONTINUOUS
 62
    2
 10
163.37837149999996
 20
172.77819549999998
 40
0.166667
 50
0
 51
90
  0
LINE
  8
_0-3_躯体と製品
  6
CONTINUOUS
 62
    2
 10
164.27837149999996
 20
170.61152849999999
 11
163.94503849999998
 21
170.61152849999999
  0
LINE
  8
_0-3_躯体と製品
  6
CONTINUOUS
 62
    2
 10
163.38084449999997
 20
169.77819549999998
 11
162.91170549999998
 21
169.77819549999998
  0
ARC
  8
_0-3_躯体と製品
  6
CONTINUOUS
 62
    2
 10
163.38084449999997
 20
170.61152849999999
 40
0.8333329999999999
 50
270
 51
338.19859099999991
  0
LINE
  8
_0-3_躯体と製品
  6
CONTINUOUS
 62
    2
 10
164.15457449999997
 20
170.30203649999999
 11
164.27837149999996
 21
170.61152849999999
  0
ARC
  8
_0-3_躯体と製品
  6
CONTINUOUS
 62
    2
 10
162.91170549999998
 20
169.97819549999997
 40
0.2
 50
90
 51
270
  0
LINE
  8
_0-3_躯体と製品
  6
CONTINUOUS
 62
    2
 10
164.27837149999996
 20
169.31154649999988
 11
164.27837149999996
 21
168.64488049999997
  0
LINE
  8
_0-3_躯体と製品
  6
CONTINUOUS
 62
    2
 10
150.94503849999998
 20
169.31153249999997
 11
164.27837149999996
 21
169.31154649999988
  0
LINE
  8
_0-3_躯体と製品
  6
CONTINUOUS
 62
    2
 10
150.94503849999998
 20
169.31153249999997
 11
150.94503849999998
 21
168.64486649999998
  0
LINE
  8
_0-3_躯体と製品
  6
CONTINUOUS
 62
    2
 10
150.07837149999997
 20
168.44486249999997
 11
150.61170549999997
 21
168.44486249999997
  0
LINE
  8
_0-3_躯体と製品
  6
CONTINUOUS
 62
    2
 10
150.56790749999996
 20
172.52340549999997
 11
151.08534849999998
 21
170.61595749999998
  0
LINE
  8
_0-3_躯体と製品
  6
CONTINUOUS
 62
    2
 10
151.27837149999996
 20
170.66831949999997
 11
150.76093149999997
 21
172.57576749999998
  0
LINE
  8
_0-3_躯体と製品
  6
CONTINUOUS
 62
    2
 10
151.08534849999998
 20
170.61595749999998
 11
151.27837149999996
 21
170.66831949999997
  0
ARC
  8
_0-3_躯体と製品
  6
CONTINUOUS
 62
    2
 10
162.31169949999997
 20
168.64485649999997
 40
0.300005
 50
0.0021290000001296
 51
89.998970000000099
  0
LINE
  8
_0-3_躯体と製品
  6
CONTINUOUS
 62
    2
 10
165.24503849999996
 20
172.44486249999997
 11
165.24503849999996
 21
168.74486549999997
  0
LINE
  8
_0-3_躯体と製品
  6
CONTINUOUS
 62
    2
 10
165.44503849999998
 20
172.44486249999997
 11
165.44503849999998
 21
168.74486249999998
  0
ARC
  8
_0-3_躯体と製品
  6
CONTINUOUS
 62
    2
 10
165.14503849999997
 20
168.74486549999997
 40
0.1
 50
270
 51
0
  0
ARC
  8
_0-3_躯体と製品
  6
CONTINUOUS
 62
    2
 10
165.14503849999997
 20
168.74486249999998
 40
0.2999999999999999
 50
270
 51
0
  0
LINE
  8
_0-3_躯体と製品
  6
PLINE2
 62
    3
 10
155.11170549999997
 20
168.64486249999999
 11
155.11170549999997
 21
168.44486249999997
  0
ARC
  8
_0-3_躯体と製品
  6
CONTINUOUS
 62
    2
 10
150.27837149999996
 20
172.44486249999997
 40
0.5
 50
15.177568999999972
 51
180
  0
ARC
  8
_0-3_躯体と製品
  6
CONTINUOUS
 62
    2
 10
150.27837149999996
 20
172.44486249999997
 40
0.2999999999999999
 50
15.177568999999972
 51
180
  0
LINE
  8
_0-3_躯体と製品
  6
CONTINUOUS
 62
    2
 10
149.97837149999998
 20
172.44486249999997
 11
149.97837149999998
 21
168.74486549999997
  0
LINE
  8
_0-3_躯体と製品
  6
CONTINUOUS
 62
    2
 10
149.77837149999996
 20
172.44486249999997
 11
149.77837149999996
 21
168.74486249999998
  0
LINE
  8
_0-3_躯体と製品
  6
CONTINUOUS
 62
    2
 10
165.14681949999996
 20
168.64488149999997
 11
150.07837149999997
 21
168.64486549999998
  0
ARC
  8
_0-3_躯体と製品
  6
CONTINUOUS
 62
    2
 10
150.07837149999997
 20
168.74486549999997
 40
0.1
 50
180
 51
270
  0
ARC
  8
_0-3_躯体と製品
  6
CONTINUOUS
 62
    2
 10
150.07837149999997
 20
168.74486249999998
 40
0.2999999999999999
 50
180
 51
270
  0
LINE
  8
_0-3_躯体と製品
  6
CONTINUOUS
 62
    2
 10
158.27837149999996
 20
168.64487349999999
 11
158.27837149999996
 21
168.44486249999997
  0
LINE
  8
_0-3_躯体と製品
  6
CONTINUOUS
 62
    2
 10
156.94503849999998
 20
168.64487249999988
 11
156.94503849999998
 21
168.44486249999997
  0
ARC
  8
_0-3_躯体と製品
  6
CONTINUOUS
 62
    2
 10
152.91171049999997
 20
168.64485649999997
 40
0.300005
 50
90.001029999999886
 51
179.9978709999998
  0
LINE
  8
_0-3_躯体と製品
  6
CONTINUOUS
 62
    2
 10
162.31169949999997
 20
168.94486249999997
 11
152.91171049999997
 21
168.94486249999997
  0
LINE
  8
_0-3_躯体と製品
  6
PLINE2
 62
    3
 10
160.11170549999997
 20
168.64486249999999
 11
160.11170549999997
 21
168.44486249999997
  0
LINE
  8
_0-3_躯体と製品
  6
CONTINUOUS
 62
    2
 10
116.27837150000003
 20
172.94486249999997
 11
151.11170549999997
 21
172.94486249999997
  0
LINE
  8
_0-3_躯体と製品
  6
CONTINUOUS
 62
    2
 10
168.61170549999997
 20
173.44486249999997
 11
142.27837149999999
 21
173.44486249999997
  0
LINE
  8
_0-3_躯体と製品
  6
CONTINUOUS
 62
    2
 10
110.61170550000001
 20
168.44486249999997
 11
133.94503849999995
 21
168.44486249999997
  0
LINE
  8
_0-3_躯体と製品
  6
CONTINUOUS
 62
    2
 10
115.94503850000005
 20
173.44486249999997
 11
142.27837149999999
 21
173.44486249999997
  0
LINE
  8
_0-3_躯体と製品
  6
CONTINUOUS
 62
    2
 10
133.94503849999995
 20
151.77819549999998
 11
133.94503849999995
 21
168.44486249999997
  0
LINE
  8
_0-3_躯体と製品
  6
PLINE3
 62
    3
 10
157.61170549999997
 20
172.14330949999999
 11
157.61170549999997
 21
151.88296749999986
  0
TEXT
  8
_0-5_文字-記号
 62
    7
 10
161.26842116666668
 20
154.02241249999997
 40
2
 41
0.8
 50
0
  1
５
  0
CIRCLE
  8
_0-5_文字-記号
  6
CONTINUOUS
 62
    3
 10
158.55517149999997
 20
160.78945549999997
 40
0.2999999999999999
  0
CIRCLE
  8
_0-5_文字-記号
  6
CONTINUOUS
 62
    3
 10
161.96175349999996
 20
154.88908349999997
 40
1.666666999999999
  0
LINE
  8
_0-5_文字-記号
  6
CONTINUOUS
 62
    3
 10
160.89704549999996
 20
156.73321149999998
 11
161.12841949999998
 21
156.33245849999997
  0
LINE
  8
_0-5_文字-記号
  6
CONTINUOUS
 62
    3
 10
158.55517149999997
 20
160.78945549999997
 11
160.89704549999996
 21
156.73321149999998
  0
LINE
  8
_0-3_躯体と製品
  6
CONTINUOUS
 62
    2
 10
150.61170549999997
 20
151.77819549999998
 11
150.61170549999997
 21
168.44486249999997
  0
ARC
  8
_0-3_躯体と製品
  6
CONTINUOUS
 62
    2
 10
151.11170549999997
 20
172.77819549999998
 40
0.166667
 50
0
 51
90
  0
LINE
  8
_0-3_躯体と製品
  6
CONTINUOUS
 62
    2
 10
151.27837149999996
 20
172.77819549999998
 11
151.27837149999996
 21
170.61152849999999
  0
LINE
  8
_0-3_躯体と製品
  6
CONTINUOUS
 62
    2
 10
151.67837149999997
 20
170.34486249999998
 11
151.67837149999997
 21
172.77819549999998
  0
ARC
  8
_0-3_躯体と製品
  6
CONTINUOUS
 62
    2
 10
151.84503849999996
 20
170.34486249999998
 40
0.166667
 50
180
 51
270
  0
LINE
  8
_0-3_躯体と製品
  6
CONTINUOUS
 62
    2
 10
151.84503849999996
 20
170.17819549999999
 11
152.31170549999996
 21
170.17819549999999
  0
LINE
  8
_0-3_躯体と製品
  6
CONTINUOUS
 62
    2
 10
173.94503849999998
 20
168.44486249999997
 11
150.61170549999997
 21
168.44486249999997
  0
ARC
  8
_0-3_躯体と製品
  6
CONTINUOUS
 62
    2
 10
151.84503849999996
 20
172.77819549999998
 40
0.166667
 50
90
 51
180
  0
LINE
  8
_0-3_躯体と製品
  6
CONTINUOUS
 62
    2
 10
168.27837149999996
 20
172.94486249999997
 11
164.11170549999997
 21
172.94486249999997
  0
LINE
  8
_0-3_躯体と製品
  6
CONTINUOUS
 62
    2
 10
150.94503849999998
 20
170.61152849999999
 11
151.27837149999996
 21
170.61152849999999
  0
LINE
  8
_0-3_躯体と製品
  6
CONTINUOUS
 62
    2
 10
151.84256549999998
 20
169.77819549999998
 11
152.31170549999996
 21
169.77819549999998
  0
ARC
  8
_0-3_躯体と製品
  6
CONTINUOUS
 62
    2
 10
151.84256549999998
 20
170.61152849999999
 40
0.8333329999999999
 50
201.80140900000001
 51
270
  0
LINE
  8
_0-3_躯体と製品
  6
CONTINUOUS
 62
    2
 10
151.06883549999998
 20
170.30203649999999
 11
150.94503849999998
 21
170.61152849999999
  0
ARC
  8
_0-3_躯体と製品
  6
CONTINUOUS
 62
    2
 10
152.31170549999996
 20
169.97819549999997
 40
0.2
 50
270
 51
90
  0
LINE
  8
_0-3_躯体と製品
  6
CONTINUOUS
 62
    2
 10
163.37837149999996
 20
172.94486249999997
 11
151.84503849999996
 21
172.94486249999997
  0
LINE
  8
_0-3_躯体と製品
  6
PLINE2
 62
    3
 10
157.04679949999996
 20
165.21620149999998
 11
156.61170549999997
 21
165.44486249999997
  0
LINE
  8
_0-3_躯体と製品
  6
PLINE2
 62
    3
 10
156.61170549999997
 20
165.44486249999997
 11
156.61170549999997
 21
168.44486249999997
  0
LINE
  8
_0-3_躯体と製品
  6
PLINE2
 62
    3
 10
158.50146949999998
 20
163.49476749999997
 11
158.95643249999998
 21
164.74476749999988
  0
LINE
  8
_0-3_躯体と製品
  6
PLINE2
 62
    3
 10
158.76751349999998
 20
163.49476749999997
 11
159.19135549999996
 21
164.65926249999998
  0
LINE
  8
_0-3_躯体と製品
  6
PLINE2
 62
    3
 10
156.72194049999996
 20
163.49476749999997
 11
156.26697849999996
 21
164.74476749999988
  0
LINE
  8
_0-3_躯体と製品
  6
PLINE2
 62
    3
 10
156.03112049999996
 20
166.39577249999999
 11
156.26697849999996
 21
164.74476749999988
  0
ARC
  8
_0-3_躯体と製品
  6
PLINE2
 62
    3
 10
155.93212549999998
 20
166.38163049999997
 40
0.1
 50
8.1301020000002673
 51
98.130101999999823
  0
LINE
  8
_0-3_躯体と製品
  6
PLINE2
 62
    3
 10
155.86877749999996
 20
166.47359549999999
 11
155.91798349999996
 21
166.48062549999997
  0
ARC
  8
_0-3_躯体と製品
  6
PLINE2
 62
    3
 10
155.88291949999996
 20
166.37460049999999
 40
0.1
 50
98.130101999999809
 51
188.2984660000001
  0
LINE
  8
_0-3_躯体と製品
  6
PLINE2
 62
    3
 10
156.03205449999996
 20
164.65926249999998
 11
155.78396649999996
 21
166.36016749999999
  0
ARC
  8
_0-3_躯体と製品
  6
PLINE2
 62
    3
 10
159.29128549999996
 20
166.38163049999997
 40
0.1
 50
81.869898000000191
 51
171.86989799999969
  0
LINE
  8
_0-3_躯体と製品
  6
PLINE2
 62
    3
 10
159.35463349999998
 20
166.47359549999999
 11
159.30542749999998
 21
166.48062549999997
  0
ARC
  8
_0-3_躯体と製品
  6
PLINE2
 62
    3
 10
159.34049149999998
 20
166.37460049999999
 40
0.1
 50
351.70153399999987
 51
81.869898000000205
  0
LINE
  8
_0-3_躯体と製品
  6
PLINE2
 62
    3
 10
159.19135549999996
 20
164.65926249999998
 11
159.43944449999998
 21
166.36016749999999
  0
LINE
  8
_0-3_躯体と製品
  6
PLINE2
 62
    3
 10
157.73670549999997
 20
166.44486249999997
 11
157.61170549999997
 21
166.44486249999997
  0
LINE
  8
_0-3_躯体と製品
  6
PLINE2
 62
    3
 10
158.61170549999997
 20
165.44486249999997
 11
158.17661149999998
 21
165.21620149999998
  0
LINE
  8
_0-3_躯体と製品
  6
PLINE2
 62
    3
 10
158.86170549999997
 20
168.44486249999997
 11
158.61170549999997
 21
167.19486249999997
  0
LINE
  8
_0-3_躯体と製品
  6
PLINE2
 62
    3
 10
157.86170549999997
 20
168.44486249999997
 11
157.61170549999997
 21
167.19486249999997
  0
LINE
  8
_0-3_躯体と製品
  6
PLINE2
 62
    3
 10
157.36170549999997
 20
168.44486249999997
 11
157.61170549999997
 21
167.19486249999997
  0
LINE
  8
_0-3_躯体と製品
  6
PLINE2
 62
    3
 10
157.61170549999997
 20
167.19486249999997
 11
157.61170549999997
 21
168.44486249999997
  0
LINE
  8
_0-3_躯体と製品
  6
PLINE2
 62
    3
 10
158.07906649999998
 20
159.91222349999998
 11
157.61170549999997
 21
159.44486249999997
  0
LINE
  8
_0-3_躯体と製品
  6
PLINE2
 62
    3
 10
158.20277949999996
 20
164.71688649999999
 11
158.70209349999996
 21
164.74305449999997
  0
LINE
  8
_0-3_躯体と製品
  6
PLINE2
 62
    3
 10
158.17661149999998
 20
165.21620149999998
 11
158.20277949999996
 21
164.71688649999999
  0
LINE
  8
_0-3_躯体と製品
  6
PLINE2
 62
    3
 10
158.70209349999996
 20
164.74305449999997
 11
158.72826149999997
 21
164.24373949999998
  0
LINE
  8
_0-3_躯体と製品
  6
PLINE2
 62
    3
 10
158.14230849999998
 20
158.70548349999987
 11
157.73670549999997
 21
166.44486249999997
  0
LINE
  8
_0-3_躯体と製品
  6
PLINE2
 62
    3
 10
158.51679449999997
 20
158.72510949999997
 11
158.14230849999998
 21
158.70548349999987
  0
LINE
  8
_0-3_躯体と製品
  6
PLINE2
 62
    3
 10
158.98994149999996
 20
159.25059149999998
 11
158.51679449999997
 21
158.72510949999997
  0
LINE
  8
_0-3_躯体と製品
  6
PLINE2
 62
    3
 10
158.11614049999997
 20
159.20479749999998
 11
158.98994149999996
 21
159.25059149999998
  0
LINE
  8
_0-3_躯体と製品
  6
PLINE2
 62
    3
 10
158.26819949999998
 20
163.46859949999998
 11
158.76751349999998
 21
163.49476749999997
  0
LINE
  8
_0-3_躯体と製品
  6
PLINE2
 62
    3
 10
158.24203149999997
 20
163.96791449999998
 11
158.26819949999998
 21
163.46859949999998
  0
LINE
  8
_0-3_躯体と製品
  6
PLINE2
 62
    3
 10
158.72826149999997
 20
164.24373949999998
 11
158.24203149999997
 21
163.96791449999998
  0
LINE
  8
_0-3_躯体と製品
  6
PLINE2
 62
    3
 10
158.76751349999998
 20
163.49476749999997
 11
158.79368149999996
 21
162.99545249999997
  0
LINE
  8
_0-3_躯体と製品
  6
PLINE2
 62
    3
 10
158.33361949999997
 20
162.22031249999998
 11
158.83293349999997
 21
162.24648049999999
  0
LINE
  8
_0-3_躯体と製品
  6
PLINE2
 62
    3
 10
158.30745149999996
 20
162.71962749999997
 11
158.33361949999997
 21
162.22031249999998
  0
LINE
  8
_0-3_躯体と製品
  6
PLINE2
 62
    3
 10
158.79368149999996
 20
162.99545249999997
 11
158.30745149999996
 21
162.71962749999997
  0
LINE
  8
_0-3_躯体と製品
  6
PLINE2
 62
    3
 10
158.83293349999997
 20
162.24648049999999
 11
158.85910149999998
 21
161.74716549999997
  0
LINE
  8
_0-3_躯体と製品
  6
PLINE2
 62
    3
 10
158.39903949999996
 20
160.97202549999997
 11
158.89835349999998
 21
160.99819349999999
  0
LINE
  8
_0-3_躯体と製品
  6
PLINE2
 62
    3
 10
158.37287149999997
 20
161.47134049999997
 11
158.39903949999996
 21
160.97202549999997
  0
LINE
  8
_0-3_躯体と製品
  6
PLINE2
 62
    3
 10
158.85910149999998
 20
161.74716549999997
 11
158.37287149999997
 21
161.47134049999997
  0
LINE
  8
_0-3_躯体と製品
  6
PLINE2
 62
    3
 10
158.89835349999998
 20
160.99819349999999
 11
158.92452149999997
 21
160.49887849999999
  0
LINE
  8
_0-3_躯体と製品
  6
PLINE2
 62
    3
 10
158.46445849999998
 20
159.72373849999997
 11
158.96377349999997
 21
159.74990649999998
  0
LINE
  8
_0-3_躯体と製品
  6
PLINE2
 62
    3
 10
158.43829049999997
 20
160.22305349999999
 11
158.46445849999998
 21
159.72373849999997
  0
LINE
  8
_0-3_躯体と製品
  6
PLINE2
 62
    3
 10
158.92452149999997
 20
160.49887849999999
 11
158.43829049999997
 21
160.22305349999999
  0
LINE
  8
_0-3_躯体と製品
  6
PLINE2
 62
    3
 10
158.96377349999997
 20
159.74990649999998
 11
158.98994149999996
 21
159.25059149999998
  0
LINE
  8
_0-3_躯体と製品
  6
PLINE2
 62
    3
 10
157.48670549999997
 20
166.44486249999997
 11
157.61170549999997
 21
166.44486249999997
  0
LINE
  8
_0-3_躯体と製品
  6
PLINE2
 62
    3
 10
156.36170549999997
 20
168.44486249999997
 11
156.61170549999997
 21
167.19486249999997
  0
LINE
  8
_0-3_躯体と製品
  6
PLINE2
 62
    3
 10
157.02063149999998
 20
164.71688649999999
 11
156.52131649999998
 21
164.74305449999997
  0
LINE
  8
_0-3_躯体と製品
  6
PLINE2
 62
    3
 10
157.04679949999996
 20
165.21620149999998
 11
157.02063149999998
 21
164.71688649999999
  0
LINE
  8
_0-3_躯体と製品
  6
PLINE2
 62
    3
 10
156.52131649999998
 20
164.74305449999997
 11
156.49514849999997
 21
164.24373949999998
  0
LINE
  8
_0-3_躯体と製品
  6
PLINE2
 62
    3
 10
157.08110149999996
 20
158.70548349999987
 11
157.48670549999997
 21
166.44486249999997
  0
LINE
  8
_0-3_躯体と製品
  6
PLINE2
 62
    3
 10
156.70661549999997
 20
158.72510949999997
 11
157.08110149999996
 21
158.70548349999987
  0
LINE
  8
_0-3_躯体と製品
  6
PLINE2
 62
    3
 10
156.23346849999996
 20
159.25059149999998
 11
156.70661549999997
 21
158.72510949999997
  0
LINE
  8
_0-3_躯体と製品
  6
PLINE2
 62
    3
 10
157.10726949999997
 20
159.20479749999998
 11
156.23346849999996
 21
159.25059149999998
  0
LINE
  8
_0-3_躯体と製品
  6
PLINE2
 62
    3
 10
156.95521149999996
 20
163.46859949999998
 11
156.45589649999997
 21
163.49476749999997
  0
LINE
  8
_0-3_躯体と製品
  6
PLINE2
 62
    3
 10
156.98137949999997
 20
163.96791449999998
 11
156.95521149999996
 21
163.46859949999998
  0
LINE
  8
_0-3_躯体と製品
  6
PLINE2
 62
    3
 10
156.49514849999997
 20
164.24373949999998
 11
156.98137949999997
 21
163.96791449999998
  0
LINE
  8
_0-3_躯体と製品
  6
PLINE2
 62
    3
 10
156.45589649999997
 20
163.49476749999997
 11
156.42972849999998
 21
162.99545249999997
  0
LINE
  8
_0-3_躯体と製品
  6
PLINE2
 62
    3
 10
156.88979149999997
 20
162.22031249999998
 11
156.39047649999998
 21
162.24648049999999
  0
LINE
  8
_0-3_躯体と製品
  6
PLINE2
 62
    3
 10
156.91595949999996
 20
162.71962749999997
 11
156.88979149999997
 21
162.22031249999998
  0
LINE
  8
_0-3_躯体と製品
  6
PLINE2
 62
    3
 10
156.42972849999998
 20
162.99545249999997
 11
156.91595949999996
 21
162.71962749999997
  0
LINE
  8
_0-3_躯体と製品
  6
PLINE2
 62
    3
 10
156.39047649999998
 20
162.24648049999999
 11
156.36430849999996
 21
161.74716549999997
  0
LINE
  8
_0-3_躯体と製品
  6
PLINE2
 62
    3
 10
156.82437149999998
 20
160.97202549999997
 11
156.32505649999996
 21
160.99819349999999
  0
LINE
  8
_0-3_躯体と製品
  6
PLINE2
 62
    3
 10
156.85053949999997
 20
161.47134049999997
 11
156.82437149999998
 21
160.97202549999997
  0
LINE
  8
_0-3_躯体と製品
  6
PLINE2
 62
    3
 10
156.36430849999996
 20
161.74716549999997
 11
156.85053949999997
 21
161.47134049999997
  0
LINE
  8
_0-3_躯体と製品
  6
PLINE2
 62
    3
 10
156.32505649999996
 20
160.99819349999999
 11
156.29888849999998
 21
160.49887849999999
  0
LINE
  8
_0-3_躯体と製品
  6
PLINE2
 62
    3
 10
156.75895149999997
 20
159.72373849999997
 11
156.25963649999997
 21
159.74990649999998
  0
LINE
  8
_0-3_躯体と製品
  6
PLINE2
 62
    3
 10
156.78511949999998
 20
160.22305349999999
 11
156.75895149999997
 21
159.72373849999997
  0
LINE
  8
_0-3_躯体と製品
  6
PLINE2
 62
    3
 10
156.29888849999998
 20
160.49887849999999
 11
156.78511949999998
 21
160.22305349999999
  0
LINE
  8
_0-3_躯体と製品
  6
PLINE2
 62
    3
 10
156.25963649999997
 20
159.74990649999998
 11
156.23346849999996
 21
159.25059149999998
  0
LINE
  8
_0-3_躯体と製品
  6
PLINE2
 62
    3
 10
157.14434449999996
 20
159.91222349999998
 11
157.61170549999997
 21
159.44486249999997
  0
LINE
  8
_0-3_躯体と製品
  6
PLINE2
 62
    3
 10
159.19229049999998
 20
166.39577249999999
 11
158.95643249999998
 21
164.74476749999988
  0
LINE
  8
_0-3_躯体と製品
  6
PLINE2
 62
    3
 10
156.45589649999997
 20
163.49476749999997
 11
156.03205449999996
 21
164.65926249999998
  0
LINE
  8
_0-3_躯体と製品
  6
PLINE2
 62
    3
 10
158.61170549999997
 20
165.44486249999997
 11
158.61170549999997
 21
168.44486249999997
  0
ARC
  8
_0-3_躯体と製品
  6
CONTINUOUS
 62
    2
 10
158.01244149999997
 20
169.27721749999998
 40
0.8
 50
2.4589260000003339
 51
51.385362000000178
  0
ARC
  8
_0-3_躯体と製品
  6
CONTINUOUS
 62
    2
 10
157.61170549999997
 20
168.77820649999987
 40
1.4399999999999991
 50
51.148938000000157
 51
90
  0
ARC
  8
_0-3_躯体と製品
  6
CONTINUOUS
 62
    2
 10
157.61170549999997
 20
168.77820649999987
 40
1.4399999999999991
 50
90
 51
128.6821870000002
  0
ARC
  8
_0-3_躯体と製品
  6
CONTINUOUS
 62
    2
 10
157.21096849999998
 20
169.27721749999998
 40
0.8
 50
128.61463799999981
 51
177.54107399999964
  0
TEXT
  8
_0-5_文字-記号
 62
    7
 10
170.53457683333326
 20
163.71455149999997
 40
2
 41
0.8
 50
0
  1
４
  0
CIRCLE
  8
_0-5_文字-記号
  6
CONTINUOUS
 62
    3
 10
168.18119549999997
 20
169.82006149999998
 40
0.2999999999999999
  0
CIRCLE
  8
_0-5_文字-記号
  6
CONTINUOUS
 62
    3
 10
171.28124749999998
 20
164.58122349999996
 40
1.666666999999999
  0
LINE
  8
_0-5_文字-記号
  6
CONTINUOUS
 62
    3
 10
170.25992849999997
 20
166.21958949999998
 11
170.39956749999996
 21
165.99558549999998
  0
LINE
  8
_0-5_文字-記号
  6
CONTINUOUS
 62
    3
 10
168.18119549999997
 20
169.82006149999998
 11
170.25992849999997
 21
166.21958949999998
  0
TEXT
  8
_0-5_文字-記号
 62
    7
 10
137.19803683333328
 20
176.94883449999998
 40
2
 41
0.8
 50
0
  1
１
  0
CIRCLE
  8
_0-5_文字-記号
  6
CONTINUOUS
 62
    3
 10
140.60565749999995
 20
173.20658549999999
 40
0.2999999999999999
  0
CIRCLE
  8
_0-5_文字-記号
  6
CONTINUOUS
 62
    3
 10
137.94469749999996
 20
177.81550249999998
 40
1.666666999999999
  0
LINE
  8
_0-5_文字-記号
  6
CONTINUOUS
 62
    3
 10
139.12297449999997
 20
175.77466749999999
 11
138.77803149999997
 21
176.37212649999998
  0
LINE
  8
_0-5_文字-記号
  6
CONTINUOUS
 62
    3
 10
140.60565749999995
 20
173.20658549999999
 11
139.12297449999997
 21
175.77466749999999
  0
TEXT
  8
_0-5_文字-記号
 62
    7
 10
161.39697716666666
 20
161.10040049999998
 40
2
 41
0.8
 50
0
  1
６
  0
CIRCLE
  8
_0-5_文字-記号
  6
CONTINUOUS
 62
    3
 10
157.61170549999997
 20
169.72422249999997
 40
0.2
  0
CIRCLE
  8
_0-5_文字-記号
  6
CONTINUOUS
 62
    3
 10
162.09030349999998
 20
161.96706249999997
 40
1.666666999999999
  0
LINE
  8
_0-5_文字-記号
  6
CONTINUOUS
 62
    3
 10
157.61170549999997
 20
169.72422249999997
 11
161.25697049999997
 21
163.41043849999997
  0
TEXT
  8
_0-5_文字-記号
 62
    7
 10
165.14730516666668
 20
163.46282749999989
 40
2
 41
0.8
 50
0
  1
３
  0
CIRCLE
  8
_0-5_文字-記号
  6
CONTINUOUS
 62
    3
 10
162.96424549999998
 20
169.31154549999997
 40
0.2
  0
CIRCLE
  8
_0-5_文字-記号
  6
CONTINUOUS
 62
    3
 10
165.84062649999996
 20
164.32950749999998
 40
1.666666999999999
  0
LINE
  8
_0-5_文字-記号
  6
CONTINUOUS
 62
    3
 10
162.96424549999998
 20
169.31154549999997
 11
165.00729349999997
 21
165.77288349999998
  0
TEXT
  8
_0-5_文字-記号
 62
    7
 10
145.38209916666668
 20
176.75416349999998
 40
2
 41
0.8
 50
0
  1
２
  0
CIRCLE
  8
_0-5_文字-記号
  6
CONTINUOUS
 62
    3
 10
149.77837149999996
 20
171.20714149999998
 40
0.2
  0
CIRCLE
  8
_0-5_文字-記号
  6
CONTINUOUS
 62
    3
 10
146.07542549999997
 20
177.62083249999998
 40
1.666666999999999
  0
LINE
  8
_0-5_文字-記号
  6
CONTINUOUS
 62
    3
 10
149.77837149999996
 20
171.20714149999998
 11
146.90875949999997
 21
176.17745649999998
  0
TEXT
  8
_0-4_図面枠
 62
    7
 10
234.40444249999996
 20
82.001960499999981
 40
2
 41
0.8
 50
0
  1
注）　ガスケットＮＡＬはＵＣＮキャップ（Ａ）にセット済み。
  0
LINE
  8
_0-4_図面枠
  6
CONTINUOUS
 62
    1
 10
321.07109449999996
 20
86.66862549999999
 11
234.40442749999997
 21
86.66862549999999
  0
TEXT
  8
_0-4_図面枠
 62
    7
 10
105.87837750000003
 20
87.468633499999981
 40
2
 41
0.8
 50
0
  1
ステンタッピンねじ
  0
TEXT
  8
_0-4_図面枠
 62
    7
 10
137.87838049999999
 20
87.468633499999981
 40
2
 41
0.8
 50
0
  1
なべ４×３０
  0
TEXT
  8
_0-4_図面枠
 62
    7
 10
103.4808731666667
 20
87.468633499999981
 40
2
 41
0.8
 50
0
  1
６
  0
LINE
  8
_0-4_図面枠
  6
CONTINUOUS
 62
    1
 10
184.27837149999996
 20
86.66862549999999
 11
100.27837150000003
 21
86.66862549999999
  0
TEXT
  8
_0-4_図面枠
 62
    7
 10
181.13169883333327
 20
91.468629499999992
 40
2
 41
0.8
 50
0
  1
〃
  0
TEXT
  8
_0-4_図面枠
 62
    7
 10
177.10504116666667
 20
91.468629499999992
 40
2
 41
0.8
 50
0
  1
６
  0
TEXT
  8
_0-4_図面枠
 62
    7
 10
272.0044335
 20
91.468629499999992
 40
2
 41
0.8
 50
0
  1
フィッシャープラグ　Ｓ６
  0
TEXT
  8
_0-4_図面枠
 62
    7
 10
272.0044335
 20
99.468629499999992
 40
2
 41
0.8
 50
0
  1
２ｔ×２５×４０
  0
TEXT
  8
_0-4_図面枠
 62
    7
 10
240.00444849999997
 20
99.468629499999992
 40
2
 41
0.8
 50
0
  1
アルミ角座金
  0
TEXT
  8
_0-4_図面枠
 62
    7
 10
237.60693316666666
 20
87.468633499999981
 40
2
 41
0.8
 50
0
  1
６
  0
TEXT
  8
_0-4_図面枠
 62
    7
 10
317.92443883333328
 20
99.468629499999992
 40
2
 41
0.8
 50
0
  1
枚
  0
TEXT
  8
_0-4_図面枠
 62
    7
 10
313.89778116666668
 20
99.468629499999992
 40
2
 41
0.8
 50
0
  1
６
  0
LINE
  8
_0-4_図面枠
  6
CONTINUOUS
 62
    1
 10
184.27837149999996
 20
86.66862549999999
 11
184.27837149999996
 21
117.86862549999998
  0
TEXT
  8
_0-4_図面枠
 62
    7
 10
137.87838849999997
 20
99.468629499999992
 40
2
 41
0.8
 50
0
  1
２ｔ×２５×４０
  0
LINE
  8
_0-4_図面枠
  6
CONTINUOUS
 62
    2
 10
184.27837149999996
 20
90.66862549999999
 11
100.27837150000003
 21
90.66862549999999
  0
TEXT
  8
_0-4_図面枠
 62
    7
 10
105.87838450000004
 20
99.468629499999992
 40
2
 41
0.8
 50
0
  1
アルミ角座金
  0
TEXT
  8
_0-4_図面枠
 62
    7
 10
103.4808731666667
 20
91.468629499999992
 40
2
 41
0.8
 50
0
  1
５
  0
TEXT
  8
_0-4_図面枠
 62
    7
 10
181.13169883333327
 20
99.468629499999992
 40
2
 41
0.8
 50
0
  1
枚
  0
TEXT
  8
_0-4_図面枠
 62
    7
 10
177.10504116666667
 20
99.468629499999992
 40
2
 41
0.8
 50
0
  1
６
  0
LINE
  8
_0-4_図面枠
  6
CONTINUOUS
 62
    1
 10
184.27837149999996
 20
117.86862549999998
 11
100.27837150000003
 21
117.86862549999998
  0
TEXT
  8
_0-4_図面枠
 62
    7
 10
117.45171483333337
 20
114.66863449999997
 40
2
 41
0.8
 50
0
  1
部材名称
  0
TEXT
  8
_0-4_図面枠
 62
    7
 10
174.62504916666668
 20
114.66863449999997
 40
2
 41
0.8
 50
0
  1
使用
  0
TEXT
  8
_0-4_図面枠
 62
    7
 10
164.41171083333336
 20
114.66863449999997
 40
2
 41
0.8
 50
0
  1
定　尺
  0
TEXT
  8
_0-4_図面枠
 62
    7
 10
146.41171083333336
 20
114.66863449999997
 40
2
 41
0.8
 50
0
  1
規　格
  0
TEXT
  8
_0-4_図面枠
 62
    7
 10
81.616572500000018
 20
229.78868649999995
 40
2
 41
0.8
 50
0
  1
◇内壁－内壁（５０ＫＫＮ－Ａ）　Ｓ＝１／３
  0
TEXT
  8
_0-4_図面枠
 62
    7
 10
77.188295500000038
 20
236.00880949999996
 40
2
 41
0.8
 50
0
  1
（アルミ５０タイプ）
  0
LINE
  8
_0-4_図面枠
  6
CONTINUOUS
 62
    1
 10
210.00806649999998
 20
241.41628449999999
 11
210.00806649999998
 21
55.583715499999997
  0
LINE
  8
_0-4_図面枠
  6
CONTINUOUS
 62
    1
 10
74.548677500000025
 20
241.41628449999999
 11
74.548677500000025
 21
55.583715499999997
  0
LINE
  8
_0-4_図面枠
  6
CONTINUOUS
 62
    1
 10
345.46745549999997
 20
241.41628449999999
 11
74.532544500000029
 21
241.41628449999999
  0
LINE
  8
_0-4_図面枠
  6
CONTINUOUS
 62
    1
 10
345.46745549999997
 20
55.583715499999997
 11
345.46745549999997
 21
241.41628449999999
  0
LINE
  8
_0-4_図面枠
  6
CONTINUOUS
 62
    1
 10
74.532544500000029
 20
55.583715499999997
 11
345.46745549999997
 21
55.583715499999997
  0
LINE
  8
_0-4_図面枠
  6
CONTINUOUS
 62
    1
 10
321.07109449999996
 20
117.86862549999998
 11
234.40442749999997
 21
117.86862549999998
  0
TEXT
  8
_0-4_図面枠
 62
    7
 10
251.57777883333327
 20
114.66864549999997
 40
2
 41
0.8
 50
0
  1
部材名称
  0
TEXT
  8
_0-4_図面枠
 62
    7
 10
311.41778116666666
 20
114.66864549999997
 40
2
 41
0.8
 50
0
  1
使用
  0
TEXT
  8
_0-4_図面枠
 62
    7
 10
301.20445083333328
 20
114.66864549999997
 40
2
 41
0.8
 50
0
  1
定　尺
  0
TEXT
  8
_0-4_図面枠
 62
    7
 10
280.53779483333329
 20
114.66864549999997
 40
2
 41
0.8
 50
0
  1
規　格
  0
TEXT
  8
_0-4_図面枠
 62
    7
 10
218.74785749999998
 20
228.81183350000001
 40
2
 41
0.8
 50
0
  1
◇内壁コーナー（５０ＫＣＮ－Ａ）　Ｓ＝１／３
  0
TEXT
  8
_0-4_図面枠
 62
    7
 10
212.89484549999997
 20
235.64615449999999
 40
2
 41
0.8
 50
0
  1
（アルミ５０タイプ）
  0
LINE
  8
_0-4_図面枠
  6
CONTINUOUS
 62
    2
 10
184.27837149999996
 20
94.66862549999999
 11
100.27837150000003
 21
94.66862549999999
  0
LINE
  8
_0-4_図面枠
  6
CONTINUOUS
 62
    2
 10
184.27837149999996
 20
98.66862549999999
 11
100.27837150000003
 21
98.66862549999999
  0
LINE
  8
_0-4_図面枠
  6
CONTINUOUS
 62
    2
 10
184.27837149999996
 20
102.66862549999999
 11
100.27837150000003
 21
102.66862549999999
  0
LINE
  8
_0-4_図面枠
  6
CONTINUOUS
 62
    2
 10
184.27837149999996
 20
106.66862549999999
 11
100.27837150000003
 21
106.66862549999999
  0
LINE
  8
_0-4_図面枠
  6
CONTINUOUS
 62
    1
 10
184.27837149999996
 20
110.66862549999999
 11
100.27837150000003
 21
110.66862549999999
  0
TEXT
  8
_0-4_図面枠
 62
    7
 10
105.87837750000003
 20
95.468629499999992
 40
2
 41
0.8
 50
0
  1
ガスケットＮＡＬ
  0
TEXT
  8
_0-4_図面枠
 62
    7
 10
105.87837750000003
 20
91.468629499999992
 40
2
 41
0.8
 50
0
  1
アンカープラグ
  0
TEXT
  8
_0-4_図面枠
 62
    7
 10
105.87837750000003
 20
103.46862949999999
 40
2
 41
0.8
 50
0
  1
ＵＵＮホルダー（Ａ）Ｋ
  0
TEXT
  8
_0-4_図面枠
 62
    7
 10
105.87837750000003
 20
107.46863349999987
 40
2
 41
0.8
 50
0
  1
ＵＵＮキャップ（Ａ）
  0
TEXT
  8
_0-4_図面枠
 62
    7
 10
103.42635350000002
 20
95.468629499999992
 40
2
 41
0.8
 50
0
  1
４
  0
TEXT
  8
_0-4_図面枠
 62
    7
 10
103.5330201666667
 20
99.468629499999992
 40
2
 41
0.8
 50
0
  1
３
  0
TEXT
  8
_0-4_図面枠
 62
    7
 10
103.5330201666667
 20
103.46862949999999
 40
2
 41
0.8
 50
0
  1
２
  0
TEXT
  8
_0-4_図面枠
 62
    7
 10
101.82635350000004
 20
107.46863349999987
 40
2
 41
0.8
 50
0
  1
　１
  0
TEXT
  8
_0-4_図面枠
 62
    7
 10
181.13169883333327
 20
95.468629499999992
 40
2
 41
0.8
 50
0
  1
本
  0
TEXT
  8
_0-4_図面枠
 62
    7
 10
177.10504116666667
 20
95.468629499999992
 40
2
 41
0.8
 50
0
  1
２
  0
TEXT
  8
_0-4_図面枠
 62
    7
 10
137.87838049999999
 20
91.468629499999992
 40
2
 41
0.8
 50
0
  1
フィッシャープラグＳ６
  0
TEXT
  8
_0-4_図面枠
 62
    7
 10
181.13169883333327
 20
87.468633499999981
 40
2
 41
0.8
 50
0
  1
〃
  0
TEXT
  8
_0-4_図面枠
 62
    7
 10
181.13169883333327
 20
103.46862949999999
 40
2
 41
0.8
 50
0
  1
個
  0
TEXT
  8
_0-4_図面枠
 62
    7
 10
181.13169883333327
 20
107.46863349999987
 40
2
 41
0.8
 50
0
  1
本
  0
TEXT
  8
_0-4_図面枠
 62
    7
 10
177.10504116666667
 20
87.468633499999981
 40
2
 41
0.8
 50
0
  1
６
  0
TEXT
  8
_0-4_図面枠
 62
    7
 10
177.10504116666667
 20
103.46862949999999
 40
2
 41
0.8
 50
0
  1
６
  0
TEXT
  8
_0-4_図面枠
 62
    7
 10
177.31837449999998
 20
107.46863349999987
 40
2
 41
0.8
 50
0
  1
１
  0
TEXT
  8
_0-4_図面枠
 62
    7
 10
163.50504416666666
 20
95.468629499999992
 40
2
 41
0.8
 50
0
  1
３０００
  0
TEXT
  8
_0-4_図面枠
 62
    7
 10
163.50504416666666
 20
107.46863349999987
 40
2
 41
0.8
 50
0
  1
３０００
  0
LINE
  8
_0-4_図面枠
  6
CONTINUOUS
 62
    1
 10
105.07837150000003
 20
86.66862549999999
 11
105.07837150000003
 21
117.86862549999998
  0
LINE
  8
_0-4_図面枠
  6
CONTINUOUS
 62
    1
 10
100.27837150000003
 20
86.66862549999999
 11
100.27837150000003
 21
117.86862549999998
  0
TEXT
  8
_0-4_図面枠
 62
    7
 10
180.00163083333328
 20
114.66863449999997
 40
2
 41
0.8
 50
0
  1
単位
  0
LINE
  8
_0-4_図面枠
  6
CONTINUOUS
 62
    1
 10
179.47837149999998
 20
86.66862549999999
 11
179.47837149999998
 21
117.86862549999998
  0
TEXT
  8
_0-4_図面枠
 62
    7
 10
174.57171583333326
 20
111.46862949999999
 40
2
 41
0.8
 50
0
  1
数量
  0
LINE
  8
_0-4_図面枠
  6
CONTINUOUS
 62
    1
 10
173.07837149999997
 20
86.66862549999999
 11
173.07837149999997
 21
117.86862549999998
  0
TEXT
  8
_0-4_図面枠
 62
    7
 10
163.45171083333338
 20
111.46862949999999
 40
2
 41
0.8
 50
0
  1
（ｍｍ）
  0
LINE
  8
_0-4_図面枠
  6
CONTINUOUS
 62
    1
 10
161.07837149999997
 20
86.66862549999999
 11
161.07837149999997
 21
117.86862549999998
  0
LINE
  8
_0-4_図面枠
  6
CONTINUOUS
 62
    1
 10
137.07837149999997
 20
86.66862549999999
 11
137.07837149999997
 21
117.86862549999998
  0
LINE
  8
_0-4_図面枠
  6
CONTINUOUS
 62
    2
 10
321.07109449999996
 20
90.66862549999999
 11
234.40442749999997
 21
90.66862549999999
  0
LINE
  8
_0-4_図面枠
  6
CONTINUOUS
 62
    2
 10
321.07109449999996
 20
94.66862549999999
 11
234.40442749999997
 21
94.66862549999999
  0
LINE
  8
_0-4_図面枠
  6
CONTINUOUS
 62
    2
 10
321.07109449999996
 20
98.66862549999999
 11
234.40442749999997
 21
98.66862549999999
  0
LINE
  8
_0-4_図面枠
  6
CONTINUOUS
 62
    2
 10
321.07109449999996
 20
102.66862549999999
 11
234.40442749999997
 21
102.66862549999999
  0
LINE
  8
_0-4_図面枠
  6
CONTINUOUS
 62
    2
 10
321.07109449999996
 20
106.66862549999999
 11
234.40442749999997
 21
106.66862549999999
  0
LINE
  8
_0-4_図面枠
  6
CONTINUOUS
 62
    1
 10
321.07109449999996
 20
110.66862549999999
 11
234.40442749999997
 21
110.66862549999999
  0
TEXT
  8
_0-4_図面枠
 62
    7
 10
237.51316816666667
 20
91.394643499999972
 40
2
 41
0.8
 50
0
  1
５
  0
TEXT
  8
_0-4_図面枠
 62
    7
 10
240.00444849999997
 20
95.468629499999992
 40
2
 41
0.8
 50
0
  1
ガスケットＮＡＬ
  0
TEXT
  8
_0-4_図面枠
 62
    7
 10
240.00444849999997
 20
87.468633499999981
 40
2
 41
0.8
 50
0
  1
ステンタッピンねじ
  0
TEXT
  8
_0-4_図面枠
 62
    7
 10
240.00444849999997
 20
91.468629499999992
 40
2
 41
0.8
 50
0
  1
アンカープラグ
  0
TEXT
  8
_0-4_図面枠
 62
    7
 10
237.40650149999996
 20
95.394639499999982
 40
2
 41
0.8
 50
0
  1
４
  0
TEXT
  8
_0-4_図面枠
 62
    7
 10
237.51316816666667
 20
99.394639499999982
 40
2
 41
0.8
 50
0
  1
３
  0
TEXT
  8
_0-4_図面枠
 62
    7
 10
240.00444849999997
 20
103.46862949999999
 40
2
 41
0.8
 50
0
  1
ＵＵＮホルダー（Ａ）Ｋ
  0
TEXT
  8
_0-4_図面枠
 62
    7
 10
240.00444849999997
 20
107.46863349999987
 40
2
 41
0.8
 50
0
  1
ＵＣＮキャップ（Ａ）
  0
TEXT
  8
_0-4_図面枠
 62
    7
 10
237.51316816666667
 20
103.39463949999998
 40
2
 41
0.8
 50
0
  1
２
  0
TEXT
  8
_0-4_図面枠
 62
    7
 10
235.80650149999997
 20
107.39463949999998
 40
2
 41
0.8
 50
0
  1
　１
  0
TEXT
  8
_0-4_図面枠
 62
    7
 10
272.0044335
 20
87.468633499999981
 40
2
 41
0.8
 50
0
  1
なべ４×３０
  0
TEXT
  8
_0-4_図面枠
 62
    7
 10
300.29778416666664
 20
95.468629499999992
 40
2
 41
0.8
 50
0
  1
３０００
  0
TEXT
  8
_0-4_図面枠
 62
    7
 10
317.92443883333328
 20
95.468629499999992
 40
2
 41
0.8
 50
0
  1
本
  0
TEXT
  8
_0-4_図面枠
 62
    7
 10
313.89778116666668
 20
95.468629499999992
 40
2
 41
0.8
 50
0
  1
２
  0
TEXT
  8
_0-4_図面枠
 62
    7
 10
317.92443883333328
 20
103.46862949999999
 40
2
 41
0.8
 50
0
  1
個
  0
TEXT
  8
_0-4_図面枠
 62
    7
 10
317.92443883333328
 20
107.46863349999987
 40
2
 41
0.8
 50
0
  1
本
  0
TEXT
  8
_0-4_図面枠
 62
    7
 10
313.89778116666668
 20
103.46862949999999
 40
2
 41
0.8
 50
0
  1
６
  0
TEXT
  8
_0-4_図面枠
 62
    7
 10
314.11111449999999
 20
107.46863349999987
 40
2
 41
0.8
 50
0
  1
１
  0
TEXT
  8
_0-4_図面枠
 62
    7
 10
300.29778416666664
 20
107.46863349999987
 40
2
 41
0.8
 50
0
  1
３０００
  0
LINE
  8
_0-4_図面枠
  6
CONTINUOUS
 62
    1
 10
239.20442749999998
 20
86.66862549999999
 11
239.20442749999998
 21
117.86862549999998
  0
LINE
  8
_0-4_図面枠
  6
CONTINUOUS
 62
    1
 10
234.40442749999997
 20
86.66862549999999
 11
234.40442749999997
 21
117.86862549999998
  0
TEXT
  8
_0-4_図面枠
 62
    7
 10
316.79434783333335
 20
114.66864549999997
 40
2
 41
0.8
 50
0
  1
単位
  0
TEXT
  8
_0-4_図面枠
 62
    7
 10
311.36444783333337
 20
111.46864049999999
 40
2
 41
0.8
 50
0
  1
数量
  0
TEXT
  8
_0-4_図面枠
 62
    7
 10
300.24445083333325
 20
111.46864049999999
 40
2
 41
0.8
 50
0
  1
（ｍｍ）
  0
LINE
  8
_0-4_図面枠
  6
CONTINUOUS
 62
    1
 10
321.07109449999996
 20
86.66862549999999
 11
321.07109449999996
 21
117.86862549999998
  0
LINE
  8
_0-4_図面枠
  6
CONTINUOUS
 62
    1
 10
316.27109449999995
 20
86.66862549999999
 11
316.27109449999995
 21
117.86862549999998
  0
LINE
  8
_0-4_図面枠
  6
CONTINUOUS
 62
    1
 10
309.87109449999997
 20
86.66862549999999
 11
309.87109449999997
 21
117.86862549999998
  0
LINE
  8
_0-4_図面枠
  6
CONTINUOUS
 62
    1
 10
297.87109449999997
 20
86.66862549999999
 11
297.87109449999997
 21
117.86862549999998
  0
LINE
  8
_0-4_図面枠
  6
CONTINUOUS
 62
    1
 10
271.20442749999995
 20
86.66862549999999
 11
271.20442749999995
 21
117.86862549999998
  0
TEXT
  8
_0-4_図面枠
 62
    7
 10
100.27837050000004
 20
82.001958499999972
 40
2
 41
0.8
 50
0
  1
注）　ガスケットＮＡＬはＵＵＮキャップ（Ａ）にセット済み。
  0
INSERT
  2
-001-_D4
  8
_0-2_寸法
 10
19.604652214317071
 20
-44.041393472225622
 41
0.5
 42
0.5
 50
0
  0
INSERT
  2
-002-_D5
  8
_0-2_寸法
 10
19.604652214317071
 20
-44.041393472225622
 41
0.5
 42
0.5
 50
0
  0
INSERT
  2
-003-_D6
  8
_0-2_寸法
 10
19.604652214317071
 20
-44.041393472225622
 41
0.5
 42
0.5
 50
0
  0
INSERT
  2
-004-_D7
  8
_0-2_寸法
 10
19.604652214317071
 20
-44.041393472225622
 41
0.5
 42
0.5
 50
0
  0
INSERT
  2
-005-_D8
  8
_0-2_寸法
 10
19.604652214317071
 20
-44.041393472225622
 41
0.5
 42
0.5
 50
0
  0
INSERT
  2
-006-_D9
  8
_0-2_寸法
 10
19.604652214317071
 20
-44.041393472225622
 41
0.5
 42
0.5
 50
0
  0
INSERT
  2
-007-_D10
  8
_0-2_寸法
 10
19.604652214317071
 20
-44.041393472225622
 41
0.5
 42
0.5
 50
0
  0
INSERT
  2
-008-_D11
  8
_0-2_寸法
 10
19.604652214317071
 20
-44.041393472225622
 41
0.5
 42
0.5
 50
0
  0
INSERT
  2
-009-_D12
  8
_0-2_寸法
 10
19.604652214317071
 20
-44.041393472225622
 41
0.5
 42
0.5
 50
0
  0
INSERT
  2
-010-_D13
  8
_0-2_寸法
 10
19.604652214317071
 20
-44.041393472225622
 41
0.5
 42
0.5
 50
0
  0
INSERT
  2
-011-_D14
  8
_0-2_寸法
 10
19.604652214317071
 20
-44.041393472225622
 41
0.5
 42
0.5
 50
0
  0
INSERT
  2
-012-_D15
  8
_0-2_寸法
 10
19.604652214317071
 20
-44.041393472225622
 41
0.5
 42
0.5
 50
0
  0
ENDSEC
  0
EOF
