  0
SECTION
  2
HEADER
  9
$ACADVER
  1
AC1009
  9
$INSBASE
 10
0
 20
0
 30
0
  9
$EXTMIN
 10
0
 20
0
  9
$EXTMAX
 10
420
 20
297
  9
$LIMMIN
 10
0
 20
0
  9
$LIMMAX
 10
420
 20
297
  9
$LTSCALE
 40
1
  0
ENDSEC
  0
SECTION
  2
TABLES
  0
TABLE
  2
LTYPE
 70
     9
  0
LTYPE
  2
CONTINUOUS
 70
    64
  3
実線
 72
    65
 73
     0
 40
0.0
  0
LTYPE
  2
DASHED1
 70
    64
  3
--  --  --  --  --  --  --  --  
 72
    65
 73
     2
 40
2.5
 49
1.25
 49
-1.25
  0
LTYPE
  2
DASHED2
 70
    64
  3
----    ----    ----    ----    
 72
    65
 73
     2
 40
5.0
 49
2.5
 49
-2.5
  0
LTYPE
  2
DASHED3
 70
    64
  3
------  ------  ------  ------  
 72
    65
 73
     2
 40
5.0
 49
3.75
 49
-1.25
  0
LTYPE
  2
CENTER1
 70
    64
  3
----- - ----- - ----- - ----- - 
 72
    65
 73
     4
 40
10.0
 49
6.25
 49
-1.25
 49
1.25
 49
-1.25
  0
LTYPE
  2
CENTER2
 70
    64
  3
----------  --  ----------  --  
 72
    65
 73
     4
 40
20.0
 49
12.5
 49
-2.5
 49
2.5
 49
-2.5
  0
LTYPE
  2
PHANTOM1
 70
    64
  3
--- - - --- - - --- - - --- - - 
 72
    65
 73
     6
 40
10.0
 49
3.25
 49
-1.25
 49
1.25
 49
-1.25
 49
1.25
 49
-1.25
  0
LTYPE
  2
PHANTOM2
 70
    64
  3
--------  -  -  --------  -  -  
 72
    65
 73
     6
 40
20.0
 49
10.0
 49
-2.5
 49
1.25
 49
-2.5
 49
1.25
 49
-2.5
  0
LTYPE
  2
DOT
 70
    64
  3
-   -   -   -   -   -   -   -   
 72
    65
 73
     2
 40
2.5
 49
0.625
 49
-1.875
  0
LTYPE
  2
DUMMY
 70
    64
  3
ダミー
 72
    65
 73
     0
 40
0.0
  0
LTYPE
  2
RAND1
 70
    64
  3
ランダム線1
 72
    65
 73
     4
 40
10.0
 49
1.0
 49
-2.0
 49
3.0
 49
-4.0
  0
LTYPE
  2
RAND2
 70
    64
  3
ランダム線2
 72
    65
 73
     4
 40
14.0
 49
2.0
 49
-3.0
 49
4.0
 49
-5.0
  0
LTYPE
  2
RAND3
 70
    64
  3
ランダム線3
 72
    65
 73
     4
 40
18.0
 49
3.0
 49
-4.0
 49
5.0
 49
-6.0
  0
LTYPE
  2
RAND4
 70
    64
  3
ランダム線4
 72
    65
 73
     4
 40
22.0
 49
4.0
 49
-5.0
 49
6.0
 49
-7.0
  0
LTYPE
  2
RAND5
 70
    64
  3
ランダム線5
 72
    65
 73
     4
 40
26.0
 49
5.0
 49
-6.0
 49
7.0
 49
-8.0
  0
LTYPE
  2
LONG1
 70
    64
  3
----------  --  ----------  --  
 72
    65
 73
     4
 40
40.0
 49
32.5
 49
-2.5
 49
2.5
 49
-2.5
  0
LTYPE
  2
LONG2
 70
    64
  3
--------  -  -  --------  -  -  
 72
    65
 73
     6
 40
40.0
 49
30.0
 49
-2.5
 49
1.25
 49
-2.5
 49
1.25
 49
-2.5
  0
LTYPE
  2
LONG3
 70
    64
  3
+++++++++++++++..+++++++++++++++
 72
    65
 73
     2
 40
40.0
 49
37.5
 49
-2.5
  0
LTYPE
  2
LONG4
 70
    64
  3
+++++++++++++++..+++++++++++++++
 72
    65
 73
     2
 40
80.0
 49
75.0
 49
-5.0
  0
LTYPE
  2
LONG5
 70
    64
  3
----------  --  ----------  --  
 72
    65
 73
     4
 40
60.0
 49
37.5
 49
-7.5
 49
7.5
 49
-7.5
  0
LTYPE
  2
dashed
 70
   64
  3
-------   -------------   ------
 72
   65
 73
    2
 40
7.5
 49
6
 49
-1.5
  0
LTYPE
  2
dashed_spaced
 70
   64
  3
----        --------        ----
 72
   65
 73
    2
 40
12
 49
6
 49
-6
  0
LTYPE
  2
long_dashed_dotted
 70
   64
  3
------------- --- --------------
 72
   65
 73
    4
 40
15.25
 49
12
 49
-1.5
 49
0.25
 49
-1.5
  0
LTYPE
  2
long_dashed_double-dotted
 70
   64
  3
----------- --- --- ------------
 72
   65
 73
    6
 40
17
 49
12
 49
-1.5
 49
0.25
 49
-1.5
 49
0.25
 49
-1.5
  0
LTYPE
  2
long_dashed_triplicate-dotted
 70
   64
  3
--------- --- --- --- ----------
 72
   65
 73
    8
 40
18.75
 49
12
 49
-1.5
 49
0.25
 49
-1.5
 49
0.25
 49
-1.5
 49
0.25
 49
-1.5
  0
LTYPE
  2
dotted
 70
   64
  3
   -       -       -       -    
 72
   65
 73
    2
 40
1.75
 49
0.25
 49
-1.5
  0
LTYPE
  2
chain
 70
   64
  3
-------------- -- --------------
 72
   65
 73
    4
 40
18.5
 49
12
 49
-1.5
 49
3.5
 49
-1.5
  0
LTYPE
  2
chain_double_dash
 70
   64
  3
------------ -- -- -------------
 72
   65
 73
    6
 40
23.5
 49
12
 49
-1.5
 49
3.5
 49
-1.5
 49
3.5
 49
-1.5
  0
LTYPE
  2
dashed_dotted
 70
   64
  3
-----------     -     ----------
 72
   65
 73
    4
 40
9.25
 49
6
 49
-1.5
 49
0.25
 49
-1.5
  0
LTYPE
  2
double-dashed_dotted
 70
   64
  3
------   -----------   -   -----
 72
   65
 73
    6
 40
16.75
 49
6
 49
-1.5
 49
6
 49
-1.5
 49
0.25
 49
-1.5
  0
LTYPE
  2
dashed_double-dotted
 70
   64
  3
---------    -    -    ---------
 72
   65
 73
    6
 40
11
 49
6
 49
-1.5
 49
0.25
 49
-1.5
 49
0.25
 49
-1.5
  0
LTYPE
  2
double-dashed_double-dotted
 70
   64
  3
-----   ---------   -   -   ----
 72
   65
 73
    8
 40
18.5
 49
6
 49
-1.5
 49
6
 49
-1.5
 49
0.25
 49
-1.5
 49
0.25
 49
-1.5
  0
LTYPE
  2
dashed_triplicate-dotted
 70
   64
  3
-------    -    -    -    ------
 72
   65
 73
    8
 40
12.75
 49
6
 49
-1.5
 49
0.25
 49
-1.5
 49
0.25
 49
-1.5
 49
0.25
 49
-1.5
  0
LTYPE
  2
double-dashed_triplicate-dotted
 70
   64
  3
-----  ---------  -  -  -  -----
 72
   65
 73
   10
 40
20.25
 49
6
 49
-1.5
 49
6
 49
-1.5
 49
0.25
 49
-1.5
 49
0.25
 49
-1.5
 49
0.25
 49
-1.5
  0
LTYPE
  2
undefined
 70
   64
  3
--------------------------------
 72
   65
 73
    0
 40
0
  0
ENDTAB
  0
TABLE
  2
STYLE
  5
3
100
AcDbSymbolTable
 70
     1
  0
STYLE
  5
10
100
AcDbSymbolTableRecord
100
AcDbTextStyleTableRecord
  2
STANDARD
 70
     0
 40
0.0
 41
1.0
 50
0.0
 71
     0
 42
0.2
  3
txt
  4
bigfont.shx
  0
STYLE
  5
26
100
AcDbSymbolTableRecord
100
AcDbTextStyleTableRecord
  2
TATEGAKI
 70
    68
 40
0.0
 41
1.0
 50
0.0
 71
     0
 42
1.0
  3
txt
  4
bigfont.shx
  0
ENDTAB
  0
TABLE
  2
LAYER
 70
    9
  0
LAYER
  2
_0-0_図面枠
 70
   64
 62
    7
  6
CONTINUOUS
  0
LAYER
  2
_1-0_躯体
 70
   64
 62
    7
  6
CONTINUOUS
  0
LAYER
  2
_1-3_止水補助板
 70
   64
 62
    7
  6
CONTINUOUS
  0
LAYER
  2
_1-4_フレ__ム
 70
   64
 62
    7
  6
CONTINUOUS
  0
LAYER
  2
_1-7_カバ__
 70
   64
 62
    7
  6
CONTINUOUS
  0
LAYER
  2
_1-8_小物
 70
   64
 62
    7
  6
CONTINUOUS
  0
LAYER
  2
_1-9_センタ__プレ__ト
 70
   64
 62
    7
  6
CONTINUOUS
  0
LAYER
  2
_1-f_寸法
 70
   64
 62
    7
  6
CONTINUOUS
  0
LAYER
  2
ADD_LINE
 70
   64
 62
    7
  6
CONTINUOUS
  0
ENDTAB
  0
ENDSEC
  0
SECTION
  2
BLOCKS
  0
BLOCK
  2
-000-
 70
   64
 10
0
 20
0
 30
0
  0
LINE
  8
_0-0_図面枠
  6
CONTINUOUS
 62
    7
 10
-21.739611258569283
 20
123.45090259426553
 11
-22.269941344419294
 21
123.14474955231555
  0
LINE
  8
_0-0_図面枠
  6
CONTINUOUS
 62
    7
 10
-20.833744600669291
 20
121.49924270821549
 11
-21.739611258569283
 21
123.45090259426553
  0
LINE
  8
_0-0_図面枠
  6
CONTINUOUS
 62
    7
 10
-24.214484992719292
 20
122.0221883985655
 11
-20.833744600669291
 21
121.49924270821549
  0
LINE
  8
_0-0_図面枠
  6
CONTINUOUS
 62
    7
 10
-23.684154906819288
 20
122.32834144051554
 11
-24.214484992719292
 21
122.0221883985655
  0
LINE
  8
_0-0_図面枠
  6
CONTINUOUS
 62
    7
 10
-28.280348984519293
 20
124.98166780391551
 11
-23.684154906819288
 21
122.32834144051554
  0
LINE
  8
_0-0_図面枠
  6
CONTINUOUS
 62
    7
 10
-32.87654306221927
 20
122.32834144051554
 11
-28.280348984519293
 21
124.98166780391551
  0
LINE
  8
_0-0_図面枠
  6
CONTINUOUS
 62
    7
 10
-32.346212976369287
 20
122.0221883985655
 11
-32.87654306221927
 21
122.32834144051554
  0
LINE
  8
_0-0_図面枠
  6
CONTINUOUS
 62
    7
 10
-35.726953368369294
 20
121.49924270821549
 11
-32.346212976369287
 21
122.0221883985655
  0
LINE
  8
_0-0_図面枠
  6
CONTINUOUS
 62
    7
 10
-34.821086710519324
 20
123.45090259426553
 11
-35.726953368369294
 21
121.49924270821549
  0
LINE
  8
_0-0_図面枠
  6
CONTINUOUS
 62
    7
 10
-34.29075662461932
 20
123.14474955231555
 11
-34.821086710519324
 21
123.45090259426553
  0
LINE
  8
_0-0_図面枠
  6
CONTINUOUS
 62
    7
 10
-29.694562546919286
 20
125.79807591576554
 11
-34.29075662461932
 21
123.14474955231555
  0
LINE
  8
_0-0_図面枠
  6
CONTINUOUS
 62
    7
 10
-34.29075662461932
 20
128.45140227916551
 11
-29.694562546919286
 21
125.79807591576554
  0
LINE
  8
_0-0_図面枠
  6
CONTINUOUS
 62
    7
 10
-34.821086710519324
 20
128.14524923726555
 11
-34.29075662461932
 21
128.45140227916551
  0
LINE
  8
_0-0_図面枠
  6
CONTINUOUS
 62
    7
 10
-35.726953368369294
 20
130.09690912331553
 11
-34.821086710519324
 21
128.14524923726555
  0
LINE
  8
_0-0_図面枠
  6
CONTINUOUS
 62
    7
 10
-32.346212976369287
 20
129.57396343296551
 11
-35.726953368369294
 21
130.09690912331553
  0
LINE
  8
_0-0_図面枠
  6
CONTINUOUS
 62
    7
 10
-32.87654306221927
 20
129.26781039101553
 11
-32.346212976369287
 21
129.57396343296551
  0
LINE
  8
_0-0_図面枠
  6
CONTINUOUS
 62
    7
 10
-28.280348984519293
 20
126.61448402756554
 11
-32.87654306221927
 21
129.26781039101553
  0
LINE
  8
_0-0_図面枠
  6
CONTINUOUS
 62
    7
 10
-23.684154906819288
 20
129.26781039101553
 11
-28.280348984519293
 21
126.61448402756554
  0
LINE
  8
_0-0_図面枠
  6
CONTINUOUS
 62
    7
 10
-24.214484992719292
 20
129.57396343296551
 11
-23.684154906819288
 21
129.26781039101553
  0
LINE
  8
_0-0_図面枠
  6
CONTINUOUS
 62
    7
 10
-20.833744600669291
 20
130.09690912331553
 11
-24.214484992719292
 21
129.57396343296551
  0
LINE
  8
_0-0_図面枠
  6
CONTINUOUS
 62
    7
 10
-21.739611258569283
 20
128.14524923726555
 11
-20.833744600669291
 21
130.09690912331553
  0
LINE
  8
_0-0_図面枠
  6
CONTINUOUS
 62
    7
 10
-22.269941344419294
 20
128.45140227916551
 11
-21.739611258569283
 21
128.14524923726555
  0
LINE
  8
_0-0_図面枠
  6
CONTINUOUS
 62
    7
 10
-26.866135422169293
 20
125.79807591576554
 11
-22.269941344419294
 21
128.45140227916551
  0
LINE
  8
_0-0_図面枠
  6
CONTINUOUS
 62
    7
 10
-22.269941344419294
 20
123.14474955231555
 11
-26.866135422169293
 21
125.79807591576554
  0
LINE
  8
_0-0_図面枠
  6
CONTINUOUS
 62
    7
 10
-35.726953368369294
 20
121.49924270821549
 11
-35.726953368369294
 21
120.88683709931553
  0
LINE
  8
_0-0_図面枠
  6
CONTINUOUS
 62
    7
 10
-32.346212976369287
 20
122.0221883985655
 11
-32.346212976369287
 21
121.40978278966554
  0
LINE
  8
_0-0_図面枠
  6
CONTINUOUS
 62
    7
 10
-35.726953368369294
 20
120.88683709931553
 11
-32.346212976369287
 21
121.40978278966554
  0
LINE
  8
_0-0_図面枠
  6
CONTINUOUS
 62
    7
 10
-24.214484992719292
 20
122.0221883985655
 11
-24.214484992719292
 21
121.40978278966554
  0
LINE
  8
_0-0_図面枠
  6
CONTINUOUS
 62
    7
 10
-20.833744600669291
 20
121.49924270821549
 11
-20.833744600669291
 21
120.88683709931553
  0
LINE
  8
_0-0_図面枠
  6
CONTINUOUS
 62
    7
 10
-24.214484992719292
 20
121.40978278966554
 11
-20.833744600669291
 21
120.88683709931553
  0
LINE
  8
_0-0_図面枠
  6
CONTINUOUS
 62
    7
 10
-28.280348984519293
 20
124.98166780391551
 11
-28.280348984519293
 21
124.36926219501555
  0
LINE
  8
_0-0_図面枠
  6
CONTINUOUS
 62
    7
 10
-32.346212976369287
 20
122.02208887351554
 11
-28.280348984519293
 21
124.36926219501555
  0
LINE
  8
_0-0_図面枠
  6
CONTINUOUS
 62
    7
 10
-28.280348984519293
 20
124.36926219501555
 11
-24.214484992719292
 21
122.02208887351554
  0
LINE
  8
_0-0_図面枠
  6
CONTINUOUS
 62
    7
 10
-34.29075662461932
 20
128.45140227916551
 11
-34.29075662461932
 21
127.83899667026554
  0
LINE
  8
_0-0_図面枠
  6
CONTINUOUS
 62
    7
 10
-34.29075662461932
 20
127.83899667026554
 11
-30.224978833369306
 21
125.49187311131556
  0
LINE
  8
_0-0_図面枠
  6
CONTINUOUS
 62
    7
 10
-22.269941344419294
 20
128.45140227916551
 11
-22.269941344419294
 21
127.83899667026554
  0
LINE
  8
_0-0_図面枠
  6
CONTINUOUS
 62
    7
 10
-26.335719135719302
 20
125.49187311131556
 11
-22.269941344419294
 21
127.83899667026554
  0
LINE
  8
_0-0_図面枠
  6
CONTINUOUS
 62
    7
 10
-21.739611258569283
 20
128.14524923726555
 11
-21.739611258569283
 21
127.5328436283155
  0
LINE
  8
_0-0_図面枠
  6
CONTINUOUS
 62
    7
 10
-22.269941344419294
 20
127.83899667026554
 11
-21.739611258569283
 21
127.5328436283155
  0
LINE
  8
_0-0_図面枠
  6
CONTINUOUS
 62
    7
 10
-20.833744600669291
 20
130.09690912331553
 11
-20.833744600669291
 21
129.48450351441551
  0
LINE
  8
_0-0_図面枠
  6
CONTINUOUS
 62
    7
 10
-21.739611258569283
 20
127.5328436283155
 11
-20.833744600669291
 21
129.48450351441551
  0
LINE
  8
_0-0_図面枠
  6
CONTINUOUS
 62
    7
 10
-34.821086710519324
 20
128.14524923726555
 11
-34.821086710519324
 21
127.5328436283155
  0
LINE
  8
_0-0_図面枠
  6
CONTINUOUS
 62
    7
 10
-34.821086710519324
 20
127.5328436283155
 11
-34.29075662461932
 21
127.83899667026554
  0
LINE
  8
_0-0_図面枠
  6
CONTINUOUS
 62
    7
 10
-35.726953368369294
 20
130.09690912331553
 11
-35.726953368369294
 21
129.48450351441551
  0
LINE
  8
_0-0_図面枠
  6
CONTINUOUS
 62
    7
 10
-35.726953368369294
 20
129.48450351441551
 11
-34.821086710519324
 21
127.5328436283155
  0
LINE
  8
_0-0_図面枠
  6
CONTINUOUS
 62
    7
 10
-24.214484992719292
 20
129.57396343296551
 11
-24.214484992719292
 21
128.96165734906555
  0
LINE
  8
_0-0_図面枠
  6
CONTINUOUS
 62
    7
 10
-32.346212976369287
 20
129.57396343296551
 11
-32.346212976369287
 21
128.96165734906555
  0
LINE
  8
ADD_LINE
  6
DOT
 62
    4
 10
-35.726953368369294
 20
130.09690912331553
 11
-20.834148028223836
 21
121.49854395119382
  0
LINE
  8
ADD_LINE
  6
DOT
 62
    4
 10
-20.833744600669291
 20
130.09690912331553
 11
-35.726549940814749
 21
121.49854395119382
  0
ENDBLK
  0
BLOCK
  2
-001-_1_
 70
   64
 10
0
 20
0
 30
0
  0
LINE
  8
_0-0_図面枠
  6
CONTINUOUS
 62
    7
 10
182.09184672266406
 20
123.49656859416348
 11
181.56151663681408
 21
123.19041555221349
  0
LINE
  8
_0-0_図面枠
  6
CONTINUOUS
 62
    7
 10
182.99771338056405
 20
121.54490870811344
 11
182.09184672266406
 21
123.49656859416348
  0
LINE
  8
_0-0_図面枠
  6
CONTINUOUS
 62
    7
 10
179.61697298851402
 20
122.06785439846345
 11
182.99771338056405
 21
121.54490870811344
  0
LINE
  8
_0-0_図面枠
  6
CONTINUOUS
 62
    7
 10
180.14730307441403
 20
122.37400744041349
 11
179.61697298851402
 21
122.06785439846345
  0
LINE
  8
_0-0_図面枠
  6
CONTINUOUS
 62
    7
 10
175.55110899671405
 20
125.02733380381346
 11
180.14730307441403
 21
122.37400744041349
  0
LINE
  8
_0-0_図面枠
  6
CONTINUOUS
 62
    7
 10
170.95491491901407
 20
122.37400744041349
 11
175.55110899671405
 21
125.02733380381346
  0
LINE
  8
_0-0_図面枠
  6
CONTINUOUS
 62
    7
 10
171.48524500486405
 20
122.06785439846345
 11
170.95491491901407
 21
122.37400744041349
  0
LINE
  8
_0-0_図面枠
  6
CONTINUOUS
 62
    7
 10
168.10450461286405
 20
121.54490870811344
 11
171.48524500486405
 21
122.06785439846345
  0
LINE
  8
_0-0_図面枠
  6
CONTINUOUS
 62
    7
 10
169.01037127071402
 20
123.49656859416348
 11
168.10450461286405
 21
121.54490870811344
  0
LINE
  8
_0-0_図面枠
  6
CONTINUOUS
 62
    7
 10
169.54070135661402
 20
123.19041555221349
 11
169.01037127071402
 21
123.49656859416348
  0
LINE
  8
_0-0_図面枠
  6
CONTINUOUS
 62
    7
 10
174.13689543431406
 20
125.84374191566349
 11
169.54070135661402
 21
123.19041555221349
  0
LINE
  8
_0-0_図面枠
  6
CONTINUOUS
 62
    7
 10
169.54070135661402
 20
128.49706827906346
 11
174.13689543431406
 21
125.84374191566349
  0
LINE
  8
_0-0_図面枠
  6
CONTINUOUS
 62
    7
 10
169.01037127071402
 20
128.19091523716349
 11
169.54070135661402
 21
128.49706827906346
  0
LINE
  8
_0-0_図面枠
  6
CONTINUOUS
 62
    7
 10
168.10450461286405
 20
130.14257512321348
 11
169.01037127071402
 21
128.19091523716349
  0
LINE
  8
_0-0_図面枠
  6
CONTINUOUS
 62
    7
 10
171.48524500486405
 20
129.61962943286346
 11
168.10450461286405
 21
130.14257512321348
  0
LINE
  8
_0-0_図面枠
  6
CONTINUOUS
 62
    7
 10
170.95491491901407
 20
129.31347639091348
 11
171.48524500486405
 21
129.61962943286346
  0
LINE
  8
_0-0_図面枠
  6
CONTINUOUS
 62
    7
 10
175.55110899671405
 20
126.66015002746349
 11
170.95491491901407
 21
129.31347639091348
  0
LINE
  8
_0-0_図面枠
  6
CONTINUOUS
 62
    7
 10
180.14730307441403
 20
129.31347639091348
 11
175.55110899671405
 21
126.66015002746349
  0
LINE
  8
_0-0_図面枠
  6
CONTINUOUS
 62
    7
 10
179.61697298851402
 20
129.61962943286346
 11
180.14730307441403
 21
129.31347639091348
  0
LINE
  8
_0-0_図面枠
  6
CONTINUOUS
 62
    7
 10
182.99771338056405
 20
130.14257512321348
 11
179.61697298851402
 21
129.61962943286346
  0
LINE
  8
_0-0_図面枠
  6
CONTINUOUS
 62
    7
 10
182.09184672266406
 20
128.19091523716349
 11
182.99771338056405
 21
130.14257512321348
  0
LINE
  8
_0-0_図面枠
  6
CONTINUOUS
 62
    7
 10
181.56151663681408
 20
128.49706827906346
 11
182.09184672266406
 21
128.19091523716349
  0
LINE
  8
_0-0_図面枠
  6
CONTINUOUS
 62
    7
 10
176.96532255906402
 20
125.84374191566349
 11
181.56151663681408
 21
128.49706827906346
  0
LINE
  8
_0-0_図面枠
  6
CONTINUOUS
 62
    7
 10
181.56151663681408
 20
123.19041555221349
 11
176.96532255906402
 21
125.84374191566349
  0
LINE
  8
_0-0_図面枠
  6
CONTINUOUS
 62
    7
 10
168.10450461286405
 20
121.54490870811344
 11
168.10450461286405
 21
120.93250309921348
  0
LINE
  8
_0-0_図面枠
  6
CONTINUOUS
 62
    7
 10
171.48524500486405
 20
122.06785439846345
 11
171.48524500486405
 21
121.45544878956349
  0
LINE
  8
_0-0_図面枠
  6
CONTINUOUS
 62
    7
 10
168.10450461286405
 20
120.93250309921348
 11
171.48524500486405
 21
121.45544878956349
  0
LINE
  8
_0-0_図面枠
  6
CONTINUOUS
 62
    7
 10
179.61697298851402
 20
122.06785439846345
 11
179.61697298851402
 21
121.45544878956349
  0
LINE
  8
_0-0_図面枠
  6
CONTINUOUS
 62
    7
 10
182.99771338056405
 20
121.54490870811344
 11
182.99771338056405
 21
120.93250309921348
  0
LINE
  8
_0-0_図面枠
  6
CONTINUOUS
 62
    7
 10
179.61697298851402
 20
121.45544878956349
 11
182.99771338056405
 21
120.93250309921348
  0
LINE
  8
_0-0_図面枠
  6
CONTINUOUS
 62
    7
 10
175.55110899671405
 20
125.02733380381346
 11
175.55110899671405
 21
124.4149281949135
  0
LINE
  8
_0-0_図面枠
  6
CONTINUOUS
 62
    7
 10
171.48524500486405
 20
122.06775487341349
 11
175.55110899671405
 21
124.4149281949135
  0
LINE
  8
_0-0_図面枠
  6
CONTINUOUS
 62
    7
 10
175.55110899671405
 20
124.4149281949135
 11
179.61697298851402
 21
122.06775487341349
  0
LINE
  8
_0-0_図面枠
  6
CONTINUOUS
 62
    7
 10
169.54070135661402
 20
128.49706827906346
 11
169.54070135661402
 21
127.88466267016349
  0
LINE
  8
_0-0_図面枠
  6
CONTINUOUS
 62
    7
 10
169.54070135661402
 20
127.88466267016349
 11
173.60647914786404
 21
125.5375391112135
  0
LINE
  8
_0-0_図面枠
  6
CONTINUOUS
 62
    7
 10
181.56151663681408
 20
128.49706827906346
 11
181.56151663681408
 21
127.88466267016349
  0
LINE
  8
_0-0_図面枠
  6
CONTINUOUS
 62
    7
 10
177.49573884551404
 20
125.5375391112135
 11
181.56151663681408
 21
127.88466267016349
  0
LINE
  8
_0-0_図面枠
  6
CONTINUOUS
 62
    7
 10
182.09184672266406
 20
128.19091523716349
 11
182.09184672266406
 21
127.57850962821345
  0
LINE
  8
_0-0_図面枠
  6
CONTINUOUS
 62
    7
 10
181.56151663681408
 20
127.88466267016349
 11
182.09184672266406
 21
127.57850962821345
  0
LINE
  8
_0-0_図面枠
  6
CONTINUOUS
 62
    7
 10
182.99771338056405
 20
130.14257512321348
 11
182.99771338056405
 21
129.53016951431346
  0
LINE
  8
_0-0_図面枠
  6
CONTINUOUS
 62
    7
 10
182.09184672266406
 20
127.57850962821345
 11
182.99771338056405
 21
129.53016951431346
  0
LINE
  8
_0-0_図面枠
  6
CONTINUOUS
 62
    7
 10
169.01037127071402
 20
128.19091523716349
 11
169.01037127071402
 21
127.57850962821345
  0
LINE
  8
_0-0_図面枠
  6
CONTINUOUS
 62
    7
 10
169.01037127071402
 20
127.57850962821345
 11
169.54070135661402
 21
127.88466267016349
  0
LINE
  8
_0-0_図面枠
  6
CONTINUOUS
 62
    7
 10
168.10450461286405
 20
130.14257512321348
 11
168.10450461286405
 21
129.53016951431346
  0
LINE
  8
_0-0_図面枠
  6
CONTINUOUS
 62
    7
 10
168.10450461286405
 20
129.53016951431346
 11
169.01037127071402
 21
127.57850962821345
  0
LINE
  8
_0-0_図面枠
  6
CONTINUOUS
 62
    7
 10
179.61697298851402
 20
129.61962943286346
 11
179.61697298851402
 21
129.0073233489635
  0
LINE
  8
_0-0_図面枠
  6
CONTINUOUS
 62
    7
 10
171.48524500486405
 20
129.61962943286346
 11
171.48524500486405
 21
129.0073233489635
  0
LINE
  8
ADD_LINE
  6
DOT
 62
    4
 10
168.10450461286405
 20
130.14257512321348
 11
182.99730995300951
 21
121.54420995109177
  0
LINE
  8
ADD_LINE
  6
DOT
 62
    4
 10
182.99771338056405
 20
130.14257512321348
 11
168.10490804041859
 21
121.54420995109177
  0
ENDBLK
  0
BLOCK
  2
-002-_2_
 70
   64
 10
0
 20
0
 30
0
  0
LINE
  8
_1-4_フレ__ム
  6
CONTINUOUS
 62
    4
 10
-91.500000000000227
 20
61.100000000000051
 11
-91.666666666666742
 21
60.433333333333394
  0
LINE
  8
_1-4_フレ__ム
  6
CONTINUOUS
 62
    4
 10
-91.666666666666742
 20
61.100000000000051
 11
-91.500000000000227
 21
61.100000000000051
  0
LINE
  8
_1-4_フレ__ム
  6
CONTINUOUS
 62
    4
 10
-91.666666666666742
 20
62.100000000000051
 11
-91.666666666666742
 21
61.100000000000051
  0
ARC
  8
_1-4_フレ__ム
  6
CONTINUOUS
 62
    4
 10
-91.166666666666828
 20
62.100000000000051
 40
0.5
 50
0
 51
180
  0
LINE
  8
_1-4_フレ__ム
  6
CONTINUOUS
 62
    4
 10
-90.666666666666899
 20
61.100000000000051
 11
-90.666666666666899
 21
62.100000000000051
  0
LINE
  8
_1-4_フレ__ム
  6
CONTINUOUS
 62
    4
 10
-90.833333333333414
 20
61.100000000000051
 11
-90.666666666666899
 21
61.100000000000051
  0
LINE
  8
_1-4_フレ__ム
  6
CONTINUOUS
 62
    4
 10
-90.666666666666899
 20
60.433333333333394
 11
-90.833333333333414
 21
61.100000000000051
  0
ARC
  8
_1-4_フレ__ム
  6
CONTINUOUS
 62
    4
 10
-69.166666666666458
 20
62.5
 40
0.3333333333333333
 50
0
 51
90
  0
LINE
  8
_1-4_フレ__ム
  6
CONTINUOUS
 62
    4
 10
-72.333333333333201
 20
62.833333333333314
 11
-69.166666666666458
 21
62.833333333333314
  0
ARC
  8
_1-4_フレ__ム
  6
CONTINUOUS
 62
    4
 10
-72.333333333333201
 20
63.5
 40
0.6666666666666666
 50
180
 51
270
  0
LINE
  8
_1-4_フレ__ム
  6
CONTINUOUS
 62
    4
 10
-70.599999999999909
 20
63.666666666666657
 11
-71.833333333333258
 21
63.666666666666657
  0
LINE
  8
_1-4_フレ__ム
  6
CONTINUOUS
 62
    4
 10
-70.499999999999773
 20
63.566666666666606
 11
-70.599999999999909
 21
63.666666666666657
  0
LINE
  8
_1-4_フレ__ム
  6
CONTINUOUS
 62
    4
 10
-70.399999999999721
 20
63.666666666666657
 11
-70.499999999999773
 21
63.566666666666606
  0
LINE
  8
_1-4_フレ__ム
  6
CONTINUOUS
 62
    4
 10
-69.166666666666458
 20
63.666666666666657
 11
-70.399999999999721
 21
63.666666666666657
  0
ARC
  8
_1-4_フレ__ム
  6
CONTINUOUS
 62
    4
 10
-67.833333333333115
 20
62.666666666666657
 40
0.1666666666666666
 50
180
 51
270
  0
ARC
  8
_1-4_フレ__ム
  6
CONTINUOUS
 62
    4
 10
-66.916666666666515
 20
64.75
 40
0.25
 50
0
 51
180
  0
LINE
  8
_1-4_フレ__ム
  6
CONTINUOUS
 62
    4
 10
-66.666666666666458
 20
62.166666666666657
 11
-66.666666666666458
 21
64.75
  0
ARC
  8
_1-4_フレ__ム
  6
CONTINUOUS
 62
    4
 10
-66.833333333333258
 20
62.166666666666657
 40
0.1666666666666666
 50
270
 51
0
  0
LINE
  8
_1-4_フレ__ム
  6
CONTINUOUS
 62
    4
 10
-67.6666666666666
 20
62
 11
-66.833333333333258
 21
62
  0
ARC
  8
_1-4_フレ__ム
  6
CONTINUOUS
 62
    4
 10
-67.6666666666666
 20
61.666666666666657
 40
0.3333333333333333
 50
90
 51
180
  0
ARC
  8
_1-4_フレ__ム
  6
CONTINUOUS
 62
    4
 10
-91.333333333333414
 20
55.833333333333314
 40
0.3333333333333333
 50
180
 51
270
  0
ARC
  8
_1-4_フレ__ム
  6
CONTINUOUS
 62
    4
 10
-69.499999999999773
 20
57
 40
0.6666666666666666
 50
270
 51
0
  0
LINE
  8
_1-4_フレ__ム
  6
CONTINUOUS
 62
    4
 10
-91.333333333333414
 20
55.5
 11
-67.999999999999773
 21
55.5
  0
ARC
  8
_1-4_フレ__ム
  6
CONTINUOUS
 62
    4
 10
-89.666666666666742
 20
57.333333333333314
 40
1
 50
180
 51
270
  0
LINE
  8
_1-4_フレ__ム
  6
CONTINUOUS
 62
    4
 10
-79.999999999999773
 20
56.233333333333263
 11
-80.099999999999994
 21
56.333333333333314
  0
LINE
  8
_1-4_フレ__ム
  6
CONTINUOUS
 62
    4
 10
-79.900000000000176
 20
56.333333333333314
 11
-79.999999999999773
 21
56.233333333333263
  0
LINE
  8
_1-4_フレ__ム
  6
CONTINUOUS
 62
    4
 10
-80.099999999999994
 20
56.333333333333314
 11
-89.666666666666742
 21
56.333333333333314
  0
LINE
  8
_1-4_フレ__ム
  6
CONTINUOUS
 62
    4
 10
-69.499999999999773
 20
56.333333333333314
 11
-79.900000000000176
 21
56.333333333333314
  0
LINE
  8
_1-4_フレ__ム
  6
CONTINUOUS
 62
    4
 10
-68.833333333333115
 20
62.5
 11
-68.833333333333115
 21
57
  0
LINE
  8
_1-4_フレ__ム
  6
CONTINUOUS
 62
    4
 10
-67.999999999999773
 20
55.5
 11
-67.999999999999773
 21
61.666666666666657
  0
LINE
  8
_1-4_フレ__ム
  6
CONTINUOUS
 62
    4
 10
-90.666666666666899
 20
57.333333333333314
 11
-90.666666666666899
 21
60.433333333333394
  0
LINE
  8
_1-4_フレ__ム
  6
CONTINUOUS
 62
    4
 10
-91.666666666666742
 20
60.433333333333394
 11
-91.666666666666742
 21
55.833333333333314
  0
LINE
  8
_1-4_フレ__ム
  6
CONTINUOUS
 62
    4
 10
-72.999999999999773
 20
64.166666666666657
 11
-72.999999999999773
 21
63.5
  0
LINE
  8
_1-4_フレ__ム
  6
CONTINUOUS
 62
    4
 10
-71.833333333333258
 20
64.166666666666657
 11
-72.999999999999773
 21
64.166666666666657
  0
LINE
  8
_1-4_フレ__ム
  6
CONTINUOUS
 62
    4
 10
-71.833333333333258
 20
63.666666666666657
 11
-71.833333333333258
 21
64.166666666666657
  0
LINE
  8
_1-4_フレ__ム
  6
CONTINUOUS
 62
    4
 10
-69.166666666666458
 20
64.166666666666657
 11
-69.166666666666458
 21
63.666666666666657
  0
LINE
  8
_1-4_フレ__ム
  6
CONTINUOUS
 62
    4
 10
-67.999999999999773
 20
64.166666666666657
 11
-69.166666666666458
 21
64.166666666666657
  0
LINE
  8
_1-4_フレ__ム
  6
CONTINUOUS
 62
    4
 10
-67.999999999999773
 20
62.666666666666657
 11
-67.999999999999773
 21
64.166666666666657
  0
LINE
  8
_1-4_フレ__ム
  6
CONTINUOUS
 62
    4
 10
-67.166666666666458
 20
64.75
 11
-67.166666666666458
 21
62.5
  0
LINE
  8
_1-4_フレ__ム
  6
CONTINUOUS
 62
    4
 10
-67.166666666666458
 20
62.5
 11
-67.833333333333115
 21
62.5
  0
LINE
  8
_1-4_フレ__ム
  6
CENTER2
 62
    4
 10
-70.499999999999744
 20
64.666666666666657
 11
-70.499999999999744
 21
61.833333333333314
  0
LINE
  8
_1-4_フレ__ム
  6
CENTER2
 62
    4
 10
-80
 20
58
 11
-80
 21
53.833333333333314
  0
ENDBLK
  0
BLOCK
  2
-003-_3_
 70
   64
 10
0
 20
0
 30
0
  0
LINE
  8
_1-4_フレ__ム
  6
CONTINUOUS
 62
    4
 10
-108.49999999999977
 20
61.100000000000051
 11
-108.33333333333326
 21
60.433333333333394
  0
LINE
  8
_1-4_フレ__ム
  6
CONTINUOUS
 62
    4
 10
-108.33333333333326
 20
61.100000000000051
 11
-108.49999999999977
 21
61.100000000000051
  0
LINE
  8
_1-4_フレ__ム
  6
CONTINUOUS
 62
    4
 10
-108.33333333333326
 20
62.100000000000051
 11
-108.33333333333326
 21
61.100000000000051
  0
ARC
  8
_1-4_フレ__ム
  6
CONTINUOUS
 62
    4
 10
-108.83333333333319
 20
62.100000000000051
 40
0.5
 50
0
 51
180
  0
LINE
  8
_1-4_フレ__ム
  6
CONTINUOUS
 62
    4
 10
-109.33333333333312
 20
61.100000000000051
 11
-109.33333333333312
 21
62.100000000000051
  0
LINE
  8
_1-4_フレ__ム
  6
CONTINUOUS
 62
    4
 10
-109.1666666666666
 20
61.100000000000051
 11
-109.33333333333312
 21
61.100000000000051
  0
LINE
  8
_1-4_フレ__ム
  6
CONTINUOUS
 62
    4
 10
-109.33333333333312
 20
60.433333333333394
 11
-109.1666666666666
 21
61.100000000000051
  0
ARC
  8
_1-4_フレ__ム
  6
CONTINUOUS
 62
    4
 10
-130.83333333333354
 20
62.5
 40
0.3333333333333333
 50
90
 51
180
  0
LINE
  8
_1-4_フレ__ム
  6
CONTINUOUS
 62
    4
 10
-127.6666666666668
 20
62.833333333333314
 11
-130.83333333333354
 21
62.833333333333314
  0
ARC
  8
_1-4_フレ__ム
  6
CONTINUOUS
 62
    4
 10
-127.6666666666668
 20
63.5
 40
0.6666666666666666
 50
270
 51
0
  0
LINE
  8
_1-4_フレ__ム
  6
CONTINUOUS
 62
    4
 10
-129.40000000000009
 20
63.666666666666657
 11
-128.16666666666674
 21
63.666666666666657
  0
LINE
  8
_1-4_フレ__ム
  6
CONTINUOUS
 62
    4
 10
-129.50000000000023
 20
63.566666666666606
 11
-129.40000000000009
 21
63.666666666666657
  0
LINE
  8
_1-4_フレ__ム
  6
CONTINUOUS
 62
    4
 10
-129.60000000000031
 20
63.666666666666657
 11
-129.50000000000023
 21
63.566666666666606
  0
LINE
  8
_1-4_フレ__ム
  6
CONTINUOUS
 62
    4
 10
-130.83333333333354
 20
63.666666666666657
 11
-129.60000000000031
 21
63.666666666666657
  0
ARC
  8
_1-4_フレ__ム
  6
CONTINUOUS
 62
    4
 10
-132.16666666666691
 20
62.666666666666657
 40
0.1666666666666666
 50
270
 51
0
  0
ARC
  8
_1-4_フレ__ム
  6
CONTINUOUS
 62
    4
 10
-133.08333333333348
 20
64.75
 40
0.25
 50
0
 51
180
  0
LINE
  8
_1-4_フレ__ム
  6
CONTINUOUS
 62
    4
 10
-133.33333333333354
 20
62.166666666666657
 11
-133.33333333333354
 21
64.75
  0
ARC
  8
_1-4_フレ__ム
  6
CONTINUOUS
 62
    4
 10
-133.16666666666674
 20
62.166666666666657
 40
0.1666666666666666
 50
180
 51
270
  0
LINE
  8
_1-4_フレ__ム
  6
CONTINUOUS
 62
    4
 10
-132.33333333333343
 20
62
 11
-133.16666666666674
 21
62
  0
ARC
  8
_1-4_フレ__ム
  6
CONTINUOUS
 62
    4
 10
-132.33333333333343
 20
61.666666666666657
 40
0.3333333333333333
 50
0
 51
90
  0
ARC
  8
_1-4_フレ__ム
  6
CONTINUOUS
 62
    4
 10
-108.6666666666666
 20
55.833333333333314
 40
0.3333333333333333
 50
270
 51
0
  0
ARC
  8
_1-4_フレ__ム
  6
CONTINUOUS
 62
    4
 10
-130.50000000000023
 20
57
 40
0.6666666666666666
 50
180
 51
270
  0
LINE
  8
_1-4_フレ__ム
  6
CONTINUOUS
 62
    4
 10
-108.6666666666666
 20
55.5
 11
-132.00000000000023
 21
55.5
  0
ARC
  8
_1-4_フレ__ム
  6
CONTINUOUS
 62
    4
 10
-110.33333333333326
 20
57.333333333333314
 40
1
 50
270
 51
0
  0
LINE
  8
_1-4_フレ__ム
  6
CONTINUOUS
 62
    4
 10
-120.00000000000023
 20
56.233333333333263
 11
-119.90000000000002
 21
56.333333333333314
  0
LINE
  8
_1-4_フレ__ム
  6
CONTINUOUS
 62
    4
 10
-120.09999999999984
 20
56.333333333333314
 11
-120.00000000000023
 21
56.233333333333263
  0
LINE
  8
_1-4_フレ__ム
  6
CONTINUOUS
 62
    4
 10
-119.90000000000002
 20
56.333333333333314
 11
-110.33333333333326
 21
56.333333333333314
  0
LINE
  8
_1-4_フレ__ム
  6
CONTINUOUS
 62
    4
 10
-130.50000000000023
 20
56.333333333333314
 11
-120.09999999999984
 21
56.333333333333314
  0
LINE
  8
_1-4_フレ__ム
  6
CONTINUOUS
 62
    4
 10
-131.16666666666691
 20
62.5
 11
-131.16666666666691
 21
57
  0
LINE
  8
_1-4_フレ__ム
  6
CONTINUOUS
 62
    4
 10
-132.00000000000023
 20
55.5
 11
-132.00000000000023
 21
61.666666666666657
  0
LINE
  8
_1-4_フレ__ム
  6
CONTINUOUS
 62
    4
 10
-109.33333333333312
 20
57.333333333333314
 11
-109.33333333333312
 21
60.433333333333394
  0
LINE
  8
_1-4_フレ__ム
  6
CONTINUOUS
 62
    4
 10
-108.33333333333326
 20
60.433333333333394
 11
-108.33333333333326
 21
55.833333333333314
  0
LINE
  8
_1-4_フレ__ム
  6
CONTINUOUS
 62
    4
 10
-127.00000000000023
 20
64.166666666666657
 11
-127.00000000000023
 21
63.5
  0
LINE
  8
_1-4_フレ__ム
  6
CONTINUOUS
 62
    4
 10
-128.16666666666674
 20
64.166666666666657
 11
-127.00000000000023
 21
64.166666666666657
  0
LINE
  8
_1-4_フレ__ム
  6
CONTINUOUS
 62
    4
 10
-128.16666666666674
 20
63.666666666666657
 11
-128.16666666666674
 21
64.166666666666657
  0
LINE
  8
_1-4_フレ__ム
  6
CONTINUOUS
 62
    4
 10
-130.83333333333354
 20
64.166666666666657
 11
-130.83333333333354
 21
63.666666666666657
  0
LINE
  8
_1-4_フレ__ム
  6
CONTINUOUS
 62
    4
 10
-132.00000000000023
 20
64.166666666666657
 11
-130.83333333333354
 21
64.166666666666657
  0
LINE
  8
_1-4_フレ__ム
  6
CONTINUOUS
 62
    4
 10
-132.00000000000023
 20
62.666666666666657
 11
-132.00000000000023
 21
64.166666666666657
  0
LINE
  8
_1-4_フレ__ム
  6
CONTINUOUS
 62
    4
 10
-132.83333333333354
 20
64.75
 11
-132.83333333333354
 21
62.5
  0
LINE
  8
_1-4_フレ__ム
  6
CONTINUOUS
 62
    4
 10
-132.83333333333354
 20
62.5
 11
-132.16666666666691
 21
62.5
  0
LINE
  8
_1-4_フレ__ム
  6
CENTER2
 62
    4
 10
-129.50000000000028
 20
64.666666666666657
 11
-129.50000000000028
 21
61.833333333333314
  0
LINE
  8
_1-4_フレ__ム
  6
CENTER2
 62
    4
 10
-120
 20
58
 11
-120
 21
53.833333333333314
  0
ENDBLK
  0
BLOCK
  2
-004-_4_
 70
   64
 10
0
 20
0
 30
0
  0
LINE
  8
_1-7_カバ__
  6
CONTINUOUS
 62
    4
 10
-67.333333333333428
 20
64.833333333333314
 11
-67.666666666666742
 21
65.166666666666657
  0
LINE
  8
_1-7_カバ__
  6
CONTINUOUS
 62
    4
 10
-67.333333333333428
 20
63.000000000000057
 11
-67.333333333333428
 21
64.833333333333314
  0
ARC
  8
_1-7_カバ__
  6
CONTINUOUS
 62
    4
 10
-67.499999999999943
 20
63.000000000000057
 40
0.1666666666666666
 50
270
 51
0
  0
LINE
  8
_1-7_カバ__
  6
CONTINUOUS
 62
    4
 10
-67.833333333333428
 20
62.833333333333258
 11
-67.499999999999943
 21
62.833333333333258
  0
ARC
  8
_1-7_カバ__
  6
CONTINUOUS
 62
    4
 10
-67.833333333333428
 20
63.000000000000057
 40
0.1666666666666666
 50
180
 51
270
  0
LINE
  8
_1-7_カバ__
  6
CONTINUOUS
 62
    4
 10
-91.666666666666686
 20
64.666666666666742
 11
-91.666666666666686
 21
64.166666666666657
  0
LINE
  8
_1-7_カバ__
  6
CONTINUOUS
 62
    4
 10
-91.166666666666742
 20
65.166666666666657
 11
-91.666666666666686
 21
64.666666666666742
  0
LINE
  8
_1-7_カバ__
  6
CONTINUOUS
 62
    4
 10
-70.499999999999972
 20
65.066666666666663
 11
-70.599999999999881
 21
65.166666666666657
  0
LINE
  8
_1-7_カバ__
  6
CONTINUOUS
 62
    4
 10
-70.399999999999892
 20
65.166666666666657
 11
-70.499999999999972
 21
65.066666666666663
  0
LINE
  8
_1-7_カバ__
  6
CONTINUOUS
 62
    4
 10
-67.666666666666742
 20
65.166666666666657
 11
-70.399999999999892
 21
65.166666666666657
  0
LINE
  8
_1-7_カバ__
  6
CONTINUOUS
 62
    4
 10
-88.333333333333343
 20
65.166666666666657
 11
-91.166666666666742
 21
65.166666666666657
  0
LINE
  8
_1-7_カバ__
  6
CONTINUOUS
 62
    4
 10
-86.333333333333258
 20
65.166666666666657
 11
-87.333333333333456
 21
65.166666666666657
  0
LINE
  8
_1-7_カバ__
  6
CONTINUOUS
 62
    4
 10
-84.333333333333456
 20
65.166666666666657
 11
-85.333333333333456
 21
65.166666666666657
  0
LINE
  8
_1-7_カバ__
  6
CONTINUOUS
 62
    4
 10
-87.333333333333456
 20
65.066666666666663
 11
-88.333333333333343
 21
65.066666666666663
  0
LINE
  8
_1-7_カバ__
  6
CONTINUOUS
 62
    4
 10
-85.333333333333456
 20
65.066666666666663
 11
-86.333333333333258
 21
65.066666666666663
  0
LINE
  8
_1-7_カバ__
  6
CONTINUOUS
 62
    4
 10
-85.333333333333456
 20
65.066666666666663
 11
-85.333333333333456
 21
65.166666666666657
  0
LINE
  8
_1-7_カバ__
  6
CONTINUOUS
 62
    4
 10
-86.333333333333258
 20
65.066666666666663
 11
-86.333333333333258
 21
65.166666666666657
  0
LINE
  8
_1-7_カバ__
  6
CONTINUOUS
 62
    4
 10
-87.333333333333456
 20
65.066666666666663
 11
-87.333333333333456
 21
65.166666666666657
  0
LINE
  8
_1-7_カバ__
  6
CONTINUOUS
 62
    4
 10
-88.333333333333343
 20
65.066666666666663
 11
-88.333333333333343
 21
65.166666666666657
  0
LINE
  8
_1-7_カバ__
  6
CONTINUOUS
 62
    4
 10
-82.333333333333456
 20
65.166666666666657
 11
-83.333333333333343
 21
65.166666666666657
  0
LINE
  8
_1-7_カバ__
  6
CONTINUOUS
 62
    4
 10
-80.333333333333456
 20
65.166666666666657
 11
-81.333333333333258
 21
65.166666666666657
  0
LINE
  8
_1-7_カバ__
  6
CONTINUOUS
 62
    4
 10
-83.333333333333343
 20
65.066666666666663
 11
-84.333333333333456
 21
65.066666666666663
  0
LINE
  8
_1-7_カバ__
  6
CONTINUOUS
 62
    4
 10
-81.333333333333258
 20
65.066666666666663
 11
-82.333333333333456
 21
65.066666666666663
  0
LINE
  8
_1-7_カバ__
  6
CONTINUOUS
 62
    4
 10
-81.333333333333258
 20
65.066666666666663
 11
-81.333333333333258
 21
65.166666666666657
  0
LINE
  8
_1-7_カバ__
  6
CONTINUOUS
 62
    4
 10
-82.333333333333456
 20
65.066666666666663
 11
-82.333333333333456
 21
65.166666666666657
  0
LINE
  8
_1-7_カバ__
  6
CONTINUOUS
 62
    4
 10
-83.333333333333343
 20
65.066666666666663
 11
-83.333333333333343
 21
65.166666666666657
  0
LINE
  8
_1-7_カバ__
  6
CONTINUOUS
 62
    4
 10
-84.333333333333456
 20
65.066666666666663
 11
-84.333333333333456
 21
65.166666666666657
  0
LINE
  8
_1-7_カバ__
  6
CONTINUOUS
 62
    4
 10
-78.33333333333357
 20
65.166666666666657
 11
-79.333333333333456
 21
65.166666666666657
  0
LINE
  8
_1-7_カバ__
  6
CONTINUOUS
 62
    4
 10
-76.33333333333357
 20
65.166666666666657
 11
-77.333333333333456
 21
65.166666666666657
  0
LINE
  8
_1-7_カバ__
  6
CONTINUOUS
 62
    4
 10
-79.333333333333456
 20
65.066666666666663
 11
-80.333333333333456
 21
65.066666666666663
  0
LINE
  8
_1-7_カバ__
  6
CONTINUOUS
 62
    4
 10
-77.333333333333456
 20
65.066666666666663
 11
-78.33333333333357
 21
65.066666666666663
  0
LINE
  8
_1-7_カバ__
  6
CONTINUOUS
 62
    4
 10
-77.333333333333456
 20
65.066666666666663
 11
-77.333333333333456
 21
65.166666666666657
  0
LINE
  8
_1-7_カバ__
  6
CONTINUOUS
 62
    4
 10
-78.33333333333357
 20
65.066666666666663
 11
-78.33333333333357
 21
65.166666666666657
  0
LINE
  8
_1-7_カバ__
  6
CONTINUOUS
 62
    4
 10
-79.333333333333456
 20
65.066666666666663
 11
-79.333333333333456
 21
65.166666666666657
  0
LINE
  8
_1-7_カバ__
  6
CONTINUOUS
 62
    4
 10
-80.333333333333456
 20
65.066666666666663
 11
-80.333333333333456
 21
65.166666666666657
  0
LINE
  8
_1-7_カバ__
  6
CONTINUOUS
 62
    4
 10
-74.33333333333357
 20
65.166666666666657
 11
-75.333333333333456
 21
65.166666666666657
  0
LINE
  8
_1-7_カバ__
  6
CONTINUOUS
 62
    4
 10
-75.333333333333456
 20
65.066666666666663
 11
-76.33333333333357
 21
65.066666666666663
  0
LINE
  8
_1-7_カバ__
  6
CONTINUOUS
 62
    4
 10
-73.33333333333357
 20
65.066666666666663
 11
-74.33333333333357
 21
65.066666666666663
  0
LINE
  8
_1-7_カバ__
  6
CONTINUOUS
 62
    4
 10
-73.33333333333357
 20
65.066666666666663
 11
-73.33333333333357
 21
65.166666666666657
  0
LINE
  8
_1-7_カバ__
  6
CONTINUOUS
 62
    4
 10
-74.33333333333357
 20
65.066666666666663
 11
-74.33333333333357
 21
65.166666666666657
  0
LINE
  8
_1-7_カバ__
  6
CONTINUOUS
 62
    4
 10
-75.333333333333456
 20
65.066666666666663
 11
-75.333333333333456
 21
65.166666666666657
  0
LINE
  8
_1-7_カバ__
  6
CONTINUOUS
 62
    4
 10
-76.33333333333357
 20
65.066666666666663
 11
-76.33333333333357
 21
65.166666666666657
  0
LINE
  8
_1-7_カバ__
  6
CONTINUOUS
 62
    4
 10
-70.599999999999881
 20
65.166666666666657
 11
-73.33333333333357
 21
65.166666666666657
  0
LINE
  8
_1-7_カバ__
  6
CONTINUOUS
 62
    4
 10
-91.666666666666686
 20
64.166666666666657
 11
-67.999999999999943
 21
64.166666666666657
  0
LINE
  8
_1-7_カバ__
  6
CONTINUOUS
 62
    4
 10
-67.999999999999943
 20
64.166666666666657
 11
-67.999999999999773
 21
63.000000000000057
  0
LINE
  8
_1-7_カバ__
  6
CENTER2
 62
    4
 10
-70.499999999999858
 20
66.833333333333314
 11
-70.499999999999858
 21
62.5
  0
LINE
  8
_1-7_カバ__
  6
DASHED1
 62
    4
 10
-71.416666666666515
 20
64.333333333333314
 11
-69.583333333333201
 21
64.333333333333314
  0
LINE
  8
_1-7_カバ__
  6
DASHED1
 62
    4
 10
-68.749999999999858
 20
65.166666666666657
 11
-69.583333333333201
 21
64.333333333333314
  0
LINE
  8
_1-7_カバ__
  6
DASHED1
 62
    4
 10
-72.249999999999858
 20
65.166666666666657
 11
-71.416666666666515
 21
64.333333333333314
  0
LINE
  8
_1-7_カバ__
  6
DASHED1
 62
    4
 10
-71.416666666666515
 20
64.333333333333314
 11
-71.416666666666515
 21
64.166666666666657
  0
LINE
  8
_1-7_カバ__
  6
DASHED1
 62
    4
 10
-69.583333333333201
 20
64.333333333333314
 11
-69.583333333333201
 21
64.166666666666657
  0
ENDBLK
  0
BLOCK
  2
-005-_5_
 70
   64
 10
0
 20
0
 30
0
  0
LINE
  8
_1-7_カバ__
  6
CONTINUOUS
 62
    4
 10
-132.66666666666657
 20
64.833333333333314
 11
-132.33333333333326
 21
65.166666666666657
  0
LINE
  8
_1-7_カバ__
  6
CONTINUOUS
 62
    4
 10
-132.66666666666657
 20
63.000000000000057
 11
-132.66666666666657
 21
64.833333333333314
  0
ARC
  8
_1-7_カバ__
  6
CONTINUOUS
 62
    4
 10
-132.50000000000006
 20
63.000000000000057
 40
0.1666666666666666
 50
180
 51
270
  0
LINE
  8
_1-7_カバ__
  6
CONTINUOUS
 62
    4
 10
-132.16666666666657
 20
62.833333333333258
 11
-132.50000000000006
 21
62.833333333333258
  0
ARC
  8
_1-7_カバ__
  6
CONTINUOUS
 62
    4
 10
-132.16666666666657
 20
63.000000000000057
 40
0.1666666666666666
 50
270
 51
0
  0
LINE
  8
_1-7_カバ__
  6
CONTINUOUS
 62
    4
 10
-108.33333333333331
 20
64.666666666666742
 11
-108.33333333333331
 21
64.166666666666657
  0
LINE
  8
_1-7_カバ__
  6
CONTINUOUS
 62
    4
 10
-108.83333333333326
 20
65.166666666666657
 11
-108.33333333333331
 21
64.666666666666742
  0
LINE
  8
_1-7_カバ__
  6
CONTINUOUS
 62
    4
 10
-129.50000000000006
 20
65.066666666666663
 11
-129.40000000000015
 21
65.166666666666657
  0
LINE
  8
_1-7_カバ__
  6
CONTINUOUS
 62
    4
 10
-129.60000000000014
 20
65.166666666666657
 11
-129.50000000000006
 21
65.066666666666663
  0
LINE
  8
_1-7_カバ__
  6
CONTINUOUS
 62
    4
 10
-132.33333333333326
 20
65.166666666666657
 11
-129.60000000000014
 21
65.166666666666657
  0
LINE
  8
_1-7_カバ__
  6
CONTINUOUS
 62
    4
 10
-111.66666666666667
 20
65.166666666666657
 11
-108.83333333333326
 21
65.166666666666657
  0
LINE
  8
_1-7_カバ__
  6
CONTINUOUS
 62
    4
 10
-113.66666666666674
 20
65.166666666666657
 11
-112.66666666666656
 21
65.166666666666657
  0
LINE
  8
_1-7_カバ__
  6
CONTINUOUS
 62
    4
 10
-115.66666666666656
 20
65.166666666666657
 11
-114.66666666666656
 21
65.166666666666657
  0
LINE
  8
_1-7_カバ__
  6
CONTINUOUS
 62
    4
 10
-112.66666666666656
 20
65.066666666666663
 11
-111.66666666666667
 21
65.066666666666663
  0
LINE
  8
_1-7_カバ__
  6
CONTINUOUS
 62
    4
 10
-114.66666666666656
 20
65.066666666666663
 11
-113.66666666666674
 21
65.066666666666663
  0
LINE
  8
_1-7_カバ__
  6
CONTINUOUS
 62
    4
 10
-114.66666666666656
 20
65.066666666666663
 11
-114.66666666666656
 21
65.166666666666657
  0
LINE
  8
_1-7_カバ__
  6
CONTINUOUS
 62
    4
 10
-113.66666666666674
 20
65.066666666666663
 11
-113.66666666666674
 21
65.166666666666657
  0
LINE
  8
_1-7_カバ__
  6
CONTINUOUS
 62
    4
 10
-112.66666666666656
 20
65.066666666666663
 11
-112.66666666666656
 21
65.166666666666657
  0
LINE
  8
_1-7_カバ__
  6
CONTINUOUS
 62
    4
 10
-111.66666666666667
 20
65.066666666666663
 11
-111.66666666666667
 21
65.166666666666657
  0
LINE
  8
_1-7_カバ__
  6
CONTINUOUS
 62
    4
 10
-117.66666666666656
 20
65.166666666666657
 11
-116.66666666666667
 21
65.166666666666657
  0
LINE
  8
_1-7_カバ__
  6
CONTINUOUS
 62
    4
 10
-119.66666666666656
 20
65.166666666666657
 11
-118.66666666666674
 21
65.166666666666657
  0
LINE
  8
_1-7_カバ__
  6
CONTINUOUS
 62
    4
 10
-116.66666666666667
 20
65.066666666666663
 11
-115.66666666666656
 21
65.066666666666663
  0
LINE
  8
_1-7_カバ__
  6
CONTINUOUS
 62
    4
 10
-118.66666666666674
 20
65.066666666666663
 11
-117.66666666666656
 21
65.066666666666663
  0
LINE
  8
_1-7_カバ__
  6
CONTINUOUS
 62
    4
 10
-118.66666666666674
 20
65.066666666666663
 11
-118.66666666666674
 21
65.166666666666657
  0
LINE
  8
_1-7_カバ__
  6
CONTINUOUS
 62
    4
 10
-117.66666666666656
 20
65.066666666666663
 11
-117.66666666666656
 21
65.166666666666657
  0
LINE
  8
_1-7_カバ__
  6
CONTINUOUS
 62
    4
 10
-116.66666666666667
 20
65.066666666666663
 11
-116.66666666666667
 21
65.166666666666657
  0
LINE
  8
_1-7_カバ__
  6
CONTINUOUS
 62
    4
 10
-115.66666666666656
 20
65.066666666666663
 11
-115.66666666666656
 21
65.166666666666657
  0
LINE
  8
_1-7_カバ__
  6
CONTINUOUS
 62
    4
 10
-121.66666666666644
 20
65.166666666666657
 11
-120.66666666666656
 21
65.166666666666657
  0
LINE
  8
_1-7_カバ__
  6
CONTINUOUS
 62
    4
 10
-123.66666666666644
 20
65.166666666666657
 11
-122.66666666666656
 21
65.166666666666657
  0
LINE
  8
_1-7_カバ__
  6
CONTINUOUS
 62
    4
 10
-120.66666666666656
 20
65.066666666666663
 11
-119.66666666666656
 21
65.066666666666663
  0
LINE
  8
_1-7_カバ__
  6
CONTINUOUS
 62
    4
 10
-122.66666666666656
 20
65.066666666666663
 11
-121.66666666666644
 21
65.066666666666663
  0
LINE
  8
_1-7_カバ__
  6
CONTINUOUS
 62
    4
 10
-122.66666666666656
 20
65.066666666666663
 11
-122.66666666666656
 21
65.166666666666657
  0
LINE
  8
_1-7_カバ__
  6
CONTINUOUS
 62
    4
 10
-121.66666666666644
 20
65.066666666666663
 11
-121.66666666666644
 21
65.166666666666657
  0
LINE
  8
_1-7_カバ__
  6
CONTINUOUS
 62
    4
 10
-120.66666666666656
 20
65.066666666666663
 11
-120.66666666666656
 21
65.166666666666657
  0
LINE
  8
_1-7_カバ__
  6
CONTINUOUS
 62
    4
 10
-119.66666666666656
 20
65.066666666666663
 11
-119.66666666666656
 21
65.166666666666657
  0
LINE
  8
_1-7_カバ__
  6
CONTINUOUS
 62
    4
 10
-125.66666666666644
 20
65.166666666666657
 11
-124.66666666666656
 21
65.166666666666657
  0
LINE
  8
_1-7_カバ__
  6
CONTINUOUS
 62
    4
 10
-124.66666666666656
 20
65.066666666666663
 11
-123.66666666666644
 21
65.066666666666663
  0
LINE
  8
_1-7_カバ__
  6
CONTINUOUS
 62
    4
 10
-126.66666666666644
 20
65.066666666666663
 11
-125.66666666666644
 21
65.066666666666663
  0
LINE
  8
_1-7_カバ__
  6
CONTINUOUS
 62
    4
 10
-126.66666666666644
 20
65.066666666666663
 11
-126.66666666666644
 21
65.166666666666657
  0
LINE
  8
_1-7_カバ__
  6
CONTINUOUS
 62
    4
 10
-125.66666666666644
 20
65.066666666666663
 11
-125.66666666666644
 21
65.166666666666657
  0
LINE
  8
_1-7_カバ__
  6
CONTINUOUS
 62
    4
 10
-124.66666666666656
 20
65.066666666666663
 11
-124.66666666666656
 21
65.166666666666657
  0
LINE
  8
_1-7_カバ__
  6
CONTINUOUS
 62
    4
 10
-123.66666666666644
 20
65.066666666666663
 11
-123.66666666666644
 21
65.166666666666657
  0
LINE
  8
_1-7_カバ__
  6
CONTINUOUS
 62
    4
 10
-129.40000000000015
 20
65.166666666666657
 11
-126.66666666666644
 21
65.166666666666657
  0
LINE
  8
_1-7_カバ__
  6
CONTINUOUS
 62
    4
 10
-108.33333333333331
 20
64.166666666666657
 11
-132.00000000000006
 21
64.166666666666657
  0
LINE
  8
_1-7_カバ__
  6
CONTINUOUS
 62
    4
 10
-132.00000000000006
 20
64.166666666666657
 11
-132.00000000000023
 21
63.000000000000057
  0
LINE
  8
_1-7_カバ__
  6
CENTER2
 62
    4
 10
-129.50000000000017
 20
66.833333333333314
 11
-129.50000000000017
 21
62.5
  0
LINE
  8
_1-7_カバ__
  6
DASHED1
 62
    4
 10
-128.58333333333348
 20
64.333333333333314
 11
-130.4166666666668
 21
64.333333333333314
  0
LINE
  8
_1-7_カバ__
  6
DASHED1
 62
    4
 10
-131.25000000000017
 20
65.166666666666657
 11
-130.4166666666668
 21
64.333333333333314
  0
LINE
  8
_1-7_カバ__
  6
DASHED1
 62
    4
 10
-127.75000000000016
 20
65.166666666666657
 11
-128.58333333333348
 21
64.333333333333314
  0
LINE
  8
_1-7_カバ__
  6
DASHED1
 62
    4
 10
-128.58333333333348
 20
64.333333333333314
 11
-128.58333333333348
 21
64.166666666666657
  0
LINE
  8
_1-7_カバ__
  6
DASHED1
 62
    4
 10
-130.4166666666668
 20
64.333333333333314
 11
-130.4166666666668
 21
64.166666666666657
  0
ENDBLK
  0
BLOCK
  2
-006-_6_
 70
   64
 10
0
 20
0
 30
0
  0
LINE
  8
_1-8_小物
  6
CONTINUOUS
 62
    4
 10
-76.999999999999687
 20
56.833333333333314
 11
-82.999999999999986
 21
56.833333333333314
  0
LINE
  8
_1-8_小物
  6
CONTINUOUS
 62
    4
 10
-76.999999999999687
 20
56.333333333333314
 11
-82.999999999999986
 21
56.333333333333314
  0
LINE
  8
_1-8_小物
  6
CONTINUOUS
 62
    4
 10
-76.999999999999687
 20
56.833333333333314
 11
-76.999999999999687
 21
56.333333333333314
  0
LINE
  8
_1-8_小物
  6
CONTINUOUS
 62
    4
 10
-82.999999999999986
 20
56.833333333333314
 11
-82.999999999999986
 21
56.333333333333314
  0
LINE
  8
_1-8_小物
  6
CONTINUOUS
 62
    4
 10
-79.08333333333303
 20
56.833333333333314
 11
-79.08333333333303
 21
56.333333333333314
  0
LINE
  8
_1-8_小物
  6
CONTINUOUS
 62
    4
 10
-80.916666666666657
 20
56.833333333333314
 11
-80.916666666666657
 21
56.333333333333314
  0
LINE
  8
_1-8_小物
  6
CONTINUOUS
 62
    4
 10
-78.499999999999716
 20
56.833333333333314
 11
-78.536304261266508
 21
57.24829293833335
  0
LINE
  8
_1-8_小物
  6
CONTINUOUS
 62
    4
 10
-81.463695738766546
 20
57.24829293833335
 11
-81.499999999999687
 21
56.833333333333314
  0
ARC
  8
_1-8_小物
  6
CONTINUOUS
 62
    4
 10
-81.134951488366823
 20
57.219531543233245
 40
0.3299999999999999
 50
127.36755803205445
 51
175.00000000119914
  0
ARC
  8
_1-8_小物
  6
CONTINUOUS
 62
    4
 10
-78.865048511633205
 20
57.219531543233245
 40
0.3299999999999999
 50
4.999999998801286
 51
52.63244196794556
  0
ARC
  8
_1-8_小物
  6
CONTINUOUS
 62
    4
 10
-80
 20
55.733333333333292
 40
2.1999999999999997
 50
52.632441967704935
 51
68.266383543398447
  0
ARC
  8
_1-8_小物
  6
CONTINUOUS
 62
    4
 10
-80
 20
55.733333333333292
 40
2.1999999999999997
 50
111.74840859090331
 51
127.36755803230515
  0
LINE
  8
_1-8_小物
  6
CONTINUOUS
 62
    4
 10
-79.89499999999984
 20
57.919709043200044
 11
-79.89499999999984
 21
57.774437413199905
  0
LINE
  8
_1-8_小物
  6
CONTINUOUS
 62
    4
 10
-79.779237106032866
 20
57.919709043200044
 11
-79.89499999999984
 21
57.919709043200044
  0
LINE
  8
_1-8_小物
  6
CONTINUOUS
 62
    4
 10
-79.185832243833232
 20
57.774437413199905
 11
-79.779237106032866
 21
57.919709043200044
  0
LINE
  8
_1-8_小物
  6
CONTINUOUS
 62
    4
 10
-80.220762893999876
 20
57.919709043200044
 11
-80.654066316566656
 21
57.831230436066733
  0
LINE
  8
_1-8_小物
  6
CONTINUOUS
 62
    4
 10
-80.654066316566656
 20
57.831230436066733
 11
-80.81416775619951
 21
57.774437413199905
  0
LINE
  8
_1-8_小物
  6
CONTINUOUS
 62
    4
 10
-80.104999999999876
 20
57.919709043200044
 11
-80.220762893999876
 21
57.919709043200044
  0
LINE
  8
_1-8_小物
  6
CONTINUOUS
 62
    4
 10
-80.104999999999876
 20
57.774437413199905
 11
-80.104999999999876
 21
57.919709043200044
  0
LINE
  8
_1-8_小物
  6
CONTINUOUS
 62
    4
 10
-79.89499999999984
 20
57.774437413199905
 11
-80
 21
57.776139138000019
  0
LINE
  8
_1-8_小物
  6
CONTINUOUS
 62
    4
 10
-80
 20
57.776139138000019
 11
-80.104999999999876
 21
57.774437413199905
  0
LINE
  8
_1-8_小物
  6
CONTINUOUS
 62
    4
 10
-78.536304261266508
 20
57.24829293833335
 11
-81.463695738766546
 21
57.24829293833335
  0
LINE
  8
_1-8_小物
  6
CONTINUOUS
 62
    4
 10
-80
 20
57.481801815566712
 11
-81.33523704516665
 21
57.481801815566712
  0
LINE
  8
_1-8_小物
  6
CONTINUOUS
 62
    4
 10
-78.664762954866404
 20
57.481801815566712
 11
-80
 21
57.481801815566712
  0
ENDBLK
  0
BLOCK
  2
-007-_7_
 70
   64
 10
0
 20
0
 30
0
  0
LINE
  8
_1-8_小物
  6
CONTINUOUS
 62
    4
 10
-116.99999999999969
 20
56.833333333333314
 11
-122.99999999999999
 21
56.833333333333314
  0
LINE
  8
_1-8_小物
  6
CONTINUOUS
 62
    4
 10
-116.99999999999969
 20
56.333333333333314
 11
-122.99999999999999
 21
56.333333333333314
  0
LINE
  8
_1-8_小物
  6
CONTINUOUS
 62
    4
 10
-116.99999999999969
 20
56.833333333333314
 11
-116.99999999999969
 21
56.333333333333314
  0
LINE
  8
_1-8_小物
  6
CONTINUOUS
 62
    4
 10
-122.99999999999999
 20
56.833333333333314
 11
-122.99999999999999
 21
56.333333333333314
  0
LINE
  8
_1-8_小物
  6
CONTINUOUS
 62
    4
 10
-119.08333333333303
 20
56.833333333333314
 11
-119.08333333333303
 21
56.333333333333314
  0
LINE
  8
_1-8_小物
  6
CONTINUOUS
 62
    4
 10
-120.91666666666666
 20
56.833333333333314
 11
-120.91666666666666
 21
56.333333333333314
  0
LINE
  8
_1-8_小物
  6
CONTINUOUS
 62
    4
 10
-118.49999999999972
 20
56.833333333333314
 11
-118.53630426126651
 21
57.24829293833335
  0
LINE
  8
_1-8_小物
  6
CONTINUOUS
 62
    4
 10
-121.46369573876655
 20
57.24829293833335
 11
-121.49999999999969
 21
56.833333333333314
  0
ARC
  8
_1-8_小物
  6
CONTINUOUS
 62
    4
 10
-121.13495148836682
 20
57.219531543233245
 40
0.3299999999999999
 50
127.36755803205445
 51
175.00000000119894
  0
ARC
  8
_1-8_小物
  6
CONTINUOUS
 62
    4
 10
-118.8650485116332
 20
57.219531543233245
 40
0.3299999999999999
 50
4.999999998801071
 51
52.63244196794556
  0
ARC
  8
_1-8_小物
  6
CONTINUOUS
 62
    4
 10
-120
 20
55.733333333333292
 40
2.1999999999999997
 50
52.632441967704935
 51
68.266383543398447
  0
ARC
  8
_1-8_小物
  6
CONTINUOUS
 62
    4
 10
-120
 20
55.733333333333292
 40
2.1999999999999997
 50
111.74840859090331
 51
127.36755803230515
  0
LINE
  8
_1-8_小物
  6
CONTINUOUS
 62
    4
 10
-119.89499999999984
 20
57.919709043200044
 11
-119.89499999999984
 21
57.774437413199905
  0
LINE
  8
_1-8_小物
  6
CONTINUOUS
 62
    4
 10
-119.77923710603287
 20
57.919709043200044
 11
-119.89499999999984
 21
57.919709043200044
  0
LINE
  8
_1-8_小物
  6
CONTINUOUS
 62
    4
 10
-119.18583224383323
 20
57.774437413199905
 11
-119.77923710603287
 21
57.919709043200044
  0
LINE
  8
_1-8_小物
  6
CONTINUOUS
 62
    4
 10
-120.22076289399988
 20
57.919709043200044
 11
-120.65406631656666
 21
57.831230436066733
  0
LINE
  8
_1-8_小物
  6
CONTINUOUS
 62
    4
 10
-120.65406631656666
 20
57.831230436066733
 11
-120.81416775619951
 21
57.774437413199905
  0
LINE
  8
_1-8_小物
  6
CONTINUOUS
 62
    4
 10
-120.10499999999988
 20
57.919709043200044
 11
-120.22076289399988
 21
57.919709043200044
  0
LINE
  8
_1-8_小物
  6
CONTINUOUS
 62
    4
 10
-120.10499999999988
 20
57.774437413199905
 11
-120.10499999999988
 21
57.919709043200044
  0
LINE
  8
_1-8_小物
  6
CONTINUOUS
 62
    4
 10
-119.89499999999984
 20
57.774437413199905
 11
-120
 21
57.776139138000019
  0
LINE
  8
_1-8_小物
  6
CONTINUOUS
 62
    4
 10
-120
 20
57.776139138000019
 11
-120.10499999999988
 21
57.774437413199905
  0
LINE
  8
_1-8_小物
  6
CONTINUOUS
 62
    4
 10
-118.53630426126651
 20
57.24829293833335
 11
-121.46369573876655
 21
57.24829293833335
  0
LINE
  8
_1-8_小物
  6
CONTINUOUS
 62
    4
 10
-120
 20
57.481801815566712
 11
-121.33523704516665
 21
57.481801815566712
  0
LINE
  8
_1-8_小物
  6
CONTINUOUS
 62
    4
 10
-118.6647629548664
 20
57.481801815566712
 11
-120
 21
57.481801815566712
  0
ENDBLK
  0
BLOCK
  2
-008-HATCHING
 70
   64
 10
0
 20
0
 30
0
  0
LINE
  8
_1-0_躯体
  6
CONTINUOUS
 62
    4
 10
-108.33333333333334
 20
54.246560698096289
 11
-109.07989403142965
 21
53.5
  0
LINE
  8
_1-0_躯体
  6
CONTINUOUS
 62
    4
 10
-108.35603640634505
 20
55.166666666666657
 11
-110.02270307301171
 21
53.5
  0
LINE
  8
_1-0_躯体
  6
CONTINUOUS
 62
    4
 10
-109.29884544792708
 20
55.166666666666657
 11
-110.96551211459375
 21
53.5
  0
LINE
  8
_1-0_躯体
  6
CONTINUOUS
 62
    4
 10
-110.24165448950917
 20
55.166666666666657
 11
-111.90832115617584
 21
53.5
  0
LINE
  8
_1-0_躯体
  6
CONTINUOUS
 62
    4
 10
-111.18446353109123
 20
55.166666666666657
 11
-112.85113019775791
 21
53.5
  0
LINE
  8
_1-0_躯体
  6
CONTINUOUS
 62
    4
 10
-112.12727257267329
 20
55.166666666666657
 11
-113.79393923933998
 21
53.5
  0
LINE
  8
_1-0_躯体
  6
CONTINUOUS
 62
    4
 10
-113.07008161425537
 20
55.166666666666657
 11
-114.73674828092203
 21
53.5
  0
LINE
  8
_1-0_躯体
  6
CONTINUOUS
 62
    4
 10
-114.01289065583742
 20
55.166666666666657
 11
-115.67955732250408
 21
53.5
  0
LINE
  8
_1-0_躯体
  6
CONTINUOUS
 62
    4
 10
-114.95569969741949
 20
55.166666666666657
 11
-116.62236636408616
 21
53.5
  0
LINE
  8
_1-0_躯体
  6
CONTINUOUS
 62
    4
 10
-115.89850873900153
 20
55.166666666666657
 11
-117.56517540566819
 21
53.5
  0
LINE
  8
_1-0_躯体
  6
CONTINUOUS
 62
    4
 10
-116.84131778058359
 20
55.166666666666657
 11
-118.50798444725027
 21
53.5
  0
LINE
  8
_1-0_躯体
  6
CONTINUOUS
 62
    4
 10
-117.78412682216566
 20
55.166666666666657
 11
-119.45079348883233
 21
53.5
  0
LINE
  8
_1-0_躯体
  6
CONTINUOUS
 62
    4
 10
-118.72693586374774
 20
55.166666666666657
 11
-120.3936025304144
 21
53.5
  0
LINE
  8
_1-0_躯体
  6
CONTINUOUS
 62
    4
 10
-119.66974490532981
 20
55.166666666666657
 11
-121.33641157199648
 21
53.5
  0
LINE
  8
_1-0_躯体
  6
CONTINUOUS
 62
    4
 10
-120.61255394691186
 20
55.166666666666657
 11
-122.27922061357853
 21
53.5
  0
LINE
  8
_1-0_躯体
  6
CONTINUOUS
 62
    4
 10
-121.55536298849393
 20
55.166666666666657
 11
-123.2220296551606
 21
53.5
  0
LINE
  8
_1-0_躯体
  6
CONTINUOUS
 62
    4
 10
-122.49817203007598
 20
55.166666666666657
 11
-124.16483869674265
 21
53.5
  0
LINE
  8
_1-0_躯体
  6
CONTINUOUS
 62
    4
 10
-123.44098107165806
 20
55.166666666666657
 11
-125.10764773832472
 21
53.5
  0
LINE
  8
_1-0_躯体
  6
CONTINUOUS
 62
    4
 10
-124.38379011324012
 20
55.166666666666657
 11
-126.0504567799068
 21
53.5
  0
LINE
  8
_1-0_躯体
  6
CONTINUOUS
 62
    4
 10
-125.32659915482219
 20
55.166666666666657
 11
-126.99326582148885
 21
53.5
  0
LINE
  8
_1-0_躯体
  6
CONTINUOUS
 62
    4
 10
-126.26940819640426
 20
55.166666666666657
 11
-127.93607486307093
 21
53.5
  0
LINE
  8
_1-0_躯体
  6
CONTINUOUS
 62
    4
 10
-127.21221723798632
 20
55.166666666666657
 11
-128.87888390465298
 21
53.5
  0
LINE
  8
_1-0_躯体
  6
CONTINUOUS
 62
    4
 10
-128.15502627956838
 20
55.166666666666657
 11
-129.82169294623503
 21
53.5
  0
LINE
  8
_1-0_躯体
  6
CONTINUOUS
 62
    4
 10
-129.09783532115046
 20
55.166666666666657
 11
-130.76450198781711
 21
53.5
  0
LINE
  8
_1-0_躯体
  6
CONTINUOUS
 62
    4
 10
-130.04064436273251
 20
55.166666666666657
 11
-131.70731102939919
 21
53.5
  0
LINE
  8
_1-0_躯体
  6
CONTINUOUS
 62
    4
 10
-130.98345340431459
 20
55.166666666666657
 11
-132.65012007098125
 21
53.5
  0
LINE
  8
_1-0_躯体
  6
CONTINUOUS
 62
    4
 10
-131.92626244589664
 20
55.166666666666657
 11
-133.5929291125633
 21
53.5
  0
LINE
  8
_1-0_躯体
  6
CONTINUOUS
 62
    4
 10
-132.86907148747869
 20
55.166666666666657
 11
-134.53573815414535
 21
53.5
  0
LINE
  8
_1-0_躯体
  6
CONTINUOUS
 62
    4
 10
-133.81188052906074
 20
55.166666666666657
 11
-135.4785471957274
 21
53.5
  0
LINE
  8
_1-0_躯体
  6
CONTINUOUS
 62
    4
 10
-134.75468957064282
 20
55.166666666666657
 11
-136.42135623730948
 21
53.5
  0
LINE
  8
_1-0_躯体
  6
CONTINUOUS
 62
    4
 10
-135.69749861222488
 20
55.166666666666657
 11
-136.66666666666663
 21
54.197498612224905
  0
LINE
  8
_1-0_躯体
  6
CONTINUOUS
 62
    4
 10
-136.64030765380693
 20
55.166666666666657
 11
-136.66666666666663
 21
55.140307653806985
  0
ENDBLK
  0
BLOCK
  2
-009-HATCHING_1_
 70
   64
 10
0
 20
0
 30
0
  0
LINE
  8
_1-0_躯体
  6
CONTINUOUS
 62
    4
 10
-63.333333333333371
 20
53.991726702157223
 11
-63.825060035490594
 21
53.5
  0
LINE
  8
_1-0_躯体
  6
CONTINUOUS
 62
    4
 10
-63.333333333333371
 20
54.934535743739303
 11
-64.767869077072703
 21
53.5
  0
LINE
  8
_1-0_躯体
  6
CONTINUOUS
 62
    4
 10
-64.044011451988069
 20
55.166666666666657
 11
-65.710678118654755
 21
53.5
  0
LINE
  8
_1-0_躯体
  6
CONTINUOUS
 62
    4
 10
-64.98682049357015
 20
55.166666666666657
 11
-66.653487160236807
 21
53.5
  0
LINE
  8
_1-0_躯体
  6
CONTINUOUS
 62
    4
 10
-65.929629535152174
 20
55.166666666666657
 11
-67.596296201818831
 21
53.5
  0
LINE
  8
_1-0_躯体
  6
CONTINUOUS
 62
    4
 10
-66.872438576734226
 20
55.166666666666657
 11
-68.539105243400911
 21
53.5
  0
LINE
  8
_1-0_躯体
  6
CONTINUOUS
 62
    4
 10
-67.815247618316334
 20
55.166666666666657
 11
-69.481914284982992
 21
53.5
  0
LINE
  8
_1-0_躯体
  6
CONTINUOUS
 62
    4
 10
-68.758056659898386
 20
55.166666666666657
 11
-70.424723326565044
 21
53.5
  0
LINE
  8
_1-0_躯体
  6
CONTINUOUS
 62
    4
 10
-69.700865701480438
 20
55.166666666666657
 11
-71.367532368147124
 21
53.5
  0
LINE
  8
_1-0_躯体
  6
CONTINUOUS
 62
    4
 10
-70.643674743062491
 20
55.166666666666657
 11
-72.310341409729176
 21
53.5
  0
LINE
  8
_1-0_躯体
  6
CONTINUOUS
 62
    4
 10
-71.586483784644571
 20
55.166666666666657
 11
-73.253150451311228
 21
53.5
  0
LINE
  8
_1-0_躯体
  6
CONTINUOUS
 62
    4
 10
-72.529292826226651
 20
55.166666666666657
 11
-74.195959492893337
 21
53.5
  0
LINE
  8
_1-0_躯体
  6
CONTINUOUS
 62
    4
 10
-73.472101867808675
 20
55.166666666666657
 11
-75.138768534475332
 21
53.5
  0
LINE
  8
_1-0_躯体
  6
CONTINUOUS
 62
    4
 10
-74.414910909390727
 20
55.166666666666657
 11
-76.081577576057384
 21
53.5
  0
LINE
  8
_1-0_躯体
  6
CONTINUOUS
 62
    4
 10
-75.357719950972808
 20
55.166666666666657
 11
-77.024386617639465
 21
53.5
  0
LINE
  8
_1-0_躯体
  6
CONTINUOUS
 62
    4
 10
-76.30052899255486
 20
55.166666666666657
 11
-77.967195659221545
 21
53.5
  0
LINE
  8
_1-0_躯体
  6
CONTINUOUS
 62
    4
 10
-77.24333803413694
 20
55.166666666666657
 11
-78.910004700803597
 21
53.5
  0
LINE
  8
_1-0_躯体
  6
CONTINUOUS
 62
    4
 10
-78.18614707571902
 20
55.166666666666657
 11
-79.852813742385678
 21
53.5
  0
LINE
  8
_1-0_躯体
  6
CONTINUOUS
 62
    4
 10
-79.128956117301072
 20
55.166666666666657
 11
-80.795622783967758
 21
53.5
  0
LINE
  8
_1-0_躯体
  6
CONTINUOUS
 62
    4
 10
-80.071765158883153
 20
55.166666666666657
 11
-81.73843182554981
 21
53.5
  0
LINE
  8
_1-0_躯体
  6
CONTINUOUS
 62
    4
 10
-81.014574200465205
 20
55.166666666666657
 11
-82.681240867131862
 21
53.5
  0
LINE
  8
_1-0_躯体
  6
CONTINUOUS
 62
    4
 10
-81.957383242047285
 20
55.166666666666657
 11
-83.624049908713943
 21
53.5
  0
LINE
  8
_1-0_躯体
  6
CONTINUOUS
 62
    4
 10
-82.900192283629323
 20
55.166666666666657
 11
-84.566858950295995
 21
53.5
  0
LINE
  8
_1-0_躯体
  6
CONTINUOUS
 62
    4
 10
-83.843001325211389
 20
55.166666666666657
 11
-85.509667991878061
 21
53.5
  0
LINE
  8
_1-0_躯体
  6
CONTINUOUS
 62
    4
 10
-84.785810366793427
 20
55.166666666666657
 11
-86.452477033460099
 21
53.5
  0
LINE
  8
_1-0_躯体
  6
CONTINUOUS
 62
    4
 10
-85.728619408375494
 20
55.166666666666657
 11
-87.395286075042165
 21
53.5
  0
LINE
  8
_1-0_躯体
  6
CONTINUOUS
 62
    4
 10
-86.671428449957574
 20
55.166666666666657
 11
-88.338095116624231
 21
53.5
  0
LINE
  8
_1-0_躯体
  6
CONTINUOUS
 62
    4
 10
-87.61423749153964
 20
55.166666666666657
 11
-89.280904158206312
 21
53.5
  0
LINE
  8
_1-0_躯体
  6
CONTINUOUS
 62
    4
 10
-88.557046533121706
 20
55.166666666666657
 11
-90.223713199788378
 21
53.5
  0
LINE
  8
_1-0_躯体
  6
CONTINUOUS
 62
    4
 10
-89.499855574703787
 20
55.166666666666657
 11
-91.166522241370444
 21
53.5
  0
LINE
  8
_1-0_躯体
  6
CONTINUOUS
 62
    4
 10
-90.442664616285839
 20
55.166666666666657
 11
-91.666666666666671
 21
53.942664616285811
  0
LINE
  8
_1-0_躯体
  6
CONTINUOUS
 62
    4
 10
-91.385473657867905
 20
55.166666666666657
 11
-91.666666666666671
 21
54.885473657867863
  0
ENDBLK
  0
BLOCK
  2
-010-$QLE
 70
   64
 10
0
 20
0
 30
0
  0
LINE
  8
_1-f_寸法
  6
CONTINUOUS
 62
    4
 10
-73.333333333333343
 20
53.5
 11
-70.334936490538894
 21
48.306624327025929
  0
LINE
  8
_1-f_寸法
  6
CONTINUOUS
 62
    4
 10
-70.334936490538894
 20
48.306624327025929
 11
-31.614936490538923
 21
48.306624327025929
  0
POINT
  8
_1-f_寸法
 62
    4
 10
-73.333333333333343
 20
53.5
  0
TEXT
  8
_1-f_寸法
 62
    4
 10
-70.014936490538901
 20
48.306624327025929
 40
3.2000000000000002
 41
1
 50
0
  1
ならしモルタル(別途工事)
  0
ENDBLK
  0
BLOCK
  2
-011-_8_
 70
   64
 10
0
 20
0
 30
0
  0
LINE
  8
_1-8_小物
  6
CONTINUOUS
 62
    4
 10
-78.197241666666741
 20
43.573391666666595
 11
-78.162351666667121
 21
42.907638333333267
  0
LINE
  8
_1-8_小物
  6
CONTINUOUS
 62
    4
 10
-78.249578333333659
 20
44.572021666666529
 11
-78.897885000000315
 21
44.204254999999904
  0
LINE
  8
_1-8_小物
  6
CONTINUOUS
 62
    4
 10
-78.897885000000315
 20
44.204254999999904
 11
-78.862995000000097
 21
43.538501666666576
  0
LINE
  8
_1-8_小物
  6
CONTINUOUS
 62
    4
 10
-78.862995000000097
 20
43.538501666666576
 11
-78.197241666666741
 21
43.573391666666595
  0
LINE
  8
_1-8_小物
  6
CONTINUOUS
 62
    4
 10
-78.284468333333564
 20
45.237774999999971
 11
-78.249578333333659
 21
44.572021666666529
  0
LINE
  8
_1-8_小物
  6
CONTINUOUS
 62
    4
 10
-78.336805000000197
 20
46.236403333333357
 11
-78.985111666667137
 21
45.86863666666639
  0
LINE
  8
_1-8_小物
  6
CONTINUOUS
 62
    4
 10
-78.985111666667137
 20
45.86863666666639
 11
-78.950221666666948
 21
45.20288333333329
  0
LINE
  8
_1-8_小物
  6
CONTINUOUS
 62
    4
 10
-78.950221666666948
 20
45.20288333333329
 11
-78.284468333333564
 21
45.237774999999971
  0
LINE
  8
_1-8_小物
  6
CONTINUOUS
 62
    4
 10
-78.371695000000415
 20
46.902156666666684
 11
-78.336805000000197
 21
46.236403333333357
  0
LINE
  8
_1-8_小物
  6
CONTINUOUS
 62
    4
 10
-78.424031666666735
 20
47.900786666666392
 11
-79.072338333333391
 21
47.533019999999993
  0
LINE
  8
_1-8_小物
  6
CONTINUOUS
 62
    4
 10
-79.072338333333391
 20
47.533019999999993
 11
-79.037448333333799
 21
46.867266666666666
  0
LINE
  8
_1-8_小物
  6
CONTINUOUS
 62
    4
 10
-79.037448333333799
 20
46.867266666666666
 11
-78.371695000000415
 21
46.902156666666684
  0
LINE
  8
_1-8_小物
  6
CONTINUOUS
 62
    4
 10
-78.458921666666953
 20
48.566539999999947
 11
-78.424031666666735
 21
47.900786666666392
  0
LINE
  8
_1-8_小物
  6
CONTINUOUS
 62
    4
 10
-78.511258333333586
 20
49.565169999999995
 11
-79.159565000000242
 21
49.197401666666593
  0
LINE
  8
_1-8_小物
  6
CONTINUOUS
 62
    4
 10
-79.159565000000242
 20
49.197401666666593
 11
-79.124675000000309
 21
48.531648333333266
  0
LINE
  8
_1-8_小物
  6
CONTINUOUS
 62
    4
 10
-79.124675000000309
 20
48.531648333333266
 11
-78.458921666666953
 21
48.566539999999947
  0
LINE
  8
_1-8_小物
  6
CONTINUOUS
 62
    4
 10
-78.54614833333352
 20
50.230921666666546
 11
-78.511258333333586
 21
49.565169999999995
  0
LINE
  8
_1-8_小物
  6
CONTINUOUS
 62
    4
 10
-79.246791666667065
 20
50.861784999999855
 11
-79.211901666666847
 21
50.196031666666528
  0
LINE
  8
_1-8_小物
  6
CONTINUOUS
 62
    4
 10
-79.211901666666847
 20
50.196031666666528
 11
-78.54614833333352
 21
50.230921666666546
  0
LINE
  8
_1-8_小物
  6
CONTINUOUS
 62
    4
 10
-78.66666666666697
 20
51.166666666666657
 11
-79.246791666667065
 21
50.861784999999855
  0
LINE
  8
_1-8_小物
  6
CONTINUOUS
 62
    4
 10
-81.802758333333571
 20
43.573391666666595
 11
-81.837648333333448
 21
42.907638333333267
  0
LINE
  8
_1-8_小物
  6
CONTINUOUS
 62
    4
 10
-81.750421666666909
 20
44.572021666666529
 11
-81.102115000000282
 21
44.204254999999904
  0
LINE
  8
_1-8_小物
  6
CONTINUOUS
 62
    4
 10
-81.102115000000282
 20
44.204254999999904
 11
-81.137005000000499
 21
43.538501666666576
  0
LINE
  8
_1-8_小物
  6
CONTINUOUS
 62
    4
 10
-81.137005000000499
 20
43.538501666666576
 11
-81.802758333333571
 21
43.573391666666595
  0
LINE
  8
_1-8_小物
  6
CONTINUOUS
 62
    4
 10
-81.71553166666672
 20
45.237774999999971
 11
-81.750421666666909
 21
44.572021666666529
  0
LINE
  8
_1-8_小物
  6
CONTINUOUS
 62
    4
 10
-81.663195000000371
 20
46.236403333333357
 11
-81.014888333333744
 21
45.86863666666639
  0
LINE
  8
_1-8_小物
  6
CONTINUOUS
 62
    4
 10
-81.014888333333744
 20
45.86863666666639
 11
-81.049778333333336
 21
45.20288333333329
  0
LINE
  8
_1-8_小物
  6
CONTINUOUS
 62
    4
 10
-81.049778333333336
 20
45.20288333333329
 11
-81.71553166666672
 21
45.237774999999971
  0
LINE
  8
_1-8_小物
  6
CONTINUOUS
 62
    4
 10
-81.628305000000466
 20
46.902156666666684
 11
-81.663195000000371
 21
46.236403333333357
  0
LINE
  8
_1-8_小物
  6
CONTINUOUS
 62
    4
 10
-81.575968333333833
 20
47.900786666666392
 11
-80.927661666666893
 21
47.533019999999993
  0
LINE
  8
_1-8_小物
  6
CONTINUOUS
 62
    4
 10
-80.927661666666893
 20
47.533019999999993
 11
-80.962551666666826
 21
46.867266666666666
  0
LINE
  8
_1-8_小物
  6
CONTINUOUS
 62
    4
 10
-80.962551666666826
 20
46.867266666666666
 11
-81.628305000000466
 21
46.902156666666684
  0
LINE
  8
_1-8_小物
  6
CONTINUOUS
 62
    4
 10
-81.541078333333644
 20
48.566539999999947
 11
-81.575968333333833
 21
47.900786666666392
  0
LINE
  8
_1-8_小物
  6
CONTINUOUS
 62
    4
 10
-81.488741666666698
 20
49.565169999999995
 11
-80.84043500000007
 21
49.197401666666593
  0
LINE
  8
_1-8_小物
  6
CONTINUOUS
 62
    4
 10
-80.84043500000007
 20
49.197401666666593
 11
-80.875325000000259
 21
48.531648333333266
  0
LINE
  8
_1-8_小物
  6
CONTINUOUS
 62
    4
 10
-80.875325000000259
 20
48.531648333333266
 11
-81.541078333333644
 21
48.566539999999947
  0
LINE
  8
_1-8_小物
  6
CONTINUOUS
 62
    4
 10
-81.453851666667106
 20
50.230921666666546
 11
-81.488741666666698
 21
49.565169999999995
  0
LINE
  8
_1-8_小物
  6
CONTINUOUS
 62
    4
 10
-80.753208333333532
 20
50.861784999999855
 11
-80.788098333333721
 21
50.196031666666528
  0
LINE
  8
_1-8_小物
  6
CONTINUOUS
 62
    4
 10
-80.788098333333721
 20
50.196031666666528
 11
-81.453851666667106
 21
50.230921666666546
  0
LINE
  8
_1-8_小物
  6
CONTINUOUS
 62
    4
 10
-80.019768333333559
 20
43.186434999999875
 11
-79.375201666667039
 21
43.758324999999928
  0
LINE
  8
_1-8_小物
  6
CONTINUOUS
 62
    4
 10
-80.623148333333717
 20
43.789813333333342
 11
-80
 21
43.166666666666544
  0
LINE
  8
_1-8_小物
  6
CONTINUOUS
 62
    4
 10
-81.333333333333314
 20
51.166666666666657
 11
-80.753208333333532
 21
50.861784999999855
  0
LINE
  8
_1-8_小物
  6
CONTINUOUS
 62
    4
 10
-78.458921666666953
 20
48.566539999999947
 11
-77.893800000000454
 21
50.119199999999779
  0
LINE
  8
_1-8_小物
  6
CONTINUOUS
 62
    4
 10
-78.813648333333447
 20
48.566539999999947
 11
-78.207030000000174
 21
50.233206666666575
  0
LINE
  8
_1-8_小物
  6
CONTINUOUS
 62
    4
 10
-81.541078333333644
 20
48.566539999999947
 11
-82.106200000000172
 21
50.119199999999779
  0
LINE
  8
_1-8_小物
  6
CONTINUOUS
 62
    4
 10
-81.186351666667179
 20
48.566539999999947
 11
-81.792970000000423
 21
50.233206666666575
  0
LINE
  8
_1-8_小物
  6
CONTINUOUS
 62
    4
 10
-79.327418333333583
 20
42.846579999999818
 11
-78.162351666667121
 21
42.907638333333267
  0
LINE
  8
_1-8_小物
  6
CONTINUOUS
 62
    4
 10
-78.162351666667121
 20
42.907638333333267
 11
-78.793213333333682
 21
42.206995000000035
  0
LINE
  8
_1-8_小物
  6
CONTINUOUS
 62
    4
 10
-78.793213333333682
 20
42.206995000000035
 11
-79.292528333333394
 21
42.180826666666491
  0
LINE
  8
_1-8_小物
  6
CONTINUOUS
 62
    4
 10
-79.292528333333394
 20
42.180826666666491
 11
-79.833333333333314
 21
52.499999999999801
  0
LINE
  8
_1-8_小物
  6
CONTINUOUS
 62
    4
 10
-78.66666666666697
 20
51.166666666666657
 11
-78.66666666666697
 21
52.499999999999801
  0
LINE
  8
_1-8_小物
  6
CONTINUOUS
 62
    4
 10
-80.672581666666986
 20
42.846579999999818
 11
-81.837648333333448
 21
42.907638333333267
  0
LINE
  8
_1-8_小物
  6
CONTINUOUS
 62
    4
 10
-81.837648333333448
 20
42.907638333333267
 11
-81.206786666666943
 21
42.206995000000035
  0
LINE
  8
_1-8_小物
  6
CONTINUOUS
 62
    4
 10
-81.206786666666943
 20
42.206995000000035
 11
-80.707471666666891
 21
42.180826666666491
  0
LINE
  8
_1-8_小物
  6
CONTINUOUS
 62
    4
 10
-80.707471666666891
 20
42.180826666666491
 11
-80.16666666666697
 21
52.499999999999801
  0
LINE
  8
_1-8_小物
  6
CONTINUOUS
 62
    4
 10
-81.333333333333314
 20
51.166666666666657
 11
-81.333333333333314
 21
52.499999999999801
  0
LINE
  8
_1-8_小物
  6
CONTINUOUS
 62
    4
 10
-82.106200000000172
 20
50.119199999999779
 11
-82.436985000000277
 21
52.387073333333461
  0
ARC
  8
_1-8_小物
  6
CONTINUOUS
 62
    4
 10
-82.305048333333616
 20
52.406318333333303
 40
0.1333333333333333
 50
98.130101999959862
 51
188.29846600002313
  0
LINE
  8
_1-8_小物
  6
CONTINUOUS
 62
    4
 10
-82.32390500000048
 20
52.538311666666601
 11
-82.258296666666865
 21
52.547683333333367
  0
ARC
  8
_1-8_小物
  6
CONTINUOUS
 62
    4
 10
-82.239439999999973
 20
52.415689999999955
 40
0.1333333333333333
 50
8.130102000040166
 51
98.13010200022066
  0
LINE
  8
_1-8_小物
  6
CONTINUOUS
 62
    4
 10
-82.107446666666874
 20
52.434546666666535
 11
-81.792970000000423
 21
50.233206666666575
  0
LINE
  8
_1-8_小物
  6
CONTINUOUS
 62
    4
 10
-77.893800000000454
 20
50.119199999999779
 11
-77.56301500000032
 21
52.387073333333461
  0
ARC
  8
_1-8_小物
  6
CONTINUOUS
 62
    4
 10
-77.694951666666981
 20
52.406318333333303
 40
0.1333333333333333
 50
351.70153399996479
 51
81.869898000046192
  0
LINE
  8
_1-8_小物
  6
CONTINUOUS
 62
    4
 10
-77.676096666667036
 20
52.538311666666601
 11
-77.741703333333732
 21
52.547683333333367
  0
ARC
  8
_1-8_小物
  6
CONTINUOUS
 62
    4
 10
-77.760559999999998
 20
52.415689999999955
 40
0.1333333333333333
 50
81.869898000046192
 51
171.86989799999611
  0
LINE
  8
_1-8_小物
  6
CONTINUOUS
 62
    4
 10
-77.892553333333723
 20
52.434546666666535
 11
-78.207030000000174
 21
50.233206666666575
  0
LINE
  8
_1-8_小物
  6
CONTINUOUS
 62
    4
 10
-77.893800000000454
 20
50.119199999999779
 11
-77.56301500000032
 21
52.387073333333461
  0
ARC
  8
_1-8_小物
  6
CONTINUOUS
 62
    4
 10
-77.694951666666981
 20
52.406318333333303
 40
0.1333333333333333
 50
351.70153399996479
 51
81.869898000046192
  0
LINE
  8
_1-8_小物
  6
CONTINUOUS
 62
    4
 10
-77.676096666667036
 20
52.538311666666601
 11
-77.741703333333732
 21
52.547683333333367
  0
ARC
  8
_1-8_小物
  6
CONTINUOUS
 62
    4
 10
-77.760559999999998
 20
52.415689999999955
 40
0.1333333333333333
 50
81.869898000046192
 51
171.86989799999611
  0
LINE
  8
_1-8_小物
  6
CONTINUOUS
 62
    4
 10
-77.892553333333723
 20
52.434546666666535
 11
-78.207030000000174
 21
50.233206666666575
  0
LINE
  8
_1-8_小物
  6
CONTINUOUS
 62
    4
 10
-78.333333333333314
 20
55.166666666666657
 11
-78.66666666666697
 21
53.500000000000028
  0
LINE
  8
_1-8_小物
  6
CONTINUOUS
 62
    4
 10
-78.66666666666697
 20
55.166666666666657
 11
-78.66666666666697
 21
52.499999999999801
  0
LINE
  8
_1-8_小物
  6
CONTINUOUS
 62
    4
 10
-79.833333333333314
 20
52.499999999999801
 11
-80
 21
52.499999999999801
  0
LINE
  8
_1-8_小物
  6
CONTINUOUS
 62
    4
 10
-80
 20
53.500000000000028
 11
-80
 21
55.166666666666657
  0
LINE
  8
_1-8_小物
  6
CONTINUOUS
 62
    4
 10
-79.66666666666697
 20
55.166666666666657
 11
-80
 21
53.500000000000028
  0
LINE
  8
_1-8_小物
  6
CONTINUOUS
 62
    4
 10
-80.333333333333627
 20
55.166666666666657
 11
-80
 21
53.500000000000028
  0
LINE
  8
_1-8_小物
  6
CONTINUOUS
 62
    4
 10
-81.666666666666657
 20
55.166666666666657
 11
-81.333333333333314
 21
53.500000000000028
  0
LINE
  8
_1-8_小物
  6
CONTINUOUS
 62
    4
 10
-81.333333333333314
 20
55.166666666666657
 11
-81.333333333333314
 21
52.499999999999801
  0
LINE
  8
_1-8_小物
  6
CONTINUOUS
 62
    4
 10
-80.16666666666697
 20
52.499999999999801
 11
-80
 21
52.499999999999801
  0
LINE
  8
_1-8_小物
  6
CONTINUOUS
 62
    4
 10
-78.333333333333314
 20
55.166666666666657
 11
-81.666666666666657
 21
55.166666666666657
  0
ENDBLK
  0
BLOCK
  2
-012-_9_
 70
   64
 10
0
 20
0
 30
0
  0
LINE
  8
_1-8_小物
  6
CONTINUOUS
 62
    4
 10
-118.19724166666674
 20
43.573391666666595
 11
-118.16235166666712
 21
42.907638333333267
  0
LINE
  8
_1-8_小物
  6
CONTINUOUS
 62
    4
 10
-118.24957833333366
 20
44.572021666666529
 11
-118.89788500000031
 21
44.204254999999904
  0
LINE
  8
_1-8_小物
  6
CONTINUOUS
 62
    4
 10
-118.89788500000031
 20
44.204254999999904
 11
-118.8629950000001
 21
43.538501666666576
  0
LINE
  8
_1-8_小物
  6
CONTINUOUS
 62
    4
 10
-118.8629950000001
 20
43.538501666666576
 11
-118.19724166666674
 21
43.573391666666595
  0
LINE
  8
_1-8_小物
  6
CONTINUOUS
 62
    4
 10
-118.28446833333356
 20
45.237774999999971
 11
-118.24957833333366
 21
44.572021666666529
  0
LINE
  8
_1-8_小物
  6
CONTINUOUS
 62
    4
 10
-118.3368050000002
 20
46.236403333333357
 11
-118.98511166666714
 21
45.86863666666639
  0
LINE
  8
_1-8_小物
  6
CONTINUOUS
 62
    4
 10
-118.98511166666714
 20
45.86863666666639
 11
-118.95022166666695
 21
45.20288333333329
  0
LINE
  8
_1-8_小物
  6
CONTINUOUS
 62
    4
 10
-118.95022166666695
 20
45.20288333333329
 11
-118.28446833333356
 21
45.237774999999971
  0
LINE
  8
_1-8_小物
  6
CONTINUOUS
 62
    4
 10
-118.37169500000041
 20
46.902156666666684
 11
-118.3368050000002
 21
46.236403333333357
  0
LINE
  8
_1-8_小物
  6
CONTINUOUS
 62
    4
 10
-118.42403166666674
 20
47.900786666666392
 11
-119.07233833333339
 21
47.533019999999993
  0
LINE
  8
_1-8_小物
  6
CONTINUOUS
 62
    4
 10
-119.07233833333339
 20
47.533019999999993
 11
-119.0374483333338
 21
46.867266666666666
  0
LINE
  8
_1-8_小物
  6
CONTINUOUS
 62
    4
 10
-119.0374483333338
 20
46.867266666666666
 11
-118.37169500000041
 21
46.902156666666684
  0
LINE
  8
_1-8_小物
  6
CONTINUOUS
 62
    4
 10
-118.45892166666695
 20
48.566539999999947
 11
-118.42403166666674
 21
47.900786666666392
  0
LINE
  8
_1-8_小物
  6
CONTINUOUS
 62
    4
 10
-118.51125833333359
 20
49.565169999999995
 11
-119.15956500000024
 21
49.197401666666593
  0
LINE
  8
_1-8_小物
  6
CONTINUOUS
 62
    4
 10
-119.15956500000024
 20
49.197401666666593
 11
-119.12467500000031
 21
48.531648333333266
  0
LINE
  8
_1-8_小物
  6
CONTINUOUS
 62
    4
 10
-119.12467500000031
 20
48.531648333333266
 11
-118.45892166666695
 21
48.566539999999947
  0
LINE
  8
_1-8_小物
  6
CONTINUOUS
 62
    4
 10
-118.54614833333352
 20
50.230921666666546
 11
-118.51125833333359
 21
49.565169999999995
  0
LINE
  8
_1-8_小物
  6
CONTINUOUS
 62
    4
 10
-119.24679166666706
 20
50.861784999999855
 11
-119.21190166666685
 21
50.196031666666528
  0
LINE
  8
_1-8_小物
  6
CONTINUOUS
 62
    4
 10
-119.21190166666685
 20
50.196031666666528
 11
-118.54614833333352
 21
50.230921666666546
  0
LINE
  8
_1-8_小物
  6
CONTINUOUS
 62
    4
 10
-118.66666666666697
 20
51.166666666666657
 11
-119.24679166666706
 21
50.861784999999855
  0
LINE
  8
_1-8_小物
  6
CONTINUOUS
 62
    4
 10
-121.80275833333357
 20
43.573391666666595
 11
-121.83764833333345
 21
42.907638333333267
  0
LINE
  8
_1-8_小物
  6
CONTINUOUS
 62
    4
 10
-121.75042166666691
 20
44.572021666666529
 11
-121.10211500000028
 21
44.204254999999904
  0
LINE
  8
_1-8_小物
  6
CONTINUOUS
 62
    4
 10
-121.10211500000028
 20
44.204254999999904
 11
-121.1370050000005
 21
43.538501666666576
  0
LINE
  8
_1-8_小物
  6
CONTINUOUS
 62
    4
 10
-121.1370050000005
 20
43.538501666666576
 11
-121.80275833333357
 21
43.573391666666595
  0
LINE
  8
_1-8_小物
  6
CONTINUOUS
 62
    4
 10
-121.71553166666672
 20
45.237774999999971
 11
-121.75042166666691
 21
44.572021666666529
  0
LINE
  8
_1-8_小物
  6
CONTINUOUS
 62
    4
 10
-121.66319500000037
 20
46.236403333333357
 11
-121.01488833333374
 21
45.86863666666639
  0
LINE
  8
_1-8_小物
  6
CONTINUOUS
 62
    4
 10
-121.01488833333374
 20
45.86863666666639
 11
-121.04977833333334
 21
45.20288333333329
  0
LINE
  8
_1-8_小物
  6
CONTINUOUS
 62
    4
 10
-121.04977833333334
 20
45.20288333333329
 11
-121.71553166666672
 21
45.237774999999971
  0
LINE
  8
_1-8_小物
  6
CONTINUOUS
 62
    4
 10
-121.62830500000047
 20
46.902156666666684
 11
-121.66319500000037
 21
46.236403333333357
  0
LINE
  8
_1-8_小物
  6
CONTINUOUS
 62
    4
 10
-121.57596833333383
 20
47.900786666666392
 11
-120.92766166666689
 21
47.533019999999993
  0
LINE
  8
_1-8_小物
  6
CONTINUOUS
 62
    4
 10
-120.92766166666689
 20
47.533019999999993
 11
-120.96255166666683
 21
46.867266666666666
  0
LINE
  8
_1-8_小物
  6
CONTINUOUS
 62
    4
 10
-120.96255166666683
 20
46.867266666666666
 11
-121.62830500000047
 21
46.902156666666684
  0
LINE
  8
_1-8_小物
  6
CONTINUOUS
 62
    4
 10
-121.54107833333364
 20
48.566539999999947
 11
-121.57596833333383
 21
47.900786666666392
  0
LINE
  8
_1-8_小物
  6
CONTINUOUS
 62
    4
 10
-121.4887416666667
 20
49.565169999999995
 11
-120.84043500000007
 21
49.197401666666593
  0
LINE
  8
_1-8_小物
  6
CONTINUOUS
 62
    4
 10
-120.84043500000007
 20
49.197401666666593
 11
-120.87532500000026
 21
48.531648333333266
  0
LINE
  8
_1-8_小物
  6
CONTINUOUS
 62
    4
 10
-120.87532500000026
 20
48.531648333333266
 11
-121.54107833333364
 21
48.566539999999947
  0
LINE
  8
_1-8_小物
  6
CONTINUOUS
 62
    4
 10
-121.45385166666711
 20
50.230921666666546
 11
-121.4887416666667
 21
49.565169999999995
  0
LINE
  8
_1-8_小物
  6
CONTINUOUS
 62
    4
 10
-120.75320833333353
 20
50.861784999999855
 11
-120.78809833333372
 21
50.196031666666528
  0
LINE
  8
_1-8_小物
  6
CONTINUOUS
 62
    4
 10
-120.78809833333372
 20
50.196031666666528
 11
-121.45385166666711
 21
50.230921666666546
  0
LINE
  8
_1-8_小物
  6
CONTINUOUS
 62
    4
 10
-120.01976833333356
 20
43.186434999999875
 11
-119.37520166666704
 21
43.758324999999928
  0
LINE
  8
_1-8_小物
  6
CONTINUOUS
 62
    4
 10
-120.62314833333372
 20
43.789813333333342
 11
-120
 21
43.166666666666544
  0
LINE
  8
_1-8_小物
  6
CONTINUOUS
 62
    4
 10
-121.33333333333331
 20
51.166666666666657
 11
-120.75320833333353
 21
50.861784999999855
  0
LINE
  8
_1-8_小物
  6
CONTINUOUS
 62
    4
 10
-118.45892166666695
 20
48.566539999999947
 11
-117.89380000000045
 21
50.119199999999779
  0
LINE
  8
_1-8_小物
  6
CONTINUOUS
 62
    4
 10
-118.81364833333345
 20
48.566539999999947
 11
-118.20703000000017
 21
50.233206666666575
  0
LINE
  8
_1-8_小物
  6
CONTINUOUS
 62
    4
 10
-121.54107833333364
 20
48.566539999999947
 11
-122.10620000000017
 21
50.119199999999779
  0
LINE
  8
_1-8_小物
  6
CONTINUOUS
 62
    4
 10
-121.18635166666718
 20
48.566539999999947
 11
-121.79297000000042
 21
50.233206666666575
  0
LINE
  8
_1-8_小物
  6
CONTINUOUS
 62
    4
 10
-119.32741833333358
 20
42.846579999999818
 11
-118.16235166666712
 21
42.907638333333267
  0
LINE
  8
_1-8_小物
  6
CONTINUOUS
 62
    4
 10
-118.16235166666712
 20
42.907638333333267
 11
-118.79321333333368
 21
42.206995000000035
  0
LINE
  8
_1-8_小物
  6
CONTINUOUS
 62
    4
 10
-118.79321333333368
 20
42.206995000000035
 11
-119.29252833333339
 21
42.180826666666491
  0
LINE
  8
_1-8_小物
  6
CONTINUOUS
 62
    4
 10
-119.29252833333339
 20
42.180826666666491
 11
-119.83333333333331
 21
52.499999999999801
  0
LINE
  8
_1-8_小物
  6
CONTINUOUS
 62
    4
 10
-118.66666666666697
 20
51.166666666666657
 11
-118.66666666666697
 21
52.499999999999801
  0
LINE
  8
_1-8_小物
  6
CONTINUOUS
 62
    4
 10
-120.67258166666699
 20
42.846579999999818
 11
-121.83764833333345
 21
42.907638333333267
  0
LINE
  8
_1-8_小物
  6
CONTINUOUS
 62
    4
 10
-121.83764833333345
 20
42.907638333333267
 11
-121.20678666666694
 21
42.206995000000035
  0
LINE
  8
_1-8_小物
  6
CONTINUOUS
 62
    4
 10
-121.20678666666694
 20
42.206995000000035
 11
-120.70747166666689
 21
42.180826666666491
  0
LINE
  8
_1-8_小物
  6
CONTINUOUS
 62
    4
 10
-120.70747166666689
 20
42.180826666666491
 11
-120.16666666666697
 21
52.499999999999801
  0
LINE
  8
_1-8_小物
  6
CONTINUOUS
 62
    4
 10
-121.33333333333331
 20
51.166666666666657
 11
-121.33333333333331
 21
52.499999999999801
  0
LINE
  8
_1-8_小物
  6
CONTINUOUS
 62
    4
 10
-122.10620000000017
 20
50.119199999999779
 11
-122.43698500000028
 21
52.387073333333461
  0
ARC
  8
_1-8_小物
  6
CONTINUOUS
 62
    4
 10
-122.30504833333362
 20
52.406318333333303
 40
0.1333333333333333
 50
98.130101999959862
 51
188.29846600002313
  0
LINE
  8
_1-8_小物
  6
CONTINUOUS
 62
    4
 10
-122.32390500000048
 20
52.538311666666601
 11
-122.25829666666687
 21
52.547683333333367
  0
ARC
  8
_1-8_小物
  6
CONTINUOUS
 62
    4
 10
-122.23943999999997
 20
52.415689999999955
 40
0.1333333333333333
 50
8.130102000040166
 51
98.13010200022066
  0
LINE
  8
_1-8_小物
  6
CONTINUOUS
 62
    4
 10
-122.10744666666687
 20
52.434546666666535
 11
-121.79297000000042
 21
50.233206666666575
  0
LINE
  8
_1-8_小物
  6
CONTINUOUS
 62
    4
 10
-117.89380000000045
 20
50.119199999999779
 11
-117.56301500000032
 21
52.387073333333461
  0
ARC
  8
_1-8_小物
  6
CONTINUOUS
 62
    4
 10
-117.69495166666698
 20
52.406318333333303
 40
0.1333333333333333
 50
351.70153399996479
 51
81.869898000040166
  0
LINE
  8
_1-8_小物
  6
CONTINUOUS
 62
    4
 10
-117.67609666666704
 20
52.538311666666601
 11
-117.74170333333373
 21
52.547683333333367
  0
ARC
  8
_1-8_小物
  6
CONTINUOUS
 62
    4
 10
-117.76056
 20
52.415689999999955
 40
0.1333333333333333
 50
81.869898000046192
 51
171.86989799999611
  0
LINE
  8
_1-8_小物
  6
CONTINUOUS
 62
    4
 10
-117.89255333333372
 20
52.434546666666535
 11
-118.20703000000017
 21
50.233206666666575
  0
LINE
  8
_1-8_小物
  6
CONTINUOUS
 62
    4
 10
-117.89380000000045
 20
50.119199999999779
 11
-117.56301500000032
 21
52.387073333333461
  0
ARC
  8
_1-8_小物
  6
CONTINUOUS
 62
    4
 10
-117.69495166666698
 20
52.406318333333303
 40
0.1333333333333333
 50
351.70153399996479
 51
81.869898000040166
  0
LINE
  8
_1-8_小物
  6
CONTINUOUS
 62
    4
 10
-117.67609666666704
 20
52.538311666666601
 11
-117.74170333333373
 21
52.547683333333367
  0
ARC
  8
_1-8_小物
  6
CONTINUOUS
 62
    4
 10
-117.76056
 20
52.415689999999955
 40
0.1333333333333333
 50
81.869898000046192
 51
171.86989799999611
  0
LINE
  8
_1-8_小物
  6
CONTINUOUS
 62
    4
 10
-117.89255333333372
 20
52.434546666666535
 11
-118.20703000000017
 21
50.233206666666575
  0
LINE
  8
_1-8_小物
  6
CONTINUOUS
 62
    4
 10
-118.33333333333331
 20
55.166666666666657
 11
-118.66666666666697
 21
53.500000000000028
  0
LINE
  8
_1-8_小物
  6
CONTINUOUS
 62
    4
 10
-118.66666666666697
 20
55.166666666666657
 11
-118.66666666666697
 21
52.499999999999801
  0
LINE
  8
_1-8_小物
  6
CONTINUOUS
 62
    4
 10
-119.83333333333331
 20
52.499999999999801
 11
-120
 21
52.499999999999801
  0
LINE
  8
_1-8_小物
  6
CONTINUOUS
 62
    4
 10
-120
 20
53.500000000000028
 11
-120
 21
55.166666666666657
  0
LINE
  8
_1-8_小物
  6
CONTINUOUS
 62
    4
 10
-119.66666666666697
 20
55.166666666666657
 11
-120
 21
53.500000000000028
  0
LINE
  8
_1-8_小物
  6
CONTINUOUS
 62
    4
 10
-120.33333333333363
 20
55.166666666666657
 11
-120
 21
53.500000000000028
  0
LINE
  8
_1-8_小物
  6
CONTINUOUS
 62
    4
 10
-121.66666666666666
 20
55.166666666666657
 11
-121.33333333333331
 21
53.500000000000028
  0
LINE
  8
_1-8_小物
  6
CONTINUOUS
 62
    4
 10
-121.33333333333331
 20
55.166666666666657
 11
-121.33333333333331
 21
52.499999999999801
  0
LINE
  8
_1-8_小物
  6
CONTINUOUS
 62
    4
 10
-120.16666666666697
 20
52.499999999999801
 11
-120
 21
52.499999999999801
  0
LINE
  8
_1-8_小物
  6
CONTINUOUS
 62
    4
 10
-118.33333333333331
 20
55.166666666666657
 11
-121.66666666666666
 21
55.166666666666657
  0
ENDBLK
  0
BLOCK
  2
-013-HATCHING_2_
 70
   64
 10
0
 20
0
 30
0
  0
LINE
  8
_1-0_躯体
  6
CONTINUOUS
 62
    4
 10
136.66666666666663
 20
53.991726702157223
 11
136.17493996450941
 21
53.5
  0
LINE
  8
_1-0_躯体
  6
CONTINUOUS
 62
    4
 10
136.66666666666663
 20
54.934535743739303
 11
135.23213092292724
 21
53.5
  0
LINE
  8
_1-0_躯体
  6
CONTINUOUS
 62
    4
 10
135.95598854801193
 20
55.166666666666657
 11
134.28932188134524
 21
53.5
  0
LINE
  8
_1-0_躯体
  6
CONTINUOUS
 62
    4
 10
135.01317950642988
 20
55.166666666666657
 11
133.34651283976319
 21
53.5
  0
LINE
  8
_1-0_躯体
  6
CONTINUOUS
 62
    4
 10
134.07037046484777
 20
55.166666666666657
 11
132.40370379818114
 21
53.5
  0
LINE
  8
_1-0_躯体
  6
CONTINUOUS
 62
    4
 10
133.12756142326572
 20
55.166666666666657
 11
131.46089475659903
 21
53.5
  0
LINE
  8
_1-0_躯体
  6
CONTINUOUS
 62
    4
 10
132.18475238168367
 20
55.166666666666657
 11
130.51808571501698
 21
53.5
  0
LINE
  8
_1-0_躯体
  6
CONTINUOUS
 62
    4
 10
131.24194334010156
 20
55.166666666666657
 11
129.57527667343493
 21
53.5
  0
LINE
  8
_1-0_躯体
  6
CONTINUOUS
 62
    4
 10
130.29913429851956
 20
55.166666666666657
 11
128.63246763185282
 21
53.5
  0
LINE
  8
_1-0_躯体
  6
CONTINUOUS
 62
    4
 10
129.35632525693751
 20
55.166666666666657
 11
127.68965859027082
 21
53.5
  0
LINE
  8
_1-0_躯体
  6
CONTINUOUS
 62
    4
 10
128.41351621535546
 20
55.166666666666657
 11
126.74684954868877
 21
53.5
  0
LINE
  8
_1-0_躯体
  6
CONTINUOUS
 62
    4
 10
127.47070717377335
 20
55.166666666666657
 11
125.80404050710661
 21
53.5
  0
LINE
  8
_1-0_躯体
  6
CONTINUOUS
 62
    4
 10
126.5278981321913
 20
55.166666666666657
 11
124.86123146552461
 21
53.5
  0
LINE
  8
_1-0_躯体
  6
CONTINUOUS
 62
    4
 10
125.58508909060924
 20
55.166666666666657
 11
123.91842242394262
 21
53.5
  0
LINE
  8
_1-0_躯体
  6
CONTINUOUS
 62
    4
 10
124.64228004902714
 20
55.166666666666657
 11
122.97561338236051
 21
53.5
  0
LINE
  8
_1-0_躯体
  6
CONTINUOUS
 62
    4
 10
123.69947100744514
 20
55.166666666666657
 11
122.0328043407784
 21
53.5
  0
LINE
  8
_1-0_躯体
  6
CONTINUOUS
 62
    4
 10
122.75666196586303
 20
55.166666666666657
 11
121.0899952991964
 21
53.5
  0
LINE
  8
_1-0_躯体
  6
CONTINUOUS
 62
    4
 10
121.81385292428092
 20
55.166666666666657
 11
120.14718625761429
 21
53.5
  0
LINE
  8
_1-0_躯体
  6
CONTINUOUS
 62
    4
 10
120.87104388269893
 20
55.166666666666657
 11
119.20437721603219
 21
53.5
  0
LINE
  8
_1-0_躯体
  6
CONTINUOUS
 62
    4
 10
119.92823484111682
 20
55.166666666666657
 11
118.26156817445019
 21
53.5
  0
LINE
  8
_1-0_躯体
  6
CONTINUOUS
 62
    4
 10
118.98542579953482
 20
55.166666666666657
 11
117.31875913286814
 21
53.5
  0
LINE
  8
_1-0_躯体
  6
CONTINUOUS
 62
    4
 10
118.04261675795271
 20
55.166666666666657
 11
116.37595009128609
 21
53.5
  0
LINE
  8
_1-0_躯体
  6
CONTINUOUS
 62
    4
 10
117.09980771637066
 20
55.166666666666657
 11
115.43314104970398
 21
53.5
  0
LINE
  8
_1-0_躯体
  6
CONTINUOUS
 62
    4
 10
116.15699867478861
 20
55.166666666666657
 11
114.49033200812192
 21
53.5
  0
LINE
  8
_1-0_躯体
  6
CONTINUOUS
 62
    4
 10
115.21418963320656
 20
55.166666666666657
 11
113.54752296653987
 21
53.5
  0
LINE
  8
_1-0_躯体
  6
CONTINUOUS
 62
    4
 10
114.27138059162451
 20
55.166666666666657
 11
112.60471392495782
 21
53.5
  0
LINE
  8
_1-0_躯体
  6
CONTINUOUS
 62
    4
 10
113.3285715500424
 20
55.166666666666657
 11
111.66190488337577
 21
53.5
  0
LINE
  8
_1-0_躯体
  6
CONTINUOUS
 62
    4
 10
112.38576250846035
 20
55.166666666666657
 11
110.71909584179366
 21
53.5
  0
LINE
  8
_1-0_躯体
  6
CONTINUOUS
 62
    4
 10
111.44295346687829
 20
55.166666666666657
 11
109.77628680021161
 21
53.5
  0
LINE
  8
_1-0_躯体
  6
CONTINUOUS
 62
    4
 10
110.50014442529618
 20
55.166666666666657
 11
108.83347775862956
 21
53.5
  0
LINE
  8
_1-0_躯体
  6
CONTINUOUS
 62
    4
 10
109.55733538371419
 20
55.166666666666657
 11
108.33333333333331
 21
53.942664616285811
  0
LINE
  8
_1-0_躯体
  6
CONTINUOUS
 62
    4
 10
108.61452634213208
 20
55.166666666666657
 11
108.33333333333331
 21
54.885473657867863
  0
ENDBLK
  0
BLOCK
  2
-014-_10_
 70
   64
 10
0
 20
0
 30
0
  0
LINE
  8
_1-8_小物
  6
CONTINUOUS
 62
    4
 10
121.80275833333326
 20
41.906724999999881
 11
121.83764833333282
 21
41.24097166666661
  0
LINE
  8
_1-8_小物
  6
CONTINUOUS
 62
    4
 10
121.75042166666628
 20
42.905354999999872
 11
121.10211499999969
 21
42.53758833333319
  0
LINE
  8
_1-8_小物
  6
CONTINUOUS
 62
    4
 10
121.10211499999969
 20
42.53758833333319
 11
121.13700499999987
 21
41.871834999999919
  0
LINE
  8
_1-8_小物
  6
CONTINUOUS
 62
    4
 10
121.13700499999987
 20
41.871834999999919
 11
121.80275833333326
 21
41.906724999999881
  0
LINE
  8
_1-8_小物
  6
CONTINUOUS
 62
    4
 10
121.71553166666638
 20
43.571108333333314
 11
121.75042166666628
 21
42.905354999999872
  0
LINE
  8
_1-8_小物
  6
CONTINUOUS
 62
    4
 10
121.66319499999975
 20
44.569736666666643
 11
121.01488833333281
 21
44.201969999999676
  0
LINE
  8
_1-8_小物
  6
CONTINUOUS
 62
    4
 10
121.01488833333281
 20
44.201969999999676
 11
121.04977833333305
 21
43.536216666666633
  0
LINE
  8
_1-8_小物
  6
CONTINUOUS
 62
    4
 10
121.04977833333305
 20
43.536216666666633
 11
121.71553166666638
 21
43.571108333333314
  0
LINE
  8
_1-8_小物
  6
CONTINUOUS
 62
    4
 10
121.62830499999956
 20
45.235490000000027
 11
121.66319499999975
 21
44.569736666666643
  0
LINE
  8
_1-8_小物
  6
CONTINUOUS
 62
    4
 10
121.57596833333321
 20
46.234119999999677
 11
120.92766166666661
 21
45.866353333333336
  0
LINE
  8
_1-8_小物
  6
CONTINUOUS
 62
    4
 10
120.92766166666661
 20
45.866353333333336
 11
120.96255166666617
 21
45.200599999999952
  0
LINE
  8
_1-8_小物
  6
CONTINUOUS
 62
    4
 10
120.96255166666617
 20
45.200599999999952
 11
121.62830499999956
 21
45.235490000000027
  0
LINE
  8
_1-8_小物
  6
CONTINUOUS
 62
    4
 10
121.54107833333302
 20
46.899873333333289
 11
121.57596833333321
 21
46.234119999999677
  0
LINE
  8
_1-8_小物
  6
CONTINUOUS
 62
    4
 10
121.48874166666639
 20
47.898503333333338
 11
120.84043499999973
 21
47.530734999999879
  0
LINE
  8
_1-8_小物
  6
CONTINUOUS
 62
    4
 10
120.84043499999973
 20
47.530734999999879
 11
120.87532499999963
 21
46.864981666666608
  0
LINE
  8
_1-8_小物
  6
CONTINUOUS
 62
    4
 10
120.87532499999963
 20
46.864981666666608
 11
121.54107833333302
 21
46.899873333333289
  0
LINE
  8
_1-8_小物
  6
CONTINUOUS
 62
    4
 10
121.45385166666648
 20
48.564254999999832
 11
121.48874166666639
 21
47.898503333333338
  0
LINE
  8
_1-8_小物
  6
CONTINUOUS
 62
    4
 10
120.75320833333291
 20
49.195118333333141
 11
120.7880983333331
 21
48.529364999999871
  0
LINE
  8
_1-8_小物
  6
CONTINUOUS
 62
    4
 10
120.7880983333331
 20
48.529364999999871
 11
121.45385166666648
 21
48.564254999999832
  0
LINE
  8
_1-8_小物
  6
CONTINUOUS
 62
    4
 10
121.33333333333303
 20
49.5
 11
120.75320833333291
 21
49.195118333333141
  0
LINE
  8
_1-8_小物
  6
CONTINUOUS
 62
    4
 10
118.1972416666664
 20
41.906724999999881
 11
118.1623516666665
 21
41.24097166666661
  0
LINE
  8
_1-8_小物
  6
CONTINUOUS
 62
    4
 10
118.24957833333303
 20
42.905354999999872
 11
118.89788499999969
 21
42.53758833333319
  0
LINE
  8
_1-8_小物
  6
CONTINUOUS
 62
    4
 10
118.89788499999969
 20
42.53758833333319
 11
118.8629949999995
 21
41.871834999999919
  0
LINE
  8
_1-8_小物
  6
CONTINUOUS
 62
    4
 10
118.8629949999995
 20
41.871834999999919
 11
118.1972416666664
 21
41.906724999999881
  0
LINE
  8
_1-8_小物
  6
CONTINUOUS
 62
    4
 10
118.28446833333328
 20
43.571108333333314
 11
118.24957833333303
 21
42.905354999999872
  0
LINE
  8
_1-8_小物
  6
CONTINUOUS
 62
    4
 10
118.33680499999957
 20
44.569736666666643
 11
118.98511166666623
 21
44.201969999999676
  0
LINE
  8
_1-8_小物
  6
CONTINUOUS
 62
    4
 10
118.98511166666623
 20
44.201969999999676
 11
118.95022166666661
 21
43.536216666666633
  0
LINE
  8
_1-8_小物
  6
CONTINUOUS
 62
    4
 10
118.95022166666661
 20
43.536216666666633
 11
118.28446833333328
 21
43.571108333333314
  0
LINE
  8
_1-8_小物
  6
CONTINUOUS
 62
    4
 10
118.37169499999948
 20
45.235490000000027
 11
118.33680499999957
 21
44.569736666666643
  0
LINE
  8
_1-8_小物
  6
CONTINUOUS
 62
    4
 10
118.42403166666611
 20
46.234119999999677
 11
119.07233833333305
 21
45.866353333333336
  0
LINE
  8
_1-8_小物
  6
CONTINUOUS
 62
    4
 10
119.07233833333305
 20
45.866353333333336
 11
119.03744833333315
 21
45.200599999999952
  0
LINE
  8
_1-8_小物
  6
CONTINUOUS
 62
    4
 10
119.03744833333315
 20
45.200599999999952
 11
118.37169499999948
 21
45.235490000000027
  0
LINE
  8
_1-8_小物
  6
CONTINUOUS
 62
    4
 10
118.45892166666636
 20
46.899873333333289
 11
118.42403166666611
 21
46.234119999999677
  0
LINE
  8
_1-8_小物
  6
CONTINUOUS
 62
    4
 10
118.51125833333327
 20
47.898503333333338
 11
119.15956499999993
 21
47.530734999999879
  0
LINE
  8
_1-8_小物
  6
CONTINUOUS
 62
    4
 10
119.15956499999993
 20
47.530734999999879
 11
119.12467499999968
 21
46.864981666666608
  0
LINE
  8
_1-8_小物
  6
CONTINUOUS
 62
    4
 10
119.12467499999968
 20
46.864981666666608
 11
118.45892166666636
 21
46.899873333333289
  0
LINE
  8
_1-8_小物
  6
CONTINUOUS
 62
    4
 10
118.54614833333289
 20
48.564254999999832
 11
118.51125833333327
 21
47.898503333333338
  0
LINE
  8
_1-8_小物
  6
CONTINUOUS
 62
    4
 10
119.24679166666647
 20
49.195118333333141
 11
119.21190166666622
 21
48.529364999999871
  0
LINE
  8
_1-8_小物
  6
CONTINUOUS
 62
    4
 10
119.21190166666622
 20
48.529364999999871
 11
118.54614833333289
 21
48.564254999999832
  0
LINE
  8
_1-8_小物
  6
CONTINUOUS
 62
    4
 10
119.98023166666644
 20
41.519768333333161
 11
120.62479833333293
 21
42.091658333333271
  0
LINE
  8
_1-8_小物
  6
CONTINUOUS
 62
    4
 10
119.37685166666625
 20
42.123146666666628
 11
120
 21
41.499999999999829
  0
LINE
  8
_1-8_小物
  6
CONTINUOUS
 62
    4
 10
118.66666666666663
 20
49.5
 11
119.24679166666647
 21
49.195118333333141
  0
LINE
  8
_1-8_小物
  6
CONTINUOUS
 62
    4
 10
121.54107833333302
 20
46.899873333333289
 11
122.10619999999955
 21
48.452533333333122
  0
LINE
  8
_1-8_小物
  6
CONTINUOUS
 62
    4
 10
121.18635166666655
 20
46.899873333333289
 11
121.7929699999998
 21
48.566539999999861
  0
LINE
  8
_1-8_小物
  6
CONTINUOUS
 62
    4
 10
118.45892166666636
 20
46.899873333333289
 11
117.89379999999983
 21
48.452533333333122
  0
LINE
  8
_1-8_小物
  6
CONTINUOUS
 62
    4
 10
118.81364833333282
 20
46.899873333333289
 11
118.20702999999958
 21
48.566539999999861
  0
LINE
  8
_1-8_小物
  6
CONTINUOUS
 62
    4
 10
120.67258166666636
 20
41.179913333333161
 11
121.83764833333282
 21
41.24097166666661
  0
LINE
  8
_1-8_小物
  6
CONTINUOUS
 62
    4
 10
121.83764833333282
 20
41.24097166666661
 11
121.20678666666629
 21
40.540328333333321
  0
LINE
  8
_1-8_小物
  6
CONTINUOUS
 62
    4
 10
121.20678666666629
 20
40.540328333333321
 11
120.70747166666661
 21
40.514159999999777
  0
LINE
  8
_1-8_小物
  6
CONTINUOUS
 62
    4
 10
120.70747166666661
 20
40.514159999999777
 11
120.16666666666663
 21
50.833333333333087
  0
LINE
  8
_1-8_小物
  6
CONTINUOUS
 62
    4
 10
121.33333333333303
 20
49.5
 11
121.33333333333303
 21
50.833333333333087
  0
LINE
  8
_1-8_小物
  6
CONTINUOUS
 62
    4
 10
119.32741833333296
 20
41.179913333333161
 11
118.1623516666665
 21
41.24097166666661
  0
LINE
  8
_1-8_小物
  6
CONTINUOUS
 62
    4
 10
118.1623516666665
 20
41.24097166666661
 11
118.79321333333303
 21
40.540328333333321
  0
LINE
  8
_1-8_小物
  6
CONTINUOUS
 62
    4
 10
118.79321333333303
 20
40.540328333333321
 11
119.29252833333305
 21
40.514159999999777
  0
LINE
  8
_1-8_小物
  6
CONTINUOUS
 62
    4
 10
119.29252833333305
 20
40.514159999999777
 11
119.83333333333303
 21
50.833333333333087
  0
LINE
  8
_1-8_小物
  6
CONTINUOUS
 62
    4
 10
118.66666666666663
 20
49.5
 11
118.66666666666663
 21
50.833333333333087
  0
LINE
  8
_1-8_小物
  6
CONTINUOUS
 62
    4
 10
117.89379999999983
 20
48.452533333333122
 11
117.56301499999972
 21
50.720406666666804
  0
ARC
  8
_1-8_小物
  6
CONTINUOUS
 62
    4
 10
117.69495166666638
 20
50.739651666666589
 40
0.1333333333333333
 50
98.130101999964168
 51
188.29846599999718
  0
LINE
  8
_1-8_小物
  6
CONTINUOUS
 62
    4
 10
117.67609499999946
 20
50.871644999999944
 11
117.74170333333313
 21
50.88101666666671
  0
ARC
  8
_1-8_小物
  6
CONTINUOUS
 62
    4
 10
117.76056
 20
50.749023333333298
 40
0.1333333333333333
 50
8.1301020000159863
 51
98.13010200021462
  0
LINE
  8
_1-8_小物
  6
CONTINUOUS
 62
    4
 10
117.89255333333313
 20
50.767879999999877
 11
118.20702999999958
 21
48.566539999999861
  0
LINE
  8
_1-8_小物
  6
CONTINUOUS
 62
    4
 10
122.10619999999955
 20
48.452533333333122
 11
122.43698499999965
 21
50.720406666666804
  0
ARC
  8
_1-8_小物
  6
CONTINUOUS
 62
    4
 10
122.30504833333299
 20
50.739651666666589
 40
0.1333333333333333
 50
351.70153399996303
 51
81.869898000035846
  0
LINE
  8
_1-8_小物
  6
CONTINUOUS
 62
    4
 10
122.32390333333296
 20
50.871644999999944
 11
122.25829666666624
 21
50.88101666666671
  0
ARC
  8
_1-8_小物
  6
CONTINUOUS
 62
    4
 10
122.23943999999995
 20
50.749023333333298
 40
0.1333333333333333
 50
81.869898000058299
 51
171.86989800000819
  0
LINE
  8
_1-8_小物
  6
CONTINUOUS
 62
    4
 10
122.10744666666625
 20
50.767879999999877
 11
121.7929699999998
 21
48.566539999999861
  0
LINE
  8
_1-8_小物
  6
CONTINUOUS
 62
    4
 10
122.10619999999955
 20
48.452533333333122
 11
122.43698499999965
 21
50.720406666666804
  0
ARC
  8
_1-8_小物
  6
CONTINUOUS
 62
    4
 10
122.30504833333299
 20
50.739651666666589
 40
0.1333333333333333
 50
351.70153399996303
 51
81.869898000035846
  0
LINE
  8
_1-8_小物
  6
CONTINUOUS
 62
    4
 10
122.32390333333296
 20
50.871644999999944
 11
122.25829666666624
 21
50.88101666666671
  0
ARC
  8
_1-8_小物
  6
CONTINUOUS
 62
    4
 10
122.23943999999995
 20
50.749023333333298
 40
0.1333333333333333
 50
81.869898000058299
 51
171.86989800000819
  0
LINE
  8
_1-8_小物
  6
CONTINUOUS
 62
    4
 10
122.10744666666625
 20
50.767879999999877
 11
121.7929699999998
 21
48.566539999999861
  0
LINE
  8
_1-8_小物
  6
CONTINUOUS
 62
    4
 10
121.66666666666663
 20
53.5
 11
121.33333333333303
 21
51.833333333333314
  0
LINE
  8
_1-8_小物
  6
CONTINUOUS
 62
    4
 10
121.33333333333303
 20
53.5
 11
121.33333333333303
 21
50.833333333333087
  0
LINE
  8
_1-8_小物
  6
CONTINUOUS
 62
    4
 10
120.16666666666663
 20
50.833333333333087
 11
120
 21
50.833333333333087
  0
LINE
  8
_1-8_小物
  6
CONTINUOUS
 62
    4
 10
120
 20
51.833333333333314
 11
120
 21
53.5
  0
LINE
  8
_1-8_小物
  6
CONTINUOUS
 62
    4
 10
120.33333333333303
 20
53.5
 11
120
 21
51.833333333333314
  0
LINE
  8
_1-8_小物
  6
CONTINUOUS
 62
    4
 10
119.66666666666634
 20
53.5
 11
120
 21
51.833333333333314
  0
LINE
  8
_1-8_小物
  6
CONTINUOUS
 62
    4
 10
118.33333333333331
 20
53.5
 11
118.66666666666663
 21
51.833333333333314
  0
LINE
  8
_1-8_小物
  6
CONTINUOUS
 62
    4
 10
118.66666666666663
 20
53.5
 11
118.66666666666663
 21
50.833333333333087
  0
LINE
  8
_1-8_小物
  6
CONTINUOUS
 62
    4
 10
119.83333333333303
 20
50.833333333333087
 11
120
 21
50.833333333333087
  0
LINE
  8
_1-8_小物
  6
CONTINUOUS
 62
    4
 10
121.66666666666663
 20
53.5
 11
118.33333333333331
 21
53.5
  0
ENDBLK
  0
BLOCK
  2
-015-_11_
 70
   64
 10
0
 20
0
 30
0
  0
LINE
  8
_1-4_フレ__ム
  6
CONTINUOUS
 62
    4
 10
108.49999999999977
 20
61.100000000000051
 11
108.33333333333326
 21
60.433333333333394
  0
LINE
  8
_1-4_フレ__ム
  6
CONTINUOUS
 62
    4
 10
108.33333333333326
 20
61.100000000000051
 11
108.49999999999977
 21
61.100000000000051
  0
LINE
  8
_1-4_フレ__ム
  6
CONTINUOUS
 62
    4
 10
108.33333333333326
 20
62.100000000000051
 11
108.33333333333326
 21
61.100000000000051
  0
ARC
  8
_1-4_フレ__ム
  6
CONTINUOUS
 62
    4
 10
108.83333333333314
 20
62.100000000000051
 40
0.5
 50
0
 51
180
  0
LINE
  8
_1-4_フレ__ム
  6
CONTINUOUS
 62
    4
 10
109.33333333333309
 20
61.100000000000051
 11
109.33333333333309
 21
62.100000000000051
  0
LINE
  8
_1-4_フレ__ム
  6
CONTINUOUS
 62
    4
 10
109.16666666666657
 20
61.100000000000051
 11
109.33333333333309
 21
61.100000000000051
  0
LINE
  8
_1-4_フレ__ム
  6
CONTINUOUS
 62
    4
 10
109.33333333333309
 20
60.433333333333394
 11
109.16666666666657
 21
61.100000000000051
  0
ARC
  8
_1-4_フレ__ム
  6
CONTINUOUS
 62
    4
 10
130.83333333333354
 20
62.5
 40
0.3333333333333333
 50
0
 51
90
  0
LINE
  8
_1-4_フレ__ム
  6
CONTINUOUS
 62
    4
 10
127.6666666666668
 20
62.833333333333286
 11
130.83333333333354
 21
62.833333333333286
  0
ARC
  8
_1-4_フレ__ム
  6
CONTINUOUS
 62
    4
 10
127.6666666666668
 20
63.5
 40
0.6666666666666666
 50
180
 51
270
  0
LINE
  8
_1-4_フレ__ム
  6
CONTINUOUS
 62
    4
 10
129.40000000000009
 20
63.666666666666657
 11
128.16666666666674
 21
63.666666666666657
  0
LINE
  8
_1-4_フレ__ム
  6
CONTINUOUS
 62
    4
 10
129.50000000000023
 20
63.566666666666606
 11
129.40000000000009
 21
63.666666666666657
  0
LINE
  8
_1-4_フレ__ム
  6
CONTINUOUS
 62
    4
 10
129.60000000000025
 20
63.666666666666657
 11
129.50000000000023
 21
63.566666666666606
  0
LINE
  8
_1-4_フレ__ム
  6
CONTINUOUS
 62
    4
 10
130.83333333333354
 20
63.666666666666657
 11
129.60000000000025
 21
63.666666666666657
  0
ARC
  8
_1-4_フレ__ム
  6
CONTINUOUS
 62
    4
 10
132.16666666666686
 20
62.666666666666657
 40
0.1666666666666666
 50
180
 51
270
  0
ARC
  8
_1-4_フレ__ム
  6
CONTINUOUS
 62
    4
 10
133.08333333333348
 20
64.75
 40
0.25
 50
0
 51
180
  0
LINE
  8
_1-4_フレ__ム
  6
CONTINUOUS
 62
    4
 10
133.33333333333354
 20
62.166666666666657
 11
133.33333333333354
 21
64.75
  0
ARC
  8
_1-4_フレ__ム
  6
CONTINUOUS
 62
    4
 10
133.16666666666674
 20
62.166666666666657
 40
0.1666666666666666
 50
270
 51
0
  0
LINE
  8
_1-4_フレ__ム
  6
CONTINUOUS
 62
    4
 10
132.33333333333337
 20
62
 11
133.16666666666674
 21
62
  0
ARC
  8
_1-4_フレ__ム
  6
CONTINUOUS
 62
    4
 10
132.33333333333337
 20
61.666666666666657
 40
0.3333333333333333
 50
90
 51
180
  0
ARC
  8
_1-4_フレ__ム
  6
CONTINUOUS
 62
    4
 10
108.66666666666657
 20
55.833333333333286
 40
0.3333333333333333
 50
180
 51
270
  0
ARC
  8
_1-4_フレ__ム
  6
CONTINUOUS
 62
    4
 10
130.50000000000023
 20
57
 40
0.6666666666666666
 50
270
 51
0
  0
LINE
  8
_1-4_フレ__ム
  6
CONTINUOUS
 62
    4
 10
108.66666666666657
 20
55.5
 11
132.00000000000023
 21
55.5
  0
ARC
  8
_1-4_フレ__ム
  6
CONTINUOUS
 62
    4
 10
110.33333333333326
 20
57.333333333333286
 40
1
 50
180
 51
270
  0
LINE
  8
_1-4_フレ__ム
  6
CONTINUOUS
 62
    4
 10
120.00000000000023
 20
56.233333333333263
 11
119.89999999999998
 21
56.333333333333286
  0
LINE
  8
_1-4_フレ__ム
  6
CONTINUOUS
 62
    4
 10
120.0999999999998
 20
56.333333333333286
 11
120.00000000000023
 21
56.233333333333263
  0
LINE
  8
_1-4_フレ__ム
  6
CONTINUOUS
 62
    4
 10
119.89999999999998
 20
56.333333333333286
 11
110.33333333333326
 21
56.333333333333286
  0
LINE
  8
_1-4_フレ__ム
  6
CONTINUOUS
 62
    4
 10
130.50000000000023
 20
56.333333333333286
 11
120.0999999999998
 21
56.333333333333286
  0
LINE
  8
_1-4_フレ__ム
  6
CONTINUOUS
 62
    4
 10
131.16666666666686
 20
62.5
 11
131.16666666666686
 21
57
  0
LINE
  8
_1-4_フレ__ム
  6
CONTINUOUS
 62
    4
 10
132.00000000000023
 20
55.5
 11
132.00000000000023
 21
61.666666666666657
  0
LINE
  8
_1-4_フレ__ム
  6
CONTINUOUS
 62
    4
 10
109.33333333333309
 20
57.333333333333286
 11
109.33333333333309
 21
60.433333333333394
  0
LINE
  8
_1-4_フレ__ム
  6
CONTINUOUS
 62
    4
 10
108.33333333333326
 20
60.433333333333394
 11
108.33333333333326
 21
55.833333333333286
  0
LINE
  8
_1-4_フレ__ム
  6
CONTINUOUS
 62
    4
 10
127.00000000000023
 20
64.166666666666657
 11
127.00000000000023
 21
63.5
  0
LINE
  8
_1-4_フレ__ム
  6
CONTINUOUS
 62
    4
 10
128.16666666666674
 20
64.166666666666657
 11
127.00000000000023
 21
64.166666666666657
  0
LINE
  8
_1-4_フレ__ム
  6
CONTINUOUS
 62
    4
 10
128.16666666666674
 20
63.666666666666657
 11
128.16666666666674
 21
64.166666666666657
  0
LINE
  8
_1-4_フレ__ム
  6
CONTINUOUS
 62
    4
 10
130.83333333333354
 20
64.166666666666657
 11
130.83333333333354
 21
63.666666666666657
  0
LINE
  8
_1-4_フレ__ム
  6
CONTINUOUS
 62
    4
 10
132.00000000000023
 20
64.166666666666657
 11
130.83333333333354
 21
64.166666666666657
  0
LINE
  8
_1-4_フレ__ム
  6
CONTINUOUS
 62
    4
 10
132.00000000000023
 20
62.666666666666657
 11
132.00000000000023
 21
64.166666666666657
  0
LINE
  8
_1-4_フレ__ム
  6
CONTINUOUS
 62
    4
 10
132.83333333333354
 20
64.75
 11
132.83333333333354
 21
62.5
  0
LINE
  8
_1-4_フレ__ム
  6
CONTINUOUS
 62
    4
 10
132.83333333333354
 20
62.5
 11
132.16666666666686
 21
62.5
  0
LINE
  8
_1-4_フレ__ム
  6
CENTER2
 62
    4
 10
129.50000000000023
 20
64.666666666666657
 11
129.50000000000023
 21
61.833333333333286
  0
LINE
  8
_1-4_フレ__ム
  6
CENTER2
 62
    4
 10
120
 20
58
 11
120
 21
53.833333333333286
  0
ENDBLK
  0
BLOCK
  2
-016-_12_
 70
   64
 10
0
 20
0
 30
0
  0
LINE
  8
_1-7_カバ__
  6
CONTINUOUS
 62
    4
 10
132.66666666666657
 20
64.833333333333286
 11
132.33333333333326
 21
65.166666666666657
  0
LINE
  8
_1-7_カバ__
  6
CONTINUOUS
 62
    4
 10
132.66666666666657
 20
63.000000000000028
 11
132.66666666666657
 21
64.833333333333286
  0
ARC
  8
_1-7_カバ__
  6
CONTINUOUS
 62
    4
 10
132.50000000000006
 20
63.000000000000028
 40
0.1666666666666666
 50
270
 51
0
  0
LINE
  8
_1-7_カバ__
  6
CONTINUOUS
 62
    4
 10
132.16666666666657
 20
62.833333333333258
 11
132.50000000000006
 21
62.833333333333258
  0
ARC
  8
_1-7_カバ__
  6
CONTINUOUS
 62
    4
 10
132.16666666666657
 20
63.000000000000028
 40
0.1666666666666666
 50
180
 51
270
  0
LINE
  8
_1-7_カバ__
  6
CONTINUOUS
 62
    4
 10
108.33333333333331
 20
64.666666666666742
 11
108.33333333333331
 21
64.166666666666657
  0
LINE
  8
_1-7_カバ__
  6
CONTINUOUS
 62
    4
 10
108.83333333333326
 20
65.166666666666657
 11
108.33333333333331
 21
64.666666666666742
  0
LINE
  8
_1-7_カバ__
  6
CONTINUOUS
 62
    4
 10
129.5
 20
65.066666666666634
 11
129.40000000000009
 21
65.166666666666657
  0
LINE
  8
_1-7_カバ__
  6
CONTINUOUS
 62
    4
 10
129.60000000000014
 20
65.166666666666657
 11
129.5
 21
65.066666666666634
  0
LINE
  8
_1-7_カバ__
  6
CONTINUOUS
 62
    4
 10
132.33333333333326
 20
65.166666666666657
 11
129.60000000000014
 21
65.166666666666657
  0
LINE
  8
_1-7_カバ__
  6
CONTINUOUS
 62
    4
 10
111.66666666666663
 20
65.166666666666657
 11
108.83333333333326
 21
65.166666666666657
  0
LINE
  8
_1-7_カバ__
  6
CONTINUOUS
 62
    4
 10
113.66666666666674
 20
65.166666666666657
 11
112.66666666666652
 21
65.166666666666657
  0
LINE
  8
_1-7_カバ__
  6
CONTINUOUS
 62
    4
 10
115.66666666666652
 20
65.166666666666657
 11
114.66666666666652
 21
65.166666666666657
  0
LINE
  8
_1-7_カバ__
  6
CONTINUOUS
 62
    4
 10
112.66666666666652
 20
65.066666666666634
 11
111.66666666666663
 21
65.066666666666634
  0
LINE
  8
_1-7_カバ__
  6
CONTINUOUS
 62
    4
 10
114.66666666666652
 20
65.066666666666634
 11
113.66666666666674
 21
65.066666666666634
  0
LINE
  8
_1-7_カバ__
  6
CONTINUOUS
 62
    4
 10
114.66666666666652
 20
65.066666666666634
 11
114.66666666666652
 21
65.166666666666657
  0
LINE
  8
_1-7_カバ__
  6
CONTINUOUS
 62
    4
 10
113.66666666666674
 20
65.066666666666634
 11
113.66666666666674
 21
65.166666666666657
  0
LINE
  8
_1-7_カバ__
  6
CONTINUOUS
 62
    4
 10
112.66666666666652
 20
65.066666666666634
 11
112.66666666666652
 21
65.166666666666657
  0
LINE
  8
_1-7_カバ__
  6
CONTINUOUS
 62
    4
 10
111.66666666666663
 20
65.066666666666634
 11
111.66666666666663
 21
65.166666666666657
  0
LINE
  8
_1-7_カバ__
  6
CONTINUOUS
 62
    4
 10
117.66666666666652
 20
65.166666666666657
 11
116.66666666666663
 21
65.166666666666657
  0
LINE
  8
_1-7_カバ__
  6
CONTINUOUS
 62
    4
 10
119.66666666666652
 20
65.166666666666657
 11
118.66666666666674
 21
65.166666666666657
  0
LINE
  8
_1-7_カバ__
  6
CONTINUOUS
 62
    4
 10
116.66666666666663
 20
65.066666666666634
 11
115.66666666666652
 21
65.066666666666634
  0
LINE
  8
_1-7_カバ__
  6
CONTINUOUS
 62
    4
 10
118.66666666666674
 20
65.066666666666634
 11
117.66666666666652
 21
65.066666666666634
  0
LINE
  8
_1-7_カバ__
  6
CONTINUOUS
 62
    4
 10
118.66666666666674
 20
65.066666666666634
 11
118.66666666666674
 21
65.166666666666657
  0
LINE
  8
_1-7_カバ__
  6
CONTINUOUS
 62
    4
 10
117.66666666666652
 20
65.066666666666634
 11
117.66666666666652
 21
65.166666666666657
  0
LINE
  8
_1-7_カバ__
  6
CONTINUOUS
 62
    4
 10
116.66666666666663
 20
65.066666666666634
 11
116.66666666666663
 21
65.166666666666657
  0
LINE
  8
_1-7_カバ__
  6
CONTINUOUS
 62
    4
 10
115.66666666666652
 20
65.066666666666634
 11
115.66666666666652
 21
65.166666666666657
  0
LINE
  8
_1-7_カバ__
  6
CONTINUOUS
 62
    4
 10
121.6666666666664
 20
65.166666666666657
 11
120.66666666666652
 21
65.166666666666657
  0
LINE
  8
_1-7_カバ__
  6
CONTINUOUS
 62
    4
 10
123.6666666666664
 20
65.166666666666657
 11
122.66666666666652
 21
65.166666666666657
  0
LINE
  8
_1-7_カバ__
  6
CONTINUOUS
 62
    4
 10
120.66666666666652
 20
65.066666666666634
 11
119.66666666666652
 21
65.066666666666634
  0
LINE
  8
_1-7_カバ__
  6
CONTINUOUS
 62
    4
 10
122.66666666666652
 20
65.066666666666634
 11
121.6666666666664
 21
65.066666666666634
  0
LINE
  8
_1-7_カバ__
  6
CONTINUOUS
 62
    4
 10
122.66666666666652
 20
65.066666666666634
 11
122.66666666666652
 21
65.166666666666657
  0
LINE
  8
_1-7_カバ__
  6
CONTINUOUS
 62
    4
 10
121.6666666666664
 20
65.066666666666634
 11
121.6666666666664
 21
65.166666666666657
  0
LINE
  8
_1-7_カバ__
  6
CONTINUOUS
 62
    4
 10
120.66666666666652
 20
65.066666666666634
 11
120.66666666666652
 21
65.166666666666657
  0
LINE
  8
_1-7_カバ__
  6
CONTINUOUS
 62
    4
 10
119.66666666666652
 20
65.066666666666634
 11
119.66666666666652
 21
65.166666666666657
  0
LINE
  8
_1-7_カバ__
  6
CONTINUOUS
 62
    4
 10
125.6666666666664
 20
65.166666666666657
 11
124.66666666666652
 21
65.166666666666657
  0
LINE
  8
_1-7_カバ__
  6
CONTINUOUS
 62
    4
 10
124.66666666666652
 20
65.066666666666634
 11
123.6666666666664
 21
65.066666666666634
  0
LINE
  8
_1-7_カバ__
  6
CONTINUOUS
 62
    4
 10
126.6666666666664
 20
65.066666666666634
 11
125.6666666666664
 21
65.066666666666634
  0
LINE
  8
_1-7_カバ__
  6
CONTINUOUS
 62
    4
 10
126.6666666666664
 20
65.066666666666634
 11
126.6666666666664
 21
65.166666666666657
  0
LINE
  8
_1-7_カバ__
  6
CONTINUOUS
 62
    4
 10
125.6666666666664
 20
65.066666666666634
 11
125.6666666666664
 21
65.166666666666657
  0
LINE
  8
_1-7_カバ__
  6
CONTINUOUS
 62
    4
 10
124.66666666666652
 20
65.066666666666634
 11
124.66666666666652
 21
65.166666666666657
  0
LINE
  8
_1-7_カバ__
  6
CONTINUOUS
 62
    4
 10
123.6666666666664
 20
65.066666666666634
 11
123.6666666666664
 21
65.166666666666657
  0
LINE
  8
_1-7_カバ__
  6
CONTINUOUS
 62
    4
 10
129.40000000000009
 20
65.166666666666657
 11
126.6666666666664
 21
65.166666666666657
  0
LINE
  8
_1-7_カバ__
  6
CONTINUOUS
 62
    4
 10
108.33333333333331
 20
64.166666666666657
 11
132.00000000000006
 21
64.166666666666657
  0
LINE
  8
_1-7_カバ__
  6
CONTINUOUS
 62
    4
 10
132.00000000000006
 20
64.166666666666657
 11
132.00000000000023
 21
63.000000000000028
  0
LINE
  8
_1-7_カバ__
  6
CENTER2
 62
    4
 10
129.50000000000011
 20
66.833333333333314
 11
129.50000000000011
 21
62.5
  0
LINE
  8
_1-7_カバ__
  6
DASHED1
 62
    4
 10
128.58333333333348
 20
64.333333333333286
 11
130.4166666666668
 21
64.333333333333286
  0
LINE
  8
_1-7_カバ__
  6
DASHED1
 62
    4
 10
131.25000000000011
 20
65.166666666666657
 11
130.4166666666668
 21
64.333333333333286
  0
LINE
  8
_1-7_カバ__
  6
DASHED1
 62
    4
 10
127.75000000000011
 20
65.166666666666657
 11
128.58333333333348
 21
64.333333333333286
  0
LINE
  8
_1-7_カバ__
  6
DASHED1
 62
    4
 10
128.58333333333348
 20
64.333333333333286
 11
128.58333333333348
 21
64.166666666666657
  0
LINE
  8
_1-7_カバ__
  6
DASHED1
 62
    4
 10
130.4166666666668
 20
64.333333333333286
 11
130.4166666666668
 21
64.166666666666657
  0
ENDBLK
  0
BLOCK
  2
-017-_13_
 70
   64
 10
0
 20
0
 30
0
  0
LINE
  8
_1-8_小物
  6
CONTINUOUS
 62
    4
 10
123
 20
56.833333333333286
 11
116.99999999999972
 21
56.833333333333286
  0
LINE
  8
_1-8_小物
  6
CONTINUOUS
 62
    4
 10
123
 20
56.333333333333286
 11
116.99999999999972
 21
56.333333333333286
  0
LINE
  8
_1-8_小物
  6
CONTINUOUS
 62
    4
 10
123
 20
56.833333333333286
 11
123
 21
56.333333333333286
  0
LINE
  8
_1-8_小物
  6
CONTINUOUS
 62
    4
 10
116.99999999999972
 20
56.833333333333286
 11
116.99999999999972
 21
56.333333333333286
  0
LINE
  8
_1-8_小物
  6
CONTINUOUS
 62
    4
 10
120.91666666666669
 20
56.833333333333286
 11
120.91666666666669
 21
56.333333333333286
  0
LINE
  8
_1-8_小物
  6
CONTINUOUS
 62
    4
 10
119.08333333333303
 20
56.833333333333286
 11
119.08333333333303
 21
56.333333333333286
  0
LINE
  8
_1-8_小物
  6
CONTINUOUS
 62
    4
 10
121.5
 20
56.833333333333286
 11
121.46369573873318
 21
57.248292938333321
  0
LINE
  8
_1-8_小物
  6
CONTINUOUS
 62
    4
 10
118.53630426123317
 20
57.248292938333321
 11
118.5
 21
56.833333333333286
  0
ARC
  8
_1-8_小物
  6
CONTINUOUS
 62
    4
 10
118.86504851163289
 20
57.219531543233217
 40
0.3299999999999999
 50
127.36755803205445
 51
175.00000000119914
  0
ARC
  8
_1-8_小物
  6
CONTINUOUS
 62
    4
 10
121.13495148836654
 20
57.219531543233217
 40
0.3299999999999999
 50
4.9999999988008561
 51
52.63244196794556
  0
ARC
  8
_1-8_小物
  6
CONTINUOUS
 62
    4
 10
119.99999999999972
 20
55.733333333333263
 40
2.1999999999999997
 50
52.632441967704345
 51
68.266383543397481
  0
ARC
  8
_1-8_小物
  6
CONTINUOUS
 62
    4
 10
119.99999999999972
 20
55.733333333333263
 40
2.1999999999999997
 50
111.74840859090261
 51
127.36755803230515
  0
LINE
  8
_1-8_小物
  6
CONTINUOUS
 62
    4
 10
120.10499999999985
 20
57.919709043200015
 11
120.10499999999985
 21
57.774437413199877
  0
LINE
  8
_1-8_小物
  6
CONTINUOUS
 62
    4
 10
120.22076289396682
 20
57.919709043200015
 11
120.10499999999985
 21
57.919709043200015
  0
LINE
  8
_1-8_小物
  6
CONTINUOUS
 62
    4
 10
120.81416775616646
 20
57.774437413199877
 11
120.22076289396682
 21
57.919709043200015
  0
LINE
  8
_1-8_小物
  6
CONTINUOUS
 62
    4
 10
119.77923710599981
 20
57.919709043200015
 11
119.34593368343303
 21
57.831230436066704
  0
LINE
  8
_1-8_小物
  6
CONTINUOUS
 62
    4
 10
119.34593368343303
 20
57.831230436066704
 11
119.18583224380018
 21
57.774437413199877
  0
LINE
  8
_1-8_小物
  6
CONTINUOUS
 62
    4
 10
119.89499999999981
 20
57.919709043200015
 11
119.77923710599981
 21
57.919709043200015
  0
LINE
  8
_1-8_小物
  6
CONTINUOUS
 62
    4
 10
119.89499999999981
 20
57.774437413199877
 11
119.89499999999981
 21
57.919709043200015
  0
LINE
  8
_1-8_小物
  6
CONTINUOUS
 62
    4
 10
120.10499999999985
 20
57.774437413199877
 11
119.99999999999972
 21
57.776139137999991
  0
LINE
  8
_1-8_小物
  6
CONTINUOUS
 62
    4
 10
119.99999999999972
 20
57.776139137999991
 11
119.89499999999981
 21
57.774437413199877
  0
LINE
  8
_1-8_小物
  6
CONTINUOUS
 62
    4
 10
121.46369573873318
 20
57.248292938333321
 11
118.53630426123317
 21
57.248292938333321
  0
LINE
  8
_1-8_小物
  6
CONTINUOUS
 62
    4
 10
119.99999999999972
 20
57.481801815566683
 11
118.66476295483307
 21
57.481801815566683
  0
LINE
  8
_1-8_小物
  6
CONTINUOUS
 62
    4
 10
121.33523704513328
 20
57.481801815566683
 11
119.99999999999972
 21
57.481801815566683
  0
ENDBLK
  0
BLOCK
  2
-018-$QLE_1_
 70
   64
 10
0
 20
0
 30
0
  0
LINE
  8
_1-f_寸法
  6
CONTINUOUS
 62
    4
 10
126.66666666666663
 20
53.5
 11
129.66506350946111
 21
48.306624327025929
  0
LINE
  8
_1-f_寸法
  6
CONTINUOUS
 62
    4
 10
129.66506350946111
 20
48.306624327025929
 11
168.38506350946102
 21
48.306624327025929
  0
POINT
  8
_1-f_寸法
 62
    4
 10
126.66666666666663
 20
53.5
  0
TEXT
  8
_1-f_寸法
 62
    4
 10
129.9850635094611
 20
48.306624327025929
 40
3.2000000000000002
 41
1
 50
0
  1
ならしモルタル(別途工事)
  0
ENDBLK
  0
BLOCK
  2
-019-_14_
 70
   64
 10
0
 20
0
 30
0
  0
LINE
  8
_1-9_センタ__プレ__ト
  6
CENTER2
 62
    4
 10
-100
 20
61.433332666666843
 11
-100
 21
65.933332666666843
  0
LINE
  8
_1-9_センタ__プレ__ト
  6
CONTINUOUS
 62
    4
 10
-99.500000000000085
 20
64.266666000000157
 11
-100
 21
64.266666000000157
  0
LINE
  8
_1-9_センタ__プレ__ト
  6
CONTINUOUS
 62
    4
 10
-97.5
 20
64.266666000000157
 11
-98.5
 21
64.266666000000157
  0
LINE
  8
_1-9_センタ__プレ__ト
  6
CONTINUOUS
 62
    4
 10
-96.500000000000156
 20
64.166666000000106
 11
-96.500000000000156
 21
64.266666000000157
  0
LINE
  8
_1-9_センタ__プレ__ト
  6
CONTINUOUS
 62
    4
 10
-97.5
 20
64.166666000000106
 11
-97.5
 21
64.266666000000157
  0
LINE
  8
_1-9_センタ__プレ__ト
  6
CONTINUOUS
 62
    4
 10
-98.5
 20
64.166666000000106
 11
-98.5
 21
64.266666000000157
  0
LINE
  8
_1-9_センタ__プレ__ト
  6
CONTINUOUS
 62
    4
 10
-98.5
 20
64.166666000000106
 11
-99.500000000000085
 21
64.166666000000106
  0
LINE
  8
_1-9_センタ__プレ__ト
  6
CONTINUOUS
 62
    4
 10
-99.500000000000085
 20
64.166666000000106
 11
-99.500000000000085
 21
64.266666000000157
  0
LINE
  8
_1-9_センタ__プレ__ト
  6
CONTINUOUS
 62
    4
 10
-96.500000000000156
 20
64.166666000000106
 11
-97.5
 21
64.166666000000106
  0
LINE
  8
_1-9_センタ__プレ__ト
  6
CONTINUOUS
 62
    4
 10
-95.5
 20
64.266666000000157
 11
-96.500000000000156
 21
64.266666000000157
  0
LINE
  8
_1-9_センタ__プレ__ト
  6
CONTINUOUS
 62
    4
 10
-94.500000000000142
 20
64.166666000000106
 11
-94.500000000000142
 21
64.266666000000157
  0
LINE
  8
_1-9_センタ__プレ__ト
  6
CONTINUOUS
 62
    4
 10
-95.5
 20
64.166666000000106
 11
-95.5
 21
64.266666000000157
  0
LINE
  8
_1-9_センタ__プレ__ト
  6
CONTINUOUS
 62
    4
 10
-94.500000000000142
 20
64.166666000000106
 11
-95.5
 21
64.166666000000106
  0
LINE
  8
_1-9_センタ__プレ__ト
  6
CONTINUOUS
 62
    4
 10
-93.500000000000327
 20
64.266666000000157
 11
-94.500000000000142
 21
64.266666000000157
  0
LINE
  8
_1-9_センタ__プレ__ト
  6
CONTINUOUS
 62
    4
 10
-92.500000000000142
 20
64.166666000000106
 11
-92.500000000000142
 21
64.266666000000157
  0
LINE
  8
_1-9_センタ__プレ__ト
  6
CONTINUOUS
 62
    4
 10
-93.500000000000327
 20
64.166666000000106
 11
-93.500000000000327
 21
64.266666000000157
  0
LINE
  8
_1-9_センタ__プレ__ト
  6
CONTINUOUS
 62
    4
 10
-92.500000000000142
 20
64.166666000000106
 11
-93.500000000000327
 21
64.166666000000106
  0
LINE
  8
_1-9_センタ__プレ__ト
  6
CONTINUOUS
 62
    4
 10
-80.666667666600148
 20
62.400365485111365
 11
-80.666667666600148
 21
60.401471573424516
  0
LINE
  8
_1-9_センタ__プレ__ト
  6
CONTINUOUS
 62
    4
 10
-81.333334333333369
 20
60.401471573424516
 11
-80.666667666600148
 21
60.401471573424516
  0
LINE
  8
_1-9_センタ__プレ__ト
  6
CONTINUOUS
 62
    4
 10
-81.333334333333369
 20
61.401471573424516
 11
-81.333334333333369
 21
60.401471573424516
  0
LINE
  8
_1-9_センタ__プレ__ト
  6
CONTINUOUS
 62
    4
 10
-85.794285189173621
 20
64.266666000000157
 11
-80.666666666666799
 21
62.400365485135694
  0
LINE
  8
_1-9_センタ__プレ__ト
  6
CONTINUOUS
 62
    4
 10
-85.999999999999986
 20
63.0999993333335
 11
-81.333333333333314
 21
61.401471573424516
  0
LINE
  8
_1-9_センタ__プレ__ト
  6
CONTINUOUS
 62
    4
 10
-91.500000000000142
 20
64.266666000000157
 11
-92.500000000000142
 21
64.266666000000157
  0
LINE
  8
_1-9_センタ__プレ__ト
  6
CONTINUOUS
 62
    4
 10
-90.500000000000327
 20
64.166666000000106
 11
-90.500000000000327
 21
64.266666000000157
  0
LINE
  8
_1-9_センタ__プレ__ト
  6
CONTINUOUS
 62
    4
 10
-91.500000000000142
 20
64.166666000000106
 11
-91.500000000000142
 21
64.266666000000157
  0
LINE
  8
_1-9_センタ__プレ__ト
  6
CONTINUOUS
 62
    4
 10
-90.500000000000327
 20
64.166666000000106
 11
-91.500000000000142
 21
64.166666000000106
  0
LINE
  8
_1-9_センタ__プレ__ト
  6
CONTINUOUS
 62
    4
 10
-89.500000000000142
 20
64.266666000000157
 11
-90.500000000000327
 21
64.266666000000157
  0
LINE
  8
_1-9_センタ__プレ__ト
  6
CONTINUOUS
 62
    4
 10
-88.500000000000327
 20
64.166666000000106
 11
-88.500000000000327
 21
64.266666000000157
  0
LINE
  8
_1-9_センタ__プレ__ト
  6
CONTINUOUS
 62
    4
 10
-89.500000000000142
 20
64.166666000000106
 11
-89.500000000000142
 21
64.266666000000157
  0
LINE
  8
_1-9_センタ__プレ__ト
  6
CONTINUOUS
 62
    4
 10
-88.500000000000327
 20
64.166666000000106
 11
-89.500000000000142
 21
64.166666000000106
  0
LINE
  8
_1-9_センタ__プレ__ト
  6
CONTINUOUS
 62
    4
 10
-85.794285189173621
 20
64.266666000000157
 11
-88.500000000000327
 21
64.266666000000157
  0
LINE
  8
_1-9_センタ__プレ__ト
  6
CONTINUOUS
 62
    4
 10
-100.5
 20
64.266666000000157
 11
-100
 21
64.266666000000157
  0
LINE
  8
_1-9_センタ__プレ__ト
  6
CONTINUOUS
 62
    4
 10
-102.5
 20
64.266666000000157
 11
-101.50000000000016
 21
64.266666000000157
  0
LINE
  8
_1-9_センタ__プレ__ト
  6
CONTINUOUS
 62
    4
 10
-103.5
 20
64.166666000000106
 11
-103.5
 21
64.266666000000157
  0
LINE
  8
_1-9_センタ__プレ__ト
  6
CONTINUOUS
 62
    4
 10
-102.5
 20
64.166666000000106
 11
-102.5
 21
64.266666000000157
  0
LINE
  8
_1-9_センタ__プレ__ト
  6
CONTINUOUS
 62
    4
 10
-101.50000000000016
 20
64.166666000000106
 11
-101.50000000000016
 21
64.266666000000157
  0
LINE
  8
_1-9_センタ__プレ__ト
  6
CONTINUOUS
 62
    4
 10
-101.50000000000016
 20
64.166666000000106
 11
-100.5
 21
64.166666000000106
  0
LINE
  8
_1-9_センタ__プレ__ト
  6
CONTINUOUS
 62
    4
 10
-100.5
 20
64.166666000000106
 11
-100.5
 21
64.266666000000157
  0
LINE
  8
_1-9_センタ__プレ__ト
  6
CONTINUOUS
 62
    4
 10
-103.5
 20
64.166666000000106
 11
-102.5
 21
64.166666000000106
  0
LINE
  8
_1-9_センタ__プレ__ト
  6
CONTINUOUS
 62
    4
 10
-104.50000000000009
 20
64.266666000000157
 11
-103.5
 21
64.266666000000157
  0
LINE
  8
_1-9_センタ__プレ__ト
  6
CONTINUOUS
 62
    4
 10
-105.5
 20
64.166666000000106
 11
-105.5
 21
64.266666000000157
  0
LINE
  8
_1-9_センタ__プレ__ト
  6
CONTINUOUS
 62
    4
 10
-104.50000000000009
 20
64.166666000000106
 11
-104.50000000000009
 21
64.266666000000157
  0
LINE
  8
_1-9_センタ__プレ__ト
  6
CONTINUOUS
 62
    4
 10
-105.5
 20
64.166666000000106
 11
-104.50000000000009
 21
64.166666000000106
  0
LINE
  8
_1-9_センタ__プレ__ト
  6
CONTINUOUS
 62
    4
 10
-106.50000000000016
 20
64.266666000000157
 11
-105.5
 21
64.266666000000157
  0
LINE
  8
_1-9_センタ__プレ__ト
  6
CONTINUOUS
 62
    4
 10
-107.5
 20
64.166666000000106
 11
-107.5
 21
64.266666000000157
  0
LINE
  8
_1-9_センタ__プレ__ト
  6
CONTINUOUS
 62
    4
 10
-106.50000000000016
 20
64.166666000000106
 11
-106.50000000000016
 21
64.266666000000157
  0
LINE
  8
_1-9_センタ__プレ__ト
  6
CONTINUOUS
 62
    4
 10
-107.5
 20
64.166666000000106
 11
-106.50000000000016
 21
64.166666000000106
  0
LINE
  8
_1-9_センタ__プレ__ト
  6
CONTINUOUS
 62
    4
 10
-119.33333233339999
 20
62.400365485111365
 11
-119.33333233339999
 21
60.401471573424516
  0
LINE
  8
_1-9_センタ__プレ__ト
  6
CONTINUOUS
 62
    4
 10
-118.66666566666669
 20
60.401471573424516
 11
-119.33333233339999
 21
60.401471573424516
  0
LINE
  8
_1-9_センタ__プレ__ト
  6
CONTINUOUS
 62
    4
 10
-118.66666566666669
 20
61.401471573424516
 11
-118.66666566666669
 21
60.401471573424516
  0
LINE
  8
_1-9_センタ__プレ__ト
  6
CONTINUOUS
 62
    4
 10
-114.20571481082675
 20
64.266666000000157
 11
-119.33333333333331
 21
62.400365485135694
  0
LINE
  8
_1-9_センタ__プレ__ト
  6
CONTINUOUS
 62
    4
 10
-114.00000000000016
 20
63.0999993333335
 11
-118.66666666666674
 21
61.401471573424516
  0
LINE
  8
_1-9_センタ__プレ__ト
  6
CONTINUOUS
 62
    4
 10
-108.5
 20
64.266666000000157
 11
-107.5
 21
64.266666000000157
  0
LINE
  8
_1-9_センタ__プレ__ト
  6
CONTINUOUS
 62
    4
 10
-109.50000000000006
 20
64.166666000000106
 11
-109.50000000000006
 21
64.266666000000157
  0
LINE
  8
_1-9_センタ__プレ__ト
  6
CONTINUOUS
 62
    4
 10
-108.5
 20
64.166666000000106
 11
-108.5
 21
64.266666000000157
  0
LINE
  8
_1-9_センタ__プレ__ト
  6
CONTINUOUS
 62
    4
 10
-109.50000000000006
 20
64.166666000000106
 11
-108.5
 21
64.166666000000106
  0
LINE
  8
_1-9_センタ__プレ__ト
  6
CONTINUOUS
 62
    4
 10
-110.5
 20
64.266666000000157
 11
-109.50000000000006
 21
64.266666000000157
  0
LINE
  8
_1-9_センタ__プレ__ト
  6
CONTINUOUS
 62
    4
 10
-111.50000000000016
 20
64.166666000000106
 11
-111.50000000000016
 21
64.266666000000157
  0
LINE
  8
_1-9_センタ__プレ__ト
  6
CONTINUOUS
 62
    4
 10
-110.5
 20
64.166666000000106
 11
-110.5
 21
64.266666000000157
  0
LINE
  8
_1-9_センタ__プレ__ト
  6
CONTINUOUS
 62
    4
 10
-111.50000000000016
 20
64.166666000000106
 11
-110.5
 21
64.166666000000106
  0
LINE
  8
_1-9_センタ__プレ__ト
  6
CONTINUOUS
 62
    4
 10
-114.20571481082675
 20
64.266666000000157
 11
-111.50000000000016
 21
64.266666000000157
  0
LINE
  8
_1-9_センタ__プレ__ト
  6
CONTINUOUS
 62
    4
 10
-114.00000000000016
 20
63.0999993333335
 11
-85.999999999999986
 21
63.0999993333335
  0
ENDBLK
  0
BLOCK
  2
-020-_15_
 70
   64
 10
0
 20
0
 30
0
  0
LINE
  8
_1-8_小物
  6
CONTINUOUS
 62
    4
 10
131.16666666666669
 20
65.166666666666657
 11
127.83333333333348
 21
65.166666666666657
  0
LINE
  8
_1-8_小物
  6
CONTINUOUS
 62
    4
 10
129.50000000000011
 20
59.833333333333314
 11
128.81666666666678
 21
60.227856017279578
  0
LINE
  8
_1-8_小物
  6
CONTINUOUS
 62
    4
 10
129.50000000000011
 20
59.833333333333314
 11
130.18333333333339
 21
60.227856017279578
  0
LINE
  8
_1-8_小物
  6
CONTINUOUS
 62
    4
 10
130.09666666666681
 20
62.902460573114269
 11
130.30000000000018
 21
62.785065859669317
  0
LINE
  8
_1-8_小物
  6
CONTINUOUS
 62
    4
 10
130.30000000000018
 20
62.785065859669317
 11
130.09666666666681
 21
62.667671146224336
  0
LINE
  8
_1-8_小物
  6
CONTINUOUS
 62
    4
 10
128.90333333333336
 20
62.233333333333348
 11
128.69999999999999
 21
62.3507280467783
  0
LINE
  8
_1-8_小物
  6
CONTINUOUS
 62
    4
 10
128.69999999999999
 20
62.3507280467783
 11
128.90333333333336
 21
62.468122760223252
  0
LINE
  8
_1-8_小物
  6
CONTINUOUS
 62
    4
 10
128.90333333333336
 20
62.468122760223252
 11
130.09666666666681
 21
62.902460573114269
  0
LINE
  8
_1-8_小物
  6
CONTINUOUS
 62
    4
 10
128.90333333333336
 20
62.233333333333348
 11
130.09666666666681
 21
62.667671146224336
  0
LINE
  8
_1-8_小物
  6
CONTINUOUS
 62
    4
 10
130.30000000000018
 20
62.785065859669317
 11
128.69999999999999
 21
62.3507280467783
  0
LINE
  8
_1-8_小物
  6
CONTINUOUS
 62
    4
 10
130.09666666666681
 20
63.402460573114269
 11
130.30000000000018
 21
63.285065859669317
  0
LINE
  8
_1-8_小物
  6
CONTINUOUS
 62
    4
 10
130.30000000000018
 20
63.285065859669317
 11
130.09666666666681
 21
63.167671146224336
  0
LINE
  8
_1-8_小物
  6
CONTINUOUS
 62
    4
 10
128.90333333333336
 20
62.733333333333348
 11
128.69999999999999
 21
62.8507280467783
  0
LINE
  8
_1-8_小物
  6
CONTINUOUS
 62
    4
 10
128.69999999999999
 20
62.8507280467783
 11
128.90333333333336
 21
62.968122760223252
  0
LINE
  8
_1-8_小物
  6
CONTINUOUS
 62
    4
 10
128.90333333333336
 20
62.968122760223252
 11
130.09666666666681
 21
63.402460573114269
  0
LINE
  8
_1-8_小物
  6
CONTINUOUS
 62
    4
 10
128.90333333333336
 20
62.733333333333348
 11
130.09666666666681
 21
63.167671146224336
  0
LINE
  8
_1-8_小物
  6
CONTINUOUS
 62
    4
 10
130.30000000000018
 20
63.285065859669317
 11
128.69999999999999
 21
62.8507280467783
  0
LINE
  8
_1-8_小物
  6
CONTINUOUS
 62
    4
 10
130.09666666666681
 20
63.902460573114269
 11
130.30000000000018
 21
63.785065859669317
  0
LINE
  8
_1-8_小物
  6
CONTINUOUS
 62
    4
 10
130.30000000000018
 20
63.785065859669317
 11
130.09666666666681
 21
63.667671146224336
  0
LINE
  8
_1-8_小物
  6
CONTINUOUS
 62
    4
 10
128.90333333333336
 20
63.233333333333348
 11
128.69999999999999
 21
63.3507280467783
  0
LINE
  8
_1-8_小物
  6
CONTINUOUS
 62
    4
 10
128.69999999999999
 20
63.3507280467783
 11
128.90333333333336
 21
63.468122760223252
  0
LINE
  8
_1-8_小物
  6
CONTINUOUS
 62
    4
 10
128.90333333333336
 20
63.468122760223252
 11
130.09666666666681
 21
63.902460573114269
  0
LINE
  8
_1-8_小物
  6
CONTINUOUS
 62
    4
 10
128.90333333333336
 20
63.233333333333348
 11
130.09666666666681
 21
63.667671146224336
  0
LINE
  8
_1-8_小物
  6
CONTINUOUS
 62
    4
 10
130.30000000000018
 20
63.785065859669317
 11
128.69999999999999
 21
63.3507280467783
  0
LINE
  8
_1-8_小物
  6
CONTINUOUS
 62
    4
 10
128.90333333333336
 20
63.733333333333348
 11
128.69999999999999
 21
63.8507280467783
  0
LINE
  8
_1-8_小物
  6
CONTINUOUS
 62
    4
 10
128.69999999999999
 20
63.8507280467783
 11
128.90333333333336
 21
63.968122760223252
  0
LINE
  8
_1-8_小物
  6
CONTINUOUS
 62
    4
 10
128.81666666666678
 20
62.066666666666663
 11
128.81666666666678
 21
60.227856017279578
  0
LINE
  8
_1-8_小物
  6
CONTINUOUS
 62
    4
 10
130.18333333333339
 20
62.066666666666663
 11
128.81666666666678
 21
62.066666666666663
  0
LINE
  8
_1-8_小物
  6
CONTINUOUS
 62
    4
 10
130.18333333333339
 20
62.066666666666663
 11
130.18333333333339
 21
60.227856017279578
  0
LINE
  8
_1-8_小物
  6
CONTINUOUS
 62
    4
 10
128.90333333333336
 20
63.968122760223252
 11
129.17408049111157
 21
64.066666666666663
  0
LINE
  8
_1-8_小物
  6
CONTINUOUS
 62
    4
 10
128.90333333333336
 20
63.733333333333348
 11
129.50000000000011
 21
63.950502239778871
  0
LINE
  8
_1-8_小物
  6
CONTINUOUS
 62
    4
 10
129.50000000000011
 20
64.067896953223823
 11
128.69999999999999
 21
63.8507280467783
  0
LINE
  8
_1-8_小物
  6
CONTINUOUS
 62
    4
 10
128.90333333333336
 20
64.066666666666663
 11
128.90333333333336
 21
63.968122760223252
  0
LINE
  8
_1-8_小物
  6
CONTINUOUS
 62
    4
 10
128.90333333333336
 20
63.733333333333348
 11
128.90333333333336
 21
63.468122760223252
  0
LINE
  8
_1-8_小物
  6
CONTINUOUS
 62
    4
 10
128.90333333333336
 20
63.233333333333348
 11
128.90333333333336
 21
62.968122760223252
  0
LINE
  8
_1-8_小物
  6
CONTINUOUS
 62
    4
 10
128.90333333333336
 20
62.733333333333348
 11
128.90333333333336
 21
62.468122760223252
  0
LINE
  8
_1-8_小物
  6
CONTINUOUS
 62
    4
 10
128.90333333333336
 20
62.233333333333348
 11
128.90333333333336
 21
62.066666666666663
  0
LINE
  8
_1-8_小物
  6
CONTINUOUS
 62
    4
 10
130.09666666666681
 20
64.066666666666663
 11
130.09666666666681
 21
63.902460573114269
  0
LINE
  8
_1-8_小物
  6
CONTINUOUS
 62
    4
 10
130.09666666666681
 20
62.667671146224336
 11
130.09666666666681
 21
62.066666666666663
  0
LINE
  8
_1-8_小物
  6
CONTINUOUS
 62
    4
 10
130.09666666666681
 20
63.167671146224336
 11
130.09666666666681
 21
62.902460573114269
  0
LINE
  8
_1-8_小物
  6
CONTINUOUS
 62
    4
 10
130.09666666666681
 20
63.667671146224336
 11
130.09666666666681
 21
63.402460573114269
  0
LINE
  8
_1-8_小物
  6
CONTINUOUS
 62
    4
 10
130.08333333333348
 20
62.066666666666663
 11
130.08333333333348
 21
60.285591044198554
  0
LINE
  8
_1-8_小物
  6
CONTINUOUS
 62
    4
 10
129.50000000000011
 20
59.948803387171267
 11
130.08333333333348
 21
60.285591044198554
  0
LINE
  8
_1-8_小物
  6
CONTINUOUS
 62
    4
 10
129.50000000000011
 20
59.948803387171267
 11
129.87343643762688
 21
62.066666666666663
  0
LINE
  8
_1-8_小物
  6
CENTER2
 62
    4
 10
129.50000000000011
 20
65.833640386960099
 11
129.50000000000011
 21
59.084349393779831
  0
LINE
  8
_1-8_小物
  6
CONTINUOUS
 62
    4
 10
127.83333333333348
 20
65.166666666666657
 11
127.83333333333348
 21
65.099999999999966
  0
LINE
  8
_1-8_小物
  6
CONTINUOUS
 62
    4
 10
131.16666666666669
 20
65.099999999999966
 11
127.83333333333348
 21
65.099999999999966
  0
LINE
  8
_1-8_小物
  6
CONTINUOUS
 62
    4
 10
131.16666666666669
 20
65.166666666666657
 11
131.16666666666669
 21
65.099999999999966
  0
LINE
  8
_1-8_小物
  6
CONTINUOUS
 62
    4
 10
127.83333333333348
 20
65.099999999999966
 11
128.8666666666669
 21
64.066666666666663
  0
LINE
  8
_1-8_小物
  6
CONTINUOUS
 62
    4
 10
130.13333333333333
 20
64.066666666666663
 11
128.8666666666669
 21
64.066666666666663
  0
LINE
  8
_1-8_小物
  6
CONTINUOUS
 62
    4
 10
131.16666666666669
 20
65.099999999999966
 11
130.13333333333333
 21
64.066666666666663
  0
ENDBLK
  0
BLOCK
  2
-021-_16_
 70
   64
 10
0
 20
0
 30
0
  0
LINE
  8
_1-8_小物
  6
CONTINUOUS
 62
    4
 10
-68.833333333333314
 20
65.166666666666657
 11
-72.166666666666515
 21
65.166666666666657
  0
LINE
  8
_1-8_小物
  6
CONTINUOUS
 62
    4
 10
-70.499999999999886
 20
59.833333333333314
 11
-71.183333333333223
 21
60.227856017279578
  0
LINE
  8
_1-8_小物
  6
CONTINUOUS
 62
    4
 10
-70.499999999999886
 20
59.833333333333314
 11
-69.816666666666606
 21
60.227856017279578
  0
LINE
  8
_1-8_小物
  6
CONTINUOUS
 62
    4
 10
-69.903333333333194
 20
62.902460573114269
 11
-69.699999999999818
 21
62.785065859669317
  0
LINE
  8
_1-8_小物
  6
CONTINUOUS
 62
    4
 10
-69.699999999999818
 20
62.785065859669317
 11
-69.903333333333194
 21
62.667671146224336
  0
LINE
  8
_1-8_小物
  6
CONTINUOUS
 62
    4
 10
-71.096666666666636
 20
62.233333333333348
 11
-71.300000000000011
 21
62.3507280467783
  0
LINE
  8
_1-8_小物
  6
CONTINUOUS
 62
    4
 10
-71.300000000000011
 20
62.3507280467783
 11
-71.096666666666636
 21
62.468122760223252
  0
LINE
  8
_1-8_小物
  6
CONTINUOUS
 62
    4
 10
-71.096666666666636
 20
62.468122760223252
 11
-69.903333333333194
 21
62.902460573114269
  0
LINE
  8
_1-8_小物
  6
CONTINUOUS
 62
    4
 10
-71.096666666666636
 20
62.233333333333348
 11
-69.903333333333194
 21
62.667671146224336
  0
LINE
  8
_1-8_小物
  6
CONTINUOUS
 62
    4
 10
-69.699999999999818
 20
62.785065859669317
 11
-71.300000000000011
 21
62.3507280467783
  0
LINE
  8
_1-8_小物
  6
CONTINUOUS
 62
    4
 10
-69.903333333333194
 20
63.402460573114269
 11
-69.699999999999818
 21
63.285065859669317
  0
LINE
  8
_1-8_小物
  6
CONTINUOUS
 62
    4
 10
-69.699999999999818
 20
63.285065859669317
 11
-69.903333333333194
 21
63.167671146224336
  0
LINE
  8
_1-8_小物
  6
CONTINUOUS
 62
    4
 10
-71.096666666666636
 20
62.733333333333348
 11
-71.300000000000011
 21
62.8507280467783
  0
LINE
  8
_1-8_小物
  6
CONTINUOUS
 62
    4
 10
-71.300000000000011
 20
62.8507280467783
 11
-71.096666666666636
 21
62.968122760223252
  0
LINE
  8
_1-8_小物
  6
CONTINUOUS
 62
    4
 10
-71.096666666666636
 20
62.968122760223252
 11
-69.903333333333194
 21
63.402460573114269
  0
LINE
  8
_1-8_小物
  6
CONTINUOUS
 62
    4
 10
-71.096666666666636
 20
62.733333333333348
 11
-69.903333333333194
 21
63.167671146224336
  0
LINE
  8
_1-8_小物
  6
CONTINUOUS
 62
    4
 10
-69.699999999999818
 20
63.285065859669317
 11
-71.300000000000011
 21
62.8507280467783
  0
LINE
  8
_1-8_小物
  6
CONTINUOUS
 62
    4
 10
-69.903333333333194
 20
63.902460573114269
 11
-69.699999999999818
 21
63.785065859669317
  0
LINE
  8
_1-8_小物
  6
CONTINUOUS
 62
    4
 10
-69.699999999999818
 20
63.785065859669317
 11
-69.903333333333194
 21
63.667671146224336
  0
LINE
  8
_1-8_小物
  6
CONTINUOUS
 62
    4
 10
-71.096666666666636
 20
63.233333333333348
 11
-71.300000000000011
 21
63.3507280467783
  0
LINE
  8
_1-8_小物
  6
CONTINUOUS
 62
    4
 10
-71.300000000000011
 20
63.3507280467783
 11
-71.096666666666636
 21
63.468122760223252
  0
LINE
  8
_1-8_小物
  6
CONTINUOUS
 62
    4
 10
-71.096666666666636
 20
63.468122760223252
 11
-69.903333333333194
 21
63.902460573114269
  0
LINE
  8
_1-8_小物
  6
CONTINUOUS
 62
    4
 10
-71.096666666666636
 20
63.233333333333348
 11
-69.903333333333194
 21
63.667671146224336
  0
LINE
  8
_1-8_小物
  6
CONTINUOUS
 62
    4
 10
-69.699999999999818
 20
63.785065859669317
 11
-71.300000000000011
 21
63.3507280467783
  0
LINE
  8
_1-8_小物
  6
CONTINUOUS
 62
    4
 10
-71.096666666666636
 20
63.733333333333348
 11
-71.300000000000011
 21
63.8507280467783
  0
LINE
  8
_1-8_小物
  6
CONTINUOUS
 62
    4
 10
-71.300000000000011
 20
63.8507280467783
 11
-71.096666666666636
 21
63.968122760223252
  0
LINE
  8
_1-8_小物
  6
CONTINUOUS
 62
    4
 10
-71.183333333333223
 20
62.066666666666663
 11
-71.183333333333223
 21
60.227856017279578
  0
LINE
  8
_1-8_小物
  6
CONTINUOUS
 62
    4
 10
-69.816666666666606
 20
62.066666666666663
 11
-71.183333333333223
 21
62.066666666666663
  0
LINE
  8
_1-8_小物
  6
CONTINUOUS
 62
    4
 10
-69.816666666666606
 20
62.066666666666663
 11
-69.816666666666606
 21
60.227856017279578
  0
LINE
  8
_1-8_小物
  6
CONTINUOUS
 62
    4
 10
-71.096666666666636
 20
63.968122760223252
 11
-70.825919508888433
 21
64.066666666666663
  0
LINE
  8
_1-8_小物
  6
CONTINUOUS
 62
    4
 10
-71.096666666666636
 20
63.733333333333348
 11
-70.499999999999886
 21
63.950502239778871
  0
LINE
  8
_1-8_小物
  6
CONTINUOUS
 62
    4
 10
-70.499999999999886
 20
64.067896953223823
 11
-71.300000000000011
 21
63.8507280467783
  0
LINE
  8
_1-8_小物
  6
CONTINUOUS
 62
    4
 10
-71.096666666666636
 20
64.066666666666663
 11
-71.096666666666636
 21
63.968122760223252
  0
LINE
  8
_1-8_小物
  6
CONTINUOUS
 62
    4
 10
-71.096666666666636
 20
63.733333333333348
 11
-71.096666666666636
 21
63.468122760223252
  0
LINE
  8
_1-8_小物
  6
CONTINUOUS
 62
    4
 10
-71.096666666666636
 20
63.233333333333348
 11
-71.096666666666636
 21
62.968122760223252
  0
LINE
  8
_1-8_小物
  6
CONTINUOUS
 62
    4
 10
-71.096666666666636
 20
62.733333333333348
 11
-71.096666666666636
 21
62.468122760223252
  0
LINE
  8
_1-8_小物
  6
CONTINUOUS
 62
    4
 10
-71.096666666666636
 20
62.233333333333348
 11
-71.096666666666636
 21
62.066666666666663
  0
LINE
  8
_1-8_小物
  6
CONTINUOUS
 62
    4
 10
-69.903333333333194
 20
64.066666666666663
 11
-69.903333333333194
 21
63.902460573114269
  0
LINE
  8
_1-8_小物
  6
CONTINUOUS
 62
    4
 10
-69.903333333333194
 20
62.667671146224336
 11
-69.903333333333194
 21
62.066666666666663
  0
LINE
  8
_1-8_小物
  6
CONTINUOUS
 62
    4
 10
-69.903333333333194
 20
63.167671146224336
 11
-69.903333333333194
 21
62.902460573114269
  0
LINE
  8
_1-8_小物
  6
CONTINUOUS
 62
    4
 10
-69.903333333333194
 20
63.667671146224336
 11
-69.903333333333194
 21
63.402460573114269
  0
LINE
  8
_1-8_小物
  6
CONTINUOUS
 62
    4
 10
-69.916666666666515
 20
62.066666666666663
 11
-69.916666666666515
 21
60.285591044198554
  0
LINE
  8
_1-8_小物
  6
CONTINUOUS
 62
    4
 10
-70.499999999999886
 20
59.948803387171267
 11
-69.916666666666515
 21
60.285591044198554
  0
LINE
  8
_1-8_小物
  6
CONTINUOUS
 62
    4
 10
-70.499999999999886
 20
59.948803387171267
 11
-70.126563562373121
 21
62.066666666666663
  0
LINE
  8
_1-8_小物
  6
CENTER2
 62
    4
 10
-70.499999999999886
 20
65.833640386960099
 11
-70.499999999999886
 21
59.084349393779831
  0
LINE
  8
_1-8_小物
  6
CONTINUOUS
 62
    4
 10
-72.166666666666515
 20
65.166666666666657
 11
-72.166666666666515
 21
65.099999999999966
  0
LINE
  8
_1-8_小物
  6
CONTINUOUS
 62
    4
 10
-68.833333333333314
 20
65.099999999999966
 11
-72.166666666666515
 21
65.099999999999966
  0
LINE
  8
_1-8_小物
  6
CONTINUOUS
 62
    4
 10
-68.833333333333314
 20
65.166666666666657
 11
-68.833333333333314
 21
65.099999999999966
  0
LINE
  8
_1-8_小物
  6
CONTINUOUS
 62
    4
 10
-72.166666666666515
 20
65.099999999999966
 11
-71.133333333333098
 21
64.066666666666663
  0
LINE
  8
_1-8_小物
  6
CONTINUOUS
 62
    4
 10
-69.866666666666674
 20
64.066666666666663
 11
-71.133333333333098
 21
64.066666666666663
  0
LINE
  8
_1-8_小物
  6
CONTINUOUS
 62
    4
 10
-68.833333333333314
 20
65.099999999999966
 11
-69.866666666666674
 21
64.066666666666663
  0
ENDBLK
  0
BLOCK
  2
-022-_17_
 70
   64
 10
0
 20
0
 30
0
  0
LINE
  8
_1-8_小物
  6
CONTINUOUS
 62
    4
 10
-127.83333333333357
 20
65.166666666666657
 11
-131.1666666666668
 21
65.166666666666657
  0
LINE
  8
_1-8_小物
  6
CONTINUOUS
 62
    4
 10
-129.50000000000017
 20
59.833333333333314
 11
-130.18333333333348
 21
60.227856017279578
  0
LINE
  8
_1-8_小物
  6
CONTINUOUS
 62
    4
 10
-129.50000000000017
 20
59.833333333333314
 11
-128.81666666666689
 21
60.227856017279578
  0
LINE
  8
_1-8_小物
  6
CONTINUOUS
 62
    4
 10
-128.90333333333348
 20
62.902460573114269
 11
-128.7000000000001
 21
62.785065859669317
  0
LINE
  8
_1-8_小物
  6
CONTINUOUS
 62
    4
 10
-128.7000000000001
 20
62.785065859669317
 11
-128.90333333333348
 21
62.667671146224336
  0
LINE
  8
_1-8_小物
  6
CONTINUOUS
 62
    4
 10
-130.09666666666689
 20
62.233333333333348
 11
-130.30000000000027
 21
62.3507280467783
  0
LINE
  8
_1-8_小物
  6
CONTINUOUS
 62
    4
 10
-130.30000000000027
 20
62.3507280467783
 11
-130.09666666666689
 21
62.468122760223252
  0
LINE
  8
_1-8_小物
  6
CONTINUOUS
 62
    4
 10
-130.09666666666689
 20
62.468122760223252
 11
-128.90333333333348
 21
62.902460573114269
  0
LINE
  8
_1-8_小物
  6
CONTINUOUS
 62
    4
 10
-130.09666666666689
 20
62.233333333333348
 11
-128.90333333333348
 21
62.667671146224336
  0
LINE
  8
_1-8_小物
  6
CONTINUOUS
 62
    4
 10
-128.7000000000001
 20
62.785065859669317
 11
-130.30000000000027
 21
62.3507280467783
  0
LINE
  8
_1-8_小物
  6
CONTINUOUS
 62
    4
 10
-128.90333333333348
 20
63.402460573114269
 11
-128.7000000000001
 21
63.285065859669317
  0
LINE
  8
_1-8_小物
  6
CONTINUOUS
 62
    4
 10
-128.7000000000001
 20
63.285065859669317
 11
-128.90333333333348
 21
63.167671146224336
  0
LINE
  8
_1-8_小物
  6
CONTINUOUS
 62
    4
 10
-130.09666666666689
 20
62.733333333333348
 11
-130.30000000000027
 21
62.8507280467783
  0
LINE
  8
_1-8_小物
  6
CONTINUOUS
 62
    4
 10
-130.30000000000027
 20
62.8507280467783
 11
-130.09666666666689
 21
62.968122760223252
  0
LINE
  8
_1-8_小物
  6
CONTINUOUS
 62
    4
 10
-130.09666666666689
 20
62.968122760223252
 11
-128.90333333333348
 21
63.402460573114269
  0
LINE
  8
_1-8_小物
  6
CONTINUOUS
 62
    4
 10
-130.09666666666689
 20
62.733333333333348
 11
-128.90333333333348
 21
63.167671146224336
  0
LINE
  8
_1-8_小物
  6
CONTINUOUS
 62
    4
 10
-128.7000000000001
 20
63.285065859669317
 11
-130.30000000000027
 21
62.8507280467783
  0
LINE
  8
_1-8_小物
  6
CONTINUOUS
 62
    4
 10
-128.90333333333348
 20
63.902460573114269
 11
-128.7000000000001
 21
63.785065859669317
  0
LINE
  8
_1-8_小物
  6
CONTINUOUS
 62
    4
 10
-128.7000000000001
 20
63.785065859669317
 11
-128.90333333333348
 21
63.667671146224336
  0
LINE
  8
_1-8_小物
  6
CONTINUOUS
 62
    4
 10
-130.09666666666689
 20
63.233333333333348
 11
-130.30000000000027
 21
63.3507280467783
  0
LINE
  8
_1-8_小物
  6
CONTINUOUS
 62
    4
 10
-130.30000000000027
 20
63.3507280467783
 11
-130.09666666666689
 21
63.468122760223252
  0
LINE
  8
_1-8_小物
  6
CONTINUOUS
 62
    4
 10
-130.09666666666689
 20
63.468122760223252
 11
-128.90333333333348
 21
63.902460573114269
  0
LINE
  8
_1-8_小物
  6
CONTINUOUS
 62
    4
 10
-130.09666666666689
 20
63.233333333333348
 11
-128.90333333333348
 21
63.667671146224336
  0
LINE
  8
_1-8_小物
  6
CONTINUOUS
 62
    4
 10
-128.7000000000001
 20
63.785065859669317
 11
-130.30000000000027
 21
63.3507280467783
  0
LINE
  8
_1-8_小物
  6
CONTINUOUS
 62
    4
 10
-130.09666666666689
 20
63.733333333333348
 11
-130.30000000000027
 21
63.8507280467783
  0
LINE
  8
_1-8_小物
  6
CONTINUOUS
 62
    4
 10
-130.30000000000027
 20
63.8507280467783
 11
-130.09666666666689
 21
63.968122760223252
  0
LINE
  8
_1-8_小物
  6
CONTINUOUS
 62
    4
 10
-130.18333333333348
 20
62.066666666666663
 11
-130.18333333333348
 21
60.227856017279578
  0
LINE
  8
_1-8_小物
  6
CONTINUOUS
 62
    4
 10
-128.81666666666689
 20
62.066666666666663
 11
-130.18333333333348
 21
62.066666666666663
  0
LINE
  8
_1-8_小物
  6
CONTINUOUS
 62
    4
 10
-128.81666666666689
 20
62.066666666666663
 11
-128.81666666666689
 21
60.227856017279578
  0
LINE
  8
_1-8_小物
  6
CONTINUOUS
 62
    4
 10
-130.09666666666689
 20
63.968122760223252
 11
-129.82591950888872
 21
64.066666666666663
  0
LINE
  8
_1-8_小物
  6
CONTINUOUS
 62
    4
 10
-130.09666666666689
 20
63.733333333333348
 11
-129.50000000000017
 21
63.950502239778871
  0
LINE
  8
_1-8_小物
  6
CONTINUOUS
 62
    4
 10
-129.50000000000017
 20
64.067896953223823
 11
-130.30000000000027
 21
63.8507280467783
  0
LINE
  8
_1-8_小物
  6
CONTINUOUS
 62
    4
 10
-130.09666666666689
 20
64.066666666666663
 11
-130.09666666666689
 21
63.968122760223252
  0
LINE
  8
_1-8_小物
  6
CONTINUOUS
 62
    4
 10
-130.09666666666689
 20
63.733333333333348
 11
-130.09666666666689
 21
63.468122760223252
  0
LINE
  8
_1-8_小物
  6
CONTINUOUS
 62
    4
 10
-130.09666666666689
 20
63.233333333333348
 11
-130.09666666666689
 21
62.968122760223252
  0
LINE
  8
_1-8_小物
  6
CONTINUOUS
 62
    4
 10
-130.09666666666689
 20
62.733333333333348
 11
-130.09666666666689
 21
62.468122760223252
  0
LINE
  8
_1-8_小物
  6
CONTINUOUS
 62
    4
 10
-130.09666666666689
 20
62.233333333333348
 11
-130.09666666666689
 21
62.066666666666663
  0
LINE
  8
_1-8_小物
  6
CONTINUOUS
 62
    4
 10
-128.90333333333348
 20
64.066666666666663
 11
-128.90333333333348
 21
63.902460573114269
  0
LINE
  8
_1-8_小物
  6
CONTINUOUS
 62
    4
 10
-128.90333333333348
 20
62.667671146224336
 11
-128.90333333333348
 21
62.066666666666663
  0
LINE
  8
_1-8_小物
  6
CONTINUOUS
 62
    4
 10
-128.90333333333348
 20
63.167671146224336
 11
-128.90333333333348
 21
62.902460573114269
  0
LINE
  8
_1-8_小物
  6
CONTINUOUS
 62
    4
 10
-128.90333333333348
 20
63.667671146224336
 11
-128.90333333333348
 21
63.402460573114269
  0
LINE
  8
_1-8_小物
  6
CONTINUOUS
 62
    4
 10
-128.9166666666668
 20
62.066666666666663
 11
-128.9166666666668
 21
60.285591044198554
  0
LINE
  8
_1-8_小物
  6
CONTINUOUS
 62
    4
 10
-129.50000000000017
 20
59.948803387171267
 11
-128.9166666666668
 21
60.285591044198554
  0
LINE
  8
_1-8_小物
  6
CONTINUOUS
 62
    4
 10
-129.50000000000017
 20
59.948803387171267
 11
-129.12656356237341
 21
62.066666666666663
  0
LINE
  8
_1-8_小物
  6
CENTER2
 62
    4
 10
-129.50000000000017
 20
65.833640386960099
 11
-129.50000000000017
 21
59.084349393779831
  0
LINE
  8
_1-8_小物
  6
CONTINUOUS
 62
    4
 10
-131.1666666666668
 20
65.166666666666657
 11
-131.1666666666668
 21
65.099999999999966
  0
LINE
  8
_1-8_小物
  6
CONTINUOUS
 62
    4
 10
-127.83333333333357
 20
65.099999999999966
 11
-131.1666666666668
 21
65.099999999999966
  0
LINE
  8
_1-8_小物
  6
CONTINUOUS
 62
    4
 10
-127.83333333333357
 20
65.166666666666657
 11
-127.83333333333357
 21
65.099999999999966
  0
LINE
  8
_1-8_小物
  6
CONTINUOUS
 62
    4
 10
-131.1666666666668
 20
65.099999999999966
 11
-130.13333333333338
 21
64.066666666666663
  0
LINE
  8
_1-8_小物
  6
CONTINUOUS
 62
    4
 10
-128.86666666666696
 20
64.066666666666663
 11
-130.13333333333338
 21
64.066666666666663
  0
LINE
  8
_1-8_小物
  6
CONTINUOUS
 62
    4
 10
-127.83333333333357
 20
65.099999999999966
 11
-128.86666666666696
 21
64.066666666666663
  0
ENDBLK
  0
BLOCK
  2
-023-_18_
 70
   64
 10
0
 20
0
 30
0
  0
LINE
  8
_1-8_小物
  6
CONTINUOUS
 62
    4
 10
99.999999994195036
 20
75.500000238432364
 11
99.999999994195036
 21
78.833333571765593
  0
LINE
  8
_1-8_小物
  6
CONTINUOUS
 62
    4
 10
94.666666660861551
 20
77.166666905098964
 11
95.061189344807872
 21
77.850000238432273
  0
LINE
  8
_1-8_小物
  6
CONTINUOUS
 62
    4
 10
94.666666660861551
 20
77.166666905098964
 11
95.061189344807872
 21
76.483333571765684
  0
LINE
  8
_1-8_小物
  6
CONTINUOUS
 62
    4
 10
97.735793900642534
 20
76.570000238432272
 11
97.61839918719761
 21
76.366666905098896
  0
LINE
  8
_1-8_小物
  6
CONTINUOUS
 62
    4
 10
97.61839918719761
 20
76.366666905098896
 11
97.501004473752687
 21
76.570000238432272
  0
LINE
  8
_1-8_小物
  6
CONTINUOUS
 62
    4
 10
97.066666660861642
 20
77.763333571765685
 11
97.184061374306566
 21
77.966666905099061
  0
LINE
  8
_1-8_小物
  6
CONTINUOUS
 62
    4
 10
97.184061374306566
 20
77.966666905099061
 11
97.30145608775149
 21
77.763333571765685
  0
LINE
  8
_1-8_小物
  6
CONTINUOUS
 62
    4
 10
97.30145608775149
 20
77.763333571765685
 11
97.735793900642534
 21
76.570000238432272
  0
LINE
  8
_1-8_小物
  6
CONTINUOUS
 62
    4
 10
97.066666660861642
 20
77.763333571765685
 11
97.501004473752687
 21
76.570000238432272
  0
LINE
  8
_1-8_小物
  6
CONTINUOUS
 62
    4
 10
97.61839918719761
 20
76.366666905098896
 11
97.184061374306566
 21
77.966666905099061
  0
LINE
  8
_1-8_小物
  6
CONTINUOUS
 62
    4
 10
98.235793900642534
 20
76.570000238432272
 11
98.11839918719761
 21
76.366666905098896
  0
LINE
  8
_1-8_小物
  6
CONTINUOUS
 62
    4
 10
98.11839918719761
 20
76.366666905098896
 11
98.001004473752687
 21
76.570000238432272
  0
LINE
  8
_1-8_小物
  6
CONTINUOUS
 62
    4
 10
97.566666660861642
 20
77.763333571765685
 11
97.684061374306566
 21
77.966666905099061
  0
LINE
  8
_1-8_小物
  6
CONTINUOUS
 62
    4
 10
97.684061374306566
 20
77.966666905099061
 11
97.80145608775149
 21
77.763333571765685
  0
LINE
  8
_1-8_小物
  6
CONTINUOUS
 62
    4
 10
97.80145608775149
 20
77.763333571765685
 11
98.235793900642534
 21
76.570000238432272
  0
LINE
  8
_1-8_小物
  6
CONTINUOUS
 62
    4
 10
97.566666660861642
 20
77.763333571765685
 11
98.001004473752687
 21
76.570000238432272
  0
LINE
  8
_1-8_小物
  6
CONTINUOUS
 62
    4
 10
98.11839918719761
 20
76.366666905098896
 11
97.684061374306566
 21
77.966666905099061
  0
LINE
  8
_1-8_小物
  6
CONTINUOUS
 62
    4
 10
98.735793900642534
 20
76.570000238432272
 11
98.61839918719761
 21
76.366666905098896
  0
LINE
  8
_1-8_小物
  6
CONTINUOUS
 62
    4
 10
98.61839918719761
 20
76.366666905098896
 11
98.501004473752687
 21
76.570000238432272
  0
LINE
  8
_1-8_小物
  6
CONTINUOUS
 62
    4
 10
98.066666660861642
 20
77.763333571765685
 11
98.184061374306566
 21
77.966666905099061
  0
LINE
  8
_1-8_小物
  6
CONTINUOUS
 62
    4
 10
98.184061374306566
 20
77.966666905099061
 11
98.30145608775149
 21
77.763333571765685
  0
LINE
  8
_1-8_小物
  6
CONTINUOUS
 62
    4
 10
98.30145608775149
 20
77.763333571765685
 11
98.735793900642534
 21
76.570000238432272
  0
LINE
  8
_1-8_小物
  6
CONTINUOUS
 62
    4
 10
98.066666660861642
 20
77.763333571765685
 11
98.501004473752687
 21
76.570000238432272
  0
LINE
  8
_1-8_小物
  6
CONTINUOUS
 62
    4
 10
98.61839918719761
 20
76.366666905098896
 11
98.184061374306566
 21
77.966666905099061
  0
LINE
  8
_1-8_小物
  6
CONTINUOUS
 62
    4
 10
98.566666660861642
 20
77.763333571765685
 11
98.684061374306566
 21
77.966666905099061
  0
LINE
  8
_1-8_小物
  6
CONTINUOUS
 62
    4
 10
98.684061374306566
 20
77.966666905099061
 11
98.80145608775149
 21
77.763333571765685
  0
LINE
  8
_1-8_小物
  6
CONTINUOUS
 62
    4
 10
96.8999999941949
 20
77.850000238432273
 11
95.061189344807872
 21
77.850000238432273
  0
LINE
  8
_1-8_小物
  6
CONTINUOUS
 62
    4
 10
96.8999999941949
 20
76.483333571765684
 11
96.8999999941949
 21
77.850000238432273
  0
LINE
  8
_1-8_小物
  6
CONTINUOUS
 62
    4
 10
96.8999999941949
 20
76.483333571765684
 11
95.061189344807872
 21
76.483333571765684
  0
LINE
  8
_1-8_小物
  6
CONTINUOUS
 62
    4
 10
98.80145608775149
 20
77.763333571765685
 11
98.8999999941949
 21
77.49258641398751
  0
LINE
  8
_1-8_小物
  6
CONTINUOUS
 62
    4
 10
98.566666660861642
 20
77.763333571765685
 11
98.783835567307165
 21
77.166666905098964
  0
LINE
  8
_1-8_小物
  6
CONTINUOUS
 62
    4
 10
98.901230280752202
 20
77.166666905098964
 11
98.684061374306566
 21
77.966666905099061
  0
LINE
  8
_1-8_小物
  6
CONTINUOUS
 62
    4
 10
98.8999999941949
 20
77.763333571765685
 11
98.80145608775149
 21
77.763333571765685
  0
LINE
  8
_1-8_小物
  6
CONTINUOUS
 62
    4
 10
98.566666660861642
 20
77.763333571765685
 11
98.30145608775149
 21
77.763333571765685
  0
LINE
  8
_1-8_小物
  6
CONTINUOUS
 62
    4
 10
98.066666660861642
 20
77.763333571765685
 11
97.80145608775149
 21
77.763333571765685
  0
LINE
  8
_1-8_小物
  6
CONTINUOUS
 62
    4
 10
97.566666660861642
 20
77.763333571765685
 11
97.30145608775149
 21
77.763333571765685
  0
LINE
  8
_1-8_小物
  6
CONTINUOUS
 62
    4
 10
97.066666660861642
 20
77.763333571765685
 11
96.8999999941949
 21
77.763333571765685
  0
LINE
  8
_1-8_小物
  6
CONTINUOUS
 62
    4
 10
98.8999999941949
 20
76.570000238432272
 11
98.735793900642534
 21
76.570000238432272
  0
LINE
  8
_1-8_小物
  6
CONTINUOUS
 62
    4
 10
97.501004473752687
 20
76.570000238432272
 11
96.8999999941949
 21
76.570000238432272
  0
LINE
  8
_1-8_小物
  6
CONTINUOUS
 62
    4
 10
98.001004473752687
 20
76.570000238432272
 11
97.735793900642534
 21
76.570000238432272
  0
LINE
  8
_1-8_小物
  6
CONTINUOUS
 62
    4
 10
98.501004473752687
 20
76.570000238432272
 11
98.235793900642534
 21
76.570000238432272
  0
LINE
  8
_1-8_小物
  6
CONTINUOUS
 62
    4
 10
96.8999999941949
 20
76.583333571765593
 11
95.118924371726848
 21
76.583333571765593
  0
LINE
  8
_1-8_小物
  6
CONTINUOUS
 62
    4
 10
94.782136714699504
 20
77.166666905098964
 11
95.118924371726848
 21
76.583333571765593
  0
LINE
  8
_1-8_小物
  6
CONTINUOUS
 62
    4
 10
94.782136714699504
 20
77.166666905098964
 11
96.8999999941949
 21
76.793230467472199
  0
LINE
  8
_1-8_小物
  6
CENTER2
 62
    4
 10
100.66697371448834
 20
77.166666905098964
 11
93.917682721308097
 21
77.166666905098964
  0
LINE
  8
_1-8_小物
  6
CONTINUOUS
 62
    4
 10
99.999999994195036
 20
78.833333571765593
 11
99.933333327528203
 21
78.833333571765593
  0
LINE
  8
_1-8_小物
  6
CONTINUOUS
 62
    4
 10
99.933333327528203
 20
75.500000238432364
 11
99.933333327528203
 21
78.833333571765593
  0
LINE
  8
_1-8_小物
  6
CONTINUOUS
 62
    4
 10
99.999999994195036
 20
75.500000238432364
 11
99.933333327528203
 21
75.500000238432364
  0
LINE
  8
_1-8_小物
  6
CONTINUOUS
 62
    4
 10
99.933333327528203
 20
78.833333571765593
 11
98.8999999941949
 21
77.800000238432176
  0
LINE
  8
_1-8_小物
  6
CONTINUOUS
 62
    4
 10
98.8999999941949
 20
76.533333571765752
 11
98.8999999941949
 21
77.800000238432176
  0
LINE
  8
_1-8_小物
  6
CONTINUOUS
 62
    4
 10
99.933333327528203
 20
75.500000238432364
 11
98.8999999941949
 21
76.533333571765752
  0
ENDBLK
  0
BLOCK
  2
-024-_19_
 70
   64
 10
0
 20
0
 30
0
  0
LINE
  8
_1-4_フレ__ム
  6
CONTINUOUS
 62
    4
 10
98.866666836798004
 20
61.100000200599993
 11
98.700000170131545
 21
61.100000200599993
  0
LINE
  8
_1-4_フレ__ム
  6
CONTINUOUS
 62
    4
 10
98.866666836798004
 20
62.100000200599823
 11
98.866666836798004
 21
61.100000200599993
  0
LINE
  8
_1-4_フレ__ム
  6
CONTINUOUS
 62
    4
 10
98.700000170131545
 20
61.100000200599993
 11
98.86666642013239
 21
60.433333533933279
  0
LINE
  8
_1-4_フレ__ム
  6
CONTINUOUS
 62
    4
 10
97.866667278217278
 20
61.100000200599993
 11
98.033333944883793
 21
61.100000200599993
  0
LINE
  8
_1-4_フレ__ム
  6
CONTINUOUS
 62
    4
 10
97.866667278217278
 20
62.100000200599823
 11
97.866667278217278
 21
61.100000200599993
  0
LINE
  8
_1-4_フレ__ム
  6
CONTINUOUS
 62
    4
 10
98.033333944883793
 20
61.100000200599993
 11
97.866667694882892
 21
60.433333533933279
  0
ARC
  8
_1-4_フレ__ム
  6
CONTINUOUS
 62
    4
 10
98.36666705750747
 20
62.100000200599823
 40
0.4999997792903532
 50
0
 51
180
  0
LINE
  8
_1-4_フレ__ム
  6
CONTINUOUS
 62
    4
 10
98.899999997124382
 20
74.333333571662848
 11
98.899999924567965
 21
75.166666867266542
  0
LINE
  8
_1-4_フレ__ム
  6
CONTINUOUS
 62
    4
 10
98.899999924567965
 20
75.166666867266542
 11
92.599998485042306
 21
75.166666318737782
  0
LINE
  8
_1-4_フレ__ム
  6
CONTINUOUS
 62
    4
 10
99.499999988417585
 20
74.333333571662848
 11
98.899999997124382
 21
74.333333571662848
  0
LINE
  8
_1-4_フレ__ム
  6
CONTINUOUS
 62
    4
 10
98.899999997124382
 20
79.266666780198591
 11
98.899999997124382
 21
80.800000238329545
  0
LINE
  8
_1-4_フレ__ム
  6
CONTINUOUS
 62
    4
 10
97.899999997124553
 20
79.266666780198591
 11
98.899999997124382
 21
79.266666780198591
  0
LINE
  8
_1-4_フレ__ム
  6
CONTINUOUS
 62
    4
 10
99.499999997124576
 20
78.666666780198454
 11
98.499999997124519
 21
78.666666780198454
  0
LINE
  8
_1-4_フレ__ム
  6
CENTER2
 62
    4
 10
97.583333330457549
 20
77.166666849852987
 11
99.316666663790954
 21
77.166666849852987
  0
LINE
  8
_1-4_フレ__ム
  6
CONTINUOUS
 62
    4
 10
98.399999997124269
 20
77.166666849852987
 11
98.499999997124519
 21
77.066666849853078
  0
LINE
  8
_1-4_フレ__ム
  6
CONTINUOUS
 62
    4
 10
98.499999997124519
 20
78.666666780198454
 11
98.499999997124519
 21
77.266666849853038
  0
LINE
  8
_1-4_フレ__ム
  6
CONTINUOUS
 62
    4
 10
98.499999997124519
 20
77.266666849853038
 11
98.399999997124269
 21
77.166666849852987
  0
LINE
  8
_1-4_フレ__ム
  6
CONTINUOUS
 62
    4
 10
98.899999924567965
 20
75.166666867266542
 11
92.599998493749126
 21
75.166666318737725
  0
LINE
  8
_1-4_フレ__ム
  6
CONTINUOUS
 62
    4
 10
98.066666663791068
 20
81.333333571662763
 11
99.166666663790977
 21
81.333333571662763
  0
ARC
  8
_1-4_フレ__ム
  6
CONTINUOUS
 62
    4
 10
98.066666663791068
 20
81.166666904996021
 40
0.1666666666666666
 50
90
 51
180
  0
LINE
  8
_1-4_フレ__ム
  6
CONTINUOUS
 62
    4
 10
97.899999997124553
 20
80.800000238329545
 11
97.899999997124553
 21
81.166666904996021
  0
LINE
  8
_1-4_フレ__ム
  6
CONTINUOUS
 62
    4
 10
98.899999997124382
 20
80.800000238329545
 11
97.899999997124553
 21
80.800000238329545
  0
ARC
  8
_1-4_フレ__ム
  6
CONTINUOUS
 62
    4
 10
99.166666663790977
 20
81.000000238329335
 40
0.3333333333333333
 50
0
 51
90
  0
LINE
  8
_1-4_フレ__ム
  6
CONTINUOUS
 62
    4
 10
99.499999997124291
 20
81.000000238329363
 11
99.499999997124576
 21
78.666666780198454
  0
LINE
  8
_1-4_フレ__ム
  6
CONTINUOUS
 62
    4
 10
99.499999988417585
 20
75.666666666563572
 11
99.499999988417585
 21
74.333333571662848
  0
LINE
  8
_1-4_フレ__ム
  6
CONTINUOUS
 62
    4
 10
98.499999997124519
 20
77.066666849853078
 11
98.499999997124519
 21
75.666666666563572
  0
LINE
  8
_1-4_フレ__ム
  6
CONTINUOUS
 62
    4
 10
97.899999997124553
 20
75.666666666563572
 11
97.899999997124553
 21
79.266666780198591
  0
LINE
  8
_1-4_フレ__ム
  6
CONTINUOUS
 62
    4
 10
91.999999997124291
 20
75.666666666563572
 11
97.899999997124553
 21
75.666666666563572
  0
LINE
  8
_1-4_フレ__ム
  6
CONTINUOUS
 62
    4
 10
98.499999997124519
 20
75.666666666563572
 11
99.499999988417585
 21
75.666666666563572
  0
LINE
  8
_1-4_フレ__ム
  6
CONTINUOUS
 62
    4
 10
97.200000390841126
 20
58.666666768787707
 11
93.266666463534307
 21
58.666666524997481
  0
ARC
  8
_1-4_フレ__ム
  6
CONTINUOUS
 62
    4
 10
93.266666463534307
 20
59.33333319166411
 40
0.6666666666666666
 50
180.00000498863477
 51
270
  0
ARC
  8
_1-4_フレ__ム
  6
CONTINUOUS
 62
    4
 10
97.200000390841126
 20
59.333333435454421
 40
0.6666666666666666
 50
270
 51
0
  0
LINE
  8
_1-4_フレ__ム
  6
CONTINUOUS
 62
    4
 10
97.866667057507811
 20
59.333333435454421
 11
97.866667057507811
 21
60.433333533933279
  0
LINE
  8
_1-4_フレ__ム
  6
CONTINUOUS
 62
    4
 10
98.866667057507641
 20
57.833333333230257
 11
98.866667057507641
 21
60.433333533933279
  0
LINE
  8
_1-4_フレ__ム
  6
CONTINUOUS
 62
    4
 10
92.0000000029288
 20
57.833333333230257
 11
98.866667057507641
 21
57.833333333230257
  0
LINE
  8
_1-4_フレ__ム
  6
CONTINUOUS
 62
    4
 10
92.0000000029288
 20
57.833333333230257
 11
91.999999997124291
 21
75.666666666563572
  0
LINE
  8
_1-4_フレ__ム
  6
CONTINUOUS
 62
    4
 10
92.599998937795931
 20
66.733333774377144
 11
92.49999937894296
 21
66.833333333230257
  0
LINE
  8
_1-4_フレ__ム
  6
CONTINUOUS
 62
    4
 10
92.49999937894296
 20
66.833333333230257
 11
92.599999393450503
 21
66.933333347737857
  0
LINE
  8
_1-4_フレ__ム
  6
CENTER2
 62
    4
 10
91.683332712276297
 20
66.833333333230257
 11
93.416666045609702
 21
66.833333333230257
  0
LINE
  8
_1-4_フレ__ム
  6
CONTINUOUS
 62
    4
 10
92.599999796867678
 20
59.333333133618709
 11
92.599999172573291
 21
66.733333774377172
  0
LINE
  8
_1-4_フレ__ム
  6
CONTINUOUS
 62
    4
 10
92.599999210609326
 20
66.933333347737801
 11
92.599998493749126
 21
75.166666318737725
  0
ENDBLK
  0
BLOCK
  2
-025-_20_
 70
   64
 10
0
 20
0
 30
0
  0
LINE
  8
_1-8_小物
  6
CONTINUOUS
 62
    4
 10
80.073391666666566
 20
65.030575000000056
 11
79.407638333333239
 21
64.995685000000492
  0
LINE
  8
_1-8_小物
  6
CONTINUOUS
 62
    4
 10
81.072021666666501
 20
65.08291166666703
 11
80.704254999999876
 21
65.731218333333629
  0
LINE
  8
_1-8_小物
  6
CONTINUOUS
 62
    4
 10
80.704254999999876
 20
65.731218333333629
 11
80.038501666666548
 21
65.69632833333344
  0
LINE
  8
_1-8_小物
  6
CONTINUOUS
 62
    4
 10
80.038501666666548
 20
65.69632833333344
 11
80.073391666666566
 21
65.030575000000056
  0
LINE
  8
_1-8_小物
  6
CONTINUOUS
 62
    4
 10
81.737774999999942
 20
65.117801666666935
 11
81.072021666666501
 21
65.08291166666703
  0
LINE
  8
_1-8_小物
  6
CONTINUOUS
 62
    4
 10
82.736403333333328
 20
65.170138333333568
 11
82.368636666666362
 21
65.818445000000509
  0
LINE
  8
_1-8_小物
  6
CONTINUOUS
 62
    4
 10
82.368636666666362
 20
65.818445000000509
 11
81.702883333333261
 21
65.783555000000263
  0
LINE
  8
_1-8_小物
  6
CONTINUOUS
 62
    4
 10
81.702883333333261
 20
65.783555000000263
 11
81.737774999999942
 21
65.117801666666935
  0
LINE
  8
_1-8_小物
  6
CONTINUOUS
 62
    4
 10
83.402156666666656
 20
65.205028333333757
 11
82.736403333333328
 21
65.170138333333568
  0
LINE
  8
_1-8_小物
  6
CONTINUOUS
 62
    4
 10
84.400786666666363
 20
65.257365000000107
 11
84.033019999999965
 21
65.905671666666706
  0
LINE
  8
_1-8_小物
  6
CONTINUOUS
 62
    4
 10
84.033019999999965
 20
65.905671666666706
 11
83.367266666666637
 21
65.870781666667142
  0
LINE
  8
_1-8_小物
  6
CONTINUOUS
 62
    4
 10
83.367266666666637
 20
65.870781666667142
 11
83.402156666666656
 21
65.205028333333757
  0
LINE
  8
_1-8_小物
  6
CONTINUOUS
 62
    4
 10
85.066539999999918
 20
65.292255000000296
 11
84.400786666666363
 21
65.257365000000107
  0
LINE
  8
_1-8_小物
  6
CONTINUOUS
 62
    4
 10
86.065169999999966
 20
65.344591666666929
 11
85.697401666666565
 21
65.992898333333585
  0
LINE
  8
_1-8_小物
  6
CONTINUOUS
 62
    4
 10
85.697401666666565
 20
65.992898333333585
 11
85.031648333333237
 21
65.95800833333368
  0
LINE
  8
_1-8_小物
  6
CONTINUOUS
 62
    4
 10
85.031648333333237
 20
65.95800833333368
 11
85.066539999999918
 21
65.292255000000296
  0
LINE
  8
_1-8_小物
  6
CONTINUOUS
 62
    4
 10
86.730921666666518
 20
65.379481666666834
 11
86.065169999999966
 21
65.344591666666929
  0
LINE
  8
_1-8_小物
  6
CONTINUOUS
 62
    4
 10
87.361784999999827
 20
66.080125000000407
 11
86.696031666666499
 21
66.045235000000218
  0
LINE
  8
_1-8_小物
  6
CONTINUOUS
 62
    4
 10
86.696031666666499
 20
66.045235000000218
 11
86.730921666666518
 21
65.379481666666834
  0
LINE
  8
_1-8_小物
  6
CONTINUOUS
 62
    4
 10
87.666666666666629
 20
65.500000000000284
 11
87.361784999999827
 21
66.080125000000407
  0
LINE
  8
_1-8_小物
  6
CONTINUOUS
 62
    4
 10
80.073391666666566
 20
68.636091666666914
 11
79.407638333333239
 21
68.670981666666819
  0
LINE
  8
_1-8_小物
  6
CONTINUOUS
 62
    4
 10
81.072021666666501
 20
68.583755000000281
 11
80.704254999999876
 21
67.935448333333625
  0
LINE
  8
_1-8_小物
  6
CONTINUOUS
 62
    4
 10
80.704254999999876
 20
67.935448333333625
 11
80.038501666666548
 21
67.970338333333814
  0
LINE
  8
_1-8_小物
  6
CONTINUOUS
 62
    4
 10
80.038501666666548
 20
67.970338333333814
 11
80.073391666666566
 21
68.636091666666914
  0
LINE
  8
_1-8_小物
  6
CONTINUOUS
 62
    4
 10
81.737774999999942
 20
68.548865000000035
 11
81.072021666666501
 21
68.583755000000281
  0
LINE
  8
_1-8_小物
  6
CONTINUOUS
 62
    4
 10
82.736403333333328
 20
68.496528333333742
 11
82.368636666666362
 21
67.848221666667087
  0
LINE
  8
_1-8_小物
  6
CONTINUOUS
 62
    4
 10
82.368636666666362
 20
67.848221666667087
 11
81.702883333333261
 21
67.883111666666707
  0
LINE
  8
_1-8_小物
  6
CONTINUOUS
 62
    4
 10
81.702883333333261
 20
67.883111666666707
 11
81.737774999999942
 21
68.548865000000035
  0
LINE
  8
_1-8_小物
  6
CONTINUOUS
 62
    4
 10
83.402156666666656
 20
68.461638333333838
 11
82.736403333333328
 21
68.496528333333742
  0
LINE
  8
_1-8_小物
  6
CONTINUOUS
 62
    4
 10
84.400786666666363
 20
68.409301666667204
 11
84.033019999999965
 21
67.760995000000264
  0
LINE
  8
_1-8_小物
  6
CONTINUOUS
 62
    4
 10
84.033019999999965
 20
67.760995000000264
 11
83.367266666666637
 21
67.795885000000169
  0
LINE
  8
_1-8_小物
  6
CONTINUOUS
 62
    4
 10
83.367266666666637
 20
67.795885000000169
 11
83.402156666666656
 21
68.461638333333838
  0
LINE
  8
_1-8_小物
  6
CONTINUOUS
 62
    4
 10
85.066539999999918
 20
68.374411666666958
 11
84.400786666666363
 21
68.409301666667204
  0
LINE
  8
_1-8_小物
  6
CONTINUOUS
 62
    4
 10
86.065169999999966
 20
68.322075000000041
 11
85.697401666666565
 21
67.673768333333385
  0
LINE
  8
_1-8_小物
  6
CONTINUOUS
 62
    4
 10
85.697401666666565
 20
67.673768333333385
 11
85.031648333333237
 21
67.708658333333631
  0
LINE
  8
_1-8_小物
  6
CONTINUOUS
 62
    4
 10
85.031648333333237
 20
67.708658333333631
 11
85.066539999999918
 21
68.374411666666958
  0
LINE
  8
_1-8_小物
  6
CONTINUOUS
 62
    4
 10
86.730921666666518
 20
68.28718500000042
 11
86.065169999999966
 21
68.322075000000041
  0
LINE
  8
_1-8_小物
  6
CONTINUOUS
 62
    4
 10
87.361784999999827
 20
67.586541666666847
 11
86.696031666666499
 21
67.621431666667092
  0
LINE
  8
_1-8_小物
  6
CONTINUOUS
 62
    4
 10
86.696031666666499
 20
67.621431666667092
 11
86.730921666666518
 21
68.28718500000042
  0
LINE
  8
_1-8_小物
  6
CONTINUOUS
 62
    4
 10
79.686434999999847
 20
66.853101666666873
 11
80.2583249999999
 21
66.208535000000381
  0
LINE
  8
_1-8_小物
  6
CONTINUOUS
 62
    4
 10
80.289813333333313
 20
67.456481666667059
 11
79.666666666666515
 21
66.833333333333314
  0
LINE
  8
_1-8_小物
  6
CONTINUOUS
 62
    4
 10
87.666666666666629
 20
68.166666666666686
 11
87.361784999999827
 21
67.586541666666847
  0
LINE
  8
_1-8_小物
  6
CONTINUOUS
 62
    4
 10
85.066539999999918
 20
65.292255000000296
 11
86.619199999999751
 21
64.727133333333768
  0
LINE
  8
_1-8_小物
  6
CONTINUOUS
 62
    4
 10
85.066539999999918
 20
65.646981666666761
 11
86.733206666666547
 21
65.040363333333516
  0
LINE
  8
_1-8_小物
  6
CONTINUOUS
 62
    4
 10
85.066539999999918
 20
68.374411666666958
 11
86.619199999999751
 21
68.939533333333486
  0
LINE
  8
_1-8_小物
  6
CONTINUOUS
 62
    4
 10
85.066539999999918
 20
68.019685000000493
 11
86.733206666666547
 21
68.626303333333738
  0
LINE
  8
_1-8_小物
  6
CONTINUOUS
 62
    4
 10
79.34657999999979
 20
66.160751666666954
 11
79.407638333333239
 21
64.995685000000492
  0
LINE
  8
_1-8_小物
  6
CONTINUOUS
 62
    4
 10
79.407638333333239
 20
64.995685000000492
 11
78.706995000000006
 21
65.626546666667025
  0
LINE
  8
_1-8_小物
  6
CONTINUOUS
 62
    4
 10
78.706995000000006
 20
65.626546666667025
 11
78.680826666666462
 21
66.125861666666708
  0
LINE
  8
_1-8_小物
  6
CONTINUOUS
 62
    4
 10
78.680826666666462
 20
66.125861666666708
 11
88.999999999999773
 21
66.666666666666686
  0
LINE
  8
_1-8_小物
  6
CONTINUOUS
 62
    4
 10
87.666666666666629
 20
65.500000000000284
 11
88.999999999999773
 21
65.500000000000284
  0
LINE
  8
_1-8_小物
  6
CONTINUOUS
 62
    4
 10
79.34657999999979
 20
67.505915000000357
 11
79.407638333333239
 21
68.670981666666819
  0
LINE
  8
_1-8_小物
  6
CONTINUOUS
 62
    4
 10
79.407638333333239
 20
68.670981666666819
 11
78.706995000000006
 21
68.040120000000286
  0
LINE
  8
_1-8_小物
  6
CONTINUOUS
 62
    4
 10
78.706995000000006
 20
68.040120000000286
 11
78.680826666666462
 21
67.540805000000262
  0
LINE
  8
_1-8_小物
  6
CONTINUOUS
 62
    4
 10
78.680826666666462
 20
67.540805000000262
 11
88.999999999999773
 21
67.000000000000284
  0
LINE
  8
_1-8_小物
  6
CONTINUOUS
 62
    4
 10
87.666666666666629
 20
68.166666666666686
 11
88.999999999999773
 21
68.166666666666686
  0
LINE
  8
_1-8_小物
  6
CONTINUOUS
 62
    4
 10
86.619199999999751
 20
68.939533333333486
 11
88.887073333333433
 21
69.270318333333591
  0
ARC
  8
_1-8_小物
  6
CONTINUOUS
 62
    4
 10
88.906318333333274
 20
69.13838166666693
 40
0.1333333333333333
 50
8.1301019999676249
 51
98.298466000035219
  0
LINE
  8
_1-8_小物
  6
CONTINUOUS
 62
    4
 10
89.038311666666573
 20
69.157238333333851
 11
89.047683333333339
 21
69.09163000000018
  0
ARC
  8
_1-8_小物
  6
CONTINUOUS
 62
    4
 10
88.915689999999927
 20
69.072773333333316
 40
0.1333333333333333
 50
278.13010200004015
 51
8.1301020002163114
  0
LINE
  8
_1-8_小物
  6
CONTINUOUS
 62
    4
 10
88.934546666666506
 20
68.940780000000188
 11
86.733206666666547
 21
68.626303333333738
  0
LINE
  8
_1-8_小物
  6
CONTINUOUS
 62
    4
 10
86.619199999999751
 20
64.727133333333768
 11
88.887073333333433
 21
64.396348333333663
  0
ARC
  8
_1-8_小物
  6
CONTINUOUS
 62
    4
 10
88.906318333333274
 20
64.528285000000324
 40
0.1333333333333333
 50
261.70153399996479
 51
351.86989800003238
  0
LINE
  8
_1-8_小物
  6
CONTINUOUS
 62
    4
 10
89.038311666666573
 20
64.50943000000035
 11
89.047683333333339
 21
64.575036666667074
  0
ARC
  8
_1-8_小物
  6
CONTINUOUS
 62
    4
 10
88.915689999999927
 20
64.593893333333369
 40
0.1333333333333333
 50
351.86989800004449
 51
81.86989800000822
  0
LINE
  8
_1-8_小物
  6
CONTINUOUS
 62
    4
 10
88.934546666666506
 20
64.725886666667066
 11
86.733206666666547
 21
65.040363333333516
  0
LINE
  8
_1-8_小物
  6
CONTINUOUS
 62
    4
 10
86.619199999999751
 20
64.727133333333768
 11
88.887073333333433
 21
64.396348333333663
  0
ARC
  8
_1-8_小物
  6
CONTINUOUS
 62
    4
 10
88.906318333333274
 20
64.528285000000324
 40
0.1333333333333333
 50
261.70153399996479
 51
351.86989800003238
  0
LINE
  8
_1-8_小物
  6
CONTINUOUS
 62
    4
 10
89.038311666666573
 20
64.50943000000035
 11
89.047683333333339
 21
64.575036666667074
  0
ARC
  8
_1-8_小物
  6
CONTINUOUS
 62
    4
 10
88.915689999999927
 20
64.593893333333369
 40
0.1333333333333333
 50
351.86989800004449
 51
81.86989800000822
  0
LINE
  8
_1-8_小物
  6
CONTINUOUS
 62
    4
 10
88.934546666666506
 20
64.725886666667066
 11
86.733206666666547
 21
65.040363333333516
  0
LINE
  8
_1-8_小物
  6
CONTINUOUS
 62
    4
 10
91.666666666666629
 20
65.166666666666686
 11
90
 21
65.500000000000284
  0
LINE
  8
_1-8_小物
  6
CONTINUOUS
 62
    4
 10
91.666666666666629
 20
65.500000000000284
 11
88.999999999999773
 21
65.500000000000284
  0
LINE
  8
_1-8_小物
  6
CONTINUOUS
 62
    4
 10
88.999999999999773
 20
66.666666666666686
 11
88.999999999999773
 21
66.833333333333314
  0
LINE
  8
_1-8_小物
  6
CONTINUOUS
 62
    4
 10
90
 20
66.833333333333314
 11
91.666666666666629
 21
66.833333333333314
  0
LINE
  8
_1-8_小物
  6
CONTINUOUS
 62
    4
 10
91.666666666666629
 20
66.500000000000284
 11
90
 21
66.833333333333314
  0
LINE
  8
_1-8_小物
  6
CONTINUOUS
 62
    4
 10
91.666666666666629
 20
67.16666666666697
 11
90
 21
66.833333333333314
  0
LINE
  8
_1-8_小物
  6
CONTINUOUS
 62
    4
 10
91.666666666666629
 20
68.5
 11
90
 21
68.166666666666686
  0
LINE
  8
_1-8_小物
  6
CONTINUOUS
 62
    4
 10
91.666666666666629
 20
68.166666666666686
 11
88.999999999999773
 21
68.166666666666686
  0
LINE
  8
_1-8_小物
  6
CONTINUOUS
 62
    4
 10
88.999999999999773
 20
67.000000000000284
 11
88.999999999999773
 21
66.833333333333314
  0
LINE
  8
_1-8_小物
  6
CONTINUOUS
 62
    4
 10
91.666666666666629
 20
65.166666666666686
 11
91.666666666666629
 21
68.5
  0
ENDBLK
  0
BLOCK
  2
-026-_21_
 70
   64
 10
0
 20
0
 30
0
  0
LINE
  8
_1-8_小物
  6
CONTINUOUS
 62
    4
 10
93.099999162693962
 20
63.83333356116043
 11
93.099999162693962
 21
69.833333561160714
  0
LINE
  8
_1-8_小物
  6
CONTINUOUS
 62
    4
 10
92.599999162693962
 20
63.83333356116043
 11
92.599999162693962
 21
69.833333561160714
  0
LINE
  8
_1-8_小物
  6
CONTINUOUS
 62
    4
 10
93.099999162693962
 20
63.83333356116043
 11
92.599999162693962
 21
63.83333356116043
  0
LINE
  8
_1-8_小物
  6
CONTINUOUS
 62
    4
 10
93.099999162693962
 20
69.833333561160714
 11
92.599999162693962
 21
69.833333561160714
  0
LINE
  8
_1-8_小物
  6
CONTINUOUS
 62
    4
 10
93.099999162693962
 20
65.916666894493744
 11
92.599999162693962
 21
65.916666894493744
  0
LINE
  8
_1-8_小物
  6
CONTINUOUS
 62
    4
 10
93.099999162693962
 20
67.7500002278274
 11
92.599999162693962
 21
67.7500002278274
  0
LINE
  8
_1-8_小物
  6
CONTINUOUS
 62
    4
 10
93.099999162693962
 20
65.33333356116043
 11
93.514958767693997
 21
65.369637822427251
  0
LINE
  8
_1-8_小物
  6
CONTINUOUS
 62
    4
 10
93.514958767693997
 20
68.29702929992726
 11
93.099999162693962
 21
68.33333356116043
  0
ARC
  8
_1-8_小物
  6
CONTINUOUS
 62
    4
 10
93.486197372593892
 20
67.968285049527537
 40
0.3299999999999999
 50
37.367558032054447
 51
85.000000001204057
  0
ARC
  8
_1-8_小物
  6
CONTINUOUS
 62
    4
 10
93.486197372593892
 20
65.698382072793891
 40
0.3299999999999999
 50
274.9999999987964
 51
322.63244196794949
  0
ARC
  8
_1-8_小物
  6
CONTINUOUS
 62
    4
 10
91.999999162693939
 20
66.833333561160714
 40
2.1999999999999997
 50
322.63244196770495
 51
338.26638354339786
  0
ARC
  8
_1-8_小物
  6
CONTINUOUS
 62
    4
 10
91.999999162693939
 20
66.833333561160714
 40
2.1999999999999997
 50
21.748408590903569
 51
37.367558032305141
  0
LINE
  8
_1-8_小物
  6
CONTINUOUS
 62
    4
 10
94.186374872560691
 20
66.728333561160582
 11
94.041103242560553
 21
66.728333561160582
  0
LINE
  8
_1-8_小物
  6
CONTINUOUS
 62
    4
 10
94.186374872560691
 20
66.612570667193609
 11
94.186374872560691
 21
66.728333561160582
  0
LINE
  8
_1-8_小物
  6
CONTINUOUS
 62
    4
 10
94.041103242560553
 20
66.019165804993975
 11
94.186374872560691
 21
66.612570667193609
  0
LINE
  8
_1-8_小物
  6
CONTINUOUS
 62
    4
 10
94.186374872560691
 20
67.054096455160618
 11
94.09789626542738
 21
67.487399877727398
  0
LINE
  8
_1-8_小物
  6
CONTINUOUS
 62
    4
 10
94.09789626542738
 20
67.487399877727398
 11
94.041103242560553
 21
67.647501317360252
  0
LINE
  8
_1-8_小物
  6
CONTINUOUS
 62
    4
 10
94.186374872560691
 20
66.938333561160619
 11
94.186374872560691
 21
67.054096455160618
  0
LINE
  8
_1-8_小物
  6
CONTINUOUS
 62
    4
 10
94.041103242560553
 20
66.938333561160619
 11
94.186374872560691
 21
66.938333561160619
  0
LINE
  8
_1-8_小物
  6
CONTINUOUS
 62
    4
 10
94.041103242560553
 20
66.728333561160582
 11
94.042804967360667
 21
66.833333561160714
  0
LINE
  8
_1-8_小物
  6
CONTINUOUS
 62
    4
 10
94.042804967360667
 20
66.833333561160714
 11
94.041103242560553
 21
66.938333561160619
  0
LINE
  8
_1-8_小物
  6
CONTINUOUS
 62
    4
 10
93.514958767693997
 20
65.369637822427251
 11
93.514958767693997
 21
68.29702929992726
  0
LINE
  8
_1-8_小物
  6
CONTINUOUS
 62
    4
 10
93.748467644927359
 20
66.833333561160714
 11
93.748467644927359
 21
68.168570606327364
  0
LINE
  8
_1-8_小物
  6
CONTINUOUS
 62
    4
 10
93.748467644927359
 20
65.498096516027147
 11
93.748467644927359
 21
66.833333561160714
  0
ENDBLK
  0
BLOCK
  2
-027-_22_
 70
   64
 10
0
 20
0
 30
0
  0
LINE
  8
_1-7_カバ__
  6
CENTER2
 62
    4
 10
98.933333326104275
 20
77.166666723381013
 11
100.66666665943768
 21
77.166666723381013
  0
LINE
  8
_1-7_カバ__
  6
DASHED1
 62
    4
 10
99.666666659437738
 20
75.750000056714072
 11
99.999999992770881
 21
75.416666723380956
  0
LINE
  8
_1-7_カバ__
  6
DASHED1
 62
    4
 10
99.666666659437738
 20
75.750000056714072
 11
99.666666659437738
 21
78.583333390047926
  0
LINE
  8
_1-7_カバ__
  6
DASHED1
 62
    4
 10
99.666666659437738
 20
78.583333390047926
 11
99.999999992770881
 21
78.916666723381041
  0
LINE
  8
_1-7_カバ__
  6
DASHED1
 62
    4
 10
99.666666659437738
 20
75.750000056714072
 11
99.499999992771109
 21
75.750000056714072
  0
LINE
  8
_1-7_カバ__
  6
DASHED1
 62
    4
 10
99.666666659437738
 20
78.583333390047926
 11
99.499999992771109
 21
78.583333390047926
  0
LINE
  8
_1-7_カバ__
  6
CONTINUOUS
 62
    4
 10
99.499999992771109
 20
81.333333390047784
 11
95.833333326104366
 21
81.333333390047784
  0
LINE
  8
_1-7_カバ__
  6
CONTINUOUS
 62
    4
 10
99.499999992771109
 20
67.333333390047642
 11
99.499999992771109
 21
81.333333390047784
  0
LINE
  8
_1-7_カバ__
  6
CONTINUOUS
 62
    4
 10
95.333333326104366
 20
81.833333390047784
 11
99.999999992770881
 21
81.833333390047784
  0
LINE
  8
_1-7_カバ__
  6
CONTINUOUS
 62
    4
 10
99.999999992770881
 20
81.833333390047784
 11
99.999999992770881
 21
66.833333390047784
  0
LINE
  8
_1-7_カバ__
  6
CONTINUOUS
 62
    4
 10
95.333333326104366
 20
81.833333390047784
 11
95.333333326104366
 21
78.500000056714441
  0
LINE
  8
_1-7_カバ__
  6
CONTINUOUS
 62
    4
 10
95.833333326104309
 20
78.500000056714441
 11
95.333333326104366
 21
78.500000056714441
  0
LINE
  8
_1-7_カバ__
  6
CONTINUOUS
 62
    4
 10
95.833333326104309
 20
81.333333390047784
 11
95.833333326104309
 21
78.500000056714441
  0
LINE
  8
_1-7_カバ__
  6
CONTINUOUS
 62
    4
 10
96.66666665943751
 20
67.333333390047642
 11
99.499999992771109
 21
67.333333390047642
  0
LINE
  8
_1-7_カバ__
  6
CONTINUOUS
 62
    4
 10
96.66666665943751
 20
67.333333390047642
 11
96.66666665943751
 21
66.833333390047784
  0
LINE
  8
_1-7_カバ__
  6
CONTINUOUS
 62
    4
 10
99.999999992770881
 20
66.833333390047784
 11
96.66666665943751
 21
66.833333390047784
  0
ENDBLK
  0
BLOCK
  2
-028-_23_
 70
   64
 10
0
 20
0
 30
0
  0
ARC
  8
_1-8_小物
  6
CONTINUOUS
 62
    4
 10
95.433333326104332
 20
78.500000056714441
 40
0.0999999999999999
 50
180
 51
270.00000000003257
  0
ARC
  8
_1-8_小物
  6
CONTINUOUS
 62
    4
 10
94.666666659437681
 20
81.16666672338107
 40
0.1666666666666666
 50
0
 51
90
  0
ARC
  8
_1-8_小物
  6
CONTINUOUS
 62
    4
 10
94.666666659437681
 20
81.16666672338107
 40
0.6666666666666666
 50
0
 51
90
  0
ARC
  8
_1-8_小物
  6
CONTINUOUS
 62
    4
 10
95.333333326104366
 20
78.566666723381047
 40
0.5
 50
180
 51
270
  0
ARC
  8
_1-8_小物
  6
CONTINUOUS
 62
    4
 10
95.999987554474103
 20
80.519761030997927
 40
0.3333333333333333
 50
94.524257773784925
 51
184.52425777378977
  0
LINE
  8
_1-8_小物
  6
CONTINUOUS
 62
    4
 10
95.725118829234361
 20
78.400000056714418
 11
95.433333326104332
 21
78.400000056714418
  0
ARC
  8
_1-8_小物
  6
CONTINUOUS
 62
    4
 10
95.725118829234361
 20
78.500000056714441
 40
0.0999999999999999
 50
270
 51
4.5242577737902252
  0
LINE
  8
_1-8_小物
  6
CONTINUOUS
 62
    4
 10
95.333333326104366
 20
81.16666672338107
 11
95.333333326104366
 21
78.500000056714441
  0
LINE
  8
_1-8_小物
  6
CONTINUOUS
 62
    4
 10
95.667692878964431
 20
80.493467310473903
 11
95.824807231887235
 21
78.50788817287156
  0
ARC
  8
_1-8_小物
  6
CONTINUOUS
 62
    4
 10
96.250999431697778
 20
80.305560362507919
 40
0.1666666666666666
 50
94.524257773804393
 51
184.52425777379463
  0
LINE
  8
_1-8_小物
  6
CONTINUOUS
 62
    4
 10
96.084852093942914
 20
80.292413502245893
 11
96.232513895741022
 21
78.426293777238413
  0
LINE
  8
_1-8_小物
  6
CONTINUOUS
 62
    4
 10
95.900219220231293
 20
78.066666723381047
 11
95.333333326104366
 21
78.066666723381047
  0
ARC
  8
_1-8_小物
  6
CONTINUOUS
 62
    4
 10
95.900219220231293
 20
78.400000056714418
 40
0.3333333333333333
 50
270
 51
4.524257773794659
  0
LINE
  8
_1-8_小物
  6
CONTINUOUS
 62
    4
 10
95.973693833950165
 20
80.852055706507656
 11
96.272759041908898
 21
80.87572005497924
  0
LINE
  8
_1-8_小物
  6
CONTINUOUS
 62
    4
 10
96.237852571435781
 20
80.471707700262783
 11
96.304311506537715
 21
80.476966444367605
  0
ARC
  8
_1-8_小物
  6
CONTINUOUS
 62
    4
 10
96.288535274223307
 20
80.67634324967338
 40
0.1999999999999963
 50
274.52425777378892
 51
94.524257773788293
  0
LINE
  8
_1-8_小物
  6
CONTINUOUS
 62
    4
 10
94.666666659437681
 20
79.066666723381047
 11
94.833333326104366
 21
78.900000056714418
  0
LINE
  8
_1-8_小物
  6
CONTINUOUS
 62
    4
 10
94.666666659437681
 20
79.066666723381047
 11
94.833333326104366
 21
79.233333390047761
  0
LINE
  8
_1-8_小物
  6
CONTINUOUS
 62
    4
 10
94.833333326104366
 20
81.16666672338107
 11
94.833333326104366
 21
79.233333390047761
  0
LINE
  8
_1-8_小物
  6
CONTINUOUS
 62
    4
 10
94.833333326104366
 20
78.900000056714418
 11
94.833333326104366
 21
78.566666723381047
  0
ARC
  8
_1-8_小物
  6
CONTINUOUS
 62
    4
 10
91.207996252893849
 20
80.921310914236443
 40
0.4999999999999946
 50
99.360190801914598
 51
259.36019080191159
  0
LINE
  8
_1-8_小物
  6
CONTINUOUS
 62
    4
 10
93.707599272816083
 20
81.333333390047699
 11
91.394521952408923
 21
80.952056908661973
  0
ARC
  8
_1-8_小物
  6
CONTINUOUS
 62
    4
 10
91.399943300774908
 20
80.919167395241999
 40
0.0333333333333333
 50
99.360190801991195
 51
259.36019080183718
  0
ARC
  8
_1-8_小物
  6
CONTINUOUS
 62
    4
 10
92.390346817865634
 20
80.444816274695825
 40
0.25
 50
259.36019080191102
 51
79.360190801912211
  0
LINE
  8
_1-8_小物
  6
CONTINUOUS
 62
    4
 10
92.344188255068275
 20
80.199114449141973
 11
91.115679127299131
 21
80.429907263128769
  0
LINE
  8
_1-8_小物
  6
CONTINUOUS
 62
    4
 10
93.666666659437681
 20
81.833333390047699
 11
91.126676027404756
 21
81.414653615536878
  0
LINE
  8
_1-8_小物
  6
CONTINUOUS
 62
    4
 10
92.436505380662993
 20
80.690518100249648
 11
91.393788825735214
 21
80.886407151834788
  0
LINE
  8
_1-8_小物
  6
CONTINUOUS
 62
    4
 10
94.666666659437681
 20
81.333333390047699
 11
93.707599272816083
 21
81.333333390047699
  0
LINE
  8
_1-8_小物
  6
CONTINUOUS
 62
    4
 10
94.666666659437681
 20
81.833333390047699
 11
93.666666659437681
 21
81.833333390047699
  0
ENDBLK
  0
BLOCK
  2
-029-_24_
 70
   64
 10
0
 20
0
 30
0
  0
ARC
  8
_1-8_小物
  6
CONTINUOUS
 62
    4
 10
96.66666665943751
 20
66.933333390047778
 40
0.0999999999999999
 50
179.99999999998371
 51
270
  0
ARC
  8
_1-8_小物
  6
CONTINUOUS
 62
    4
 10
99.333333326104139
 20
66.166666723381127
 40
0.1666666666666666
 50
0
 51
90
  0
ARC
  8
_1-8_小物
  6
CONTINUOUS
 62
    4
 10
99.333333326104139
 20
66.166666723381127
 40
0.6666666666666666
 50
0
 51
90
  0
ARC
  8
_1-8_小物
  6
CONTINUOUS
 62
    4
 10
96.733333326104116
 20
66.833333390047784
 40
0.5
 50
180
 51
270
  0
ARC
  8
_1-8_小物
  6
CONTINUOUS
 62
    4
 10
98.686427633720996
 20
67.499987618417549
 40
0.3333333333333333
 50
265.47574222620528
 51
355.47574222621506
  0
LINE
  8
_1-8_小物
  6
CONTINUOUS
 62
    4
 10
96.566666659437487
 20
67.225118893177779
 11
96.566666659437487
 21
66.933333390047778
  0
ARC
  8
_1-8_小物
  6
CONTINUOUS
 62
    4
 10
96.66666665943751
 20
67.225118893177779
 40
0.0999999999999999
 50
85.475742226227297
 51
180
  0
LINE
  8
_1-8_小物
  6
CONTINUOUS
 62
    4
 10
99.333333326104139
 20
66.833333390047784
 11
96.66666665943751
 21
66.833333390047784
  0
LINE
  8
_1-8_小物
  6
CONTINUOUS
 62
    4
 10
98.660133913196944
 20
67.167692942907877
 11
96.674554775594629
 21
67.324807295830681
  0
ARC
  8
_1-8_小物
  6
CONTINUOUS
 62
    4
 10
98.472226965230959
 20
67.750999495641224
 40
0.1666666666666666
 50
265.47574222621506
 51
355.47574222621506
  0
LINE
  8
_1-8_小物
  6
CONTINUOUS
 62
    4
 10
98.459080104968962
 20
67.584852157886331
 11
96.592960379961482
 21
67.732513959684439
  0
LINE
  8
_1-8_小物
  6
CONTINUOUS
 62
    4
 10
96.233333326104116
 20
67.40021928417471
 11
96.233333326104116
 21
66.833333390047784
  0
ARC
  8
_1-8_小物
  6
CONTINUOUS
 62
    4
 10
96.566666659437487
 20
67.40021928417471
 40
0.3333333333333333
 50
85.47574222621509
 51
180
  0
LINE
  8
_1-8_小物
  6
CONTINUOUS
 62
    4
 10
99.018722309230725
 20
67.473693897893583
 11
99.042386657702309
 21
67.772759105852344
  0
LINE
  8
_1-8_小物
  6
CONTINUOUS
 62
    4
 10
98.638374302985824
 20
67.737852635379227
 11
98.643633047090646
 21
67.804311570481133
  0
ARC
  8
_1-8_小物
  6
CONTINUOUS
 62
    4
 10
98.843009852396449
 20
67.788535338166753
 40
0.1999999999999963
 50
355.47574222621108
 51
175.47574222621233
  0
LINE
  8
_1-8_小物
  6
CONTINUOUS
 62
    4
 10
97.233333326104116
 20
66.166666723381127
 11
97.066666659437487
 21
66.333333390047784
  0
LINE
  8
_1-8_小物
  6
CONTINUOUS
 62
    4
 10
97.233333326104116
 20
66.166666723381127
 11
97.399999992770802
 21
66.333333390047784
  0
LINE
  8
_1-8_小物
  6
CONTINUOUS
 62
    4
 10
99.333333326104139
 20
66.333333390047784
 11
97.399999992770802
 21
66.333333390047784
  0
LINE
  8
_1-8_小物
  6
CONTINUOUS
 62
    4
 10
97.066666659437487
 20
66.333333390047784
 11
96.733333326104116
 21
66.333333390047784
  0
ARC
  8
_1-8_小物
  6
CONTINUOUS
 62
    4
 10
99.087977516959484
 20
62.707996316837296
 40
0.4999999999999946
 50
190.63980919808779
 51
350.6398091980854
  0
LINE
  8
_1-8_小物
  6
CONTINUOUS
 62
    4
 10
99.499999992770768
 20
65.2075993367595
 11
99.118723511385042
 21
62.894522016352369
  0
ARC
  8
_1-8_小物
  6
CONTINUOUS
 62
    4
 10
99.08583399796504
 20
62.899943364718325
 40
0.0333333333333333
 50
190.6398091981238
 51
350.63980919804908
  0
ARC
  8
_1-8_小物
  6
CONTINUOUS
 62
    4
 10
98.611482877418894
 20
63.890346881809052
 40
0.25
 50
10.639809198089004
 51
190.63980919808657
  0
LINE
  8
_1-8_小物
  6
CONTINUOUS
 62
    4
 10
98.365781051865042
 20
63.844188319011693
 11
98.596573865851838
 21
62.615679191242577
  0
LINE
  8
_1-8_小物
  6
CONTINUOUS
 62
    4
 10
99.999999992770768
 20
65.166666723381127
 11
99.581320218259918
 21
62.626676091348202
  0
LINE
  8
_1-8_小物
  6
CONTINUOUS
 62
    4
 10
98.857184702972688
 20
63.936505444606411
 11
99.053073754557829
 21
62.89378888967866
  0
LINE
  8
_1-8_小物
  6
CONTINUOUS
 62
    4
 10
99.499999992770768
 20
66.166666723381127
 11
99.499999992770768
 21
65.2075993367595
  0
LINE
  8
_1-8_小物
  6
CONTINUOUS
 62
    4
 10
99.999999992770768
 20
66.166666723381127
 11
99.999999992770768
 21
65.166666723381127
  0
ENDBLK
  0
BLOCK
  2
-030-_25_
 70
   64
 10
0
 20
0
 30
0
  0
LINE
  8
_1-8_小物
  6
CONTINUOUS
 62
    4
 10
97.366667876195322
 20
60.433333533933279
 11
97.866667876195095
 21
60.433333533933279
  0
ARC
  8
_1-8_小物
  6
CONTINUOUS
 62
    4
 10
97.947949876195196
 20
61.03333353393333
 40
0.066667
 50
345.96380800001174
 51
90
  0
LINE
  8
_1-8_小物
  6
CONTINUOUS
 62
    4
 10
97.366667876195322
 20
62.100000200599936
 11
97.366667876195322
 21
60.433333533933279
  0
LINE
  8
_1-8_小物
  6
CONTINUOUS
 62
    4
 10
97.800001209528602
 20
62.100000200599936
 11
97.800001209528602
 21
61.099999533933271
  0
LINE
  8
_1-8_小物
  6
CONTINUOUS
 62
    4
 10
97.800001209528602
 20
61.099999533933271
 11
97.947949876195196
 21
61.099999533933271
  0
LINE
  8
_1-8_小物
  6
CONTINUOUS
 62
    4
 10
97.866668876195206
 20
60.433333533933279
 11
98.012625895744407
 21
61.017164612129989
  0
LINE
  8
_1-8_小物
  6
CONTINUOUS
 62
    4
 10
99.366667876195322
 20
60.433333533933279
 11
98.86666787619555
 21
60.433333533933279
  0
ARC
  8
_1-8_小物
  6
CONTINUOUS
 62
    4
 10
98.785385876195448
 20
61.03333353393333
 40
0.066667
 50
90
 51
194.0361919999882
  0
LINE
  8
_1-8_小物
  6
CONTINUOUS
 62
    4
 10
99.366667876195322
 20
62.100000200599936
 11
99.366667876195322
 21
60.433333533933279
  0
LINE
  8
_1-8_小物
  6
CONTINUOUS
 62
    4
 10
98.933334542861985
 20
62.100000200599936
 11
98.933334542861985
 21
61.099999533933271
  0
LINE
  8
_1-8_小物
  6
CONTINUOUS
 62
    4
 10
98.933334542861985
 20
61.099999533933271
 11
98.785385876195448
 21
61.099999533933271
  0
LINE
  8
_1-8_小物
  6
CONTINUOUS
 62
    4
 10
98.866666876195438
 20
60.433333533933279
 11
98.720709856646181
 21
61.017164612129989
  0
ARC
  8
_1-8_小物
  6
CONTINUOUS
 62
    4
 10
98.366667876195322
 20
62.100000200599936
 40
0.5666666666666817
 50
0
 51
180
  0
ARC
  8
_1-8_小物
  6
CONTINUOUS
 62
    4
 10
98.366667876195322
 20
62.100000200599936
 40
1
 50
0
 51
180
  0
ENDBLK
  0
BLOCK
  2
-031-_26_
 70
   64
 10
0
 20
0
 30
0
  0
LINE
  8
_1-8_小物
  6
CONTINUOUS
 62
    4
 10
107.83333374267681
 20
60.433333333333394
 11
108.33333374267659
 21
60.433333333333394
  0
ARC
  8
_1-8_小物
  6
CONTINUOUS
 62
    4
 10
108.41461574267669
 20
61.033333333333445
 40
0.066667
 50
345.96380799997621
 51
90
  0
LINE
  8
_1-8_小物
  6
CONTINUOUS
 62
    4
 10
107.83333374267681
 20
62.100000000000051
 11
107.83333374267681
 21
60.433333333333394
  0
LINE
  8
_1-8_小物
  6
CONTINUOUS
 62
    4
 10
108.26666707601009
 20
62.100000000000051
 11
108.26666707601009
 21
61.099999333333386
  0
LINE
  8
_1-8_小物
  6
CONTINUOUS
 62
    4
 10
108.26666707601009
 20
61.099999333333386
 11
108.41461574267669
 21
61.099999333333386
  0
LINE
  8
_1-8_小物
  6
CONTINUOUS
 62
    4
 10
108.3333347426767
 20
60.433333333333394
 11
108.4792917622259
 21
61.017164411530104
  0
LINE
  8
_1-8_小物
  6
CONTINUOUS
 62
    4
 10
109.83333374267681
 20
60.433333333333394
 11
109.33333374267704
 21
60.433333333333394
  0
ARC
  8
_1-8_小物
  6
CONTINUOUS
 62
    4
 10
109.25205174267694
 20
61.033333333333445
 40
0.066667
 50
90
 51
194.03619200001194
  0
LINE
  8
_1-8_小物
  6
CONTINUOUS
 62
    4
 10
109.83333374267681
 20
62.100000000000051
 11
109.83333374267681
 21
60.433333333333394
  0
LINE
  8
_1-8_小物
  6
CONTINUOUS
 62
    4
 10
109.40000040934342
 20
62.100000000000051
 11
109.40000040934342
 21
61.099999333333386
  0
LINE
  8
_1-8_小物
  6
CONTINUOUS
 62
    4
 10
109.40000040934342
 20
61.099999333333386
 11
109.25205174267694
 21
61.099999333333386
  0
LINE
  8
_1-8_小物
  6
CONTINUOUS
 62
    4
 10
109.33333274267693
 20
60.433333333333394
 11
109.18737572312762
 21
61.017164411530104
  0
ARC
  8
_1-8_小物
  6
CONTINUOUS
 62
    4
 10
108.83333374267681
 20
62.100000000000051
 40
0.5666666666666817
 50
0
 51
180
  0
ARC
  8
_1-8_小物
  6
CONTINUOUS
 62
    4
 10
108.83333374267681
 20
62.100000000000051
 40
1
 50
0
 51
180
  0
ENDBLK
  0
BLOCK
  2
-032-_27_
 70
   64
 10
0
 20
0
 30
0
  0
LINE
  8
_1-8_小物
  6
CONTINUOUS
 62
    4
 10
-92.166666666666828
 20
60.433333333333394
 11
-91.666666666667055
 21
60.433333333333394
  0
ARC
  8
_1-8_小物
  6
CONTINUOUS
 62
    4
 10
-91.585384666666954
 20
61.033333333333445
 40
0.066667
 50
345.96380799998508
 51
90
  0
LINE
  8
_1-8_小物
  6
CONTINUOUS
 62
    4
 10
-92.166666666666828
 20
62.100000000000051
 11
-92.166666666666828
 21
60.433333333333394
  0
LINE
  8
_1-8_小物
  6
CONTINUOUS
 62
    4
 10
-91.733333333333505
 20
62.100000000000051
 11
-91.733333333333505
 21
61.099999333333386
  0
LINE
  8
_1-8_小物
  6
CONTINUOUS
 62
    4
 10
-91.733333333333505
 20
61.099999333333386
 11
-91.585384666666954
 21
61.099999333333386
  0
LINE
  8
_1-8_小物
  6
CONTINUOUS
 62
    4
 10
-91.666665666666944
 20
60.433333333333394
 11
-91.520708647117701
 21
61.017164411530104
  0
LINE
  8
_1-8_小物
  6
CONTINUOUS
 62
    4
 10
-90.166666666666828
 20
60.433333333333394
 11
-90.6666666666666
 21
60.433333333333394
  0
ARC
  8
_1-8_小物
  6
CONTINUOUS
 62
    4
 10
-90.747948666666701
 20
61.033333333333445
 40
0.066667
 50
90
 51
194.03619200001785
  0
LINE
  8
_1-8_小物
  6
CONTINUOUS
 62
    4
 10
-90.166666666666828
 20
62.100000000000051
 11
-90.166666666666828
 21
60.433333333333394
  0
LINE
  8
_1-8_小物
  6
CONTINUOUS
 62
    4
 10
-90.600000000000136
 20
62.100000000000051
 11
-90.600000000000136
 21
61.099999333333386
  0
LINE
  8
_1-8_小物
  6
CONTINUOUS
 62
    4
 10
-90.600000000000136
 20
61.099999333333386
 11
-90.747948666666701
 21
61.099999333333386
  0
LINE
  8
_1-8_小物
  6
CONTINUOUS
 62
    4
 10
-90.666667666666712
 20
60.433333333333394
 11
-90.812624686215941
 21
61.017164411530104
  0
ARC
  8
_1-8_小物
  6
CONTINUOUS
 62
    4
 10
-91.166666666666828
 20
62.100000000000051
 40
0.5666666666666817
 50
0
 51
180
  0
ARC
  8
_1-8_小物
  6
CONTINUOUS
 62
    4
 10
-91.166666666666828
 20
62.100000000000051
 40
1
 50
0
 51
180
  0
ENDBLK
  0
BLOCK
  2
-033-_28_
 70
   64
 10
0
 20
0
 30
0
  0
LINE
  8
_1-8_小物
  6
CONTINUOUS
 62
    4
 10
-109.83333333333319
 20
60.433333333333394
 11
-109.33333333333341
 21
60.433333333333394
  0
ARC
  8
_1-8_小物
  6
CONTINUOUS
 62
    4
 10
-109.25205133333331
 20
61.033333333333445
 40
0.066667
 50
345.96380799998508
 51
90
  0
LINE
  8
_1-8_小物
  6
CONTINUOUS
 62
    4
 10
-109.83333333333319
 20
62.100000000000051
 11
-109.83333333333319
 21
60.433333333333394
  0
LINE
  8
_1-8_小物
  6
CONTINUOUS
 62
    4
 10
-109.39999999999986
 20
62.100000000000051
 11
-109.39999999999986
 21
61.099999333333386
  0
LINE
  8
_1-8_小物
  6
CONTINUOUS
 62
    4
 10
-109.39999999999986
 20
61.099999333333386
 11
-109.25205133333331
 21
61.099999333333386
  0
LINE
  8
_1-8_小物
  6
CONTINUOUS
 62
    4
 10
-109.3333323333333
 20
60.433333333333394
 11
-109.18737531378406
 21
61.017164411530104
  0
LINE
  8
_1-8_小物
  6
CONTINUOUS
 62
    4
 10
-107.83333333333319
 20
60.433333333333394
 11
-108.33333333333296
 21
60.433333333333394
  0
ARC
  8
_1-8_小物
  6
CONTINUOUS
 62
    4
 10
-108.41461533333306
 20
61.033333333333445
 40
0.066667
 50
90
 51
194.03619200001489
  0
LINE
  8
_1-8_小物
  6
CONTINUOUS
 62
    4
 10
-107.83333333333319
 20
62.100000000000051
 11
-107.83333333333319
 21
60.433333333333394
  0
LINE
  8
_1-8_小物
  6
CONTINUOUS
 62
    4
 10
-108.26666666666651
 20
62.100000000000051
 11
-108.26666666666651
 21
61.099999333333386
  0
LINE
  8
_1-8_小物
  6
CONTINUOUS
 62
    4
 10
-108.26666666666651
 20
61.099999333333386
 11
-108.41461533333306
 21
61.099999333333386
  0
LINE
  8
_1-8_小物
  6
CONTINUOUS
 62
    4
 10
-108.33333433333307
 20
60.433333333333394
 11
-108.47929135288231
 21
61.017164411530104
  0
ARC
  8
_1-8_小物
  6
CONTINUOUS
 62
    4
 10
-108.83333333333319
 20
62.100000000000051
 40
0.5666666666666817
 50
0
 51
180
  0
ARC
  8
_1-8_小物
  6
CONTINUOUS
 62
    4
 10
-108.83333333333319
 20
62.100000000000051
 40
1
 50
0
 51
180
  0
ENDBLK
  0
BLOCK
  2
-034-_29_
 70
   64
 10
0
 20
0
 30
0
  0
LINE
  8
_1-9_センタ__プレ__ト
  6
CONTINUOUS
 62
    4
 10
99.50000106803418
 20
64.266666867266679
 11
100.00000106803418
 21
64.266666867266679
  0
LINE
  8
_1-9_センタ__プレ__ト
  6
CONTINUOUS
 62
    4
 10
98.500001068033953
 20
64.166666867266599
 11
98.500001068033953
 21
64.266666867266679
  0
LINE
  8
_1-9_センタ__プレ__ト
  6
CONTINUOUS
 62
    4
 10
98.500001068033953
 20
64.166666867266599
 11
99.50000106803418
 21
64.166666867266599
  0
LINE
  8
_1-9_センタ__プレ__ト
  6
CONTINUOUS
 62
    4
 10
99.50000106803418
 20
64.166666867266599
 11
99.50000106803418
 21
64.266666867266679
  0
LINE
  8
_1-9_センタ__プレ__ト
  6
CONTINUOUS
 62
    4
 10
100.50000106803407
 20
64.266666867266679
 11
100.00000106803418
 21
64.266666867266679
  0
LINE
  8
_1-9_センタ__プレ__ト
  6
CONTINUOUS
 62
    4
 10
102.50000106803418
 20
64.266666867266679
 11
101.50000106803418
 21
64.266666867266679
  0
LINE
  8
_1-9_センタ__プレ__ト
  6
CONTINUOUS
 62
    4
 10
103.50000106803395
 20
64.166666867266599
 11
103.50000106803395
 21
64.266666867266679
  0
LINE
  8
_1-9_センタ__プレ__ト
  6
CONTINUOUS
 62
    4
 10
102.50000106803418
 20
64.166666867266599
 11
102.50000106803418
 21
64.266666867266679
  0
LINE
  8
_1-9_センタ__プレ__ト
  6
CONTINUOUS
 62
    4
 10
101.50000106803418
 20
64.166666867266599
 11
101.50000106803418
 21
64.266666867266679
  0
LINE
  8
_1-9_センタ__プレ__ト
  6
CONTINUOUS
 62
    4
 10
101.50000106803418
 20
64.166666867266599
 11
100.50000106803407
 21
64.166666867266599
  0
LINE
  8
_1-9_センタ__プレ__ト
  6
CONTINUOUS
 62
    4
 10
100.50000106803407
 20
64.166666867266599
 11
100.50000106803407
 21
64.266666867266679
  0
LINE
  8
_1-9_センタ__プレ__ト
  6
CONTINUOUS
 62
    4
 10
103.50000106803395
 20
64.166666867266599
 11
102.50000106803418
 21
64.166666867266599
  0
LINE
  8
_1-9_センタ__プレ__ト
  6
CONTINUOUS
 62
    4
 10
104.50000106803418
 20
64.266666867266679
 11
103.50000106803395
 21
64.266666867266679
  0
LINE
  8
_1-9_センタ__プレ__ト
  6
CONTINUOUS
 62
    4
 10
105.50000106803407
 20
64.166666867266599
 11
105.50000106803407
 21
64.266666867266679
  0
LINE
  8
_1-9_センタ__プレ__ト
  6
CONTINUOUS
 62
    4
 10
104.50000106803418
 20
64.166666867266599
 11
104.50000106803418
 21
64.266666867266679
  0
LINE
  8
_1-9_センタ__プレ__ト
  6
CONTINUOUS
 62
    4
 10
105.50000106803407
 20
64.166666867266599
 11
104.50000106803418
 21
64.166666867266599
  0
LINE
  8
_1-9_センタ__プレ__ト
  6
CONTINUOUS
 62
    4
 10
106.50000106803418
 20
64.266666867266679
 11
105.50000106803407
 21
64.266666867266679
  0
LINE
  8
_1-9_センタ__プレ__ト
  6
CONTINUOUS
 62
    4
 10
107.50000106803418
 20
64.166666867266599
 11
107.50000106803418
 21
64.266666867266679
  0
LINE
  8
_1-9_センタ__プレ__ト
  6
CONTINUOUS
 62
    4
 10
106.50000106803418
 20
64.166666867266599
 11
106.50000106803418
 21
64.266666867266679
  0
LINE
  8
_1-9_センタ__プレ__ト
  6
CONTINUOUS
 62
    4
 10
107.50000106803418
 20
64.166666867266599
 11
106.50000106803418
 21
64.166666867266599
  0
LINE
  8
_1-9_センタ__プレ__ト
  6
CONTINUOUS
 62
    4
 10
95.500001068034067
 20
61.100000200600107
 11
96.166667734700809
 21
61.100000200600107
  0
LINE
  8
_1-9_センタ__プレ__ト
  6
CONTINUOUS
 62
    4
 10
95.500001068034067
 20
64.266666867266679
 11
98.500001068033953
 21
64.266666867266679
  0
LINE
  8
_1-9_センタ__プレ__ト
  6
CONTINUOUS
 62
    4
 10
95.500001068034067
 20
64.266666867266679
 11
95.500001068034067
 21
61.100000200600107
  0
LINE
  8
_1-9_センタ__プレ__ト
  6
CONTINUOUS
 62
    4
 10
96.166667734700809
 20
63.100000200599936
 11
96.166667734700809
 21
61.100000200600107
  0
LINE
  8
_1-9_センタ__プレ__ト
  6
CONTINUOUS
 62
    4
 10
119.33333340143406
 20
62.400366352377887
 11
119.33333340143406
 21
60.401472440690952
  0
LINE
  8
_1-9_センタ__プレ__ト
  6
CONTINUOUS
 62
    4
 10
118.66666673470081
 20
60.401472440690952
 11
119.33333340143406
 21
60.401472440690952
  0
LINE
  8
_1-9_センタ__プレ__ト
  6
CONTINUOUS
 62
    4
 10
118.66666673470081
 20
61.401472440691009
 11
118.66666673470081
 21
60.401472440690952
  0
LINE
  8
_1-9_センタ__プレ__ト
  6
CONTINUOUS
 62
    4
 10
114.20571587886081
 20
64.266666867266679
 11
119.33333440136738
 21
62.400366352402131
  0
LINE
  8
_1-9_センタ__プレ__ト
  6
CONTINUOUS
 62
    4
 10
114.00000106803418
 20
63.100000200599936
 11
118.66666773470087
 21
61.401472440691009
  0
LINE
  8
_1-9_センタ__プレ__ト
  6
CONTINUOUS
 62
    4
 10
114.00000106803429
 20
63.100000200599936
 11
96.166667734700809
 21
63.100000200599936
  0
LINE
  8
_1-9_センタ__プレ__ト
  6
CONTINUOUS
 62
    4
 10
108.50000106803395
 20
64.266666867266679
 11
107.50000106803418
 21
64.266666867266679
  0
LINE
  8
_1-9_センタ__プレ__ト
  6
CONTINUOUS
 62
    4
 10
109.50000106803418
 20
64.166666867266599
 11
109.50000106803418
 21
64.266666867266679
  0
LINE
  8
_1-9_センタ__プレ__ト
  6
CONTINUOUS
 62
    4
 10
108.50000106803395
 20
64.166666867266599
 11
108.50000106803395
 21
64.266666867266679
  0
LINE
  8
_1-9_センタ__プレ__ト
  6
CONTINUOUS
 62
    4
 10
109.50000106803418
 20
64.166666867266599
 11
108.50000106803395
 21
64.166666867266599
  0
LINE
  8
_1-9_センタ__プレ__ト
  6
CONTINUOUS
 62
    4
 10
110.50000106803407
 20
64.266666867266679
 11
109.50000106803418
 21
64.266666867266679
  0
LINE
  8
_1-9_センタ__プレ__ト
  6
CONTINUOUS
 62
    4
 10
111.50000106803418
 20
64.166666867266599
 11
111.50000106803418
 21
64.266666867266679
  0
LINE
  8
_1-9_センタ__プレ__ト
  6
CONTINUOUS
 62
    4
 10
110.50000106803407
 20
64.166666867266599
 11
110.50000106803407
 21
64.266666867266679
  0
LINE
  8
_1-9_センタ__プレ__ト
  6
CONTINUOUS
 62
    4
 10
111.50000106803418
 20
64.166666867266599
 11
110.50000106803407
 21
64.166666867266599
  0
LINE
  8
_1-9_センタ__プレ__ト
  6
CONTINUOUS
 62
    4
 10
114.20571587886081
 20
64.266666867266679
 11
111.50000106803418
 21
64.266666867266679
  0
LINE
  8
_1-9_センタ__プレ__ト
  6
CENTER2
 62
    4
 10
100.00000106803418
 20
60.598595886274467
 11
100.00000106803418
 21
65.100000200600022
  0
ENDBLK
  0
ENDSEC
  0
SECTION
  2
ENTITIES
  0
LINE
  8
_0-0_図面枠
  6
CONTINUOUS
 62
    6
 10
410.00000000000006
 20
287
 11
10
 21
287.00000000000006
  0
LINE
  8
_0-0_図面枠
  6
CONTINUOUS
 62
    6
 10
410
 20
9.9999999999998863
 11
410.00000000000006
 21
287
  0
LINE
  8
_0-0_図面枠
  6
CONTINUOUS
 62
    6
 10
9.9999999999999147
 20
10
 11
410
 21
9.9999999999998863
  0
LINE
  8
_0-0_図面枠
  6
CONTINUOUS
 62
    6
 10
10
 20
287.00000000000006
 11
9.9999999999999147
 21
10
  0
LINE
  8
_0-0_図面枠
  6
CONTINUOUS
 62
    6
 10
210
 20
287
 11
210.00000000000003
 21
9.9999999999999432
  0
TEXT
  8
_0-0_図面枠
 62
    4
 10
20
 20
280
 40
3.2000000000000002
 41
1
 50
0
  1
（アルミ５０タイプ）
  0
TEXT
  8
_0-0_図面枠
 62
    4
 10
220
 20
280
 40
3.2000000000000002
 41
1
 50
0
  1
（アルミ５０タイプ）
  0
TEXT
  8
_0-0_図面枠
 62
    4
 10
30
 20
270
 40
3.2000000000000002
 41
1
 50
0
  1
◇床＋床（５０ＴＴＧ－Ａ）　Ｓ＝１／３
  0
TEXT
  8
_0-0_図面枠
 62
    4
 10
230
 20
270
 40
3.2000000000000002
 41
1
 50
0
  1
◇床＋床コーナー（５０ＴＣＧ－Ａ）　Ｓ＝１／３
  0
LINE
  8
_0-0_図面枠
  6
CONTINUOUS
 62
    2
 10
165.00000000000003
 20
246.99999999999994
 11
210.00000000000003
 21
246.99999999999994
  0
LINE
  8
_0-0_図面枠
  6
CONTINUOUS
 62
    2
 10
165.00000000000003
 20
246.99999999999994
 11
165.00000000000003
 21
287
  0
LINE
  8
_0-0_図面枠
  6
CONTINUOUS
 62
    4
 10
203.41099396657057
 20
266.02749333152161
 11
203.3763215892879
 21
266.007475225164
  0
LINE
  8
_0-0_図面枠
  6
CONTINUOUS
 62
    2
 10
187.38952399655849
 20
259.77749333152161
 11
204.71003207224726
 21
269.77749333152161
  0
LINE
  8
_0-0_図面枠
  6
CONTINUOUS
 62
    2
 10
187.38952399655849
 20
259.77749333152161
 11
187.38952399655849
 21
256.77749333152161
  0
LINE
  8
_0-0_図面枠
  6
CONTINUOUS
 62
    2
 10
193.88471452494178
 20
260.52749333152161
 11
193.88471452494178
 21
263.52749333152161
  0
LINE
  8
_0-0_図面枠
  6
CONTINUOUS
 62
    2
 10
187.38952399655849
 20
256.77749333152161
 11
193.88471452494178
 21
260.52749333152161
  0
LINE
  8
_0-0_図面枠
  6
CONTINUOUS
 62
    2
 10
204.71003207224726
 20
269.77749333152161
 11
204.71003207224726
 21
266.77749333152161
  0
LINE
  8
_0-0_図面枠
  6
CONTINUOUS
 62
    2
 10
204.71003207224726
 20
266.77749333152161
 11
198.21484154386397
 21
263.02749333152161
  0
LINE
  8
_0-0_図面枠
  6
CONTINUOUS
 62
    2
 10
198.21484154386397
 20
263.02749333152161
 11
198.21484154386397
 21
266.02749333152161
  0
LINE
  8
_0-0_図面枠
  6
CONTINUOUS
 62
    2
 10
198.21484154386397
 20
263.02749333152161
 11
195.61676533251065
 21
264.52749333152161
  0
LINE
  8
_0-0_図面枠
  6
CONTINUOUS
 62
    2
 10
187.38952399655849
 20
256.77749333152161
 11
178.72926995871413
 21
261.77749333152161
  0
LINE
  8
_0-0_図面枠
  6
CONTINUOUS
 62
    2
 10
193.88471452494178
 20
263.52749333152161
 11
185.22446048709742
 21
268.52749333152161
  0
LINE
  8
_0-0_図面枠
  6
CONTINUOUS
 62
    2
 10
204.71003207224726
 20
269.77749333152161
 11
196.04977803440292
 21
274.77749333152161
  0
LINE
  8
_0-0_図面枠
  6
CONTINUOUS
 62
    2
 10
187.38952399655849
 20
259.77749333152161
 11
178.72926995871413
 21
264.77749333152161
  0
LINE
  8
_0-0_図面枠
  6
CONTINUOUS
 62
    2
 10
193.88471452494178
 20
260.52749333152161
 11
191.28663831358847
 21
262.02749333152161
  0
LINE
  8
_0-0_図面枠
  6
CONTINUOUS
 62
    2
 10
204.71003207224726
 20
266.77749333152161
 11
202.11195586089394
 21
268.27749333152161
  0
INSERT
  2
-000-
  8
_0-0_図面枠
 10
210
 20
148.5
 41
1
 42
1
 50
0
  0
LINE
  8
_0-0_図面枠
  6
CONTINUOUS
 62
    2
 10
198.21484154386397
 20
266.02749333152161
 11
195.94825785628657
 21
267.33610603368527
  0
LINE
  8
_0-0_図面枠
  6
CONTINUOUS
 62
    2
 10
192.46489856474321
 20
269.347224458342
 11
189.5545875060196
 21
271.02749333152161
  0
LINE
  8
_0-0_図面枠
  6
CONTINUOUS
 62
    3
 10
193.88471452494178
 20
260.52749333152161
 11
185.22446048709736
 21
255.52749333152161
  0
LINE
  8
_0-0_図面枠
  6
CONTINUOUS
 62
    3
 10
193.88471452494178
 20
260.52749333152161
 11
193.88471452494178
 21
250.52749333152161
  0
LINE
  8
_0-0_図面枠
  6
CONTINUOUS
 62
    3
 10
198.21484154386397
 20
263.02749333152161
 11
198.21484154386397
 21
253.02749333152161
  0
LINE
  8
_0-0_図面枠
  6
CONTINUOUS
 62
    3
 10
198.21484154386397
 20
263.02749333152161
 11
206.87509558170834
 21
268.02749333152161
  0
TEXT
  8
_0-0_図面枠
 62
    4
 10
168.58712759789969
 20
279.54737717230722
 40
2.5
 41
1
 50
0
  1
-25
  0
TEXT
  8
_0-0_図面枠
 62
    4
 10
191.10298128817081
 20
279.54737717230716
 40
2.5
 41
1
 50
0
  1
+25
  0
TEXT
  8
_0-0_図面枠
 62
    4
 10
191.10298128817078
 20
266.54784298319493
 40
2.5
 41
1
 50
0
  1
+25
  0
TEXT
  8
_0-0_図面枠
 62
    4
 10
168.5867241920304
 20
266.54854175273658
 40
2.5
 41
1
 50
0
  1
-25
  0
LINE
  8
_0-0_図面枠
  6
CONTINUOUS
 62
    2
 10
365.00000000000006
 20
246.99999999999989
 11
410.00000000000006
 21
246.99999999999989
  0
LINE
  8
_0-0_図面枠
  6
CONTINUOUS
 62
    2
 10
365.00000000000006
 20
246.99999999999994
 11
365.00000000000006
 21
287
  0
LINE
  8
_0-0_図面枠
  6
CONTINUOUS
 62
    2
 10
402.70635184916443
 20
271.07315933141956
 11
400.54128833970333
 21
269.82315933141956
  0
LINE
  8
_0-0_図面枠
  6
CONTINUOUS
 62
    2
 10
400.54128833970333
 20
269.82315933141956
 11
400.54128833970333
 21
264.82315933141956
  0
LINE
  8
_0-0_図面枠
  6
CONTINUOUS
 62
    2
 10
400.54128833970333
 20
264.82315933141956
 11
391.88103430185896
 21
259.82315933141956
  0
LINE
  8
_0-0_図面枠
  6
CONTINUOUS
 62
    2
 10
391.88103430185896
 20
259.82315933141956
 11
391.88103430185896
 21
256.82315933141956
  0
LINE
  8
_0-0_図面枠
  6
CONTINUOUS
 62
    2
 10
391.88103430185896
 20
259.82315933141956
 11
383.22078026401459
 21
264.82315933141956
  0
LINE
  8
_0-0_図面枠
  6
CONTINUOUS
 62
    2
 10
391.88103430185896
 20
256.82315933141956
 11
383.22078026401459
 21
261.82315933141956
  0
LINE
  8
_0-0_図面枠
  6
CONTINUOUS
 62
    2
 10
398.37622483024228
 20
263.57315933141956
 11
389.71597079239791
 21
268.57315933141956
  0
LINE
  8
_0-0_図面枠
  6
CONTINUOUS
 62
    2
 10
400.54128833970333
 20
269.82315933141956
 11
391.88103430185902
 21
274.82315933141956
  0
LINE
  8
_0-0_図面枠
  6
CONTINUOUS
 62
    2
 10
398.37622483024228
 20
263.57315933141956
 11
398.37622483024228
 21
260.57315933141956
  0
LINE
  8
_0-0_図面枠
  6
CONTINUOUS
 62
    2
 10
402.70635184916443
 20
271.07315933141956
 11
402.70635184916443
 21
263.87315933141957
  0
LINE
  8
_0-0_図面枠
  6
CONTINUOUS
 62
    2
 10
400.54128833970333
 20
264.82315933141956
 11
400.54128833970333
 21
262.62315933141957
  0
LINE
  8
_0-0_図面枠
  6
CONTINUOUS
 62
    2
 10
400.54128833970333
 20
262.62315933141957
 11
402.70635184916443
 21
263.87315933141957
  0
LINE
  8
_0-0_図面枠
  6
CONTINUOUS
 62
    2
 10
400.54128833970333
 20
262.62315933141957
 11
398.63603245137762
 21
263.72315933141959
  0
LINE
  8
_0-0_図面枠
  6
CONTINUOUS
 62
    2
 10
391.88103430185896
 20
256.82315933141956
 11
398.37622483024228
 21
260.57315933141956
  0
LINE
  8
_0-0_図面枠
  6
CONTINUOUS
 62
    2
 10
398.37622483024228
 20
260.57315933141962
 11
395.77814861888896
 21
262.07315933141962
  0
LINE
  8
_0-0_図面枠
  6
CONTINUOUS
 62
    2
 10
402.70635184916443
 20
263.87315933141957
 11
400.54128833970333
 21
265.12315933141952
  0
INSERT
  2
-001-_1_
  8
_0-0_図面枠
 10
210
 20
148.5
 41
1
 42
1
 50
0
  0
LINE
  8
_0-0_図面枠
  6
CONTINUOUS
 62
    2
 10
402.70635184916438
 20
271.0731593314195
 11
394.69409914134548
 21
275.69903558909414
  0
LINE
  8
_0-0_図面枠
  6
CONTINUOUS
 62
    2
 10
400.54128833970333
 20
264.82315933141956
 11
397.61985870680041
 21
266.50984751639459
  0
LINE
  8
_0-0_図面枠
  6
CONTINUOUS
 62
    2
 10
393.97781274487403
 20
268.61258373291383
 11
392.39662779955813
 21
269.52548128673055
  0
LINE
  8
_0-0_図面枠
  6
CONTINUOUS
 62
    3
 10
398.37622483024228
 20
260.57315933141962
 11
389.71597079239785
 21
255.57315933141956
  0
LINE
  8
_0-0_図面枠
  6
CONTINUOUS
 62
    3
 10
398.37622483024228
 20
260.57315933141956
 11
398.37622483024228
 21
250.57315933141956
  0
LINE
  8
_0-0_図面枠
  6
CONTINUOUS
 62
    3
 10
402.70635184916443
 20
278.53211437480883
 11
402.70635184916443
 21
253.0731593314195
  0
TEXT
  8
_0-0_図面枠
 62
    4
 10
372.41858557913304
 20
279.59304317220517
 40
2.5
 41
1
 50
0
  1
-25
  0
TEXT
  8
_0-0_図面枠
 62
    4
 10
394.93443926940415
 20
279.59304317220511
 40
2.5
 41
1
 50
0
  1
+25
  0
TEXT
  8
_0-0_図面枠
 62
    4
 10
372.41818217326374
 20
266.59420775263453
 40
2.5
 41
1
 50
0
  1
-25
  0
TEXT
  8
_0-0_図面枠
 62
    4
 10
394.93443926940415
 20
266.59350898309287
 40
2.5
 41
1
 50
0
  1
+25
  0
LINE
  8
_0-0_図面枠
  6
CONTINUOUS
 62
    4
 10
182.14999999999998
 20
48.533333333333303
 11
40
 21
48.533333333333303
  0
LINE
  8
_0-0_図面枠
  6
CONTINUOUS
 62
    4
 10
182.14999999999998
 20
60.533333333333303
 11
40
 21
60.533333333333303
  0
LINE
  8
_0-0_図面枠
  6
CONTINUOUS
 62
    4
 10
182.14999999999998
 20
54.533333333333303
 11
40
 21
54.533333333333303
  0
LINE
  8
_0-0_図面枠
  6
CONTINUOUS
 62
    4
 10
182.14999999999998
 20
66.533333333333303
 11
40
 21
66.533333333333303
  0
LINE
  8
_0-0_図面枠
  6
CONTINUOUS
 62
    4
 10
182.14999999999998
 20
102.53333333333336
 11
40
 21
102.53333333333336
  0
LINE
  8
_0-0_図面枠
  6
CONTINUOUS
 62
    4
 10
182.14999999999998
 20
96.53333333333336
 11
40
 21
96.53333333333336
  0
LINE
  8
_0-0_図面枠
  6
CONTINUOUS
 62
    4
 10
182.14999999999998
 20
90.53333333333336
 11
40
 21
90.53333333333336
  0
LINE
  8
_0-0_図面枠
  6
CONTINUOUS
 62
    4
 10
182.14999999999998
 20
84.53333333333336
 11
40
 21
84.53333333333336
  0
LINE
  8
_0-0_図面枠
  6
CONTINUOUS
 62
    4
 10
182.14999999999998
 20
78.53333333333336
 11
40
 21
78.53333333333336
  0
LINE
  8
_0-0_図面枠
  6
CONTINUOUS
 62
    4
 10
182.14999999999998
 20
72.533333333333303
 11
40
 21
72.533333333333303
  0
LINE
  8
_0-0_図面枠
  6
CONTINUOUS
 62
    4
 10
182.14999999999998
 20
113.33333333333331
 11
40
 21
113.33333333333331
  0
LINE
  8
_0-0_図面枠
  6
CONTINUOUS
 62
    4
 10
182.14999999999998
 20
42.533333333333303
 11
40
 21
42.533333333333303
  0
LINE
  8
_0-0_図面枠
  6
CONTINUOUS
 62
    4
 10
182.14999999999998
 20
36.533333333333303
 11
40
 21
36.533333333333303
  0
LINE
  8
_0-0_図面枠
  6
CONTINUOUS
 62
    4
 10
182.14999999999998
 20
30.533333333333303
 11
40
 21
30.533333333333303
  0
LINE
  8
_0-0_図面枠
  6
CONTINUOUS
 62
    4
 10
182.14999999999998
 20
24.533333333333303
 11
40
 21
24.533333333333303
  0
TEXT
  8
_0-0_図面枠
 62
    4
 10
165.55126400000003
 20
108.53334383333328
 40
3.2000000000000002
 41
1
 50
0
  1
使用
  0
TEXT
  8
_0-0_図面枠
 62
    4
 10
150.50638249999994
 20
108.53334383333328
 40
3.2000000000000002
 41
1
 50
0
  1
定　尺
  0
TEXT
  8
_0-0_図面枠
 62
    4
 10
148.34354749999997
 20
103.73333733333328
 40
3.2000000000000002
 41
1
 50
0
  1
（ｍｍ）
  0
TEXT
  8
_0-0_図面枠
 62
    4
 10
165.55126400000003
 20
103.73333733333328
 40
3.2000000000000002
 41
1
 50
0
  1
数量
  0
TEXT
  8
_0-0_図面枠
 62
    4
 10
40.497067999999985
 20
97.760882833333255
 40
3.2000000000000002
 41
1
 50
0
  1
　１
  0
TEXT
  8
_0-0_図面枠
 62
    4
 10
149.270477
 20
97.733337333333282
 40
3.2000000000000002
 41
1
 50
0
  1
３０００
  0
TEXT
  8
_0-0_図面枠
 62
    4
 10
177.00512500000002
 20
97.733337333333282
 40
3.2000000000000002
 41
1
 50
0
  1
本
  0
TEXT
  8
_0-0_図面枠
 62
    4
 10
43.586831999999987
 20
91.760882833333255
 40
3.2000000000000002
 41
1
 50
0
  1
２
  0
TEXT
  8
_0-0_図面枠
 62
    4
 10
149.270477
 20
91.733337333333282
 40
3.2000000000000002
 41
1
 50
0
  1
３０００
  0
TEXT
  8
_0-0_図面枠
 62
    4
 10
169.36022149999994
 20
91.783336333333239
 40
3.2000000000000002
 41
1
 50
0
  1
１
  0
TEXT
  8
_0-0_図面枠
 62
    4
 10
43.586831999999987
 20
85.760882833333255
 40
3.2000000000000002
 41
1
 50
0
  1
３
  0
TEXT
  8
_0-0_図面枠
 62
    4
 10
43.586831999999987
 20
79.760882833333255
 40
3.2000000000000002
 41
1
 50
0
  1
４
  0
TEXT
  8
_0-0_図面枠
 62
    4
 10
43.586831999999987
 20
73.760894333333283
 40
3.2000000000000002
 41
1
 50
0
  1
５
  0
TEXT
  8
_0-0_図面枠
 62
    4
 10
43.586831999999987
 20
67.760894333333283
 40
3.2000000000000002
 41
1
 50
0
  1
６
  0
TEXT
  8
_0-0_図面枠
 62
    4
 10
43.586831999999987
 20
61.760888833333297
 40
3.2000000000000002
 41
1
 50
0
  1
７
  0
TEXT
  8
_0-0_図面枠
 62
    4
 10
43.586831999999987
 20
55.760888833333297
 40
3.2000000000000002
 41
1
 50
0
  1
８
  0
LINE
  8
_0-0_図面枠
  6
CONTINUOUS
 62
    4
 10
382.15000000000009
 20
102.5333333333333
 11
240
 21
102.5333333333333
  0
LINE
  8
_0-0_図面枠
  6
CONTINUOUS
 62
    4
 10
382.15000000000009
 20
96.533333333333303
 11
240
 21
96.533333333333303
  0
LINE
  8
_0-0_図面枠
  6
CONTINUOUS
 62
    4
 10
382.15000000000009
 20
90.533333333333303
 11
240
 21
90.533333333333303
  0
LINE
  8
_0-0_図面枠
  6
CONTINUOUS
 62
    4
 10
382.15000000000009
 20
84.533333333333303
 11
240
 21
84.533333333333303
  0
LINE
  8
_0-0_図面枠
  6
CONTINUOUS
 62
    4
 10
382.15000000000009
 20
78.533333333333303
 11
240
 21
78.533333333333303
  0
LINE
  8
_0-0_図面枠
  6
CONTINUOUS
 62
    4
 10
382.15000000000009
 20
72.533333333333303
 11
240
 21
72.533333333333303
  0
LINE
  8
_0-0_図面枠
  6
CONTINUOUS
 62
    4
 10
382.15000000000009
 20
66.533333333333303
 11
240
 21
66.533333333333303
  0
LINE
  8
_0-0_図面枠
  6
CONTINUOUS
 62
    4
 10
382.15000000000009
 20
60.533333333333303
 11
240
 21
60.533333333333303
  0
LINE
  8
_0-0_図面枠
  6
CONTINUOUS
 62
    4
 10
382.15000000000009
 20
54.533333333333303
 11
240
 21
54.533333333333303
  0
LINE
  8
_0-0_図面枠
  6
CONTINUOUS
 62
    4
 10
382.15000000000009
 20
48.533333333333303
 11
240
 21
48.533333333333303
  0
LINE
  8
_0-0_図面枠
  6
CONTINUOUS
 62
    4
 10
382.15000000000009
 20
36.533333333333303
 11
240
 21
36.533333333333303
  0
LINE
  8
_0-0_図面枠
  6
CONTINUOUS
 62
    4
 10
382.15000000000009
 20
113.33333333333331
 11
240
 21
113.33333333333331
  0
LINE
  8
_0-0_図面枠
  6
CONTINUOUS
 62
    4
 10
382.15000000000009
 20
24.533333333333303
 11
240
 21
24.533333333333303
  0
LINE
  8
_0-0_図面枠
  6
CONTINUOUS
 62
    4
 10
382.15000000000009
 20
18.533333333333303
 11
240
 21
18.533333333333303
  0
LINE
  8
_0-0_図面枠
  6
CONTINUOUS
 62
    4
 10
382.15000000000009
 20
42.533333333333303
 11
240
 21
42.533333333333303
  0
LINE
  8
_0-0_図面枠
  6
CONTINUOUS
 62
    4
 10
382.15000000000009
 20
30.533333333333303
 11
240
 21
30.533333333333303
  0
TEXT
  8
_0-0_図面枠
 62
    4
 10
365.55123000000003
 20
108.53334383333333
 40
3.2000000000000002
 41
1
 50
0
  1
使用
  0
TEXT
  8
_0-0_図面枠
 62
    4
 10
350.50632500000006
 20
108.5333553333333
 40
3.2000000000000002
 41
1
 50
0
  1
定　尺
  0
TEXT
  8
_0-0_図面枠
 62
    4
 10
348.34349000000003
 20
103.73334833333331
 40
3.2000000000000002
 41
1
 50
0
  1
（ｍｍ）
  0
TEXT
  8
_0-0_図面枠
 62
    4
 10
365.55123000000003
 20
103.73333733333334
 40
3.2000000000000002
 41
1
 50
0
  1
数量
  0
TEXT
  8
_0-0_図面枠
 62
    4
 10
240.4970505
 20
97.760882833333312
 40
3.2000000000000002
 41
1
 50
0
  1
　１
  0
TEXT
  8
_0-0_図面枠
 62
    4
 10
243.5868145
 20
91.760882833333312
 40
3.2000000000000002
 41
1
 50
0
  1
２
  0
TEXT
  8
_0-0_図面枠
 62
    4
 10
243.5868145
 20
85.760882833333312
 40
3.2000000000000002
 41
1
 50
0
  1
３
  0
TEXT
  8
_0-0_図面枠
 62
    4
 10
243.5868145
 20
79.760882833333312
 40
3.2000000000000002
 41
1
 50
0
  1
４
  0
TEXT
  8
_0-0_図面枠
 62
    4
 10
243.5868145
 20
73.760894333333312
 40
3.2000000000000002
 41
1
 50
0
  1
５
  0
TEXT
  8
_0-0_図面枠
 62
    4
 10
243.5868145
 20
67.760894333333312
 40
3.2000000000000002
 41
1
 50
0
  1
６
  0
TEXT
  8
_0-0_図面枠
 62
    4
 10
243.5868145
 20
61.760894333333312
 40
3.2000000000000002
 41
1
 50
0
  1
７
  0
TEXT
  8
_0-0_図面枠
 62
    4
 10
243.5868145
 20
55.760888833333297
 40
3.2000000000000002
 41
1
 50
0
  1
８
  0
TEXT
  8
_0-0_図面枠
 62
    4
 10
243.5868145
 20
49.760888833333297
 40
3.2000000000000002
 41
1
 50
0
  1
９
  0
TEXT
  8
_0-0_図面枠
 62
    4
 10
240.4970505
 20
43.760888833333297
 40
3.2000000000000002
 41
1
 50
0
  1
１０
  0
TEXT
  8
_0-0_図面枠
 62
    4
 10
240.4970505
 20
37.760888833333297
 40
3.2000000000000002
 41
1
 50
0
  1
１１
  0
TEXT
  8
_0-0_図面枠
 62
    4
 10
378.55000000000007
 20
111.13333333333333
 40
3.2000000000000002
 41
1
 50
0
  1
単位
  7
TATEGAKI
  0
TEXT
  8
_0-0_図面枠
 62
    4
 10
177.00512500000002
 20
91.733337333333282
 40
3.2000000000000002
 41
1
 50
0
  1
本
  0
LINE
  8
_0-0_図面枠
  6
CONTINUOUS
 62
    4
 10
182.14999999999998
 20
18.533333333333303
 11
40
 21
18.533333333333303
  0
TEXT
  8
_0-0_図面枠
 62
    4
 10
349.27047700000014
 20
97.733337333333282
 40
3.2000000000000002
 41
1
 50
0
  1
３０００
  0
TEXT
  8
_0-0_図面枠
 62
    4
 10
377.00512500000013
 20
97.733337333333282
 40
3.2000000000000002
 41
1
 50
0
  1
本
  0
TEXT
  8
_0-0_図面枠
 62
    4
 10
349.27047700000014
 20
91.733337333333282
 40
3.2000000000000002
 41
1
 50
0
  1
３０００
  0
TEXT
  8
_0-0_図面枠
 62
    4
 10
369.36022150000008
 20
91.783336333333239
 40
3.2000000000000002
 41
1
 50
0
  1
１
  0
TEXT
  8
_0-0_図面枠
 62
    4
 10
369.36022150000008
 20
97.783324833333324
 40
3.2000000000000002
 41
1
 50
0
  1
１
  0
TEXT
  8
_0-0_図面枠
 62
    4
 10
349.27047700000014
 20
79.733337333333282
 40
3.2000000000000002
 41
1
 50
0
  1
３０００
  0
TEXT
  8
_0-0_図面枠
 62
    4
 10
349.27047700000014
 20
73.733337333333282
 40
3.2000000000000002
 41
1
 50
0
  1
３０００
  0
TEXT
  8
_0-0_図面枠
 62
    4
 10
248.4000075000001
 20
67.733337333333282
 40
3.2000000000000002
 41
1
 50
0
  1
止水補助板
  0
TEXT
  8
_0-0_図面枠
 62
    4
 10
377.00512500000013
 20
91.733337333333282
 40
3.2000000000000002
 41
1
 50
0
  1
本
  0
LINE
  8
_0-0_図面枠
  6
CONTINUOUS
 62
    4
 10
40
 20
18.533333333333303
 11
40
 21
113.33333333333331
  0
LINE
  8
_0-0_図面枠
  6
CONTINUOUS
 62
    4
 10
47.200000000000017
 20
18.533333333333303
 11
47.200000000000017
 21
113.33333333333331
  0
LINE
  8
_0-0_図面枠
  6
CONTINUOUS
 62
    4
 10
182.14999999999998
 20
18.533333333333303
 11
182.14999999999998
 21
113.33333333333331
  0
LINE
  8
_0-0_図面枠
  6
CONTINUOUS
 62
    4
 10
162.95000000000002
 20
18.533333333333303
 11
162.95000000000002
 21
113.33333333333331
  0
LINE
  8
_0-0_図面枠
  6
CONTINUOUS
 62
    4
 10
147.95000000000002
 20
18.533333333333303
 11
147.95000000000002
 21
113.33333333333331
  0
LINE
  8
_0-0_図面枠
  6
CONTINUOUS
 62
    4
 10
174.95000000000005
 20
18.533333333333303
 11
174.95000000000005
 21
113.33333333333331
  0
LINE
  8
_0-0_図面枠
  6
CONTINUOUS
 62
    4
 10
146.95000000000002
 20
18.533333333333303
 11
146.95000000000002
 21
113.33333333333331
  0
LINE
  8
_0-0_図面枠
  6
CONTINUOUS
 62
    4
 10
240
 20
18.533333333333303
 11
240
 21
113.33333333333331
  0
LINE
  8
_0-0_図面枠
  6
CONTINUOUS
 62
    4
 10
247.20000000000005
 20
18.533333333333303
 11
247.20000000000005
 21
113.33333333333331
  0
LINE
  8
_0-0_図面枠
  6
CONTINUOUS
 62
    4
 10
346.95000000000005
 20
18.533333333333303
 11
346.95000000000005
 21
113.33333333333331
  0
LINE
  8
_0-0_図面枠
  6
CONTINUOUS
 62
    4
 10
382.15000000000009
 20
18.533333333333303
 11
382.15000000000009
 21
113.33333333333331
  0
LINE
  8
_0-0_図面枠
  6
CONTINUOUS
 62
    4
 10
374.95000000000005
 20
18.533333333333303
 11
374.95000000000005
 21
113.33333333333331
  0
LINE
  8
_0-0_図面枠
  6
CONTINUOUS
 62
    4
 10
362.95000000000005
 20
18.533333333333303
 11
362.95000000000005
 21
113.33333333333331
  0
LINE
  8
_0-0_図面枠
  6
CONTINUOUS
 62
    4
 10
347.95000000000005
 20
18.533333333333303
 11
347.95000000000005
 21
113.33333333333331
  0
TEXT
  8
_0-0_図面枠
 62
    4
 10
69.300000000000011
 20
106.33333333333334
 40
3.2000000000000002
 41
1
 50
0
  1
部材名称
  0
TEXT
  8
_0-0_図面枠
 62
    4
 10
178.54999999999998
 20
111.13333333333334
 40
3.2000000000000002
 41
1
 50
0
  1
単位
  7
TATEGAKI
  0
LINE
  8
_0-0_図面枠
  6
CONTINUOUS
 62
    4
 10
100.86666666666669
 20
18.533333333333303
 11
100.86666666666669
 21
113.33333333333331
  0
TEXT
  8
_0-0_図面枠
 62
    4
 10
119.10833333333336
 20
106.33333333333333
 40
3.2000000000000002
 41
1
 50
0
  1
規　格
  0
TEXT
  8
_0-0_図面枠
 62
    4
 10
302.06669116666689
 20
67.733337333333282
 40
3.2000000000000002
 41
1
 50
0
  1
ＦＳ２５０
  0
LINE
  8
_0-0_図面枠
  6
CONTINUOUS
 62
    4
 10
300.86666666666667
 20
18.533333333333303
 11
300.86666666666667
 21
113.33333333333331
  0
TEXT
  8
_0-0_図面枠
 62
    4
 10
267.63333333333333
 20
106.33333333333331
 40
3.2000000000000002
 41
1
 50
0
  1
部材名称
  0
TEXT
  8
_0-0_図面枠
 62
    4
 10
319.10833333333335
 20
106.33333333333331
 40
3.2000000000000002
 41
1
 50
0
  1
規　格
  0
TEXT
  8
_0-0_図面枠
 62
    4
 10
48.400007499999987
 20
97.733337333333282
 40
3.2000000000000002
 41
1
 50
0
  1
ＴＴＧサイドプレート(Ａ)Ａ
  0
TEXT
  8
_0-0_図面枠
 62
    4
 10
48.400007499999987
 20
91.733337333333282
 40
3.2000000000000002
 41
1
 50
0
  1
ＴＴＧセンタープレート(Ａ)Ａ
  0
TEXT
  8
_0-0_図面枠
 62
    4
 10
48.400007499999987
 20
85.733337333333282
 40
3.2000000000000002
 41
1
 50
0
  1
ＴＴＧフレーム(Ａ)
  0
TEXT
  8
_0-0_図面枠
 62
    4
 10
48.400007499999987
 20
79.733337333333282
 40
3.2000000000000002
 41
1
 50
0
  1
止水補助板
  0
TEXT
  8
_0-0_図面枠
 62
    4
 10
102.06669116666674
 20
79.733337333333338
 40
3.2000000000000002
 41
1
 50
0
  1
ＦＳ２５０
  0
TEXT
  8
_0-0_図面枠
 62
    4
 10
248.4000075000001
 20
97.733337333333282
 40
3.2000000000000002
 41
1
 50
0
  1
ＴＴＧサイドプレート(Ａ)Ａ
  0
TEXT
  8
_0-0_図面枠
 62
    4
 10
169.36022149999994
 20
97.783324833333324
 40
3.2000000000000002
 41
1
 50
0
  1
２
  0
TEXT
  8
_0-0_図面枠
 62
    4
 10
248.4000075000001
 20
91.733337333333282
 40
3.2000000000000002
 41
1
 50
0
  1
ＴＣＧセンタープレート(Ａ)Ａ
  0
TEXT
  8
_0-0_図面枠
 62
    4
 10
248.4000075000001
 20
85.733337333333282
 40
3.2000000000000002
 41
1
 50
0
  1
ＴＴＧフレーム(Ａ)
  0
TEXT
  8
_0-0_図面枠
 62
    4
 10
248.4000075000001
 20
79.733337333333282
 40
3.2000000000000002
 41
1
 50
0
  1
ＴＣＧサイドキャップＡ
  0
TEXT
  8
_0-0_図面枠
 62
    4
 10
248.4000075000001
 20
73.733337333333282
 40
3.2000000000000002
 41
1
 50
0
  1
ＴＣＧ壁フレーム
  0
TEXT
  8
_0-0_図面枠
 62
    4
 10
349.27047700000014
 20
85.733337333333282
 40
3.2000000000000002
 41
1
 50
0
  1
３０００
  0
TEXT
  8
_0-0_図面枠
 62
    4
 10
369.36022150000008
 20
85.783336333333239
 40
3.2000000000000002
 41
1
 50
0
  1
１
  0
TEXT
  8
_0-0_図面枠
 62
    4
 10
377.00512500000013
 20
85.733337333333282
 40
3.2000000000000002
 41
1
 50
0
  1
本
  0
TEXT
  8
_0-0_図面枠
 62
    4
 10
369.36022150000008
 20
79.783336333333239
 40
3.2000000000000002
 41
1
 50
0
  1
１
  0
TEXT
  8
_0-0_図面枠
 62
    4
 10
377.00512500000013
 20
79.733337333333282
 40
3.2000000000000002
 41
1
 50
0
  1
本
  0
TEXT
  8
_0-0_図面枠
 62
    4
 10
369.36022150000008
 20
73.783336333333239
 40
3.2000000000000002
 41
1
 50
0
  1
１
  0
TEXT
  8
_0-0_図面枠
 62
    4
 10
377.00512500000013
 20
73.733337333333282
 40
3.2000000000000002
 41
1
 50
0
  1
本
  0
TEXT
  8
_0-0_図面枠
 62
    4
 10
349.27047700000014
 20
61.733342833333325
 40
3.2000000000000002
 41
1
 50
0
  1
３１００
  0
TEXT
  8
_0-0_図面枠
 62
    4
 10
377.00512500000013
 20
61.733342833333325
 40
3.2000000000000002
 41
1
 50
0
  1
本
  0
TEXT
  8
_0-0_図面枠
 62
    4
 10
377.00512500000013
 20
55.733325833333311
 40
3.2000000000000002
 41
1
 50
0
  1
本
  0
TEXT
  8
_0-0_図面枠
 62
    4
 10
302.06667966666686
 20
55.733342833333325
 40
3.2000000000000002
 41
1
 50
0
  1
皿５×１６
  0
TEXT
  8
_0-0_図面枠
 62
    4
 10
366.27045750000002
 20
55.783341833333282
 40
3.2000000000000002
 41
1
 50
0
  1
１７
  0
TEXT
  8
_0-0_図面枠
 62
    4
 10
366.27045750000013
 20
49.783341833333282
 40
3.2000000000000002
 41
1
 50
0
  1
１２
  0
TEXT
  8
_0-0_図面枠
 62
    4
 10
248.40000750000013
 20
49.733342833333325
 40
3.2000000000000002
 41
1
 50
0
  1
ステンタッピンねじ
  0
TEXT
  8
_0-0_図面枠
 62
    4
 10
377.00512500000013
 20
49.733325833333311
 40
3.2000000000000002
 41
1
 50
0
  1
本
  0
TEXT
  8
_0-0_図面枠
 62
    4
 10
302.06669116666689
 20
49.733342833333325
 40
3.2000000000000002
 41
1
 50
0
  1
なべ５×５０
  0
TEXT
  8
_0-0_図面枠
 62
    4
 10
248.40000750000013
 20
43.733342833333325
 40
3.2000000000000002
 41
1
 50
0
  1
ステンワッシャー
  0
TEXT
  8
_0-0_図面枠
 62
    4
 10
366.27045750000013
 20
43.783341833333282
 40
3.2000000000000002
 41
1
 50
0
  1
１２
  0
TEXT
  8
_0-0_図面枠
 62
    4
 10
377.00512500000013
 20
43.733342833333325
 40
3.2000000000000002
 41
1
 50
0
  1
枚
  0
TEXT
  8
_0-0_図面枠
 62
    4
 10
302.06663366666686
 20
43.73333733333331
 40
3.2000000000000002
 41
1
 50
0
  1
１．５×１８×５．５穴
  0
TEXT
  8
_0-0_図面枠
 62
    4
 10
366.27045750000013
 20
37.783341833333282
 40
3.2000000000000002
 41
1
 50
0
  1
１２
  0
TEXT
  8
_0-0_図面枠
 62
    4
 10
377.00512500000013
 20
37.733325833333311
 40
3.2000000000000002
 41
1
 50
0
  1
本
  0
TEXT
  8
_0-0_図面枠
 62
    4
 10
149.270477
 20
85.733337333333282
 40
3.2000000000000002
 41
1
 50
0
  1
３０００
  0
TEXT
  8
_0-0_図面枠
 62
    4
 10
177.00512500000002
 20
85.733337333333282
 40
3.2000000000000002
 41
1
 50
0
  1
本
  0
TEXT
  8
_0-0_図面枠
 62
    4
 10
169.36022149999994
 20
85.783324833333324
 40
3.2000000000000002
 41
1
 50
0
  1
２
  0
TEXT
  8
_0-0_図面枠
 62
    4
 10
177.00512500000011
 20
73.733325833333367
 40
3.2000000000000002
 41
1
 50
0
  1
本
  0
TEXT
  8
_0-0_図面枠
 62
    4
 10
102.06667966666683
 20
73.733342833333381
 40
3.2000000000000002
 41
1
 50
0
  1
皿５×１６
  0
TEXT
  8
_0-0_図面枠
 62
    4
 10
166.27045749999999
 20
73.783341833333338
 40
3.2000000000000002
 41
1
 50
0
  1
２２
  0
TEXT
  8
_0-0_図面枠
 62
    4
 10
166.27045749999999
 20
67.783341833333282
 40
3.2000000000000002
 41
1
 50
0
  1
１２
  0
TEXT
  8
_0-0_図面枠
 62
    4
 10
48.400007499999987
 20
67.733342833333325
 40
3.2000000000000002
 41
1
 50
0
  1
ステンタッピンねじ
  0
TEXT
  8
_0-0_図面枠
 62
    4
 10
48.400007499999987
 20
61.733342833333325
 40
3.2000000000000002
 41
1
 50
0
  1
ステンワッシャー
  0
TEXT
  8
_0-0_図面枠
 62
    4
 10
166.27045749999999
 20
61.783341833333282
 40
3.2000000000000002
 41
1
 50
0
  1
１２
  0
TEXT
  8
_0-0_図面枠
 62
    4
 10
166.27045749999999
 20
55.783341833333282
 40
3.2000000000000002
 41
1
 50
0
  1
１２
  0
TEXT
  8
_0-0_図面枠
 62
    4
 10
177.00512500000002
 20
55.733325833333311
 40
3.2000000000000002
 41
1
 50
0
  1
本
  0
TEXT
  8
_0-0_図面枠
 62
    4
 10
177.00512500000002
 20
61.733342833333325
 40
3.2000000000000002
 41
1
 50
0
  1
枚
  0
TEXT
  8
_0-0_図面枠
 62
    4
 10
177.00512500000002
 20
67.733325833333311
 40
3.2000000000000002
 41
1
 50
0
  1
本
  0
TEXT
  8
_0-0_図面枠
 62
    4
 10
102.06669116666673
 20
67.733342833333325
 40
3.2000000000000002
 41
1
 50
0
  1
なべ５×５０
  0
TEXT
  8
_0-0_図面枠
 62
    4
 10
102.0666336666667
 20
61.73333733333331
 40
3.2000000000000002
 41
1
 50
0
  1
１．５×１８×５．５穴
  0
TEXT
  8
_0-0_図面枠
 62
    4
 10
48.4000075000001
 20
73.733342833333381
 40
3.2000000000000002
 41
1
 50
0
  1
ステンドリリングねじ
  0
TEXT
  8
_0-0_図面枠
 62
    4
 10
248.40000750000013
 20
55.733342833333325
 40
3.2000000000000002
 41
1
 50
0
  1
ステンドリリングねじ
  0
TEXT
  8
_0-0_図面枠
 62
    4
 10
149.270477
 20
43.733348333333311
 40
3.2000000000000002
 41
1
 50
0
  1
６０００
  0
TEXT
  8
_0-0_図面枠
 62
    4
 10
169.36022149999994
 20
43.783336333333295
 40
3.2000000000000002
 41
1
 50
0
  1
１
  0
TEXT
  8
_0-0_図面枠
 62
    4
 10
177.00512500000002
 20
43.733342833333325
 40
3.2000000000000002
 41
1
 50
0
  1
巻
  0
TEXT
  8
_0-0_図面枠
 62
    4
 10
48.400007499999987
 20
43.733342833333325
 40
3.2000000000000002
 41
1
 50
0
  1
ブチルテープ
  0
TEXT
  8
_0-0_図面枠
 62
    4
 10
102.06669116666673
 20
43.733342833333325
 40
3.2000000000000002
 41
1
 50
0
  1
ｔ１．０×ｗ３０
  0
TEXT
  8
_0-0_図面枠
 62
    4
 10
43.586831999999987
 20
43.760894333333283
 40
3.2000000000000002
 41
1
 50
0
  1
※
  0
TEXT
  8
_0-0_図面枠
 62
    4
 10
43.586831999999987
 20
49.760894333333283
 40
3.2000000000000002
 41
1
 50
0
  1
９
  0
TEXT
  8
_0-0_図面枠
 62
    4
 10
48.400007499999987
 20
49.733342833333325
 40
3.2000000000000002
 41
1
 50
0
  1
ユカホルダーキャップ
  0
TEXT
  8
_0-0_図面枠
 62
    4
 10
149.270477
 20
49.733348333333311
 40
3.2000000000000002
 41
1
 50
0
  1
３０１０
  0
TEXT
  8
_0-0_図面枠
 62
    4
 10
243.5868145
 20
25.760888833333297
 40
3.2000000000000002
 41
1
 50
0
  1
※
  0
TEXT
  8
_0-0_図面枠
 62
    4
 10
349.27041950000012
 20
25.733342833333325
 40
3.2000000000000002
 41
1
 50
0
  1
６０００
  0
TEXT
  8
_0-0_図面枠
 62
    4
 10
369.8602370000001
 20
25.783336333333295
 40
3.2000000000000002
 41
1
 50
0
  1
１
  0
TEXT
  8
_0-0_図面枠
 62
    4
 10
377.00510200000008
 20
25.733342833333325
 40
3.2000000000000002
 41
1
 50
0
  1
巻
  0
TEXT
  8
_0-0_図面枠
 62
    4
 10
248.400013
 20
25.733342833333325
 40
3.2000000000000002
 41
1
 50
0
  1
ブチルテープ
  0
TEXT
  8
_0-0_図面枠
 62
    4
 10
302.06663366666669
 20
25.733342833333325
 40
3.2000000000000002
 41
1
 50
0
  1
ｔ１．０×ｗ３０
  0
TEXT
  8
_0-0_図面枠
 62
    4
 10
377.00512500000013
 20
31.733342833333325
 40
3.2000000000000002
 41
1
 50
0
  1
本
  0
TEXT
  8
_0-0_図面枠
 62
    4
 10
240.4970505
 20
31.760888833333297
 40
3.2000000000000002
 41
1
 50
0
  1
１２
  0
TEXT
  8
_0-0_図面枠
 62
    4
 10
248.40000750000013
 20
31.733337333333282
 40
3.2000000000000002
 41
1
 50
0
  1
ユカホルダーキャップ
  0
TEXT
  8
_0-0_図面枠
 62
    4
 10
349.27047700000014
 20
31.733342833333325
 40
3.2000000000000002
 41
1
 50
0
  1
３０１０
  0
TEXT
  8
_0-0_図面枠
 62
    4
 10
369.36022150000008
 20
31.783336333333239
 40
3.2000000000000002
 41
1
 50
0
  1
２
  0
TEXT
  8
_0-0_図面枠
 62
    4
 10
169.36022149999994
 20
49.783336333333295
 40
3.2000000000000002
 41
1
 50
0
  1
２
  0
TEXT
  8
_0-0_図面枠
 62
    4
 10
177.00512500000002
 20
49.733325833333311
 40
3.2000000000000002
 41
1
 50
0
  1
本
  0
TEXT
  8
_0-0_図面枠
 62
    4
 10
102.06669116666673
 20
55.733342833333325
 40
3.2000000000000002
 41
1
 50
0
  1
φ８×４０
  0
TEXT
  8
_0-0_図面枠
 62
    4
 10
302.06669116666677
 20
37.733342833333325
 40
3.2000000000000002
 41
1
 50
0
  1
φ８×４０
  0
TEXT
  8
_0-0_図面枠
 62
    4
 10
122.30833333333339
 20
97.933333333333366
 40
3.2000000000000002
 41
1
 50
0
  1
―
  0
TEXT
  8
_0-0_図面枠
 62
    4
 10
122.30833333333339
 20
91.933333333333366
 40
3.2000000000000002
 41
1
 50
0
  1
―
  0
TEXT
  8
_0-0_図面枠
 62
    4
 10
122.30833333333339
 20
85.933333333333366
 40
3.2000000000000002
 41
1
 50
0
  1
―
  0
TEXT
  8
_0-0_図面枠
 62
    4
 10
122.30833333333338
 20
49.933333333333309
 40
3.2000000000000002
 41
1
 50
0
  1
―
  0
TEXT
  8
_0-0_図面枠
 62
    4
 10
322.30833333333334
 20
97.933333333333309
 40
3.2000000000000002
 41
1
 50
0
  1
―
  0
TEXT
  8
_0-0_図面枠
 62
    4
 10
322.30833333333334
 20
91.933333333333309
 40
3.2000000000000002
 41
1
 50
0
  1
―
  0
TEXT
  8
_0-0_図面枠
 62
    4
 10
322.30833333333334
 20
85.933333333333309
 40
3.2000000000000002
 41
1
 50
0
  1
―
  0
TEXT
  8
_0-0_図面枠
 62
    4
 10
322.30833333333334
 20
79.933333333333309
 40
3.2000000000000002
 41
1
 50
0
  1
―
  0
TEXT
  8
_0-0_図面枠
 62
    4
 10
322.30833333333334
 20
73.933333333333309
 40
3.2000000000000002
 41
1
 50
0
  1
―
  0
TEXT
  8
_0-0_図面枠
 62
    4
 10
322.30833333333334
 20
61.933333333333309
 40
3.2000000000000002
 41
1
 50
0
  1
―
  0
TEXT
  8
_0-0_図面枠
 62
    4
 10
322.30833333333334
 20
31.933333333333294
 40
3.2000000000000002
 41
1
 50
0
  1
―
  0
TEXT
  8
_0-0_図面枠
 62
    4
 10
369.36022150000008
 20
61.783336333333239
 40
3.2000000000000002
 41
1
 50
0
  1
２
  0
TEXT
  8
_0-0_図面枠
 62
    4
 10
248.40000750000013
 20
61.733337333333282
 40
3.2000000000000002
 41
1
 50
0
  1
ガスケットＧＡ１５
  0
TEXT
  8
_0-0_図面枠
 62
    4
 10
153.85000000000002
 20
73.933333333333294
 40
3.2000000000000002
 41
1
 50
0
  1
―
  0
TEXT
  8
_0-0_図面枠
 62
    4
 10
153.85000000000002
 20
67.933333333333294
 40
3.2000000000000002
 41
1
 50
0
  1
―
  0
TEXT
  8
_0-0_図面枠
 62
    4
 10
153.85000000000002
 20
61.93333333333328
 40
3.2000000000000002
 41
1
 50
0
  1
―
  0
TEXT
  8
_0-0_図面枠
 62
    4
 10
153.85000000000002
 20
55.93333333333328
 40
3.2000000000000002
 41
1
 50
0
  1
―
  0
TEXT
  8
_0-0_図面枠
 62
    4
 10
353.85000000000002
 20
55.93333333333328
 40
3.2000000000000002
 41
1
 50
0
  1
―
  0
TEXT
  8
_0-0_図面枠
 62
    4
 10
353.85000000000002
 20
49.93333333333328
 40
3.2000000000000002
 41
1
 50
0
  1
―
  0
TEXT
  8
_0-0_図面枠
 62
    4
 10
353.85000000000002
 20
43.93333333333328
 40
3.2000000000000002
 41
1
 50
0
  1
―
  0
TEXT
  8
_0-0_図面枠
 62
    4
 10
353.85000000000002
 20
37.93333333333328
 40
3.2000000000000002
 41
1
 50
0
  1
―
  0
TEXT
  8
_0-0_図面枠
 62
    4
 10
169.36022149999994
 20
37.783336333333295
 40
3.2000000000000002
 41
1
 50
0
  1
１
  0
TEXT
  8
_0-0_図面枠
 62
    4
 10
43.586831999999987
 20
37.760894333333283
 40
3.2000000000000002
 41
1
 50
0
  1
※
  0
TEXT
  8
_0-0_図面枠
 62
    4
 10
177.00512500000002
 20
37.733342833333325
 40
3.2000000000000002
 41
1
 50
0
  1
個
  0
TEXT
  8
_0-0_図面枠
 62
    4
 10
153.85000000000002
 20
37.933333333333294
 40
3.2000000000000002
 41
1
 50
0
  1
―
  0
TEXT
  8
_0-0_図面枠
 62
    4
 10
369.36022149999997
 20
19.783336333333324
 40
3.2000000000000002
 41
1
 50
0
  1
１
  0
TEXT
  8
_0-0_図面枠
 62
    4
 10
243.58683199999999
 20
19.760894333333312
 40
3.2000000000000002
 41
1
 50
0
  1
※
  0
TEXT
  8
_0-0_図面枠
 62
    4
 10
377.00512500000002
 20
19.733342833333353
 40
3.2000000000000002
 41
1
 50
0
  1
個
  0
TEXT
  8
_0-0_図面枠
 62
    4
 10
353.85000000000002
 20
19.933333333333309
 40
3.2000000000000002
 41
1
 50
0
  1
―
  0
TEXT
  8
_0-0_図面枠
 62
    4
 10
102.06669116666673
 20
37.733342833333325
 40
3.2000000000000002
 41
1
 50
0
  1
ＳＵＳ＝０．８
  0
TEXT
  8
_0-0_図面枠
 62
    4
 10
48.400007499999987
 20
37.733342833333325
 40
3
 41
1
 50
0
  1
センタープレートジョイントプレート
  0
TEXT
  8
_0-0_図面枠
 62
    4
 10
302.06669116666677
 20
19.733342833333325
 40
3.2000000000000002
 41
1
 50
0
  1
ＳＵＳ＝０．８
  0
TEXT
  8
_0-0_図面枠
 62
    4
 10
248.40000750000002
 20
19.733342833333325
 40
3
 41
1
 50
0
  1
センタープレートジョイントプレート
  0
TEXT
  8
_0-0_図面枠
 62
    4
 10
149.270477
 20
79.733342833333367
 40
3.2000000000000002
 41
1
 50
0
  1
３１００
  0
TEXT
  8
_0-0_図面枠
 62
    4
 10
169.36022149999991
 20
79.783336333333295
 40
3.2000000000000002
 41
1
 50
0
  1
１
  0
TEXT
  8
_0-0_図面枠
 62
    4
 10
177.00512500000002
 20
79.733325833333367
 40
3.2000000000000002
 41
1
 50
0
  1
枚
  0
TEXT
  8
_0-0_図面枠
 62
    4
 10
349.27047700000014
 20
67.73334283333331
 40
3.2000000000000002
 41
1
 50
0
  1
３１００
  0
TEXT
  8
_0-0_図面枠
 62
    4
 10
369.36022150000002
 20
67.783336333333239
 40
3.2000000000000002
 41
1
 50
0
  1
１
  0
TEXT
  8
_0-0_図面枠
 62
    4
 10
377.00512500000013
 20
67.733325833333311
 40
3.2000000000000002
 41
1
 50
0
  1
枚
  0
TEXT
  8
_0-0_図面枠
 62
    4
 10
48.400007499999987
 20
55.733337333333282
 40
3.2000000000000002
 41
1
 50
0
  1
アンカープラグ
  0
TEXT
  8
_0-0_図面枠
 62
    4
 10
248.40000750000002
 20
37.733337333333282
 40
3.2000000000000002
 41
1
 50
0
  1
アンカープラグ
  0
LINE
  8
_1-f_寸法
  6
CONTINUOUS
 62
    4
 10
101.66666666666666
 20
188.66666666666666
 11
101.66666666666666
 21
182.06666666666666
  0
LINE
  8
_1-f_寸法
  6
CONTINUOUS
 62
    4
 10
90
 20
188.66666666666666
 11
90
 21
182.06666666666666
  0
POINT
  8
_1-f_寸法
 62
    4
 10
90
 20
183.66666666666666
  0
POINT
  8
_1-f_寸法
 62
    4
 10
101.66666666666666
 20
183.66666666666666
  0
LINE
  8
_1-f_寸法
  6
CONTINUOUS
 62
    4
 10
90
 20
183.66666666666666
 11
101.66666666666666
 21
183.66666666666666
  0
TEXT
  8
_1-f_寸法
 62
    4
 10
94.23333333333332
 20
183.66666666666666
 40
3.2000000000000002
 41
1
 50
0
  1
35
  0
LINE
  8
_1-f_寸法
  6
CONTINUOUS
 62
    4
 10
118.33333333333333
 20
188.66666666666666
 11
118.33333333333333
 21
182.06666666666666
  0
LINE
  8
_1-f_寸法
  6
CONTINUOUS
 62
    4
 10
130
 20
188.66666666666666
 11
130
 21
182.06666666666666
  0
POINT
  8
_1-f_寸法
 62
    4
 10
130
 20
183.66666666666666
  0
POINT
  8
_1-f_寸法
 62
    4
 10
118.33333333333333
 20
183.66666666666666
  0
LINE
  8
_1-f_寸法
  6
CONTINUOUS
 62
    4
 10
130
 20
183.66666666666666
 11
118.33333333333333
 21
183.66666666666666
  0
TEXT
  8
_1-f_寸法
 62
    4
 10
122.56666666666666
 20
183.66666666666666
 40
3.2000000000000002
 41
1
 50
0
  1
35
  0
CIRCLE
  8
_1-f_寸法
  6
CONTINUOUS
 62
    4
 10
306.66666666666663
 20
198.66666666666666
 40
1.6666666666666665
  0
LINE
  8
_1-f_寸法
  6
CONTINUOUS
 62
    4
 10
118.33333333333333
 20
178.66666666666666
 11
118.33333333333333
 21
172.06666666666666
  0
LINE
  8
_1-f_寸法
  6
CONTINUOUS
 62
    4
 10
101.66666666666666
 20
178.66666666666666
 11
101.66666666666666
 21
172.06666666666666
  0
POINT
  8
_1-f_寸法
 62
    4
 10
101.66666666666666
 20
173.66666666666666
  0
POINT
  8
_1-f_寸法
 62
    4
 10
118.33333333333333
 20
173.66666666666666
  0
LINE
  8
_1-f_寸法
  6
CONTINUOUS
 62
    4
 10
101.66666666666666
 20
173.66666666666666
 11
118.33333333333333
 21
173.66666666666666
  0
TEXT
  8
_1-f_寸法
 62
    4
 10
108.39999999999999
 20
173.66666666666666
 40
3.2000000000000002
 41
1
 50
0
  1
50
  0
LINE
  8
_1-0_躯体
  6
CONTINUOUS
 62
    6
 10
101.66666666666666
 20
203.66666666666666
 11
101.66666666666666
 21
180.33333333333331
  0
LINE
  8
_1-0_躯体
  6
CONTINUOUS
 62
    6
 10
118.33333333333333
 20
203.66666666666666
 11
118.33333333333333
 21
180.33333333333331
  0
LINE
  8
_1-3_止水補助板
  6
CONTINUOUS
 62
    4
 10
135
 20
203.66666666666666
 11
135
 21
204
  0
LINE
  8
_1-3_止水補助板
  6
CONTINUOUS
 62
    4
 10
85
 20
203.66666666666666
 11
85
 21
204
  0
ARC
  8
_1-3_止水補助板
  6
CONTINUOUS
 62
    4
 10
110
 20
192.95862434846651
 40
5.2779365980282797
 50
195.00000000000014
 51
344.99999999999989
  0
ARC
  8
_1-3_止水補助板
  6
CONTINUOUS
 62
    4
 10
110
 20
192.95862434846651
 40
4.9446032646949467
 50
195.00000000000003
 51
344.99999999999994
  0
LINE
  8
_1-3_止水補助板
  6
CONTINUOUS
 62
    4
 10
118.33333333333333
 20
203.66666666666666
 11
135
 21
203.66666666666666
  0
LINE
  8
_1-3_止水補助板
  6
CONTINUOUS
 62
    4
 10
118.33333333333333
 20
203.66666666666666
 11
115.09809526955178
 21
191.59259383805318
  0
LINE
  8
_1-3_止水補助板
  6
CONTINUOUS
 62
    4
 10
118.07755767067374
 20
204
 11
135
 21
204
  0
LINE
  8
_1-3_止水補助板
  6
CONTINUOUS
 62
    4
 10
118.07755767067374
 20
204
 11
114.77611999412207
 21
191.6788668530873
  0
LINE
  8
_1-3_止水補助板
  6
CONTINUOUS
 62
    4
 10
101.66666666666666
 20
203.66666666666666
 11
85
 21
203.66666666666666
  0
LINE
  8
_1-3_止水補助板
  6
CONTINUOUS
 62
    4
 10
101.66666666666666
 20
203.66666666666666
 11
104.90190473044822
 21
191.59259383805318
  0
LINE
  8
_1-3_止水補助板
  6
CONTINUOUS
 62
    4
 10
101.92244232932626
 20
204
 11
85
 21
204
  0
LINE
  8
_1-3_止水補助板
  6
CONTINUOUS
 62
    4
 10
101.92244232932626
 20
204
 11
105.22388000587792
 21
191.6788668530873
  0
LINE
  8
_1-0_躯体
  6
CENTER2
 62
    4
 10
110
 20
213.83333333333337
 11
110
 21
180.33333333333331
  0
INSERT
  2
-002-_2_
  8
_1-4_フレ__ム
 10
210
 20
148.5
 41
1
 42
1
 50
0
  0
INSERT
  2
-003-_3_
  8
_1-4_フレ__ム
 10
210
 20
148.5
 41
1
 42
1
 50
0
  0
INSERT
  2
-004-_4_
  8
_1-7_カバ__
 10
210
 20
148.5
 41
1
 42
1
 50
0
  0
INSERT
  2
-005-_5_
  8
_1-7_カバ__
 10
210
 20
148.5
 41
1
 42
1
 50
0
  0
INSERT
  2
-006-_6_
  8
_1-8_小物
 10
210
 20
148.5
 41
1
 42
1
 50
0
  0
INSERT
  2
-007-_7_
  8
_1-8_小物
 10
210
 20
148.5
 41
1
 42
1
 50
0
  0
LINE
  8
_1-0_躯体
  6
CONTINUOUS
 62
    6
 10
118.33333333333333
 20
203.66666666666666
 11
146.66666666666663
 21
203.66666666666666
  0
LINE
  8
_1-0_躯体
  6
CONTINUOUS
 62
    6
 10
73.333333333333314
 20
203.66666666666666
 11
101.66666666666666
 21
203.66666666666666
  0
LINE
  8
_1-0_躯体
  6
CONTINUOUS
 62
    4
 10
146.66666666666663
 20
203.66666666666666
 11
146.66666666666663
 21
202
  0
LINE
  8
_1-0_躯体
  6
CONTINUOUS
 62
    4
 10
118.33333333333333
 20
202
 11
146.66666666666663
 21
202
  0
LINE
  8
_1-0_躯体
  6
CONTINUOUS
 62
    4
 10
73.333333333333371
 20
203.66666666666666
 11
73.333333333333371
 21
202
  0
LINE
  8
_1-0_躯体
  6
CONTINUOUS
 62
    4
 10
101.66666666666666
 20
202
 11
73.333333333333371
 21
202
  0
INSERT
  2
-008-HATCHING
  8
_1-0_躯体
 10
210
 20
148.5
 41
1
 42
1
 50
0
  0
INSERT
  2
-009-HATCHING_1_
  8
_1-0_躯体
 10
210
 20
148.5
 41
1
 42
1
 50
0
  0
LINE
  8
_1-0_躯体
  6
CONTINUOUS
 62
    4
 10
76.916666666666515
 20
213.5
 11
70
 21
213.5
  0
LINE
  8
_1-0_躯体
  6
CONTINUOUS
 62
    4
 10
143.08333333333348
 20
213.5
 11
150
 21
213.5
  0
LINE
  8
_1-f_寸法
  6
CONTINUOUS
 62
    4
 10
118.33333333333331
 20
215.33333333333331
 11
118.33333333333331
 21
221.93333333333331
  0
LINE
  8
_1-f_寸法
  6
CONTINUOUS
 62
    4
 10
143.33333333333354
 20
215.33333333333331
 11
143.33333333333354
 21
221.93333333333331
  0
POINT
  8
_1-f_寸法
 62
    4
 10
143.33333333333354
 20
220.33333333333331
  0
POINT
  8
_1-f_寸法
 62
    4
 10
118.33333333333331
 20
220.33333333333331
  0
LINE
  8
_1-f_寸法
  6
CONTINUOUS
 62
    4
 10
143.33333333333354
 20
220.33333333333331
 11
118.33333333333331
 21
220.33333333333331
  0
TEXT
  8
_1-f_寸法
 62
    4
 10
129.23333333333341
 20
220.33333333333331
 40
3.2000000000000002
 41
1
 50
0
  1
75
  0
LINE
  8
_1-f_寸法
  6
CONTINUOUS
 62
    4
 10
101.66666666666669
 20
215.33333333333331
 11
101.66666666666669
 21
221.93333333333331
  0
POINT
  8
_1-f_寸法
 62
    4
 10
101.66666666666669
 20
220.33333333333331
  0
LINE
  8
_1-f_寸法
  6
CONTINUOUS
 62
    4
 10
118.33333333333331
 20
220.33333333333331
 11
101.66666666666669
 21
220.33333333333331
  0
TEXT
  8
_1-f_寸法
 62
    4
 10
108.39999999999999
 20
220.33333333333331
 40
3.2000000000000002
 41
1
 50
0
  1
50
  0
LINE
  8
_1-f_寸法
  6
CONTINUOUS
 62
    4
 10
76.666666666666657
 20
215.33333333333331
 11
76.666666666666657
 21
221.93333333333331
  0
POINT
  8
_1-f_寸法
 62
    4
 10
76.666666666666657
 20
220.33333333333331
  0
LINE
  8
_1-f_寸法
  6
CONTINUOUS
 62
    4
 10
101.66666666666669
 20
220.33333333333331
 11
76.666666666666657
 21
220.33333333333331
  0
TEXT
  8
_1-f_寸法
 62
    4
 10
87.566666666666663
 20
220.33333333333331
 40
3.2000000000000002
 41
1
 50
0
  1
75
  0
LINE
  8
_1-f_寸法
  6
CONTINUOUS
 62
    4
 10
143.33333333333331
 20
220.33333333333331
 11
143.33333333333331
 21
226.93333333333331
  0
LINE
  8
_1-f_寸法
  6
CONTINUOUS
 62
    4
 10
76.666666666666657
 20
220.33333333333331
 11
76.666666666666657
 21
226.93333333333331
  0
POINT
  8
_1-f_寸法
 62
    4
 10
76.666666666666657
 20
225.33333333333331
  0
POINT
  8
_1-f_寸法
 62
    4
 10
143.33333333333331
 20
225.33333333333331
  0
LINE
  8
_1-f_寸法
  6
CONTINUOUS
 62
    4
 10
76.666666666666657
 20
225.33333333333331
 11
143.33333333333331
 21
225.33333333333331
  0
TEXT
  8
_1-f_寸法
 62
    4
 10
107.59999999999998
 20
225.33333333333331
 40
3.2000000000000002
 41
1
 50
0
  1
200
  0
LINE
  8
_1-f_寸法
  6
CONTINUOUS
 62
    4
 10
151.66666666666666
 20
203.66666666666666
 11
158.26666666666665
 21
203.66666666666666
  0
LINE
  8
_1-f_寸法
  6
CONTINUOUS
 62
    4
 10
151.66666666666666
 20
213.66666666666666
 11
158.26666666666665
 21
213.66666666666666
  0
POINT
  8
_1-f_寸法
 62
    4
 10
156.66666666666666
 20
213.66666666666666
  0
POINT
  8
_1-f_寸法
 62
    4
 10
156.66666666666666
 20
203.66666666666666
  0
LINE
  8
_1-f_寸法
  6
CONTINUOUS
 62
    4
 10
156.66666666666666
 20
213.66666666666666
 11
156.66666666666666
 21
203.66666666666666
  0
TEXT
  8
_1-f_寸法
 62
    4
 10
156.66666666666666
 20
207.06666666666666
 40
3.2000000000000002
 41
1
 50
90
  1
30
  0
CIRCLE
  8
_1-f_寸法
  6
CONTINUOUS
 62
    4
 10
123.33333333333333
 20
198.66666666666666
 40
1.6666666666666665
  0
CIRCLE
  8
_1-f_寸法
  6
CONTINUOUS
 62
    4
 10
115
 20
217
 40
1.6666666666666665
  0
TEXT
  8
_1-f_寸法
 62
    4
 10
114.375
 20
215.75
 40
2.5
 41
1
 50
0
  1
2
  0
CIRCLE
  8
_1-f_寸法
  6
CONTINUOUS
 62
    4
 10
106.66666666666666
 20
200.33333333333331
 40
1.6666666666666665
  0
TEXT
  8
_1-f_寸法
 62
    4
 10
106.04166666666666
 20
199.08333333333331
 40
2.5
 41
1
 50
0
  1
4
  0
CIRCLE
  8
_1-f_寸法
  6
CONTINUOUS
 62
    4
 10
136.66666666666666
 20
217
 40
1.6666666666666665
  0
TEXT
  8
_1-f_寸法
 62
    4
 10
136.04166666666666
 20
215.75
 40
2.5
 41
1
 50
0
  1
5
  0
CIRCLE
  8
_1-f_寸法
  6
CONTINUOUS
 62
    4
 10
130
 20
217
 40
1.6666666666666665
  0
TEXT
  8
_1-f_寸法
 62
    4
 10
129.375
 20
215.75
 40
2.5
 41
1
 50
0
  1
1
  0
TEXT
  8
_1-f_寸法
 62
    4
 10
122.70833333333333
 20
197.41666666666666
 40
2.5
 41
1
 50
0
  1
7
  0
CIRCLE
  8
_1-f_寸法
  6
CONTINUOUS
 62
    4
 10
136.66666666666666
 20
197
 40
1.6666666666666665
  0
CIRCLE
  8
_1-f_寸法
  6
CONTINUOUS
 62
    4
 10
136.66666666666666
 20
190.33333333333331
 40
1.6666666666666665
  0
TEXT
  8
_1-f_寸法
 62
    4
 10
136.04166666666666
 20
195.75
 40
2.5
 41
1
 50
0
  1
6
  0
TEXT
  8
_1-f_寸法
 62
    4
 10
136.04166666666666
 20
189.08333333333331
 40
2.5
 41
1
 50
0
  1
8
  0
INSERT
  2
-010-$QLE
  8
_1-f_寸法
 10
210
 20
148.5
 41
1
 42
1
 50
0
  0
LINE
  8
_1-f_寸法
  6
CONTINUOUS
 62
    4
 10
135.83851260928219
 20
191.77968689834273
 11
130.74999999999983
 21
200.66666666666657
  0
LINE
  8
_1-f_寸法
  6
CONTINUOUS
 62
    4
 10
130
 20
205.86504737695003
 11
135.66494795909733
 21
198.33204257014683
  0
LINE
  8
_1-f_寸法
  6
CONTINUOUS
 62
    4
 10
128.04166666666663
 20
205.08333333333331
 11
124.31931767455303
 21
200.0103975387714
  0
LINE
  8
_1-f_寸法
  6
CONTINUOUS
 62
    4
 10
105.83333333333333
 20
198.88995766035924
 11
103.97949662704406
 21
195.6790182961301
  0
LINE
  8
_1-f_寸法
  6
CONTINUOUS
 62
    4
 10
137.66291213918515
 20
215.66385901332822
 11
139.50000000000014
 21
213.19999999999999
  0
LINE
  8
_1-f_寸法
  6
CONTINUOUS
 62
    4
 10
114.16666666666666
 20
215.55662432702593
 11
112.19045974896729
 21
212.13373353930152
  0
LINE
  8
_1-0_躯体
  6
CENTER2
 62
    4
 10
90
 20
206.46390870031684
 11
90
 21
186.66666666666666
  0
LINE
  8
_1-0_躯体
  6
CENTER2
 62
    4
 10
130
 20
206.46390870031692
 11
130
 21
186.66666666666666
  0
INSERT
  2
-011-_8_
  8
_1-8_小物
 10
210
 20
148.5
 41
1
 42
1
 50
0
  0
INSERT
  2
-012-_9_
  8
_1-8_小物
 10
210
 20
148.5
 41
1
 42
1
 50
0
  0
LINE
  8
_1-0_躯体
  6
CONTINUOUS
 62
    6
 10
318.33333333333326
 20
203.66666666666666
 11
318.33333333333326
 21
180.33333333333329
  0
LINE
  8
_1-0_躯体
  6
CENTER2
 62
    4
 10
330
 20
206.79724203365018
 11
330
 21
187
  0
LINE
  8
_1-3_止水補助板
  6
CONTINUOUS
 62
    4
 10
334.99999999999989
 20
203.66666666666666
 11
334.99999999999989
 21
204
  0
LINE
  8
_1-3_止水補助板
  6
CONTINUOUS
 62
    4
 10
318.33333333333326
 20
203.66666666666666
 11
334.99999999999989
 21
203.66666666666666
  0
LINE
  8
_1-3_止水補助板
  6
CONTINUOUS
 62
    4
 10
318.33333333333326
 20
203.66666666666666
 11
315.09809526955166
 21
191.59259383805329
  0
LINE
  8
_1-3_止水補助板
  6
CONTINUOUS
 62
    4
 10
318.07755767067363
 20
204
 11
334.99999999999989
 21
204
  0
LINE
  8
_1-3_止水補助板
  6
CONTINUOUS
 62
    4
 10
318.07755767067363
 20
204
 11
314.77611999412198
 21
191.67886685308741
  0
LINE
  8
_1-3_止水補助板
  6
CONTINUOUS
 62
    4
 10
301.66666666666657
 20
203.66666666666666
 11
304.90190473044811
 21
191.59259383805329
  0
ARC
  8
_1-3_止水補助板
  6
CONTINUOUS
 62
    4
 10
309.99999999999989
 20
192.95862434846654
 40
5.2779365980282797
 50
194.99999999999923
 51
345.0000000000008
  0
ARC
  8
_1-3_止水補助板
  6
CONTINUOUS
 62
    4
 10
309.99999999999989
 20
192.95862434846654
 40
4.9446032646949467
 50
194.99999999999955
 51
345.00000000000028
  0
LINE
  8
_1-3_止水補助板
  6
CONTINUOUS
 62
    4
 10
301.99999999999943
 20
203.7105508325306
 11
305.22388000587785
 21
191.67886685308741
  0
LINE
  8
_1-0_躯体
  6
CENTER2
 62
    4
 10
310
 20
228.66666666666666
 11
310
 21
180.33333333333331
  0
LINE
  8
_1-0_躯体
  6
CONTINUOUS
 62
    4
 10
346.66666666666663
 20
203.66666666666666
 11
346.66666666666663
 21
202
  0
LINE
  8
_1-0_躯体
  6
CONTINUOUS
 62
    4
 10
318.33333333333331
 20
202
 11
346.66666666666663
 21
202
  0
INSERT
  2
-013-HATCHING_2_
  8
_1-0_躯体
 10
210
 20
148.5
 41
1
 42
1
 50
0
  0
LINE
  8
_1-0_躯体
  6
CONTINUOUS
 62
    4
 10
343.08333333333337
 20
213.5
 11
349.99999999999989
 21
213.5
  0
LINE
  8
_1-0_躯体
  6
CONTINUOUS
 62
    6
 10
318.33333333333326
 20
203.66666666666666
 11
346.66666666666663
 21
203.66666666666666
  0
INSERT
  2
-014-_10_
  8
_1-8_小物
 10
210
 20
148.5
 41
1
 42
1
 50
0
  0
INSERT
  2
-015-_11_
  8
_1-4_フレ__ム
 10
210
 20
148.5
 41
1
 42
1
 50
0
  0
INSERT
  2
-016-_12_
  8
_1-7_カバ__
 10
210
 20
148.5
 41
1
 42
1
 50
0
  0
INSERT
  2
-017-_13_
  8
_1-8_小物
 10
210
 20
148.5
 41
1
 42
1
 50
0
  0
LINE
  8
_1-3_止水補助板
  6
CONTINUOUS
 62
    4
 10
301.99999999999943
 20
203.7105508325306
 11
301.99999999999943
 21
223.13333333333472
  0
LINE
  8
_1-0_躯体
  6
CONTINUOUS
 62
    6
 10
301.66666666666663
 20
232
 11
301.66666666666663
 21
180.33333333333329
  0
LINE
  8
_1-f_寸法
  6
CONTINUOUS
 62
    4
 10
318.33333333333337
 20
188.66666666666666
 11
318.33333333333337
 21
182.06666666666666
  0
LINE
  8
_1-f_寸法
  6
CONTINUOUS
 62
    4
 10
330
 20
188.66666666666666
 11
330
 21
182.06666666666666
  0
POINT
  8
_1-f_寸法
 62
    4
 10
330
 20
183.66666666666666
  0
POINT
  8
_1-f_寸法
 62
    4
 10
318.33333333333337
 20
183.66666666666666
  0
LINE
  8
_1-f_寸法
  6
CONTINUOUS
 62
    4
 10
330
 20
183.66666666666666
 11
318.33333333333337
 21
183.66666666666666
  0
TEXT
  8
_1-f_寸法
 62
    4
 10
322.56666666666672
 20
183.66666666666666
 40
3.2000000000000002
 41
1
 50
0
  1
35
  0
LINE
  8
_1-f_寸法
  6
CONTINUOUS
 62
    4
 10
318.33333333333343
 20
178.66666666666666
 11
318.33333333333343
 21
172.06666666666666
  0
LINE
  8
_1-f_寸法
  6
CONTINUOUS
 62
    4
 10
301.66666666666674
 20
178.66666666666666
 11
301.66666666666674
 21
172.06666666666666
  0
POINT
  8
_1-f_寸法
 62
    4
 10
301.66666666666674
 20
173.66666666666666
  0
POINT
  8
_1-f_寸法
 62
    4
 10
318.33333333333343
 20
173.66666666666666
  0
LINE
  8
_1-f_寸法
  6
CONTINUOUS
 62
    4
 10
301.66666666666674
 20
173.66666666666666
 11
318.33333333333343
 21
173.66666666666666
  0
TEXT
  8
_1-f_寸法
 62
    4
 10
308.40000000000009
 20
173.66666666666666
 40
3.2000000000000002
 41
1
 50
0
  1
50
  0
LINE
  8
_1-f_寸法
  6
CONTINUOUS
 62
    4
 10
129.16666666666666
 20
215.55662432702593
 11
127.75795645464696
 21
213.11666666666667
  0
CIRCLE
  8
_1-f_寸法
  6
CONTINUOUS
 62
    4
 10
335
 20
217
 40
1.6666666666666665
  0
CIRCLE
  8
_1-f_寸法
  6
CONTINUOUS
 62
    4
 10
306.66666666666663
 20
233.66666666666666
 40
1.6666666666666665
  0
CIRCLE
  8
_1-f_寸法
  6
CONTINUOUS
 62
    4
 10
306.66666666666663
 20
233.66666666666666
 40
1.6666666666666665
  0
LINE
  8
_1-f_寸法
  6
CONTINUOUS
 62
    4
 10
305.83333333333326
 20
197.22329099369259
 11
304.28451779686429
 21
194.54066379297632
  0
TEXT
  8
_1-f_寸法
 62
    4
 10
334.375
 20
215.75
 40
2.5
 41
1
 50
0
  1
1
  0
CIRCLE
  8
_1-f_寸法
  6
CONTINUOUS
 62
    4
 10
298.33333333333331
 20
230.33333333333331
 40
1.6666666666666665
  0
TEXT
  8
_1-f_寸法
 62
    4
 10
297.70833333333331
 20
229.08333333333331
 40
2.5
 41
1
 50
0
  1
5
  0
LINE
  8
_1-f_寸法
  6
CONTINUOUS
 62
    4
 10
299.51184463531092
 20
229.15482203135574
 11
304.73333143812283
 21
223.93333522854383
  0
LINE
  8
_1-f_寸法
  6
CONTINUOUS
 62
    4
 10
334.16666666666663
 20
215.55662432702593
 11
332.78682396810638
 21
213.16666666666666
  0
TEXT
  8
_1-f_寸法
 62
    4
 10
306.04166666666657
 20
197.41666666666666
 40
2.5
 41
1
 50
0
  1
6
  0
TEXT
  8
_1-f_寸法
 62
    4
 10
306.04166666666663
 20
232.41666666666666
 40
2.5
 41
1
 50
0
  1
7
  0
CIRCLE
  8
_1-f_寸法
  6
CONTINUOUS
 62
    4
 10
341.66666666666663
 20
217
 40
1.6666666666666665
  0
TEXT
  8
_1-f_寸法
 62
    4
 10
341.04166666666663
 20
215.75
 40
2.5
 41
1
 50
0
  1
8
  0
CIRCLE
  8
_1-f_寸法
  6
CONTINUOUS
 62
    4
 10
313.33333333333337
 20
228.66666666666666
 40
1.6666666666666665
  0
LINE
  8
_1-f_寸法
  6
CONTINUOUS
 62
    4
 10
312.15482203135576
 20
227.48815536468902
 11
309.75000106803435
 21
225.08333440136761
  0
TEXT
  8
_1-f_寸法
 62
    4
 10
312.70833333333331
 20
227.41666666666666
 40
2.5
 41
1
 50
0
  1
8
  0
CIRCLE
  8
_1-f_寸法
  6
CONTINUOUS
 62
    4
 10
323.33333333333331
 20
198.66666666666666
 40
1.6666666666666665
  0
CIRCLE
  8
_1-f_寸法
  6
CONTINUOUS
 62
    4
 10
336.66666666666663
 20
197
 40
1.6666666666666665
  0
CIRCLE
  8
_1-f_寸法
  6
CONTINUOUS
 62
    4
 10
336.66666666666663
 20
190.33333333333331
 40
1.6666666666666665
  0
INSERT
  2
-018-$QLE_1_
  8
_1-f_寸法
 10
210
 20
148.5
 41
1
 42
1
 50
0
  0
LINE
  8
_1-f_寸法
  6
CONTINUOUS
 62
    4
 10
335.83851260928219
 20
191.77968689834273
 11
330.74999999999983
 21
200.66666666666657
  0
LINE
  8
_1-f_寸法
  6
CONTINUOUS
 62
    4
 10
330
 20
205.86504737695003
 11
335.66494795909728
 21
198.33204257014683
  0
LINE
  8
_1-f_寸法
  6
CONTINUOUS
 62
    4
 10
328.04166666666663
 20
205.08333333333331
 11
324.31931767455302
 21
200.0103975387714
  0
TEXT
  8
_1-f_寸法
 62
    4
 10
336.04166666666663
 20
195.75
 40
2.5
 41
1
 50
0
  1
9
  0
TEXT
  8
_1-f_寸法
 62
    4
 10
322.08333333333331
 20
197.41666666666666
 40
2.5
 41
1
 50
0
  1
10
  0
TEXT
  8
_1-f_寸法
 62
    4
 10
335.41666666666663
 20
189.08333333333331
 40
2.5
 41
1
 50
0
  1
11
  0
INSERT
  2
-019-_14_
  8
_1-9_センタ__プレ__ト
 10
210
 20
148.5
 41
1
 42
1
 50
0
  0
LINE
  8
_1-f_寸法
  6
CONTINUOUS
 62
    4
 10
351.66666666666657
 20
203.66666666666666
 11
358.26666666666654
 21
203.66666666666666
  0
LINE
  8
_1-f_寸法
  6
CONTINUOUS
 62
    4
 10
351.66666666666657
 20
213.66666666666666
 11
358.26666666666654
 21
213.66666666666666
  0
POINT
  8
_1-f_寸法
 62
    4
 10
356.66666666666657
 20
213.66666666666666
  0
POINT
  8
_1-f_寸法
 62
    4
 10
356.66666666666657
 20
203.66666666666666
  0
LINE
  8
_1-f_寸法
  6
CONTINUOUS
 62
    4
 10
356.66666666666657
 20
213.66666666666666
 11
356.66666666666657
 21
203.66666666666666
  0
TEXT
  8
_1-f_寸法
 62
    4
 10
356.66666666666657
 20
207.06666666666666
 40
3.2000000000000002
 41
1
 50
90
  1
30
  0
LINE
  8
_1-f_寸法
  6
CONTINUOUS
 62
    4
 10
310.00000106803418
 20
233.66666666666666
 11
310.00000106803418
 21
240.26666666666665
  0
LINE
  8
_1-f_寸法
  6
CONTINUOUS
 62
    4
 10
301.66666666666663
 20
233.66666666666666
 11
301.66666666666663
 21
240.26666666666665
  0
POINT
  8
_1-f_寸法
 62
    4
 10
301.66666666666663
 20
238.66666666666666
  0
POINT
  8
_1-f_寸法
 62
    4
 10
310.00000106803418
 20
238.66666666666666
  0
LINE
  8
_1-f_寸法
  6
CONTINUOUS
 62
    4
 10
301.66666666666663
 20
238.66666666666666
 11
310.00000106803418
 21
238.66666666666666
  0
TEXT
  8
_1-f_寸法
 62
    4
 10
304.23333386735044
 20
238.66666666666666
 40
3.2000000000000002
 41
1
 50
0
  1
25
  0
LINE
  8
_1-f_寸法
  6
CONTINUOUS
 62
    4
 10
318.33333333333331
 20
233.66666666666666
 11
318.33333333333331
 21
240.26666666666665
  0
POINT
  8
_1-f_寸法
 62
    4
 10
318.33333333333331
 20
238.66666666666666
  0
LINE
  8
_1-f_寸法
  6
CONTINUOUS
 62
    4
 10
310.00000106803418
 20
238.66666666666666
 11
318.33333333333331
 21
238.66666666666666
  0
TEXT
  8
_1-f_寸法
 62
    4
 10
312.5666672006837
 20
238.66666666666666
 40
3.2000000000000002
 41
1
 50
0
  1
25
  0
LINE
  8
_1-f_寸法
  6
CONTINUOUS
 62
    4
 10
343.33333333333331
 20
233.66666666666666
 11
343.33333333333331
 21
240.26666666666665
  0
POINT
  8
_1-f_寸法
 62
    4
 10
343.33333333333331
 20
238.66666666666666
  0
LINE
  8
_1-f_寸法
  6
CONTINUOUS
 62
    4
 10
318.33333333333331
 20
238.66666666666666
 11
343.33333333333331
 21
238.66666666666666
  0
TEXT
  8
_1-f_寸法
 62
    4
 10
329.23333333333335
 20
238.66666666666666
 40
3.2000000000000002
 41
1
 50
0
  1
75
  0
LINE
  8
_1-f_寸法
  6
CONTINUOUS
 62
    4
 10
310
 20
232
 11
310
 21
233.66666666666666
  0
LINE
  8
_1-f_寸法
  6
CONTINUOUS
 62
    4
 10
343.33333333333331
 20
233.66666666666666
 11
343.33333333333331
 21
215.33333333333331
  0
CIRCLE
  8
_1-f_寸法
  6
CONTINUOUS
 62
    4
 10
315
 20
217
 40
1.6666666666666665
  0
TEXT
  8
_1-f_寸法
 62
    4
 10
314.375
 20
215.75
 40
2.5
 41
1
 50
0
  1
2
  0
LINE
  8
_1-f_寸法
  6
CONTINUOUS
 62
    4
 10
314.16666666666669
 20
215.55662432702593
 11
312.21909822976221
 21
212.18333684308993
  0
CIRCLE
  8
_1-f_寸法
  6
CONTINUOUS
 62
    4
 10
313.33333333333331
 20
222
 40
1.6666666666666665
  0
TEXT
  8
_1-f_寸法
 62
    4
 10
312.70833333333326
 20
220.75
 40
2.5
 41
1
 50
0
  1
4
  0
LINE
  8
_1-f_寸法
  6
CONTINUOUS
 62
    4
 10
312.15482203135571
 20
220.82148869802236
 11
309.75000106803429
 21
218.41666773470095
  0
LINE
  8
_1-f_寸法
  6
CONTINUOUS
 62
    4
 10
351.66666666666663
 20
213.66666666666666
 11
358.26666666666665
 21
213.66666666666666
  0
LINE
  8
_1-f_寸法
  6
CONTINUOUS
 62
    4
 10
351.66666666666663
 20
203.66666666666666
 11
358.26666666666665
 21
203.66666666666666
  0
POINT
  8
_1-f_寸法
 62
    4
 10
356.66666666666663
 20
203.66666666666666
  0
POINT
  8
_1-f_寸法
 62
    4
 10
356.66666666666663
 20
213.66666666666666
  0
LINE
  8
_1-f_寸法
  6
CONTINUOUS
 62
    4
 10
356.66666666666663
 20
203.66666666666666
 11
356.66666666666663
 21
213.66666666666666
  0
TEXT
  8
_1-f_寸法
 62
    4
 10
356.66666666666663
 20
207.06666666666666
 40
3.2000000000000002
 41
1
 50
90
  1
30
  0
LINE
  8
_1-f_寸法
  6
CONTINUOUS
 62
    4
 10
343.33333333333331
 20
238.66666666666666
 11
343.33333333333331
 21
245.26666666666659
  0
LINE
  8
_1-f_寸法
  6
CONTINUOUS
 62
    4
 10
301.66666666666663
 20
238.66666666666666
 11
301.66666666666663
 21
245.26666666666659
  0
POINT
  8
_1-f_寸法
 62
    4
 10
301.66666666666663
 20
243.66666666666663
  0
POINT
  8
_1-f_寸法
 62
    4
 10
343.33333333333331
 20
243.66666666666663
  0
LINE
  8
_1-f_寸法
  6
CONTINUOUS
 62
    4
 10
301.66666666666663
 20
243.66666666666663
 11
343.33333333333331
 21
243.66666666666663
  0
TEXT
  8
_1-f_寸法
 62
    4
 10
320.09999999999997
 20
243.66666666666663
 40
3.2000000000000002
 41
1
 50
0
  1
125
  0
INSERT
  2
-020-_15_
  8
_1-8_小物
 10
210
 20
148.5
 41
1
 42
1
 50
0
  0
INSERT
  2
-021-_16_
  8
_1-8_小物
 10
210
 20
148.5
 41
1
 42
1
 50
0
  0
INSERT
  2
-022-_17_
  8
_1-8_小物
 10
210
 20
148.5
 41
1
 42
1
 50
0
  0
LINE
  8
_1-f_寸法
  6
CONTINUOUS
 62
    4
 10
318.33333333333326
 20
203.66666666666666
 11
285.83333333333326
 21
203.66666666666666
  0
INSERT
  2
-023-_18_
  8
_1-8_小物
 10
210
 20
148.5
 41
1
 42
1
 50
0
  0
LINE
  8
_1-f_寸法
  6
CONTINUOUS
 62
    4
 10
351.66666666666663
 20
230.33333357176582
 11
358.26666666666665
 21
230.33333357176582
  0
LINE
  8
_1-f_寸法
  6
CONTINUOUS
 62
    4
 10
351.66666666666663
 20
213.66666666666666
 11
358.26666666666665
 21
213.66666666666666
  0
POINT
  8
_1-f_寸法
 62
    4
 10
356.66666666666663
 20
213.66666666666666
  0
POINT
  8
_1-f_寸法
 62
    4
 10
356.66666666666663
 20
230.33333357176582
  0
LINE
  8
_1-f_寸法
  6
CONTINUOUS
 62
    4
 10
356.66666666666663
 20
213.66666666666666
 11
356.66666666666663
 21
230.33333357176582
  0
TEXT
  8
_1-f_寸法
 62
    4
 10
356.66666666666663
 20
220.40000011921626
 40
3.2000000000000002
 41
1
 50
90
  1
50
  0
LINE
  8
_1-f_寸法
  6
CONTINUOUS
 62
    4
 10
351.66666666666663
 20
230.33333357176582
 11
311.66666666666663
 21
230.33333357176582
  0
LINE
  8
_1-3_止水補助板
  6
CONTINUOUS
 62
    4
 10
301.66666666666612
 20
224.16666666666669
 11
301.99999999419492
 21
224.16666666666669
  0
LINE
  8
_1-3_止水補助板
  6
CONTINUOUS
 62
    4
 10
301.66666666666612
 20
203.66666666666666
 11
301.66666666666612
 21
224.16666666666669
  0
LINE
  8
_1-0_躯体
  6
CENTER2
 62
    4
 10
304.73846062743996
 20
215.33333333333331
 11
285
 21
215.33333333333331
  0
INSERT
  2
-024-_19_
  8
_1-4_フレ__ム
 10
210
 20
148.5
 41
1
 42
1
 50
0
  0
CIRCLE
  8
_1-f_寸法
  6
CONTINUOUS
 62
    4
 10
291.66666666666629
 20
220.33333333333329
 40
1.6666666666666665
  0
CIRCLE
  8
_1-f_寸法
  6
CONTINUOUS
 62
    4
 10
296.66666666666629
 20
210.33333333333329
 40
1.6666666666666665
  0
CIRCLE
  8
_1-f_寸法
  6
CONTINUOUS
 62
    4
 10
289.99999999999966
 20
210.33333333333329
 40
1.6666666666666665
  0
LINE
  8
_1-f_寸法
  6
CONTINUOUS
 62
    4
 10
291.48472575504059
 20
211.09054348256251
 11
298.33333333333292
 21
214.58333341279996
  0
LINE
  8
_1-f_寸法
  6
CONTINUOUS
 62
    4
 10
303.53171404361626
 20
215.33333333333331
 11
298.01388414202268
 21
211.31454832092373
  0
LINE
  8
_1-f_寸法
  6
CONTINUOUS
 62
    4
 10
302.74999999999966
 20
217.29166674613316
 11
293.273907156051
 21
219.89224854889812
  0
TEXT
  8
_1-f_寸法
 62
    4
 10
296.04166666666629
 20
209.08333333333329
 40
2.5
 41
1
 50
0
  1
9
  0
TEXT
  8
_1-f_寸法
 62
    4
 10
290.41666666666629
 20
219.08333333333329
 40
2.5
 41
1
 50
0
  1
10
  0
TEXT
  8
_1-f_寸法
 62
    4
 10
288.74999999999966
 20
209.08333333333329
 40
2.5
 41
1
 50
0
  1
11
  0
INSERT
  2
-025-_20_
  8
_1-8_小物
 10
210
 20
148.5
 41
1
 42
1
 50
0
  0
INSERT
  2
-026-_21_
  8
_1-8_小物
 10
210
 20
148.5
 41
1
 42
1
 50
0
  0
CIRCLE
  8
_1-f_寸法
  6
CONTINUOUS
 62
    4
 10
85
 20
208.66666666666666
 40
1.6666666666666665
  0
TEXT
  8
_1-f_寸法
 62
    4
 10
84.375
 20
207.41666666666666
 40
2.5
 41
1
 50
0
  1
3
  0
LINE
  8
_1-f_寸法
  6
CONTINUOUS
 62
    4
 10
84.166666666666657
 20
207.22329099369259
 11
82.488526337473786
 21
204.31666668130018
  0
CIRCLE
  8
_1-f_寸法
  6
CONTINUOUS
 62
    4
 10
335
 20
208.66666666666666
 40
1.6666666666666665
  0
TEXT
  8
_1-f_寸法
 62
    4
 10
334.375
 20
207.41666666666666
 40
2.5
 41
1
 50
0
  1
3
  0
LINE
  8
_1-f_寸法
  6
CONTINUOUS
 62
    4
 10
335.83333333333331
 20
207.22329099369259
 11
337.51147366252621
 21
204.31666668130018
  0
CIRCLE
  8
_1-f_寸法
  6
CONTINUOUS
 62
    4
 10
113.33333333333333
 20
207
 40
1.6666666666666665
  0
CIRCLE
  8
_1-f_寸法
  6
CONTINUOUS
 62
    4
 10
313.33333283333326
 20
207
 40
1.6666666666666665
  0
TEXT
  8
_1-f_寸法
 62
    4
 10
112.70833333333333
 20
205.75
 40
2.5
 41
1
 50
0
  1
9
  0
TEXT
  8
_1-f_寸法
 62
    4
 10
312.08333283333326
 20
205.75
 40
2.5
 41
1
 50
0
  1
12
  0
INSERT
  2
-027-_22_
  8
_1-7_カバ__
 10
210
 20
148.5
 41
1
 42
1
 50
0
  0
INSERT
  2
-028-_23_
  8
_1-8_小物
 10
210
 20
148.5
 41
1
 42
1
 50
0
  0
INSERT
  2
-029-_24_
  8
_1-8_小物
 10
210
 20
148.5
 41
1
 42
1
 50
0
  0
CIRCLE
  8
_1-f_寸法
  6
CONTINUOUS
 62
    4
 10
318.33333333333331
 20
222
 40
1.6666666666666665
  0
CIRCLE
  8
_1-f_寸法
  6
CONTINUOUS
 62
    4
 10
318.33333333333331
 20
222
 40
1.6666666666666665
  0
TEXT
  8
_1-f_寸法
 62
    4
 10
317.70833333333331
 20
220.75
 40
2.5
 41
1
 50
0
  1
7
  0
LINE
  8
_1-f_寸法
  6
CONTINUOUS
 62
    4
 10
304.16666665943768
 20
230.0833333900477
 11
305.71303066128644
 21
232.29978841787477
  0
LINE
  8
_1-f_寸法
  6
CONTINUOUS
 62
    4
 10
309.74999999277077
 20
214.17689987672571
 11
317.10153448451234
 21
220.87730263480262
  0
LINE
  8
_1-f_寸法
  6
CONTINUOUS
 62
    4
 10
318.33333333333331
 20
233.66666666666666
 11
318.33333333333331
 21
223.66666666666666
  0
LINE
  8
_1-f_寸法
  6
CONTINUOUS
 62
    4
 10
318.33333333333331
 20
220.33333333333331
 11
318.33333333333331
 21
215.33333333333331
  0
INSERT
  2
-030-_25_
  8
_1-8_小物
 10
210
 20
148.5
 41
1
 42
1
 50
0
  0
INSERT
  2
-031-_26_
  8
_1-8_小物
 10
210
 20
148.5
 41
1
 42
1
 50
0
  0
INSERT
  2
-032-_27_
  8
_1-8_小物
 10
210
 20
148.5
 41
1
 42
1
 50
0
  0
INSERT
  2
-033-_28_
  8
_1-8_小物
 10
210
 20
148.5
 41
1
 42
1
 50
0
  0
INSERT
  2
-034-_29_
  8
_1-9_センタ__プレ__ト
 10
210
 20
148.5
 41
1
 42
1
 50
0
  0
LINE
  8
_1-f_寸法
  6
CONTINUOUS
 62
    4
 10
285.83333333333326
 20
203.66666666666666
 11
279.23333333333323
 21
203.66666666666666
  0
LINE
  8
_1-f_寸法
  6
CONTINUOUS
 62
    4
 10
285.83333333333326
 20
215.33333333333331
 11
279.23333333333323
 21
215.33333333333331
  0
POINT
  8
_1-f_寸法
 62
    4
 10
280.83333333333326
 20
215.33333333333331
  0
POINT
  8
_1-f_寸法
 62
    4
 10
280.83333333333326
 20
203.66666666666666
  0
LINE
  8
_1-f_寸法
  6
CONTINUOUS
 62
    4
 10
280.83333333333326
 20
215.33333333333331
 11
280.83333333333326
 21
203.66666666666666
  0
TEXT
  8
_1-f_寸法
 62
    4
 10
280.83333333333326
 20
207.90000000000001
 40
3.2000000000000002
 41
1
 50
90
  1
35
  0
LINE
  8
_1-f_寸法
  6
CONTINUOUS
 62
    4
 10
318.33333333333326
 20
203.66666666666666
 11
280.83333333333326
 21
203.66666666666666
  0
LINE
  8
_1-f_寸法
  6
CONTINUOUS
 62
    4
 10
308.86666705750764
 20
202
 11
308.86666705750764
 21
182.06666666666666
  0
LINE
  8
_1-f_寸法
  6
CONTINUOUS
 62
    4
 10
301.66666666666657
 20
202
 11
301.66666666666657
 21
182.06666666666666
  0
POINT
  8
_1-f_寸法
 62
    4
 10
301.66666666666657
 20
183.66666666666666
  0
POINT
  8
_1-f_寸法
 62
    4
 10
308.86666705750764
 20
183.66666666666666
  0
LINE
  8
_1-f_寸法
  6
CONTINUOUS
 62
    4
 10
301.66666666666657
 20
183.66666666666666
 11
308.86666705750764
 21
183.66666666666666
  0
TEXT
  8
_1-f_寸法
 62
    4
 10
302.06666686208712
 20
183.66666666666666
 40
3.2000000000000002
 41
1
 50
0
  1
21.6
  0
LINE
  8
_1-f_寸法
  6
CONTINUOUS
 62
    4
 10
118.08333333333314
 20
209.76666633333343
 11
114.77351440753242
 21
207.8388422088191
  0
LINE
  8
_1-f_寸法
  6
CONTINUOUS
 62
    4
 10
318.08333283333309
 20
209.76666633333343
 11
314.77351390753233
 21
207.8388422088191
  0
ENDSEC
  0
EOF
