  0
SECTION
  2
HEADER
  9
$ACADVER
  1
AC1009
  9
$INSBASE
 10
0
 20
0
 30
0
  9
$EXTMIN
 10
0
 20
0
  9
$EXTMAX
 10
420
 20
297
  9
$LIMMIN
 10
0
 20
0
  9
$LIMMAX
 10
420
 20
297
  9
$LTSCALE
 40
1
  0
ENDSEC
  0
SECTION
  2
TABLES
  0
TABLE
  2
LTYPE
 70
     9
  0
LTYPE
  2
CONTINUOUS
 70
    64
  3
実線
 72
    65
 73
     0
 40
0.0
  0
LTYPE
  2
DASHED1
 70
    64
  3
--  --  --  --  --  --  --  --  
 72
    65
 73
     2
 40
2.5
 49
1.25
 49
-1.25
  0
LTYPE
  2
DASHED2
 70
    64
  3
----    ----    ----    ----    
 72
    65
 73
     2
 40
5.0
 49
2.5
 49
-2.5
  0
LTYPE
  2
DASHED3
 70
    64
  3
------  ------  ------  ------  
 72
    65
 73
     2
 40
5.0
 49
3.75
 49
-1.25
  0
LTYPE
  2
CENTER1
 70
    64
  3
----- - ----- - ----- - ----- - 
 72
    65
 73
     4
 40
10.0
 49
6.25
 49
-1.25
 49
1.25
 49
-1.25
  0
LTYPE
  2
CENTER2
 70
    64
  3
----------  --  ----------  --  
 72
    65
 73
     4
 40
20.0
 49
12.5
 49
-2.5
 49
2.5
 49
-2.5
  0
LTYPE
  2
PHANTOM1
 70
    64
  3
--- - - --- - - --- - - --- - - 
 72
    65
 73
     6
 40
10.0
 49
3.25
 49
-1.25
 49
1.25
 49
-1.25
 49
1.25
 49
-1.25
  0
LTYPE
  2
PHANTOM2
 70
    64
  3
--------  -  -  --------  -  -  
 72
    65
 73
     6
 40
20.0
 49
10.0
 49
-2.5
 49
1.25
 49
-2.5
 49
1.25
 49
-2.5
  0
LTYPE
  2
DOT
 70
    64
  3
-   -   -   -   -   -   -   -   
 72
    65
 73
     2
 40
2.5
 49
0.625
 49
-1.875
  0
LTYPE
  2
DUMMY
 70
    64
  3
ダミー
 72
    65
 73
     0
 40
0.0
  0
LTYPE
  2
RAND1
 70
    64
  3
ランダム線1
 72
    65
 73
     4
 40
10.0
 49
1.0
 49
-2.0
 49
3.0
 49
-4.0
  0
LTYPE
  2
RAND2
 70
    64
  3
ランダム線2
 72
    65
 73
     4
 40
14.0
 49
2.0
 49
-3.0
 49
4.0
 49
-5.0
  0
LTYPE
  2
RAND3
 70
    64
  3
ランダム線3
 72
    65
 73
     4
 40
18.0
 49
3.0
 49
-4.0
 49
5.0
 49
-6.0
  0
LTYPE
  2
RAND4
 70
    64
  3
ランダム線4
 72
    65
 73
     4
 40
22.0
 49
4.0
 49
-5.0
 49
6.0
 49
-7.0
  0
LTYPE
  2
RAND5
 70
    64
  3
ランダム線5
 72
    65
 73
     4
 40
26.0
 49
5.0
 49
-6.0
 49
7.0
 49
-8.0
  0
LTYPE
  2
LONG1
 70
    64
  3
----------  --  ----------  --  
 72
    65
 73
     4
 40
40.0
 49
32.5
 49
-2.5
 49
2.5
 49
-2.5
  0
LTYPE
  2
LONG2
 70
    64
  3
--------  -  -  --------  -  -  
 72
    65
 73
     6
 40
40.0
 49
30.0
 49
-2.5
 49
1.25
 49
-2.5
 49
1.25
 49
-2.5
  0
LTYPE
  2
LONG3
 70
    64
  3
+++++++++++++++..+++++++++++++++
 72
    65
 73
     2
 40
40.0
 49
37.5
 49
-2.5
  0
LTYPE
  2
LONG4
 70
    64
  3
+++++++++++++++..+++++++++++++++
 72
    65
 73
     2
 40
80.0
 49
75.0
 49
-5.0
  0
LTYPE
  2
LONG5
 70
    64
  3
----------  --  ----------  --  
 72
    65
 73
     4
 40
60.0
 49
37.5
 49
-7.5
 49
7.5
 49
-7.5
  0
LTYPE
  2
dashed
 70
   64
  3
-------   -------------   ------
 72
   65
 73
    2
 40
7.5
 49
6
 49
-1.5
  0
LTYPE
  2
dashed_spaced
 70
   64
  3
----        --------        ----
 72
   65
 73
    2
 40
12
 49
6
 49
-6
  0
LTYPE
  2
long_dashed_dotted
 70
   64
  3
------------- --- --------------
 72
   65
 73
    4
 40
15.25
 49
12
 49
-1.5
 49
0.25
 49
-1.5
  0
LTYPE
  2
long_dashed_double-dotted
 70
   64
  3
----------- --- --- ------------
 72
   65
 73
    6
 40
17
 49
12
 49
-1.5
 49
0.25
 49
-1.5
 49
0.25
 49
-1.5
  0
LTYPE
  2
long_dashed_triplicate-dotted
 70
   64
  3
--------- --- --- --- ----------
 72
   65
 73
    8
 40
18.75
 49
12
 49
-1.5
 49
0.25
 49
-1.5
 49
0.25
 49
-1.5
 49
0.25
 49
-1.5
  0
LTYPE
  2
dotted
 70
   64
  3
   -       -       -       -    
 72
   65
 73
    2
 40
1.75
 49
0.25
 49
-1.5
  0
LTYPE
  2
chain
 70
   64
  3
-------------- -- --------------
 72
   65
 73
    4
 40
18.5
 49
12
 49
-1.5
 49
3.5
 49
-1.5
  0
LTYPE
  2
chain_double_dash
 70
   64
  3
------------ -- -- -------------
 72
   65
 73
    6
 40
23.5
 49
12
 49
-1.5
 49
3.5
 49
-1.5
 49
3.5
 49
-1.5
  0
LTYPE
  2
dashed_dotted
 70
   64
  3
-----------     -     ----------
 72
   65
 73
    4
 40
9.25
 49
6
 49
-1.5
 49
0.25
 49
-1.5
  0
LTYPE
  2
double-dashed_dotted
 70
   64
  3
------   -----------   -   -----
 72
   65
 73
    6
 40
16.75
 49
6
 49
-1.5
 49
6
 49
-1.5
 49
0.25
 49
-1.5
  0
LTYPE
  2
dashed_double-dotted
 70
   64
  3
---------    -    -    ---------
 72
   65
 73
    6
 40
11
 49
6
 49
-1.5
 49
0.25
 49
-1.5
 49
0.25
 49
-1.5
  0
LTYPE
  2
double-dashed_double-dotted
 70
   64
  3
-----   ---------   -   -   ----
 72
   65
 73
    8
 40
18.5
 49
6
 49
-1.5
 49
6
 49
-1.5
 49
0.25
 49
-1.5
 49
0.25
 49
-1.5
  0
LTYPE
  2
dashed_triplicate-dotted
 70
   64
  3
-------    -    -    -    ------
 72
   65
 73
    8
 40
12.75
 49
6
 49
-1.5
 49
0.25
 49
-1.5
 49
0.25
 49
-1.5
 49
0.25
 49
-1.5
  0
LTYPE
  2
double-dashed_triplicate-dotted
 70
   64
  3
-----  ---------  -  -  -  -----
 72
   65
 73
   10
 40
20.25
 49
6
 49
-1.5
 49
6
 49
-1.5
 49
0.25
 49
-1.5
 49
0.25
 49
-1.5
 49
0.25
 49
-1.5
  0
LTYPE
  2
undefined
 70
   64
  3
--------------------------------
 72
   65
 73
    0
 40
0
  0
ENDTAB
  0
TABLE
  2
STYLE
  5
3
100
AcDbSymbolTable
 70
     1
  0
STYLE
  5
10
100
AcDbSymbolTableRecord
100
AcDbTextStyleTableRecord
  2
STANDARD
 70
     0
 40
0.0
 41
1.0
 50
0.0
 71
     0
 42
0.2
  3
txt
  4
bigfont.shx
  0
STYLE
  5
26
100
AcDbSymbolTableRecord
100
AcDbTextStyleTableRecord
  2
TATEGAKI
 70
    68
 40
0.0
 41
1.0
 50
0.0
 71
     0
 42
1.0
  3
txt
  4
bigfont.shx
  0
ENDTAB
  0
TABLE
  2
LAYER
 70
   10
  0
LAYER
  2
_0-0_図面枠
 70
   64
 62
    7
  6
CONTINUOUS
  0
LAYER
  2
_1-0_躯体
 70
   64
 62
    7
  6
CONTINUOUS
  0
LAYER
  2
_1-3_止水補助板
 70
   64
 62
    7
  6
CONTINUOUS
  0
LAYER
  2
_1-4_フレ__ム
 70
   64
 62
    7
  6
CONTINUOUS
  0
LAYER
  2
_1-7_カバ__
 70
   64
 62
    7
  6
CONTINUOUS
  0
LAYER
  2
_1-8_小物
 70
   64
 62
    7
  6
CONTINUOUS
  0
LAYER
  2
_1-9_センタ__プレ__ト
 70
   64
 62
    7
  6
CONTINUOUS
  0
LAYER
  2
_1-e_
 70
   64
 62
    7
  6
CONTINUOUS
  0
LAYER
  2
_1-f_寸法
 70
   64
 62
    7
  6
CONTINUOUS
  0
LAYER
  2
ADD_LINE
 70
   64
 62
    7
  6
CONTINUOUS
  0
ENDTAB
  0
ENDSEC
  0
SECTION
  2
BLOCKS
  0
BLOCK
  2
-000-
 70
   64
 10
0
 20
0
 30
0
  0
LINE
  8
_0-0_図面枠
  6
CONTINUOUS
 62
    7
 10
-21.739611258569312
 20
123.45090259426559
 11
-22.269941344419323
 21
123.1447495523156
  0
LINE
  8
_0-0_図面枠
  6
CONTINUOUS
 62
    7
 10
-20.83374460066932
 20
121.49924270821555
 11
-21.739611258569312
 21
123.45090259426559
  0
LINE
  8
_0-0_図面枠
  6
CONTINUOUS
 62
    7
 10
-24.214484992719321
 20
122.02218839856556
 11
-20.83374460066932
 21
121.49924270821555
  0
LINE
  8
_0-0_図面枠
  6
CONTINUOUS
 62
    7
 10
-23.684154906819316
 20
122.3283414405156
 11
-24.214484992719321
 21
122.02218839856556
  0
LINE
  8
_0-0_図面枠
  6
CONTINUOUS
 62
    7
 10
-28.280348984519321
 20
124.98166780391557
 11
-23.684154906819316
 21
122.3283414405156
  0
LINE
  8
_0-0_図面枠
  6
CONTINUOUS
 62
    7
 10
-32.876543062219298
 20
122.3283414405156
 11
-28.280348984519321
 21
124.98166780391557
  0
LINE
  8
_0-0_図面枠
  6
CONTINUOUS
 62
    7
 10
-32.346212976369316
 20
122.02218839856556
 11
-32.876543062219298
 21
122.3283414405156
  0
LINE
  8
_0-0_図面枠
  6
CONTINUOUS
 62
    7
 10
-35.726953368369323
 20
121.49924270821555
 11
-32.346212976369316
 21
122.02218839856556
  0
LINE
  8
_0-0_図面枠
  6
CONTINUOUS
 62
    7
 10
-34.821086710519353
 20
123.45090259426559
 11
-35.726953368369323
 21
121.49924270821555
  0
LINE
  8
_0-0_図面枠
  6
CONTINUOUS
 62
    7
 10
-34.290756624619348
 20
123.1447495523156
 11
-34.821086710519353
 21
123.45090259426559
  0
LINE
  8
_0-0_図面枠
  6
CONTINUOUS
 62
    7
 10
-29.694562546919315
 20
125.79807591576559
 11
-34.290756624619348
 21
123.1447495523156
  0
LINE
  8
_0-0_図面枠
  6
CONTINUOUS
 62
    7
 10
-34.290756624619348
 20
128.45140227916556
 11
-29.694562546919315
 21
125.79807591576559
  0
LINE
  8
_0-0_図面枠
  6
CONTINUOUS
 62
    7
 10
-34.821086710519353
 20
128.1452492372656
 11
-34.290756624619348
 21
128.45140227916556
  0
LINE
  8
_0-0_図面枠
  6
CONTINUOUS
 62
    7
 10
-35.726953368369323
 20
130.09690912331558
 11
-34.821086710519353
 21
128.1452492372656
  0
LINE
  8
_0-0_図面枠
  6
CONTINUOUS
 62
    7
 10
-32.346212976369316
 20
129.57396343296557
 11
-35.726953368369323
 21
130.09690912331558
  0
LINE
  8
_0-0_図面枠
  6
CONTINUOUS
 62
    7
 10
-32.876543062219298
 20
129.26781039101559
 11
-32.346212976369316
 21
129.57396343296557
  0
LINE
  8
_0-0_図面枠
  6
CONTINUOUS
 62
    7
 10
-28.280348984519321
 20
126.6144840275656
 11
-32.876543062219298
 21
129.26781039101559
  0
LINE
  8
_0-0_図面枠
  6
CONTINUOUS
 62
    7
 10
-23.684154906819316
 20
129.26781039101559
 11
-28.280348984519321
 21
126.6144840275656
  0
LINE
  8
_0-0_図面枠
  6
CONTINUOUS
 62
    7
 10
-24.214484992719321
 20
129.57396343296557
 11
-23.684154906819316
 21
129.26781039101559
  0
LINE
  8
_0-0_図面枠
  6
CONTINUOUS
 62
    7
 10
-20.83374460066932
 20
130.09690912331558
 11
-24.214484992719321
 21
129.57396343296557
  0
LINE
  8
_0-0_図面枠
  6
CONTINUOUS
 62
    7
 10
-21.739611258569312
 20
128.1452492372656
 11
-20.83374460066932
 21
130.09690912331558
  0
LINE
  8
_0-0_図面枠
  6
CONTINUOUS
 62
    7
 10
-22.269941344419323
 20
128.45140227916556
 11
-21.739611258569312
 21
128.1452492372656
  0
LINE
  8
_0-0_図面枠
  6
CONTINUOUS
 62
    7
 10
-26.866135422169322
 20
125.79807591576559
 11
-22.269941344419323
 21
128.45140227916556
  0
LINE
  8
_0-0_図面枠
  6
CONTINUOUS
 62
    7
 10
-22.269941344419323
 20
123.1447495523156
 11
-26.866135422169322
 21
125.79807591576559
  0
LINE
  8
_0-0_図面枠
  6
CONTINUOUS
 62
    7
 10
-35.726953368369323
 20
121.49924270821555
 11
-35.726953368369323
 21
120.88683709931558
  0
LINE
  8
_0-0_図面枠
  6
CONTINUOUS
 62
    7
 10
-32.346212976369316
 20
122.02218839856556
 11
-32.346212976369316
 21
121.4097827896656
  0
LINE
  8
_0-0_図面枠
  6
CONTINUOUS
 62
    7
 10
-35.726953368369323
 20
120.88683709931558
 11
-32.346212976369316
 21
121.4097827896656
  0
LINE
  8
_0-0_図面枠
  6
CONTINUOUS
 62
    7
 10
-24.214484992719321
 20
122.02218839856556
 11
-24.214484992719321
 21
121.4097827896656
  0
LINE
  8
_0-0_図面枠
  6
CONTINUOUS
 62
    7
 10
-20.83374460066932
 20
121.49924270821555
 11
-20.83374460066932
 21
120.88683709931558
  0
LINE
  8
_0-0_図面枠
  6
CONTINUOUS
 62
    7
 10
-24.214484992719321
 20
121.4097827896656
 11
-20.83374460066932
 21
120.88683709931558
  0
LINE
  8
_0-0_図面枠
  6
CONTINUOUS
 62
    7
 10
-28.280348984519321
 20
124.98166780391557
 11
-28.280348984519321
 21
124.36926219501561
  0
LINE
  8
_0-0_図面枠
  6
CONTINUOUS
 62
    7
 10
-32.346212976369316
 20
122.0220888735156
 11
-28.280348984519321
 21
124.36926219501561
  0
LINE
  8
_0-0_図面枠
  6
CONTINUOUS
 62
    7
 10
-28.280348984519321
 20
124.36926219501561
 11
-24.214484992719321
 21
122.0220888735156
  0
LINE
  8
_0-0_図面枠
  6
CONTINUOUS
 62
    7
 10
-34.290756624619348
 20
128.45140227916556
 11
-34.290756624619348
 21
127.8389966702656
  0
LINE
  8
_0-0_図面枠
  6
CONTINUOUS
 62
    7
 10
-34.290756624619348
 20
127.8389966702656
 11
-30.224978833369335
 21
125.49187311131561
  0
LINE
  8
_0-0_図面枠
  6
CONTINUOUS
 62
    7
 10
-22.269941344419323
 20
128.45140227916556
 11
-22.269941344419323
 21
127.8389966702656
  0
LINE
  8
_0-0_図面枠
  6
CONTINUOUS
 62
    7
 10
-26.33571913571933
 20
125.49187311131561
 11
-22.269941344419323
 21
127.8389966702656
  0
LINE
  8
_0-0_図面枠
  6
CONTINUOUS
 62
    7
 10
-21.739611258569312
 20
128.1452492372656
 11
-21.739611258569312
 21
127.53284362831556
  0
LINE
  8
_0-0_図面枠
  6
CONTINUOUS
 62
    7
 10
-22.269941344419323
 20
127.8389966702656
 11
-21.739611258569312
 21
127.53284362831556
  0
LINE
  8
_0-0_図面枠
  6
CONTINUOUS
 62
    7
 10
-20.83374460066932
 20
130.09690912331558
 11
-20.83374460066932
 21
129.48450351441556
  0
LINE
  8
_0-0_図面枠
  6
CONTINUOUS
 62
    7
 10
-21.739611258569312
 20
127.53284362831556
 11
-20.83374460066932
 21
129.48450351441556
  0
LINE
  8
_0-0_図面枠
  6
CONTINUOUS
 62
    7
 10
-34.821086710519353
 20
128.1452492372656
 11
-34.821086710519353
 21
127.53284362831556
  0
LINE
  8
_0-0_図面枠
  6
CONTINUOUS
 62
    7
 10
-34.821086710519353
 20
127.53284362831556
 11
-34.290756624619348
 21
127.8389966702656
  0
LINE
  8
_0-0_図面枠
  6
CONTINUOUS
 62
    7
 10
-35.726953368369323
 20
130.09690912331558
 11
-35.726953368369323
 21
129.48450351441556
  0
LINE
  8
_0-0_図面枠
  6
CONTINUOUS
 62
    7
 10
-35.726953368369323
 20
129.48450351441556
 11
-34.821086710519353
 21
127.53284362831556
  0
LINE
  8
_0-0_図面枠
  6
CONTINUOUS
 62
    7
 10
-24.214484992719321
 20
129.57396343296557
 11
-24.214484992719321
 21
128.9616573490656
  0
LINE
  8
_0-0_図面枠
  6
CONTINUOUS
 62
    7
 10
-32.346212976369316
 20
129.57396343296557
 11
-32.346212976369316
 21
128.9616573490656
  0
LINE
  8
ADD_LINE
  6
DOT
 62
    4
 10
-35.726953368369323
 20
130.09690912331558
 11
-20.834148028223865
 21
121.49854395119388
  0
LINE
  8
ADD_LINE
  6
DOT
 62
    4
 10
-20.83374460066932
 20
130.09690912331558
 11
-35.726549940814778
 21
121.49854395119388
  0
ENDBLK
  0
BLOCK
  2
-001-_1_
 70
   64
 10
0
 20
0
 30
0
  0
LINE
  8
_0-0_図面枠
  6
CONTINUOUS
 62
    7
 10
182.09184672266406
 20
123.49656859416353
 11
181.56151663681408
 21
123.19041555221355
  0
LINE
  8
_0-0_図面枠
  6
CONTINUOUS
 62
    7
 10
182.99771338056405
 20
121.5449087081135
 11
182.09184672266406
 21
123.49656859416353
  0
LINE
  8
_0-0_図面枠
  6
CONTINUOUS
 62
    7
 10
179.61697298851402
 20
122.06785439846351
 11
182.99771338056405
 21
121.5449087081135
  0
LINE
  8
_0-0_図面枠
  6
CONTINUOUS
 62
    7
 10
180.14730307441403
 20
122.37400744041355
 11
179.61697298851402
 21
122.06785439846351
  0
LINE
  8
_0-0_図面枠
  6
CONTINUOUS
 62
    7
 10
175.55110899671405
 20
125.02733380381352
 11
180.14730307441403
 21
122.37400744041355
  0
LINE
  8
_0-0_図面枠
  6
CONTINUOUS
 62
    7
 10
170.95491491901407
 20
122.37400744041355
 11
175.55110899671405
 21
125.02733380381352
  0
LINE
  8
_0-0_図面枠
  6
CONTINUOUS
 62
    7
 10
171.48524500486405
 20
122.06785439846351
 11
170.95491491901407
 21
122.37400744041355
  0
LINE
  8
_0-0_図面枠
  6
CONTINUOUS
 62
    7
 10
168.10450461286405
 20
121.5449087081135
 11
171.48524500486405
 21
122.06785439846351
  0
LINE
  8
_0-0_図面枠
  6
CONTINUOUS
 62
    7
 10
169.01037127071402
 20
123.49656859416353
 11
168.10450461286405
 21
121.5449087081135
  0
LINE
  8
_0-0_図面枠
  6
CONTINUOUS
 62
    7
 10
169.54070135661402
 20
123.19041555221355
 11
169.01037127071402
 21
123.49656859416353
  0
LINE
  8
_0-0_図面枠
  6
CONTINUOUS
 62
    7
 10
174.13689543431406
 20
125.84374191566354
 11
169.54070135661402
 21
123.19041555221355
  0
LINE
  8
_0-0_図面枠
  6
CONTINUOUS
 62
    7
 10
169.54070135661402
 20
128.49706827906351
 11
174.13689543431406
 21
125.84374191566354
  0
LINE
  8
_0-0_図面枠
  6
CONTINUOUS
 62
    7
 10
169.01037127071402
 20
128.19091523716355
 11
169.54070135661402
 21
128.49706827906351
  0
LINE
  8
_0-0_図面枠
  6
CONTINUOUS
 62
    7
 10
168.10450461286405
 20
130.14257512321353
 11
169.01037127071402
 21
128.19091523716355
  0
LINE
  8
_0-0_図面枠
  6
CONTINUOUS
 62
    7
 10
171.48524500486405
 20
129.61962943286352
 11
168.10450461286405
 21
130.14257512321353
  0
LINE
  8
_0-0_図面枠
  6
CONTINUOUS
 62
    7
 10
170.95491491901407
 20
129.31347639091354
 11
171.48524500486405
 21
129.61962943286352
  0
LINE
  8
_0-0_図面枠
  6
CONTINUOUS
 62
    7
 10
175.55110899671405
 20
126.66015002746354
 11
170.95491491901407
 21
129.31347639091354
  0
LINE
  8
_0-0_図面枠
  6
CONTINUOUS
 62
    7
 10
180.14730307441403
 20
129.31347639091354
 11
175.55110899671405
 21
126.66015002746354
  0
LINE
  8
_0-0_図面枠
  6
CONTINUOUS
 62
    7
 10
179.61697298851402
 20
129.61962943286352
 11
180.14730307441403
 21
129.31347639091354
  0
LINE
  8
_0-0_図面枠
  6
CONTINUOUS
 62
    7
 10
182.99771338056405
 20
130.14257512321353
 11
179.61697298851402
 21
129.61962943286352
  0
LINE
  8
_0-0_図面枠
  6
CONTINUOUS
 62
    7
 10
182.09184672266406
 20
128.19091523716355
 11
182.99771338056405
 21
130.14257512321353
  0
LINE
  8
_0-0_図面枠
  6
CONTINUOUS
 62
    7
 10
181.56151663681408
 20
128.49706827906351
 11
182.09184672266406
 21
128.19091523716355
  0
LINE
  8
_0-0_図面枠
  6
CONTINUOUS
 62
    7
 10
176.96532255906402
 20
125.84374191566354
 11
181.56151663681408
 21
128.49706827906351
  0
LINE
  8
_0-0_図面枠
  6
CONTINUOUS
 62
    7
 10
181.56151663681408
 20
123.19041555221355
 11
176.96532255906402
 21
125.84374191566354
  0
LINE
  8
_0-0_図面枠
  6
CONTINUOUS
 62
    7
 10
168.10450461286405
 20
121.5449087081135
 11
168.10450461286405
 21
120.93250309921353
  0
LINE
  8
_0-0_図面枠
  6
CONTINUOUS
 62
    7
 10
171.48524500486405
 20
122.06785439846351
 11
171.48524500486405
 21
121.45544878956355
  0
LINE
  8
_0-0_図面枠
  6
CONTINUOUS
 62
    7
 10
168.10450461286405
 20
120.93250309921353
 11
171.48524500486405
 21
121.45544878956355
  0
LINE
  8
_0-0_図面枠
  6
CONTINUOUS
 62
    7
 10
179.61697298851402
 20
122.06785439846351
 11
179.61697298851402
 21
121.45544878956355
  0
LINE
  8
_0-0_図面枠
  6
CONTINUOUS
 62
    7
 10
182.99771338056405
 20
121.5449087081135
 11
182.99771338056405
 21
120.93250309921353
  0
LINE
  8
_0-0_図面枠
  6
CONTINUOUS
 62
    7
 10
179.61697298851402
 20
121.45544878956355
 11
182.99771338056405
 21
120.93250309921353
  0
LINE
  8
_0-0_図面枠
  6
CONTINUOUS
 62
    7
 10
175.55110899671405
 20
125.02733380381352
 11
175.55110899671405
 21
124.41492819491356
  0
LINE
  8
_0-0_図面枠
  6
CONTINUOUS
 62
    7
 10
171.48524500486405
 20
122.06775487341355
 11
175.55110899671405
 21
124.41492819491356
  0
LINE
  8
_0-0_図面枠
  6
CONTINUOUS
 62
    7
 10
175.55110899671405
 20
124.41492819491356
 11
179.61697298851402
 21
122.06775487341355
  0
LINE
  8
_0-0_図面枠
  6
CONTINUOUS
 62
    7
 10
169.54070135661402
 20
128.49706827906351
 11
169.54070135661402
 21
127.88466267016355
  0
LINE
  8
_0-0_図面枠
  6
CONTINUOUS
 62
    7
 10
169.54070135661402
 20
127.88466267016355
 11
173.60647914786404
 21
125.53753911121356
  0
LINE
  8
_0-0_図面枠
  6
CONTINUOUS
 62
    7
 10
181.56151663681408
 20
128.49706827906351
 11
181.56151663681408
 21
127.88466267016355
  0
LINE
  8
_0-0_図面枠
  6
CONTINUOUS
 62
    7
 10
177.49573884551404
 20
125.53753911121356
 11
181.56151663681408
 21
127.88466267016355
  0
LINE
  8
_0-0_図面枠
  6
CONTINUOUS
 62
    7
 10
182.09184672266406
 20
128.19091523716355
 11
182.09184672266406
 21
127.57850962821351
  0
LINE
  8
_0-0_図面枠
  6
CONTINUOUS
 62
    7
 10
181.56151663681408
 20
127.88466267016355
 11
182.09184672266406
 21
127.57850962821351
  0
LINE
  8
_0-0_図面枠
  6
CONTINUOUS
 62
    7
 10
182.99771338056405
 20
130.14257512321353
 11
182.99771338056405
 21
129.53016951431351
  0
LINE
  8
_0-0_図面枠
  6
CONTINUOUS
 62
    7
 10
182.09184672266406
 20
127.57850962821351
 11
182.99771338056405
 21
129.53016951431351
  0
LINE
  8
_0-0_図面枠
  6
CONTINUOUS
 62
    7
 10
169.01037127071402
 20
128.19091523716355
 11
169.01037127071402
 21
127.57850962821351
  0
LINE
  8
_0-0_図面枠
  6
CONTINUOUS
 62
    7
 10
169.01037127071402
 20
127.57850962821351
 11
169.54070135661402
 21
127.88466267016355
  0
LINE
  8
_0-0_図面枠
  6
CONTINUOUS
 62
    7
 10
168.10450461286405
 20
130.14257512321353
 11
168.10450461286405
 21
129.53016951431351
  0
LINE
  8
_0-0_図面枠
  6
CONTINUOUS
 62
    7
 10
168.10450461286405
 20
129.53016951431351
 11
169.01037127071402
 21
127.57850962821351
  0
LINE
  8
_0-0_図面枠
  6
CONTINUOUS
 62
    7
 10
179.61697298851402
 20
129.61962943286352
 11
179.61697298851402
 21
129.00732334896355
  0
LINE
  8
_0-0_図面枠
  6
CONTINUOUS
 62
    7
 10
171.48524500486405
 20
129.61962943286352
 11
171.48524500486405
 21
129.00732334896355
  0
LINE
  8
ADD_LINE
  6
DOT
 62
    4
 10
168.10450461286405
 20
130.14257512321353
 11
182.99730995300951
 21
121.54420995109183
  0
LINE
  8
ADD_LINE
  6
DOT
 62
    4
 10
182.99771338056405
 20
130.14257512321353
 11
168.10490804041859
 21
121.54420995109183
  0
ENDBLK
  0
BLOCK
  2
-002-_2_
 70
   64
 10
0
 20
0
 30
0
  0
LINE
  8
_1-4_フレ__ム
  6
CONTINUOUS
 62
    4
 10
-116.83333333333312
 20
61.100000000000051
 11
-116.6666666666666
 21
60.433333333333394
  0
LINE
  8
_1-4_フレ__ム
  6
CONTINUOUS
 62
    4
 10
-116.6666666666666
 20
61.100000000000051
 11
-116.83333333333312
 21
61.100000000000051
  0
LINE
  8
_1-4_フレ__ム
  6
CONTINUOUS
 62
    4
 10
-116.6666666666666
 20
62.100000000000051
 11
-116.6666666666666
 21
61.100000000000051
  0
ARC
  8
_1-4_フレ__ム
  6
CONTINUOUS
 62
    4
 10
-117.16666666666652
 20
62.100000000000051
 40
0.5
 50
0
 51
180
  0
LINE
  8
_1-4_フレ__ム
  6
CONTINUOUS
 62
    4
 10
-117.66666666666644
 20
61.100000000000051
 11
-117.66666666666644
 21
62.100000000000051
  0
LINE
  8
_1-4_フレ__ム
  6
CONTINUOUS
 62
    4
 10
-117.49999999999993
 20
61.100000000000051
 11
-117.66666666666644
 21
61.100000000000051
  0
LINE
  8
_1-4_フレ__ム
  6
CONTINUOUS
 62
    4
 10
-117.66666666666644
 20
60.433333333333394
 11
-117.49999999999993
 21
61.100000000000051
  0
ARC
  8
_1-4_フレ__ム
  6
CONTINUOUS
 62
    4
 10
-139.16666666666688
 20
62.5
 40
0.3333333333333333
 50
90
 51
180
  0
LINE
  8
_1-4_フレ__ム
  6
CONTINUOUS
 62
    4
 10
-136.00000000000014
 20
62.833333333333314
 11
-139.16666666666688
 21
62.833333333333314
  0
ARC
  8
_1-4_フレ__ム
  6
CONTINUOUS
 62
    4
 10
-136.00000000000014
 20
63.5
 40
0.6666666666666666
 50
270
 51
0
  0
LINE
  8
_1-4_フレ__ム
  6
CONTINUOUS
 62
    4
 10
-137.73333333333343
 20
63.666666666666657
 11
-136.50000000000009
 21
63.666666666666657
  0
LINE
  8
_1-4_フレ__ム
  6
CONTINUOUS
 62
    4
 10
-137.83333333333357
 20
63.566666666666606
 11
-137.73333333333343
 21
63.666666666666657
  0
LINE
  8
_1-4_フレ__ム
  6
CONTINUOUS
 62
    4
 10
-137.93333333333362
 20
63.666666666666657
 11
-137.83333333333357
 21
63.566666666666606
  0
LINE
  8
_1-4_フレ__ム
  6
CONTINUOUS
 62
    4
 10
-139.16666666666688
 20
63.666666666666657
 11
-137.93333333333362
 21
63.666666666666657
  0
ARC
  8
_1-4_フレ__ム
  6
CONTINUOUS
 62
    4
 10
-140.50000000000023
 20
62.666666666666657
 40
0.1666666666666666
 50
270
 51
0
  0
ARC
  8
_1-4_フレ__ム
  6
CONTINUOUS
 62
    4
 10
-141.41666666666683
 20
64.75
 40
0.25
 50
0
 51
180
  0
LINE
  8
_1-4_フレ__ム
  6
CONTINUOUS
 62
    4
 10
-141.66666666666688
 20
62.166666666666657
 11
-141.66666666666688
 21
64.75
  0
ARC
  8
_1-4_フレ__ム
  6
CONTINUOUS
 62
    4
 10
-141.50000000000009
 20
62.166666666666657
 40
0.1666666666666666
 50
180
 51
270
  0
LINE
  8
_1-4_フレ__ム
  6
CONTINUOUS
 62
    4
 10
-140.66666666666674
 20
62
 11
-141.50000000000009
 21
62
  0
ARC
  8
_1-4_フレ__ム
  6
CONTINUOUS
 62
    4
 10
-140.66666666666674
 20
61.666666666666657
 40
0.3333333333333333
 50
0
 51
90
  0
ARC
  8
_1-4_フレ__ム
  6
CONTINUOUS
 62
    4
 10
-116.99999999999993
 20
55.833333333333314
 40
0.3333333333333333
 50
270
 51
0
  0
ARC
  8
_1-4_フレ__ム
  6
CONTINUOUS
 62
    4
 10
-138.83333333333357
 20
57
 40
0.6666666666666666
 50
180
 51
270
  0
LINE
  8
_1-4_フレ__ム
  6
CONTINUOUS
 62
    4
 10
-116.99999999999993
 20
55.5
 11
-140.33333333333357
 21
55.5
  0
ARC
  8
_1-4_フレ__ム
  6
CONTINUOUS
 62
    4
 10
-118.6666666666666
 20
57.333333333333314
 40
1
 50
270
 51
0
  0
LINE
  8
_1-4_フレ__ム
  6
CONTINUOUS
 62
    4
 10
-128.33333333333357
 20
56.233333333333263
 11
-128.23333333333335
 21
56.333333333333314
  0
LINE
  8
_1-4_フレ__ム
  6
CONTINUOUS
 62
    4
 10
-128.43333333333317
 20
56.333333333333314
 11
-128.33333333333357
 21
56.233333333333263
  0
LINE
  8
_1-4_フレ__ム
  6
CONTINUOUS
 62
    4
 10
-128.23333333333335
 20
56.333333333333314
 11
-118.6666666666666
 21
56.333333333333314
  0
LINE
  8
_1-4_フレ__ム
  6
CONTINUOUS
 62
    4
 10
-138.83333333333357
 20
56.333333333333314
 11
-128.43333333333317
 21
56.333333333333314
  0
LINE
  8
_1-4_フレ__ム
  6
CONTINUOUS
 62
    4
 10
-139.50000000000023
 20
62.5
 11
-139.50000000000023
 21
57
  0
LINE
  8
_1-4_フレ__ム
  6
CONTINUOUS
 62
    4
 10
-140.33333333333357
 20
55.5
 11
-140.33333333333357
 21
61.666666666666657
  0
LINE
  8
_1-4_フレ__ム
  6
CONTINUOUS
 62
    4
 10
-117.66666666666644
 20
57.333333333333314
 11
-117.66666666666644
 21
60.433333333333394
  0
LINE
  8
_1-4_フレ__ム
  6
CONTINUOUS
 62
    4
 10
-116.6666666666666
 20
60.433333333333394
 11
-116.6666666666666
 21
55.833333333333314
  0
LINE
  8
_1-4_フレ__ム
  6
CONTINUOUS
 62
    4
 10
-135.33333333333357
 20
64.166666666666657
 11
-135.33333333333357
 21
63.5
  0
LINE
  8
_1-4_フレ__ム
  6
CONTINUOUS
 62
    4
 10
-136.50000000000009
 20
64.166666666666657
 11
-135.33333333333357
 21
64.166666666666657
  0
LINE
  8
_1-4_フレ__ム
  6
CONTINUOUS
 62
    4
 10
-136.50000000000009
 20
63.666666666666657
 11
-136.50000000000009
 21
64.166666666666657
  0
LINE
  8
_1-4_フレ__ム
  6
CONTINUOUS
 62
    4
 10
-139.16666666666688
 20
64.166666666666657
 11
-139.16666666666688
 21
63.666666666666657
  0
LINE
  8
_1-4_フレ__ム
  6
CONTINUOUS
 62
    4
 10
-140.33333333333357
 20
64.166666666666657
 11
-139.16666666666688
 21
64.166666666666657
  0
LINE
  8
_1-4_フレ__ム
  6
CONTINUOUS
 62
    4
 10
-140.33333333333357
 20
62.666666666666657
 11
-140.33333333333357
 21
64.166666666666657
  0
LINE
  8
_1-4_フレ__ム
  6
CONTINUOUS
 62
    4
 10
-141.16666666666688
 20
64.75
 11
-141.16666666666688
 21
62.5
  0
LINE
  8
_1-4_フレ__ム
  6
CONTINUOUS
 62
    4
 10
-141.16666666666688
 20
62.5
 11
-140.50000000000023
 21
62.5
  0
LINE
  8
_1-4_フレ__ム
  6
CENTER2
 62
    4
 10
-137.8333333333336
 20
64.666666666666657
 11
-137.8333333333336
 21
61.833333333333314
  0
LINE
  8
_1-4_フレ__ム
  6
CENTER2
 62
    4
 10
-128.33333333333334
 20
58
 11
-128.33333333333334
 21
53.833333333333314
  0
ENDBLK
  0
BLOCK
  2
-003-HATCHING
 70
   64
 10
0
 20
0
 30
0
  0
LINE
  8
_1-0_躯体
  6
CONTINUOUS
 62
    4
 10
-116.66666666666667
 20
54.246560698096289
 11
-117.41322736476297
 21
53.5
  0
LINE
  8
_1-0_躯体
  6
CONTINUOUS
 62
    4
 10
-116.68936973967838
 20
55.166666666666657
 11
-118.35603640634505
 21
53.5
  0
LINE
  8
_1-0_躯体
  6
CONTINUOUS
 62
    4
 10
-117.63217878126042
 20
55.166666666666657
 11
-119.29884544792708
 21
53.5
  0
LINE
  8
_1-0_躯体
  6
CONTINUOUS
 62
    4
 10
-118.5749878228425
 20
55.166666666666657
 11
-120.24165448950917
 21
53.5
  0
LINE
  8
_1-0_躯体
  6
CONTINUOUS
 62
    4
 10
-119.51779686442455
 20
55.166666666666657
 11
-121.18446353109124
 21
53.5
  0
LINE
  8
_1-0_躯体
  6
CONTINUOUS
 62
    4
 10
-120.46060590600663
 20
55.166666666666657
 11
-122.12727257267332
 21
53.5
  0
LINE
  8
_1-0_躯体
  6
CONTINUOUS
 62
    4
 10
-121.4034149475887
 20
55.166666666666657
 11
-123.07008161425537
 21
53.5
  0
LINE
  8
_1-0_躯体
  6
CONTINUOUS
 62
    4
 10
-122.34622398917075
 20
55.166666666666657
 11
-124.01289065583742
 21
53.5
  0
LINE
  8
_1-0_躯体
  6
CONTINUOUS
 62
    4
 10
-123.28903303075282
 20
55.166666666666657
 11
-124.95569969741949
 21
53.5
  0
LINE
  8
_1-0_躯体
  6
CONTINUOUS
 62
    4
 10
-124.23184207233486
 20
55.166666666666657
 11
-125.89850873900153
 21
53.5
  0
LINE
  8
_1-0_躯体
  6
CONTINUOUS
 62
    4
 10
-125.17465111391692
 20
55.166666666666657
 11
-126.84131778058359
 21
53.5
  0
LINE
  8
_1-0_躯体
  6
CONTINUOUS
 62
    4
 10
-126.117460155499
 20
55.166666666666657
 11
-127.78412682216566
 21
53.5
  0
LINE
  8
_1-0_躯体
  6
CONTINUOUS
 62
    4
 10
-127.06026919708107
 20
55.166666666666657
 11
-128.72693586374774
 21
53.5
  0
LINE
  8
_1-0_躯体
  6
CONTINUOUS
 62
    4
 10
-128.00307823866314
 20
55.166666666666657
 11
-129.66974490532982
 21
53.5
  0
LINE
  8
_1-0_躯体
  6
CONTINUOUS
 62
    4
 10
-128.94588728024519
 20
55.166666666666657
 11
-130.61255394691187
 21
53.5
  0
LINE
  8
_1-0_躯体
  6
CONTINUOUS
 62
    4
 10
-129.88869632182727
 20
55.166666666666657
 11
-131.55536298849393
 21
53.5
  0
LINE
  8
_1-0_躯体
  6
CONTINUOUS
 62
    4
 10
-130.83150536340932
 20
55.166666666666657
 11
-132.49817203007598
 21
53.5
  0
LINE
  8
_1-0_躯体
  6
CONTINUOUS
 62
    4
 10
-131.7743144049914
 20
55.166666666666657
 11
-133.44098107165806
 21
53.5
  0
LINE
  8
_1-0_躯体
  6
CONTINUOUS
 62
    4
 10
-132.71712344657345
 20
55.166666666666657
 11
-134.38379011324014
 21
53.5
  0
LINE
  8
_1-0_躯体
  6
CONTINUOUS
 62
    4
 10
-133.65993248815553
 20
55.166666666666657
 11
-135.32659915482219
 21
53.5
  0
LINE
  8
_1-0_躯体
  6
CONTINUOUS
 62
    4
 10
-134.60274152973759
 20
55.166666666666657
 11
-136.26940819640427
 21
53.5
  0
LINE
  8
_1-0_躯体
  6
CONTINUOUS
 62
    4
 10
-135.54555057131967
 20
55.166666666666657
 11
-137.21221723798632
 21
53.5
  0
LINE
  8
_1-0_躯体
  6
CONTINUOUS
 62
    4
 10
-136.48835961290172
 20
55.166666666666657
 11
-138.15502627956838
 21
53.5
  0
LINE
  8
_1-0_躯体
  6
CONTINUOUS
 62
    4
 10
-137.43116865448377
 20
55.166666666666657
 11
-139.09783532115046
 21
53.5
  0
LINE
  8
_1-0_躯体
  6
CONTINUOUS
 62
    4
 10
-138.37397769606585
 20
55.166666666666657
 11
-140.04064436273254
 21
53.5
  0
LINE
  8
_1-0_躯体
  6
CONTINUOUS
 62
    4
 10
-139.31678673764793
 20
55.166666666666657
 11
-140.98345340431459
 21
53.5
  0
LINE
  8
_1-0_躯体
  6
CONTINUOUS
 62
    4
 10
-140.25959577922998
 20
55.166666666666657
 11
-141.92626244589664
 21
53.5
  0
LINE
  8
_1-0_躯体
  6
CONTINUOUS
 62
    4
 10
-141.20240482081203
 20
55.166666666666657
 11
-142.86907148747869
 21
53.5
  0
LINE
  8
_1-0_躯体
  6
CONTINUOUS
 62
    4
 10
-142.14521386239409
 20
55.166666666666657
 11
-143.81188052906074
 21
53.5
  0
LINE
  8
_1-0_躯体
  6
CONTINUOUS
 62
    4
 10
-143.08802290397614
 20
55.166666666666657
 11
-144.75468957064282
 21
53.5
  0
LINE
  8
_1-0_躯体
  6
CONTINUOUS
 62
    4
 10
-144.03083194555822
 20
55.166666666666657
 11
-144.99999999999997
 21
54.197498612224905
  0
LINE
  8
_1-0_躯体
  6
CONTINUOUS
 62
    4
 10
-144.97364098714027
 20
55.166666666666657
 11
-144.99999999999997
 21
55.140307653806985
  0
ENDBLK
  0
BLOCK
  2
-004-_3_
 70
   64
 10
0
 20
0
 30
0
  0
LINE
  8
_1-4_フレ__ム
  6
CONTINUOUS
 62
    4
 10
-83.166666666666899
 20
61.100000000000051
 11
-83.333333333333414
 21
60.433333333333394
  0
LINE
  8
_1-4_フレ__ム
  6
CONTINUOUS
 62
    4
 10
-83.333333333333414
 20
61.100000000000051
 11
-83.166666666666899
 21
61.100000000000051
  0
LINE
  8
_1-4_フレ__ム
  6
CONTINUOUS
 62
    4
 10
-83.333333333333414
 20
62.100000000000051
 11
-83.333333333333414
 21
61.100000000000051
  0
ARC
  8
_1-4_フレ__ム
  6
CONTINUOUS
 62
    4
 10
-82.833333333333485
 20
62.100000000000051
 40
0.5
 50
0
 51
180
  0
LINE
  8
_1-4_フレ__ム
  6
CONTINUOUS
 62
    4
 10
-82.33333333333357
 20
61.100000000000051
 11
-82.33333333333357
 21
62.100000000000051
  0
LINE
  8
_1-4_フレ__ム
  6
CONTINUOUS
 62
    4
 10
-82.500000000000085
 20
61.100000000000051
 11
-82.33333333333357
 21
61.100000000000051
  0
LINE
  8
_1-4_フレ__ム
  6
CONTINUOUS
 62
    4
 10
-82.33333333333357
 20
60.433333333333394
 11
-82.500000000000085
 21
61.100000000000051
  0
ARC
  8
_1-4_フレ__ム
  6
CONTINUOUS
 62
    4
 10
-60.833333333333144
 20
62.5
 40
0.3333333333333333
 50
0
 51
90
  0
LINE
  8
_1-4_フレ__ム
  6
CONTINUOUS
 62
    4
 10
-63.999999999999886
 20
62.833333333333314
 11
-60.833333333333144
 21
62.833333333333314
  0
ARC
  8
_1-4_フレ__ム
  6
CONTINUOUS
 62
    4
 10
-63.999999999999886
 20
63.5
 40
0.6666666666666666
 50
180
 51
270
  0
LINE
  8
_1-4_フレ__ム
  6
CONTINUOUS
 62
    4
 10
-62.266666666666595
 20
63.666666666666657
 11
-63.499999999999943
 21
63.666666666666657
  0
LINE
  8
_1-4_フレ__ム
  6
CONTINUOUS
 62
    4
 10
-62.166666666666458
 20
63.566666666666606
 11
-62.266666666666595
 21
63.666666666666657
  0
LINE
  8
_1-4_フレ__ム
  6
CONTINUOUS
 62
    4
 10
-62.066666666666379
 20
63.666666666666657
 11
-62.166666666666458
 21
63.566666666666606
  0
LINE
  8
_1-4_フレ__ム
  6
CONTINUOUS
 62
    4
 10
-60.833333333333144
 20
63.666666666666657
 11
-62.066666666666379
 21
63.666666666666657
  0
ARC
  8
_1-4_フレ__ム
  6
CONTINUOUS
 62
    4
 10
-59.499999999999773
 20
62.666666666666657
 40
0.1666666666666666
 50
180
 51
270
  0
ARC
  8
_1-4_フレ__ム
  6
CONTINUOUS
 62
    4
 10
-58.583333333333201
 20
64.75
 40
0.25
 50
0
 51
180
  0
LINE
  8
_1-4_フレ__ム
  6
CONTINUOUS
 62
    4
 10
-58.333333333333144
 20
62.166666666666657
 11
-58.333333333333144
 21
64.75
  0
ARC
  8
_1-4_フレ__ム
  6
CONTINUOUS
 62
    4
 10
-58.499999999999943
 20
62.166666666666657
 40
0.1666666666666666
 50
270
 51
0
  0
LINE
  8
_1-4_フレ__ム
  6
CONTINUOUS
 62
    4
 10
-59.333333333333258
 20
62
 11
-58.499999999999943
 21
62
  0
ARC
  8
_1-4_フレ__ム
  6
CONTINUOUS
 62
    4
 10
-59.333333333333258
 20
61.666666666666657
 40
0.3333333333333333
 50
90
 51
180
  0
ARC
  8
_1-4_フレ__ム
  6
CONTINUOUS
 62
    4
 10
-83.000000000000085
 20
55.833333333333314
 40
0.3333333333333333
 50
180
 51
270
  0
ARC
  8
_1-4_フレ__ム
  6
CONTINUOUS
 62
    4
 10
-61.166666666666458
 20
57
 40
0.6666666666666666
 50
270
 51
0
  0
LINE
  8
_1-4_フレ__ム
  6
CONTINUOUS
 62
    4
 10
-83.000000000000085
 20
55.5
 11
-59.666666666666458
 21
55.5
  0
ARC
  8
_1-4_フレ__ム
  6
CONTINUOUS
 62
    4
 10
-81.333333333333428
 20
57.333333333333314
 40
1
 50
180
 51
270
  0
LINE
  8
_1-4_フレ__ム
  6
CONTINUOUS
 62
    4
 10
-71.666666666666458
 20
56.233333333333263
 11
-71.766666666666652
 21
56.333333333333314
  0
LINE
  8
_1-4_フレ__ム
  6
CONTINUOUS
 62
    4
 10
-71.566666666666833
 20
56.333333333333314
 11
-71.666666666666458
 21
56.233333333333263
  0
LINE
  8
_1-4_フレ__ム
  6
CONTINUOUS
 62
    4
 10
-71.766666666666652
 20
56.333333333333314
 11
-81.333333333333428
 21
56.333333333333314
  0
LINE
  8
_1-4_フレ__ム
  6
CONTINUOUS
 62
    4
 10
-61.166666666666458
 20
56.333333333333314
 11
-71.566666666666833
 21
56.333333333333314
  0
LINE
  8
_1-4_フレ__ム
  6
CONTINUOUS
 62
    4
 10
-60.499999999999773
 20
62.5
 11
-60.499999999999773
 21
57
  0
LINE
  8
_1-4_フレ__ム
  6
CONTINUOUS
 62
    4
 10
-59.666666666666458
 20
55.5
 11
-59.666666666666458
 21
61.666666666666657
  0
LINE
  8
_1-4_フレ__ム
  6
CONTINUOUS
 62
    4
 10
-82.33333333333357
 20
57.333333333333314
 11
-82.33333333333357
 21
60.433333333333394
  0
LINE
  8
_1-4_フレ__ム
  6
CONTINUOUS
 62
    4
 10
-83.333333333333414
 20
60.433333333333394
 11
-83.333333333333414
 21
55.833333333333314
  0
LINE
  8
_1-4_フレ__ム
  6
CONTINUOUS
 62
    4
 10
-64.666666666666458
 20
64.166666666666657
 11
-64.666666666666458
 21
63.5
  0
LINE
  8
_1-4_フレ__ム
  6
CONTINUOUS
 62
    4
 10
-63.499999999999943
 20
64.166666666666657
 11
-64.666666666666458
 21
64.166666666666657
  0
LINE
  8
_1-4_フレ__ム
  6
CONTINUOUS
 62
    4
 10
-63.499999999999943
 20
63.666666666666657
 11
-63.499999999999943
 21
64.166666666666657
  0
LINE
  8
_1-4_フレ__ム
  6
CONTINUOUS
 62
    4
 10
-60.833333333333144
 20
64.166666666666657
 11
-60.833333333333144
 21
63.666666666666657
  0
LINE
  8
_1-4_フレ__ム
  6
CONTINUOUS
 62
    4
 10
-59.666666666666458
 20
64.166666666666657
 11
-60.833333333333144
 21
64.166666666666657
  0
LINE
  8
_1-4_フレ__ム
  6
CONTINUOUS
 62
    4
 10
-59.666666666666458
 20
62.666666666666657
 11
-59.666666666666458
 21
64.166666666666657
  0
LINE
  8
_1-4_フレ__ム
  6
CONTINUOUS
 62
    4
 10
-58.833333333333144
 20
64.75
 11
-58.833333333333144
 21
62.5
  0
LINE
  8
_1-4_フレ__ム
  6
CONTINUOUS
 62
    4
 10
-58.833333333333144
 20
62.5
 11
-59.499999999999773
 21
62.5
  0
LINE
  8
_1-4_フレ__ム
  6
CENTER2
 62
    4
 10
-62.166666666666401
 20
64.666666666666657
 11
-62.166666666666401
 21
61.833333333333314
  0
LINE
  8
_1-4_フレ__ム
  6
CENTER2
 62
    4
 10
-71.666666666666686
 20
58
 11
-71.666666666666686
 21
53.833333333333314
  0
ENDBLK
  0
BLOCK
  2
-005-HATCHING_1_
 70
   64
 10
0
 20
0
 30
0
  0
LINE
  8
_1-0_躯体
  6
CONTINUOUS
 62
    4
 10
-55.000000000000057
 20
53.991726702157223
 11
-55.49172670215728
 21
53.5
  0
LINE
  8
_1-0_躯体
  6
CONTINUOUS
 62
    4
 10
-55.000000000000057
 20
54.934535743739303
 11
-56.434535743739389
 21
53.5
  0
LINE
  8
_1-0_躯体
  6
CONTINUOUS
 62
    4
 10
-55.710678118654755
 20
55.166666666666657
 11
-57.377344785321441
 21
53.5
  0
LINE
  8
_1-0_躯体
  6
CONTINUOUS
 62
    4
 10
-56.653487160236807
 20
55.166666666666657
 11
-58.320153826903493
 21
53.5
  0
LINE
  8
_1-0_躯体
  6
CONTINUOUS
 62
    4
 10
-57.596296201818859
 20
55.166666666666657
 11
-59.262962868485488
 21
53.5
  0
LINE
  8
_1-0_躯体
  6
CONTINUOUS
 62
    4
 10
-58.539105243400911
 20
55.166666666666657
 11
-60.205771910067597
 21
53.5
  0
LINE
  8
_1-0_躯体
  6
CONTINUOUS
 62
    4
 10
-59.48191428498302
 20
55.166666666666657
 11
-61.148580951649649
 21
53.5
  0
LINE
  8
_1-0_躯体
  6
CONTINUOUS
 62
    4
 10
-60.424723326565072
 20
55.166666666666657
 11
-62.091389993231701
 21
53.5
  0
LINE
  8
_1-0_躯体
  6
CONTINUOUS
 62
    4
 10
-61.367532368147124
 20
55.166666666666657
 11
-63.03419903481381
 21
53.5
  0
LINE
  8
_1-0_躯体
  6
CONTINUOUS
 62
    4
 10
-62.310341409729176
 20
55.166666666666657
 11
-63.977008076395862
 21
53.5
  0
LINE
  8
_1-0_躯体
  6
CONTINUOUS
 62
    4
 10
-63.253150451311228
 20
55.166666666666657
 11
-64.919817117977914
 21
53.5
  0
LINE
  8
_1-0_躯体
  6
CONTINUOUS
 62
    4
 10
-64.195959492893337
 20
55.166666666666657
 11
-65.862626159560023
 21
53.5
  0
LINE
  8
_1-0_躯体
  6
CONTINUOUS
 62
    4
 10
-65.138768534475332
 20
55.166666666666657
 11
-66.805435201142018
 21
53.5
  0
LINE
  8
_1-0_躯体
  6
CONTINUOUS
 62
    4
 10
-66.081577576057384
 20
55.166666666666657
 11
-67.74824424272407
 21
53.5
  0
LINE
  8
_1-0_躯体
  6
CONTINUOUS
 62
    4
 10
-67.024386617639493
 20
55.166666666666657
 11
-68.691053284306122
 21
53.5
  0
LINE
  8
_1-0_躯体
  6
CONTINUOUS
 62
    4
 10
-67.967195659221545
 20
55.166666666666657
 11
-69.633862325888231
 21
53.5
  0
LINE
  8
_1-0_躯体
  6
CONTINUOUS
 62
    4
 10
-68.910004700803597
 20
55.166666666666657
 11
-70.576671367470283
 21
53.5
  0
LINE
  8
_1-0_躯体
  6
CONTINUOUS
 62
    4
 10
-69.852813742385706
 20
55.166666666666657
 11
-71.519480409052335
 21
53.5
  0
LINE
  8
_1-0_躯体
  6
CONTINUOUS
 62
    4
 10
-70.795622783967758
 20
55.166666666666657
 11
-72.462289450634444
 21
53.5
  0
LINE
  8
_1-0_躯体
  6
CONTINUOUS
 62
    4
 10
-71.73843182554981
 20
55.166666666666657
 11
-73.405098492216496
 21
53.5
  0
LINE
  8
_1-0_躯体
  6
CONTINUOUS
 62
    4
 10
-72.681240867131862
 20
55.166666666666657
 11
-74.347907533798548
 21
53.5
  0
LINE
  8
_1-0_躯体
  6
CONTINUOUS
 62
    4
 10
-73.624049908713971
 20
55.166666666666657
 11
-75.2907165753806
 21
53.5
  0
LINE
  8
_1-0_躯体
  6
CONTINUOUS
 62
    4
 10
-74.566858950295995
 20
55.166666666666657
 11
-76.233525616962652
 21
53.5
  0
LINE
  8
_1-0_躯体
  6
CONTINUOUS
 62
    4
 10
-75.509667991878075
 20
55.166666666666657
 11
-77.176334658544732
 21
53.5
  0
LINE
  8
_1-0_躯体
  6
CONTINUOUS
 62
    4
 10
-76.452477033460099
 20
55.166666666666657
 11
-78.119143700126756
 21
53.5
  0
LINE
  8
_1-0_躯体
  6
CONTINUOUS
 62
    4
 10
-77.395286075042179
 20
55.166666666666657
 11
-79.061952741708836
 21
53.5
  0
LINE
  8
_1-0_躯体
  6
CONTINUOUS
 62
    4
 10
-78.338095116624231
 20
55.166666666666657
 11
-80.004761783290917
 21
53.5
  0
LINE
  8
_1-0_躯体
  6
CONTINUOUS
 62
    4
 10
-79.280904158206312
 20
55.166666666666657
 11
-80.947570824872969
 21
53.5
  0
LINE
  8
_1-0_躯体
  6
CONTINUOUS
 62
    4
 10
-80.223713199788392
 20
55.166666666666657
 11
-81.890379866455049
 21
53.5
  0
LINE
  8
_1-0_躯体
  6
CONTINUOUS
 62
    4
 10
-81.166522241370444
 20
55.166666666666657
 11
-82.833188908037116
 21
53.5
  0
LINE
  8
_1-0_躯体
  6
CONTINUOUS
 62
    4
 10
-82.109331282952496
 20
55.166666666666657
 11
-83.333333333333343
 21
53.942664616285811
  0
LINE
  8
_1-0_躯体
  6
CONTINUOUS
 62
    4
 10
-83.052140324534577
 20
55.166666666666657
 11
-83.333333333333343
 21
54.885473657867863
  0
ENDBLK
  0
BLOCK
  2
-006-_4_
 70
   64
 10
0
 20
0
 30
0
  0
LINE
  8
_1-8_小物
  6
CONTINUOUS
 62
    4
 10
-83.833333333333343
 20
62.0999993333335
 11
-83.833333333333343
 21
60.433333333333394
  0
LINE
  8
_1-8_小物
  6
CONTINUOUS
 62
    4
 10
-83.833333333333343
 20
60.433333333333394
 11
-83.33333333333357
 21
60.433333333333394
  0
LINE
  8
_1-8_小物
  6
CONTINUOUS
 62
    4
 10
-82.333333333333414
 20
60.433333333333394
 11
-81.833333333333428
 21
60.433333333333394
  0
LINE
  8
_1-8_小物
  6
CONTINUOUS
 62
    4
 10
-81.833333333333428
 20
60.433333333333394
 11
-81.833333333333428
 21
62.0999993333335
  0
ARC
  8
_1-8_小物
  6
CONTINUOUS
 62
    4
 10
-82.833333333333485
 20
62.0999993333335
 40
0.566667
 50
0
 51
180
  0
ARC
  8
_1-8_小物
  6
CONTINUOUS
 62
    4
 10
-82.833333333333485
 20
62.0999993333335
 40
1
 50
0
 51
180
  0
LINE
  8
_1-8_小物
  6
CONTINUOUS
 62
    4
 10
-82.333335333333252
 20
61.099999333333386
 11
-82.41461633333347
 21
61.099999333333386
  0
ARC
  8
_1-8_小物
  6
CONTINUOUS
 62
    4
 10
-82.41461633333347
 20
61.033333333333445
 40
0.066667
 50
90
 51
194.03640199999288
  0
LINE
  8
_1-8_小物
  6
CONTINUOUS
 62
    4
 10
-82.333333333333414
 20
60.433333333333394
 11
-82.479292333333518
 21
61.017164333333454
  0
LINE
  8
_1-8_小物
  6
CONTINUOUS
 62
    4
 10
-83.33333333333357
 20
61.099999333333386
 11
-83.25205133333354
 21
61.099999333333386
  0
ARC
  8
_1-8_小物
  6
CONTINUOUS
 62
    4
 10
-83.25205133333354
 20
61.033333333333445
 40
0.066667
 50
345.96380799998508
 51
90
  0
LINE
  8
_1-8_小物
  6
CONTINUOUS
 62
    4
 10
-83.33333233333353
 20
60.433333333333394
 11
-83.187375333333279
 21
61.017164333333454
  0
LINE
  8
_1-8_小物
  6
CONTINUOUS
 62
    4
 10
-82.333335333333252
 20
61.099999333333386
 11
-82.266668333333584
 21
61.099999333333386
  0
LINE
  8
_1-8_小物
  6
CONTINUOUS
 62
    4
 10
-82.266668333333584
 20
61.099999333333386
 11
-82.266666333333518
 21
62.0999993333335
  0
LINE
  8
_1-8_小物
  6
CONTINUOUS
 62
    4
 10
-83.33333233333353
 20
61.099999333333386
 11
-83.400000333333466
 21
61.099999333333386
  0
LINE
  8
_1-8_小物
  6
CONTINUOUS
 62
    4
 10
-83.400000333333466
 20
61.099999333333386
 11
-83.400000333333466
 21
62.0999993333335
  0
ENDBLK
  0
BLOCK
  2
-007-_5_
 70
   64
 10
0
 20
0
 30
0
  0
LINE
  8
_1-8_小物
  6
CONTINUOUS
 62
    4
 10
-68.666666666666345
 20
56.833333333333314
 11
-74.666666666666657
 21
56.833333333333314
  0
LINE
  8
_1-8_小物
  6
CONTINUOUS
 62
    4
 10
-68.666666666666345
 20
56.333333333333314
 11
-74.666666666666657
 21
56.333333333333314
  0
LINE
  8
_1-8_小物
  6
CONTINUOUS
 62
    4
 10
-68.666666666666345
 20
56.833333333333314
 11
-68.666666666666345
 21
56.333333333333314
  0
LINE
  8
_1-8_小物
  6
CONTINUOUS
 62
    4
 10
-74.666666666666657
 20
56.833333333333314
 11
-74.666666666666657
 21
56.333333333333314
  0
LINE
  8
_1-8_小物
  6
CONTINUOUS
 62
    4
 10
-70.749999999999716
 20
56.833333333333314
 11
-70.749999999999716
 21
56.333333333333314
  0
LINE
  8
_1-8_小物
  6
CONTINUOUS
 62
    4
 10
-72.583333333333314
 20
56.833333333333314
 11
-72.583333333333314
 21
56.333333333333314
  0
LINE
  8
_1-8_小物
  6
CONTINUOUS
 62
    4
 10
-70.166666666666401
 20
56.833333333333314
 11
-70.202970927933166
 21
57.24829293833335
  0
LINE
  8
_1-8_小物
  6
CONTINUOUS
 62
    4
 10
-73.130362405433232
 20
57.24829293833335
 11
-73.166666666666345
 21
56.833333333333314
  0
ARC
  8
_1-8_小物
  6
CONTINUOUS
 62
    4
 10
-72.801618155033509
 20
57.219531543233245
 40
0.3299999999999999
 50
127.36755803205445
 51
175.00000000119914
  0
ARC
  8
_1-8_小物
  6
CONTINUOUS
 62
    4
 10
-70.531715178299862
 20
57.219531543233245
 40
0.3299999999999999
 50
4.999999998801286
 51
52.63244196794556
  0
ARC
  8
_1-8_小物
  6
CONTINUOUS
 62
    4
 10
-71.666666666666686
 20
55.733333333333292
 40
2.1999999999999997
 50
52.632441967704935
 51
68.266383543398447
  0
ARC
  8
_1-8_小物
  6
CONTINUOUS
 62
    4
 10
-71.666666666666686
 20
55.733333333333292
 40
2.1999999999999997
 50
111.74840859090331
 51
127.36755803230515
  0
LINE
  8
_1-8_小物
  6
CONTINUOUS
 62
    4
 10
-71.561666666666497
 20
57.919709043200044
 11
-71.561666666666497
 21
57.774437413199905
  0
LINE
  8
_1-8_小物
  6
CONTINUOUS
 62
    4
 10
-71.445903772699523
 20
57.919709043200044
 11
-71.561666666666497
 21
57.919709043200044
  0
LINE
  8
_1-8_小物
  6
CONTINUOUS
 62
    4
 10
-70.852498910499889
 20
57.774437413199905
 11
-71.445903772699523
 21
57.919709043200044
  0
LINE
  8
_1-8_小物
  6
CONTINUOUS
 62
    4
 10
-71.887429560666533
 20
57.919709043200044
 11
-72.320732983233313
 21
57.831230436066733
  0
LINE
  8
_1-8_小物
  6
CONTINUOUS
 62
    4
 10
-72.320732983233313
 20
57.831230436066733
 11
-72.480834422866167
 21
57.774437413199905
  0
LINE
  8
_1-8_小物
  6
CONTINUOUS
 62
    4
 10
-71.771666666666533
 20
57.919709043200044
 11
-71.887429560666533
 21
57.919709043200044
  0
LINE
  8
_1-8_小物
  6
CONTINUOUS
 62
    4
 10
-71.771666666666533
 20
57.774437413199905
 11
-71.771666666666533
 21
57.919709043200044
  0
LINE
  8
_1-8_小物
  6
CONTINUOUS
 62
    4
 10
-71.561666666666497
 20
57.774437413199905
 11
-71.666666666666686
 21
57.776139138000019
  0
LINE
  8
_1-8_小物
  6
CONTINUOUS
 62
    4
 10
-71.666666666666686
 20
57.776139138000019
 11
-71.771666666666533
 21
57.774437413199905
  0
LINE
  8
_1-8_小物
  6
CONTINUOUS
 62
    4
 10
-70.202970927933166
 20
57.24829293833335
 11
-73.130362405433232
 21
57.24829293833335
  0
LINE
  8
_1-8_小物
  6
CONTINUOUS
 62
    4
 10
-71.666666666666686
 20
57.481801815566712
 11
-73.001903711833336
 21
57.481801815566712
  0
LINE
  8
_1-8_小物
  6
CONTINUOUS
 62
    4
 10
-70.331429621533061
 20
57.481801815566712
 11
-71.666666666666686
 21
57.481801815566712
  0
ENDBLK
  0
BLOCK
  2
-008-_6_
 70
   64
 10
0
 20
0
 30
0
  0
LINE
  8
_1-8_小物
  6
CONTINUOUS
 62
    4
 10
-69.863908333333427
 20
43.573391666666595
 11
-69.829018333333806
 21
42.907638333333267
  0
LINE
  8
_1-8_小物
  6
CONTINUOUS
 62
    4
 10
-69.916245000000345
 20
44.572021666666529
 11
-70.564551666667001
 21
44.204254999999904
  0
LINE
  8
_1-8_小物
  6
CONTINUOUS
 62
    4
 10
-70.564551666667001
 20
44.204254999999904
 11
-70.529661666666755
 21
43.538501666666576
  0
LINE
  8
_1-8_小物
  6
CONTINUOUS
 62
    4
 10
-70.529661666666755
 20
43.538501666666576
 11
-69.863908333333427
 21
43.573391666666595
  0
LINE
  8
_1-8_小物
  6
CONTINUOUS
 62
    4
 10
-69.951135000000249
 20
45.237774999999971
 11
-69.916245000000345
 21
44.572021666666529
  0
LINE
  8
_1-8_小物
  6
CONTINUOUS
 62
    4
 10
-70.003471666666883
 20
46.236403333333357
 11
-70.651778333333823
 21
45.86863666666639
  0
LINE
  8
_1-8_小物
  6
CONTINUOUS
 62
    4
 10
-70.651778333333823
 20
45.86863666666639
 11
-70.616888333333634
 21
45.20288333333329
  0
LINE
  8
_1-8_小物
  6
CONTINUOUS
 62
    4
 10
-70.616888333333634
 20
45.20288333333329
 11
-69.951135000000249
 21
45.237774999999971
  0
LINE
  8
_1-8_小物
  6
CONTINUOUS
 62
    4
 10
-70.038361666667072
 20
46.902156666666684
 11
-70.003471666666883
 21
46.236403333333357
  0
LINE
  8
_1-8_小物
  6
CONTINUOUS
 62
    4
 10
-70.090698333333421
 20
47.900786666666392
 11
-70.739005000000077
 21
47.533019999999993
  0
LINE
  8
_1-8_小物
  6
CONTINUOUS
 62
    4
 10
-70.739005000000077
 20
47.533019999999993
 11
-70.704115000000456
 21
46.867266666666666
  0
LINE
  8
_1-8_小物
  6
CONTINUOUS
 62
    4
 10
-70.704115000000456
 20
46.867266666666666
 11
-70.038361666667072
 21
46.902156666666684
  0
LINE
  8
_1-8_小物
  6
CONTINUOUS
 62
    4
 10
-70.12558833333361
 20
48.566539999999947
 11
-70.090698333333421
 21
47.900786666666392
  0
LINE
  8
_1-8_小物
  6
CONTINUOUS
 62
    4
 10
-70.177925000000243
 20
49.565169999999995
 11
-70.826231666666899
 21
49.197401666666593
  0
LINE
  8
_1-8_小物
  6
CONTINUOUS
 62
    4
 10
-70.826231666666899
 20
49.197401666666593
 11
-70.791341666666995
 21
48.531648333333266
  0
LINE
  8
_1-8_小物
  6
CONTINUOUS
 62
    4
 10
-70.791341666666995
 20
48.531648333333266
 11
-70.12558833333361
 21
48.566539999999947
  0
LINE
  8
_1-8_小物
  6
CONTINUOUS
 62
    4
 10
-70.212815000000205
 20
50.230921666666546
 11
-70.177925000000243
 21
49.565169999999995
  0
LINE
  8
_1-8_小物
  6
CONTINUOUS
 62
    4
 10
-70.913458333333722
 20
50.861784999999855
 11
-70.878568333333533
 21
50.196031666666528
  0
LINE
  8
_1-8_小物
  6
CONTINUOUS
 62
    4
 10
-70.878568333333533
 20
50.196031666666528
 11
-70.212815000000205
 21
50.230921666666546
  0
LINE
  8
_1-8_小物
  6
CONTINUOUS
 62
    4
 10
-70.333333333333655
 20
51.166666666666657
 11
-70.913458333333722
 21
50.861784999999855
  0
LINE
  8
_1-8_小物
  6
CONTINUOUS
 62
    4
 10
-73.469425000000228
 20
43.573391666666595
 11
-73.504315000000133
 21
42.907638333333267
  0
LINE
  8
_1-8_小物
  6
CONTINUOUS
 62
    4
 10
-73.417088333333595
 20
44.572021666666529
 11
-72.768781666666939
 21
44.204254999999904
  0
LINE
  8
_1-8_小物
  6
CONTINUOUS
 62
    4
 10
-72.768781666666939
 20
44.204254999999904
 11
-72.803671666667185
 21
43.538501666666576
  0
LINE
  8
_1-8_小物
  6
CONTINUOUS
 62
    4
 10
-72.803671666667185
 20
43.538501666666576
 11
-73.469425000000228
 21
43.573391666666595
  0
LINE
  8
_1-8_小物
  6
CONTINUOUS
 62
    4
 10
-73.382198333333406
 20
45.237774999999971
 11
-73.417088333333595
 21
44.572021666666529
  0
LINE
  8
_1-8_小物
  6
CONTINUOUS
 62
    4
 10
-73.329861666667057
 20
46.236403333333357
 11
-72.681555000000401
 21
45.86863666666639
  0
LINE
  8
_1-8_小物
  6
CONTINUOUS
 62
    4
 10
-72.681555000000401
 20
45.86863666666639
 11
-72.716445000000022
 21
45.20288333333329
  0
LINE
  8
_1-8_小物
  6
CONTINUOUS
 62
    4
 10
-72.716445000000022
 20
45.20288333333329
 11
-73.382198333333406
 21
45.237774999999971
  0
LINE
  8
_1-8_小物
  6
CONTINUOUS
 62
    4
 10
-73.294971666667152
 20
46.902156666666684
 11
-73.329861666667057
 21
46.236403333333357
  0
LINE
  8
_1-8_小物
  6
CONTINUOUS
 62
    4
 10
-73.242635000000519
 20
47.900786666666392
 11
-72.594328333333578
 21
47.533019999999993
  0
LINE
  8
_1-8_小物
  6
CONTINUOUS
 62
    4
 10
-72.594328333333578
 20
47.533019999999993
 11
-72.629218333333483
 21
46.867266666666666
  0
LINE
  8
_1-8_小物
  6
CONTINUOUS
 62
    4
 10
-72.629218333333483
 20
46.867266666666666
 11
-73.294971666667152
 21
46.902156666666684
  0
LINE
  8
_1-8_小物
  6
CONTINUOUS
 62
    4
 10
-73.20774500000033
 20
48.566539999999947
 11
-73.242635000000519
 21
47.900786666666392
  0
LINE
  8
_1-8_小物
  6
CONTINUOUS
 62
    4
 10
-73.155408333333355
 20
49.565169999999995
 11
-72.507101666666756
 21
49.197401666666593
  0
LINE
  8
_1-8_小物
  6
CONTINUOUS
 62
    4
 10
-72.507101666666756
 20
49.197401666666593
 11
-72.541991666666945
 21
48.531648333333266
  0
LINE
  8
_1-8_小物
  6
CONTINUOUS
 62
    4
 10
-72.541991666666945
 20
48.531648333333266
 11
-73.20774500000033
 21
48.566539999999947
  0
LINE
  8
_1-8_小物
  6
CONTINUOUS
 62
    4
 10
-73.120518333333791
 20
50.230921666666546
 11
-73.155408333333355
 21
49.565169999999995
  0
LINE
  8
_1-8_小物
  6
CONTINUOUS
 62
    4
 10
-72.419875000000218
 20
50.861784999999855
 11
-72.454765000000407
 21
50.196031666666528
  0
LINE
  8
_1-8_小物
  6
CONTINUOUS
 62
    4
 10
-72.454765000000407
 20
50.196031666666528
 11
-73.120518333333791
 21
50.230921666666546
  0
LINE
  8
_1-8_小物
  6
CONTINUOUS
 62
    4
 10
-71.686435000000245
 20
43.186434999999875
 11
-71.041868333333696
 21
43.758324999999928
  0
LINE
  8
_1-8_小物
  6
CONTINUOUS
 62
    4
 10
-72.289815000000374
 20
43.789813333333342
 11
-71.666666666666686
 21
43.166666666666544
  0
LINE
  8
_1-8_小物
  6
CONTINUOUS
 62
    4
 10
-73
 20
51.166666666666657
 11
-72.419875000000218
 21
50.861784999999855
  0
LINE
  8
_1-8_小物
  6
CONTINUOUS
 62
    4
 10
-70.12558833333361
 20
48.566539999999947
 11
-69.560466666667139
 21
50.119199999999779
  0
LINE
  8
_1-8_小物
  6
CONTINUOUS
 62
    4
 10
-70.480315000000132
 20
48.566539999999947
 11
-69.873696666666831
 21
50.233206666666575
  0
LINE
  8
_1-8_小物
  6
CONTINUOUS
 62
    4
 10
-73.20774500000033
 20
48.566539999999947
 11
-73.772866666666857
 21
50.119199999999779
  0
LINE
  8
_1-8_小物
  6
CONTINUOUS
 62
    4
 10
-72.853018333333864
 20
48.566539999999947
 11
-73.459636666667109
 21
50.233206666666575
  0
LINE
  8
_1-8_小物
  6
CONTINUOUS
 62
    4
 10
-70.994085000000268
 20
42.846579999999818
 11
-69.829018333333806
 21
42.907638333333267
  0
LINE
  8
_1-8_小物
  6
CONTINUOUS
 62
    4
 10
-69.829018333333806
 20
42.907638333333267
 11
-70.459880000000339
 21
42.206995000000035
  0
LINE
  8
_1-8_小物
  6
CONTINUOUS
 62
    4
 10
-70.459880000000339
 20
42.206995000000035
 11
-70.959195000000079
 21
42.180826666666491
  0
LINE
  8
_1-8_小物
  6
CONTINUOUS
 62
    4
 10
-70.959195000000079
 20
42.180826666666491
 11
-71.5
 21
52.499999999999801
  0
LINE
  8
_1-8_小物
  6
CONTINUOUS
 62
    4
 10
-70.333333333333655
 20
51.166666666666657
 11
-70.333333333333655
 21
52.499999999999801
  0
LINE
  8
_1-8_小物
  6
CONTINUOUS
 62
    4
 10
-72.339248333333671
 20
42.846579999999818
 11
-73.504315000000133
 21
42.907638333333267
  0
LINE
  8
_1-8_小物
  6
CONTINUOUS
 62
    4
 10
-73.504315000000133
 20
42.907638333333267
 11
-72.8734533333336
 21
42.206995000000035
  0
LINE
  8
_1-8_小物
  6
CONTINUOUS
 62
    4
 10
-72.8734533333336
 20
42.206995000000035
 11
-72.374138333333576
 21
42.180826666666491
  0
LINE
  8
_1-8_小物
  6
CONTINUOUS
 62
    4
 10
-72.374138333333576
 20
42.180826666666491
 11
-71.833333333333655
 21
52.499999999999801
  0
LINE
  8
_1-8_小物
  6
CONTINUOUS
 62
    4
 10
-73
 20
51.166666666666657
 11
-73
 21
52.499999999999801
  0
LINE
  8
_1-8_小物
  6
CONTINUOUS
 62
    4
 10
-73.772866666666857
 20
50.119199999999779
 11
-74.103651666666963
 21
52.387073333333461
  0
ARC
  8
_1-8_小物
  6
CONTINUOUS
 62
    4
 10
-73.971715000000302
 20
52.406318333333303
 40
0.1333333333333333
 50
98.130101999965902
 51
188.29846600002313
  0
LINE
  8
_1-8_小物
  6
CONTINUOUS
 62
    4
 10
-73.990571666667165
 20
52.538311666666601
 11
-73.924963333333551
 21
52.547683333333367
  0
ARC
  8
_1-8_小物
  6
CONTINUOUS
 62
    4
 10
-73.906106666666631
 20
52.415689999999955
 40
0.1333333333333333
 50
8.130102000040166
 51
98.130102000226714
  0
LINE
  8
_1-8_小物
  6
CONTINUOUS
 62
    4
 10
-73.77411333333356
 20
52.434546666666535
 11
-73.459636666667109
 21
50.233206666666575
  0
LINE
  8
_1-8_小物
  6
CONTINUOUS
 62
    4
 10
-69.560466666667139
 20
50.119199999999779
 11
-69.229681666666977
 21
52.387073333333461
  0
ARC
  8
_1-8_小物
  6
CONTINUOUS
 62
    4
 10
-69.361618333333638
 20
52.406318333333303
 40
0.1333333333333333
 50
351.70153399996303
 51
81.869898000046192
  0
LINE
  8
_1-8_小物
  6
CONTINUOUS
 62
    4
 10
-69.342763333333721
 20
52.538311666666601
 11
-69.408370000000389
 21
52.547683333333367
  0
ARC
  8
_1-8_小物
  6
CONTINUOUS
 62
    4
 10
-69.427226666666684
 20
52.415689999999955
 40
0.1333333333333333
 50
81.869898000046192
 51
171.86989799999611
  0
LINE
  8
_1-8_小物
  6
CONTINUOUS
 62
    4
 10
-69.55922000000038
 20
52.434546666666535
 11
-69.873696666666831
 21
50.233206666666575
  0
LINE
  8
_1-8_小物
  6
CONTINUOUS
 62
    4
 10
-69.560466666667139
 20
50.119199999999779
 11
-69.229681666666977
 21
52.387073333333461
  0
ARC
  8
_1-8_小物
  6
CONTINUOUS
 62
    4
 10
-69.361618333333638
 20
52.406318333333303
 40
0.1333333333333333
 50
351.70153399996303
 51
81.869898000046192
  0
LINE
  8
_1-8_小物
  6
CONTINUOUS
 62
    4
 10
-69.342763333333721
 20
52.538311666666601
 11
-69.408370000000389
 21
52.547683333333367
  0
ARC
  8
_1-8_小物
  6
CONTINUOUS
 62
    4
 10
-69.427226666666684
 20
52.415689999999955
 40
0.1333333333333333
 50
81.869898000046192
 51
171.86989799999611
  0
LINE
  8
_1-8_小物
  6
CONTINUOUS
 62
    4
 10
-69.55922000000038
 20
52.434546666666535
 11
-69.873696666666831
 21
50.233206666666575
  0
LINE
  8
_1-8_小物
  6
CONTINUOUS
 62
    4
 10
-70
 20
55.166666666666657
 11
-70.333333333333655
 21
53.500000000000028
  0
LINE
  8
_1-8_小物
  6
CONTINUOUS
 62
    4
 10
-70.333333333333655
 20
55.166666666666657
 11
-70.333333333333655
 21
52.499999999999801
  0
LINE
  8
_1-8_小物
  6
CONTINUOUS
 62
    4
 10
-71.5
 20
52.499999999999801
 11
-71.666666666666686
 21
52.499999999999801
  0
LINE
  8
_1-8_小物
  6
CONTINUOUS
 62
    4
 10
-71.666666666666686
 20
53.500000000000028
 11
-71.666666666666686
 21
55.166666666666657
  0
LINE
  8
_1-8_小物
  6
CONTINUOUS
 62
    4
 10
-71.333333333333655
 20
55.166666666666657
 11
-71.666666666666686
 21
53.500000000000028
  0
LINE
  8
_1-8_小物
  6
CONTINUOUS
 62
    4
 10
-72.000000000000284
 20
55.166666666666657
 11
-71.666666666666686
 21
53.500000000000028
  0
LINE
  8
_1-8_小物
  6
CONTINUOUS
 62
    4
 10
-73.333333333333314
 20
55.166666666666657
 11
-73
 21
53.500000000000028
  0
LINE
  8
_1-8_小物
  6
CONTINUOUS
 62
    4
 10
-73
 20
55.166666666666657
 11
-73
 21
52.499999999999801
  0
LINE
  8
_1-8_小物
  6
CONTINUOUS
 62
    4
 10
-71.833333333333655
 20
52.499999999999801
 11
-71.666666666666686
 21
52.499999999999801
  0
LINE
  8
_1-8_小物
  6
CONTINUOUS
 62
    4
 10
-70
 20
55.166666666666657
 11
-73.333333333333314
 21
55.166666666666657
  0
ENDBLK
  0
BLOCK
  2
-009-_7_
 70
   64
 10
0
 20
0
 30
0
  0
LINE
  8
_1-8_小物
  6
CONTINUOUS
 62
    4
 10
-116.16666666666667
 20
62.0999993333335
 11
-116.16666666666667
 21
60.433333333333394
  0
LINE
  8
_1-8_小物
  6
CONTINUOUS
 62
    4
 10
-116.16666666666667
 20
60.433333333333394
 11
-116.66666666666644
 21
60.433333333333394
  0
LINE
  8
_1-8_小物
  6
CONTINUOUS
 62
    4
 10
-117.6666666666666
 20
60.433333333333394
 11
-118.1666666666666
 21
60.433333333333394
  0
LINE
  8
_1-8_小物
  6
CONTINUOUS
 62
    4
 10
-118.1666666666666
 20
60.433333333333394
 11
-118.1666666666666
 21
62.0999993333335
  0
ARC
  8
_1-8_小物
  6
CONTINUOUS
 62
    4
 10
-117.16666666666652
 20
62.0999993333335
 40
0.566667
 50
0
 51
180
  0
ARC
  8
_1-8_小物
  6
CONTINUOUS
 62
    4
 10
-117.16666666666652
 20
62.0999993333335
 40
1
 50
0
 51
180
  0
LINE
  8
_1-8_小物
  6
CONTINUOUS
 62
    4
 10
-117.66666466666675
 20
61.099999333333386
 11
-117.58538366666653
 21
61.099999333333386
  0
ARC
  8
_1-8_小物
  6
CONTINUOUS
 62
    4
 10
-117.58538366666653
 20
61.033333333333445
 40
0.066667
 50
345.96359800000414
 51
90
  0
LINE
  8
_1-8_小物
  6
CONTINUOUS
 62
    4
 10
-117.6666666666666
 20
60.433333333333394
 11
-117.5207076666665
 21
61.017164333333454
  0
LINE
  8
_1-8_小物
  6
CONTINUOUS
 62
    4
 10
-116.66666666666644
 20
61.099999333333386
 11
-116.74794866666647
 21
61.099999333333386
  0
ARC
  8
_1-8_小物
  6
CONTINUOUS
 62
    4
 10
-116.74794866666647
 20
61.033333333333445
 40
0.066667
 50
90
 51
194.03619200001785
  0
LINE
  8
_1-8_小物
  6
CONTINUOUS
 62
    4
 10
-116.66666766666648
 20
60.433333333333394
 11
-116.81262466666674
 21
61.017164333333454
  0
LINE
  8
_1-8_小物
  6
CONTINUOUS
 62
    4
 10
-117.66666466666675
 20
61.099999333333386
 11
-117.73333166666643
 21
61.099999333333386
  0
LINE
  8
_1-8_小物
  6
CONTINUOUS
 62
    4
 10
-117.73333166666643
 20
61.099999333333386
 11
-117.7333336666665
 21
62.0999993333335
  0
LINE
  8
_1-8_小物
  6
CONTINUOUS
 62
    4
 10
-116.66666766666648
 20
61.099999333333386
 11
-116.59999966666655
 21
61.099999333333386
  0
LINE
  8
_1-8_小物
  6
CONTINUOUS
 62
    4
 10
-116.59999966666655
 20
61.099999333333386
 11
-116.59999966666655
 21
62.0999993333335
  0
ENDBLK
  0
BLOCK
  2
-010-_8_
 70
   64
 10
0
 20
0
 30
0
  0
LINE
  8
_1-8_小物
  6
CONTINUOUS
 62
    4
 10
-125.33333333333302
 20
56.833333333333314
 11
-131.33333333333331
 21
56.833333333333314
  0
LINE
  8
_1-8_小物
  6
CONTINUOUS
 62
    4
 10
-125.33333333333302
 20
56.333333333333314
 11
-131.33333333333331
 21
56.333333333333314
  0
LINE
  8
_1-8_小物
  6
CONTINUOUS
 62
    4
 10
-125.33333333333302
 20
56.833333333333314
 11
-125.33333333333302
 21
56.333333333333314
  0
LINE
  8
_1-8_小物
  6
CONTINUOUS
 62
    4
 10
-131.33333333333331
 20
56.833333333333314
 11
-131.33333333333331
 21
56.333333333333314
  0
LINE
  8
_1-8_小物
  6
CONTINUOUS
 62
    4
 10
-127.41666666666637
 20
56.833333333333314
 11
-127.41666666666637
 21
56.333333333333314
  0
LINE
  8
_1-8_小物
  6
CONTINUOUS
 62
    4
 10
-129.25
 20
56.833333333333314
 11
-129.25
 21
56.333333333333314
  0
LINE
  8
_1-8_小物
  6
CONTINUOUS
 62
    4
 10
-126.83333333333306
 20
56.833333333333314
 11
-126.86963759459984
 21
57.24829293833335
  0
LINE
  8
_1-8_小物
  6
CONTINUOUS
 62
    4
 10
-129.79702907209989
 20
57.24829293833335
 11
-129.83333333333303
 21
56.833333333333314
  0
ARC
  8
_1-8_小物
  6
CONTINUOUS
 62
    4
 10
-129.46828482170017
 20
57.219531543233245
 40
0.3299999999999999
 50
127.36755803205445
 51
175.00000000119871
  0
ARC
  8
_1-8_小物
  6
CONTINUOUS
 62
    4
 10
-127.19838184496653
 20
57.219531543233245
 40
0.3299999999999999
 50
4.999999998801286
 51
52.63244196794556
  0
ARC
  8
_1-8_小物
  6
CONTINUOUS
 62
    4
 10
-128.33333333333334
 20
55.733333333333292
 40
2.1999999999999997
 50
52.632441967704935
 51
68.266383543398447
  0
ARC
  8
_1-8_小物
  6
CONTINUOUS
 62
    4
 10
-128.33333333333334
 20
55.733333333333292
 40
2.1999999999999997
 50
111.74840859090331
 51
127.36755803230515
  0
LINE
  8
_1-8_小物
  6
CONTINUOUS
 62
    4
 10
-128.22833333333318
 20
57.919709043200044
 11
-128.22833333333318
 21
57.774437413199905
  0
LINE
  8
_1-8_小物
  6
CONTINUOUS
 62
    4
 10
-128.11257043936621
 20
57.919709043200044
 11
-128.22833333333318
 21
57.919709043200044
  0
LINE
  8
_1-8_小物
  6
CONTINUOUS
 62
    4
 10
-127.51916557716656
 20
57.774437413199905
 11
-128.11257043936621
 21
57.919709043200044
  0
LINE
  8
_1-8_小物
  6
CONTINUOUS
 62
    4
 10
-128.55409622733322
 20
57.919709043200044
 11
-128.9873996499
 21
57.831230436066733
  0
LINE
  8
_1-8_小物
  6
CONTINUOUS
 62
    4
 10
-128.9873996499
 20
57.831230436066733
 11
-129.14750108953285
 21
57.774437413199905
  0
LINE
  8
_1-8_小物
  6
CONTINUOUS
 62
    4
 10
-128.43833333333322
 20
57.919709043200044
 11
-128.55409622733322
 21
57.919709043200044
  0
LINE
  8
_1-8_小物
  6
CONTINUOUS
 62
    4
 10
-128.43833333333322
 20
57.774437413199905
 11
-128.43833333333322
 21
57.919709043200044
  0
LINE
  8
_1-8_小物
  6
CONTINUOUS
 62
    4
 10
-128.22833333333318
 20
57.774437413199905
 11
-128.33333333333334
 21
57.776139138000019
  0
LINE
  8
_1-8_小物
  6
CONTINUOUS
 62
    4
 10
-128.33333333333334
 20
57.776139138000019
 11
-128.43833333333322
 21
57.774437413199905
  0
LINE
  8
_1-8_小物
  6
CONTINUOUS
 62
    4
 10
-126.86963759459984
 20
57.24829293833335
 11
-129.79702907209989
 21
57.24829293833335
  0
LINE
  8
_1-8_小物
  6
CONTINUOUS
 62
    4
 10
-128.33333333333334
 20
57.481801815566712
 11
-129.66857037849999
 21
57.481801815566712
  0
LINE
  8
_1-8_小物
  6
CONTINUOUS
 62
    4
 10
-126.99809628819973
 20
57.481801815566712
 11
-128.33333333333334
 21
57.481801815566712
  0
ENDBLK
  0
BLOCK
  2
-011-_9_
 70
   64
 10
0
 20
0
 30
0
  0
LINE
  8
_1-8_小物
  6
CONTINUOUS
 62
    4
 10
-126.53057500000008
 20
43.573391666666595
 11
-126.49568500000046
 21
42.907638333333267
  0
LINE
  8
_1-8_小物
  6
CONTINUOUS
 62
    4
 10
-126.582911666667
 20
44.572021666666529
 11
-127.23121833333366
 21
44.204254999999904
  0
LINE
  8
_1-8_小物
  6
CONTINUOUS
 62
    4
 10
-127.23121833333366
 20
44.204254999999904
 11
-127.19632833333343
 21
43.538501666666576
  0
LINE
  8
_1-8_小物
  6
CONTINUOUS
 62
    4
 10
-127.19632833333343
 20
43.538501666666576
 11
-126.53057500000008
 21
43.573391666666595
  0
LINE
  8
_1-8_小物
  6
CONTINUOUS
 62
    4
 10
-126.61780166666691
 20
45.237774999999971
 11
-126.582911666667
 21
44.572021666666529
  0
LINE
  8
_1-8_小物
  6
CONTINUOUS
 62
    4
 10
-126.67013833333354
 20
46.236403333333357
 11
-127.31844500000048
 21
45.86863666666639
  0
LINE
  8
_1-8_小物
  6
CONTINUOUS
 62
    4
 10
-127.31844500000048
 20
45.86863666666639
 11
-127.28355500000029
 21
45.20288333333329
  0
LINE
  8
_1-8_小物
  6
CONTINUOUS
 62
    4
 10
-127.28355500000029
 20
45.20288333333329
 11
-126.61780166666691
 21
45.237774999999971
  0
LINE
  8
_1-8_小物
  6
CONTINUOUS
 62
    4
 10
-126.70502833333374
 20
46.902156666666684
 11
-126.67013833333354
 21
46.236403333333357
  0
LINE
  8
_1-8_小物
  6
CONTINUOUS
 62
    4
 10
-126.75736500000008
 20
47.900786666666392
 11
-127.40567166666673
 21
47.533019999999993
  0
LINE
  8
_1-8_小物
  6
CONTINUOUS
 62
    4
 10
-127.40567166666673
 20
47.533019999999993
 11
-127.37078166666713
 21
46.867266666666666
  0
LINE
  8
_1-8_小物
  6
CONTINUOUS
 62
    4
 10
-127.37078166666713
 20
46.867266666666666
 11
-126.70502833333374
 21
46.902156666666684
  0
LINE
  8
_1-8_小物
  6
CONTINUOUS
 62
    4
 10
-126.79225500000028
 20
48.566539999999947
 11
-126.75736500000008
 21
47.900786666666392
  0
LINE
  8
_1-8_小物
  6
CONTINUOUS
 62
    4
 10
-126.84459166666691
 20
49.565169999999995
 11
-127.49289833333357
 21
49.197401666666593
  0
LINE
  8
_1-8_小物
  6
CONTINUOUS
 62
    4
 10
-127.49289833333357
 20
49.197401666666593
 11
-127.45800833333365
 21
48.531648333333266
  0
LINE
  8
_1-8_小物
  6
CONTINUOUS
 62
    4
 10
-127.45800833333365
 20
48.531648333333266
 11
-126.79225500000028
 21
48.566539999999947
  0
LINE
  8
_1-8_小物
  6
CONTINUOUS
 62
    4
 10
-126.87948166666686
 20
50.230921666666546
 11
-126.84459166666691
 21
49.565169999999995
  0
LINE
  8
_1-8_小物
  6
CONTINUOUS
 62
    4
 10
-127.58012500000039
 20
50.861784999999855
 11
-127.54523500000019
 21
50.196031666666528
  0
LINE
  8
_1-8_小物
  6
CONTINUOUS
 62
    4
 10
-127.54523500000019
 20
50.196031666666528
 11
-126.87948166666686
 21
50.230921666666546
  0
LINE
  8
_1-8_小物
  6
CONTINUOUS
 62
    4
 10
-127.00000000000031
 20
51.166666666666657
 11
-127.58012500000039
 21
50.861784999999855
  0
LINE
  8
_1-8_小物
  6
CONTINUOUS
 62
    4
 10
-130.13609166666691
 20
43.573391666666595
 11
-130.17098166666679
 21
42.907638333333267
  0
LINE
  8
_1-8_小物
  6
CONTINUOUS
 62
    4
 10
-130.08375500000025
 20
44.572021666666529
 11
-129.43544833333362
 21
44.204254999999904
  0
LINE
  8
_1-8_小物
  6
CONTINUOUS
 62
    4
 10
-129.43544833333362
 20
44.204254999999904
 11
-129.47033833333384
 21
43.538501666666576
  0
LINE
  8
_1-8_小物
  6
CONTINUOUS
 62
    4
 10
-129.47033833333384
 20
43.538501666666576
 11
-130.13609166666691
 21
43.573391666666595
  0
LINE
  8
_1-8_小物
  6
CONTINUOUS
 62
    4
 10
-130.04886500000006
 20
45.237774999999971
 11
-130.08375500000025
 21
44.572021666666529
  0
LINE
  8
_1-8_小物
  6
CONTINUOUS
 62
    4
 10
-129.99652833333371
 20
46.236403333333357
 11
-129.34822166666709
 21
45.86863666666639
  0
LINE
  8
_1-8_小物
  6
CONTINUOUS
 62
    4
 10
-129.34822166666709
 20
45.86863666666639
 11
-129.38311166666668
 21
45.20288333333329
  0
LINE
  8
_1-8_小物
  6
CONTINUOUS
 62
    4
 10
-129.38311166666668
 20
45.20288333333329
 11
-130.04886500000006
 21
45.237774999999971
  0
LINE
  8
_1-8_小物
  6
CONTINUOUS
 62
    4
 10
-129.96163833333381
 20
46.902156666666684
 11
-129.99652833333371
 21
46.236403333333357
  0
LINE
  8
_1-8_小物
  6
CONTINUOUS
 62
    4
 10
-129.90930166666718
 20
47.900786666666392
 11
-129.26099500000024
 21
47.533019999999993
  0
LINE
  8
_1-8_小物
  6
CONTINUOUS
 62
    4
 10
-129.26099500000024
 20
47.533019999999993
 11
-129.29588500000017
 21
46.867266666666666
  0
LINE
  8
_1-8_小物
  6
CONTINUOUS
 62
    4
 10
-129.29588500000017
 20
46.867266666666666
 11
-129.96163833333381
 21
46.902156666666684
  0
LINE
  8
_1-8_小物
  6
CONTINUOUS
 62
    4
 10
-129.87441166666699
 20
48.566539999999947
 11
-129.90930166666718
 21
47.900786666666392
  0
LINE
  8
_1-8_小物
  6
CONTINUOUS
 62
    4
 10
-129.82207500000004
 20
49.565169999999995
 11
-129.17376833333341
 21
49.197401666666593
  0
LINE
  8
_1-8_小物
  6
CONTINUOUS
 62
    4
 10
-129.17376833333341
 20
49.197401666666593
 11
-129.2086583333336
 21
48.531648333333266
  0
LINE
  8
_1-8_小物
  6
CONTINUOUS
 62
    4
 10
-129.2086583333336
 20
48.531648333333266
 11
-129.87441166666699
 21
48.566539999999947
  0
LINE
  8
_1-8_小物
  6
CONTINUOUS
 62
    4
 10
-129.78718500000045
 20
50.230921666666546
 11
-129.82207500000004
 21
49.565169999999995
  0
LINE
  8
_1-8_小物
  6
CONTINUOUS
 62
    4
 10
-129.08654166666688
 20
50.861784999999855
 11
-129.12143166666706
 21
50.196031666666528
  0
LINE
  8
_1-8_小物
  6
CONTINUOUS
 62
    4
 10
-129.12143166666706
 20
50.196031666666528
 11
-129.78718500000045
 21
50.230921666666546
  0
LINE
  8
_1-8_小物
  6
CONTINUOUS
 62
    4
 10
-128.3531016666669
 20
43.186434999999875
 11
-127.70853500000037
 21
43.758324999999928
  0
LINE
  8
_1-8_小物
  6
CONTINUOUS
 62
    4
 10
-128.95648166666706
 20
43.789813333333342
 11
-128.33333333333334
 21
43.166666666666544
  0
LINE
  8
_1-8_小物
  6
CONTINUOUS
 62
    4
 10
-129.66666666666666
 20
51.166666666666657
 11
-129.08654166666688
 21
50.861784999999855
  0
LINE
  8
_1-8_小物
  6
CONTINUOUS
 62
    4
 10
-126.79225500000028
 20
48.566539999999947
 11
-126.2271333333338
 21
50.119199999999779
  0
LINE
  8
_1-8_小物
  6
CONTINUOUS
 62
    4
 10
-127.14698166666679
 20
48.566539999999947
 11
-126.5403633333335
 21
50.233206666666575
  0
LINE
  8
_1-8_小物
  6
CONTINUOUS
 62
    4
 10
-129.87441166666699
 20
48.566539999999947
 11
-130.43953333333351
 21
50.119199999999779
  0
LINE
  8
_1-8_小物
  6
CONTINUOUS
 62
    4
 10
-129.51968500000052
 20
48.566539999999947
 11
-130.12630333333377
 21
50.233206666666575
  0
LINE
  8
_1-8_小物
  6
CONTINUOUS
 62
    4
 10
-127.66075166666693
 20
42.846579999999818
 11
-126.49568500000046
 21
42.907638333333267
  0
LINE
  8
_1-8_小物
  6
CONTINUOUS
 62
    4
 10
-126.49568500000046
 20
42.907638333333267
 11
-127.12654666666701
 21
42.206995000000035
  0
LINE
  8
_1-8_小物
  6
CONTINUOUS
 62
    4
 10
-127.12654666666701
 20
42.206995000000035
 11
-127.62586166666674
 21
42.180826666666491
  0
LINE
  8
_1-8_小物
  6
CONTINUOUS
 62
    4
 10
-127.62586166666674
 20
42.180826666666491
 11
-128.16666666666666
 21
52.499999999999801
  0
LINE
  8
_1-8_小物
  6
CONTINUOUS
 62
    4
 10
-127.00000000000031
 20
51.166666666666657
 11
-127.00000000000031
 21
52.499999999999801
  0
LINE
  8
_1-8_小物
  6
CONTINUOUS
 62
    4
 10
-129.00591500000033
 20
42.846579999999818
 11
-130.17098166666679
 21
42.907638333333267
  0
LINE
  8
_1-8_小物
  6
CONTINUOUS
 62
    4
 10
-130.17098166666679
 20
42.907638333333267
 11
-129.54012000000029
 21
42.206995000000035
  0
LINE
  8
_1-8_小物
  6
CONTINUOUS
 62
    4
 10
-129.54012000000029
 20
42.206995000000035
 11
-129.04080500000023
 21
42.180826666666491
  0
LINE
  8
_1-8_小物
  6
CONTINUOUS
 62
    4
 10
-129.04080500000023
 20
42.180826666666491
 11
-128.50000000000031
 21
52.499999999999801
  0
LINE
  8
_1-8_小物
  6
CONTINUOUS
 62
    4
 10
-129.66666666666666
 20
51.166666666666657
 11
-129.66666666666666
 21
52.499999999999801
  0
LINE
  8
_1-8_小物
  6
CONTINUOUS
 62
    4
 10
-130.43953333333351
 20
50.119199999999779
 11
-130.77031833333362
 21
52.387073333333461
  0
ARC
  8
_1-8_小物
  6
CONTINUOUS
 62
    4
 10
-130.63838166666696
 20
52.406318333333303
 40
0.1333333333333333
 50
98.130101999953808
 51
188.29846600002313
  0
LINE
  8
_1-8_小物
  6
CONTINUOUS
 62
    4
 10
-130.65723833333382
 20
52.538311666666601
 11
-130.59163000000021
 21
52.547683333333367
  0
ARC
  8
_1-8_小物
  6
CONTINUOUS
 62
    4
 10
-130.57277333333332
 20
52.415689999999955
 40
0.1333333333333333
 50
8.130102000040166
 51
98.13010200021462
  0
LINE
  8
_1-8_小物
  6
CONTINUOUS
 62
    4
 10
-130.44078000000022
 20
52.434546666666535
 11
-130.12630333333377
 21
50.233206666666575
  0
LINE
  8
_1-8_小物
  6
CONTINUOUS
 62
    4
 10
-126.2271333333338
 20
50.119199999999779
 11
-125.89634833333365
 21
52.387073333333461
  0
ARC
  8
_1-8_小物
  6
CONTINUOUS
 62
    4
 10
-126.02828500000031
 20
52.406318333333303
 40
0.1333333333333333
 50
351.70153399996389
 51
81.869898000040166
  0
LINE
  8
_1-8_小物
  6
CONTINUOUS
 62
    4
 10
-126.00943000000038
 20
52.538311666666601
 11
-126.07503666666706
 21
52.547683333333367
  0
ARC
  8
_1-8_小物
  6
CONTINUOUS
 62
    4
 10
-126.09389333333334
 20
52.415689999999955
 40
0.1333333333333333
 50
81.869898000046192
 51
171.86989799999611
  0
LINE
  8
_1-8_小物
  6
CONTINUOUS
 62
    4
 10
-126.22588666666705
 20
52.434546666666535
 11
-126.5403633333335
 21
50.233206666666575
  0
LINE
  8
_1-8_小物
  6
CONTINUOUS
 62
    4
 10
-126.2271333333338
 20
50.119199999999779
 11
-125.89634833333365
 21
52.387073333333461
  0
ARC
  8
_1-8_小物
  6
CONTINUOUS
 62
    4
 10
-126.02828500000031
 20
52.406318333333303
 40
0.1333333333333333
 50
351.70153399996389
 51
81.869898000040166
  0
LINE
  8
_1-8_小物
  6
CONTINUOUS
 62
    4
 10
-126.00943000000038
 20
52.538311666666601
 11
-126.07503666666706
 21
52.547683333333367
  0
ARC
  8
_1-8_小物
  6
CONTINUOUS
 62
    4
 10
-126.09389333333334
 20
52.415689999999955
 40
0.1333333333333333
 50
81.869898000046192
 51
171.86989799999611
  0
LINE
  8
_1-8_小物
  6
CONTINUOUS
 62
    4
 10
-126.22588666666705
 20
52.434546666666535
 11
-126.5403633333335
 21
50.233206666666575
  0
LINE
  8
_1-8_小物
  6
CONTINUOUS
 62
    4
 10
-126.66666666666666
 20
55.166666666666657
 11
-127.00000000000031
 21
53.500000000000028
  0
LINE
  8
_1-8_小物
  6
CONTINUOUS
 62
    4
 10
-127.00000000000031
 20
55.166666666666657
 11
-127.00000000000031
 21
52.499999999999801
  0
LINE
  8
_1-8_小物
  6
CONTINUOUS
 62
    4
 10
-128.16666666666666
 20
52.499999999999801
 11
-128.33333333333334
 21
52.499999999999801
  0
LINE
  8
_1-8_小物
  6
CONTINUOUS
 62
    4
 10
-128.33333333333334
 20
53.500000000000028
 11
-128.33333333333334
 21
55.166666666666657
  0
LINE
  8
_1-8_小物
  6
CONTINUOUS
 62
    4
 10
-128.00000000000031
 20
55.166666666666657
 11
-128.33333333333334
 21
53.500000000000028
  0
LINE
  8
_1-8_小物
  6
CONTINUOUS
 62
    4
 10
-128.66666666666697
 20
55.166666666666657
 11
-128.33333333333334
 21
53.500000000000028
  0
LINE
  8
_1-8_小物
  6
CONTINUOUS
 62
    4
 10
-130
 20
55.166666666666657
 11
-129.66666666666666
 21
53.500000000000028
  0
LINE
  8
_1-8_小物
  6
CONTINUOUS
 62
    4
 10
-129.66666666666666
 20
55.166666666666657
 11
-129.66666666666666
 21
52.499999999999801
  0
LINE
  8
_1-8_小物
  6
CONTINUOUS
 62
    4
 10
-128.50000000000031
 20
52.499999999999801
 11
-128.33333333333334
 21
52.499999999999801
  0
LINE
  8
_1-8_小物
  6
CONTINUOUS
 62
    4
 10
-126.66666666666666
 20
55.166666666666657
 11
-130
 21
55.166666666666657
  0
ENDBLK
  0
BLOCK
  2
-012-$QLE
 70
   64
 10
0
 20
0
 30
0
  0
LINE
  8
_1-f_寸法
  6
CONTINUOUS
 62
    4
 10
-65
 20
53.5
 11
-62.001603157205579
 21
48.306624327025929
  0
LINE
  8
_1-f_寸法
  6
CONTINUOUS
 62
    4
 10
-62.001603157205579
 20
48.306624327025929
 11
-23.281603157205581
 21
48.306624327025929
  0
POINT
  8
_1-f_寸法
 62
    4
 10
-65
 20
53.5
  0
TEXT
  8
_1-f_寸法
 62
    4
 10
-61.681603157205586
 20
48.306624327025929
 40
3.2000000000000002
 41
1
 50
0
  1
ならしモルタル(別途工事)
  0
ENDBLK
  0
BLOCK
  2
-013-_10_
 70
   64
 10
0
 20
0
 30
0
  0
LINE
  8
_1-8_小物
  6
CONTINUOUS
 62
    4
 10
99.499999499999888
 20
62.099999333333471
 11
99.499999499999888
 21
60.433333333333394
  0
LINE
  8
_1-8_小物
  6
CONTINUOUS
 62
    4
 10
99.499999499999888
 20
60.433333333333394
 11
99.99999949999966
 21
60.433333333333394
  0
LINE
  8
_1-8_小物
  6
CONTINUOUS
 62
    4
 10
100.99999949999977
 20
60.433333333333394
 11
101.49999949999977
 21
60.433333333333394
  0
LINE
  8
_1-8_小物
  6
CONTINUOUS
 62
    4
 10
101.49999949999977
 20
60.433333333333394
 11
101.49999949999977
 21
62.099999333333471
  0
ARC
  8
_1-8_小物
  6
CONTINUOUS
 62
    4
 10
100.49999949999966
 20
62.099999333333471
 40
0.566667
 50
0
 51
180
  0
ARC
  8
_1-8_小物
  6
CONTINUOUS
 62
    4
 10
100.49999949999966
 20
62.099999333333471
 40
1
 50
0
 51
180
  0
LINE
  8
_1-8_小物
  6
CONTINUOUS
 62
    4
 10
100.99999749999989
 20
61.099999333333386
 11
100.91871649999968
 21
61.099999333333386
  0
ARC
  8
_1-8_小物
  6
CONTINUOUS
 62
    4
 10
100.91871649999968
 20
61.033333333333445
 40
0.066667
 50
90
 51
194.03640200002249
  0
LINE
  8
_1-8_小物
  6
CONTINUOUS
 62
    4
 10
100.99999949999977
 20
60.433333333333394
 11
100.85404049999971
 21
61.017164333333454
  0
LINE
  8
_1-8_小物
  6
CONTINUOUS
 62
    4
 10
99.99999949999966
 20
61.099999333333386
 11
100.08128149999965
 21
61.099999333333386
  0
ARC
  8
_1-8_小物
  6
CONTINUOUS
 62
    4
 10
100.08128149999965
 20
61.033333333333445
 40
0.066667
 50
345.96380799998803
 51
90
  0
LINE
  8
_1-8_小物
  6
CONTINUOUS
 62
    4
 10
100.00000049999966
 20
60.433333333333394
 11
100.14595749999995
 21
61.017164333333454
  0
LINE
  8
_1-8_小物
  6
CONTINUOUS
 62
    4
 10
100.99999749999989
 20
61.099999333333386
 11
101.0666644999996
 21
61.099999333333386
  0
LINE
  8
_1-8_小物
  6
CONTINUOUS
 62
    4
 10
101.0666644999996
 20
61.099999333333386
 11
101.06666649999971
 21
62.099999333333471
  0
LINE
  8
_1-8_小物
  6
CONTINUOUS
 62
    4
 10
100.00000049999966
 20
61.099999333333386
 11
99.933332499999722
 21
61.099999333333386
  0
LINE
  8
_1-8_小物
  6
CONTINUOUS
 62
    4
 10
99.933332499999722
 20
61.099999333333386
 11
99.933332499999722
 21
62.099999333333471
  0
ENDBLK
  0
BLOCK
  2
-014-HATCHING_2_
 70
   64
 10
0
 20
0
 30
0
  0
LINE
  8
_1-0_躯体
  6
CONTINUOUS
 62
    4
 10
146.66666666666663
 20
54.384223389128692
 11
145.78244327753794
 21
53.5
  0
LINE
  8
_1-0_躯体
  6
CONTINUOUS
 62
    4
 10
146.50630090262257
 20
55.166666666666657
 11
144.83963423595588
 21
53.5
  0
LINE
  8
_1-0_躯体
  6
CONTINUOUS
 62
    4
 10
145.56349186104046
 20
55.166666666666657
 11
143.89682519437383
 21
53.5
  0
LINE
  8
_1-0_躯体
  6
CONTINUOUS
 62
    4
 10
144.62068281945841
 20
55.166666666666657
 11
142.95401615279172
 21
53.5
  0
LINE
  8
_1-0_躯体
  6
CONTINUOUS
 62
    4
 10
143.67787377787636
 20
55.166666666666657
 11
142.01120711120967
 21
53.5
  0
LINE
  8
_1-0_躯体
  6
CONTINUOUS
 62
    4
 10
142.73506473629425
 20
55.166666666666657
 11
141.06839806962762
 21
53.5
  0
LINE
  8
_1-0_躯体
  6
CONTINUOUS
 62
    4
 10
141.7922556947122
 20
55.166666666666657
 11
140.12558902804551
 21
53.5
  0
LINE
  8
_1-0_躯体
  6
CONTINUOUS
 62
    4
 10
140.84944665313014
 20
55.166666666666657
 11
139.18277998646346
 21
53.5
  0
LINE
  8
_1-0_躯体
  6
CONTINUOUS
 62
    4
 10
139.90663761154804
 20
55.166666666666657
 11
138.23997094488141
 21
53.5
  0
LINE
  8
_1-0_躯体
  6
CONTINUOUS
 62
    4
 10
138.96382856996604
 20
55.166666666666657
 11
137.29716190329941
 21
53.5
  0
LINE
  8
_1-0_躯体
  6
CONTINUOUS
 62
    4
 10
138.02101952838404
 20
55.166666666666657
 11
136.35435286171742
 21
53.5
  0
LINE
  8
_1-0_躯体
  6
CONTINUOUS
 62
    4
 10
137.07821048680199
 20
55.166666666666657
 11
135.41154382013531
 21
53.5
  0
LINE
  8
_1-0_躯体
  6
CONTINUOUS
 62
    4
 10
136.13540144521994
 20
55.166666666666657
 11
134.46873477855326
 21
53.5
  0
LINE
  8
_1-0_躯体
  6
CONTINUOUS
 62
    4
 10
135.19259240363783
 20
55.166666666666657
 11
133.5259257369712
 21
53.5
  0
LINE
  8
_1-0_躯体
  6
CONTINUOUS
 62
    4
 10
134.24978336205578
 20
55.166666666666657
 11
132.58311669538909
 21
53.5
  0
LINE
  8
_1-0_躯体
  6
CONTINUOUS
 62
    4
 10
133.30697432047373
 20
55.166666666666657
 11
131.64030765380704
 21
53.5
  0
LINE
  8
_1-0_躯体
  6
CONTINUOUS
 62
    4
 10
132.36416527889162
 20
55.166666666666657
 11
130.69749861222499
 21
53.5
  0
LINE
  8
_1-0_躯体
  6
CONTINUOUS
 62
    4
 10
131.42135623730957
 20
55.166666666666657
 11
129.75468957064288
 21
53.5
  0
LINE
  8
_1-0_躯体
  6
CONTINUOUS
 62
    4
 10
130.47854719572751
 20
55.166666666666657
 11
128.81188052906083
 21
53.5
  0
LINE
  8
_1-0_躯体
  6
CONTINUOUS
 62
    4
 10
129.53573815414541
 20
55.166666666666657
 11
127.86907148747878
 21
53.5
  0
LINE
  8
_1-0_躯体
  6
CONTINUOUS
 62
    4
 10
128.59292911256335
 20
55.166666666666657
 11
126.92626244589667
 21
53.5
  0
LINE
  8
_1-0_躯体
  6
CONTINUOUS
 62
    4
 10
127.6501200709813
 20
55.166666666666657
 11
125.98345340431462
 21
53.5
  0
LINE
  8
_1-0_躯体
  6
CONTINUOUS
 62
    4
 10
126.70731102939919
 20
55.166666666666657
 11
125.04064436273256
 21
53.5
  0
LINE
  8
_1-0_躯体
  6
CONTINUOUS
 62
    4
 10
125.76450198781714
 20
55.166666666666657
 11
124.09783532115046
 21
53.5
  0
LINE
  8
_1-0_躯体
  6
CONTINUOUS
 62
    4
 10
124.82169294623509
 20
55.166666666666657
 11
123.1550262795684
 21
53.5
  0
LINE
  8
_1-0_躯体
  6
CONTINUOUS
 62
    4
 10
123.87888390465298
 20
55.166666666666657
 11
122.21221723798635
 21
53.5
  0
LINE
  8
_1-0_躯体
  6
CONTINUOUS
 62
    4
 10
122.93607486307098
 20
55.166666666666657
 11
121.26940819640436
 21
53.5
  0
LINE
  8
_1-0_躯体
  6
CONTINUOUS
 62
    4
 10
121.99326582148893
 20
55.166666666666657
 11
120.32659915482225
 21
53.5
  0
LINE
  8
_1-0_躯体
  6
CONTINUOUS
 62
    4
 10
121.05045677990677
 20
55.166666666666657
 11
119.38379011324014
 21
53.5
  0
LINE
  8
_1-0_躯体
  6
CONTINUOUS
 62
    4
 10
120.10764773832477
 20
55.166666666666657
 11
118.44098107165814
 21
53.5
  0
LINE
  8
_1-0_躯体
  6
CONTINUOUS
 62
    4
 10
119.16483869674272
 20
55.166666666666657
 11
117.49817203007603
 21
53.5
  0
LINE
  8
_1-0_躯体
  6
CONTINUOUS
 62
    4
 10
118.22202965516067
 20
55.166666666666657
 11
116.55536298849398
 21
53.5
  0
LINE
  8
_1-0_躯体
  6
CONTINUOUS
 62
    4
 10
117.27922061357856
 20
55.166666666666657
 11
115.61255394691193
 21
53.5
  0
LINE
  8
_1-0_躯体
  6
CONTINUOUS
 62
    4
 10
116.33641157199656
 20
55.166666666666657
 11
114.66974490532994
 21
53.5
  0
LINE
  8
_1-0_躯体
  6
CONTINUOUS
 62
    4
 10
115.39360253041451
 20
55.166666666666657
 11
113.72693586374783
 21
53.5
  0
LINE
  8
_1-0_躯体
  6
CONTINUOUS
 62
    4
 10
114.4507934888324
 20
55.166666666666657
 11
112.78412682216572
 21
53.5
  0
LINE
  8
_1-0_躯体
  6
CONTINUOUS
 62
    4
 10
113.50798444725035
 20
55.166666666666657
 11
111.84131778058367
 21
53.5
  0
LINE
  8
_1-0_躯体
  6
CONTINUOUS
 62
    4
 10
112.5651754056683
 20
55.166666666666657
 11
110.89850873900161
 21
53.5
  0
LINE
  8
_1-0_躯体
  6
CONTINUOUS
 62
    4
 10
111.62236636408619
 20
55.166666666666657
 11
109.9556996974195
 21
53.5
  0
LINE
  8
_1-0_躯体
  6
CONTINUOUS
 62
    4
 10
110.67955732250414
 20
55.166666666666657
 11
109.01289065583745
 21
53.5
  0
LINE
  8
_1-0_躯体
  6
CONTINUOUS
 62
    4
 10
109.73674828092209
 20
55.166666666666657
 11
108.0700816142554
 21
53.5
  0
LINE
  8
_1-0_躯体
  6
CONTINUOUS
 62
    4
 10
108.79393923933998
 20
55.166666666666657
 11
107.12727257267335
 21
53.5
  0
LINE
  8
_1-0_躯体
  6
CONTINUOUS
 62
    4
 10
107.85113019775793
 20
55.166666666666657
 11
106.18446353109124
 21
53.5
  0
LINE
  8
_1-0_躯体
  6
CONTINUOUS
 62
    4
 10
106.90832115617587
 20
55.166666666666657
 11
105.24165448950919
 21
53.5
  0
LINE
  8
_1-0_躯体
  6
CONTINUOUS
 62
    4
 10
105.96551211459376
 20
55.166666666666657
 11
104.29884544792714
 21
53.5
  0
LINE
  8
_1-0_躯体
  6
CONTINUOUS
 62
    4
 10
105.02270307301171
 20
55.166666666666657
 11
103.35603640634503
 21
53.5
  0
LINE
  8
_1-0_躯体
  6
CONTINUOUS
 62
    4
 10
104.07989403142966
 20
55.166666666666657
 11
102.41322736476303
 21
53.5
  0
LINE
  8
_1-0_躯体
  6
CONTINUOUS
 62
    4
 10
103.13708498984761
 20
55.166666666666657
 11
101.47041832318092
 21
53.5
  0
LINE
  8
_1-0_躯体
  6
CONTINUOUS
 62
    4
 10
102.19427594826556
 20
55.166666666666657
 11
100.52760928159887
 21
53.5
  0
LINE
  8
_1-0_躯体
  6
CONTINUOUS
 62
    4
 10
101.25146690668345
 20
55.166666666666657
 11
99.999999999999886
 21
53.915199759983068
  0
LINE
  8
_1-0_躯体
  6
CONTINUOUS
 62
    4
 10
100.30865786510145
 20
55.166666666666657
 11
99.999999999999886
 21
54.85800880156512
  0
ENDBLK
  0
BLOCK
  2
-015-$QLE_1_
 70
   64
 10
0
 20
0
 30
0
  0
LINE
  8
_1-f_寸法
  6
CONTINUOUS
 62
    4
 10
139.99999999999989
 20
53.5
 11
142.99839684279442
 21
48.306624327025929
  0
LINE
  8
_1-f_寸法
  6
CONTINUOUS
 62
    4
 10
142.99839684279442
 20
48.306624327025929
 11
181.71839684279439
 21
48.306624327025929
  0
POINT
  8
_1-f_寸法
 62
    4
 10
139.99999999999989
 20
53.5
  0
TEXT
  8
_1-f_寸法
 62
    4
 10
143.31839684279441
 20
48.306624327025929
 40
3.2000000000000002
 41
1
 50
0
  1
ならしモルタル(別途工事)
  0
ENDBLK
  0
BLOCK
  2
-016-_11_
 70
   64
 10
0
 20
0
 30
0
  0
LINE
  8
_1-8_小物
  6
CONTINUOUS
 62
    4
 10
141.16666666666634
 20
65.166666666666657
 11
137.83333333333314
 21
65.166666666666657
  0
LINE
  8
_1-8_小物
  6
CONTINUOUS
 62
    4
 10
139.49999999999977
 20
59.833333333333314
 11
138.81666666666644
 21
60.227856017279578
  0
LINE
  8
_1-8_小物
  6
CONTINUOUS
 62
    4
 10
139.49999999999977
 20
59.833333333333314
 11
140.18333333333305
 21
60.227856017279578
  0
LINE
  8
_1-8_小物
  6
CONTINUOUS
 62
    4
 10
140.09666666666647
 20
62.902460573114269
 11
140.29999999999984
 21
62.785065859669317
  0
LINE
  8
_1-8_小物
  6
CONTINUOUS
 62
    4
 10
140.29999999999984
 20
62.785065859669317
 11
140.09666666666647
 21
62.667671146224336
  0
LINE
  8
_1-8_小物
  6
CONTINUOUS
 62
    4
 10
138.90333333333302
 20
62.233333333333348
 11
138.69999999999965
 21
62.3507280467783
  0
LINE
  8
_1-8_小物
  6
CONTINUOUS
 62
    4
 10
138.69999999999965
 20
62.3507280467783
 11
138.90333333333302
 21
62.468122760223252
  0
LINE
  8
_1-8_小物
  6
CONTINUOUS
 62
    4
 10
138.90333333333302
 20
62.468122760223252
 11
140.09666666666647
 21
62.902460573114269
  0
LINE
  8
_1-8_小物
  6
CONTINUOUS
 62
    4
 10
138.90333333333302
 20
62.233333333333348
 11
140.09666666666647
 21
62.667671146224336
  0
LINE
  8
_1-8_小物
  6
CONTINUOUS
 62
    4
 10
140.29999999999984
 20
62.785065859669317
 11
138.69999999999965
 21
62.3507280467783
  0
LINE
  8
_1-8_小物
  6
CONTINUOUS
 62
    4
 10
140.09666666666647
 20
63.402460573114269
 11
140.29999999999984
 21
63.285065859669317
  0
LINE
  8
_1-8_小物
  6
CONTINUOUS
 62
    4
 10
140.29999999999984
 20
63.285065859669317
 11
140.09666666666647
 21
63.167671146224336
  0
LINE
  8
_1-8_小物
  6
CONTINUOUS
 62
    4
 10
138.90333333333302
 20
62.733333333333348
 11
138.69999999999965
 21
62.8507280467783
  0
LINE
  8
_1-8_小物
  6
CONTINUOUS
 62
    4
 10
138.69999999999965
 20
62.8507280467783
 11
138.90333333333302
 21
62.968122760223252
  0
LINE
  8
_1-8_小物
  6
CONTINUOUS
 62
    4
 10
138.90333333333302
 20
62.968122760223252
 11
140.09666666666647
 21
63.402460573114269
  0
LINE
  8
_1-8_小物
  6
CONTINUOUS
 62
    4
 10
138.90333333333302
 20
62.733333333333348
 11
140.09666666666647
 21
63.167671146224336
  0
LINE
  8
_1-8_小物
  6
CONTINUOUS
 62
    4
 10
140.29999999999984
 20
63.285065859669317
 11
138.69999999999965
 21
62.8507280467783
  0
LINE
  8
_1-8_小物
  6
CONTINUOUS
 62
    4
 10
140.09666666666647
 20
63.902460573114269
 11
140.29999999999984
 21
63.785065859669317
  0
LINE
  8
_1-8_小物
  6
CONTINUOUS
 62
    4
 10
140.29999999999984
 20
63.785065859669317
 11
140.09666666666647
 21
63.667671146224336
  0
LINE
  8
_1-8_小物
  6
CONTINUOUS
 62
    4
 10
138.90333333333302
 20
63.233333333333348
 11
138.69999999999965
 21
63.3507280467783
  0
LINE
  8
_1-8_小物
  6
CONTINUOUS
 62
    4
 10
138.69999999999965
 20
63.3507280467783
 11
138.90333333333302
 21
63.468122760223252
  0
LINE
  8
_1-8_小物
  6
CONTINUOUS
 62
    4
 10
138.90333333333302
 20
63.468122760223252
 11
140.09666666666647
 21
63.902460573114269
  0
LINE
  8
_1-8_小物
  6
CONTINUOUS
 62
    4
 10
138.90333333333302
 20
63.233333333333348
 11
140.09666666666647
 21
63.667671146224336
  0
LINE
  8
_1-8_小物
  6
CONTINUOUS
 62
    4
 10
140.29999999999984
 20
63.785065859669317
 11
138.69999999999965
 21
63.3507280467783
  0
LINE
  8
_1-8_小物
  6
CONTINUOUS
 62
    4
 10
138.90333333333302
 20
63.733333333333348
 11
138.69999999999965
 21
63.8507280467783
  0
LINE
  8
_1-8_小物
  6
CONTINUOUS
 62
    4
 10
138.69999999999965
 20
63.8507280467783
 11
138.90333333333302
 21
63.968122760223252
  0
LINE
  8
_1-8_小物
  6
CONTINUOUS
 62
    4
 10
138.81666666666644
 20
62.066666666666663
 11
138.81666666666644
 21
60.227856017279578
  0
LINE
  8
_1-8_小物
  6
CONTINUOUS
 62
    4
 10
140.18333333333305
 20
62.066666666666663
 11
138.81666666666644
 21
62.066666666666663
  0
LINE
  8
_1-8_小物
  6
CONTINUOUS
 62
    4
 10
140.18333333333305
 20
62.066666666666663
 11
140.18333333333305
 21
60.227856017279578
  0
LINE
  8
_1-8_小物
  6
CONTINUOUS
 62
    4
 10
138.90333333333302
 20
63.968122760223252
 11
139.17408049111123
 21
64.066666666666663
  0
LINE
  8
_1-8_小物
  6
CONTINUOUS
 62
    4
 10
138.90333333333302
 20
63.733333333333348
 11
139.49999999999977
 21
63.950502239778871
  0
LINE
  8
_1-8_小物
  6
CONTINUOUS
 62
    4
 10
139.49999999999977
 20
64.067896953223823
 11
138.69999999999965
 21
63.8507280467783
  0
LINE
  8
_1-8_小物
  6
CONTINUOUS
 62
    4
 10
138.90333333333302
 20
64.066666666666663
 11
138.90333333333302
 21
63.968122760223252
  0
LINE
  8
_1-8_小物
  6
CONTINUOUS
 62
    4
 10
138.90333333333302
 20
63.733333333333348
 11
138.90333333333302
 21
63.468122760223252
  0
LINE
  8
_1-8_小物
  6
CONTINUOUS
 62
    4
 10
138.90333333333302
 20
63.233333333333348
 11
138.90333333333302
 21
62.968122760223252
  0
LINE
  8
_1-8_小物
  6
CONTINUOUS
 62
    4
 10
138.90333333333302
 20
62.733333333333348
 11
138.90333333333302
 21
62.468122760223252
  0
LINE
  8
_1-8_小物
  6
CONTINUOUS
 62
    4
 10
138.90333333333302
 20
62.233333333333348
 11
138.90333333333302
 21
62.066666666666663
  0
LINE
  8
_1-8_小物
  6
CONTINUOUS
 62
    4
 10
140.09666666666647
 20
64.066666666666663
 11
140.09666666666647
 21
63.902460573114269
  0
LINE
  8
_1-8_小物
  6
CONTINUOUS
 62
    4
 10
140.09666666666647
 20
62.667671146224336
 11
140.09666666666647
 21
62.066666666666663
  0
LINE
  8
_1-8_小物
  6
CONTINUOUS
 62
    4
 10
140.09666666666647
 20
63.167671146224336
 11
140.09666666666647
 21
62.902460573114269
  0
LINE
  8
_1-8_小物
  6
CONTINUOUS
 62
    4
 10
140.09666666666647
 20
63.667671146224336
 11
140.09666666666647
 21
63.402460573114269
  0
LINE
  8
_1-8_小物
  6
CONTINUOUS
 62
    4
 10
140.08333333333314
 20
62.066666666666663
 11
140.08333333333314
 21
60.285591044198554
  0
LINE
  8
_1-8_小物
  6
CONTINUOUS
 62
    4
 10
139.49999999999977
 20
59.948803387171267
 11
140.08333333333314
 21
60.285591044198554
  0
LINE
  8
_1-8_小物
  6
CONTINUOUS
 62
    4
 10
139.49999999999977
 20
59.948803387171267
 11
139.87343643762654
 21
62.066666666666663
  0
LINE
  8
_1-8_小物
  6
CENTER2
 62
    4
 10
139.49999999999977
 20
65.833640386960099
 11
139.49999999999977
 21
59.084349393779831
  0
LINE
  8
_1-8_小物
  6
CONTINUOUS
 62
    4
 10
137.83333333333314
 20
65.166666666666657
 11
137.83333333333314
 21
65.099999999999966
  0
LINE
  8
_1-8_小物
  6
CONTINUOUS
 62
    4
 10
141.16666666666634
 20
65.099999999999966
 11
137.83333333333314
 21
65.099999999999966
  0
LINE
  8
_1-8_小物
  6
CONTINUOUS
 62
    4
 10
141.16666666666634
 20
65.166666666666657
 11
141.16666666666634
 21
65.099999999999966
  0
LINE
  8
_1-8_小物
  6
CONTINUOUS
 62
    4
 10
137.83333333333314
 20
65.099999999999966
 11
138.86666666666656
 21
64.066666666666663
  0
LINE
  8
_1-8_小物
  6
CONTINUOUS
 62
    4
 10
140.13333333333298
 20
64.066666666666663
 11
138.86666666666656
 21
64.066666666666663
  0
LINE
  8
_1-8_小物
  6
CONTINUOUS
 62
    4
 10
141.16666666666634
 20
65.099999999999966
 11
140.13333333333298
 21
64.066666666666663
  0
ENDBLK
  0
BLOCK
  2
-017-_12_
 70
   64
 10
0
 20
0
 30
0
  0
LINE
  8
_1-8_小物
  6
CONTINUOUS
 62
    4
 10
74.99999999419498
 20
75.500000238432364
 11
74.99999999419498
 21
78.833333571765593
  0
LINE
  8
_1-8_小物
  6
CONTINUOUS
 62
    4
 10
69.666666660861495
 20
77.166666905098964
 11
70.061189344807815
 21
77.850000238432273
  0
LINE
  8
_1-8_小物
  6
CONTINUOUS
 62
    4
 10
69.666666660861495
 20
77.166666905098964
 11
70.061189344807815
 21
76.483333571765684
  0
LINE
  8
_1-8_小物
  6
CONTINUOUS
 62
    4
 10
72.735793900642477
 20
76.570000238432272
 11
72.618399187197554
 21
76.366666905098896
  0
LINE
  8
_1-8_小物
  6
CONTINUOUS
 62
    4
 10
72.618399187197554
 20
76.366666905098896
 11
72.50100447375263
 21
76.570000238432272
  0
LINE
  8
_1-8_小物
  6
CONTINUOUS
 62
    4
 10
72.066666660861586
 20
77.763333571765685
 11
72.184061374306509
 21
77.966666905099061
  0
LINE
  8
_1-8_小物
  6
CONTINUOUS
 62
    4
 10
72.184061374306509
 20
77.966666905099061
 11
72.301456087751433
 21
77.763333571765685
  0
LINE
  8
_1-8_小物
  6
CONTINUOUS
 62
    4
 10
72.301456087751433
 20
77.763333571765685
 11
72.735793900642477
 21
76.570000238432272
  0
LINE
  8
_1-8_小物
  6
CONTINUOUS
 62
    4
 10
72.066666660861586
 20
77.763333571765685
 11
72.50100447375263
 21
76.570000238432272
  0
LINE
  8
_1-8_小物
  6
CONTINUOUS
 62
    4
 10
72.618399187197554
 20
76.366666905098896
 11
72.184061374306509
 21
77.966666905099061
  0
LINE
  8
_1-8_小物
  6
CONTINUOUS
 62
    4
 10
73.235793900642477
 20
76.570000238432272
 11
73.118399187197554
 21
76.366666905098896
  0
LINE
  8
_1-8_小物
  6
CONTINUOUS
 62
    4
 10
73.118399187197554
 20
76.366666905098896
 11
73.00100447375263
 21
76.570000238432272
  0
LINE
  8
_1-8_小物
  6
CONTINUOUS
 62
    4
 10
72.566666660861586
 20
77.763333571765685
 11
72.684061374306509
 21
77.966666905099061
  0
LINE
  8
_1-8_小物
  6
CONTINUOUS
 62
    4
 10
72.684061374306509
 20
77.966666905099061
 11
72.801456087751433
 21
77.763333571765685
  0
LINE
  8
_1-8_小物
  6
CONTINUOUS
 62
    4
 10
72.801456087751433
 20
77.763333571765685
 11
73.235793900642477
 21
76.570000238432272
  0
LINE
  8
_1-8_小物
  6
CONTINUOUS
 62
    4
 10
72.566666660861586
 20
77.763333571765685
 11
73.00100447375263
 21
76.570000238432272
  0
LINE
  8
_1-8_小物
  6
CONTINUOUS
 62
    4
 10
73.118399187197554
 20
76.366666905098896
 11
72.684061374306509
 21
77.966666905099061
  0
LINE
  8
_1-8_小物
  6
CONTINUOUS
 62
    4
 10
73.735793900642477
 20
76.570000238432272
 11
73.618399187197554
 21
76.366666905098896
  0
LINE
  8
_1-8_小物
  6
CONTINUOUS
 62
    4
 10
73.618399187197554
 20
76.366666905098896
 11
73.50100447375263
 21
76.570000238432272
  0
LINE
  8
_1-8_小物
  6
CONTINUOUS
 62
    4
 10
73.066666660861586
 20
77.763333571765685
 11
73.184061374306509
 21
77.966666905099061
  0
LINE
  8
_1-8_小物
  6
CONTINUOUS
 62
    4
 10
73.184061374306509
 20
77.966666905099061
 11
73.301456087751433
 21
77.763333571765685
  0
LINE
  8
_1-8_小物
  6
CONTINUOUS
 62
    4
 10
73.301456087751433
 20
77.763333571765685
 11
73.735793900642477
 21
76.570000238432272
  0
LINE
  8
_1-8_小物
  6
CONTINUOUS
 62
    4
 10
73.066666660861586
 20
77.763333571765685
 11
73.50100447375263
 21
76.570000238432272
  0
LINE
  8
_1-8_小物
  6
CONTINUOUS
 62
    4
 10
73.618399187197554
 20
76.366666905098896
 11
73.184061374306509
 21
77.966666905099061
  0
LINE
  8
_1-8_小物
  6
CONTINUOUS
 62
    4
 10
73.566666660861586
 20
77.763333571765685
 11
73.684061374306509
 21
77.966666905099061
  0
LINE
  8
_1-8_小物
  6
CONTINUOUS
 62
    4
 10
73.684061374306509
 20
77.966666905099061
 11
73.801456087751433
 21
77.763333571765685
  0
LINE
  8
_1-8_小物
  6
CONTINUOUS
 62
    4
 10
71.899999994194843
 20
77.850000238432273
 11
70.061189344807815
 21
77.850000238432273
  0
LINE
  8
_1-8_小物
  6
CONTINUOUS
 62
    4
 10
71.899999994194843
 20
76.483333571765684
 11
71.899999994194843
 21
77.850000238432273
  0
LINE
  8
_1-8_小物
  6
CONTINUOUS
 62
    4
 10
71.899999994194843
 20
76.483333571765684
 11
70.061189344807815
 21
76.483333571765684
  0
LINE
  8
_1-8_小物
  6
CONTINUOUS
 62
    4
 10
73.801456087751433
 20
77.763333571765685
 11
73.899999994194843
 21
77.49258641398751
  0
LINE
  8
_1-8_小物
  6
CONTINUOUS
 62
    4
 10
73.566666660861586
 20
77.763333571765685
 11
73.783835567307108
 21
77.166666905098964
  0
LINE
  8
_1-8_小物
  6
CONTINUOUS
 62
    4
 10
73.901230280752145
 20
77.166666905098964
 11
73.684061374306509
 21
77.966666905099061
  0
LINE
  8
_1-8_小物
  6
CONTINUOUS
 62
    4
 10
73.899999994194843
 20
77.763333571765685
 11
73.801456087751433
 21
77.763333571765685
  0
LINE
  8
_1-8_小物
  6
CONTINUOUS
 62
    4
 10
73.566666660861586
 20
77.763333571765685
 11
73.301456087751433
 21
77.763333571765685
  0
LINE
  8
_1-8_小物
  6
CONTINUOUS
 62
    4
 10
73.066666660861586
 20
77.763333571765685
 11
72.801456087751433
 21
77.763333571765685
  0
LINE
  8
_1-8_小物
  6
CONTINUOUS
 62
    4
 10
72.566666660861586
 20
77.763333571765685
 11
72.301456087751433
 21
77.763333571765685
  0
LINE
  8
_1-8_小物
  6
CONTINUOUS
 62
    4
 10
72.066666660861586
 20
77.763333571765685
 11
71.899999994194843
 21
77.763333571765685
  0
LINE
  8
_1-8_小物
  6
CONTINUOUS
 62
    4
 10
73.899999994194843
 20
76.570000238432272
 11
73.735793900642477
 21
76.570000238432272
  0
LINE
  8
_1-8_小物
  6
CONTINUOUS
 62
    4
 10
72.50100447375263
 20
76.570000238432272
 11
71.899999994194843
 21
76.570000238432272
  0
LINE
  8
_1-8_小物
  6
CONTINUOUS
 62
    4
 10
73.00100447375263
 20
76.570000238432272
 11
72.735793900642477
 21
76.570000238432272
  0
LINE
  8
_1-8_小物
  6
CONTINUOUS
 62
    4
 10
73.50100447375263
 20
76.570000238432272
 11
73.235793900642477
 21
76.570000238432272
  0
LINE
  8
_1-8_小物
  6
CONTINUOUS
 62
    4
 10
71.899999994194843
 20
76.583333571765593
 11
70.118924371726791
 21
76.583333571765593
  0
LINE
  8
_1-8_小物
  6
CONTINUOUS
 62
    4
 10
69.782136714699448
 20
77.166666905098964
 11
70.118924371726791
 21
76.583333571765593
  0
LINE
  8
_1-8_小物
  6
CONTINUOUS
 62
    4
 10
69.782136714699448
 20
77.166666905098964
 11
71.899999994194843
 21
76.793230467472199
  0
LINE
  8
_1-8_小物
  6
CENTER2
 62
    4
 10
75.666973714488279
 20
77.166666905098964
 11
68.91768272130804
 21
77.166666905098964
  0
LINE
  8
_1-8_小物
  6
CONTINUOUS
 62
    4
 10
74.99999999419498
 20
78.833333571765593
 11
74.933333327528146
 21
78.833333571765593
  0
LINE
  8
_1-8_小物
  6
CONTINUOUS
 62
    4
 10
74.933333327528146
 20
75.500000238432364
 11
74.933333327528146
 21
78.833333571765593
  0
LINE
  8
_1-8_小物
  6
CONTINUOUS
 62
    4
 10
74.99999999419498
 20
75.500000238432364
 11
74.933333327528146
 21
75.500000238432364
  0
LINE
  8
_1-8_小物
  6
CONTINUOUS
 62
    4
 10
74.933333327528146
 20
78.833333571765593
 11
73.899999994194843
 21
77.800000238432176
  0
LINE
  8
_1-8_小物
  6
CONTINUOUS
 62
    4
 10
73.899999994194843
 20
76.533333571765752
 11
73.899999994194843
 21
77.800000238432176
  0
LINE
  8
_1-8_小物
  6
CONTINUOUS
 62
    4
 10
74.933333327528146
 20
75.500000238432364
 11
73.899999994194843
 21
76.533333571765752
  0
ENDBLK
  0
BLOCK
  2
-018-_13_
 70
   64
 10
0
 20
0
 30
0
  0
LINE
  8
_1-8_小物
  6
CONTINUOUS
 62
    4
 10
72.366666235890762
 20
62.099999534036385
 11
72.366666235890762
 21
60.433333534036308
  0
LINE
  8
_1-8_小物
  6
CONTINUOUS
 62
    4
 10
72.366666235890762
 20
60.433333534036308
 11
72.866666235890534
 21
60.433333534036308
  0
LINE
  8
_1-8_小物
  6
CONTINUOUS
 62
    4
 10
73.866666235890762
 20
60.433333534036308
 11
74.366666235890762
 21
60.433333534036308
  0
LINE
  8
_1-8_小物
  6
CONTINUOUS
 62
    4
 10
74.366666235890762
 20
60.433333534036308
 11
74.366666235890762
 21
62.099999534036385
  0
ARC
  8
_1-8_小物
  6
CONTINUOUS
 62
    4
 10
73.366666235890648
 20
62.099999534036385
 40
0.566667
 50
0
 51
180
  0
ARC
  8
_1-8_小物
  6
CONTINUOUS
 62
    4
 10
73.366666235890648
 20
62.099999534036385
 40
1
 50
0
 51
180
  0
LINE
  8
_1-8_小物
  6
CONTINUOUS
 62
    4
 10
73.86666423589088
 20
61.099999534036328
 11
73.785383235890663
 21
61.099999534036328
  0
ARC
  8
_1-8_小物
  6
CONTINUOUS
 62
    4
 10
73.785383235890663
 20
61.033333534036387
 40
0.066667
 50
90
 51
194.03640200004617
  0
LINE
  8
_1-8_小物
  6
CONTINUOUS
 62
    4
 10
73.866666235890762
 20
60.433333534036308
 11
73.720707235890586
 21
61.017164534036397
  0
LINE
  8
_1-8_小物
  6
CONTINUOUS
 62
    4
 10
72.866666235890534
 20
61.099999534036328
 11
72.947948235890635
 21
61.099999534036328
  0
ARC
  8
_1-8_小物
  6
CONTINUOUS
 62
    4
 10
72.947948235890635
 20
61.033333534036387
 40
0.066667
 50
345.96380799997621
 51
90
  0
LINE
  8
_1-8_小物
  6
CONTINUOUS
 62
    4
 10
72.866667235890645
 20
60.433333534036308
 11
73.012624235890826
 21
61.017164534036397
  0
LINE
  8
_1-8_小物
  6
CONTINUOUS
 62
    4
 10
73.86666423589088
 20
61.099999534036328
 11
73.933331235890591
 21
61.099999534036328
  0
LINE
  8
_1-8_小物
  6
CONTINUOUS
 62
    4
 10
73.933331235890591
 20
61.099999534036328
 11
73.933333235890586
 21
62.099999534036385
  0
LINE
  8
_1-8_小物
  6
CONTINUOUS
 62
    4
 10
72.866667235890645
 20
61.099999534036328
 11
72.799999235890709
 21
61.099999534036328
  0
LINE
  8
_1-8_小物
  6
CONTINUOUS
 62
    4
 10
72.799999235890709
 20
61.099999534036328
 11
72.799999235890709
 21
62.099999534036385
  0
ENDBLK
  0
BLOCK
  2
-019-_14_
 70
   64
 10
0
 20
0
 30
0
  0
LINE
  8
_1-4_フレ__ム
  6
CONTINUOUS
 62
    4
 10
73.866666836798458
 20
61.100000200598117
 11
73.700000170132
 21
61.100000200598117
  0
LINE
  8
_1-4_フレ__ム
  6
CONTINUOUS
 62
    4
 10
73.866666836798458
 20
62.100000200597975
 11
73.866666836798458
 21
61.100000200598117
  0
LINE
  8
_1-4_フレ__ム
  6
CONTINUOUS
 62
    4
 10
73.700000170132
 20
61.100000200598117
 11
73.866666420132844
 21
60.433333533931432
  0
LINE
  8
_1-4_フレ__ム
  6
CONTINUOUS
 62
    4
 10
72.866667278217733
 20
61.100000200598117
 11
73.033333944884248
 21
61.100000200598117
  0
LINE
  8
_1-4_フレ__ム
  6
CONTINUOUS
 62
    4
 10
72.866667278217733
 20
62.100000200597975
 11
72.866667278217733
 21
61.100000200598117
  0
LINE
  8
_1-4_フレ__ム
  6
CONTINUOUS
 62
    4
 10
73.033333944884248
 20
61.100000200598117
 11
72.866667694883347
 21
60.433333533931432
  0
ARC
  8
_1-4_フレ__ム
  6
CONTINUOUS
 62
    4
 10
73.366667057507925
 20
62.100000200597975
 40
0.4999997792903532
 50
0
 51
180
  0
LINE
  8
_1-4_フレ__ム
  6
CONTINUOUS
 62
    4
 10
73.899999997124837
 20
74.333333571661001
 11
73.899999924568419
 21
75.166666867264695
  0
LINE
  8
_1-4_フレ__ム
  6
CONTINUOUS
 62
    4
 10
73.899999924568419
 20
75.166666867264695
 11
67.599998485042761
 21
75.166666318735935
  0
LINE
  8
_1-4_フレ__ム
  6
CONTINUOUS
 62
    4
 10
74.49999998841804
 20
74.333333571661001
 11
73.899999997124837
 21
74.333333571661001
  0
LINE
  8
_1-4_フレ__ム
  6
CONTINUOUS
 62
    4
 10
73.899999997124837
 20
79.266666780196744
 11
73.899999997124837
 21
80.800000238327698
  0
LINE
  8
_1-4_フレ__ム
  6
CONTINUOUS
 62
    4
 10
72.899999997125008
 20
79.266666780196744
 11
73.899999997124837
 21
79.266666780196744
  0
LINE
  8
_1-4_フレ__ム
  6
CONTINUOUS
 62
    4
 10
74.49999999712503
 20
78.666666780196607
 11
73.499999997124974
 21
78.666666780196607
  0
LINE
  8
_1-4_フレ__ム
  6
CENTER2
 62
    4
 10
72.583333330458004
 20
77.16666684985114
 11
74.316666663791409
 21
77.16666684985114
  0
LINE
  8
_1-4_フレ__ム
  6
CONTINUOUS
 62
    4
 10
73.399999997124723
 20
77.16666684985114
 11
73.499999997124974
 21
77.066666849851231
  0
LINE
  8
_1-4_フレ__ム
  6
CONTINUOUS
 62
    4
 10
73.499999997124974
 20
78.666666780196607
 11
73.499999997124974
 21
77.266666849851191
  0
LINE
  8
_1-4_フレ__ム
  6
CONTINUOUS
 62
    4
 10
73.499999997124974
 20
77.266666849851191
 11
73.399999997124723
 21
77.16666684985114
  0
LINE
  8
_1-4_フレ__ム
  6
CONTINUOUS
 62
    4
 10
73.899999924568419
 20
75.166666867264695
 11
67.599998493749581
 21
75.166666318735849
  0
LINE
  8
_1-4_フレ__ム
  6
CONTINUOUS
 62
    4
 10
73.066666663791523
 20
81.333333571660916
 11
74.166666663791432
 21
81.333333571660916
  0
ARC
  8
_1-4_フレ__ム
  6
CONTINUOUS
 62
    4
 10
73.066666663791523
 20
81.166666904994173
 40
0.1666666666666666
 50
90
 51
180
  0
LINE
  8
_1-4_フレ__ム
  6
CONTINUOUS
 62
    4
 10
72.899999997125008
 20
80.800000238327698
 11
72.899999997125008
 21
81.166666904994173
  0
LINE
  8
_1-4_フレ__ム
  6
CONTINUOUS
 62
    4
 10
73.899999997124837
 20
80.800000238327698
 11
72.899999997125008
 21
80.800000238327698
  0
ARC
  8
_1-4_フレ__ム
  6
CONTINUOUS
 62
    4
 10
74.166666663791432
 20
81.000000238327459
 40
0.3333333333333333
 50
0
 51
90
  0
LINE
  8
_1-4_フレ__ム
  6
CONTINUOUS
 62
    4
 10
74.499999997124746
 20
81.000000238327516
 11
74.49999999712503
 21
78.666666780196607
  0
LINE
  8
_1-4_フレ__ム
  6
CONTINUOUS
 62
    4
 10
74.49999998841804
 20
75.666666666561724
 11
74.49999998841804
 21
74.333333571661001
  0
LINE
  8
_1-4_フレ__ム
  6
CONTINUOUS
 62
    4
 10
73.499999997124974
 20
77.066666849851231
 11
73.499999997124974
 21
75.666666666561724
  0
LINE
  8
_1-4_フレ__ム
  6
CONTINUOUS
 62
    4
 10
72.899999997125008
 20
75.666666666561724
 11
72.899999997125008
 21
79.266666780196744
  0
LINE
  8
_1-4_フレ__ム
  6
CONTINUOUS
 62
    4
 10
66.999999997124746
 20
75.666666666561724
 11
72.899999997125008
 21
75.666666666561724
  0
LINE
  8
_1-4_フレ__ム
  6
CONTINUOUS
 62
    4
 10
73.499999997124974
 20
75.666666666561724
 11
74.49999998841804
 21
75.666666666561724
  0
LINE
  8
_1-4_フレ__ム
  6
CONTINUOUS
 62
    4
 10
72.200000390841581
 20
58.666666768785859
 11
68.266666463534762
 21
58.666666524995605
  0
ARC
  8
_1-4_フレ__ム
  6
CONTINUOUS
 62
    4
 10
68.266666463534762
 20
59.333333191662234
 40
0.6666666666666666
 50
180.00000498863233
 51
270
  0
ARC
  8
_1-4_フレ__ム
  6
CONTINUOUS
 62
    4
 10
72.200000390841581
 20
59.333333435452573
 40
0.6666666666666666
 50
270
 51
0
  0
LINE
  8
_1-4_フレ__ム
  6
CONTINUOUS
 62
    4
 10
72.866667057508266
 20
59.333333435452573
 11
72.866667057508266
 21
60.433333533931432
  0
LINE
  8
_1-4_フレ__ム
  6
CONTINUOUS
 62
    4
 10
73.866667057508096
 20
57.833333333228381
 11
73.866667057508096
 21
60.433333533931432
  0
LINE
  8
_1-4_フレ__ム
  6
CONTINUOUS
 62
    4
 10
67.000000002929255
 20
57.833333333228381
 11
73.866667057508096
 21
57.833333333228381
  0
LINE
  8
_1-4_フレ__ム
  6
CONTINUOUS
 62
    4
 10
67.000000002929255
 20
57.833333333228381
 11
66.999999997124746
 21
75.666666666561724
  0
LINE
  8
_1-4_フレ__ム
  6
CONTINUOUS
 62
    4
 10
67.599998937796386
 20
66.733333774375296
 11
67.499999378943414
 21
66.833333333228381
  0
LINE
  8
_1-4_フレ__ム
  6
CONTINUOUS
 62
    4
 10
67.499999378943414
 20
66.833333333228381
 11
67.599999393450958
 21
66.933333347735982
  0
LINE
  8
_1-4_フレ__ム
  6
CENTER2
 62
    4
 10
66.683332712276751
 20
66.833333333228381
 11
68.416666045610157
 21
66.833333333228381
  0
LINE
  8
_1-4_フレ__ム
  6
CONTINUOUS
 62
    4
 10
67.599999796868133
 20
59.333333133616861
 11
67.599999172573746
 21
66.733333774375325
  0
LINE
  8
_1-4_フレ__ム
  6
CONTINUOUS
 62
    4
 10
67.599999210609781
 20
66.933333347735953
 11
67.599998493749581
 21
75.166666318735849
  0
ENDBLK
  0
BLOCK
  2
-020-_15_
 70
   64
 10
0
 20
0
 30
0
  0
LINE
  8
_1-8_小物
  6
CONTINUOUS
 62
    4
 10
55.073391666667021
 20
65.030574999998208
 11
54.407638333333693
 21
64.995684999998645
  0
LINE
  8
_1-8_小物
  6
CONTINUOUS
 62
    4
 10
56.072021666666956
 20
65.082911666665183
 11
55.70425500000033
 21
65.731218333331782
  0
LINE
  8
_1-8_小物
  6
CONTINUOUS
 62
    4
 10
55.70425500000033
 20
65.731218333331782
 11
55.038501666667003
 21
65.696328333331564
  0
LINE
  8
_1-8_小物
  6
CONTINUOUS
 62
    4
 10
55.038501666667003
 20
65.696328333331564
 11
55.073391666667021
 21
65.030574999998208
  0
LINE
  8
_1-8_小物
  6
CONTINUOUS
 62
    4
 10
56.737775000000397
 20
65.117801666665088
 11
56.072021666666956
 21
65.082911666665183
  0
LINE
  8
_1-8_小物
  6
CONTINUOUS
 62
    4
 10
57.736403333333783
 20
65.170138333331721
 11
57.368636666666816
 21
65.818444999998661
  0
LINE
  8
_1-8_小物
  6
CONTINUOUS
 62
    4
 10
57.368636666666816
 20
65.818444999998661
 11
56.702883333333716
 21
65.783554999998415
  0
LINE
  8
_1-8_小物
  6
CONTINUOUS
 62
    4
 10
56.702883333333716
 20
65.783554999998415
 11
56.737775000000397
 21
65.117801666665088
  0
LINE
  8
_1-8_小物
  6
CONTINUOUS
 62
    4
 10
58.402156666667111
 20
65.205028333331882
 11
57.736403333333783
 21
65.170138333331721
  0
LINE
  8
_1-8_小物
  6
CONTINUOUS
 62
    4
 10
59.400786666666818
 20
65.257364999998259
 11
59.03302000000042
 21
65.905671666664858
  0
LINE
  8
_1-8_小物
  6
CONTINUOUS
 62
    4
 10
59.03302000000042
 20
65.905671666664858
 11
58.367266666667092
 21
65.870781666665295
  0
LINE
  8
_1-8_小物
  6
CONTINUOUS
 62
    4
 10
58.367266666667092
 20
65.870781666665295
 11
58.402156666667111
 21
65.205028333331882
  0
LINE
  8
_1-8_小物
  6
CONTINUOUS
 62
    4
 10
60.066540000000373
 20
65.29225499999842
 11
59.400786666666818
 21
65.257364999998259
  0
LINE
  8
_1-8_小物
  6
CONTINUOUS
 62
    4
 10
61.065170000000421
 20
65.344591666665053
 11
60.69740166666702
 21
65.992898333331738
  0
LINE
  8
_1-8_小物
  6
CONTINUOUS
 62
    4
 10
60.69740166666702
 20
65.992898333331738
 11
60.031648333333692
 21
65.958008333331833
  0
LINE
  8
_1-8_小物
  6
CONTINUOUS
 62
    4
 10
60.031648333333692
 20
65.958008333331833
 11
60.066540000000373
 21
65.29225499999842
  0
LINE
  8
_1-8_小物
  6
CONTINUOUS
 62
    4
 10
61.730921666666973
 20
65.379481666664958
 11
61.065170000000421
 21
65.344591666665053
  0
LINE
  8
_1-8_小物
  6
CONTINUOUS
 62
    4
 10
62.361785000000282
 20
66.080124999998532
 11
61.696031666666954
 21
66.045234999998371
  0
LINE
  8
_1-8_小物
  6
CONTINUOUS
 62
    4
 10
61.696031666666954
 20
66.045234999998371
 11
61.730921666666973
 21
65.379481666664958
  0
LINE
  8
_1-8_小物
  6
CONTINUOUS
 62
    4
 10
62.666666666667084
 20
65.499999999998437
 11
62.361785000000282
 21
66.080124999998532
  0
LINE
  8
_1-8_小物
  6
CONTINUOUS
 62
    4
 10
55.073391666667021
 20
68.636091666665067
 11
54.407638333333693
 21
68.670981666664971
  0
LINE
  8
_1-8_小物
  6
CONTINUOUS
 62
    4
 10
56.072021666666956
 20
68.583754999998433
 11
55.70425500000033
 21
67.935448333331749
  0
LINE
  8
_1-8_小物
  6
CONTINUOUS
 62
    4
 10
55.70425500000033
 20
67.935448333331749
 11
55.038501666667003
 21
67.970338333331966
  0
LINE
  8
_1-8_小物
  6
CONTINUOUS
 62
    4
 10
55.038501666667003
 20
67.970338333331966
 11
55.073391666667021
 21
68.636091666665067
  0
LINE
  8
_1-8_小物
  6
CONTINUOUS
 62
    4
 10
56.737775000000397
 20
68.548864999998187
 11
56.072021666666956
 21
68.583754999998433
  0
LINE
  8
_1-8_小物
  6
CONTINUOUS
 62
    4
 10
57.736403333333783
 20
68.496528333331895
 11
57.368636666666816
 21
67.848221666665211
  0
LINE
  8
_1-8_小物
  6
CONTINUOUS
 62
    4
 10
57.368636666666816
 20
67.848221666665211
 11
56.702883333333716
 21
67.88311166666486
  0
LINE
  8
_1-8_小物
  6
CONTINUOUS
 62
    4
 10
56.702883333333716
 20
67.88311166666486
 11
56.737775000000397
 21
68.548864999998187
  0
LINE
  8
_1-8_小物
  6
CONTINUOUS
 62
    4
 10
58.402156666667111
 20
68.46163833333199
 11
57.736403333333783
 21
68.496528333331895
  0
LINE
  8
_1-8_小物
  6
CONTINUOUS
 62
    4
 10
59.400786666666818
 20
68.409301666665357
 11
59.03302000000042
 21
67.760994999998417
  0
LINE
  8
_1-8_小物
  6
CONTINUOUS
 62
    4
 10
59.03302000000042
 20
67.760994999998417
 11
58.367266666667092
 21
67.795884999998322
  0
LINE
  8
_1-8_小物
  6
CONTINUOUS
 62
    4
 10
58.367266666667092
 20
67.795884999998322
 11
58.402156666667111
 21
68.46163833333199
  0
LINE
  8
_1-8_小物
  6
CONTINUOUS
 62
    4
 10
60.066540000000373
 20
68.374411666665111
 11
59.400786666666818
 21
68.409301666665357
  0
LINE
  8
_1-8_小物
  6
CONTINUOUS
 62
    4
 10
61.065170000000421
 20
68.322074999998165
 11
60.69740166666702
 21
67.673768333331537
  0
LINE
  8
_1-8_小物
  6
CONTINUOUS
 62
    4
 10
60.69740166666702
 20
67.673768333331537
 11
60.031648333333692
 21
67.708658333331783
  0
LINE
  8
_1-8_小物
  6
CONTINUOUS
 62
    4
 10
60.031648333333692
 20
67.708658333331783
 11
60.066540000000373
 21
68.374411666665111
  0
LINE
  8
_1-8_小物
  6
CONTINUOUS
 62
    4
 10
61.730921666666973
 20
68.287184999998573
 11
61.065170000000421
 21
68.322074999998165
  0
LINE
  8
_1-8_小物
  6
CONTINUOUS
 62
    4
 10
62.361785000000282
 20
67.586541666664999
 11
61.696031666666954
 21
67.621431666665245
  0
LINE
  8
_1-8_小物
  6
CONTINUOUS
 62
    4
 10
61.696031666666954
 20
67.621431666665245
 11
61.730921666666973
 21
68.287184999998573
  0
LINE
  8
_1-8_小物
  6
CONTINUOUS
 62
    4
 10
54.686435000000301
 20
66.853101666665026
 11
55.258325000000355
 21
66.208534999998534
  0
LINE
  8
_1-8_小物
  6
CONTINUOUS
 62
    4
 10
55.289813333333768
 20
67.456481666665184
 11
54.66666666666697
 21
66.833333333331467
  0
LINE
  8
_1-8_小物
  6
CONTINUOUS
 62
    4
 10
62.666666666667084
 20
68.166666666664838
 11
62.361785000000282
 21
67.586541666664999
  0
LINE
  8
_1-8_小物
  6
CONTINUOUS
 62
    4
 10
60.066540000000373
 20
65.29225499999842
 11
61.619200000000205
 21
64.727133333331892
  0
LINE
  8
_1-8_小物
  6
CONTINUOUS
 62
    4
 10
60.066540000000373
 20
65.646981666664885
 11
61.733206666667002
 21
65.040363333331641
  0
LINE
  8
_1-8_小物
  6
CONTINUOUS
 62
    4
 10
60.066540000000373
 20
68.374411666665111
 11
61.619200000000205
 21
68.939533333331639
  0
LINE
  8
_1-8_小物
  6
CONTINUOUS
 62
    4
 10
60.066540000000373
 20
68.019684999998645
 11
61.733206666667002
 21
68.62630333333189
  0
LINE
  8
_1-8_小物
  6
CONTINUOUS
 62
    4
 10
54.346580000000245
 20
66.160751666665107
 11
54.407638333333693
 21
64.995684999998645
  0
LINE
  8
_1-8_小物
  6
CONTINUOUS
 62
    4
 10
54.407638333333693
 20
64.995684999998645
 11
53.706995000000461
 21
65.626546666665178
  0
LINE
  8
_1-8_小物
  6
CONTINUOUS
 62
    4
 10
53.706995000000461
 20
65.626546666665178
 11
53.680826666666917
 21
66.125861666664861
  0
LINE
  8
_1-8_小物
  6
CONTINUOUS
 62
    4
 10
53.680826666666917
 20
66.125861666664861
 11
64.000000000000227
 21
66.666666666664838
  0
LINE
  8
_1-8_小物
  6
CONTINUOUS
 62
    4
 10
62.666666666667084
 20
65.499999999998437
 11
64.000000000000227
 21
65.499999999998437
  0
LINE
  8
_1-8_小物
  6
CONTINUOUS
 62
    4
 10
54.346580000000245
 20
67.50591499999851
 11
54.407638333333693
 21
68.670981666664971
  0
LINE
  8
_1-8_小物
  6
CONTINUOUS
 62
    4
 10
54.407638333333693
 20
68.670981666664971
 11
53.706995000000461
 21
68.040119999998439
  0
LINE
  8
_1-8_小物
  6
CONTINUOUS
 62
    4
 10
53.706995000000461
 20
68.040119999998439
 11
53.680826666666917
 21
67.540804999998414
  0
LINE
  8
_1-8_小物
  6
CONTINUOUS
 62
    4
 10
53.680826666666917
 20
67.540804999998414
 11
64.000000000000227
 21
66.999999999998437
  0
LINE
  8
_1-8_小物
  6
CONTINUOUS
 62
    4
 10
62.666666666667084
 20
68.166666666664838
 11
64.000000000000227
 21
68.166666666664838
  0
LINE
  8
_1-8_小物
  6
CONTINUOUS
 62
    4
 10
61.619200000000205
 20
68.939533333331639
 11
63.887073333333888
 21
69.270318333331744
  0
ARC
  8
_1-8_小物
  6
CONTINUOUS
 62
    4
 10
63.906318333333729
 20
69.138381666665083
 40
0.1333333333333333
 50
8.1301019999555333
 51
98.298466000035219
  0
LINE
  8
_1-8_小物
  6
CONTINUOUS
 62
    4
 10
64.038311666667028
 20
69.157238333332003
 11
64.047683333333794
 21
69.091629999998332
  0
ARC
  8
_1-8_小物
  6
CONTINUOUS
 62
    4
 10
63.915690000000382
 20
69.07277333333144
 40
0.1333333333333333
 50
278.13010200004015
 51
8.130102000228419
  0
LINE
  8
_1-8_小物
  6
CONTINUOUS
 62
    4
 10
63.934546666666961
 20
68.940779999998341
 11
61.733206666667002
 21
68.62630333333189
  0
LINE
  8
_1-8_小物
  6
CONTINUOUS
 62
    4
 10
61.619200000000205
 20
64.727133333331892
 11
63.887073333333888
 21
64.396348333331787
  0
ARC
  8
_1-8_小物
  6
CONTINUOUS
 62
    4
 10
63.906318333333729
 20
64.528284999998448
 40
0.1333333333333333
 50
261.70153399996303
 51
351.86989800004449
  0
LINE
  8
_1-8_小物
  6
CONTINUOUS
 62
    4
 10
64.038311666667028
 20
64.509429999998503
 11
64.047683333333794
 21
64.575036666665198
  0
ARC
  8
_1-8_小物
  6
CONTINUOUS
 62
    4
 10
63.915690000000382
 20
64.593893333331522
 40
0.1333333333333333
 50
351.86989800004449
 51
81.86989800000822
  0
LINE
  8
_1-8_小物
  6
CONTINUOUS
 62
    4
 10
63.934546666666961
 20
64.72588666666519
 11
61.733206666667002
 21
65.040363333331641
  0
LINE
  8
_1-8_小物
  6
CONTINUOUS
 62
    4
 10
61.619200000000205
 20
64.727133333331892
 11
63.887073333333888
 21
64.396348333331787
  0
ARC
  8
_1-8_小物
  6
CONTINUOUS
 62
    4
 10
63.906318333333729
 20
64.528284999998448
 40
0.1333333333333333
 50
261.70153399996303
 51
351.86989800004449
  0
LINE
  8
_1-8_小物
  6
CONTINUOUS
 62
    4
 10
64.038311666667028
 20
64.509429999998503
 11
64.047683333333794
 21
64.575036666665198
  0
ARC
  8
_1-8_小物
  6
CONTINUOUS
 62
    4
 10
63.915690000000382
 20
64.593893333331522
 40
0.1333333333333333
 50
351.86989800004449
 51
81.86989800000822
  0
LINE
  8
_1-8_小物
  6
CONTINUOUS
 62
    4
 10
63.934546666666961
 20
64.72588666666519
 11
61.733206666667002
 21
65.040363333331641
  0
LINE
  8
_1-8_小物
  6
CONTINUOUS
 62
    4
 10
66.666666666667084
 20
65.166666666664838
 11
65.000000000000455
 21
65.499999999998437
  0
LINE
  8
_1-8_小物
  6
CONTINUOUS
 62
    4
 10
66.666666666667084
 20
65.499999999998437
 11
64.000000000000227
 21
65.499999999998437
  0
LINE
  8
_1-8_小物
  6
CONTINUOUS
 62
    4
 10
64.000000000000227
 20
66.666666666664838
 11
64.000000000000227
 21
66.833333333331467
  0
LINE
  8
_1-8_小物
  6
CONTINUOUS
 62
    4
 10
65.000000000000455
 20
66.833333333331467
 11
66.666666666667084
 21
66.833333333331467
  0
LINE
  8
_1-8_小物
  6
CONTINUOUS
 62
    4
 10
66.666666666667084
 20
66.499999999998437
 11
65.000000000000455
 21
66.833333333331467
  0
LINE
  8
_1-8_小物
  6
CONTINUOUS
 62
    4
 10
66.666666666667084
 20
67.166666666665094
 11
65.000000000000455
 21
66.833333333331467
  0
LINE
  8
_1-8_小物
  6
CONTINUOUS
 62
    4
 10
66.666666666667084
 20
68.499999999998124
 11
65.000000000000455
 21
68.166666666664838
  0
LINE
  8
_1-8_小物
  6
CONTINUOUS
 62
    4
 10
66.666666666667084
 20
68.166666666664838
 11
64.000000000000227
 21
68.166666666664838
  0
LINE
  8
_1-8_小物
  6
CONTINUOUS
 62
    4
 10
64.000000000000227
 20
66.999999999998437
 11
64.000000000000227
 21
66.833333333331467
  0
LINE
  8
_1-8_小物
  6
CONTINUOUS
 62
    4
 10
66.666666666667084
 20
65.166666666664838
 11
66.666666666667084
 21
68.499999999998124
  0
ENDBLK
  0
BLOCK
  2
-021-_16_
 70
   64
 10
0
 20
0
 30
0
  0
LINE
  8
_1-8_小物
  6
CONTINUOUS
 62
    4
 10
68.099999162694417
 20
63.833333561158554
 11
68.099999162694417
 21
69.833333561158867
  0
LINE
  8
_1-8_小物
  6
CONTINUOUS
 62
    4
 10
67.599999162694417
 20
63.833333561158554
 11
67.599999162694417
 21
69.833333561158867
  0
LINE
  8
_1-8_小物
  6
CONTINUOUS
 62
    4
 10
68.099999162694417
 20
63.833333561158554
 11
67.599999162694417
 21
63.833333561158554
  0
LINE
  8
_1-8_小物
  6
CONTINUOUS
 62
    4
 10
68.099999162694417
 20
69.833333561158867
 11
67.599999162694417
 21
69.833333561158867
  0
LINE
  8
_1-8_小物
  6
CONTINUOUS
 62
    4
 10
68.099999162694417
 20
65.916666894491897
 11
67.599999162694417
 21
65.916666894491897
  0
LINE
  8
_1-8_小物
  6
CONTINUOUS
 62
    4
 10
68.099999162694417
 20
67.750000227825524
 11
67.599999162694417
 21
67.750000227825524
  0
LINE
  8
_1-8_小物
  6
CONTINUOUS
 62
    4
 10
68.099999162694417
 20
65.333333561158554
 11
68.514958767694452
 21
65.369637822425403
  0
LINE
  8
_1-8_小物
  6
CONTINUOUS
 62
    4
 10
68.514958767694452
 20
68.297029299925413
 11
68.099999162694417
 21
68.333333561158554
  0
ARC
  8
_1-8_小物
  6
CONTINUOUS
 62
    4
 10
68.486197372594347
 20
67.96828504952569
 40
0.3299999999999999
 50
37.367558032050525
 51
85.000000001203631
  0
ARC
  8
_1-8_小物
  6
CONTINUOUS
 62
    4
 10
68.486197372594347
 20
65.698382072792043
 40
0.3299999999999999
 50
274.9999999987964
 51
322.63244196794949
  0
ARC
  8
_1-8_小物
  6
CONTINUOUS
 62
    4
 10
66.999999162694394
 20
66.833333561158867
 40
2.1999999999999997
 50
322.63244196770495
 51
338.26638354339786
  0
ARC
  8
_1-8_小物
  6
CONTINUOUS
 62
    4
 10
66.999999162694394
 20
66.833333561158867
 40
2.1999999999999997
 50
21.748408590903569
 51
37.367558032305141
  0
LINE
  8
_1-8_小物
  6
CONTINUOUS
 62
    4
 10
69.186374872561146
 20
66.728333561158735
 11
69.041103242561007
 21
66.728333561158735
  0
LINE
  8
_1-8_小物
  6
CONTINUOUS
 62
    4
 10
69.186374872561146
 20
66.612570667191733
 11
69.186374872561146
 21
66.728333561158735
  0
LINE
  8
_1-8_小物
  6
CONTINUOUS
 62
    4
 10
69.041103242561007
 20
66.019165804992127
 11
69.186374872561146
 21
66.612570667191733
  0
LINE
  8
_1-8_小物
  6
CONTINUOUS
 62
    4
 10
69.186374872561146
 20
67.054096455158771
 11
69.097896265427835
 21
67.487399877725522
  0
LINE
  8
_1-8_小物
  6
CONTINUOUS
 62
    4
 10
69.097896265427835
 20
67.487399877725522
 11
69.041103242561007
 21
67.647501317358376
  0
LINE
  8
_1-8_小物
  6
CONTINUOUS
 62
    4
 10
69.186374872561146
 20
66.938333561158771
 11
69.186374872561146
 21
67.054096455158771
  0
LINE
  8
_1-8_小物
  6
CONTINUOUS
 62
    4
 10
69.041103242561007
 20
66.938333561158771
 11
69.186374872561146
 21
66.938333561158771
  0
LINE
  8
_1-8_小物
  6
CONTINUOUS
 62
    4
 10
69.041103242561007
 20
66.728333561158735
 11
69.042804967361121
 21
66.833333561158867
  0
LINE
  8
_1-8_小物
  6
CONTINUOUS
 62
    4
 10
69.042804967361121
 20
66.833333561158867
 11
69.041103242561007
 21
66.938333561158771
  0
LINE
  8
_1-8_小物
  6
CONTINUOUS
 62
    4
 10
68.514958767694452
 20
65.369637822425403
 11
68.514958767694452
 21
68.297029299925413
  0
LINE
  8
_1-8_小物
  6
CONTINUOUS
 62
    4
 10
68.748467644927814
 20
66.833333561158867
 11
68.748467644927814
 21
68.168570606325517
  0
LINE
  8
_1-8_小物
  6
CONTINUOUS
 62
    4
 10
68.748467644927814
 20
65.498096516025299
 11
68.748467644927814
 21
66.833333561158867
  0
ENDBLK
  0
BLOCK
  2
-022-_17_
 70
   64
 10
0
 20
0
 30
0
  0
LINE
  8
_1-8_小物
  6
CONTINUOUS
 62
    4
 10
113.46942499999977
 20
41.906724999999881
 11
113.50431499999928
 21
41.24097166666661
  0
LINE
  8
_1-8_小物
  6
CONTINUOUS
 62
    4
 10
113.41708833333274
 20
42.905354999999872
 11
112.7687816666662
 21
42.53758833333319
  0
LINE
  8
_1-8_小物
  6
CONTINUOUS
 62
    4
 10
112.7687816666662
 20
42.53758833333319
 11
112.80367166666633
 21
41.871834999999919
  0
LINE
  8
_1-8_小物
  6
CONTINUOUS
 62
    4
 10
112.80367166666633
 20
41.871834999999919
 11
113.46942499999977
 21
41.906724999999881
  0
LINE
  8
_1-8_小物
  6
CONTINUOUS
 62
    4
 10
113.38219833333284
 20
43.571108333333314
 11
113.41708833333274
 21
42.905354999999872
  0
LINE
  8
_1-8_小物
  6
CONTINUOUS
 62
    4
 10
113.3298616666662
 20
44.569736666666643
 11
112.68155499999926
 21
44.201969999999676
  0
LINE
  8
_1-8_小物
  6
CONTINUOUS
 62
    4
 10
112.68155499999926
 20
44.201969999999676
 11
112.71644499999957
 21
43.536216666666633
  0
LINE
  8
_1-8_小物
  6
CONTINUOUS
 62
    4
 10
112.71644499999957
 20
43.536216666666633
 11
113.38219833333284
 21
43.571108333333314
  0
LINE
  8
_1-8_小物
  6
CONTINUOUS
 62
    4
 10
113.29497166666602
 20
45.235490000000027
 11
113.3298616666662
 21
44.569736666666643
  0
LINE
  8
_1-8_小物
  6
CONTINUOUS
 62
    4
 10
113.24263499999967
 20
46.234119999999677
 11
112.59432833333312
 21
45.866353333333336
  0
LINE
  8
_1-8_小物
  6
CONTINUOUS
 62
    4
 10
112.59432833333312
 20
45.866353333333336
 11
112.62921833333263
 21
45.200599999999952
  0
LINE
  8
_1-8_小物
  6
CONTINUOUS
 62
    4
 10
112.62921833333263
 20
45.200599999999952
 11
113.29497166666602
 21
45.235490000000027
  0
LINE
  8
_1-8_小物
  6
CONTINUOUS
 62
    4
 10
113.20774499999948
 20
46.899873333333289
 11
113.24263499999967
 21
46.234119999999677
  0
LINE
  8
_1-8_小物
  6
CONTINUOUS
 62
    4
 10
113.15540833333284
 20
47.898503333333338
 11
112.50710166666619
 21
47.530734999999879
  0
LINE
  8
_1-8_小物
  6
CONTINUOUS
 62
    4
 10
112.50710166666619
 20
47.530734999999879
 11
112.54199166666609
 21
46.864981666666608
  0
LINE
  8
_1-8_小物
  6
CONTINUOUS
 62
    4
 10
112.54199166666609
 20
46.864981666666608
 11
113.20774499999948
 21
46.899873333333289
  0
LINE
  8
_1-8_小物
  6
CONTINUOUS
 62
    4
 10
113.12051833333294
 20
48.564254999999832
 11
113.15540833333284
 21
47.898503333333338
  0
LINE
  8
_1-8_小物
  6
CONTINUOUS
 62
    4
 10
112.41987499999937
 20
49.195118333333141
 11
112.45476499999955
 21
48.529364999999871
  0
LINE
  8
_1-8_小物
  6
CONTINUOUS
 62
    4
 10
112.45476499999955
 20
48.529364999999871
 11
113.12051833333294
 21
48.564254999999832
  0
LINE
  8
_1-8_小物
  6
CONTINUOUS
 62
    4
 10
112.99999999999955
 20
49.5
 11
112.41987499999937
 21
49.195118333333141
  0
LINE
  8
_1-8_小物
  6
CONTINUOUS
 62
    4
 10
109.86390833333286
 20
41.906724999999881
 11
109.82901833333295
 21
41.24097166666661
  0
LINE
  8
_1-8_小物
  6
CONTINUOUS
 62
    4
 10
109.91624499999949
 20
42.905354999999872
 11
110.56455166666615
 21
42.53758833333319
  0
LINE
  8
_1-8_小物
  6
CONTINUOUS
 62
    4
 10
110.56455166666615
 20
42.53758833333319
 11
110.52966166666602
 21
41.871834999999919
  0
LINE
  8
_1-8_小物
  6
CONTINUOUS
 62
    4
 10
110.52966166666602
 20
41.871834999999919
 11
109.86390833333286
 21
41.906724999999881
  0
LINE
  8
_1-8_小物
  6
CONTINUOUS
 62
    4
 10
109.95113499999979
 20
43.571108333333314
 11
109.91624499999949
 21
42.905354999999872
  0
LINE
  8
_1-8_小物
  6
CONTINUOUS
 62
    4
 10
110.00347166666603
 20
44.569736666666643
 11
110.65177833333269
 21
44.201969999999676
  0
LINE
  8
_1-8_小物
  6
CONTINUOUS
 62
    4
 10
110.65177833333269
 20
44.201969999999676
 11
110.61688833333307
 21
43.536216666666633
  0
LINE
  8
_1-8_小物
  6
CONTINUOUS
 62
    4
 10
110.61688833333307
 20
43.536216666666633
 11
109.95113499999979
 21
43.571108333333314
  0
LINE
  8
_1-8_小物
  6
CONTINUOUS
 62
    4
 10
110.03836166666593
 20
45.235490000000027
 11
110.00347166666603
 21
44.569736666666643
  0
LINE
  8
_1-8_小物
  6
CONTINUOUS
 62
    4
 10
110.09069833333257
 20
46.234119999999677
 11
110.73900499999951
 21
45.866353333333336
  0
LINE
  8
_1-8_小物
  6
CONTINUOUS
 62
    4
 10
110.73900499999951
 20
45.866353333333336
 11
110.7041149999996
 21
45.200599999999952
  0
LINE
  8
_1-8_小物
  6
CONTINUOUS
 62
    4
 10
110.7041149999996
 20
45.200599999999952
 11
110.03836166666593
 21
45.235490000000027
  0
LINE
  8
_1-8_小物
  6
CONTINUOUS
 62
    4
 10
110.12558833333287
 20
46.899873333333289
 11
110.09069833333257
 21
46.234119999999677
  0
LINE
  8
_1-8_小物
  6
CONTINUOUS
 62
    4
 10
110.17792499999973
 20
47.898503333333338
 11
110.82623166666644
 21
47.530734999999879
  0
LINE
  8
_1-8_小物
  6
CONTINUOUS
 62
    4
 10
110.82623166666644
 20
47.530734999999879
 11
110.79134166666614
 21
46.864981666666608
  0
LINE
  8
_1-8_小物
  6
CONTINUOUS
 62
    4
 10
110.79134166666614
 20
46.864981666666608
 11
110.12558833333287
 21
46.899873333333289
  0
LINE
  8
_1-8_小物
  6
CONTINUOUS
 62
    4
 10
110.21281499999941
 20
48.564254999999832
 11
110.17792499999973
 21
47.898503333333338
  0
LINE
  8
_1-8_小物
  6
CONTINUOUS
 62
    4
 10
110.91345833333298
 20
49.195118333333141
 11
110.87856833333268
 21
48.529364999999871
  0
LINE
  8
_1-8_小物
  6
CONTINUOUS
 62
    4
 10
110.87856833333268
 20
48.529364999999871
 11
110.21281499999941
 21
48.564254999999832
  0
LINE
  8
_1-8_小物
  6
CONTINUOUS
 62
    4
 10
111.64689833333296
 20
41.519768333333161
 11
112.29146499999939
 21
42.091658333333271
  0
LINE
  8
_1-8_小物
  6
CONTINUOUS
 62
    4
 10
111.04351833333271
 20
42.123146666666628
 11
111.66666666666652
 21
41.499999999999829
  0
LINE
  8
_1-8_小物
  6
CONTINUOUS
 62
    4
 10
110.33333333333309
 20
49.5
 11
110.91345833333298
 21
49.195118333333141
  0
LINE
  8
_1-8_小物
  6
CONTINUOUS
 62
    4
 10
113.20774499999948
 20
46.899873333333289
 11
113.772866666666
 21
48.452533333333122
  0
LINE
  8
_1-8_小物
  6
CONTINUOUS
 62
    4
 10
112.85301833333301
 20
46.899873333333289
 11
113.45963666666626
 21
48.566539999999861
  0
LINE
  8
_1-8_小物
  6
CONTINUOUS
 62
    4
 10
110.12558833333287
 20
46.899873333333289
 11
109.56046666666634
 21
48.452533333333122
  0
LINE
  8
_1-8_小物
  6
CONTINUOUS
 62
    4
 10
110.48031499999934
 20
46.899873333333289
 11
109.87369666666609
 21
48.566539999999861
  0
LINE
  8
_1-8_小物
  6
CONTINUOUS
 62
    4
 10
112.33924833333282
 20
41.179913333333161
 11
113.50431499999928
 21
41.24097166666661
  0
LINE
  8
_1-8_小物
  6
CONTINUOUS
 62
    4
 10
113.50431499999928
 20
41.24097166666661
 11
112.87345333333275
 21
40.540328333333321
  0
LINE
  8
_1-8_小物
  6
CONTINUOUS
 62
    4
 10
112.87345333333275
 20
40.540328333333321
 11
112.37413833333312
 21
40.514159999999777
  0
LINE
  8
_1-8_小物
  6
CONTINUOUS
 62
    4
 10
112.37413833333312
 20
40.514159999999777
 11
111.83333333333309
 21
50.833333333333087
  0
LINE
  8
_1-8_小物
  6
CONTINUOUS
 62
    4
 10
112.99999999999955
 20
49.5
 11
112.99999999999955
 21
50.833333333333087
  0
LINE
  8
_1-8_小物
  6
CONTINUOUS
 62
    4
 10
110.99408499999942
 20
41.179913333333161
 11
109.82901833333295
 21
41.24097166666661
  0
LINE
  8
_1-8_小物
  6
CONTINUOUS
 62
    4
 10
109.82901833333295
 20
41.24097166666661
 11
110.45987999999949
 21
40.540328333333321
  0
LINE
  8
_1-8_小物
  6
CONTINUOUS
 62
    4
 10
110.45987999999949
 20
40.540328333333321
 11
110.95919499999951
 21
40.514159999999777
  0
LINE
  8
_1-8_小物
  6
CONTINUOUS
 62
    4
 10
110.95919499999951
 20
40.514159999999777
 11
111.49999999999955
 21
50.833333333333087
  0
LINE
  8
_1-8_小物
  6
CONTINUOUS
 62
    4
 10
110.33333333333309
 20
49.5
 11
110.33333333333309
 21
50.833333333333087
  0
LINE
  8
_1-8_小物
  6
CONTINUOUS
 62
    4
 10
109.56046666666634
 20
48.452533333333122
 11
109.22968166666624
 21
50.720406666666804
  0
ARC
  8
_1-8_小物
  6
CONTINUOUS
 62
    4
 10
109.3616183333329
 20
50.739651666666589
 40
0.1333333333333333
 50
98.130101999964168
 51
188.29846599999718
  0
LINE
  8
_1-8_小物
  6
CONTINUOUS
 62
    4
 10
109.34276166666592
 20
50.871644999999944
 11
109.40836999999965
 21
50.88101666666671
  0
ARC
  8
_1-8_小物
  6
CONTINUOUS
 62
    4
 10
109.42722666666646
 20
50.749023333333298
 40
0.1333333333333333
 50
8.1301020000159863
 51
98.130102000238807
  0
LINE
  8
_1-8_小物
  6
CONTINUOUS
 62
    4
 10
109.55921999999964
 20
50.767879999999877
 11
109.87369666666609
 21
48.566539999999861
  0
LINE
  8
_1-8_小物
  6
CONTINUOUS
 62
    4
 10
113.772866666666
 20
48.452533333333122
 11
114.10365166666611
 21
50.720406666666804
  0
ARC
  8
_1-8_小物
  6
CONTINUOUS
 62
    4
 10
113.97171499999945
 20
50.739651666666589
 40
0.1333333333333333
 50
351.70153399996303
 51
81.869898000060005
  0
LINE
  8
_1-8_小物
  6
CONTINUOUS
 62
    4
 10
113.99056999999948
 20
50.871644999999944
 11
113.9249633333327
 21
50.88101666666671
  0
ARC
  8
_1-8_小物
  6
CONTINUOUS
 62
    4
 10
113.9061066666664
 20
50.749023333333298
 40
0.1333333333333333
 50
81.869898000034112
 51
171.86989800000819
  0
LINE
  8
_1-8_小物
  6
CONTINUOUS
 62
    4
 10
113.77411333333271
 20
50.767879999999877
 11
113.45963666666626
 21
48.566539999999861
  0
LINE
  8
_1-8_小物
  6
CONTINUOUS
 62
    4
 10
113.772866666666
 20
48.452533333333122
 11
114.10365166666611
 21
50.720406666666804
  0
ARC
  8
_1-8_小物
  6
CONTINUOUS
 62
    4
 10
113.97171499999945
 20
50.739651666666589
 40
0.1333333333333333
 50
351.70153399996303
 51
81.869898000060005
  0
LINE
  8
_1-8_小物
  6
CONTINUOUS
 62
    4
 10
113.99056999999948
 20
50.871644999999944
 11
113.9249633333327
 21
50.88101666666671
  0
ARC
  8
_1-8_小物
  6
CONTINUOUS
 62
    4
 10
113.9061066666664
 20
50.749023333333298
 40
0.1333333333333333
 50
81.869898000034112
 51
171.86989800000819
  0
LINE
  8
_1-8_小物
  6
CONTINUOUS
 62
    4
 10
113.77411333333271
 20
50.767879999999877
 11
113.45963666666626
 21
48.566539999999861
  0
LINE
  8
_1-8_小物
  6
CONTINUOUS
 62
    4
 10
113.33333333333309
 20
53.5
 11
112.99999999999955
 21
51.833333333333314
  0
LINE
  8
_1-8_小物
  6
CONTINUOUS
 62
    4
 10
112.99999999999955
 20
53.5
 11
112.99999999999955
 21
50.833333333333087
  0
LINE
  8
_1-8_小物
  6
CONTINUOUS
 62
    4
 10
111.83333333333309
 20
50.833333333333087
 11
111.66666666666652
 21
50.833333333333087
  0
LINE
  8
_1-8_小物
  6
CONTINUOUS
 62
    4
 10
111.66666666666652
 20
51.833333333333314
 11
111.66666666666652
 21
53.5
  0
LINE
  8
_1-8_小物
  6
CONTINUOUS
 62
    4
 10
111.99999999999955
 20
53.5
 11
111.66666666666652
 21
51.833333333333314
  0
LINE
  8
_1-8_小物
  6
CONTINUOUS
 62
    4
 10
111.3333333333328
 20
53.5
 11
111.66666666666652
 21
51.833333333333314
  0
LINE
  8
_1-8_小物
  6
CONTINUOUS
 62
    4
 10
109.99999999999977
 20
53.5
 11
110.33333333333309
 21
51.833333333333314
  0
LINE
  8
_1-8_小物
  6
CONTINUOUS
 62
    4
 10
110.33333333333309
 20
53.5
 11
110.33333333333309
 21
50.833333333333087
  0
LINE
  8
_1-8_小物
  6
CONTINUOUS
 62
    4
 10
111.49999999999955
 20
50.833333333333087
 11
111.66666666666652
 21
50.833333333333087
  0
LINE
  8
_1-8_小物
  6
CONTINUOUS
 62
    4
 10
113.33333333333309
 20
53.5
 11
109.99999999999977
 21
53.5
  0
ENDBLK
  0
BLOCK
  2
-023-_18_
 70
   64
 10
0
 20
0
 30
0
  0
LINE
  8
_1-8_小物
  6
CONTINUOUS
 62
    4
 10
114.66666666666652
 20
57.166666666666657
 11
108.66666666666617
 21
57.166666666666657
  0
LINE
  8
_1-8_小物
  6
CONTINUOUS
 62
    4
 10
114.66666666666652
 20
56.666666666666657
 11
108.66666666666617
 21
56.666666666666657
  0
LINE
  8
_1-8_小物
  6
CONTINUOUS
 62
    4
 10
114.66666666666652
 20
57.166666666666657
 11
114.66666666666652
 21
56.666666666666657
  0
LINE
  8
_1-8_小物
  6
CONTINUOUS
 62
    4
 10
108.66666666666617
 20
57.166666666666657
 11
108.66666666666617
 21
56.666666666666657
  0
LINE
  8
_1-8_小物
  6
CONTINUOUS
 62
    4
 10
112.58333333333314
 20
57.166666666666657
 11
112.58333333333314
 21
56.666666666666657
  0
LINE
  8
_1-8_小物
  6
CONTINUOUS
 62
    4
 10
110.74999999999955
 20
57.166666666666657
 11
110.74999999999955
 21
56.666666666666657
  0
LINE
  8
_1-8_小物
  6
CONTINUOUS
 62
    4
 10
113.16666666666652
 20
57.166666666666657
 11
113.13036240539964
 21
57.581626271666693
  0
LINE
  8
_1-8_小物
  6
CONTINUOUS
 62
    4
 10
110.20297092789963
 20
57.581626271666693
 11
110.16666666666652
 21
57.166666666666657
  0
ARC
  8
_1-8_小物
  6
CONTINUOUS
 62
    4
 10
110.53171517829935
 20
57.552864876566588
 40
0.3299999999999999
 50
127.36755803205445
 51
175.00000000119914
  0
ARC
  8
_1-8_小物
  6
CONTINUOUS
 62
    4
 10
112.801618155033
 20
57.552864876566588
 40
0.3299999999999999
 50
4.9999999988017167
 51
52.632441967953397
  0
ARC
  8
_1-8_小物
  6
CONTINUOUS
 62
    4
 10
111.66666666666617
 20
56.066666666666634
 40
2.1999999999999997
 50
52.632441967705518
 51
68.266383543398845
  0
ARC
  8
_1-8_小物
  6
CONTINUOUS
 62
    4
 10
111.66666666666617
 20
56.066666666666634
 40
2.1999999999999997
 50
111.74840859090399
 51
127.36755803230515
  0
LINE
  8
_1-8_小物
  6
CONTINUOUS
 62
    4
 10
111.77166666666631
 20
58.253042376533386
 11
111.77166666666631
 21
58.107770746533248
  0
LINE
  8
_1-8_小物
  6
CONTINUOUS
 62
    4
 10
111.88742956063334
 20
58.253042376533386
 11
111.77166666666631
 21
58.253042376533386
  0
LINE
  8
_1-8_小物
  6
CONTINUOUS
 62
    4
 10
112.48083442283291
 20
58.107770746533248
 11
111.88742956063334
 21
58.253042376533386
  0
LINE
  8
_1-8_小物
  6
CONTINUOUS
 62
    4
 10
111.44590377266627
 20
58.253042376533386
 11
111.01260035009955
 21
58.164563769400075
  0
LINE
  8
_1-8_小物
  6
CONTINUOUS
 62
    4
 10
111.01260035009955
 20
58.164563769400075
 11
110.85249891046669
 21
58.107770746533248
  0
LINE
  8
_1-8_小物
  6
CONTINUOUS
 62
    4
 10
111.56166666666627
 20
58.253042376533386
 11
111.44590377266627
 21
58.253042376533386
  0
LINE
  8
_1-8_小物
  6
CONTINUOUS
 62
    4
 10
111.56166666666627
 20
58.107770746533248
 11
111.56166666666627
 21
58.253042376533386
  0
LINE
  8
_1-8_小物
  6
CONTINUOUS
 62
    4
 10
111.77166666666631
 20
58.107770746533248
 11
111.66666666666617
 21
58.109472471333362
  0
LINE
  8
_1-8_小物
  6
CONTINUOUS
 62
    4
 10
111.66666666666617
 20
58.109472471333362
 11
111.56166666666627
 21
58.107770746533248
  0
LINE
  8
_1-8_小物
  6
CONTINUOUS
 62
    4
 10
113.13036240539964
 20
57.581626271666693
 11
110.20297092789963
 21
57.581626271666693
  0
LINE
  8
_1-8_小物
  6
CONTINUOUS
 62
    4
 10
111.66666666666617
 20
57.815135148900055
 11
110.33142962149952
 21
57.815135148900055
  0
LINE
  8
_1-8_小物
  6
CONTINUOUS
 62
    4
 10
113.00190371179974
 20
57.815135148900055
 11
111.66666666666617
 21
57.815135148900055
  0
ENDBLK
  0
BLOCK
  2
-024-_19_
 70
   64
 10
0
 20
0
 30
0
  0
LINE
  8
_1-8_小物
  6
CONTINUOUS
 62
    4
 10
133.46942499999943
 20
41.906724999999881
 11
133.504314999999
 21
41.24097166666661
  0
LINE
  8
_1-8_小物
  6
CONTINUOUS
 62
    4
 10
133.41708833333246
 20
42.905354999999872
 11
132.76878166666586
 21
42.53758833333319
  0
LINE
  8
_1-8_小物
  6
CONTINUOUS
 62
    4
 10
132.76878166666586
 20
42.53758833333319
 11
132.80367166666599
 21
41.871834999999919
  0
LINE
  8
_1-8_小物
  6
CONTINUOUS
 62
    4
 10
132.80367166666599
 20
41.871834999999919
 11
133.46942499999943
 21
41.906724999999881
  0
LINE
  8
_1-8_小物
  6
CONTINUOUS
 62
    4
 10
133.38219833333255
 20
43.571108333333314
 11
133.41708833333246
 21
42.905354999999872
  0
LINE
  8
_1-8_小物
  6
CONTINUOUS
 62
    4
 10
133.32986166666592
 20
44.569736666666643
 11
132.68155499999898
 21
44.201969999999676
  0
LINE
  8
_1-8_小物
  6
CONTINUOUS
 62
    4
 10
132.68155499999898
 20
44.201969999999676
 11
132.71644499999923
 21
43.536216666666633
  0
LINE
  8
_1-8_小物
  6
CONTINUOUS
 62
    4
 10
132.71644499999923
 20
43.536216666666633
 11
133.38219833333255
 21
43.571108333333314
  0
LINE
  8
_1-8_小物
  6
CONTINUOUS
 62
    4
 10
133.29497166666567
 20
45.235490000000027
 11
133.32986166666592
 21
44.569736666666643
  0
LINE
  8
_1-8_小物
  6
CONTINUOUS
 62
    4
 10
133.24263499999938
 20
46.234119999999677
 11
132.59432833333278
 21
45.866353333333336
  0
LINE
  8
_1-8_小物
  6
CONTINUOUS
 62
    4
 10
132.59432833333278
 20
45.866353333333336
 11
132.62921833333235
 21
45.200599999999952
  0
LINE
  8
_1-8_小物
  6
CONTINUOUS
 62
    4
 10
132.62921833333235
 20
45.200599999999952
 11
133.29497166666567
 21
45.235490000000027
  0
LINE
  8
_1-8_小物
  6
CONTINUOUS
 62
    4
 10
133.20774499999914
 20
46.899873333333289
 11
133.24263499999938
 21
46.234119999999677
  0
LINE
  8
_1-8_小物
  6
CONTINUOUS
 62
    4
 10
133.1554083333325
 20
47.898503333333338
 11
132.5071016666659
 21
47.530734999999879
  0
LINE
  8
_1-8_小物
  6
CONTINUOUS
 62
    4
 10
132.5071016666659
 20
47.530734999999879
 11
132.54199166666581
 21
46.864981666666608
  0
LINE
  8
_1-8_小物
  6
CONTINUOUS
 62
    4
 10
132.54199166666581
 20
46.864981666666608
 11
133.20774499999914
 21
46.899873333333289
  0
LINE
  8
_1-8_小物
  6
CONTINUOUS
 62
    4
 10
133.1205183333326
 20
48.564254999999832
 11
133.1554083333325
 21
47.898503333333338
  0
LINE
  8
_1-8_小物
  6
CONTINUOUS
 62
    4
 10
132.41987499999902
 20
49.195118333333141
 11
132.45476499999927
 21
48.529364999999871
  0
LINE
  8
_1-8_小物
  6
CONTINUOUS
 62
    4
 10
132.45476499999927
 20
48.529364999999871
 11
133.1205183333326
 21
48.564254999999832
  0
LINE
  8
_1-8_小物
  6
CONTINUOUS
 62
    4
 10
132.9999999999992
 20
49.5
 11
132.41987499999902
 21
49.195118333333141
  0
LINE
  8
_1-8_小物
  6
CONTINUOUS
 62
    4
 10
129.86390833333257
 20
41.906724999999881
 11
129.82901833333267
 21
41.24097166666661
  0
LINE
  8
_1-8_小物
  6
CONTINUOUS
 62
    4
 10
129.91624499999921
 20
42.905354999999872
 11
130.56455166666581
 21
42.53758833333319
  0
LINE
  8
_1-8_小物
  6
CONTINUOUS
 62
    4
 10
130.56455166666581
 20
42.53758833333319
 11
130.52966166666567
 21
41.871834999999919
  0
LINE
  8
_1-8_小物
  6
CONTINUOUS
 62
    4
 10
130.52966166666567
 20
41.871834999999919
 11
129.86390833333257
 21
41.906724999999881
  0
LINE
  8
_1-8_小物
  6
CONTINUOUS
 62
    4
 10
129.95113499999945
 20
43.571108333333314
 11
129.91624499999921
 21
42.905354999999872
  0
LINE
  8
_1-8_小物
  6
CONTINUOUS
 62
    4
 10
130.00347166666575
 20
44.569736666666643
 11
130.65177833333235
 21
44.201969999999676
  0
LINE
  8
_1-8_小物
  6
CONTINUOUS
 62
    4
 10
130.65177833333235
 20
44.201969999999676
 11
130.61688833333278
 21
43.536216666666633
  0
LINE
  8
_1-8_小物
  6
CONTINUOUS
 62
    4
 10
130.61688833333278
 20
43.536216666666633
 11
129.95113499999945
 21
43.571108333333314
  0
LINE
  8
_1-8_小物
  6
CONTINUOUS
 62
    4
 10
130.03836166666565
 20
45.235490000000027
 11
130.00347166666575
 21
44.569736666666643
  0
LINE
  8
_1-8_小物
  6
CONTINUOUS
 62
    4
 10
130.09069833333228
 20
46.234119999999677
 11
130.73900499999922
 21
45.866353333333336
  0
LINE
  8
_1-8_小物
  6
CONTINUOUS
 62
    4
 10
130.73900499999922
 20
45.866353333333336
 11
130.70411499999932
 21
45.200599999999952
  0
LINE
  8
_1-8_小物
  6
CONTINUOUS
 62
    4
 10
130.70411499999932
 20
45.200599999999952
 11
130.03836166666565
 21
45.235490000000027
  0
LINE
  8
_1-8_小物
  6
CONTINUOUS
 62
    4
 10
130.12558833333253
 20
46.899873333333289
 11
130.09069833333228
 21
46.234119999999677
  0
LINE
  8
_1-8_小物
  6
CONTINUOUS
 62
    4
 10
130.17792499999939
 20
47.898503333333338
 11
130.8262316666661
 21
47.530734999999879
  0
LINE
  8
_1-8_小物
  6
CONTINUOUS
 62
    4
 10
130.8262316666661
 20
47.530734999999879
 11
130.79134166666586
 21
46.864981666666608
  0
LINE
  8
_1-8_小物
  6
CONTINUOUS
 62
    4
 10
130.79134166666586
 20
46.864981666666608
 11
130.12558833333253
 21
46.899873333333289
  0
LINE
  8
_1-8_小物
  6
CONTINUOUS
 62
    4
 10
130.21281499999907
 20
48.564254999999832
 11
130.17792499999939
 21
47.898503333333338
  0
LINE
  8
_1-8_小物
  6
CONTINUOUS
 62
    4
 10
130.91345833333264
 20
49.195118333333141
 11
130.8785683333324
 21
48.529364999999871
  0
LINE
  8
_1-8_小物
  6
CONTINUOUS
 62
    4
 10
130.8785683333324
 20
48.529364999999871
 11
130.21281499999907
 21
48.564254999999832
  0
LINE
  8
_1-8_小物
  6
CONTINUOUS
 62
    4
 10
131.64689833333262
 20
41.519768333333161
 11
132.29146499999911
 21
42.091658333333271
  0
LINE
  8
_1-8_小物
  6
CONTINUOUS
 62
    4
 10
131.04351833333237
 20
42.123146666666628
 11
131.66666666666617
 21
41.499999999999829
  0
LINE
  8
_1-8_小物
  6
CONTINUOUS
 62
    4
 10
130.3333333333328
 20
49.5
 11
130.91345833333264
 21
49.195118333333141
  0
LINE
  8
_1-8_小物
  6
CONTINUOUS
 62
    4
 10
133.20774499999914
 20
46.899873333333289
 11
133.77286666666566
 21
48.452533333333122
  0
LINE
  8
_1-8_小物
  6
CONTINUOUS
 62
    4
 10
132.85301833333267
 20
46.899873333333289
 11
133.45963666666592
 21
48.566539999999861
  0
LINE
  8
_1-8_小物
  6
CONTINUOUS
 62
    4
 10
130.12558833333253
 20
46.899873333333289
 11
129.560466666666
 21
48.452533333333122
  0
LINE
  8
_1-8_小物
  6
CONTINUOUS
 62
    4
 10
130.480314999999
 20
46.899873333333289
 11
129.87369666666575
 21
48.566539999999861
  0
LINE
  8
_1-8_小物
  6
CONTINUOUS
 62
    4
 10
132.33924833333253
 20
41.179913333333161
 11
133.504314999999
 21
41.24097166666661
  0
LINE
  8
_1-8_小物
  6
CONTINUOUS
 62
    4
 10
133.504314999999
 20
41.24097166666661
 11
132.87345333333246
 21
40.540328333333321
  0
LINE
  8
_1-8_小物
  6
CONTINUOUS
 62
    4
 10
132.87345333333246
 20
40.540328333333321
 11
132.37413833333278
 21
40.514159999999777
  0
LINE
  8
_1-8_小物
  6
CONTINUOUS
 62
    4
 10
132.37413833333278
 20
40.514159999999777
 11
131.8333333333328
 21
50.833333333333087
  0
LINE
  8
_1-8_小物
  6
CONTINUOUS
 62
    4
 10
132.9999999999992
 20
49.5
 11
132.9999999999992
 21
50.833333333333087
  0
LINE
  8
_1-8_小物
  6
CONTINUOUS
 62
    4
 10
130.99408499999913
 20
41.179913333333161
 11
129.82901833333267
 21
41.24097166666661
  0
LINE
  8
_1-8_小物
  6
CONTINUOUS
 62
    4
 10
129.82901833333267
 20
41.24097166666661
 11
130.4598799999992
 21
40.540328333333321
  0
LINE
  8
_1-8_小物
  6
CONTINUOUS
 62
    4
 10
130.4598799999992
 20
40.540328333333321
 11
130.95919499999923
 21
40.514159999999777
  0
LINE
  8
_1-8_小物
  6
CONTINUOUS
 62
    4
 10
130.95919499999923
 20
40.514159999999777
 11
131.4999999999992
 21
50.833333333333087
  0
LINE
  8
_1-8_小物
  6
CONTINUOUS
 62
    4
 10
130.3333333333328
 20
49.5
 11
130.3333333333328
 21
50.833333333333087
  0
LINE
  8
_1-8_小物
  6
CONTINUOUS
 62
    4
 10
129.560466666666
 20
48.452533333333122
 11
129.2296816666659
 21
50.720406666666804
  0
ARC
  8
_1-8_小物
  6
CONTINUOUS
 62
    4
 10
129.36161833333256
 20
50.739651666666589
 40
0.1333333333333333
 50
98.130101999964168
 51
188.29846599999718
  0
LINE
  8
_1-8_小物
  6
CONTINUOUS
 62
    4
 10
129.34276166666558
 20
50.871644999999944
 11
129.40836999999931
 21
50.88101666666671
  0
ARC
  8
_1-8_小物
  6
CONTINUOUS
 62
    4
 10
129.42722666666612
 20
50.749023333333298
 40
0.1333333333333333
 50
8.1301020000159863
 51
98.130102000238807
  0
LINE
  8
_1-8_小物
  6
CONTINUOUS
 62
    4
 10
129.5592199999993
 20
50.767879999999877
 11
129.87369666666575
 21
48.566539999999861
  0
LINE
  8
_1-8_小物
  6
CONTINUOUS
 62
    4
 10
133.77286666666566
 20
48.452533333333122
 11
134.10365166666577
 21
50.720406666666804
  0
ARC
  8
_1-8_小物
  6
CONTINUOUS
 62
    4
 10
133.97171499999911
 20
50.739651666666589
 40
0.1333333333333333
 50
351.70153399996303
 51
81.869898000035846
  0
LINE
  8
_1-8_小物
  6
CONTINUOUS
 62
    4
 10
133.99056999999914
 20
50.871644999999944
 11
133.92496333333236
 21
50.88101666666671
  0
ARC
  8
_1-8_小物
  6
CONTINUOUS
 62
    4
 10
133.90610666666612
 20
50.749023333333298
 40
0.1333333333333333
 50
81.869898000058299
 51
171.86989800000819
  0
LINE
  8
_1-8_小物
  6
CONTINUOUS
 62
    4
 10
133.77411333333237
 20
50.767879999999877
 11
133.45963666666592
 21
48.566539999999861
  0
LINE
  8
_1-8_小物
  6
CONTINUOUS
 62
    4
 10
133.77286666666566
 20
48.452533333333122
 11
134.10365166666577
 21
50.720406666666804
  0
ARC
  8
_1-8_小物
  6
CONTINUOUS
 62
    4
 10
133.97171499999911
 20
50.739651666666589
 40
0.1333333333333333
 50
351.70153399996303
 51
81.869898000035846
  0
LINE
  8
_1-8_小物
  6
CONTINUOUS
 62
    4
 10
133.99056999999914
 20
50.871644999999944
 11
133.92496333333236
 21
50.88101666666671
  0
ARC
  8
_1-8_小物
  6
CONTINUOUS
 62
    4
 10
133.90610666666612
 20
50.749023333333298
 40
0.1333333333333333
 50
81.869898000058299
 51
171.86989800000819
  0
LINE
  8
_1-8_小物
  6
CONTINUOUS
 62
    4
 10
133.77411333333237
 20
50.767879999999877
 11
133.45963666666592
 21
48.566539999999861
  0
LINE
  8
_1-8_小物
  6
CONTINUOUS
 62
    4
 10
133.3333333333328
 20
53.5
 11
132.9999999999992
 21
51.833333333333314
  0
LINE
  8
_1-8_小物
  6
CONTINUOUS
 62
    4
 10
132.9999999999992
 20
53.5
 11
132.9999999999992
 21
50.833333333333087
  0
LINE
  8
_1-8_小物
  6
CONTINUOUS
 62
    4
 10
131.8333333333328
 20
50.833333333333087
 11
131.66666666666617
 21
50.833333333333087
  0
LINE
  8
_1-8_小物
  6
CONTINUOUS
 62
    4
 10
131.66666666666617
 20
51.833333333333314
 11
131.66666666666617
 21
53.5
  0
LINE
  8
_1-8_小物
  6
CONTINUOUS
 62
    4
 10
131.9999999999992
 20
53.5
 11
131.66666666666617
 21
51.833333333333314
  0
LINE
  8
_1-8_小物
  6
CONTINUOUS
 62
    4
 10
131.33333333333246
 20
53.5
 11
131.66666666666617
 21
51.833333333333314
  0
LINE
  8
_1-8_小物
  6
CONTINUOUS
 62
    4
 10
129.99999999999943
 20
53.5
 11
130.3333333333328
 21
51.833333333333314
  0
LINE
  8
_1-8_小物
  6
CONTINUOUS
 62
    4
 10
130.3333333333328
 20
53.5
 11
130.3333333333328
 21
50.833333333333087
  0
LINE
  8
_1-8_小物
  6
CONTINUOUS
 62
    4
 10
131.4999999999992
 20
50.833333333333087
 11
131.66666666666617
 21
50.833333333333087
  0
LINE
  8
_1-8_小物
  6
CONTINUOUS
 62
    4
 10
133.3333333333328
 20
53.5
 11
129.99999999999943
 21
53.5
  0
ENDBLK
  0
BLOCK
  2
-025-_20_
 70
   64
 10
0
 20
0
 30
0
  0
LINE
  8
_1-8_小物
  6
CONTINUOUS
 62
    4
 10
134.66666666666617
 20
56.833333333333286
 11
128.66666666666589
 21
56.833333333333286
  0
LINE
  8
_1-8_小物
  6
CONTINUOUS
 62
    4
 10
134.66666666666617
 20
56.333333333333286
 11
128.66666666666589
 21
56.333333333333286
  0
LINE
  8
_1-8_小物
  6
CONTINUOUS
 62
    4
 10
134.66666666666617
 20
56.833333333333286
 11
134.66666666666617
 21
56.333333333333286
  0
LINE
  8
_1-8_小物
  6
CONTINUOUS
 62
    4
 10
128.66666666666589
 20
56.833333333333286
 11
128.66666666666589
 21
56.333333333333286
  0
LINE
  8
_1-8_小物
  6
CONTINUOUS
 62
    4
 10
132.58333333333286
 20
56.833333333333286
 11
132.58333333333286
 21
56.333333333333286
  0
LINE
  8
_1-8_小物
  6
CONTINUOUS
 62
    4
 10
130.7499999999992
 20
56.833333333333286
 11
130.7499999999992
 21
56.333333333333286
  0
LINE
  8
_1-8_小物
  6
CONTINUOUS
 62
    4
 10
133.16666666666617
 20
56.833333333333286
 11
133.1303624053993
 21
57.248292938333321
  0
LINE
  8
_1-8_小物
  6
CONTINUOUS
 62
    4
 10
130.20297092789934
 20
57.248292938333321
 11
130.16666666666617
 21
56.833333333333286
  0
ARC
  8
_1-8_小物
  6
CONTINUOUS
 62
    4
 10
130.53171517829907
 20
57.219531543233217
 40
0.3299999999999999
 50
127.36755803205445
 51
175.00000000119914
  0
ARC
  8
_1-8_小物
  6
CONTINUOUS
 62
    4
 10
132.80161815503271
 20
57.219531543233217
 40
0.3299999999999999
 50
4.9999999988017167
 51
52.63244196794556
  0
ARC
  8
_1-8_小物
  6
CONTINUOUS
 62
    4
 10
131.66666666666589
 20
55.733333333333263
 40
2.1999999999999997
 50
52.632441967704345
 51
68.266383543397481
  0
ARC
  8
_1-8_小物
  6
CONTINUOUS
 62
    4
 10
131.66666666666589
 20
55.733333333333263
 40
2.1999999999999997
 50
111.74840859090261
 51
127.36755803230515
  0
LINE
  8
_1-8_小物
  6
CONTINUOUS
 62
    4
 10
131.77166666666596
 20
57.919709043200015
 11
131.77166666666596
 21
57.774437413199877
  0
LINE
  8
_1-8_小物
  6
CONTINUOUS
 62
    4
 10
131.887429560633
 20
57.919709043200015
 11
131.77166666666596
 21
57.919709043200015
  0
LINE
  8
_1-8_小物
  6
CONTINUOUS
 62
    4
 10
132.48083442283257
 20
57.774437413199877
 11
131.887429560633
 21
57.919709043200015
  0
LINE
  8
_1-8_小物
  6
CONTINUOUS
 62
    4
 10
131.44590377266593
 20
57.919709043200015
 11
131.01260035009921
 21
57.831230436066704
  0
LINE
  8
_1-8_小物
  6
CONTINUOUS
 62
    4
 10
131.01260035009921
 20
57.831230436066704
 11
130.85249891046635
 21
57.774437413199877
  0
LINE
  8
_1-8_小物
  6
CONTINUOUS
 62
    4
 10
131.56166666666593
 20
57.919709043200015
 11
131.44590377266593
 21
57.919709043200015
  0
LINE
  8
_1-8_小物
  6
CONTINUOUS
 62
    4
 10
131.56166666666593
 20
57.774437413199877
 11
131.56166666666593
 21
57.919709043200015
  0
LINE
  8
_1-8_小物
  6
CONTINUOUS
 62
    4
 10
131.77166666666596
 20
57.774437413199877
 11
131.66666666666589
 21
57.776139137999991
  0
LINE
  8
_1-8_小物
  6
CONTINUOUS
 62
    4
 10
131.66666666666589
 20
57.776139137999991
 11
131.56166666666593
 21
57.774437413199877
  0
LINE
  8
_1-8_小物
  6
CONTINUOUS
 62
    4
 10
133.1303624053993
 20
57.248292938333321
 11
130.20297092789934
 21
57.248292938333321
  0
LINE
  8
_1-8_小物
  6
CONTINUOUS
 62
    4
 10
131.66666666666589
 20
57.481801815566683
 11
130.33142962149924
 21
57.481801815566683
  0
LINE
  8
_1-8_小物
  6
CONTINUOUS
 62
    4
 10
133.0019037117994
 20
57.481801815566683
 11
131.66666666666589
 21
57.481801815566683
  0
ENDBLK
  0
BLOCK
  2
-026-_21_
 70
   64
 10
0
 20
0
 30
0
  0
LINE
  8
_1-4_フレ__ム
  6
CONTINUOUS
 62
    4
 10
118.43333333333339
 20
56.666666666666657
 11
118.33333333333314
 21
56.566666666666748
  0
LINE
  8
_1-4_フレ__ム
  6
CONTINUOUS
 62
    4
 10
118.33333333333314
 20
56.566666666666748
 11
118.23333333333323
 21
56.666666666666657
  0
LINE
  8
_1-4_フレ__ム
  6
DASHED1
 62
    4
 10
129.16666666666617
 20
55.5
 11
129.16666666666617
 21
56.333333333333314
  0
LINE
  8
_1-4_フレ__ム
  6
DASHED1
 62
    4
 10
134.16666666666617
 20
55.5
 11
134.16666666666617
 21
56.333333333333314
  0
LINE
  8
_1-4_フレ__ム
  6
DASHED1
 62
    4
 10
109.16666666666652
 20
55.5
 11
109.16666666666652
 21
56.666666666666657
  0
LINE
  8
_1-4_フレ__ム
  6
DASHED1
 62
    4
 10
114.16666666666652
 20
55.5
 11
114.16666666666652
 21
56.666666666666657
  0
ARC
  8
_1-4_フレ__ム
  6
CONTINUOUS
 62
    4
 10
140.83333333333314
 20
62.5
 40
0.3333333333333333
 50
0
 51
90
  0
LINE
  8
_1-4_フレ__ム
  6
CONTINUOUS
 62
    4
 10
137.66666666666634
 20
62.833333333333314
 11
140.83333333333314
 21
62.833333333333314
  0
ARC
  8
_1-4_フレ__ム
  6
CONTINUOUS
 62
    4
 10
137.66666666666634
 20
63.5
 40
0.6666666666666666
 50
180
 51
270
  0
LINE
  8
_1-4_フレ__ム
  6
CONTINUOUS
 62
    4
 10
139.39999999999964
 20
63.666666666666657
 11
138.16666666666634
 21
63.666666666666657
  0
LINE
  8
_1-4_フレ__ム
  6
CONTINUOUS
 62
    4
 10
139.49999999999983
 20
63.566666666666748
 11
139.39999999999964
 21
63.666666666666657
  0
LINE
  8
_1-4_フレ__ム
  6
CONTINUOUS
 62
    4
 10
139.59999999999974
 20
63.666666666666657
 11
139.49999999999983
 21
63.566666666666748
  0
LINE
  8
_1-4_フレ__ム
  6
CONTINUOUS
 62
    4
 10
140.83333333333314
 20
63.666666666666657
 11
139.59999999999974
 21
63.666666666666657
  0
ARC
  8
_1-4_フレ__ム
  6
CONTINUOUS
 62
    4
 10
142.16666666666634
 20
62.666666666666657
 40
0.1666666666666666
 50
180
 51
270
  0
ARC
  8
_1-4_フレ__ム
  6
CONTINUOUS
 62
    4
 10
143.08333333333303
 20
64.75
 40
0.25
 50
0
 51
180
  0
LINE
  8
_1-4_フレ__ム
  6
CONTINUOUS
 62
    4
 10
143.33333333333314
 20
62.166666666666657
 11
143.33333333333314
 21
64.75
  0
ARC
  8
_1-4_フレ__ム
  6
CONTINUOUS
 62
    4
 10
143.16666666666634
 20
62.166666666666657
 40
0.1666666666666666
 50
270
 51
0
  0
LINE
  8
_1-4_フレ__ム
  6
CONTINUOUS
 62
    4
 10
142.33333333333303
 20
62
 11
143.16666666666634
 21
62
  0
ARC
  8
_1-4_フレ__ム
  6
CONTINUOUS
 62
    4
 10
142.33333333333303
 20
61.666666666666657
 40
0.3333333333333333
 50
90
 51
180
  0
LINE
  8
_1-4_フレ__ム
  6
CONTINUOUS
 62
    4
 10
100.16666666666663
 20
61.100000000000051
 11
99.999999999999773
 21
60.433333333333394
  0
LINE
  8
_1-4_フレ__ム
  6
CONTINUOUS
 62
    4
 10
99.999999999999773
 20
61.100000000000051
 11
100.16666666666663
 21
61.100000000000051
  0
LINE
  8
_1-4_フレ__ム
  6
CONTINUOUS
 62
    4
 10
99.999999999999773
 20
62.100000000000051
 11
99.999999999999773
 21
61.100000000000051
  0
ARC
  8
_1-4_フレ__ム
  6
CONTINUOUS
 62
    4
 10
100.49999999999977
 20
62.100000000000051
 40
0.5
 50
0
 51
180
  0
LINE
  8
_1-4_フレ__ム
  6
CONTINUOUS
 62
    4
 10
101
 20
61.100000000000051
 11
101
 21
62.100000000000051
  0
LINE
  8
_1-4_フレ__ム
  6
CONTINUOUS
 62
    4
 10
100.83333333333314
 20
61.100000000000051
 11
101
 21
61.100000000000051
  0
LINE
  8
_1-4_フレ__ム
  6
CONTINUOUS
 62
    4
 10
101
 20
60.433333333333394
 11
100.83333333333314
 21
61.100000000000051
  0
LINE
  8
_1-4_フレ__ム
  6
CONTINUOUS
 62
    4
 10
120.10000000000002
 20
56.666666666666657
 11
119.99999999999983
 21
56.566666666666748
  0
LINE
  8
_1-4_フレ__ム
  6
CONTINUOUS
 62
    4
 10
124.99999999999983
 20
56.666666666666657
 11
120.10000000000002
 21
56.666666666666657
  0
ARC
  8
_1-4_フレ__ム
  6
CONTINUOUS
 62
    4
 10
140.49999999999983
 20
57
 40
0.6666666666666666
 50
270
 51
0
  0
LINE
  8
_1-4_フレ__ム
  6
CONTINUOUS
 62
    4
 10
100.33333333333314
 20
55.5
 11
141.99999999999983
 21
55.5
  0
ARC
  8
_1-4_フレ__ム
  6
CONTINUOUS
 62
    4
 10
100.33333333333314
 20
55.833333333333314
 40
0.3333333333333333
 50
180
 51
270
  0
ARC
  8
_1-4_フレ__ム
  6
CONTINUOUS
 62
    4
 10
101.99999999999977
 20
57.666666666666657
 40
1
 50
180
 51
270
  0
LINE
  8
_1-4_フレ__ム
  6
CONTINUOUS
 62
    4
 10
119.99999999999983
 20
56.566666666666748
 11
119.89999999999992
 21
56.666666666666657
  0
LINE
  8
_1-4_フレ__ム
  6
CONTINUOUS
 62
    4
 10
99.999999999999773
 20
60.433333333333394
 11
99.999999999999773
 21
55.833333333333314
  0
LINE
  8
_1-4_フレ__ム
  6
CONTINUOUS
 62
    4
 10
101
 20
57.666666666666657
 11
101
 21
60.433333333333394
  0
LINE
  8
_1-4_フレ__ム
  6
CONTINUOUS
 62
    4
 10
141.99999999999983
 20
55.5
 11
141.99999999999983
 21
61.666666666666657
  0
LINE
  8
_1-4_フレ__ム
  6
CONTINUOUS
 62
    4
 10
141.16666666666617
 20
62.5
 11
141.16666666666617
 21
57
  0
LINE
  8
_1-4_フレ__ム
  6
CONTINUOUS
 62
    4
 10
142.83333333333314
 20
64.75
 11
142.83333333333314
 21
62.5
  0
LINE
  8
_1-4_フレ__ム
  6
CONTINUOUS
 62
    4
 10
142.83333333333314
 20
62.5
 11
142.16666666666634
 21
62.5
  0
LINE
  8
_1-4_フレ__ム
  6
CONTINUOUS
 62
    4
 10
141.99999999999983
 20
62.666666666666657
 11
141.99999999999983
 21
64.166666666666657
  0
LINE
  8
_1-4_フレ__ム
  6
CONTINUOUS
 62
    4
 10
141.99999999999983
 20
64.166666666666657
 11
140.83333333333314
 21
64.166666666666657
  0
LINE
  8
_1-4_フレ__ム
  6
CONTINUOUS
 62
    4
 10
140.83333333333314
 20
64.166666666666657
 11
140.83333333333314
 21
63.666666666666657
  0
LINE
  8
_1-4_フレ__ム
  6
CONTINUOUS
 62
    4
 10
138.16666666666634
 20
63.666666666666657
 11
138.16666666666634
 21
64.166666666666657
  0
LINE
  8
_1-4_フレ__ム
  6
CONTINUOUS
 62
    4
 10
138.16666666666634
 20
64.166666666666657
 11
136.99999999999983
 21
64.166666666666657
  0
LINE
  8
_1-4_フレ__ム
  6
CONTINUOUS
 62
    4
 10
136.99999999999983
 20
64.166666666666657
 11
136.99999999999983
 21
63.5
  0
LINE
  8
_1-4_フレ__ム
  6
CONTINUOUS
 62
    4
 10
111.76666666666654
 20
56.666666666666657
 11
111.66666666666634
 21
56.566666666666748
  0
LINE
  8
_1-4_フレ__ム
  6
CONTINUOUS
 62
    4
 10
111.66666666666634
 20
56.566666666666748
 11
111.56666666666644
 21
56.666666666666657
  0
LINE
  8
_1-4_フレ__ム
  6
CONTINUOUS
 62
    4
 10
124.99999999999983
 20
56.666666666666657
 11
125.83333333333314
 21
56.333333333333428
  0
LINE
  8
_1-4_フレ__ム
  6
CONTINUOUS
 62
    4
 10
111.56666666666644
 20
56.666666666666657
 11
101.99999999999977
 21
56.666666666666657
  0
LINE
  8
_1-4_フレ__ム
  6
CONTINUOUS
 62
    4
 10
131.66666666666663
 20
56.233333333333235
 11
131.56666666666672
 21
56.333333333333428
  0
LINE
  8
_1-4_フレ__ム
  6
CONTINUOUS
 62
    4
 10
131.76666666666654
 20
56.333333333333428
 11
131.66666666666663
 21
56.233333333333235
  0
LINE
  8
_1-4_フレ__ム
  6
CONTINUOUS
 62
    4
 10
140.49999999999983
 20
56.333333333333314
 11
131.76666666666654
 21
56.333333333333314
  0
LINE
  8
_1-4_フレ__ム
  6
CONTINUOUS
 62
    4
 10
131.56666666666672
 20
56.333333333333314
 11
125.83333333333314
 21
56.333333333333314
  0
LINE
  8
_1-4_フレ__ム
  6
CONTINUOUS
 62
    4
 10
119.89999999999992
 20
56.666666666666657
 11
118.43333333333339
 21
56.666666666666657
  0
LINE
  8
_1-4_フレ__ム
  6
CONTINUOUS
 62
    4
 10
118.23333333333323
 20
56.666666666666657
 11
111.76666666666654
 21
56.666666666666657
  0
LINE
  8
_1-4_フレ__ム
  6
CENTER2
 62
    4
 10
139.49999999999989
 20
64.666666666666657
 11
139.49999999999989
 21
61.833333333333314
  0
LINE
  8
_1-4_フレ__ム
  6
CENTER2
 62
    4
 10
111.66666666666652
 20
53.833333333333314
 11
111.66666666666652
 21
58.333333333333314
  0
LINE
  8
_1-4_フレ__ム
  6
CENTER2
 62
    4
 10
131.66666666666617
 20
53.8333333333334
 11
131.66666666666617
 21
58.000000000000114
  0
ENDBLK
  0
BLOCK
  2
-027-_22_
 70
   64
 10
0
 20
0
 30
0
  0
LINE
  8
_1-8_小物
  6
CONTINUOUS
 62
    4
 10
-60.499999999999943
 20
64.833333333333314
 11
-63.833333333333144
 21
64.833333333333314
  0
LINE
  8
_1-8_小物
  6
CONTINUOUS
 62
    4
 10
-62.166666666666515
 20
59.5
 11
-62.849999999999852
 21
59.894522683946235
  0
LINE
  8
_1-8_小物
  6
CONTINUOUS
 62
    4
 10
-62.166666666666515
 20
59.5
 11
-61.483333333333235
 21
59.894522683946235
  0
LINE
  8
_1-8_小物
  6
CONTINUOUS
 62
    4
 10
-61.569999999999823
 20
62.569127239780926
 11
-61.366666666666447
 21
62.451732526335974
  0
LINE
  8
_1-8_小物
  6
CONTINUOUS
 62
    4
 10
-61.366666666666447
 20
62.451732526335974
 11
-61.569999999999823
 21
62.334337812891022
  0
LINE
  8
_1-8_小物
  6
CONTINUOUS
 62
    4
 10
-62.763333333333264
 20
61.900000000000006
 11
-62.96666666666664
 21
62.017394713444958
  0
LINE
  8
_1-8_小物
  6
CONTINUOUS
 62
    4
 10
-62.96666666666664
 20
62.017394713444958
 11
-62.763333333333264
 21
62.134789426889938
  0
LINE
  8
_1-8_小物
  6
CONTINUOUS
 62
    4
 10
-62.763333333333264
 20
62.134789426889938
 11
-61.569999999999823
 21
62.569127239780926
  0
LINE
  8
_1-8_小物
  6
CONTINUOUS
 62
    4
 10
-62.763333333333264
 20
61.900000000000006
 11
-61.569999999999823
 21
62.334337812891022
  0
LINE
  8
_1-8_小物
  6
CONTINUOUS
 62
    4
 10
-61.366666666666447
 20
62.451732526335974
 11
-62.96666666666664
 21
62.017394713444958
  0
LINE
  8
_1-8_小物
  6
CONTINUOUS
 62
    4
 10
-61.569999999999823
 20
63.069127239780926
 11
-61.366666666666447
 21
62.951732526335974
  0
LINE
  8
_1-8_小物
  6
CONTINUOUS
 62
    4
 10
-61.366666666666447
 20
62.951732526335974
 11
-61.569999999999823
 21
62.834337812891022
  0
LINE
  8
_1-8_小物
  6
CONTINUOUS
 62
    4
 10
-62.763333333333264
 20
62.400000000000006
 11
-62.96666666666664
 21
62.517394713444958
  0
LINE
  8
_1-8_小物
  6
CONTINUOUS
 62
    4
 10
-62.96666666666664
 20
62.517394713444958
 11
-62.763333333333264
 21
62.634789426889938
  0
LINE
  8
_1-8_小物
  6
CONTINUOUS
 62
    4
 10
-62.763333333333264
 20
62.634789426889938
 11
-61.569999999999823
 21
63.069127239780926
  0
LINE
  8
_1-8_小物
  6
CONTINUOUS
 62
    4
 10
-62.763333333333264
 20
62.400000000000006
 11
-61.569999999999823
 21
62.834337812891022
  0
LINE
  8
_1-8_小物
  6
CONTINUOUS
 62
    4
 10
-61.366666666666447
 20
62.951732526335974
 11
-62.96666666666664
 21
62.517394713444958
  0
LINE
  8
_1-8_小物
  6
CONTINUOUS
 62
    4
 10
-61.569999999999823
 20
63.569127239780926
 11
-61.366666666666447
 21
63.451732526335974
  0
LINE
  8
_1-8_小物
  6
CONTINUOUS
 62
    4
 10
-61.366666666666447
 20
63.451732526335974
 11
-61.569999999999823
 21
63.334337812891022
  0
LINE
  8
_1-8_小物
  6
CONTINUOUS
 62
    4
 10
-62.763333333333264
 20
62.900000000000006
 11
-62.96666666666664
 21
63.017394713444958
  0
LINE
  8
_1-8_小物
  6
CONTINUOUS
 62
    4
 10
-62.96666666666664
 20
63.017394713444958
 11
-62.763333333333264
 21
63.134789426889938
  0
LINE
  8
_1-8_小物
  6
CONTINUOUS
 62
    4
 10
-62.763333333333264
 20
63.134789426889938
 11
-61.569999999999823
 21
63.569127239780926
  0
LINE
  8
_1-8_小物
  6
CONTINUOUS
 62
    4
 10
-62.763333333333264
 20
62.900000000000006
 11
-61.569999999999823
 21
63.334337812891022
  0
LINE
  8
_1-8_小物
  6
CONTINUOUS
 62
    4
 10
-61.366666666666447
 20
63.451732526335974
 11
-62.96666666666664
 21
63.017394713444958
  0
LINE
  8
_1-8_小物
  6
CONTINUOUS
 62
    4
 10
-62.763333333333264
 20
63.400000000000006
 11
-62.96666666666664
 21
63.517394713444958
  0
LINE
  8
_1-8_小物
  6
CONTINUOUS
 62
    4
 10
-62.96666666666664
 20
63.517394713444958
 11
-62.763333333333264
 21
63.634789426889938
  0
LINE
  8
_1-8_小物
  6
CONTINUOUS
 62
    4
 10
-62.849999999999852
 20
61.733333333333348
 11
-62.849999999999852
 21
59.894522683946235
  0
LINE
  8
_1-8_小物
  6
CONTINUOUS
 62
    4
 10
-61.483333333333235
 20
61.733333333333348
 11
-62.849999999999852
 21
61.733333333333348
  0
LINE
  8
_1-8_小物
  6
CONTINUOUS
 62
    4
 10
-61.483333333333235
 20
61.733333333333348
 11
-61.483333333333235
 21
59.894522683946235
  0
LINE
  8
_1-8_小物
  6
CONTINUOUS
 62
    4
 10
-62.763333333333264
 20
63.634789426889938
 11
-62.492586175555061
 21
63.733333333333348
  0
LINE
  8
_1-8_小物
  6
CONTINUOUS
 62
    4
 10
-62.763333333333264
 20
63.400000000000006
 11
-62.166666666666515
 21
63.617168906445528
  0
LINE
  8
_1-8_小物
  6
CONTINUOUS
 62
    4
 10
-62.166666666666515
 20
63.73456361989048
 11
-62.96666666666664
 21
63.517394713444958
  0
LINE
  8
_1-8_小物
  6
CONTINUOUS
 62
    4
 10
-62.763333333333264
 20
63.733333333333348
 11
-62.763333333333264
 21
63.634789426889938
  0
LINE
  8
_1-8_小物
  6
CONTINUOUS
 62
    4
 10
-62.763333333333264
 20
63.400000000000006
 11
-62.763333333333264
 21
63.134789426889938
  0
LINE
  8
_1-8_小物
  6
CONTINUOUS
 62
    4
 10
-62.763333333333264
 20
62.900000000000006
 11
-62.763333333333264
 21
62.634789426889938
  0
LINE
  8
_1-8_小物
  6
CONTINUOUS
 62
    4
 10
-62.763333333333264
 20
62.400000000000006
 11
-62.763333333333264
 21
62.134789426889938
  0
LINE
  8
_1-8_小物
  6
CONTINUOUS
 62
    4
 10
-62.763333333333264
 20
61.900000000000006
 11
-62.763333333333264
 21
61.733333333333348
  0
LINE
  8
_1-8_小物
  6
CONTINUOUS
 62
    4
 10
-61.569999999999823
 20
63.733333333333348
 11
-61.569999999999823
 21
63.569127239780926
  0
LINE
  8
_1-8_小物
  6
CONTINUOUS
 62
    4
 10
-61.569999999999823
 20
62.334337812891022
 11
-61.569999999999823
 21
61.733333333333348
  0
LINE
  8
_1-8_小物
  6
CONTINUOUS
 62
    4
 10
-61.569999999999823
 20
62.834337812891022
 11
-61.569999999999823
 21
62.569127239780926
  0
LINE
  8
_1-8_小物
  6
CONTINUOUS
 62
    4
 10
-61.569999999999823
 20
63.334337812891022
 11
-61.569999999999823
 21
63.069127239780926
  0
LINE
  8
_1-8_小物
  6
CONTINUOUS
 62
    4
 10
-61.583333333333144
 20
61.733333333333348
 11
-61.583333333333144
 21
59.952257710865211
  0
LINE
  8
_1-8_小物
  6
CONTINUOUS
 62
    4
 10
-62.166666666666515
 20
59.615470053837953
 11
-61.583333333333144
 21
59.952257710865211
  0
LINE
  8
_1-8_小物
  6
CONTINUOUS
 62
    4
 10
-62.166666666666515
 20
59.615470053837953
 11
-61.79323022903975
 21
61.733333333333348
  0
LINE
  8
_1-8_小物
  6
CENTER2
 62
    4
 10
-62.166666666666515
 20
65.500307053626784
 11
-62.166666666666515
 21
58.751016060446489
  0
LINE
  8
_1-8_小物
  6
CONTINUOUS
 62
    4
 10
-63.833333333333144
 20
64.833333333333314
 11
-63.833333333333144
 21
64.766666666666652
  0
LINE
  8
_1-8_小物
  6
CONTINUOUS
 62
    4
 10
-60.499999999999943
 20
64.766666666666652
 11
-63.833333333333144
 21
64.766666666666652
  0
LINE
  8
_1-8_小物
  6
CONTINUOUS
 62
    4
 10
-60.499999999999943
 20
64.833333333333314
 11
-60.499999999999943
 21
64.766666666666652
  0
LINE
  8
_1-8_小物
  6
CONTINUOUS
 62
    4
 10
-63.833333333333144
 20
64.766666666666652
 11
-62.799999999999727
 21
63.733333333333348
  0
LINE
  8
_1-8_小物
  6
CONTINUOUS
 62
    4
 10
-61.533333333333303
 20
63.733333333333348
 11
-62.799999999999727
 21
63.733333333333348
  0
LINE
  8
_1-8_小物
  6
CONTINUOUS
 62
    4
 10
-60.499999999999943
 20
64.766666666666652
 11
-61.533333333333303
 21
63.733333333333348
  0
ENDBLK
  0
BLOCK
  2
-028-_23_
 70
   64
 10
0
 20
0
 30
0
  0
LINE
  8
_1-9_センタ__プレ__ト
  6
CONTINUOUS
 62
    4
 10
-100.50000000000003
 20
63.849297176170808
 11
-100.00000000000016
 21
63.849297176170808
  0
LINE
  8
_1-9_センタ__プレ__ト
  6
CONTINUOUS
 62
    4
 10
-102.50000000000016
 20
63.849297176170808
 11
-101.50000000000016
 21
63.849297176170808
  0
LINE
  8
_1-9_センタ__プレ__ト
  6
CONTINUOUS
 62
    4
 10
-103.50000000000003
 20
63.749297176170728
 11
-103.50000000000003
 21
63.849297176170808
  0
LINE
  8
_1-9_センタ__プレ__ト
  6
CONTINUOUS
 62
    4
 10
-102.50000000000016
 20
63.749297176170728
 11
-102.50000000000016
 21
63.849297176170808
  0
LINE
  8
_1-9_センタ__プレ__ト
  6
CONTINUOUS
 62
    4
 10
-101.50000000000016
 20
63.749297176170728
 11
-101.50000000000016
 21
63.849297176170808
  0
LINE
  8
_1-9_センタ__プレ__ト
  6
CONTINUOUS
 62
    4
 10
-101.50000000000016
 20
63.749297176170728
 11
-100.50000000000003
 21
63.749297176170728
  0
LINE
  8
_1-9_センタ__プレ__ト
  6
CONTINUOUS
 62
    4
 10
-100.50000000000003
 20
63.749297176170728
 11
-100.50000000000003
 21
63.849297176170808
  0
LINE
  8
_1-9_センタ__プレ__ト
  6
CONTINUOUS
 62
    4
 10
-103.50000000000003
 20
63.749297176170728
 11
-102.50000000000016
 21
63.749297176170728
  0
LINE
  8
_1-9_センタ__プレ__ト
  6
CONTINUOUS
 62
    4
 10
-104.50000000000016
 20
63.849297176170808
 11
-103.50000000000003
 21
63.849297176170808
  0
LINE
  8
_1-9_センタ__プレ__ト
  6
CONTINUOUS
 62
    4
 10
-105.5
 20
63.749297176170728
 11
-105.5
 21
63.849297176170808
  0
LINE
  8
_1-9_センタ__プレ__ト
  6
CONTINUOUS
 62
    4
 10
-104.50000000000016
 20
63.749297176170728
 11
-104.50000000000016
 21
63.849297176170808
  0
LINE
  8
_1-9_センタ__プレ__ト
  6
CONTINUOUS
 62
    4
 10
-105.5
 20
63.749297176170728
 11
-104.50000000000016
 21
63.749297176170728
  0
LINE
  8
_1-9_センタ__プレ__ト
  6
CONTINUOUS
 62
    4
 10
-106.50000000000016
 20
63.849297176170808
 11
-105.5
 21
63.849297176170808
  0
LINE
  8
_1-9_センタ__プレ__ト
  6
CONTINUOUS
 62
    4
 10
-107.50000000000016
 20
63.749297176170728
 11
-107.50000000000016
 21
63.849297176170808
  0
LINE
  8
_1-9_センタ__プレ__ト
  6
CONTINUOUS
 62
    4
 10
-106.50000000000016
 20
63.749297176170728
 11
-106.50000000000016
 21
63.849297176170808
  0
LINE
  8
_1-9_センタ__プレ__ト
  6
CONTINUOUS
 62
    4
 10
-107.50000000000016
 20
63.749297176170728
 11
-106.50000000000016
 21
63.749297176170728
  0
LINE
  8
_1-9_センタ__プレ__ト
  6
CONTINUOUS
 62
    4
 10
-108.5
 20
63.849297176170808
 11
-107.50000000000016
 21
63.849297176170808
  0
LINE
  8
_1-9_センタ__プレ__ト
  6
CONTINUOUS
 62
    4
 10
-109.49999999999986
 20
63.749297176170728
 11
-109.49999999999986
 21
63.849297176170808
  0
LINE
  8
_1-9_センタ__プレ__ト
  6
CONTINUOUS
 62
    4
 10
-108.5
 20
63.749297176170728
 11
-108.5
 21
63.849297176170808
  0
LINE
  8
_1-9_センタ__プレ__ト
  6
CONTINUOUS
 62
    4
 10
-109.49999999999986
 20
63.749297176170728
 11
-108.5
 21
63.749297176170728
  0
LINE
  8
_1-9_センタ__プレ__ト
  6
CONTINUOUS
 62
    4
 10
-110.5
 20
63.849297176170808
 11
-109.49999999999986
 21
63.849297176170808
  0
LINE
  8
_1-9_センタ__プレ__ト
  6
CONTINUOUS
 62
    4
 10
-111.49999999999986
 20
63.749297176170728
 11
-111.49999999999986
 21
63.849297176170808
  0
LINE
  8
_1-9_センタ__プレ__ト
  6
CONTINUOUS
 62
    4
 10
-110.5
 20
63.749297176170728
 11
-110.5
 21
63.849297176170808
  0
LINE
  8
_1-9_センタ__プレ__ト
  6
CONTINUOUS
 62
    4
 10
-111.49999999999986
 20
63.749297176170728
 11
-110.5
 21
63.749297176170728
  0
LINE
  8
_1-9_センタ__プレ__ト
  6
CONTINUOUS
 62
    4
 10
-112.4999999999997
 20
63.849297176170808
 11
-111.49999999999986
 21
63.849297176170808
  0
LINE
  8
_1-9_センタ__プレ__ト
  6
CONTINUOUS
 62
    4
 10
-113.49999999999986
 20
63.749297176170728
 11
-113.49999999999986
 21
63.849297176170808
  0
LINE
  8
_1-9_センタ__プレ__ト
  6
CONTINUOUS
 62
    4
 10
-112.4999999999997
 20
63.749297176170728
 11
-112.4999999999997
 21
63.849297176170808
  0
LINE
  8
_1-9_センタ__プレ__ト
  6
CONTINUOUS
 62
    4
 10
-113.49999999999986
 20
63.749297176170728
 11
-112.4999999999997
 21
63.749297176170728
  0
LINE
  8
_1-9_センタ__プレ__ト
  6
CONTINUOUS
 62
    4
 10
-114.49999999999986
 20
63.849297176170808
 11
-113.49999999999986
 21
63.849297176170808
  0
LINE
  8
_1-9_センタ__プレ__ト
  6
CONTINUOUS
 62
    4
 10
-115.4999999999997
 20
63.749297176170728
 11
-115.4999999999997
 21
63.849297176170808
  0
LINE
  8
_1-9_センタ__プレ__ト
  6
CONTINUOUS
 62
    4
 10
-114.49999999999986
 20
63.749297176170728
 11
-114.49999999999986
 21
63.849297176170808
  0
LINE
  8
_1-9_センタ__プレ__ト
  6
CONTINUOUS
 62
    4
 10
-115.4999999999997
 20
63.749297176170728
 11
-114.49999999999986
 21
63.749297176170728
  0
LINE
  8
_1-9_センタ__プレ__ト
  6
CONTINUOUS
 62
    4
 10
-116.49999999999986
 20
63.849297176170808
 11
-115.4999999999997
 21
63.849297176170808
  0
LINE
  8
_1-9_センタ__プレ__ト
  6
CONTINUOUS
 62
    4
 10
-117.4999999999997
 20
63.749297176170728
 11
-117.4999999999997
 21
63.849297176170808
  0
LINE
  8
_1-9_センタ__プレ__ト
  6
CONTINUOUS
 62
    4
 10
-116.49999999999986
 20
63.749297176170728
 11
-116.49999999999986
 21
63.849297176170808
  0
LINE
  8
_1-9_センタ__プレ__ト
  6
CONTINUOUS
 62
    4
 10
-117.4999999999997
 20
63.749297176170728
 11
-116.49999999999986
 21
63.749297176170728
  0
LINE
  8
_1-9_センタ__プレ__ト
  6
CONTINUOUS
 62
    4
 10
-118.49999999999986
 20
63.849297176170808
 11
-117.4999999999997
 21
63.849297176170808
  0
LINE
  8
_1-9_センタ__プレ__ト
  6
CONTINUOUS
 62
    4
 10
-119.49999999999986
 20
63.749297176170728
 11
-119.49999999999986
 21
63.849297176170808
  0
LINE
  8
_1-9_センタ__プレ__ト
  6
CONTINUOUS
 62
    4
 10
-118.49999999999986
 20
63.749297176170728
 11
-118.49999999999986
 21
63.849297176170808
  0
LINE
  8
_1-9_センタ__プレ__ト
  6
CONTINUOUS
 62
    4
 10
-119.49999999999986
 20
63.749297176170728
 11
-118.49999999999986
 21
63.749297176170728
  0
LINE
  8
_1-9_センタ__プレ__ト
  6
CONTINUOUS
 62
    4
 10
-120.4999999999997
 20
63.849297176170808
 11
-119.49999999999986
 21
63.849297176170808
  0
LINE
  8
_1-9_センタ__プレ__ト
  6
CONTINUOUS
 62
    4
 10
-121.49999999999955
 20
63.749297176170728
 11
-121.49999999999955
 21
63.849297176170808
  0
LINE
  8
_1-9_センタ__プレ__ト
  6
CONTINUOUS
 62
    4
 10
-120.4999999999997
 20
63.749297176170728
 11
-120.4999999999997
 21
63.849297176170808
  0
LINE
  8
_1-9_センタ__プレ__ト
  6
CONTINUOUS
 62
    4
 10
-121.49999999999955
 20
63.749297176170728
 11
-120.4999999999997
 21
63.749297176170728
  0
LINE
  8
_1-9_センタ__プレ__ト
  6
CONTINUOUS
 62
    4
 10
-122.4999999999994
 20
63.849297176170808
 11
-121.49999999999955
 21
63.849297176170808
  0
LINE
  8
_1-9_センタ__プレ__ト
  6
CONTINUOUS
 62
    4
 10
-122.4999999999994
 20
63.749297176170728
 11
-122.4999999999994
 21
63.849297176170808
  0
LINE
  8
_1-9_センタ__プレ__ト
  6
CONTINUOUS
 62
    4
 10
-122.99999999999925
 20
63.749297176170728
 11
-122.4999999999994
 21
63.749297176170728
  0
LINE
  8
_1-9_センタ__プレ__ト
  6
CONTINUOUS
 62
    4
 10
-122.80047480362055
 20
62.849297176170722
 11
-100.00000000000016
 21
62.849297176170722
  0
LINE
  8
_1-9_センタ__プレ__ト
  6
CONTINUOUS
 62
    4
 10
-99.500001999999924
 20
63.849297176170808
 11
-100.00000200000008
 21
63.849297176170808
  0
LINE
  8
_1-9_センタ__プレ__ト
  6
CONTINUOUS
 62
    4
 10
-97.50000200000008
 20
63.849297176170808
 11
-98.50000200000008
 21
63.849297176170808
  0
LINE
  8
_1-9_センタ__プレ__ト
  6
CONTINUOUS
 62
    4
 10
-96.500002000000251
 20
63.749297176170728
 11
-96.500002000000251
 21
63.849297176170808
  0
LINE
  8
_1-9_センタ__プレ__ト
  6
CONTINUOUS
 62
    4
 10
-97.50000200000008
 20
63.749297176170728
 11
-97.50000200000008
 21
63.849297176170808
  0
LINE
  8
_1-9_センタ__プレ__ト
  6
CONTINUOUS
 62
    4
 10
-98.50000200000008
 20
63.749297176170728
 11
-98.50000200000008
 21
63.849297176170808
  0
LINE
  8
_1-9_センタ__プレ__ト
  6
CONTINUOUS
 62
    4
 10
-98.50000200000008
 20
63.749297176170728
 11
-99.500001999999924
 21
63.749297176170728
  0
LINE
  8
_1-9_センタ__プレ__ト
  6
CONTINUOUS
 62
    4
 10
-99.500001999999924
 20
63.749297176170728
 11
-99.500001999999924
 21
63.849297176170808
  0
LINE
  8
_1-9_センタ__プレ__ト
  6
CONTINUOUS
 62
    4
 10
-96.500002000000251
 20
63.749297176170728
 11
-97.50000200000008
 21
63.749297176170728
  0
LINE
  8
_1-9_センタ__プレ__ト
  6
CONTINUOUS
 62
    4
 10
-95.500001999999924
 20
63.849297176170808
 11
-96.500002000000251
 21
63.849297176170808
  0
LINE
  8
_1-9_センタ__プレ__ト
  6
CONTINUOUS
 62
    4
 10
-94.500001999999924
 20
63.749297176170728
 11
-94.500001999999924
 21
63.849297176170808
  0
LINE
  8
_1-9_センタ__プレ__ト
  6
CONTINUOUS
 62
    4
 10
-95.500001999999924
 20
63.749297176170728
 11
-95.500001999999924
 21
63.849297176170808
  0
LINE
  8
_1-9_センタ__プレ__ト
  6
CONTINUOUS
 62
    4
 10
-94.500001999999924
 20
63.749297176170728
 11
-95.500001999999924
 21
63.749297176170728
  0
LINE
  8
_1-9_センタ__プレ__ト
  6
CONTINUOUS
 62
    4
 10
-93.50000200000008
 20
63.849297176170808
 11
-94.500001999999924
 21
63.849297176170808
  0
LINE
  8
_1-9_センタ__プレ__ト
  6
CONTINUOUS
 62
    4
 10
-92.50000200000008
 20
63.749297176170728
 11
-92.50000200000008
 21
63.849297176170808
  0
LINE
  8
_1-9_センタ__プレ__ト
  6
CONTINUOUS
 62
    4
 10
-93.50000200000008
 20
63.749297176170728
 11
-93.50000200000008
 21
63.849297176170808
  0
LINE
  8
_1-9_センタ__プレ__ト
  6
CONTINUOUS
 62
    4
 10
-92.50000200000008
 20
63.749297176170728
 11
-93.50000200000008
 21
63.749297176170728
  0
LINE
  8
_1-9_センタ__プレ__ト
  6
CONTINUOUS
 62
    4
 10
-91.500002000000251
 20
63.849297176170808
 11
-92.50000200000008
 21
63.849297176170808
  0
LINE
  8
_1-9_センタ__プレ__ト
  6
CONTINUOUS
 62
    4
 10
-90.500002000000379
 20
63.749297176170728
 11
-90.500002000000379
 21
63.849297176170808
  0
LINE
  8
_1-9_センタ__プレ__ト
  6
CONTINUOUS
 62
    4
 10
-91.500002000000251
 20
63.749297176170728
 11
-91.500002000000251
 21
63.849297176170808
  0
LINE
  8
_1-9_センタ__プレ__ト
  6
CONTINUOUS
 62
    4
 10
-90.500002000000379
 20
63.749297176170728
 11
-91.500002000000251
 21
63.749297176170728
  0
LINE
  8
_1-9_センタ__プレ__ト
  6
CONTINUOUS
 62
    4
 10
-89.500001999999924
 20
63.849297176170808
 11
-90.500002000000379
 21
63.849297176170808
  0
LINE
  8
_1-9_センタ__プレ__ト
  6
CONTINUOUS
 62
    4
 10
-88.500002000000251
 20
63.749297176170728
 11
-88.500002000000251
 21
63.849297176170808
  0
LINE
  8
_1-9_センタ__プレ__ト
  6
CONTINUOUS
 62
    4
 10
-89.500001999999924
 20
63.749297176170728
 11
-89.500001999999924
 21
63.849297176170808
  0
LINE
  8
_1-9_センタ__プレ__ト
  6
CONTINUOUS
 62
    4
 10
-88.500002000000251
 20
63.749297176170728
 11
-89.500001999999924
 21
63.749297176170728
  0
LINE
  8
_1-9_センタ__プレ__ト
  6
CONTINUOUS
 62
    4
 10
-87.500002000000251
 20
63.849297176170808
 11
-88.500002000000251
 21
63.849297176170808
  0
LINE
  8
_1-9_センタ__プレ__ト
  6
CONTINUOUS
 62
    4
 10
-86.500002000000379
 20
63.749297176170728
 11
-86.500002000000379
 21
63.849297176170808
  0
LINE
  8
_1-9_センタ__プレ__ト
  6
CONTINUOUS
 62
    4
 10
-87.500002000000251
 20
63.749297176170728
 11
-87.500002000000251
 21
63.849297176170808
  0
LINE
  8
_1-9_センタ__プレ__ト
  6
CONTINUOUS
 62
    4
 10
-86.500002000000379
 20
63.749297176170728
 11
-87.500002000000251
 21
63.749297176170728
  0
LINE
  8
_1-9_センタ__プレ__ト
  6
CONTINUOUS
 62
    4
 10
-85.500002000000379
 20
63.849297176170808
 11
-86.500002000000379
 21
63.849297176170808
  0
LINE
  8
_1-9_センタ__プレ__ト
  6
CONTINUOUS
 62
    4
 10
-84.500002000000535
 20
63.749297176170728
 11
-84.500002000000535
 21
63.849297176170808
  0
LINE
  8
_1-9_センタ__プレ__ト
  6
CONTINUOUS
 62
    4
 10
-85.500002000000379
 20
63.749297176170728
 11
-85.500002000000379
 21
63.849297176170808
  0
LINE
  8
_1-9_センタ__プレ__ト
  6
CONTINUOUS
 62
    4
 10
-84.500002000000535
 20
63.749297176170728
 11
-85.500002000000379
 21
63.749297176170728
  0
LINE
  8
_1-9_センタ__プレ__ト
  6
CONTINUOUS
 62
    4
 10
-83.500002000000251
 20
63.849297176170808
 11
-84.500002000000535
 21
63.849297176170808
  0
LINE
  8
_1-9_センタ__プレ__ト
  6
CONTINUOUS
 62
    4
 10
-82.500002000000251
 20
63.749297176170728
 11
-82.500002000000251
 21
63.849297176170808
  0
LINE
  8
_1-9_センタ__プレ__ト
  6
CONTINUOUS
 62
    4
 10
-83.500002000000251
 20
63.749297176170728
 11
-83.500002000000251
 21
63.849297176170808
  0
LINE
  8
_1-9_センタ__プレ__ト
  6
CONTINUOUS
 62
    4
 10
-82.500002000000251
 20
63.749297176170728
 11
-83.500002000000251
 21
63.749297176170728
  0
LINE
  8
_1-9_センタ__プレ__ト
  6
CONTINUOUS
 62
    4
 10
-81.500002000000393
 20
63.849297176170808
 11
-82.500002000000251
 21
63.849297176170808
  0
LINE
  8
_1-9_センタ__プレ__ト
  6
CONTINUOUS
 62
    4
 10
-80.500002000000393
 20
63.749297176170728
 11
-80.500002000000393
 21
63.849297176170808
  0
LINE
  8
_1-9_センタ__プレ__ト
  6
CONTINUOUS
 62
    4
 10
-81.500002000000393
 20
63.749297176170728
 11
-81.500002000000393
 21
63.849297176170808
  0
LINE
  8
_1-9_センタ__プレ__ト
  6
CONTINUOUS
 62
    4
 10
-80.500002000000393
 20
63.749297176170728
 11
-81.500002000000393
 21
63.749297176170728
  0
LINE
  8
_1-9_センタ__プレ__ト
  6
CONTINUOUS
 62
    4
 10
-79.500002000000535
 20
63.849297176170808
 11
-80.500002000000393
 21
63.849297176170808
  0
LINE
  8
_1-9_センタ__プレ__ト
  6
CONTINUOUS
 62
    4
 10
-78.500002000000705
 20
63.749297176170728
 11
-78.500002000000705
 21
63.849297176170808
  0
LINE
  8
_1-9_センタ__プレ__ト
  6
CONTINUOUS
 62
    4
 10
-79.500002000000535
 20
63.749297176170728
 11
-79.500002000000535
 21
63.849297176170808
  0
LINE
  8
_1-9_センタ__プレ__ト
  6
CONTINUOUS
 62
    4
 10
-78.500002000000705
 20
63.749297176170728
 11
-79.500002000000535
 21
63.749297176170728
  0
LINE
  8
_1-9_センタ__プレ__ト
  6
CONTINUOUS
 62
    4
 10
-77.500002000000848
 20
63.849297176170808
 11
-78.500002000000705
 21
63.849297176170808
  0
LINE
  8
_1-9_センタ__プレ__ト
  6
CONTINUOUS
 62
    4
 10
-77.500002000000848
 20
63.749297176170728
 11
-77.500002000000848
 21
63.849297176170808
  0
LINE
  8
_1-9_センタ__プレ__ト
  6
CONTINUOUS
 62
    4
 10
-77.000002000000848
 20
63.749297176170728
 11
-77.500002000000848
 21
63.749297176170728
  0
LINE
  8
_1-9_センタ__プレ__ト
  6
CONTINUOUS
 62
    4
 10
-76.546848106482543
 20
63.537988045300409
 11
-76.504586280308416
 21
63.62861882400415
  0
LINE
  8
_1-9_センタ__プレ__ト
  6
CONTINUOUS
 62
    4
 10
-76.546848106482543
 20
63.537988045300409
 11
-77.000002000000848
 21
63.749297176170728
  0
LINE
  8
_1-9_センタ__プレ__ト
  6
CONTINUOUS
 62
    4
 10
-75.598278493271977
 20
63.206000562263512
 11
-76.504586280308416
 21
63.62861882400415
  0
LINE
  8
_1-9_センタ__プレ__ト
  6
CONTINUOUS
 62
    4
 10
-74.734232532409521
 20
62.692751521819162
 11
-74.691970706235395
 21
62.783382300522931
  0
LINE
  8
_1-9_センタ__プレ__ト
  6
CONTINUOUS
 62
    4
 10
-75.640540319445961
 20
63.115369783559828
 11
-75.598278493271977
 21
63.206000562263512
  0
LINE
  8
_1-9_センタ__プレ__ト
  6
CONTINUOUS
 62
    4
 10
-74.734232532409521
 20
62.692751521819162
 11
-75.640540319445961
 21
63.115369783559828
  0
LINE
  8
_1-9_センタ__プレ__ト
  6
CONTINUOUS
 62
    4
 10
-77.199527196379535
 20
62.849297176170722
 11
-100.00000200000008
 21
62.849297176170722
  0
LINE
  8
_1-9_センタ__プレ__ト
  6
CONTINUOUS
 62
    4
 10
-73.785662919198813
 20
62.360764038782492
 11
-74.691970706235395
 21
62.783382300523158
  0
LINE
  8
_1-9_センタ__プレ__ト
  6
CONTINUOUS
 62
    4
 10
-72.9216169583365
 20
61.84751499833817
 11
-72.879355132162203
 21
61.93814577704191
  0
LINE
  8
_1-9_センタ__プレ__ト
  6
CONTINUOUS
 62
    4
 10
-73.827924745373082
 20
62.270133260078808
 11
-73.785662919198813
 21
62.360764038782492
  0
LINE
  8
_1-9_センタ__プレ__ト
  6
CONTINUOUS
 62
    4
 10
-72.9216169583365
 20
61.84751499833817
 11
-73.827924745373082
 21
62.270133260078808
  0
LINE
  8
_1-9_センタ__プレ__ト
  6
CONTINUOUS
 62
    4
 10
-71.973047345125764
 20
61.515527515301471
 11
-72.879355132162203
 21
61.938145777042138
  0
LINE
  8
_1-9_センタ__プレ__ト
  6
CONTINUOUS
 62
    4
 10
-72.015309171299748
 20
61.424896736597816
 11
-71.973047345125764
 21
61.515527515301471
  0
LINE
  8
_1-9_センタ__プレ__ト
  6
CONTINUOUS
 62
    4
 10
-71.562155277781613
 20
61.213587605727469
 11
-72.015309171299748
 21
61.424896736597816
  0
LINE
  8
_1-9_センタ__プレ__ト
  6
CONTINUOUS
 62
    4
 10
-71.942511713348296
 20
60.397910597394031
 11
-71.562155277781613
 21
61.213587605727469
  0
LINE
  8
_1-9_センタ__プレ__ト
  6
CONTINUOUS
 62
    4
 10
-71.942511713348296
 20
60.397910597394031
 11
-77.199527196379535
 21
62.849297176170808
  0
LINE
  8
_1-9_センタ__プレ__ト
  6
CONTINUOUS
 62
    4
 10
-123.45315389351754
 20
63.537988045300409
 11
-123.49541571969182
 21
63.62861882400415
  0
LINE
  8
_1-9_センタ__プレ__ト
  6
CONTINUOUS
 62
    4
 10
-123.45315389351754
 20
63.537988045300409
 11
-122.99999999999925
 21
63.749297176170728
  0
LINE
  8
_1-9_センタ__プレ__ト
  6
CONTINUOUS
 62
    4
 10
-124.4017235067281
 20
63.206000562263512
 11
-123.49541571969182
 21
63.62861882400415
  0
LINE
  8
_1-9_センタ__プレ__ト
  6
CONTINUOUS
 62
    4
 10
-125.26576946759073
 20
62.692751521819162
 11
-125.30803129376486
 21
62.783382300522931
  0
LINE
  8
_1-9_センタ__プレ__ト
  6
CONTINUOUS
 62
    4
 10
-124.35946168055429
 20
63.115369783559828
 11
-124.4017235067281
 21
63.206000562263512
  0
LINE
  8
_1-9_センタ__プレ__ト
  6
CONTINUOUS
 62
    4
 10
-125.26576946759073
 20
62.692751521819162
 11
-124.35946168055429
 21
63.115369783559828
  0
LINE
  8
_1-9_センタ__プレ__ト
  6
CONTINUOUS
 62
    4
 10
-126.2143390808013
 20
62.360764038782492
 11
-125.30803129376486
 21
62.783382300523158
  0
LINE
  8
_1-9_センタ__プレ__ト
  6
CONTINUOUS
 62
    4
 10
-127.07838504166375
 20
61.84751499833817
 11
-127.12064686783788
 21
61.93814577704191
  0
LINE
  8
_1-9_センタ__プレ__ト
  6
CONTINUOUS
 62
    4
 10
-126.17207725462717
 20
62.270133260078808
 11
-126.2143390808013
 21
62.360764038782492
  0
LINE
  8
_1-9_センタ__プレ__ト
  6
CONTINUOUS
 62
    4
 10
-127.07838504166375
 20
61.84751499833817
 11
-126.17207725462717
 21
62.270133260078808
  0
LINE
  8
_1-9_センタ__プレ__ト
  6
CONTINUOUS
 62
    4
 10
-128.02695465487449
 20
61.515527515301471
 11
-127.12064686783788
 21
61.938145777042138
  0
LINE
  8
_1-9_センタ__プレ__ト
  6
CONTINUOUS
 62
    4
 10
-127.9846928287005
 20
61.424896736597816
 11
-128.02695465487449
 21
61.515527515301471
  0
LINE
  8
_1-9_センタ__プレ__ト
  6
CONTINUOUS
 62
    4
 10
-128.4378467222185
 20
61.213587605727469
 11
-127.9846928287005
 21
61.424896736597816
  0
LINE
  8
_1-9_センタ__プレ__ト
  6
CONTINUOUS
 62
    4
 10
-128.05749028665181
 20
60.397910597394031
 11
-128.4378467222185
 21
61.213587605727469
  0
LINE
  8
_1-9_センタ__プレ__ト
  6
CONTINUOUS
 62
    4
 10
-128.05749028665181
 20
60.397910597394031
 11
-122.80047480362055
 21
62.849297176170808
  0
LINE
  8
_1-9_センタ__プレ__ト
  6
DASHED3
 62
    4
 10
-100.00000000000016
 20
60.18122619517851
 11
-100.00000000000016
 21
64.682630509504065
  0
ENDBLK
  0
BLOCK
  2
-029-_24_
 70
   64
 10
0
 20
0
 30
0
  0
LINE
  8
_1-7_カバ__
  6
CONTINUOUS
 62
    4
 10
100.00000466666643
 20
64.833333333333314
 11
100.33333799999974
 21
65.166666666666657
  0
LINE
  8
_1-7_カバ__
  6
CONTINUOUS
 62
    4
 10
142.33333799999974
 20
65.166666666666657
 11
142.66667133333306
 21
64.833333333333314
  0
LINE
  8
_1-7_カバ__
  6
CONTINUOUS
 62
    4
 10
142.66667133333306
 20
64.833333333333314
 11
142.66667133333306
 21
64.166666666666657
  0
LINE
  8
_1-7_カバ__
  6
CONTINUOUS
 62
    4
 10
100.33333799999974
 20
65.166666666666657
 11
142.33333799999974
 21
65.166666666666657
  0
LINE
  8
_1-7_カバ__
  6
CONTINUOUS
 62
    4
 10
100.00000466666643
 20
64.166666666666657
 11
100.00000466666643
 21
64.833333333333314
  0
LINE
  8
_1-7_カバ__
  6
CONTINUOUS
 62
    4
 10
142.66667133333306
 20
64.166666666666657
 11
100.00000466666643
 21
64.166666666666657
  0
LINE
  8
_1-7_カバ__
  6
DASHED1
 62
    4
 10
140.4166666666664
 20
64.166666666666657
 11
140.4166666666664
 21
64.33332866666666
  0
LINE
  8
_1-7_カバ__
  6
DASHED1
 62
    4
 10
138.58333333333303
 20
64.166666666666657
 11
138.58333333333303
 21
64.333337999999969
  0
LINE
  8
_1-7_カバ__
  6
DASHED1
 62
    4
 10
140.4166666666664
 20
64.33332866666666
 11
138.58333333333303
 21
64.33332866666666
  0
LINE
  8
_1-7_カバ__
  6
DASHED1
 62
    4
 10
138.58333333333303
 20
64.333337999999969
 11
137.75000466666643
 21
65.166666666666657
  0
LINE
  8
_1-7_カバ__
  6
DASHED1
 62
    4
 10
141.25000466666643
 20
65.166666666666657
 11
140.4166666666664
 21
64.33332866666666
  0
LINE
  8
_1-7_カバ__
  6
CENTER2
 62
    4
 10
139.49999999999977
 20
62.452776833333303
 11
139.49999999999977
 21
66.270218833333303
  0
ENDBLK
  0
BLOCK
  2
-030-_25_
 70
   64
 10
0
 20
0
 30
0
  0
LINE
  8
_1-9_センタ__プレ__ト
  6
CONTINUOUS
 62
    4
 10
70.246505244500099
 20
63.507599633250493
 11
70.148024469198731
 21
63.524964451017155
  0
LINE
  8
_1-9_センタ__プレ__ト
  6
CONTINUOUS
 62
    4
 10
69.974376291531996
 20
62.540156698005148
 11
70.148024469198731
 21
63.524964451017155
  0
LINE
  8
_1-9_センタ__プレ__ト
  6
CONTINUOUS
 62
    4
 10
69.899208889166459
 20
61.537984127226451
 11
69.80072811386492
 21
61.555348944993113
  0
LINE
  8
_1-9_センタ__プレ__ト
  6
CONTINUOUS
 62
    4
 10
70.072857066833137
 20
62.522791880238458
 11
69.974376291531996
 21
62.540156698005148
  0
LINE
  8
_1-9_センタ__プレ__ト
  6
CONTINUOUS
 62
    4
 10
69.899208889166459
 20
61.537984127226451
 11
70.072857066833137
 21
62.522791880238458
  0
LINE
  8
_1-9_センタ__プレ__ト
  6
CONTINUOUS
 62
    4
 10
69.627079936197447
 20
60.570541191980965
 11
69.800728113864693
 21
61.555348944993284
  0
LINE
  8
_1-9_センタ__プレ__ト
  6
CONTINUOUS
 62
    4
 10
69.551912533832251
 20
59.568368621202467
 11
69.453431758530712
 21
59.585733438969129
  0
LINE
  8
_1-9_センタ__プレ__ト
  6
CONTINUOUS
 62
    4
 10
69.725560711498986
 20
60.553176374214445
 11
69.627079936197447
 21
60.570541191980965
  0
LINE
  8
_1-9_センタ__プレ__ト
  6
CONTINUOUS
 62
    4
 10
69.551912533832251
 20
59.568368621202467
 11
69.725560711498986
 21
60.553176374214445
  0
LINE
  8
_1-9_センタ__プレ__ト
  6
CONTINUOUS
 62
    4
 10
70.833333333333655
 20
64.100003509756561
 11
71.833333333333542
 21
64.100003509756561
  0
LINE
  8
_1-9_センタ__プレ__ト
  6
CONTINUOUS
 62
    4
 10
70.833333333333655
 20
64.000003509756482
 11
70.833333333333655
 21
64.100003509756561
  0
LINE
  8
_1-9_センタ__プレ__ト
  6
CONTINUOUS
 62
    4
 10
71.833333333333542
 20
64.000003509756482
 11
71.833333333333542
 21
64.100003509756561
  0
LINE
  8
_1-9_センタ__プレ__ト
  6
CONTINUOUS
 62
    4
 10
71.833333333333542
 20
64.000003509756482
 11
72.833333333333599
 21
64.000003509756482
  0
LINE
  8
_1-9_センタ__プレ__ト
  6
CONTINUOUS
 62
    4
 10
72.833333333333599
 20
64.000003509756482
 11
72.833333333333599
 21
64.100003509756561
  0
LINE
  8
_1-9_センタ__プレ__ト
  6
CONTINUOUS
 62
    4
 10
70.333329333333438
 20
64.000003509756482
 11
70.833333333333655
 21
64.000003509756482
  0
LINE
  8
_1-9_センタ__プレ__ト
  6
CONTINUOUS
 62
    4
 10
70.246505244500099
 20
63.507599633250493
 11
70.333329333333438
 21
64.000003509756482
  0
LINE
  8
_1-9_センタ__プレ__ト
  6
CONTINUOUS
 62
    4
 10
69.366607669697146
 20
59.093329562463424
 11
69.453431758530485
 21
59.585733438969214
  0
LINE
  8
_1-9_センタ__プレ__ト
  6
CONTINUOUS
 62
    4
 10
70.35141542271009
 20
58.919681384796263
 11
69.366607669697146
 21
59.093329562463424
  0
LINE
  8
_1-9_センタ__プレ__ト
  6
CONTINUOUS
 62
    4
 10
70.35141542271009
 20
58.919681384796263
 11
71.088519001393138
 21
63.100003509756561
  0
LINE
  8
_1-9_センタ__プレ__ト
  6
CONTINUOUS
 62
    4
 10
72.833333333333599
 20
64.100003509756561
 11
73.833333333333428
 21
64.100003509756561
  0
LINE
  8
_1-9_センタ__プレ__ト
  6
CONTINUOUS
 62
    4
 10
73.833333333333428
 20
64.000003509756482
 11
73.833333333333428
 21
64.100003509756561
  0
LINE
  8
_1-9_センタ__プレ__ト
  6
CONTINUOUS
 62
    4
 10
73.833333333333428
 20
64.000003509756482
 11
74.833333333333655
 21
64.000003509756482
  0
LINE
  8
_1-9_センタ__プレ__ト
  6
CONTINUOUS
 62
    4
 10
74.833333333333655
 20
64.000003509756482
 11
74.833333333333655
 21
64.100003509756561
  0
LINE
  8
_1-9_センタ__プレ__ト
  6
CONTINUOUS
 62
    4
 10
74.833333333333655
 20
64.100003509756561
 11
75.833333333333542
 21
64.100003509756561
  0
LINE
  8
_1-9_センタ__プレ__ト
  6
CONTINUOUS
 62
    4
 10
75.833333333333542
 20
64.000003509756482
 11
75.833333333333542
 21
64.100003509756561
  0
LINE
  8
_1-9_センタ__プレ__ト
  6
CONTINUOUS
 62
    4
 10
75.833333333333542
 20
64.000003509756482
 11
76.833333333333542
 21
64.000003509756482
  0
LINE
  8
_1-9_センタ__プレ__ト
  6
CONTINUOUS
 62
    4
 10
76.833333333333542
 20
64.000003509756482
 11
76.833333333333542
 21
64.100003509756561
  0
LINE
  8
_1-9_センタ__プレ__ト
  6
CONTINUOUS
 62
    4
 10
76.833333333333542
 20
64.100003509756561
 11
77.833333333333371
 21
64.100003509756561
  0
LINE
  8
_1-9_センタ__プレ__ト
  6
CONTINUOUS
 62
    4
 10
77.833333333333371
 20
64.000003509756482
 11
77.833333333333371
 21
64.100003509756561
  0
LINE
  8
_1-9_センタ__プレ__ト
  6
CONTINUOUS
 62
    4
 10
77.833333333333371
 20
64.000003509756482
 11
78.833333333333428
 21
64.000003509756482
  0
LINE
  8
_1-9_センタ__プレ__ト
  6
CONTINUOUS
 62
    4
 10
78.833333333333428
 20
64.000003509756482
 11
78.833333333333428
 21
64.100003509756561
  0
LINE
  8
_1-9_センタ__プレ__ト
  6
CONTINUOUS
 62
    4
 10
78.833333333333428
 20
64.100003509756561
 11
79.833333333333314
 21
64.100003509756561
  0
LINE
  8
_1-9_センタ__プレ__ト
  6
CONTINUOUS
 62
    4
 10
79.833333333333314
 20
64.000003509756482
 11
79.833333333333314
 21
64.100003509756561
  0
LINE
  8
_1-9_センタ__プレ__ト
  6
CONTINUOUS
 62
    4
 10
79.833333333333314
 20
64.000003509756482
 11
80.833333333333542
 21
64.000003509756482
  0
LINE
  8
_1-9_センタ__プレ__ト
  6
CONTINUOUS
 62
    4
 10
80.833333333333542
 20
64.000003509756482
 11
80.833333333333542
 21
64.100003509756561
  0
LINE
  8
_1-9_センタ__プレ__ト
  6
CONTINUOUS
 62
    4
 10
80.833333333333542
 20
64.100003509756561
 11
81.833333333333371
 21
64.100003509756561
  0
LINE
  8
_1-9_センタ__プレ__ト
  6
CONTINUOUS
 62
    4
 10
81.833333333333371
 20
64.000003509756482
 11
81.833333333333371
 21
64.100003509756561
  0
LINE
  8
_1-9_センタ__プレ__ト
  6
CONTINUOUS
 62
    4
 10
81.833333333333371
 20
64.000003509756482
 11
82.833333333333371
 21
64.000003509756482
  0
LINE
  8
_1-9_センタ__プレ__ト
  6
CONTINUOUS
 62
    4
 10
82.833333333333371
 20
64.000003509756482
 11
82.833333333333371
 21
64.100003509756561
  0
LINE
  8
_1-9_センタ__プレ__ト
  6
CONTINUOUS
 62
    4
 10
82.833333333333371
 20
64.100003509756561
 11
83.833333333333201
 21
64.100003509756561
  0
LINE
  8
_1-9_センタ__プレ__ト
  6
CONTINUOUS
 62
    4
 10
83.833333333333201
 20
64.000003509756482
 11
83.833333333333201
 21
64.100003509756561
  0
LINE
  8
_1-9_センタ__プレ__ト
  6
CONTINUOUS
 62
    4
 10
83.833333333333201
 20
64.000003509756482
 11
84.833333333333314
 21
64.000003509756482
  0
LINE
  8
_1-9_センタ__プレ__ト
  6
CONTINUOUS
 62
    4
 10
84.833333333333314
 20
64.000003509756482
 11
84.833333333333314
 21
64.100003509756561
  0
LINE
  8
_1-9_センタ__プレ__ト
  6
CONTINUOUS
 62
    4
 10
84.833333333333314
 20
64.100003509756561
 11
85.833333333333144
 21
64.100003509756561
  0
LINE
  8
_1-9_センタ__プレ__ト
  6
CONTINUOUS
 62
    4
 10
85.833333333333144
 20
64.000003509756482
 11
85.833333333333144
 21
64.100003509756561
  0
LINE
  8
_1-9_センタ__プレ__ト
  6
CONTINUOUS
 62
    4
 10
85.833333333333144
 20
64.000003509756482
 11
86.833333333333371
 21
64.000003509756482
  0
LINE
  8
_1-9_センタ__プレ__ト
  6
CONTINUOUS
 62
    4
 10
86.833333333333371
 20
64.000003509756482
 11
86.833333333333371
 21
64.100003509756561
  0
LINE
  8
_1-9_センタ__プレ__ト
  6
CONTINUOUS
 62
    4
 10
86.833333333333371
 20
64.100003509756561
 11
87.833333333333201
 21
64.100003509756561
  0
LINE
  8
_1-9_センタ__プレ__ト
  6
CONTINUOUS
 62
    4
 10
87.833333333333201
 20
64.000003509756482
 11
87.833333333333201
 21
64.100003509756561
  0
LINE
  8
_1-9_センタ__プレ__ト
  6
CONTINUOUS
 62
    4
 10
87.833333333333201
 20
64.000003509756482
 11
88.833333333333201
 21
64.000003509756482
  0
LINE
  8
_1-9_センタ__プレ__ト
  6
CONTINUOUS
 62
    4
 10
88.833333333333201
 20
64.000003509756482
 11
88.833333333333201
 21
64.100003509756561
  0
LINE
  8
_1-9_センタ__プレ__ト
  6
CONTINUOUS
 62
    4
 10
115.83333133333292
 20
64.100003509756561
 11
114.83333133333264
 21
64.100003509756561
  0
LINE
  8
_1-9_センタ__プレ__ト
  6
CONTINUOUS
 62
    4
 10
115.83333133333292
 20
64.000003509756482
 11
115.83333133333292
 21
64.100003509756561
  0
LINE
  8
_1-9_センタ__プレ__ト
  6
CONTINUOUS
 62
    4
 10
116.78648522685091
 20
63.788694378886163
 11
116.8287470530251
 21
63.879325157589903
  0
LINE
  8
_1-9_センタ__プレ__ト
  6
CONTINUOUS
 62
    4
 10
117.73505484006148
 20
63.456706895849265
 11
116.8287470530251
 21
63.879325157589903
  0
LINE
  8
_1-9_センタ__プレ__ト
  6
CONTINUOUS
 62
    4
 10
118.59910080092402
 20
62.943457855404858
 11
118.6413626270982
 21
63.034088634108599
  0
LINE
  8
_1-9_センタ__プレ__ト
  6
CONTINUOUS
 62
    4
 10
117.69279301388752
 20
63.366076117145667
 11
117.73505484006148
 21
63.456706895849265
  0
LINE
  8
_1-9_センタ__プレ__ト
  6
CONTINUOUS
 62
    4
 10
118.59910080092402
 20
62.943457855404858
 11
117.69279301388752
 21
63.366076117145667
  0
LINE
  8
_1-9_センタ__プレ__ト
  6
CONTINUOUS
 62
    4
 10
119.54767041413481
 20
62.611470372368245
 11
118.6413626270982
 21
63.034088634108912
  0
LINE
  8
_1-9_センタ__プレ__ト
  6
CONTINUOUS
 62
    4
 10
120.41171637499713
 20
62.098221331923838
 11
120.45397820117125
 21
62.188852110627579
  0
LINE
  8
_1-9_センタ__プレ__ト
  6
CONTINUOUS
 62
    4
 10
119.50540858796069
 20
62.520839593664647
 11
119.54767041413481
 21
62.611470372368245
  0
LINE
  8
_1-9_センタ__プレ__ト
  6
CONTINUOUS
 62
    4
 10
120.41171637499713
 20
62.098221331923838
 11
119.50540858796069
 21
62.520839593664647
  0
LINE
  8
_1-9_センタ__プレ__ト
  6
CONTINUOUS
 62
    4
 10
121.36028598820769
 20
61.766233848887225
 11
120.45397820117125
 21
62.188852110627892
  0
LINE
  8
_1-9_センタ__プレ__ト
  6
CONTINUOUS
 62
    4
 10
121.31802416203385
 20
61.675603070183627
 11
121.36028598820769
 21
61.766233848887225
  0
LINE
  8
_1-9_センタ__プレ__ト
  6
CONTINUOUS
 62
    4
 10
121.77117805555218
 20
61.464293939313308
 11
121.31802416203385
 21
61.675603070183627
  0
LINE
  8
_1-9_センタ__プレ__ト
  6
CONTINUOUS
 62
    4
 10
121.39082161998516
 20
60.648616930979699
 11
121.77117805555184
 21
61.464293939313308
  0
LINE
  8
_1-9_センタ__プレ__ト
  6
CONTINUOUS
 62
    4
 10
88.833333333333201
 20
64.100003509756561
 11
89.833333333333087
 21
64.100003509756561
  0
LINE
  8
_1-9_センタ__プレ__ト
  6
CONTINUOUS
 62
    4
 10
89.833333333333087
 20
64.000003509756482
 11
89.833333333333087
 21
64.100003509756561
  0
LINE
  8
_1-9_センタ__プレ__ト
  6
CONTINUOUS
 62
    4
 10
89.833333333333087
 20
64.000003509756482
 11
90.833333333333314
 21
64.000003509756482
  0
LINE
  8
_1-9_センタ__プレ__ト
  6
CONTINUOUS
 62
    4
 10
90.833333333333314
 20
64.000003509756482
 11
90.833333333333314
 21
64.100003509756561
  0
LINE
  8
_1-9_センタ__プレ__ト
  6
CONTINUOUS
 62
    4
 10
90.833333333333314
 20
64.100003509756561
 11
91.833333333333144
 21
64.100003509756561
  0
LINE
  8
_1-9_センタ__プレ__ト
  6
CONTINUOUS
 62
    4
 10
91.833333333333144
 20
64.000003509756482
 11
91.833333333333144
 21
64.100003509756561
  0
LINE
  8
_1-9_センタ__プレ__ト
  6
CONTINUOUS
 62
    4
 10
91.833333333333144
 20
64.000003509756482
 11
92.833333333333144
 21
64.000003509756482
  0
LINE
  8
_1-9_センタ__プレ__ト
  6
CONTINUOUS
 62
    4
 10
92.833333333333144
 20
64.000003509756482
 11
92.833333333333144
 21
64.100003509756561
  0
LINE
  8
_1-9_センタ__プレ__ト
  6
CONTINUOUS
 62
    4
 10
92.833333333333144
 20
64.100003509756561
 11
93.833333333332973
 21
64.100003509756561
  0
LINE
  8
_1-9_センタ__プレ__ト
  6
CONTINUOUS
 62
    4
 10
93.833333333332973
 20
64.000003509756482
 11
93.833333333332973
 21
64.100003509756561
  0
LINE
  8
_1-9_センタ__プレ__ト
  6
CONTINUOUS
 62
    4
 10
93.833333333332973
 20
64.000003509756482
 11
94.833333333333087
 21
64.000003509756482
  0
LINE
  8
_1-9_センタ__プレ__ト
  6
CONTINUOUS
 62
    4
 10
94.833333333333087
 20
64.000003509756482
 11
94.833333333333087
 21
64.100003509756561
  0
LINE
  8
_1-9_センタ__プレ__ト
  6
CONTINUOUS
 62
    4
 10
94.833333333333087
 20
64.100003509756561
 11
95.833333333332916
 21
64.100003509756561
  0
LINE
  8
_1-9_センタ__プレ__ト
  6
CONTINUOUS
 62
    4
 10
95.833333333332916
 20
64.000003509756482
 11
95.833333333332916
 21
64.100003509756561
  0
LINE
  8
_1-9_センタ__プレ__ト
  6
CONTINUOUS
 62
    4
 10
95.833333333332916
 20
64.000003509756482
 11
96.833333333333144
 21
64.000003509756482
  0
LINE
  8
_1-9_センタ__プレ__ト
  6
CONTINUOUS
 62
    4
 10
96.833333333333144
 20
64.000003509756482
 11
96.833333333333144
 21
64.100003509756561
  0
LINE
  8
_1-9_センタ__プレ__ト
  6
CONTINUOUS
 62
    4
 10
96.833333333333144
 20
64.100003509756561
 11
97.833333333332973
 21
64.100003509756561
  0
LINE
  8
_1-9_センタ__プレ__ト
  6
CONTINUOUS
 62
    4
 10
97.833333333332973
 20
64.000003509756482
 11
97.833333333332973
 21
64.100003509756561
  0
LINE
  8
_1-9_センタ__プレ__ト
  6
CONTINUOUS
 62
    4
 10
97.833333333332973
 20
64.000003509756482
 11
98.833333333332973
 21
64.000003509756482
  0
LINE
  8
_1-9_センタ__プレ__ト
  6
CONTINUOUS
 62
    4
 10
98.833333333332973
 20
64.000003509756482
 11
98.833333333332973
 21
64.100003509756561
  0
LINE
  8
_1-9_センタ__プレ__ト
  6
CONTINUOUS
 62
    4
 10
98.833333333332973
 20
64.100003509756561
 11
99.83333333333286
 21
64.100003509756561
  0
LINE
  8
_1-9_センタ__プレ__ト
  6
CONTINUOUS
 62
    4
 10
99.83333333333286
 20
64.000003509756482
 11
99.83333333333286
 21
64.100003509756561
  0
LINE
  8
_1-9_センタ__プレ__ト
  6
CONTINUOUS
 62
    4
 10
99.83333333333286
 20
64.000003509756482
 11
100.83333333333309
 21
64.000003509756482
  0
LINE
  8
_1-9_センタ__プレ__ト
  6
CONTINUOUS
 62
    4
 10
100.83333333333309
 20
64.000003509756482
 11
100.83333333333309
 21
64.100003509756561
  0
LINE
  8
_1-9_センタ__プレ__ト
  6
CONTINUOUS
 62
    4
 10
100.83333333333309
 20
64.100003509756561
 11
101.83333333333292
 21
64.100003509756561
  0
LINE
  8
_1-9_センタ__プレ__ト
  6
CONTINUOUS
 62
    4
 10
101.83333333333292
 20
64.000003509756482
 11
101.83333333333292
 21
64.100003509756561
  0
LINE
  8
_1-9_センタ__プレ__ト
  6
CONTINUOUS
 62
    4
 10
101.83333333333292
 20
64.000003509756482
 11
102.83333333333297
 21
64.000003509756482
  0
LINE
  8
_1-9_センタ__プレ__ト
  6
CONTINUOUS
 62
    4
 10
102.83333333333297
 20
64.000003509756482
 11
102.83333333333297
 21
64.100003509756561
  0
LINE
  8
_1-9_センタ__プレ__ト
  6
CONTINUOUS
 62
    4
 10
102.83333333333297
 20
64.100003509756561
 11
103.83333333333286
 21
64.100003509756561
  0
LINE
  8
_1-9_センタ__プレ__ト
  6
CONTINUOUS
 62
    4
 10
103.83333333333286
 20
64.000003509756482
 11
103.83333333333286
 21
64.100003509756561
  0
LINE
  8
_1-9_センタ__プレ__ト
  6
CONTINUOUS
 62
    4
 10
103.83333333333286
 20
64.000003509756482
 11
104.83333333333286
 21
64.000003509756482
  0
LINE
  8
_1-9_センタ__プレ__ト
  6
CONTINUOUS
 62
    4
 10
104.83333333333286
 20
64.000003509756482
 11
104.83333333333286
 21
64.100003509756561
  0
LINE
  8
_1-9_センタ__プレ__ト
  6
CONTINUOUS
 62
    4
 10
104.83333333333286
 20
64.100003509756561
 11
105.83333333333269
 21
64.100003509756561
  0
LINE
  8
_1-9_センタ__プレ__ト
  6
CONTINUOUS
 62
    4
 10
105.83333333333269
 20
64.000003509756482
 11
105.83333333333269
 21
64.100003509756561
  0
LINE
  8
_1-9_センタ__プレ__ト
  6
CONTINUOUS
 62
    4
 10
105.83333333333269
 20
64.000003509756482
 11
106.83333333333292
 21
64.000003509756482
  0
LINE
  8
_1-9_センタ__プレ__ト
  6
CONTINUOUS
 62
    4
 10
106.83333333333292
 20
64.000003509756482
 11
106.83333333333292
 21
64.100003509756561
  0
LINE
  8
_1-9_センタ__プレ__ト
  6
CONTINUOUS
 62
    4
 10
106.83333333333292
 20
64.100003509756561
 11
107.83333333333275
 21
64.100003509756561
  0
LINE
  8
_1-9_センタ__プレ__ト
  6
CONTINUOUS
 62
    4
 10
107.83333333333275
 20
64.000003509756482
 11
107.83333333333275
 21
64.100003509756561
  0
LINE
  8
_1-9_センタ__プレ__ト
  6
CONTINUOUS
 62
    4
 10
107.83333333333275
 20
64.000003509756482
 11
108.83333333333286
 21
64.000003509756482
  0
LINE
  8
_1-9_センタ__プレ__ト
  6
CONTINUOUS
 62
    4
 10
108.83333333333286
 20
64.000003509756482
 11
108.83333333333286
 21
64.100003509756561
  0
LINE
  8
_1-9_センタ__プレ__ト
  6
CONTINUOUS
 62
    4
 10
108.83333333333286
 20
64.100003509756561
 11
109.83333333333269
 21
64.100003509756561
  0
LINE
  8
_1-9_センタ__プレ__ト
  6
CONTINUOUS
 62
    4
 10
109.83333333333269
 20
64.000003509756482
 11
109.83333333333269
 21
64.100003509756561
  0
LINE
  8
_1-9_センタ__プレ__ト
  6
CONTINUOUS
 62
    4
 10
109.83333333333269
 20
64.000003509756482
 11
110.83333333333269
 21
64.000003509756482
  0
LINE
  8
_1-9_センタ__プレ__ト
  6
CONTINUOUS
 62
    4
 10
110.83333333333269
 20
64.000003509756482
 11
110.83333333333269
 21
64.100003509756561
  0
LINE
  8
_1-9_センタ__プレ__ト
  6
CONTINUOUS
 62
    4
 10
110.83333333333269
 20
64.100003509756561
 11
111.83333333333252
 21
64.100003509756561
  0
LINE
  8
_1-9_センタ__プレ__ト
  6
CONTINUOUS
 62
    4
 10
111.83333333333252
 20
64.000003509756482
 11
111.83333333333252
 21
64.100003509756561
  0
LINE
  8
_1-9_センタ__プレ__ト
  6
CONTINUOUS
 62
    4
 10
111.83333333333252
 20
64.000003509756482
 11
112.83333333333275
 21
64.000003509756482
  0
LINE
  8
_1-9_センタ__プレ__ト
  6
CONTINUOUS
 62
    4
 10
112.83333333333275
 20
64.000003509756482
 11
112.83333333333275
 21
64.100003509756561
  0
LINE
  8
_1-9_センタ__プレ__ト
  6
CONTINUOUS
 62
    4
 10
112.83333333333275
 20
64.100003509756561
 11
113.83333333333263
 21
64.100003509756561
  0
LINE
  8
_1-9_センタ__プレ__ト
  6
CONTINUOUS
 62
    4
 10
113.83333333333263
 20
64.000003509756482
 11
113.83333333333263
 21
64.100003509756561
  0
LINE
  8
_1-9_センタ__プレ__ト
  6
CONTINUOUS
 62
    4
 10
113.83333333333263
 20
64.000003509756482
 11
114.83333333333269
 21
64.000003509756482
  0
LINE
  8
_1-9_センタ__プレ__ト
  6
CONTINUOUS
 62
    4
 10
114.83333333333269
 20
64.000003509756482
 11
114.83333333333269
 21
64.100003509756561
  0
LINE
  8
_1-9_センタ__プレ__ト
  6
CONTINUOUS
 62
    4
 10
114.83333333333269
 20
64.100003509756561
 11
115.83333333333252
 21
64.100003509756561
  0
LINE
  8
_1-9_センタ__プレ__ト
  6
CONTINUOUS
 62
    4
 10
115.83333333333252
 20
64.000003509756482
 11
115.83333333333252
 21
64.100003509756561
  0
LINE
  8
_1-9_センタ__プレ__ト
  6
CONTINUOUS
 62
    4
 10
116.33333133333275
 20
64.000003509756482
 11
115.83333133333292
 21
64.000003509756482
  0
LINE
  8
_1-9_センタ__プレ__ト
  6
CONTINUOUS
 62
    4
 10
116.78648522685091
 20
63.788694378886163
 11
116.33333133333275
 21
64.000003509756482
  0
LINE
  8
_1-9_センタ__プレ__ト
  6
CONTINUOUS
 62
    4
 10
116.13380613695421
 20
63.100003509756561
 11
71.088519001393138
 21
63.100003509756561
  0
LINE
  8
_1-9_センタ__プレ__ト
  6
CONTINUOUS
 62
    4
 10
121.39082161998516
 20
60.648616930979699
 11
116.13380613695421
 21
63.100003509756561
  0
LINE
  8
_1-9_センタ__プレ__ト
  6
CENTER2
 62
    4
 10
83.333333333333314
 20
60.598599195431007
 11
83.333333333333314
 21
65.100003509756561
  0
ENDBLK
  0
BLOCK
  2
-031-_26_
 70
   64
 10
0
 20
0
 30
0
  0
LINE
  8
_1-7_カバ__
  6
CENTER2
 62
    4
 10
73.93333332610473
 20
77.166666723379137
 11
75.666666659438135
 21
77.166666723379137
  0
LINE
  8
_1-7_カバ__
  6
DASHED1
 62
    4
 10
74.666666659438192
 20
75.750000056712253
 11
74.999999992771336
 21
75.416666723379109
  0
LINE
  8
_1-7_カバ__
  6
DASHED1
 62
    4
 10
74.666666659438192
 20
75.750000056712253
 11
74.666666659438192
 21
78.58333339004605
  0
LINE
  8
_1-7_カバ__
  6
DASHED1
 62
    4
 10
74.666666659438192
 20
78.58333339004605
 11
74.999999992771336
 21
78.916666723379137
  0
LINE
  8
_1-7_カバ__
  6
DASHED1
 62
    4
 10
74.666666659438192
 20
75.750000056712253
 11
74.499999992771563
 21
75.750000056712253
  0
LINE
  8
_1-7_カバ__
  6
DASHED1
 62
    4
 10
74.666666659438192
 20
78.58333339004605
 11
74.499999992771563
 21
78.58333339004605
  0
ARC
  8
_1-7_カバ__
  6
CONTINUOUS
 62
    4
 10
70.99999999277145
 20
81.166666723379223
 40
0.1666666666666666
 50
90
 51
180
  0
LINE
  8
_1-7_カバ__
  6
CONTINUOUS
 62
    4
 10
74.333333326104878
 20
81.33333339004588
 11
70.99999999277145
 21
81.33333339004588
  0
ARC
  8
_1-7_カバ__
  6
CONTINUOUS
 62
    4
 10
74.333333326104878
 20
81.166666723379223
 40
0.1666666666666666
 50
0
 51
90
  0
ARC
  8
_1-7_カバ__
  6
CONTINUOUS
 62
    4
 10
74.33333332610465
 20
81.166666723379308
 40
0.6666666666666666
 50
0
 51
90
  0
LINE
  8
_1-7_カバ__
  6
CONTINUOUS
 62
    4
 10
70.99999999277145
 20
81.833333390045965
 11
74.33333332610465
 21
81.833333390045965
  0
ARC
  8
_1-7_カバ__
  6
CONTINUOUS
 62
    4
 10
70.99999999277145
 20
81.166666723379308
 40
0.6666666666666666
 50
90
 51
180
  0
LINE
  8
_1-7_カバ__
  6
CONTINUOUS
 62
    4
 10
70.833333326104764
 20
78.500000056712594
 11
70.333333326104821
 21
78.500000056712594
  0
LINE
  8
_1-7_カバ__
  6
CONTINUOUS
 62
    4
 10
70.833333326104764
 20
81.166666723379223
 11
70.833333326104764
 21
78.500000056712594
  0
LINE
  8
_1-7_カバ__
  6
CONTINUOUS
 62
    4
 10
70.333333326104821
 20
81.166666723379308
 11
70.333333326104821
 21
78.500000056712594
  0
ARC
  8
_1-7_カバ__
  6
CONTINUOUS
 62
    4
 10
74.33333332610465
 20
67.500000056712594
 40
0.6666666666666666
 50
270
 51
0
  0
LINE
  8
_1-7_カバ__
  6
CONTINUOUS
 62
    4
 10
71.666666659437965
 20
67.333333390045738
 11
71.666666659437965
 21
66.833333390045965
  0
LINE
  8
_1-7_カバ__
  6
CONTINUOUS
 62
    4
 10
71.666666659437965
 20
67.333333390045738
 11
74.333333326104878
 21
67.333333390045738
  0
LINE
  8
_1-7_カバ__
  6
CONTINUOUS
 62
    4
 10
74.33333332610465
 20
66.833333390045965
 11
71.666666659437965
 21
66.833333390045965
  0
LINE
  8
_1-7_カバ__
  6
CONTINUOUS
 62
    4
 10
74.999999992771336
 20
81.166666723379308
 11
74.999999992771336
 21
67.500000056712594
  0
ARC
  8
_1-7_カバ__
  6
CONTINUOUS
 62
    4
 10
74.333333326104878
 20
67.500000056712395
 40
0.1666666666666666
 50
270
 51
0
  0
LINE
  8
_1-7_カバ__
  6
CONTINUOUS
 62
    4
 10
74.499999992771563
 20
67.500000056712395
 11
74.499999992771563
 21
81.166666723379223
  0
ENDBLK
  0
BLOCK
  2
-032-_27_
 70
   64
 10
0
 20
0
 30
0
  0
ARC
  8
_1-8_小物
  6
CONTINUOUS
 62
    4
 10
70.433333326104844
 20
78.500000056712594
 40
0.0999999999999999
 50
180
 51
270
  0
LINE
  8
_1-8_小物
  6
CONTINUOUS
 62
    4
 10
69.666666659438192
 20
81.33333339004588
 11
69.207599272816537
 21
81.33333339004588
  0
ARC
  8
_1-8_小物
  6
CONTINUOUS
 62
    4
 10
69.666666659438192
 20
81.166666723379251
 40
0.1666666666666666
 50
0
 51
90
  0
LINE
  8
_1-8_小物
  6
CONTINUOUS
 62
    4
 10
69.666666659438192
 20
81.83333339004588
 11
69.166666659438192
 21
81.83333339004588
  0
ARC
  8
_1-8_小物
  6
CONTINUOUS
 62
    4
 10
69.666666659438192
 20
81.166666723379251
 40
0.6666666666666666
 50
0
 51
90
  0
LINE
  8
_1-8_小物
  6
CONTINUOUS
 62
    4
 10
69.833333326104821
 20
81.166666723379251
 11
69.833333326104821
 21
78.566666723379228
  0
ARC
  8
_1-8_小物
  6
CONTINUOUS
 62
    4
 10
70.333333326104821
 20
78.566666723379228
 40
0.5
 50
180.00000000000327
 51
270
  0
ARC
  8
_1-8_小物
  6
CONTINUOUS
 62
    4
 10
66.707996252894304
 20
80.921310914234539
 40
0.4999999999999946
 50
99.360190801914598
 51
259.36019080191159
  0
LINE
  8
_1-8_小物
  6
CONTINUOUS
 62
    4
 10
69.207599272816537
 20
81.33333339004588
 11
66.894521952409491
 21
80.952056908660126
  0
ARC
  8
_1-8_小物
  6
CONTINUOUS
 62
    4
 10
66.899943300775362
 20
80.919167395240095
 40
0.0333333333333333
 50
99.360190801991195
 51
259.36019080182814
  0
ARC
  8
_1-8_小物
  6
CONTINUOUS
 62
    4
 10
67.890346817866089
 20
80.444816274694006
 40
0.25
 50
259.3601908019134
 51
79.360190801912211
  0
LINE
  8
_1-8_小物
  6
CONTINUOUS
 62
    4
 10
67.844188255068843
 20
80.199114449140154
 11
66.615679127299586
 21
80.429907263126921
  0
LINE
  8
_1-8_小物
  6
CONTINUOUS
 62
    4
 10
69.166666659438192
 20
81.83333339004588
 11
66.626676027405324
 21
81.414653615534974
  0
LINE
  8
_1-8_小物
  6
CONTINUOUS
 62
    4
 10
70.333333326104821
 20
81.166666723379251
 11
70.333333326104821
 21
78.500000056712594
  0
ARC
  8
_1-8_小物
  6
CONTINUOUS
 62
    4
 10
71.074384772900657
 20
80.35488994730423
 40
0.1666666666666666
 50
92.719482039967616
 51
182.71948203995782
  0
ARC
  8
_1-8_小物
  6
CONTINUOUS
 62
    4
 10
70.899998123556884
 20
80.513461231230991
 40
0.3333333333333333
 50
92.719482039968312
 51
182.71948203996317
  0
LINE
  8
_1-8_小物
  6
CONTINUOUS
 62
    4
 10
70.884182758139787
 20
80.846419164501583
 11
71.21714069141035
 21
80.86223452991868
  0
ARC
  8
_1-8_小物
  6
CONTINUOUS
 62
    4
 10
71.225048374118956
 20
80.69575556328337
 40
0.1666666666666666
 50
272.71948203994856
 51
92.719482039968113
  0
LINE
  8
_1-8_小物
  6
CONTINUOUS
 62
    4
 10
71.066477090192166
 20
80.521368913939511
 11
71.232956056827447
 21
80.529276596648003
  0
LINE
  8
_1-8_小物
  6
CONTINUOUS
 62
    4
 10
70.56181480078601
 20
78.400000056712599
 11
70.433333326104844
 21
78.400000056712599
  0
LINE
  8
_1-8_小物
  6
CONTINUOUS
 62
    4
 10
70.907905806265376
 20
80.346982264595624
 11
70.999635440080965
 21
78.415815422129668
  0
LINE
  8
_1-8_小物
  6
CONTINUOUS
 62
    4
 10
70.666677506810402
 20
78.066666723379228
 11
70.333333326104821
 21
78.066666723379228
  0
ARC
  8
_1-8_小物
  6
CONTINUOUS
 62
    4
 10
70.56181480078601
 20
78.500000056712594
 40
0.0999999999999999
 50
270
 51
2.7194820399718083
  0
ARC
  8
_1-8_小物
  6
CONTINUOUS
 62
    4
 10
70.666677506810402
 20
78.400000056712599
 40
0.3333333333333333
 50
270
 51
2.7194820399636797
  0
LINE
  8
_1-8_小物
  6
CONTINUOUS
 62
    4
 10
70.56704019028632
 20
80.497645865813922
 11
70.661702180767179
 21
78.504744666337672
  0
LINE
  8
_1-8_小物
  6
CONTINUOUS
 62
    4
 10
67.936505380663561
 20
80.690518100247743
 11
66.893788825735783
 21
80.886407151832969
  0
ENDBLK
  0
BLOCK
  2
-033-_28_
 70
   64
 10
0
 20
0
 30
0
  0
ARC
  8
_1-8_小物
  6
CONTINUOUS
 62
    4
 10
71.666666659437965
 20
66.933333390045959
 40
0.0999999999999999
 50
179.99999999998371
 51
270
  0
ARC
  8
_1-8_小物
  6
CONTINUOUS
 62
    4
 10
74.333333326104594
 20
66.166666723379308
 40
0.1666666666666666
 50
0
 51
90
  0
ARC
  8
_1-8_小物
  6
CONTINUOUS
 62
    4
 10
74.333333326104594
 20
66.166666723379308
 40
0.6666666666666666
 50
0
 51
90
  0
ARC
  8
_1-8_小物
  6
CONTINUOUS
 62
    4
 10
71.733333326104571
 20
66.833333390045965
 40
0.5
 50
180
 51
270
  0
ARC
  8
_1-8_小物
  6
CONTINUOUS
 62
    4
 10
73.686427633721451
 20
67.49998761841573
 40
0.3333333333333333
 50
265.47574222620528
 51
355.47574222621506
  0
LINE
  8
_1-8_小物
  6
CONTINUOUS
 62
    4
 10
71.566666659437942
 20
67.22511889317596
 11
71.566666659437942
 21
66.933333390045959
  0
ARC
  8
_1-8_小物
  6
CONTINUOUS
 62
    4
 10
71.666666659437965
 20
67.22511889317596
 40
0.0999999999999999
 50
85.475742226227297
 51
180
  0
LINE
  8
_1-8_小物
  6
CONTINUOUS
 62
    4
 10
74.333333326104594
 20
66.833333390045965
 11
71.666666659437965
 21
66.833333390045965
  0
LINE
  8
_1-8_小物
  6
CONTINUOUS
 62
    4
 10
73.660133913197399
 20
67.167692942906058
 11
71.674554775595084
 21
67.324807295828862
  0
ARC
  8
_1-8_小物
  6
CONTINUOUS
 62
    4
 10
73.472226965231414
 20
67.750999495639405
 40
0.1666666666666666
 50
265.47574222621506
 51
355.47574222621506
  0
LINE
  8
_1-8_小物
  6
CONTINUOUS
 62
    4
 10
73.459080104969416
 20
67.584852157884512
 11
71.592960379961937
 21
67.73251395968262
  0
LINE
  8
_1-8_小物
  6
CONTINUOUS
 62
    4
 10
71.233333326104571
 20
67.400219284172891
 11
71.233333326104571
 21
66.833333390045965
  0
ARC
  8
_1-8_小物
  6
CONTINUOUS
 62
    4
 10
71.566666659437942
 20
67.400219284172891
 40
0.3333333333333333
 50
85.47574222621509
 51
180
  0
LINE
  8
_1-8_小物
  6
CONTINUOUS
 62
    4
 10
74.01872230923118
 20
67.473693897891764
 11
74.042386657702764
 21
67.772759105850525
  0
LINE
  8
_1-8_小物
  6
CONTINUOUS
 62
    4
 10
73.638374302986279
 20
67.737852635377408
 11
73.6436330470911
 21
67.804311570479314
  0
ARC
  8
_1-8_小物
  6
CONTINUOUS
 62
    4
 10
73.843009852396904
 20
67.788535338164934
 40
0.1999999999999963
 50
355.47574222621108
 51
175.47574222621233
  0
LINE
  8
_1-8_小物
  6
CONTINUOUS
 62
    4
 10
72.233333326104571
 20
66.166666723379308
 11
72.066666659437942
 21
66.333333390045965
  0
LINE
  8
_1-8_小物
  6
CONTINUOUS
 62
    4
 10
72.233333326104571
 20
66.166666723379308
 11
72.399999992771257
 21
66.333333390045965
  0
LINE
  8
_1-8_小物
  6
CONTINUOUS
 62
    4
 10
74.333333326104594
 20
66.333333390045965
 11
72.399999992771257
 21
66.333333390045965
  0
LINE
  8
_1-8_小物
  6
CONTINUOUS
 62
    4
 10
72.066666659437942
 20
66.333333390045965
 11
71.733333326104571
 21
66.333333390045965
  0
ARC
  8
_1-8_小物
  6
CONTINUOUS
 62
    4
 10
74.087977516959938
 20
62.707996316835477
 40
0.4999999999999946
 50
190.63980919808779
 51
350.6398091980854
  0
LINE
  8
_1-8_小物
  6
CONTINUOUS
 62
    4
 10
74.499999992771222
 20
65.207599336757681
 11
74.118723511385497
 21
62.89452201635055
  0
ARC
  8
_1-8_小物
  6
CONTINUOUS
 62
    4
 10
74.085833997965494
 20
62.899943364716506
 40
0.0333333333333333
 50
190.6398091981238
 51
350.63980919804908
  0
ARC
  8
_1-8_小物
  6
CONTINUOUS
 62
    4
 10
73.611482877419348
 20
63.890346881807233
 40
0.25
 50
10.639809198089004
 51
190.63980919808657
  0
LINE
  8
_1-8_小物
  6
CONTINUOUS
 62
    4
 10
73.365781051865497
 20
63.844188319009874
 11
73.596573865852292
 21
62.615679191240758
  0
LINE
  8
_1-8_小物
  6
CONTINUOUS
 62
    4
 10
74.999999992771222
 20
65.166666723379308
 11
74.581320218260373
 21
62.626676091346383
  0
LINE
  8
_1-8_小物
  6
CONTINUOUS
 62
    4
 10
73.857184702973143
 20
63.936505444604592
 11
74.053073754558284
 21
62.893788889676841
  0
LINE
  8
_1-8_小物
  6
CONTINUOUS
 62
    4
 10
74.499999992771222
 20
66.166666723379308
 11
74.499999992771222
 21
65.207599336757681
  0
LINE
  8
_1-8_小物
  6
CONTINUOUS
 62
    4
 10
74.999999992771222
 20
66.166666723379308
 11
74.999999992771222
 21
65.166666723379308
  0
ENDBLK
  0
BLOCK
  2
-034-_29_
 70
   64
 10
0
 20
0
 30
0
  0
LINE
  8
_1-7_カバ__
  6
CENTER2
 62
    4
 10
-137.83333333333348
 20
62.452776833333303
 11
-137.83333333333348
 21
66.270218833333303
  0
LINE
  8
_1-7_カバ__
  6
CONTINUOUS
 62
    4
 10
-116.66667133333348
 20
64.833333333333314
 11
-117.00000466666681
 21
65.166666666666657
  0
LINE
  8
_1-7_カバ__
  6
CONTINUOUS
 62
    4
 10
-116.66667133333348
 20
64.166666666666657
 11
-116.66667133333348
 21
64.833333333333314
  0
LINE
  8
_1-7_カバ__
  6
CONTINUOUS
 62
    4
 10
-116.66667133333348
 20
64.166666666666657
 11
-141.00000466666683
 21
64.166666666666657
  0
LINE
  8
_1-7_カバ__
  6
CONTINUOUS
 62
    4
 10
-117.00000466666681
 20
65.166666666666657
 11
-140.66667133333348
 21
65.166666666666657
  0
LINE
  8
_1-7_カバ__
  6
CONTINUOUS
 62
    4
 10
-141.00000466666683
 20
64.833333333333314
 11
-141.00000466666683
 21
64.166666666666657
  0
LINE
  8
_1-7_カバ__
  6
CONTINUOUS
 62
    4
 10
-140.66667133333348
 20
65.166666666666657
 11
-141.00000466666683
 21
64.833333333333314
  0
LINE
  8
_1-7_カバ__
  6
DASHED1
 62
    4
 10
-138.75000000000014
 20
64.33332866666666
 11
-136.91667600000014
 21
64.33332866666666
  0
LINE
  8
_1-7_カバ__
  6
DASHED1
 62
    4
 10
-138.75000000000017
 20
64.166666666666657
 11
-138.75000000000017
 21
64.33332866666666
  0
LINE
  8
_1-7_カバ__
  6
DASHED1
 62
    4
 10
-136.91666666666683
 20
64.166666666666657
 11
-136.91666666666683
 21
64.333337999999969
  0
LINE
  8
_1-7_カバ__
  6
DASHED1
 62
    4
 10
-139.58333800000014
 20
65.166666666666657
 11
-138.75000000000014
 21
64.33332866666666
  0
LINE
  8
_1-7_カバ__
  6
DASHED1
 62
    4
 10
-136.91667600000014
 20
64.33332866666666
 11
-136.08333800000014
 21
65.166666666666657
  0
ENDBLK
  0
BLOCK
  2
-035-_30_
 70
   64
 10
0
 20
0
 30
0
  0
LINE
  8
_1-8_小物
  6
CONTINUOUS
 62
    4
 10
-136.16666666666686
 20
65.166666666666657
 11
-139.50000000000009
 21
65.166666666666657
  0
LINE
  8
_1-8_小物
  6
CONTINUOUS
 62
    4
 10
-137.83333333333346
 20
59.833333333333314
 11
-138.51666666666677
 21
60.227856017279578
  0
LINE
  8
_1-8_小物
  6
CONTINUOUS
 62
    4
 10
-137.83333333333346
 20
59.833333333333314
 11
-137.15000000000018
 21
60.227856017279578
  0
LINE
  8
_1-8_小物
  6
CONTINUOUS
 62
    4
 10
-137.23666666666676
 20
62.902460573114269
 11
-137.03333333333339
 21
62.785065859669317
  0
LINE
  8
_1-8_小物
  6
CONTINUOUS
 62
    4
 10
-137.03333333333339
 20
62.785065859669317
 11
-137.23666666666676
 21
62.667671146224336
  0
LINE
  8
_1-8_小物
  6
CONTINUOUS
 62
    4
 10
-138.43000000000018
 20
62.233333333333348
 11
-138.63333333333355
 21
62.3507280467783
  0
LINE
  8
_1-8_小物
  6
CONTINUOUS
 62
    4
 10
-138.63333333333355
 20
62.3507280467783
 11
-138.43000000000018
 21
62.468122760223252
  0
LINE
  8
_1-8_小物
  6
CONTINUOUS
 62
    4
 10
-138.43000000000018
 20
62.468122760223252
 11
-137.23666666666676
 21
62.902460573114269
  0
LINE
  8
_1-8_小物
  6
CONTINUOUS
 62
    4
 10
-138.43000000000018
 20
62.233333333333348
 11
-137.23666666666676
 21
62.667671146224336
  0
LINE
  8
_1-8_小物
  6
CONTINUOUS
 62
    4
 10
-137.03333333333339
 20
62.785065859669317
 11
-138.63333333333355
 21
62.3507280467783
  0
LINE
  8
_1-8_小物
  6
CONTINUOUS
 62
    4
 10
-137.23666666666676
 20
63.402460573114269
 11
-137.03333333333339
 21
63.285065859669317
  0
LINE
  8
_1-8_小物
  6
CONTINUOUS
 62
    4
 10
-137.03333333333339
 20
63.285065859669317
 11
-137.23666666666676
 21
63.167671146224336
  0
LINE
  8
_1-8_小物
  6
CONTINUOUS
 62
    4
 10
-138.43000000000018
 20
62.733333333333348
 11
-138.63333333333355
 21
62.8507280467783
  0
LINE
  8
_1-8_小物
  6
CONTINUOUS
 62
    4
 10
-138.63333333333355
 20
62.8507280467783
 11
-138.43000000000018
 21
62.968122760223252
  0
LINE
  8
_1-8_小物
  6
CONTINUOUS
 62
    4
 10
-138.43000000000018
 20
62.968122760223252
 11
-137.23666666666676
 21
63.402460573114269
  0
LINE
  8
_1-8_小物
  6
CONTINUOUS
 62
    4
 10
-138.43000000000018
 20
62.733333333333348
 11
-137.23666666666676
 21
63.167671146224336
  0
LINE
  8
_1-8_小物
  6
CONTINUOUS
 62
    4
 10
-137.03333333333339
 20
63.285065859669317
 11
-138.63333333333355
 21
62.8507280467783
  0
LINE
  8
_1-8_小物
  6
CONTINUOUS
 62
    4
 10
-137.23666666666676
 20
63.902460573114269
 11
-137.03333333333339
 21
63.785065859669317
  0
LINE
  8
_1-8_小物
  6
CONTINUOUS
 62
    4
 10
-137.03333333333339
 20
63.785065859669317
 11
-137.23666666666676
 21
63.667671146224336
  0
LINE
  8
_1-8_小物
  6
CONTINUOUS
 62
    4
 10
-138.43000000000018
 20
63.233333333333348
 11
-138.63333333333355
 21
63.3507280467783
  0
LINE
  8
_1-8_小物
  6
CONTINUOUS
 62
    4
 10
-138.63333333333355
 20
63.3507280467783
 11
-138.43000000000018
 21
63.468122760223252
  0
LINE
  8
_1-8_小物
  6
CONTINUOUS
 62
    4
 10
-138.43000000000018
 20
63.468122760223252
 11
-137.23666666666676
 21
63.902460573114269
  0
LINE
  8
_1-8_小物
  6
CONTINUOUS
 62
    4
 10
-138.43000000000018
 20
63.233333333333348
 11
-137.23666666666676
 21
63.667671146224336
  0
LINE
  8
_1-8_小物
  6
CONTINUOUS
 62
    4
 10
-137.03333333333339
 20
63.785065859669317
 11
-138.63333333333355
 21
63.3507280467783
  0
LINE
  8
_1-8_小物
  6
CONTINUOUS
 62
    4
 10
-138.43000000000018
 20
63.733333333333348
 11
-138.63333333333355
 21
63.8507280467783
  0
LINE
  8
_1-8_小物
  6
CONTINUOUS
 62
    4
 10
-138.63333333333355
 20
63.8507280467783
 11
-138.43000000000018
 21
63.968122760223252
  0
LINE
  8
_1-8_小物
  6
CONTINUOUS
 62
    4
 10
-138.51666666666677
 20
62.066666666666663
 11
-138.51666666666677
 21
60.227856017279578
  0
LINE
  8
_1-8_小物
  6
CONTINUOUS
 62
    4
 10
-137.15000000000018
 20
62.066666666666663
 11
-138.51666666666677
 21
62.066666666666663
  0
LINE
  8
_1-8_小物
  6
CONTINUOUS
 62
    4
 10
-137.15000000000018
 20
62.066666666666663
 11
-137.15000000000018
 21
60.227856017279578
  0
LINE
  8
_1-8_小物
  6
CONTINUOUS
 62
    4
 10
-138.43000000000018
 20
63.968122760223252
 11
-138.159252842222
 21
64.066666666666663
  0
LINE
  8
_1-8_小物
  6
CONTINUOUS
 62
    4
 10
-138.43000000000018
 20
63.733333333333348
 11
-137.83333333333346
 21
63.950502239778871
  0
LINE
  8
_1-8_小物
  6
CONTINUOUS
 62
    4
 10
-137.83333333333346
 20
64.067896953223823
 11
-138.63333333333355
 21
63.8507280467783
  0
LINE
  8
_1-8_小物
  6
CONTINUOUS
 62
    4
 10
-138.43000000000018
 20
64.066666666666663
 11
-138.43000000000018
 21
63.968122760223252
  0
LINE
  8
_1-8_小物
  6
CONTINUOUS
 62
    4
 10
-138.43000000000018
 20
63.733333333333348
 11
-138.43000000000018
 21
63.468122760223252
  0
LINE
  8
_1-8_小物
  6
CONTINUOUS
 62
    4
 10
-138.43000000000018
 20
63.233333333333348
 11
-138.43000000000018
 21
62.968122760223252
  0
LINE
  8
_1-8_小物
  6
CONTINUOUS
 62
    4
 10
-138.43000000000018
 20
62.733333333333348
 11
-138.43000000000018
 21
62.468122760223252
  0
LINE
  8
_1-8_小物
  6
CONTINUOUS
 62
    4
 10
-138.43000000000018
 20
62.233333333333348
 11
-138.43000000000018
 21
62.066666666666663
  0
LINE
  8
_1-8_小物
  6
CONTINUOUS
 62
    4
 10
-137.23666666666676
 20
64.066666666666663
 11
-137.23666666666676
 21
63.902460573114269
  0
LINE
  8
_1-8_小物
  6
CONTINUOUS
 62
    4
 10
-137.23666666666676
 20
62.667671146224336
 11
-137.23666666666676
 21
62.066666666666663
  0
LINE
  8
_1-8_小物
  6
CONTINUOUS
 62
    4
 10
-137.23666666666676
 20
63.167671146224336
 11
-137.23666666666676
 21
62.902460573114269
  0
LINE
  8
_1-8_小物
  6
CONTINUOUS
 62
    4
 10
-137.23666666666676
 20
63.667671146224336
 11
-137.23666666666676
 21
63.402460573114269
  0
LINE
  8
_1-8_小物
  6
CONTINUOUS
 62
    4
 10
-137.25000000000009
 20
62.066666666666663
 11
-137.25000000000009
 21
60.285591044198554
  0
LINE
  8
_1-8_小物
  6
CONTINUOUS
 62
    4
 10
-137.83333333333346
 20
59.948803387171267
 11
-137.25000000000009
 21
60.285591044198554
  0
LINE
  8
_1-8_小物
  6
CONTINUOUS
 62
    4
 10
-137.83333333333346
 20
59.948803387171267
 11
-137.45989689570669
 21
62.066666666666663
  0
LINE
  8
_1-8_小物
  6
CENTER2
 62
    4
 10
-137.83333333333346
 20
65.833640386960099
 11
-137.83333333333346
 21
59.084349393779831
  0
LINE
  8
_1-8_小物
  6
CONTINUOUS
 62
    4
 10
-139.50000000000009
 20
65.166666666666657
 11
-139.50000000000009
 21
65.099999999999966
  0
LINE
  8
_1-8_小物
  6
CONTINUOUS
 62
    4
 10
-136.16666666666686
 20
65.099999999999966
 11
-139.50000000000009
 21
65.099999999999966
  0
LINE
  8
_1-8_小物
  6
CONTINUOUS
 62
    4
 10
-136.16666666666686
 20
65.166666666666657
 11
-136.16666666666686
 21
65.099999999999966
  0
LINE
  8
_1-8_小物
  6
CONTINUOUS
 62
    4
 10
-139.50000000000009
 20
65.099999999999966
 11
-138.46666666666667
 21
64.066666666666663
  0
LINE
  8
_1-8_小物
  6
CONTINUOUS
 62
    4
 10
-137.20000000000024
 20
64.066666666666663
 11
-138.46666666666667
 21
64.066666666666663
  0
LINE
  8
_1-8_小物
  6
CONTINUOUS
 62
    4
 10
-136.16666666666686
 20
65.099999999999966
 11
-137.20000000000024
 21
64.066666666666663
  0
ENDBLK
  0
BLOCK
  2
-036-_31_
 70
   64
 10
0
 20
0
 30
0
  0
LINE
  8
_1-7_カバ__
  6
CENTER2
 62
    4
 10
-62.166666666666515
 20
62.452776833333303
 11
-62.166666666666515
 21
66.270218833333303
  0
LINE
  8
_1-7_カバ__
  6
CONTINUOUS
 62
    4
 10
-83.333328666666532
 20
64.833333333333314
 11
-82.999995333333203
 21
65.166666666666657
  0
LINE
  8
_1-7_カバ__
  6
CONTINUOUS
 62
    4
 10
-83.333328666666532
 20
64.166666666666657
 11
-83.333328666666532
 21
64.833333333333314
  0
LINE
  8
_1-7_カバ__
  6
CONTINUOUS
 62
    4
 10
-83.333328666666532
 20
64.166666666666657
 11
-58.999995333333203
 21
64.166666666666657
  0
LINE
  8
_1-7_カバ__
  6
CONTINUOUS
 62
    4
 10
-82.999995333333203
 20
65.166666666666657
 11
-59.333328666666546
 21
65.166666666666657
  0
LINE
  8
_1-7_カバ__
  6
CONTINUOUS
 62
    4
 10
-58.999995333333203
 20
64.833333333333314
 11
-58.999995333333203
 21
64.166666666666657
  0
LINE
  8
_1-7_カバ__
  6
CONTINUOUS
 62
    4
 10
-59.333328666666546
 20
65.166666666666657
 11
-58.999995333333203
 21
64.833333333333314
  0
LINE
  8
_1-7_カバ__
  6
DASHED1
 62
    4
 10
-61.249999999999858
 20
64.33332866666666
 11
-63.083323999999891
 21
64.33332866666666
  0
LINE
  8
_1-7_カバ__
  6
DASHED1
 62
    4
 10
-61.249999999999858
 20
64.166666666666657
 11
-61.249999999999858
 21
64.33332866666666
  0
LINE
  8
_1-7_カバ__
  6
DASHED1
 62
    4
 10
-63.083333333333201
 20
64.166666666666657
 11
-63.083333333333201
 21
64.333337999999969
  0
LINE
  8
_1-7_カバ__
  6
DASHED1
 62
    4
 10
-60.41666199999986
 20
65.166666666666657
 11
-61.249999999999858
 21
64.33332866666666
  0
LINE
  8
_1-7_カバ__
  6
DASHED1
 62
    4
 10
-63.083323999999891
 20
64.33332866666666
 11
-63.91666199999986
 21
65.166666666666657
  0
ENDBLK
  0
ENDSEC
  0
SECTION
  2
ENTITIES
  0
LINE
  8
_0-0_図面枠
  6
CONTINUOUS
 62
    6
 10
410.00000000000006
 20
287
 11
10
 21
287.00000000000006
  0
LINE
  8
_0-0_図面枠
  6
CONTINUOUS
 62
    6
 10
410
 20
9.9999999999998863
 11
410.00000000000006
 21
287
  0
LINE
  8
_0-0_図面枠
  6
CONTINUOUS
 62
    6
 10
9.9999999999999147
 20
10
 11
410
 21
9.9999999999998863
  0
LINE
  8
_0-0_図面枠
  6
CONTINUOUS
 62
    6
 10
10
 20
287.00000000000006
 11
9.9999999999999147
 21
10
  0
LINE
  8
_0-0_図面枠
  6
CONTINUOUS
 62
    6
 10
210
 20
287
 11
210.00000000000003
 21
9.9999999999999432
  0
TEXT
  8
_0-0_図面枠
 62
    4
 10
20
 20
280
 40
3.2000000000000002
 41
1
 50
0
  1
（ステンレス１００タイプ）
  0
TEXT
  8
_0-0_図面枠
 62
    4
 10
220
 20
280
 40
3.2000000000000002
 41
1
 50
0
  1
（ステンレス１００タイプ）
  0
TEXT
  8
_0-0_図面枠
 62
    4
 10
230
 20
270
 40
3.2000000000000002
 41
1
 50
0
  1
◇床＋床コーナー（１００ＴＣＧ－Ｓ）　Ｓ＝１／３
  0
TEXT
  8
_0-0_図面枠
 62
    4
 10
30
 20
270
 40
3.2000000000000002
 41
1
 50
0
  1
◇床＋床（１００ＴＴＧ－Ｓ）　Ｓ＝１／３
  0
LINE
  8
_0-0_図面枠
  6
CONTINUOUS
 62
    2
 10
165
 20
247
 11
210
 21
247
  0
LINE
  8
_0-0_図面枠
  6
CONTINUOUS
 62
    2
 10
165
 20
247
 11
165
 21
287
  0
LINE
  8
_0-0_図面枠
  6
CONTINUOUS
 62
    4
 10
203.41099396657054
 20
266.02749333152167
 11
203.37632158928787
 21
266.00747522516406
  0
LINE
  8
_0-0_図面枠
  6
CONTINUOUS
 62
    2
 10
187.38952399655847
 20
259.77749333152167
 11
204.71003207224723
 21
269.77749333152167
  0
LINE
  8
_0-0_図面枠
  6
CONTINUOUS
 62
    2
 10
187.38952399655847
 20
259.77749333152167
 11
187.38952399655847
 21
256.77749333152167
  0
LINE
  8
_0-0_図面枠
  6
CONTINUOUS
 62
    2
 10
193.88471452494176
 20
260.52749333152167
 11
193.88471452494176
 21
263.52749333152167
  0
LINE
  8
_0-0_図面枠
  6
CONTINUOUS
 62
    2
 10
187.38952399655847
 20
256.77749333152167
 11
193.88471452494176
 21
260.52749333152167
  0
LINE
  8
_0-0_図面枠
  6
CONTINUOUS
 62
    2
 10
204.71003207224723
 20
269.77749333152167
 11
204.71003207224723
 21
266.77749333152167
  0
LINE
  8
_0-0_図面枠
  6
CONTINUOUS
 62
    2
 10
204.71003207224723
 20
266.77749333152167
 11
198.21484154386394
 21
263.02749333152167
  0
LINE
  8
_0-0_図面枠
  6
CONTINUOUS
 62
    2
 10
198.21484154386394
 20
263.02749333152167
 11
198.21484154386394
 21
266.02749333152167
  0
LINE
  8
_0-0_図面枠
  6
CONTINUOUS
 62
    2
 10
198.21484154386394
 20
263.02749333152167
 11
195.61676533251062
 21
264.52749333152167
  0
LINE
  8
_0-0_図面枠
  6
CONTINUOUS
 62
    2
 10
187.38952399655847
 20
256.77749333152167
 11
178.7292699587141
 21
261.77749333152167
  0
LINE
  8
_0-0_図面枠
  6
CONTINUOUS
 62
    2
 10
193.88471452494176
 20
263.52749333152167
 11
185.22446048709739
 21
268.52749333152167
  0
LINE
  8
_0-0_図面枠
  6
CONTINUOUS
 62
    2
 10
204.71003207224723
 20
269.77749333152167
 11
196.04977803440289
 21
274.77749333152167
  0
LINE
  8
_0-0_図面枠
  6
CONTINUOUS
 62
    2
 10
187.38952399655847
 20
259.77749333152167
 11
178.7292699587141
 21
264.77749333152167
  0
LINE
  8
_0-0_図面枠
  6
CONTINUOUS
 62
    2
 10
193.88471452494176
 20
260.52749333152167
 11
191.28663831358844
 21
262.02749333152167
  0
LINE
  8
_0-0_図面枠
  6
CONTINUOUS
 62
    2
 10
204.71003207224723
 20
266.77749333152167
 11
202.11195586089391
 21
268.27749333152167
  0
INSERT
  2
-000-
  8
_0-0_図面枠
 10
210
 20
148.5
 41
1
 42
1
 50
0
  0
LINE
  8
_0-0_図面枠
  6
CONTINUOUS
 62
    2
 10
198.21484154386394
 20
266.02749333152167
 11
195.94825785628655
 21
267.33610603368533
  0
LINE
  8
_0-0_図面枠
  6
CONTINUOUS
 62
    2
 10
192.46489856474318
 20
269.34722445834205
 11
189.55458750601957
 21
271.02749333152167
  0
LINE
  8
_0-0_図面枠
  6
CONTINUOUS
 62
    3
 10
193.88471452494176
 20
260.52749333152167
 11
185.22446048709733
 21
255.52749333152167
  0
LINE
  8
_0-0_図面枠
  6
CONTINUOUS
 62
    3
 10
193.88471452494176
 20
260.52749333152167
 11
193.88471452494176
 21
250.52749333152167
  0
LINE
  8
_0-0_図面枠
  6
CONTINUOUS
 62
    3
 10
198.21484154386394
 20
263.02749333152167
 11
198.21484154386394
 21
253.02749333152167
  0
LINE
  8
_0-0_図面枠
  6
CONTINUOUS
 62
    3
 10
198.21484154386394
 20
263.02749333152167
 11
206.87509558170831
 21
268.02749333152167
  0
TEXT
  8
_0-0_図面枠
 62
    4
 10
168.58672417034515
 20
279.54737717230728
 40
2.5
 41
1
 50
0
  1
-50
  0
TEXT
  8
_0-0_図面枠
 62
    4
 10
191.10257786061626
 20
279.54737717230722
 40
2.5
 41
1
 50
0
  1
+50
  0
TEXT
  8
_0-0_図面枠
 62
    4
 10
191.10257786061621
 20
266.54784298319498
 40
2.5
 41
1
 50
0
  1
+50
  0
TEXT
  8
_0-0_図面枠
 62
    4
 10
168.5863207644758
 20
266.54854175273664
 40
2.5
 41
1
 50
0
  1
-50
  0
LINE
  8
_0-0_図面枠
  6
CONTINUOUS
 62
    2
 10
365.00000000000006
 20
246.99999999999994
 11
410.00000000000006
 21
246.99999999999994
  0
LINE
  8
_0-0_図面枠
  6
CONTINUOUS
 62
    2
 10
365.00000000000006
 20
247
 11
365.00000000000006
 21
287
  0
LINE
  8
_0-0_図面枠
  6
CONTINUOUS
 62
    2
 10
402.70635184916443
 20
271.07315933141962
 11
400.54128833970333
 21
269.82315933141962
  0
LINE
  8
_0-0_図面枠
  6
CONTINUOUS
 62
    2
 10
400.54128833970333
 20
269.82315933141962
 11
400.54128833970333
 21
264.82315933141962
  0
LINE
  8
_0-0_図面枠
  6
CONTINUOUS
 62
    2
 10
400.54128833970333
 20
264.82315933141962
 11
391.88103430185896
 21
259.82315933141962
  0
LINE
  8
_0-0_図面枠
  6
CONTINUOUS
 62
    2
 10
391.88103430185896
 20
259.82315933141962
 11
391.88103430185896
 21
256.82315933141962
  0
LINE
  8
_0-0_図面枠
  6
CONTINUOUS
 62
    2
 10
391.88103430185896
 20
259.82315933141962
 11
383.22078026401459
 21
264.82315933141962
  0
LINE
  8
_0-0_図面枠
  6
CONTINUOUS
 62
    2
 10
391.88103430185896
 20
256.82315933141962
 11
383.22078026401459
 21
261.82315933141962
  0
LINE
  8
_0-0_図面枠
  6
CONTINUOUS
 62
    2
 10
398.37622483024228
 20
263.57315933141962
 11
389.71597079239791
 21
268.57315933141962
  0
LINE
  8
_0-0_図面枠
  6
CONTINUOUS
 62
    2
 10
400.54128833970333
 20
269.82315933141962
 11
391.88103430185902
 21
274.82315933141962
  0
LINE
  8
_0-0_図面枠
  6
CONTINUOUS
 62
    2
 10
398.37622483024228
 20
263.57315933141962
 11
398.37622483024228
 21
260.57315933141962
  0
LINE
  8
_0-0_図面枠
  6
CONTINUOUS
 62
    2
 10
402.70635184916443
 20
271.07315933141962
 11
402.70635184916443
 21
263.87315933141963
  0
LINE
  8
_0-0_図面枠
  6
CONTINUOUS
 62
    2
 10
400.54128833970333
 20
264.82315933141962
 11
400.54128833970333
 21
262.62315933141963
  0
LINE
  8
_0-0_図面枠
  6
CONTINUOUS
 62
    2
 10
400.54128833970333
 20
262.62315933141963
 11
402.70635184916443
 21
263.87315933141963
  0
LINE
  8
_0-0_図面枠
  6
CONTINUOUS
 62
    2
 10
400.54128833970333
 20
262.62315933141963
 11
398.63603245137762
 21
263.72315933141965
  0
LINE
  8
_0-0_図面枠
  6
CONTINUOUS
 62
    2
 10
391.88103430185896
 20
256.82315933141962
 11
398.37622483024228
 21
260.57315933141962
  0
LINE
  8
_0-0_図面枠
  6
CONTINUOUS
 62
    2
 10
398.37622483024228
 20
260.57315933141967
 11
395.77814861888896
 21
262.07315933141967
  0
LINE
  8
_0-0_図面枠
  6
CONTINUOUS
 62
    2
 10
402.70635184916443
 20
263.87315933141963
 11
400.54128833970333
 21
265.12315933141957
  0
INSERT
  2
-001-_1_
  8
_0-0_図面枠
 10
210
 20
148.5
 41
1
 42
1
 50
0
  0
LINE
  8
_0-0_図面枠
  6
CONTINUOUS
 62
    2
 10
402.70635184916438
 20
271.07315933141956
 11
394.69409914134548
 21
275.69903558909419
  0
LINE
  8
_0-0_図面枠
  6
CONTINUOUS
 62
    2
 10
400.54128833970333
 20
264.82315933141962
 11
397.61985870680041
 21
266.50984751639464
  0
LINE
  8
_0-0_図面枠
  6
CONTINUOUS
 62
    2
 10
393.97781274487403
 20
268.61258373291389
 11
392.39662779955813
 21
269.52548128673061
  0
LINE
  8
_0-0_図面枠
  6
CONTINUOUS
 62
    3
 10
398.37622483024228
 20
260.57315933141967
 11
389.71597079239785
 21
255.57315933141962
  0
LINE
  8
_0-0_図面枠
  6
CONTINUOUS
 62
    3
 10
398.37622483024228
 20
260.57315933141962
 11
398.37622483024228
 21
250.57315933141962
  0
LINE
  8
_0-0_図面枠
  6
CONTINUOUS
 62
    3
 10
402.70635184916443
 20
278.53211437480888
 11
402.70635184916443
 21
253.07315933141956
  0
TEXT
  8
_0-0_図面枠
 62
    4
 10
372.41798043780125
 20
279.59292671270163
 40
2.5
 41
1
 50
0
  1
-50
  0
TEXT
  8
_0-0_図面枠
 62
    4
 10
394.93383412807236
 20
279.59292671270157
 40
2.5
 41
1
 50
0
  1
+50
  0
TEXT
  8
_0-0_図面枠
 62
    4
 10
394.93383412807231
 20
266.59339252358933
 40
2.5
 41
1
 50
0
  1
+50
  0
TEXT
  8
_0-0_図面枠
 62
    4
 10
372.4175770319319
 20
266.59409129313099
 40
2.5
 41
1
 50
0
  1
-50
  0
LINE
  8
_0-0_図面枠
  6
CONTINUOUS
 62
    4
 10
182.14999999999998
 20
48.533333333333303
 11
40
 21
48.533333333333303
  0
LINE
  8
_0-0_図面枠
  6
CONTINUOUS
 62
    4
 10
182.14999999999998
 20
60.533333333333303
 11
40
 21
60.533333333333303
  0
LINE
  8
_0-0_図面枠
  6
CONTINUOUS
 62
    4
 10
182.14999999999998
 20
54.533333333333303
 11
40
 21
54.533333333333303
  0
LINE
  8
_0-0_図面枠
  6
CONTINUOUS
 62
    4
 10
182.14999999999998
 20
66.533333333333303
 11
40
 21
66.533333333333303
  0
LINE
  8
_0-0_図面枠
  6
CONTINUOUS
 62
    4
 10
182.14999999999998
 20
102.53333333333336
 11
40
 21
102.53333333333336
  0
LINE
  8
_0-0_図面枠
  6
CONTINUOUS
 62
    4
 10
182.14999999999998
 20
96.53333333333336
 11
40
 21
96.53333333333336
  0
LINE
  8
_0-0_図面枠
  6
CONTINUOUS
 62
    4
 10
182.14999999999998
 20
90.53333333333336
 11
40
 21
90.53333333333336
  0
LINE
  8
_0-0_図面枠
  6
CONTINUOUS
 62
    4
 10
182.14999999999998
 20
84.53333333333336
 11
40
 21
84.53333333333336
  0
LINE
  8
_0-0_図面枠
  6
CONTINUOUS
 62
    4
 10
182.14999999999998
 20
78.53333333333336
 11
40
 21
78.53333333333336
  0
LINE
  8
_0-0_図面枠
  6
CONTINUOUS
 62
    4
 10
182.14999999999998
 20
72.533333333333303
 11
40
 21
72.533333333333303
  0
LINE
  8
_0-0_図面枠
  6
CONTINUOUS
 62
    4
 10
182.14999999999998
 20
113.33333333333331
 11
40
 21
113.33333333333331
  0
LINE
  8
_0-0_図面枠
  6
CONTINUOUS
 62
    4
 10
182.14999999999998
 20
42.533333333333303
 11
40
 21
42.533333333333303
  0
LINE
  8
_0-0_図面枠
  6
CONTINUOUS
 62
    4
 10
182.14999999999998
 20
36.533333333333303
 11
40
 21
36.533333333333303
  0
LINE
  8
_0-0_図面枠
  6
CONTINUOUS
 62
    4
 10
182.14999999999998
 20
30.533333333333303
 11
40
 21
30.533333333333303
  0
LINE
  8
_0-0_図面枠
  6
CONTINUOUS
 62
    4
 10
182.14999999999998
 20
24.533333333333303
 11
40
 21
24.533333333333303
  0
TEXT
  8
_0-0_図面枠
 62
    4
 10
165.55126400000003
 20
108.53334383333328
 40
3.2000000000000002
 41
1
 50
0
  1
使用
  0
TEXT
  8
_0-0_図面枠
 62
    4
 10
150.50638249999994
 20
108.53334383333328
 40
3.2000000000000002
 41
1
 50
0
  1
定　尺
  0
TEXT
  8
_0-0_図面枠
 62
    4
 10
148.34354749999997
 20
103.73333733333328
 40
3.2000000000000002
 41
1
 50
0
  1
（ｍｍ）
  0
TEXT
  8
_0-0_図面枠
 62
    4
 10
165.55126400000003
 20
103.73333733333328
 40
3.2000000000000002
 41
1
 50
0
  1
数量
  0
TEXT
  8
_0-0_図面枠
 62
    4
 10
40.497067999999985
 20
97.760882833333255
 40
3.2000000000000002
 41
1
 50
0
  1
　１
  0
TEXT
  8
_0-0_図面枠
 62
    4
 10
149.270477
 20
97.733337333333282
 40
3.2000000000000002
 41
1
 50
0
  1
３０００
  0
TEXT
  8
_0-0_図面枠
 62
    4
 10
177.00512500000002
 20
97.733337333333282
 40
3.2000000000000002
 41
1
 50
0
  1
本
  0
TEXT
  8
_0-0_図面枠
 62
    4
 10
43.586831999999987
 20
91.760882833333255
 40
3.2000000000000002
 41
1
 50
0
  1
２
  0
TEXT
  8
_0-0_図面枠
 62
    4
 10
149.270477
 20
91.733337333333282
 40
3.2000000000000002
 41
1
 50
0
  1
３０００
  0
TEXT
  8
_0-0_図面枠
 62
    4
 10
169.36022149999994
 20
91.783336333333239
 40
3.2000000000000002
 41
1
 50
0
  1
１
  0
TEXT
  8
_0-0_図面枠
 62
    4
 10
43.586831999999987
 20
85.760882833333255
 40
3.2000000000000002
 41
1
 50
0
  1
３
  0
TEXT
  8
_0-0_図面枠
 62
    4
 10
43.586831999999987
 20
79.760882833333255
 40
3.2000000000000002
 41
1
 50
0
  1
４
  0
TEXT
  8
_0-0_図面枠
 62
    4
 10
43.586831999999987
 20
73.760894333333283
 40
3.2000000000000002
 41
1
 50
0
  1
５
  0
TEXT
  8
_0-0_図面枠
 62
    4
 10
43.586831999999987
 20
67.760894333333283
 40
3.2000000000000002
 41
1
 50
0
  1
６
  0
TEXT
  8
_0-0_図面枠
 62
    4
 10
43.586831999999987
 20
61.760888833333297
 40
3.2000000000000002
 41
1
 50
0
  1
７
  0
TEXT
  8
_0-0_図面枠
 62
    4
 10
43.586831999999987
 20
55.760888833333297
 40
3.2000000000000002
 41
1
 50
0
  1
８
  0
LINE
  8
_0-0_図面枠
  6
CONTINUOUS
 62
    4
 10
382.15000000000009
 20
102.5333333333333
 11
240
 21
102.5333333333333
  0
LINE
  8
_0-0_図面枠
  6
CONTINUOUS
 62
    4
 10
382.15000000000009
 20
96.533333333333303
 11
240
 21
96.533333333333303
  0
LINE
  8
_0-0_図面枠
  6
CONTINUOUS
 62
    4
 10
382.15000000000009
 20
90.533333333333303
 11
240
 21
90.533333333333303
  0
LINE
  8
_0-0_図面枠
  6
CONTINUOUS
 62
    4
 10
382.15000000000009
 20
84.533333333333303
 11
240
 21
84.533333333333303
  0
LINE
  8
_0-0_図面枠
  6
CONTINUOUS
 62
    4
 10
382.15000000000009
 20
78.533333333333303
 11
240
 21
78.533333333333303
  0
LINE
  8
_0-0_図面枠
  6
CONTINUOUS
 62
    4
 10
382.15000000000009
 20
72.533333333333303
 11
240
 21
72.533333333333303
  0
LINE
  8
_0-0_図面枠
  6
CONTINUOUS
 62
    4
 10
382.15000000000009
 20
66.533333333333303
 11
240
 21
66.533333333333303
  0
LINE
  8
_0-0_図面枠
  6
CONTINUOUS
 62
    4
 10
382.15000000000009
 20
60.533333333333303
 11
240
 21
60.533333333333303
  0
LINE
  8
_0-0_図面枠
  6
CONTINUOUS
 62
    4
 10
382.15000000000009
 20
54.533333333333303
 11
240
 21
54.533333333333303
  0
LINE
  8
_0-0_図面枠
  6
CONTINUOUS
 62
    4
 10
382.15000000000009
 20
48.533333333333303
 11
240
 21
48.533333333333303
  0
LINE
  8
_0-0_図面枠
  6
CONTINUOUS
 62
    4
 10
382.15000000000009
 20
36.533333333333303
 11
240
 21
36.533333333333303
  0
LINE
  8
_0-0_図面枠
  6
CONTINUOUS
 62
    4
 10
382.15000000000009
 20
113.33333333333331
 11
240
 21
113.33333333333331
  0
LINE
  8
_0-0_図面枠
  6
CONTINUOUS
 62
    4
 10
382.15000000000009
 20
24.533333333333303
 11
240
 21
24.533333333333303
  0
LINE
  8
_0-0_図面枠
  6
CONTINUOUS
 62
    4
 10
382.15000000000009
 20
18.533333333333303
 11
240
 21
18.533333333333303
  0
LINE
  8
_0-0_図面枠
  6
CONTINUOUS
 62
    4
 10
382.15000000000009
 20
42.533333333333303
 11
240
 21
42.533333333333303
  0
LINE
  8
_0-0_図面枠
  6
CONTINUOUS
 62
    4
 10
382.15000000000009
 20
30.533333333333303
 11
240
 21
30.533333333333303
  0
TEXT
  8
_0-0_図面枠
 62
    4
 10
365.55123000000003
 20
108.53334383333333
 40
3.2000000000000002
 41
1
 50
0
  1
使用
  0
TEXT
  8
_0-0_図面枠
 62
    4
 10
350.50632500000006
 20
108.5333553333333
 40
3.2000000000000002
 41
1
 50
0
  1
定　尺
  0
TEXT
  8
_0-0_図面枠
 62
    4
 10
348.34349000000003
 20
103.73334833333331
 40
3.2000000000000002
 41
1
 50
0
  1
（ｍｍ）
  0
TEXT
  8
_0-0_図面枠
 62
    4
 10
365.55123000000003
 20
103.73333733333334
 40
3.2000000000000002
 41
1
 50
0
  1
数量
  0
TEXT
  8
_0-0_図面枠
 62
    4
 10
240.4970505
 20
97.760882833333312
 40
3.2000000000000002
 41
1
 50
0
  1
　１
  0
TEXT
  8
_0-0_図面枠
 62
    4
 10
243.5868145
 20
91.760882833333312
 40
3.2000000000000002
 41
1
 50
0
  1
２
  0
TEXT
  8
_0-0_図面枠
 62
    4
 10
243.5868145
 20
85.760882833333312
 40
3.2000000000000002
 41
1
 50
0
  1
３
  0
TEXT
  8
_0-0_図面枠
 62
    4
 10
243.5868145
 20
79.760882833333312
 40
3.2000000000000002
 41
1
 50
0
  1
４
  0
TEXT
  8
_0-0_図面枠
 62
    4
 10
243.5868145
 20
73.760894333333312
 40
3.2000000000000002
 41
1
 50
0
  1
５
  0
TEXT
  8
_0-0_図面枠
 62
    4
 10
243.5868145
 20
67.760894333333312
 40
3.2000000000000002
 41
1
 50
0
  1
６
  0
TEXT
  8
_0-0_図面枠
 62
    4
 10
243.5868145
 20
61.760894333333312
 40
3.2000000000000002
 41
1
 50
0
  1
７
  0
TEXT
  8
_0-0_図面枠
 62
    4
 10
243.5868145
 20
55.760888833333297
 40
3.2000000000000002
 41
1
 50
0
  1
８
  0
TEXT
  8
_0-0_図面枠
 62
    4
 10
243.5868145
 20
49.760888833333297
 40
3.2000000000000002
 41
1
 50
0
  1
９
  0
TEXT
  8
_0-0_図面枠
 62
    4
 10
240.4970505
 20
43.760888833333297
 40
3.2000000000000002
 41
1
 50
0
  1
１０
  0
TEXT
  8
_0-0_図面枠
 62
    4
 10
240.4970505
 20
37.760888833333297
 40
3.2000000000000002
 41
1
 50
0
  1
１１
  0
TEXT
  8
_0-0_図面枠
 62
    4
 10
378.55000000000007
 20
111.13333333333333
 40
3.2000000000000002
 41
1
 50
0
  1
単位
  7
TATEGAKI
  0
TEXT
  8
_0-0_図面枠
 62
    4
 10
177.00512500000002
 20
91.733337333333282
 40
3.2000000000000002
 41
1
 50
0
  1
本
  0
LINE
  8
_0-0_図面枠
  6
CONTINUOUS
 62
    4
 10
182.14999999999998
 20
18.533333333333303
 11
40
 21
18.533333333333303
  0
TEXT
  8
_0-0_図面枠
 62
    4
 10
349.27047700000014
 20
97.733337333333282
 40
3.2000000000000002
 41
1
 50
0
  1
３０００
  0
TEXT
  8
_0-0_図面枠
 62
    4
 10
377.00512500000013
 20
97.733337333333282
 40
3.2000000000000002
 41
1
 50
0
  1
本
  0
TEXT
  8
_0-0_図面枠
 62
    4
 10
349.27047700000014
 20
91.733337333333282
 40
3.2000000000000002
 41
1
 50
0
  1
３０００
  0
TEXT
  8
_0-0_図面枠
 62
    4
 10
369.36022150000008
 20
91.783336333333239
 40
3.2000000000000002
 41
1
 50
0
  1
１
  0
TEXT
  8
_0-0_図面枠
 62
    4
 10
369.36022150000008
 20
97.783324833333324
 40
3.2000000000000002
 41
1
 50
0
  1
１
  0
TEXT
  8
_0-0_図面枠
 62
    4
 10
349.27047700000014
 20
79.733337333333282
 40
3.2000000000000002
 41
1
 50
0
  1
３０００
  0
TEXT
  8
_0-0_図面枠
 62
    4
 10
349.27047700000014
 20
73.733337333333282
 40
3.2000000000000002
 41
1
 50
0
  1
３０００
  0
TEXT
  8
_0-0_図面枠
 62
    4
 10
248.4000075000001
 20
67.733337333333282
 40
3.2000000000000002
 41
1
 50
0
  1
止水補助板
  0
TEXT
  8
_0-0_図面枠
 62
    4
 10
377.00512500000013
 20
91.733337333333282
 40
3.2000000000000002
 41
1
 50
0
  1
本
  0
LINE
  8
_0-0_図面枠
  6
CONTINUOUS
 62
    4
 10
40
 20
18.533333333333303
 11
40
 21
113.33333333333331
  0
LINE
  8
_0-0_図面枠
  6
CONTINUOUS
 62
    4
 10
47.200000000000017
 20
18.533333333333303
 11
47.200000000000017
 21
113.33333333333331
  0
LINE
  8
_0-0_図面枠
  6
CONTINUOUS
 62
    4
 10
182.14999999999998
 20
18.533333333333303
 11
182.14999999999998
 21
113.33333333333331
  0
LINE
  8
_0-0_図面枠
  6
CONTINUOUS
 62
    4
 10
162.95000000000002
 20
18.533333333333303
 11
162.95000000000002
 21
113.33333333333331
  0
LINE
  8
_0-0_図面枠
  6
CONTINUOUS
 62
    4
 10
147.95000000000002
 20
18.533333333333303
 11
147.95000000000002
 21
113.33333333333331
  0
LINE
  8
_0-0_図面枠
  6
CONTINUOUS
 62
    4
 10
174.95000000000005
 20
18.533333333333303
 11
174.95000000000005
 21
113.33333333333331
  0
LINE
  8
_0-0_図面枠
  6
CONTINUOUS
 62
    4
 10
146.95000000000002
 20
18.533333333333303
 11
146.95000000000002
 21
113.33333333333331
  0
LINE
  8
_0-0_図面枠
  6
CONTINUOUS
 62
    4
 10
240
 20
18.533333333333303
 11
240
 21
113.33333333333331
  0
LINE
  8
_0-0_図面枠
  6
CONTINUOUS
 62
    4
 10
247.20000000000005
 20
18.533333333333303
 11
247.20000000000005
 21
113.33333333333331
  0
LINE
  8
_0-0_図面枠
  6
CONTINUOUS
 62
    4
 10
346.95000000000005
 20
18.533333333333303
 11
346.95000000000005
 21
113.33333333333331
  0
LINE
  8
_0-0_図面枠
  6
CONTINUOUS
 62
    4
 10
382.15000000000009
 20
18.533333333333303
 11
382.15000000000009
 21
113.33333333333331
  0
LINE
  8
_0-0_図面枠
  6
CONTINUOUS
 62
    4
 10
374.95000000000005
 20
18.533333333333303
 11
374.95000000000005
 21
113.33333333333331
  0
LINE
  8
_0-0_図面枠
  6
CONTINUOUS
 62
    4
 10
362.95000000000005
 20
18.533333333333303
 11
362.95000000000005
 21
113.33333333333331
  0
LINE
  8
_0-0_図面枠
  6
CONTINUOUS
 62
    4
 10
347.95000000000005
 20
18.533333333333303
 11
347.95000000000005
 21
113.33333333333331
  0
TEXT
  8
_0-0_図面枠
 62
    4
 10
69.300000000000011
 20
106.33333333333334
 40
3.2000000000000002
 41
1
 50
0
  1
部材名称
  0
TEXT
  8
_0-0_図面枠
 62
    4
 10
178.54999999999998
 20
111.13333333333334
 40
3.2000000000000002
 41
1
 50
0
  1
単位
  7
TATEGAKI
  0
LINE
  8
_0-0_図面枠
  6
CONTINUOUS
 62
    4
 10
100.86666666666669
 20
18.533333333333303
 11
100.86666666666669
 21
113.33333333333331
  0
TEXT
  8
_0-0_図面枠
 62
    4
 10
119.10833333333336
 20
106.33333333333333
 40
3.2000000000000002
 41
1
 50
0
  1
規　格
  0
LINE
  8
_0-0_図面枠
  6
CONTINUOUS
 62
    4
 10
300.86666666666667
 20
18.533333333333303
 11
300.86666666666667
 21
113.33333333333331
  0
TEXT
  8
_0-0_図面枠
 62
    4
 10
267.63333333333333
 20
106.33333333333331
 40
3.2000000000000002
 41
1
 50
0
  1
部材名称
  0
TEXT
  8
_0-0_図面枠
 62
    4
 10
319.10833333333335
 20
106.33333333333331
 40
3.2000000000000002
 41
1
 50
0
  1
規　格
  0
TEXT
  8
_0-0_図面枠
 62
    4
 10
48.400007499999987
 20
85.733337333333282
 40
3.2000000000000002
 41
1
 50
0
  1
ＴＴＧフレーム(Ａ)
  0
TEXT
  8
_0-0_図面枠
 62
    4
 10
48.400007499999987
 20
79.733337333333282
 40
3.2000000000000002
 41
1
 50
0
  1
止水補助板
  0
TEXT
  8
_0-0_図面枠
 62
    4
 10
169.36022149999994
 20
97.783324833333324
 40
3.2000000000000002
 41
1
 50
0
  1
２
  0
TEXT
  8
_0-0_図面枠
 62
    4
 10
248.4000075000001
 20
73.733337333333282
 40
3.2000000000000002
 41
1
 50
0
  1
ＴＣＧ壁フレーム
  0
TEXT
  8
_0-0_図面枠
 62
    4
 10
349.27047700000014
 20
85.733337333333282
 40
3.2000000000000002
 41
1
 50
0
  1
３０００
  0
TEXT
  8
_0-0_図面枠
 62
    4
 10
369.36022150000008
 20
85.783336333333239
 40
3.2000000000000002
 41
1
 50
0
  1
１
  0
TEXT
  8
_0-0_図面枠
 62
    4
 10
377.00512500000013
 20
85.733337333333282
 40
3.2000000000000002
 41
1
 50
0
  1
本
  0
TEXT
  8
_0-0_図面枠
 62
    4
 10
369.36022150000008
 20
79.783336333333239
 40
3.2000000000000002
 41
1
 50
0
  1
１
  0
TEXT
  8
_0-0_図面枠
 62
    4
 10
377.00512500000013
 20
79.733337333333282
 40
3.2000000000000002
 41
1
 50
0
  1
本
  0
TEXT
  8
_0-0_図面枠
 62
    4
 10
369.36022150000008
 20
73.783336333333239
 40
3.2000000000000002
 41
1
 50
0
  1
１
  0
TEXT
  8
_0-0_図面枠
 62
    4
 10
377.00512500000013
 20
73.733337333333282
 40
3.2000000000000002
 41
1
 50
0
  1
本
  0
TEXT
  8
_0-0_図面枠
 62
    4
 10
349.27047700000014
 20
61.733342833333325
 40
3.2000000000000002
 41
1
 50
0
  1
３１００
  0
TEXT
  8
_0-0_図面枠
 62
    4
 10
377.00512500000013
 20
55.733325833333311
 40
3.2000000000000002
 41
1
 50
0
  1
本
  0
TEXT
  8
_0-0_図面枠
 62
    4
 10
302.06667966666686
 20
55.733342833333325
 40
3.2000000000000002
 41
1
 50
0
  1
皿５×１６
  0
TEXT
  8
_0-0_図面枠
 62
    4
 10
366.27045750000002
 20
55.783341833333282
 40
3.2000000000000002
 41
1
 50
0
  1
１７
  0
TEXT
  8
_0-0_図面枠
 62
    4
 10
248.40000750000013
 20
49.733342833333325
 40
3.2000000000000002
 41
1
 50
0
  1
ステンタッピンねじ
  0
TEXT
  8
_0-0_図面枠
 62
    4
 10
377.00512500000013
 20
49.733325833333311
 40
3.2000000000000002
 41
1
 50
0
  1
本
  0
TEXT
  8
_0-0_図面枠
 62
    4
 10
302.06669116666689
 20
49.733342833333325
 40
3.2000000000000002
 41
1
 50
0
  1
なべ５×５０
  0
TEXT
  8
_0-0_図面枠
 62
    4
 10
248.40000750000013
 20
43.733342833333325
 40
3.2000000000000002
 41
1
 50
0
  1
ステンワッシャー
  0
TEXT
  8
_0-0_図面枠
 62
    4
 10
377.00512500000013
 20
43.733342833333325
 40
3.2000000000000002
 41
1
 50
0
  1
枚
  0
TEXT
  8
_0-0_図面枠
 62
    4
 10
302.06663366666686
 20
43.73333733333331
 40
3.2000000000000002
 41
1
 50
0
  1
１．５×１８×５．５穴
  0
TEXT
  8
_0-0_図面枠
 62
    4
 10
377.00512500000013
 20
37.733325833333311
 40
3.2000000000000002
 41
1
 50
0
  1
本
  0
TEXT
  8
_0-0_図面枠
 62
    4
 10
149.270477
 20
85.733337333333282
 40
3.2000000000000002
 41
1
 50
0
  1
３０００
  0
TEXT
  8
_0-0_図面枠
 62
    4
 10
177.00512500000002
 20
85.733337333333282
 40
3.2000000000000002
 41
1
 50
0
  1
本
  0
TEXT
  8
_0-0_図面枠
 62
    4
 10
169.36022149999994
 20
85.783324833333324
 40
3.2000000000000002
 41
1
 50
0
  1
２
  0
TEXT
  8
_0-0_図面枠
 62
    4
 10
177.00512500000011
 20
73.733325833333367
 40
3.2000000000000002
 41
1
 50
0
  1
本
  0
TEXT
  8
_0-0_図面枠
 62
    4
 10
102.06667966666683
 20
73.733342833333381
 40
3.2000000000000002
 41
1
 50
0
  1
皿５×１６
  0
TEXT
  8
_0-0_図面枠
 62
    4
 10
166.27045749999999
 20
73.783341833333338
 40
3.2000000000000002
 41
1
 50
0
  1
２２
  0
TEXT
  8
_0-0_図面枠
 62
    4
 10
166.27045749999999
 20
67.783341833333282
 40
3.2000000000000002
 41
1
 50
0
  1
１２
  0
TEXT
  8
_0-0_図面枠
 62
    4
 10
48.400007499999987
 20
67.733342833333325
 40
3.2000000000000002
 41
1
 50
0
  1
ステンタッピンねじ
  0
TEXT
  8
_0-0_図面枠
 62
    4
 10
48.400007499999987
 20
61.733342833333325
 40
3.2000000000000002
 41
1
 50
0
  1
ステンワッシャー
  0
TEXT
  8
_0-0_図面枠
 62
    4
 10
166.27045749999999
 20
61.783341833333282
 40
3.2000000000000002
 41
1
 50
0
  1
１２
  0
TEXT
  8
_0-0_図面枠
 62
    4
 10
166.27045749999999
 20
55.783341833333282
 40
3.2000000000000002
 41
1
 50
0
  1
１２
  0
TEXT
  8
_0-0_図面枠
 62
    4
 10
177.00512500000002
 20
55.733325833333311
 40
3.2000000000000002
 41
1
 50
0
  1
本
  0
TEXT
  8
_0-0_図面枠
 62
    4
 10
177.00512500000002
 20
61.733342833333325
 40
3.2000000000000002
 41
1
 50
0
  1
枚
  0
TEXT
  8
_0-0_図面枠
 62
    4
 10
177.00512500000002
 20
67.733325833333311
 40
3.2000000000000002
 41
1
 50
0
  1
本
  0
TEXT
  8
_0-0_図面枠
 62
    4
 10
102.06669116666673
 20
67.733342833333325
 40
3.2000000000000002
 41
1
 50
0
  1
なべ５×５０
  0
TEXT
  8
_0-0_図面枠
 62
    4
 10
102.0666336666667
 20
61.73333733333331
 40
3.2000000000000002
 41
1
 50
0
  1
１．５×１８×５．５穴
  0
TEXT
  8
_0-0_図面枠
 62
    4
 10
48.4000075000001
 20
73.733342833333381
 40
3.2000000000000002
 41
1
 50
0
  1
ステンドリリングねじ
  0
TEXT
  8
_0-0_図面枠
 62
    4
 10
248.40000750000013
 20
55.733342833333325
 40
3.2000000000000002
 41
1
 50
0
  1
ステンドリリングねじ
  0
TEXT
  8
_0-0_図面枠
 62
    4
 10
102.06669116666674
 20
79.733337333333338
 40
3.2000000000000002
 41
1
 50
0
  1
ＦＳ４００
  0
TEXT
  8
_0-0_図面枠
 62
    4
 10
302.06669116666689
 20
67.733337333333282
 40
3.2000000000000002
 41
1
 50
0
  1
ＦＳ４００
  0
TEXT
  8
_0-0_図面枠
 62
    4
 10
366.27045750000013
 20
49.783341833333282
 40
3.2000000000000002
 41
1
 50
0
  1
１８
  0
TEXT
  8
_0-0_図面枠
 62
    4
 10
366.27045750000013
 20
43.783341833333282
 40
3.2000000000000002
 41
1
 50
0
  1
１８
  0
TEXT
  8
_0-0_図面枠
 62
    4
 10
366.27045750000013
 20
37.783341833333282
 40
3.2000000000000002
 41
1
 50
0
  1
１８
  0
TEXT
  8
_0-0_図面枠
 62
    4
 10
248.4000075000001
 20
85.733337333333282
 40
3.2000000000000002
 41
1
 50
0
  1
ＴＣＧフレーム(Ｂ)
  0
TEXT
  8
_0-0_図面枠
 62
    4
 10
48.400007499999987
 20
49.733342833333325
 40
3.2000000000000002
 41
1
 50
0
  1
ユカホルダーキャップ
  0
TEXT
  8
_0-0_図面枠
 62
    4
 10
149.270477
 20
49.733348333333311
 40
3.2000000000000002
 41
1
 50
0
  1
３０１０
  0
TEXT
  8
_0-0_図面枠
 62
    4
 10
169.36022149999994
 20
49.783336333333295
 40
3.2000000000000002
 41
1
 50
0
  1
２
  0
TEXT
  8
_0-0_図面枠
 62
    4
 10
177.00512500000002
 20
49.733325833333311
 40
3.2000000000000002
 41
1
 50
0
  1
本
  0
TEXT
  8
_0-0_図面枠
 62
    4
 10
149.270477
 20
43.733348333333311
 40
3.2000000000000002
 41
1
 50
0
  1
６０００
  0
TEXT
  8
_0-0_図面枠
 62
    4
 10
169.36022149999994
 20
43.783336333333295
 40
3.2000000000000002
 41
1
 50
0
  1
１
  0
TEXT
  8
_0-0_図面枠
 62
    4
 10
177.00512500000002
 20
43.733342833333325
 40
3.2000000000000002
 41
1
 50
0
  1
巻
  0
TEXT
  8
_0-0_図面枠
 62
    4
 10
48.400007499999987
 20
43.733342833333325
 40
3.2000000000000002
 41
1
 50
0
  1
ブチルテープ
  0
TEXT
  8
_0-0_図面枠
 62
    4
 10
102.06669116666673
 20
43.733342833333325
 40
3.2000000000000002
 41
1
 50
0
  1
ｔ１．０×ｗ３０
  0
TEXT
  8
_0-0_図面枠
 62
    4
 10
43.586831999999987
 20
43.760894333333283
 40
3.2000000000000002
 41
1
 50
0
  1
※
  0
TEXT
  8
_0-0_図面枠
 62
    4
 10
43.586831999999987
 20
49.760888833333297
 40
3.2000000000000002
 41
1
 50
0
  1
９
  0
TEXT
  8
_0-0_図面枠
 62
    4
 10
248.4000075000001
 20
31.733342833333325
 40
3.2000000000000002
 41
1
 50
0
  1
ユカホルダーキャップ
  0
TEXT
  8
_0-0_図面枠
 62
    4
 10
349.27047700000014
 20
31.733348333333311
 40
3.2000000000000002
 41
1
 50
0
  1
３０１０
  0
TEXT
  8
_0-0_図面枠
 62
    4
 10
369.36022150000008
 20
31.783336333333295
 40
3.2000000000000002
 41
1
 50
0
  1
２
  0
TEXT
  8
_0-0_図面枠
 62
    4
 10
377.00512500000013
 20
31.733325833333311
 40
3.2000000000000002
 41
1
 50
0
  1
本
  0
TEXT
  8
_0-0_図面枠
 62
    4
 10
243.5868145
 20
25.760888833333297
 40
3.2000000000000002
 41
1
 50
0
  1
※
  0
TEXT
  8
_0-0_図面枠
 62
    4
 10
349.27041950000012
 20
25.733342833333325
 40
3.2000000000000002
 41
1
 50
0
  1
６０００
  0
TEXT
  8
_0-0_図面枠
 62
    4
 10
369.8602370000001
 20
25.783336333333295
 40
3.2000000000000002
 41
1
 50
0
  1
１
  0
TEXT
  8
_0-0_図面枠
 62
    4
 10
377.00510200000008
 20
25.733342833333325
 40
3.2000000000000002
 41
1
 50
0
  1
巻
  0
TEXT
  8
_0-0_図面枠
 62
    4
 10
248.400013
 20
25.733342833333325
 40
3.2000000000000002
 41
1
 50
0
  1
ブチルテープ
  0
TEXT
  8
_0-0_図面枠
 62
    4
 10
302.06663366666669
 20
25.733342833333325
 40
3.2000000000000002
 41
1
 50
0
  1
ｔ１．０×ｗ３０
  0
TEXT
  8
_0-0_図面枠
 62
    4
 10
240.4970505
 20
31.760888833333297
 40
3.2000000000000002
 41
1
 50
0
  1
１２
  0
TEXT
  8
_0-0_図面枠
 62
    4
 10
102.06669116666673
 20
55.733342833333325
 40
3.2000000000000002
 41
1
 50
0
  1
φ８×４０
  0
TEXT
  8
_0-0_図面枠
 62
    4
 10
302.06669116666677
 20
37.733342833333325
 40
3.2000000000000002
 41
1
 50
0
  1
φ８×４０
  0
TEXT
  8
_0-0_図面枠
 62
    4
 10
122.30833333333339
 20
97.933333333333366
 40
3.2000000000000002
 41
1
 50
0
  1
―
  0
TEXT
  8
_0-0_図面枠
 62
    4
 10
122.30833333333339
 20
91.933333333333366
 40
3.2000000000000002
 41
1
 50
0
  1
―
  0
TEXT
  8
_0-0_図面枠
 62
    4
 10
122.30833333333339
 20
85.933333333333366
 40
3.2000000000000002
 41
1
 50
0
  1
―
  0
TEXT
  8
_0-0_図面枠
 62
    4
 10
122.30833333333338
 20
49.933333333333309
 40
3.2000000000000002
 41
1
 50
0
  1
―
  0
TEXT
  8
_0-0_図面枠
 62
    4
 10
322.30833333333334
 20
97.933333333333309
 40
3.2000000000000002
 41
1
 50
0
  1
―
  0
TEXT
  8
_0-0_図面枠
 62
    4
 10
322.30833333333334
 20
91.933333333333309
 40
3.2000000000000002
 41
1
 50
0
  1
―
  0
TEXT
  8
_0-0_図面枠
 62
    4
 10
322.30833333333334
 20
85.933333333333309
 40
3.2000000000000002
 41
1
 50
0
  1
―
  0
TEXT
  8
_0-0_図面枠
 62
    4
 10
322.30833333333334
 20
79.933333333333309
 40
3.2000000000000002
 41
1
 50
0
  1
―
  0
TEXT
  8
_0-0_図面枠
 62
    4
 10
322.30833333333334
 20
73.933333333333309
 40
3.2000000000000002
 41
1
 50
0
  1
―
  0
TEXT
  8
_0-0_図面枠
 62
    4
 10
322.30833333333334
 20
61.933333333333309
 40
3.2000000000000002
 41
1
 50
0
  1
―
  0
TEXT
  8
_0-0_図面枠
 62
    4
 10
322.30833333333334
 20
31.933333333333294
 40
3.2000000000000002
 41
1
 50
0
  1
―
  0
TEXT
  8
_0-0_図面枠
 62
    4
 10
153.85000000000002
 20
73.933333333333294
 40
3.2000000000000002
 41
1
 50
0
  1
―
  0
TEXT
  8
_0-0_図面枠
 62
    4
 10
153.85000000000002
 20
67.933333333333294
 40
3.2000000000000002
 41
1
 50
0
  1
―
  0
TEXT
  8
_0-0_図面枠
 62
    4
 10
153.85000000000002
 20
61.93333333333328
 40
3.2000000000000002
 41
1
 50
0
  1
―
  0
TEXT
  8
_0-0_図面枠
 62
    4
 10
153.85000000000002
 20
55.93333333333328
 40
3.2000000000000002
 41
1
 50
0
  1
―
  0
TEXT
  8
_0-0_図面枠
 62
    4
 10
353.85000000000002
 20
55.93333333333328
 40
3.2000000000000002
 41
1
 50
0
  1
―
  0
TEXT
  8
_0-0_図面枠
 62
    4
 10
353.85000000000002
 20
49.93333333333328
 40
3.2000000000000002
 41
1
 50
0
  1
―
  0
TEXT
  8
_0-0_図面枠
 62
    4
 10
353.85000000000002
 20
43.93333333333328
 40
3.2000000000000002
 41
1
 50
0
  1
―
  0
TEXT
  8
_0-0_図面枠
 62
    4
 10
353.85000000000002
 20
37.93333333333328
 40
3.2000000000000002
 41
1
 50
0
  1
―
  0
TEXT
  8
_0-0_図面枠
 62
    4
 10
369.36022149999997
 20
19.783336333333295
 40
3.2000000000000002
 41
1
 50
0
  1
１
  0
TEXT
  8
_0-0_図面枠
 62
    4
 10
243.58683199999999
 20
19.760894333333283
 40
3.2000000000000002
 41
1
 50
0
  1
※
  0
TEXT
  8
_0-0_図面枠
 62
    4
 10
377.00512500000002
 20
19.733342833333325
 40
3.2000000000000002
 41
1
 50
0
  1
個
  0
TEXT
  8
_0-0_図面枠
 62
    4
 10
353.85000000000002
 20
19.93333333333328
 40
3.2000000000000002
 41
1
 50
0
  1
―
  0
TEXT
  8
_0-0_図面枠
 62
    4
 10
377.00512500000013
 20
61.733342833333325
 40
3.2000000000000002
 41
1
 50
0
  1
本
  0
TEXT
  8
_0-0_図面枠
 62
    4
 10
369.36022150000008
 20
61.783336333333239
 40
3.2000000000000002
 41
1
 50
0
  1
２
  0
TEXT
  8
_0-0_図面枠
 62
    4
 10
102.06669116666673
 20
37.733342833333325
 40
3.2000000000000002
 41
1
 50
0
  1
ＳＵＳ＝０．８
  0
TEXT
  8
_0-0_図面枠
 62
    4
 10
48.400007499999987
 20
37.733342833333325
 40
3
 41
1
 50
0
  1
センタープレートジョイントプレート
  0
TEXT
  8
_0-0_図面枠
 62
    4
 10
302.06669116666677
 20
19.733342833333325
 40
3.2000000000000002
 41
1
 50
0
  1
ＳＵＳ＝０．８
  0
TEXT
  8
_0-0_図面枠
 62
    4
 10
248.40000750000002
 20
19.733342833333325
 40
3
 41
1
 50
0
  1
センタープレートジョイントプレート
  0
TEXT
  8
_0-0_図面枠
 62
    4
 10
169.36022149999997
 20
37.78333633333331
 40
3.2000000000000002
 41
1
 50
0
  1
１
  0
TEXT
  8
_0-0_図面枠
 62
    4
 10
43.586831999999987
 20
37.760894333333297
 40
3.2000000000000002
 41
1
 50
0
  1
※
  0
TEXT
  8
_0-0_図面枠
 62
    4
 10
177.00512500000002
 20
37.733342833333339
 40
3.2000000000000002
 41
1
 50
0
  1
個
  0
TEXT
  8
_0-0_図面枠
 62
    4
 10
153.85000000000005
 20
37.933333333333309
 40
3.2000000000000002
 41
1
 50
0
  1
―
  0
TEXT
  8
_0-0_図面枠
 62
    4
 10
48.400007499999987
 20
97.733337333333282
 40
3.2000000000000002
 41
1
 50
0
  1
ＴＴＧサイドプレート(Ａ)Ｓ
  0
TEXT
  8
_0-0_図面枠
 62
    4
 10
48.400007499999987
 20
91.733337333333282
 40
3.2000000000000002
 41
1
 50
0
  1
ＴＴＧセンタープレート(Ｂ)Ｓ
  0
TEXT
  8
_0-0_図面枠
 62
    4
 10
248.4000075000001
 20
97.733337333333282
 40
3.2000000000000002
 41
1
 50
0
  1
ＴＴＧサイドプレート(Ｃ)Ｓ
  0
TEXT
  8
_0-0_図面枠
 62
    4
 10
248.4000075000001
 20
91.733337333333282
 40
3.2000000000000002
 41
1
 50
0
  1
ＴＣＧセンタープレート(Ｂ)Ｓ
  0
TEXT
  8
_0-0_図面枠
 62
    4
 10
248.40000750000013
 20
61.733337333333282
 40
3.2000000000000002
 41
1
 50
0
  1
ガスケットＧＳ
  0
TEXT
  8
_0-0_図面枠
 62
    4
 10
149.270477
 20
79.733342833333367
 40
3.2000000000000002
 41
1
 50
0
  1
３１００
  0
TEXT
  8
_0-0_図面枠
 62
    4
 10
169.36022149999991
 20
79.783336333333295
 40
3.2000000000000002
 41
1
 50
0
  1
１
  0
TEXT
  8
_0-0_図面枠
 62
    4
 10
177.00512500000002
 20
79.733325833333367
 40
3.2000000000000002
 41
1
 50
0
  1
枚
  0
TEXT
  8
_0-0_図面枠
 62
    4
 10
349.27047700000014
 20
67.73334283333331
 40
3.2000000000000002
 41
1
 50
0
  1
３１００
  0
TEXT
  8
_0-0_図面枠
 62
    4
 10
369.36022150000002
 20
67.783336333333239
 40
3.2000000000000002
 41
1
 50
0
  1
１
  0
TEXT
  8
_0-0_図面枠
 62
    4
 10
377.00512500000013
 20
67.733325833333311
 40
3.2000000000000002
 41
1
 50
0
  1
枚
  0
TEXT
  8
_0-0_図面枠
 62
    4
 10
48.400007499999987
 20
55.733337333333282
 40
3.2000000000000002
 41
1
 50
0
  1
アンカープラグ
  0
TEXT
  8
_0-0_図面枠
 62
    4
 10
248.40000750000002
 20
37.733337333333282
 40
3.2000000000000002
 41
1
 50
0
  1
アンカープラグ
  0
TEXT
  8
_0-0_図面枠
 62
    4
 10
248.4000075000001
 20
79.733337333333282
 40
3.2000000000000002
 41
1
 50
0
  1
ＴＣＧサイドキャップＳ
  0
LINE
  8
_1-0_躯体
  6
CENTER2
 62
    4
 10
110
 20
213.83333333333337
 11
110
 21
180.33333333333331
  0
CIRCLE
  8
_1-f_寸法
  6
CONTINUOUS
 62
    4
 10
115
 20
217
 40
1.6666666666666665
  0
TEXT
  8
_1-f_寸法
 62
    4
 10
114.375
 20
215.75
 40
2.5
 41
1
 50
0
  1
2
  0
LINE
  8
_1-f_寸法
  6
CONTINUOUS
 62
    4
 10
114.16666666666666
 20
215.55662432702593
 11
112.19045974896729
 21
212.13373353930152
  0
LINE
  8
_1-3_止水補助板
  6
CONTINUOUS
 62
    4
 10
76.666666666666657
 20
203.66666666666666
 11
76.666666666666657
 21
204
  0
LINE
  8
_1-3_止水補助板
  6
CONTINUOUS
 62
    4
 10
93.333333333333329
 20
203.66666666666666
 11
76.666666666666657
 21
203.66666666666666
  0
LINE
  8
_1-3_止水補助板
  6
CONTINUOUS
 62
    4
 10
93.589108995992916
 20
204
 11
76.666666666666657
 21
204
  0
LINE
  8
_1-3_止水補助板
  6
CONTINUOUS
 62
    4
 10
143.33333333333331
 20
203.66666666666666
 11
143.33333333333331
 21
204
  0
LINE
  8
_1-3_止水補助板
  6
CONTINUOUS
 62
    4
 10
126.66666666666666
 20
203.66666666666666
 11
143.33333333333331
 21
203.66666666666666
  0
LINE
  8
_1-3_止水補助板
  6
CONTINUOUS
 62
    4
 10
126.41089100400707
 20
204
 11
143.33333333333331
 21
204
  0
ARC
  8
_1-3_止水補助板
  6
CONTINUOUS
 62
    4
 10
110.0000000000003
 20
182.25058203026896
 40
10.555873196056922
 50
195.00000000000023
 51
344.99999999999977
  0
ARC
  8
_1-3_止水補助板
  6
CONTINUOUS
 62
    4
 10
110.0000000000003
 20
182.25058203026896
 40
10.22253986272359
 50
195.0000000000002
 51
344.99999999999983
  0
LINE
  8
_1-3_止水補助板
  6
CONTINUOUS
 62
    4
 10
126.41089100400673
 20
203.99999999999994
 11
119.87421526367412
 21
179.60479402447632
  0
LINE
  8
_1-3_止水補助板
  6
CONTINUOUS
 62
    4
 10
126.66666666666666
 20
203.66666666666666
 11
120.19619053910414
 21
179.51852100944217
  0
LINE
  8
_1-3_止水補助板
  6
CONTINUOUS
 62
    4
 10
93.333333333333783
 20
203.66666666666666
 11
99.80380946089646
 21
179.51852100944217
  0
LINE
  8
_1-3_止水補助板
  6
CONTINUOUS
 62
    4
 10
93.589108995993683
 20
203.99999999999994
 11
100.12578473632648
 21
179.60479402447632
  0
INSERT
  2
-002-_2_
  8
_1-4_フレ__ム
 10
210
 20
148.5
 41
1
 42
1
 50
0
  0
LINE
  8
_1-0_躯体
  6
CONTINUOUS
 62
    6
 10
65
 20
203.66666666666666
 11
93.333333333333329
 21
203.66666666666666
  0
LINE
  8
_1-0_躯体
  6
CONTINUOUS
 62
    4
 10
65.000000000000028
 20
203.66666666666666
 11
65.000000000000028
 21
202
  0
LINE
  8
_1-0_躯体
  6
CONTINUOUS
 62
    4
 10
93.333333333333329
 20
202
 11
65.000000000000028
 21
202
  0
INSERT
  2
-003-HATCHING
  8
_1-0_躯体
 10
210
 20
148.5
 41
1
 42
1
 50
0
  0
LINE
  8
_1-0_躯体
  6
CONTINUOUS
 62
    4
 10
68.583333333333172
 20
213.5
 11
61.666666666666657
 21
213.5
  0
LINE
  8
_1-0_躯体
  6
CENTER2
 62
    4
 10
81.666666666666657
 20
206.46390870031684
 11
81.666666666666657
 21
186.66666666666666
  0
INSERT
  2
-004-_3_
  8
_1-4_フレ__ム
 10
210
 20
148.5
 41
1
 42
1
 50
0
  0
LINE
  8
_1-0_躯体
  6
CONTINUOUS
 62
    6
 10
126.66666666666666
 20
203.66666666666666
 11
154.99999999999994
 21
203.66666666666666
  0
LINE
  8
_1-0_躯体
  6
CONTINUOUS
 62
    4
 10
154.99999999999994
 20
203.66666666666666
 11
154.99999999999994
 21
202
  0
LINE
  8
_1-0_躯体
  6
CONTINUOUS
 62
    4
 10
126.66666666666666
 20
202
 11
154.99999999999994
 21
202
  0
INSERT
  2
-005-HATCHING_1_
  8
_1-0_躯体
 10
210
 20
148.5
 41
1
 42
1
 50
0
  0
LINE
  8
_1-0_躯体
  6
CONTINUOUS
 62
    4
 10
151.4166666666668
 20
213.5
 11
158.33333333333331
 21
213.5
  0
LINE
  8
_1-0_躯体
  6
CENTER2
 62
    4
 10
138.33333333333331
 20
206.46390870031692
 11
138.33333333333331
 21
186.66666666666666
  0
INSERT
  2
-006-_4_
  8
_1-8_小物
 10
210
 20
148.5
 41
1
 42
1
 50
0
  0
INSERT
  2
-007-_5_
  8
_1-8_小物
 10
210
 20
148.5
 41
1
 42
1
 50
0
  0
INSERT
  2
-008-_6_
  8
_1-8_小物
 10
210
 20
148.5
 41
1
 42
1
 50
0
  0
INSERT
  2
-009-_7_
  8
_1-8_小物
 10
210
 20
148.5
 41
1
 42
1
 50
0
  0
INSERT
  2
-010-_8_
  8
_1-8_小物
 10
210
 20
148.5
 41
1
 42
1
 50
0
  0
INSERT
  2
-011-_9_
  8
_1-8_小物
 10
210
 20
148.5
 41
1
 42
1
 50
0
  0
LINE
  8
_1-f_寸法
  6
CONTINUOUS
 62
    4
 10
126.66666666666666
 20
188.66666666666666
 11
126.66666666666666
 21
182.06666666666666
  0
LINE
  8
_1-f_寸法
  6
CONTINUOUS
 62
    4
 10
138.33333333333331
 20
188.66666666666666
 11
138.33333333333331
 21
182.06666666666666
  0
POINT
  8
_1-f_寸法
 62
    4
 10
138.33333333333331
 20
183.66666666666666
  0
POINT
  8
_1-f_寸法
 62
    4
 10
126.66666666666666
 20
183.66666666666666
  0
LINE
  8
_1-f_寸法
  6
CONTINUOUS
 62
    4
 10
138.33333333333331
 20
183.66666666666666
 11
126.66666666666666
 21
183.66666666666666
  0
TEXT
  8
_1-f_寸法
 62
    4
 10
130.89999999999998
 20
183.66666666666666
 40
3.2000000000000002
 41
1
 50
0
  1
35
  0
LINE
  8
_1-f_寸法
  6
CONTINUOUS
 62
    4
 10
160
 20
203.66666666666666
 11
166.59999999999999
 21
203.66666666666666
  0
LINE
  8
_1-f_寸法
  6
CONTINUOUS
 62
    4
 10
160
 20
213.66666666666666
 11
166.59999999999999
 21
213.66666666666666
  0
POINT
  8
_1-f_寸法
 62
    4
 10
165
 20
213.66666666666666
  0
POINT
  8
_1-f_寸法
 62
    4
 10
165
 20
203.66666666666666
  0
LINE
  8
_1-f_寸法
  6
CONTINUOUS
 62
    4
 10
165
 20
213.66666666666666
 11
165
 21
203.66666666666666
  0
TEXT
  8
_1-f_寸法
 62
    4
 10
165
 20
207.06666666666666
 40
3.2000000000000002
 41
1
 50
90
  1
30
  0
CIRCLE
  8
_1-f_寸法
  6
CONTINUOUS
 62
    4
 10
131.66666666666666
 20
198.66666666666666
 40
1.6666666666666665
  0
CIRCLE
  8
_1-f_寸法
  6
CONTINUOUS
 62
    4
 10
145
 20
217
 40
1.6666666666666665
  0
TEXT
  8
_1-f_寸法
 62
    4
 10
144.375
 20
215.75
 40
2.5
 41
1
 50
0
  1
5
  0
CIRCLE
  8
_1-f_寸法
  6
CONTINUOUS
 62
    4
 10
138.33333333333331
 20
217
 40
1.6666666666666665
  0
TEXT
  8
_1-f_寸法
 62
    4
 10
137.70833333333331
 20
215.75
 40
2.5
 41
1
 50
0
  1
1
  0
TEXT
  8
_1-f_寸法
 62
    4
 10
131.04166666666666
 20
197.41666666666666
 40
2.5
 41
1
 50
0
  1
7
  0
CIRCLE
  8
_1-f_寸法
  6
CONTINUOUS
 62
    4
 10
145
 20
197
 40
1.6666666666666665
  0
CIRCLE
  8
_1-f_寸法
  6
CONTINUOUS
 62
    4
 10
145
 20
190.33333333333331
 40
1.6666666666666665
  0
TEXT
  8
_1-f_寸法
 62
    4
 10
144.375
 20
189.08333333333331
 40
2.5
 41
1
 50
0
  1
8
  0
INSERT
  2
-012-$QLE
  8
_1-f_寸法
 10
210
 20
148.5
 41
1
 42
1
 50
0
  0
LINE
  8
_1-f_寸法
  6
CONTINUOUS
 62
    4
 10
144.17184594261551
 20
191.77968689834273
 11
139.08333333333314
 21
200.66666666666657
  0
LINE
  8
_1-f_寸法
  6
CONTINUOUS
 62
    4
 10
138.33333333333331
 20
205.86504737695003
 11
143.99828129243065
 21
198.33204257014683
  0
LINE
  8
_1-f_寸法
  6
CONTINUOUS
 62
    4
 10
136.37499999999994
 20
205.08333333333331
 11
132.65265100788636
 21
200.0103975387714
  0
LINE
  8
_1-f_寸法
  6
CONTINUOUS
 62
    4
 10
145.99624547251847
 20
215.66385901332822
 11
147.83333333333348
 21
213.19999999999999
  0
LINE
  8
_1-f_寸法
  6
CONTINUOUS
 62
    4
 10
137.5
 20
215.55662432702593
 11
136.09128978798029
 21
213.11666666666667
  0
TEXT
  8
_1-f_寸法
 62
    4
 10
144.375
 20
195.75
 40
2.5
 41
1
 50
0
  1
6
  0
LINE
  8
_1-f_寸法
  6
CONTINUOUS
 62
    4
 10
93.333333333333329
 20
188.66666666666666
 11
93.333333333333329
 21
182.06666666666666
  0
LINE
  8
_1-f_寸法
  6
CONTINUOUS
 62
    4
 10
81.666666666666657
 20
188.66666666666666
 11
81.666666666666657
 21
182.06666666666666
  0
POINT
  8
_1-f_寸法
 62
    4
 10
81.666666666666657
 20
183.66666666666666
  0
POINT
  8
_1-f_寸法
 62
    4
 10
93.333333333333329
 20
183.66666666666666
  0
LINE
  8
_1-f_寸法
  6
CONTINUOUS
 62
    4
 10
81.666666666666657
 20
183.66666666666666
 11
93.333333333333329
 21
183.66666666666666
  0
TEXT
  8
_1-f_寸法
 62
    4
 10
85.899999999999991
 20
183.66666666666666
 40
3.2000000000000002
 41
1
 50
0
  1
35
  0
CIRCLE
  8
_1-f_寸法
  6
CONTINUOUS
 62
    4
 10
88.333333333333329
 20
208.66666666666666
 40
1.6666666666666665
  0
TEXT
  8
_1-f_寸法
 62
    4
 10
87.708333333333329
 20
207.41666666666666
 40
2.5
 41
1
 50
0
  1
3
  0
LINE
  8
_1-f_寸法
  6
CONTINUOUS
 62
    4
 10
89.166666666666657
 20
207.22329099369259
 11
90.844806995859543
 21
204.31666668130018
  0
CIRCLE
  8
_1-f_寸法
  6
CONTINUOUS
 62
    4
 10
98.333333333333329
 20
200.33333333333331
 40
1.6666666666666665
  0
TEXT
  8
_1-f_寸法
 62
    4
 10
97.708333333333329
 20
199.08333333333331
 40
2.5
 41
1
 50
0
  1
4
  0
LINE
  8
_1-f_寸法
  6
CONTINUOUS
 62
    4
 10
97.5
 20
198.88995766035924
 11
95.646163293710714
 21
195.6790182961301
  0
LINE
  8
_1-0_躯体
  6
CONTINUOUS
 62
    6
 10
93.333333333333329
 20
203.66666666666666
 11
93.333333333333329
 21
165.33333333333331
  0
LINE
  8
_1-0_躯体
  6
CONTINUOUS
 62
    6
 10
126.66666666666666
 20
203.66666666666666
 11
126.66666666666666
 21
165.33333333333331
  0
LINE
  8
_1-f_寸法
  6
CONTINUOUS
 62
    4
 10
126.66666666666666
 20
163.66666666666666
 11
126.66666666666666
 21
157.06666666666666
  0
LINE
  8
_1-f_寸法
  6
CONTINUOUS
 62
    4
 10
93.333333333333329
 20
163.66666666666666
 11
93.333333333333329
 21
157.06666666666666
  0
POINT
  8
_1-f_寸法
 62
    4
 10
93.333333333333329
 20
158.66666666666666
  0
POINT
  8
_1-f_寸法
 62
    4
 10
126.66666666666666
 20
158.66666666666666
  0
LINE
  8
_1-f_寸法
  6
CONTINUOUS
 62
    4
 10
93.333333333333329
 20
158.66666666666666
 11
126.66666666666666
 21
158.66666666666666
  0
TEXT
  8
_1-f_寸法
 62
    4
 10
107.59999999999999
 20
158.66666666666666
 40
3.2000000000000002
 41
1
 50
0
  1
100
  0
LINE
  8
_1-f_寸法
  6
CONTINUOUS
 62
    4
 10
93.333333333333343
 20
215.33333333333331
 11
93.333333333333343
 21
221.93333333333331
  0
LINE
  8
_1-f_寸法
  6
CONTINUOUS
 62
    4
 10
68.333333333333314
 20
215.33333333333331
 11
68.333333333333314
 21
221.93333333333331
  0
POINT
  8
_1-f_寸法
 62
    4
 10
68.333333333333314
 20
220.33333333333331
  0
POINT
  8
_1-f_寸法
 62
    4
 10
93.333333333333343
 20
220.33333333333331
  0
LINE
  8
_1-f_寸法
  6
CONTINUOUS
 62
    4
 10
68.333333333333314
 20
220.33333333333331
 11
93.333333333333343
 21
220.33333333333331
  0
TEXT
  8
_1-f_寸法
 62
    4
 10
79.233333333333348
 20
220.33333333333331
 40
3.2000000000000002
 41
1
 50
0
  1
75
  0
LINE
  8
_1-f_寸法
  6
CONTINUOUS
 62
    4
 10
126.66666666666664
 20
215.33333333333331
 11
126.66666666666664
 21
221.93333333333331
  0
POINT
  8
_1-f_寸法
 62
    4
 10
126.66666666666664
 20
220.33333333333331
  0
LINE
  8
_1-f_寸法
  6
CONTINUOUS
 62
    4
 10
93.333333333333343
 20
220.33333333333331
 11
126.66666666666664
 21
220.33333333333331
  0
TEXT
  8
_1-f_寸法
 62
    4
 10
107.59999999999999
 20
220.33333333333331
 40
3.2000000000000002
 41
1
 50
0
  1
100
  0
LINE
  8
_1-f_寸法
  6
CONTINUOUS
 62
    4
 10
151.66666666666666
 20
215.33333333333331
 11
151.66666666666666
 21
221.93333333333331
  0
POINT
  8
_1-f_寸法
 62
    4
 10
151.66666666666666
 20
220.33333333333331
  0
LINE
  8
_1-f_寸法
  6
CONTINUOUS
 62
    4
 10
126.66666666666664
 20
220.33333333333331
 11
151.66666666666666
 21
220.33333333333331
  0
TEXT
  8
_1-f_寸法
 62
    4
 10
137.56666666666666
 20
220.33333333333331
 40
3.2000000000000002
 41
1
 50
0
  1
75
  0
LINE
  8
_1-f_寸法
  6
CONTINUOUS
 62
    4
 10
151.66666666666666
 20
220.33333333333331
 11
151.66666666666666
 21
226.93333333333331
  0
LINE
  8
_1-f_寸法
  6
CONTINUOUS
 62
    4
 10
68.333333333333314
 20
220.33333333333331
 11
68.333333333333314
 21
226.93333333333331
  0
POINT
  8
_1-f_寸法
 62
    4
 10
68.333333333333314
 20
225.33333333333331
  0
POINT
  8
_1-f_寸法
 62
    4
 10
151.66666666666666
 20
225.33333333333331
  0
LINE
  8
_1-f_寸法
  6
CONTINUOUS
 62
    4
 10
68.333333333333314
 20
225.33333333333331
 11
151.66666666666666
 21
225.33333333333331
  0
TEXT
  8
_1-f_寸法
 62
    4
 10
107.59999999999999
 20
225.33333333333331
 40
3.2000000000000002
 41
1
 50
0
  1
250
  0
CIRCLE
  8
_1-f_寸法
  6
CONTINUOUS
 62
    4
 10
301.66666666666663
 20
217
 40
1.6666666666666665
  0
TEXT
  8
_1-f_寸法
 62
    4
 10
301.04166666666663
 20
215.75
 40
2.5
 41
1
 50
0
  1
2
  0
LINE
  8
_1-f_寸法
  6
CONTINUOUS
 62
    4
 10
300.83333333333331
 20
215.55662432702593
 11
298.88576489642884
 21
212.18333684308993
  0
CIRCLE
  8
_1-f_寸法
  6
CONTINUOUS
 62
    4
 10
273.33333333333331
 20
230.33333333333331
 40
1.6666666666666665
  0
TEXT
  8
_1-f_寸法
 62
    4
 10
272.70833333333331
 20
229.08333333333331
 40
2.5
 41
1
 50
0
  1
5
  0
LINE
  8
_1-f_寸法
  6
CONTINUOUS
 62
    4
 10
274.51184463531087
 20
229.15482203135574
 11
279.73333143812278
 21
223.93333522854383
  0
CIRCLE
  8
_1-f_寸法
  6
CONTINUOUS
 62
    4
 10
288.33333333333331
 20
228.66666666666666
 40
1.6666666666666665
  0
LINE
  8
_1-f_寸法
  6
CONTINUOUS
 62
    4
 10
287.15482203135576
 20
227.48815536468902
 11
284.75000106803435
 21
225.08333440136761
  0
TEXT
  8
_1-f_寸法
 62
    4
 10
287.70833333333331
 20
227.41666666666666
 40
2.5
 41
1
 50
0
  1
8
  0
LINE
  8
_1-3_止水補助板
  6
CONTINUOUS
 62
    4
 10
326.66666666666652
 20
203.66666666666666
 11
326.66666666666652
 21
204
  0
LINE
  8
_1-3_止水補助板
  6
CONTINUOUS
 62
    4
 10
309.99999999999989
 20
203.66666666666666
 11
326.66666666666652
 21
203.66666666666666
  0
LINE
  8
_1-3_止水補助板
  6
CONTINUOUS
 62
    4
 10
309.74422433734026
 20
204
 11
326.66666666666652
 21
204
  0
CIRCLE
  8
_1-f_寸法
  6
CONTINUOUS
 62
    4
 10
281.66666666666657
 20
198.66666666666666
 40
1.6666666666666665
  0
LINE
  8
_1-f_寸法
  6
CONTINUOUS
 62
    4
 10
280.8333333333332
 20
197.22329099369259
 11
279.28451779686424
 21
194.54066379297632
  0
TEXT
  8
_1-f_寸法
 62
    4
 10
281.04166666666657
 20
197.41666666666666
 40
2.5
 41
1
 50
0
  1
6
  0
LINE
  8
_1-3_止水補助板
  6
CONTINUOUS
 62
    4
 10
309.99999999999943
 20
203.66666666666862
 11
303.52952387243641
 21
179.51852100944194
  0
LINE
  8
_1-3_止水補助板
  6
CONTINUOUS
 62
    4
 10
309.74422433733963
 20
204.00000000000193
 11
303.20754859700639
 21
179.60479402447609
  0
LINE
  8
_1-3_止水補助板
  6
CONTINUOUS
 62
    4
 10
276.66666666666555
 20
203.66666666666862
 11
283.13714279422845
 21
179.51852100944194
  0
ARC
  8
_1-3_止水補助板
  6
CONTINUOUS
 62
    4
 10
293.33333333333246
 20
182.2505820302687
 40
10.555873196056922
 50
195.00000000000011
 51
344.99999999999989
  0
ARC
  8
_1-3_止水補助板
  6
CONTINUOUS
 62
    4
 10
293.33333333333246
 20
182.2505820302687
 40
10.22253986272359
 50
195.0000000000002
 51
344.99999999999972
  0
LINE
  8
_1-3_止水補助板
  6
CONTINUOUS
 62
    4
 10
276.99999999999858
 20
203.7105508325331
 11
283.45911806965853
 21
179.60479402447609
  0
LINE
  8
_1-0_躯体
  6
CONTINUOUS
 62
    6
 10
309.99999999999989
 20
203.66666666666666
 11
309.99999999999989
 21
165.33333333333331
  0
LINE
  8
_1-0_躯体
  6
CONTINUOUS
 62
    6
 10
276.66666666666657
 20
232
 11
276.66666666666657
 21
165.33333333333331
  0
LINE
  8
_1-f_寸法
  6
CONTINUOUS
 62
    4
 10
259.99999999999994
 20
203.66666666666666
 11
308.33333333333331
 21
203.66666666666666
  0
LINE
  8
_1-f_寸法
  6
CONTINUOUS
 62
    4
 10
309.99999999999989
 20
163.66666666666666
 11
309.99999999999989
 21
157.06666666666666
  0
LINE
  8
_1-f_寸法
  6
CONTINUOUS
 62
    4
 10
276.66666666666657
 20
163.66666666666666
 11
276.66666666666657
 21
157.06666666666666
  0
POINT
  8
_1-f_寸法
 62
    4
 10
276.66666666666657
 20
158.66666666666666
  0
POINT
  8
_1-f_寸法
 62
    4
 10
309.99999999999989
 20
158.66666666666666
  0
LINE
  8
_1-f_寸法
  6
CONTINUOUS
 62
    4
 10
276.66666666666657
 20
158.66666666666666
 11
309.99999999999989
 21
158.66666666666666
  0
TEXT
  8
_1-f_寸法
 62
    4
 10
290.93333333333317
 20
158.66666666666666
 40
3.2000000000000002
 41
1
 50
0
  1
100
  0
CIRCLE
  8
_1-f_寸法
  6
CONTINUOUS
 62
    4
 10
335
 20
217
 40
1.6666666666666665
  0
TEXT
  8
_1-f_寸法
 62
    4
 10
334.375
 20
215.75
 40
2.5
 41
1
 50
0
  1
1
  0
LINE
  8
_1-f_寸法
  6
CONTINUOUS
 62
    4
 10
334.16666666666657
 20
215.55662432702593
 11
332.78682396810632
 21
213.16666666666666
  0
INSERT
  2
-013-_10_
  8
_1-8_小物
 10
210
 20
148.5
 41
1
 42
1
 50
0
  0
LINE
  8
_1-0_躯体
  6
CONTINUOUS
 62
    4
 10
356.66666666666663
 20
203.66666666666666
 11
356.66666666666663
 21
202
  0
LINE
  8
_1-0_躯体
  6
CONTINUOUS
 62
    4
 10
353.08333333333337
 20
213.5
 11
359.99999999999989
 21
213.5
  0
LINE
  8
_1-0_躯体
  6
CONTINUOUS
 62
    6
 10
309.99999999999989
 20
203.66666666666666
 11
356.66666666666663
 21
203.66666666666666
  0
LINE
  8
_1-0_躯体
  6
CONTINUOUS
 62
    4
 10
309.99999999999994
 20
202
 11
356.66666666666663
 21
202
  0
INSERT
  2
-014-HATCHING_2_
  8
_1-0_躯体
 10
210
 20
148.5
 41
1
 42
1
 50
0
  0
CIRCLE
  8
_1-f_寸法
  6
CONTINUOUS
 62
    4
 10
346.66666666666617
 20
216.26666666666679
 40
1.6666666666666665
  0
LINE
  8
_1-f_寸法
  6
CONTINUOUS
 62
    4
 10
347.66291213918475
 20
214.93052567999501
 11
349.49999999999966
 21
212.46666666666681
  0
TEXT
  8
_1-f_寸法
 62
    4
 10
346.04166666666617
 20
215.01666666666679
 40
2.5
 41
1
 50
0
  1
8
  0
INSERT
  2
-015-$QLE_1_
  8
_1-f_寸法
 10
210
 20
148.5
 41
1
 42
1
 50
0
  0
CIRCLE
  8
_1-f_寸法
  6
CONTINUOUS
 62
    4
 10
314.99999999999989
 20
208.66666666666666
 40
1.6666666666666665
  0
TEXT
  8
_1-f_寸法
 62
    4
 10
314.37499999999989
 20
207.41666666666666
 40
2.5
 41
1
 50
0
  1
3
  0
LINE
  8
_1-f_寸法
  6
CONTINUOUS
 62
    4
 10
313.82148869802228
 20
207.48815536468902
 11
311.3811541855685
 21
205.04782085223525
  0
CIRCLE
  8
_1-f_寸法
  6
CONTINUOUS
 62
    4
 10
288.33333333333343
 20
222
 40
1.6666666666666665
  0
TEXT
  8
_1-f_寸法
 62
    4
 10
287.70833333333331
 20
220.75
 40
2.5
 41
1
 50
0
  1
4
  0
LINE
  8
_1-f_寸法
  6
CONTINUOUS
 62
    4
 10
287.15482203135576
 20
220.82148869802236
 11
284.75000106803435
 21
218.41666773470095
  0
LINE
  8
_1-f_寸法
  6
CONTINUOUS
 62
    4
 10
361.66666666666663
 20
203.66666666666666
 11
368.26666666666665
 21
203.66666666666666
  0
LINE
  8
_1-f_寸法
  6
CONTINUOUS
 62
    4
 10
361.66666666666663
 20
213.66666666666666
 11
368.26666666666665
 21
213.66666666666666
  0
POINT
  8
_1-f_寸法
 62
    4
 10
366.66666666666663
 20
213.66666666666666
  0
POINT
  8
_1-f_寸法
 62
    4
 10
366.66666666666663
 20
203.66666666666666
  0
LINE
  8
_1-f_寸法
  6
CONTINUOUS
 62
    4
 10
366.66666666666663
 20
213.66666666666666
 11
366.66666666666663
 21
203.66666666666666
  0
TEXT
  8
_1-f_寸法
 62
    4
 10
366.66666666666663
 20
207.06666666666666
 40
3.2000000000000002
 41
1
 50
90
  1
30
  0
LINE
  8
_1-f_寸法
  6
CONTINUOUS
 62
    4
 10
361.66666666666663
 20
213.66666666666666
 11
368.26666666666665
 21
213.66666666666666
  0
LINE
  8
_1-f_寸法
  6
CONTINUOUS
 62
    4
 10
361.66666666666663
 20
203.66666666666666
 11
368.26666666666665
 21
203.66666666666666
  0
POINT
  8
_1-f_寸法
 62
    4
 10
366.66666666666663
 20
203.66666666666666
  0
POINT
  8
_1-f_寸法
 62
    4
 10
366.66666666666663
 20
213.66666666666666
  0
LINE
  8
_1-f_寸法
  6
CONTINUOUS
 62
    4
 10
366.66666666666663
 20
203.66666666666666
 11
366.66666666666663
 21
213.66666666666666
  0
TEXT
  8
_1-f_寸法
 62
    4
 10
366.66666666666663
 20
207.06666666666666
 40
3.2000000000000002
 41
1
 50
90
  1
30
  0
LINE
  8
_1-f_寸法
  6
CONTINUOUS
 62
    4
 10
309.99999999999994
 20
235.33333333333331
 11
309.99999999999994
 21
217
  0
LINE
  8
_1-f_寸法
  6
CONTINUOUS
 62
    4
 10
353.33333333333331
 20
235.33333333333331
 11
353.33333333333331
 21
217
  0
LINE
  8
_1-f_寸法
  6
CONTINUOUS
 62
    4
 10
285.00000106803412
 20
233.66666666666666
 11
285.00000106803412
 21
240.26666666666665
  0
LINE
  8
_1-f_寸法
  6
CONTINUOUS
 62
    4
 10
276.66666666666657
 20
233.66666666666666
 11
276.66666666666657
 21
240.26666666666665
  0
POINT
  8
_1-f_寸法
 62
    4
 10
276.66666666666657
 20
238.66666666666666
  0
POINT
  8
_1-f_寸法
 62
    4
 10
285.00000106803412
 20
238.66666666666666
  0
LINE
  8
_1-f_寸法
  6
CONTINUOUS
 62
    4
 10
276.66666666666657
 20
238.66666666666666
 11
285.00000106803412
 21
238.66666666666666
  0
TEXT
  8
_1-f_寸法
 62
    4
 10
279.23333386735032
 20
238.66666666666666
 40
3.2000000000000002
 41
1
 50
0
  1
25
  0
LINE
  8
_1-f_寸法
  6
CONTINUOUS
 62
    4
 10
309.99999999999994
 20
233.66666666666666
 11
309.99999999999994
 21
240.26666666666665
  0
POINT
  8
_1-f_寸法
 62
    4
 10
309.99999999999994
 20
238.66666666666666
  0
LINE
  8
_1-f_寸法
  6
CONTINUOUS
 62
    4
 10
285.00000106803412
 20
238.66666666666666
 11
309.99999999999994
 21
238.66666666666666
  0
TEXT
  8
_1-f_寸法
 62
    4
 10
295.90000053401707
 20
238.66666666666666
 40
3.2000000000000002
 41
1
 50
0
  1
75
  0
LINE
  8
_1-f_寸法
  6
CONTINUOUS
 62
    4
 10
353.33333333333331
 20
233.66666666666666
 11
353.33333333333331
 21
240.26666666666665
  0
POINT
  8
_1-f_寸法
 62
    4
 10
353.33333333333331
 20
238.66666666666666
  0
LINE
  8
_1-f_寸法
  6
CONTINUOUS
 62
    4
 10
309.99999999999994
 20
238.66666666666666
 11
353.33333333333331
 21
238.66666666666666
  0
TEXT
  8
_1-f_寸法
 62
    4
 10
329.26666666666659
 20
238.66666666666666
 40
3.2000000000000002
 41
1
 50
0
  1
130
  0
INSERT
  2
-016-_11_
  8
_1-8_小物
 10
210
 20
148.5
 41
1
 42
1
 50
0
  0
INSERT
  2
-017-_12_
  8
_1-8_小物
 10
210
 20
148.5
 41
1
 42
1
 50
0
  0
INSERT
  2
-018-_13_
  8
_1-8_小物
 10
210
 20
148.5
 41
1
 42
1
 50
0
  0
LINE
  8
_1-f_寸法
  6
CONTINUOUS
 62
    4
 10
361.66666666666663
 20
230.33333357176582
 11
368.26666666666665
 21
230.33333357176582
  0
LINE
  8
_1-f_寸法
  6
CONTINUOUS
 62
    4
 10
361.66666666666663
 20
213.66666666666666
 11
368.26666666666665
 21
213.66666666666666
  0
POINT
  8
_1-f_寸法
 62
    4
 10
366.66666666666663
 20
213.66666666666666
  0
POINT
  8
_1-f_寸法
 62
    4
 10
366.66666666666663
 20
230.33333357176582
  0
LINE
  8
_1-f_寸法
  6
CONTINUOUS
 62
    4
 10
366.66666666666663
 20
213.66666666666666
 11
366.66666666666663
 21
230.33333357176582
  0
TEXT
  8
_1-f_寸法
 62
    4
 10
366.66666666666663
 20
220.40000011921626
 40
3.2000000000000002
 41
1
 50
90
  1
50
  0
LINE
  8
_1-f_寸法
  6
CONTINUOUS
 62
    4
 10
361.66666666666663
 20
230.33333357176582
 11
286.66666666666663
 21
230.33333357176582
  0
LINE
  8
_1-3_止水補助板
  6
CONTINUOUS
 62
    4
 10
276.66666666666612
 20
203.66666666666666
 11
276.66666666666612
 21
224.1666666665582
  0
LINE
  8
_1-3_止水補助板
  6
CONTINUOUS
 62
    4
 10
276.66666666666612
 20
224.1666666665582
 11
276.99999999999937
 21
224.1666666665582
  0
LINE
  8
_1-3_止水補助板
  6
CONTINUOUS
 62
    4
 10
276.99999999999937
 20
203.7105508325306
 11
276.99999999999937
 21
224.1666666665582
  0
LINE
  8
_1-0_躯体
  6
CENTER2
 62
    4
 10
279.73846062744042
 20
215.33333333333147
 11
260.00000000000045
 21
215.33333333333147
  0
INSERT
  2
-019-_14_
  8
_1-4_フレ__ム
 10
210
 20
148.5
 41
1
 42
1
 50
0
  0
CIRCLE
  8
_1-f_寸法
  6
CONTINUOUS
 62
    4
 10
266.66666666666674
 20
220.33333333333144
 40
1.6666666666666665
  0
CIRCLE
  8
_1-f_寸法
  6
CONTINUOUS
 62
    4
 10
271.66666666666674
 20
210.33333333333144
 40
1.6666666666666665
  0
CIRCLE
  8
_1-f_寸法
  6
CONTINUOUS
 62
    4
 10
265.00000000000011
 20
210.33333333333144
 40
1.6666666666666665
  0
LINE
  8
_1-f_寸法
  6
CONTINUOUS
 62
    4
 10
266.48472575504104
 20
211.09054348256066
 11
273.33333333333337
 21
214.58333341279811
  0
LINE
  8
_1-f_寸法
  6
CONTINUOUS
 62
    4
 10
278.53171404361672
 20
215.33333333333147
 11
273.01388414202313
 21
211.31454832092189
  0
LINE
  8
_1-f_寸法
  6
CONTINUOUS
 62
    4
 10
277.75000000000011
 20
217.29166674613128
 11
268.27390715605145
 21
219.89224854889625
  0
TEXT
  8
_1-f_寸法
 62
    4
 10
271.04166666666674
 20
209.08333333333144
 40
2.5
 41
1
 50
0
  1
9
  0
TEXT
  8
_1-f_寸法
 62
    4
 10
265.41666666666674
 20
219.08333333333144
 40
2.5
 41
1
 50
0
  1
10
  0
TEXT
  8
_1-f_寸法
 62
    4
 10
263.75000000000011
 20
209.08333333333144
 40
2.5
 41
1
 50
0
  1
11
  0
INSERT
  2
-020-_15_
  8
_1-8_小物
 10
210
 20
148.5
 41
1
 42
1
 50
0
  0
INSERT
  2
-021-_16_
  8
_1-8_小物
 10
210
 20
148.5
 41
1
 42
1
 50
0
  0
LINE
  8
_1-e_
  6
CONTINUOUS
 62
    4
 10
309.99999999999989
 20
203.66666666666666
 11
255.83333333333371
 21
203.66666666666666
  0
LINE
  8
_1-f_寸法
  6
CONTINUOUS
 62
    4
 10
260.83333333333371
 20
203.66666666666481
 11
254.23333333333372
 21
203.66666666666481
  0
LINE
  8
_1-f_寸法
  6
CONTINUOUS
 62
    4
 10
260.83333333333371
 20
215.33333333333147
 11
254.23333333333372
 21
215.33333333333147
  0
POINT
  8
_1-f_寸法
 62
    4
 10
255.83333333333371
 20
215.33333333333147
  0
POINT
  8
_1-f_寸法
 62
    4
 10
255.83333333333371
 20
203.66666666666481
  0
LINE
  8
_1-f_寸法
  6
CONTINUOUS
 62
    4
 10
255.83333333333371
 20
215.33333333333147
 11
255.83333333333371
 21
203.66666666666481
  0
TEXT
  8
_1-f_寸法
 62
    4
 10
255.83333333333371
 20
207.89999999999816
 40
3.2000000000000002
 41
1
 50
90
  1
35
  0
INSERT
  2
-022-_17_
  8
_1-8_小物
 10
210
 20
148.5
 41
1
 42
1
 50
0
  0
CIRCLE
  8
_1-f_寸法
  6
CONTINUOUS
 62
    4
 10
328.33333333333309
 20
190.33333333333331
 40
1.6666666666666665
  0
LINE
  8
_1-f_寸法
  6
CONTINUOUS
 62
    4
 10
327.50517927594871
 20
191.77968689834273
 11
322.41666666666629
 21
200.66666666666657
  0
TEXT
  8
_1-f_寸法
 62
    4
 10
327.08333333333309
 20
189.08333333333331
 40
2.5
 41
1
 50
0
  1
11
  0
INSERT
  2
-023-_18_
  8
_1-8_小物
 10
210
 20
148.5
 41
1
 42
1
 50
0
  0
CIRCLE
  8
_1-f_寸法
  6
CONTINUOUS
 62
    4
 10
314.99999999999983
 20
199.00000000000003
 40
1.6666666666666665
  0
LINE
  8
_1-f_寸法
  6
CONTINUOUS
 62
    4
 10
319.70833333333309
 20
205.41666666666669
 11
315.98598434121948
 21
200.34373087210477
  0
TEXT
  8
_1-f_寸法
 62
    4
 10
313.74999999999983
 20
197.75000000000003
 40
2.5
 41
1
 50
0
  1
10
  0
CIRCLE
  8
_1-f_寸法
  6
CONTINUOUS
 62
    4
 10
326.66666666666652
 20
198.66666666666666
 40
1.6666666666666665
  0
TEXT
  8
_1-f_寸法
 62
    4
 10
326.04166666666652
 20
197.41666666666666
 40
2.5
 41
1
 50
0
  1
9
  0
LINE
  8
_1-f_寸法
  6
CONTINUOUS
 62
    4
 10
325.74486661373919
 20
200.05521354747444
 11
321.66666666666652
 21
206.1983807102834
  0
LINE
  8
_1-0_躯体
  6
CENTER2
 62
    4
 10
321.66666666666652
 20
206.79724203365018
 11
321.66666666666652
 21
187
  0
LINE
  8
_1-0_躯体
  6
CENTER2
 62
    4
 10
341.66666666666617
 20
206.79724203365018
 11
341.66666666666617
 21
187
  0
INSERT
  2
-024-_19_
  8
_1-8_小物
 10
210
 20
148.5
 41
1
 42
1
 50
0
  0
INSERT
  2
-025-_20_
  8
_1-8_小物
 10
210
 20
148.5
 41
1
 42
1
 50
0
  0
LINE
  8
_1-f_寸法
  6
CONTINUOUS
 62
    4
 10
321.66666666666652
 20
188.66666666666666
 11
321.66666666666652
 21
182.06666666666666
  0
LINE
  8
_1-f_寸法
  6
CONTINUOUS
 62
    4
 10
310
 20
188.66666666666666
 11
310
 21
182.06666666666666
  0
POINT
  8
_1-f_寸法
 62
    4
 10
310
 20
183.66666666666666
  0
POINT
  8
_1-f_寸法
 62
    4
 10
321.66666666666652
 20
183.66666666666666
  0
LINE
  8
_1-f_寸法
  6
CONTINUOUS
 62
    4
 10
310
 20
183.66666666666666
 11
321.66666666666652
 21
183.66666666666666
  0
TEXT
  8
_1-f_寸法
 62
    4
 10
314.23333333333323
 20
183.66666666666666
 40
3.2000000000000002
 41
1
 50
0
  1
35
  0
LINE
  8
_1-f_寸法
  6
CONTINUOUS
 62
    4
 10
341.66666666666617
 20
188.66666666666666
 11
341.66666666666617
 21
182.06666666666666
  0
POINT
  8
_1-f_寸法
 62
    4
 10
341.66666666666617
 20
183.66666666666666
  0
LINE
  8
_1-f_寸法
  6
CONTINUOUS
 62
    4
 10
321.66666666666652
 20
183.66666666666666
 11
341.66666666666617
 21
183.66666666666666
  0
TEXT
  8
_1-f_寸法
 62
    4
 10
330.06666666666638
 20
183.66666666666666
 40
3.2000000000000002
 41
1
 50
0
  1
60
  0
LINE
  8
_1-4_フレ__ム
  6
CONTINUOUS
 62
    4
 10
283.8666670575081
 20
201.99999999999812
 11
283.8666670575081
 21
182.06666666666482
  0
LINE
  8
_1-4_フレ__ム
  6
CONTINUOUS
 62
    4
 10
276.66666666666703
 20
201.99999999999812
 11
276.66666666666703
 21
182.06666666666482
  0
POINT
  8
_1-4_フレ__ム
 62
    4
 10
276.66666666666703
 20
183.66666666666481
  0
POINT
  8
_1-4_フレ__ム
 62
    4
 10
283.8666670575081
 20
183.66666666666481
  0
LINE
  8
_1-4_フレ__ム
  6
CONTINUOUS
 62
    4
 10
276.66666666666703
 20
183.66666666666481
 11
283.8666670575081
 21
183.66666666666481
  0
TEXT
  8
_1-4_フレ__ム
 62
    4
 10
277.06666686208757
 20
183.66666666666481
 40
3.2000000000000002
 41
1
 50
0
  1
21.6
  0
CIRCLE
  8
_1-f_寸法
  6
CONTINUOUS
 62
    4
 10
121.66666666666666
 20
207
 40
1.6666666666666665
  0
CIRCLE
  8
_1-f_寸法
  6
CONTINUOUS
 62
    4
 10
304.99999949999989
 20
207
 40
1.6666666666666665
  0
TEXT
  8
_1-f_寸法
 62
    4
 10
303.74999949999989
 20
205.75
 40
2.5
 41
1
 50
0
  1
12
  0
TEXT
  8
_1-f_寸法
 62
    4
 10
121.04166666666666
 20
205.75
 40
2.5
 41
1
 50
0
  1
9
  0
LINE
  8
_1-f_寸法
  6
CONTINUOUS
 62
    4
 10
309.74999949999972
 20
209.76666633333343
 11
306.44018057419896
 21
207.8388422088191
  0
INSERT
  2
-026-_21_
  8
_1-4_フレ__ム
 10
210
 20
148.5
 41
1
 42
1
 50
0
  0
LINE
  8
_1-f_寸法
  6
CONTINUOUS
 62
    4
 10
126.41666666666647
 20
209.76666633333343
 11
123.10684774086576
 21
207.8388422088191
  0
LINE
  8
_1-f_寸法
  6
CONTINUOUS
 62
    4
 10
353.33333333333331
 20
238.66666666666666
 11
353.33333333333331
 21
245.26666666666659
  0
LINE
  8
_1-f_寸法
  6
CONTINUOUS
 62
    4
 10
276.66666666666657
 20
238.66666666666666
 11
276.66666666666657
 21
245.26666666666659
  0
POINT
  8
_1-f_寸法
 62
    4
 10
276.66666666666657
 20
243.66666666666663
  0
POINT
  8
_1-f_寸法
 62
    4
 10
353.33333333333331
 20
243.66666666666663
  0
LINE
  8
_1-f_寸法
  6
CONTINUOUS
 62
    4
 10
276.66666666666657
 20
243.66666666666663
 11
353.33333333333331
 21
243.66666666666663
  0
TEXT
  8
_1-f_寸法
 62
    4
 10
312.59999999999991
 20
243.66666666666663
 40
3.2000000000000002
 41
1
 50
0
  1
230
  0
CIRCLE
  8
_1-f_寸法
  6
CONTINUOUS
 62
    4
 10
281.66666665796026
 20
233.66666666666487
 40
1.6666666666666665
  0
CIRCLE
  8
_1-f_寸法
  6
CONTINUOUS
 62
    4
 10
281.66666665796026
 20
233.66666666666487
 40
1.6666666666666665
  0
TEXT
  8
_1-f_寸法
 62
    4
 10
281.04166665796026
 20
232.41666666666487
 40
2.5
 41
1
 50
0
  1
7
  0
CIRCLE
  8
_1-f_寸法
  6
CONTINUOUS
 62
    4
 10
293.33333332462695
 20
221.99999999999821
 40
1.6666666666666665
  0
CIRCLE
  8
_1-f_寸法
  6
CONTINUOUS
 62
    4
 10
293.33333332462695
 20
221.99999999999821
 40
1.6666666666666665
  0
TEXT
  8
_1-f_寸法
 62
    4
 10
292.70833332462695
 20
220.74999999999821
 40
2.5
 41
1
 50
0
  1
7
  0
LINE
  8
_1-f_寸法
  6
CONTINUOUS
 62
    4
 10
279.16666665073132
 20
230.08333339004594
 11
280.71303065258007
 21
232.29978841787297
  0
LINE
  8
_1-f_寸法
  6
CONTINUOUS
 62
    4
 10
284.7499999840644
 20
214.17689987672395
 11
292.10153447580598
 21
220.87730263480083
  0
LINE
  8
_1-0_躯体
  6
CENTER2
 62
    4
 10
293.33333333333331
 20
228.66666666666666
 11
293.33333333333331
 21
223.66666666666487
  0
LINE
  8
_1-0_躯体
  6
CENTER2
 62
    4
 10
293.33333333333331
 20
220.33333333333155
 11
293.33333333333331
 21
180.33333333333331
  0
INSERT
  2
-027-_22_
  8
_1-8_小物
 10
210
 20
148.5
 41
1
 42
1
 50
0
  0
INSERT
  2
-028-_23_
  8
_1-9_センタ__プレ__ト
 10
210
 20
148.5
 41
1
 42
1
 50
0
  0
INSERT
  2
-029-_24_
  8
_1-7_カバ__
 10
210
 20
148.5
 41
1
 42
1
 50
0
  0
INSERT
  2
-030-_25_
  8
_1-9_センタ__プレ__ト
 10
210
 20
148.5
 41
1
 42
1
 50
0
  0
INSERT
  2
-031-_26_
  8
_1-7_カバ__
 10
210
 20
148.5
 41
1
 42
1
 50
0
  0
INSERT
  2
-032-_27_
  8
_1-8_小物
 10
210
 20
148.5
 41
1
 42
1
 50
0
  0
INSERT
  2
-033-_28_
  8
_1-8_小物
 10
210
 20
148.5
 41
1
 42
1
 50
0
  0
INSERT
  2
-034-_29_
  8
_1-7_カバ__
 10
210
 20
148.5
 41
1
 42
1
 50
0
  0
INSERT
  2
-035-_30_
  8
_1-8_小物
 10
210
 20
148.5
 41
1
 42
1
 50
0
  0
INSERT
  2
-036-_31_
  8
_1-7_カバ__
 10
210
 20
148.5
 41
1
 42
1
 50
0
  0
ENDSEC
  0
EOF
