  0
SECTION
  2
HEADER
  9
$ACADVER
  1
AC1009
  9
$INSBASE
 10
0
 20
0
 30
0
  9
$EXTMIN
 10
0
 20
0
  9
$EXTMAX
 10
420
 20
297
  9
$LIMMIN
 10
0
 20
0
  9
$LIMMAX
 10
420
 20
297
  9
$LTSCALE
 40
1
  0
ENDSEC
  0
SECTION
  2
TABLES
  0
TABLE
  2
LTYPE
 70
     9
  0
LTYPE
  2
CONTINUOUS
 70
    64
  3
実線
 72
    65
 73
     0
 40
0.0
  0
LTYPE
  2
DASHED1
 70
    64
  3
--  --  --  --  --  --  --  --  
 72
    65
 73
     2
 40
2.5
 49
1.25
 49
-1.25
  0
LTYPE
  2
DASHED2
 70
    64
  3
----    ----    ----    ----    
 72
    65
 73
     2
 40
5.0
 49
2.5
 49
-2.5
  0
LTYPE
  2
DASHED3
 70
    64
  3
------  ------  ------  ------  
 72
    65
 73
     2
 40
5.0
 49
3.75
 49
-1.25
  0
LTYPE
  2
CENTER1
 70
    64
  3
----- - ----- - ----- - ----- - 
 72
    65
 73
     4
 40
10.0
 49
6.25
 49
-1.25
 49
1.25
 49
-1.25
  0
LTYPE
  2
CENTER2
 70
    64
  3
----------  --  ----------  --  
 72
    65
 73
     4
 40
20.0
 49
12.5
 49
-2.5
 49
2.5
 49
-2.5
  0
LTYPE
  2
PHANTOM1
 70
    64
  3
--- - - --- - - --- - - --- - - 
 72
    65
 73
     6
 40
10.0
 49
3.25
 49
-1.25
 49
1.25
 49
-1.25
 49
1.25
 49
-1.25
  0
LTYPE
  2
PHANTOM2
 70
    64
  3
--------  -  -  --------  -  -  
 72
    65
 73
     6
 40
20.0
 49
10.0
 49
-2.5
 49
1.25
 49
-2.5
 49
1.25
 49
-2.5
  0
LTYPE
  2
DOT
 70
    64
  3
-   -   -   -   -   -   -   -   
 72
    65
 73
     2
 40
2.5
 49
0.625
 49
-1.875
  0
LTYPE
  2
DUMMY
 70
    64
  3
ダミー
 72
    65
 73
     0
 40
0.0
  0
LTYPE
  2
RAND1
 70
    64
  3
ランダム線1
 72
    65
 73
     4
 40
10.0
 49
1.0
 49
-2.0
 49
3.0
 49
-4.0
  0
LTYPE
  2
RAND2
 70
    64
  3
ランダム線2
 72
    65
 73
     4
 40
14.0
 49
2.0
 49
-3.0
 49
4.0
 49
-5.0
  0
LTYPE
  2
RAND3
 70
    64
  3
ランダム線3
 72
    65
 73
     4
 40
18.0
 49
3.0
 49
-4.0
 49
5.0
 49
-6.0
  0
LTYPE
  2
RAND4
 70
    64
  3
ランダム線4
 72
    65
 73
     4
 40
22.0
 49
4.0
 49
-5.0
 49
6.0
 49
-7.0
  0
LTYPE
  2
RAND5
 70
    64
  3
ランダム線5
 72
    65
 73
     4
 40
26.0
 49
5.0
 49
-6.0
 49
7.0
 49
-8.0
  0
LTYPE
  2
LONG1
 70
    64
  3
----------  --  ----------  --  
 72
    65
 73
     4
 40
40.0
 49
32.5
 49
-2.5
 49
2.5
 49
-2.5
  0
LTYPE
  2
LONG2
 70
    64
  3
--------  -  -  --------  -  -  
 72
    65
 73
     6
 40
40.0
 49
30.0
 49
-2.5
 49
1.25
 49
-2.5
 49
1.25
 49
-2.5
  0
LTYPE
  2
LONG3
 70
    64
  3
+++++++++++++++..+++++++++++++++
 72
    65
 73
     2
 40
40.0
 49
37.5
 49
-2.5
  0
LTYPE
  2
LONG4
 70
    64
  3
+++++++++++++++..+++++++++++++++
 72
    65
 73
     2
 40
80.0
 49
75.0
 49
-5.0
  0
LTYPE
  2
LONG5
 70
    64
  3
----------  --  ----------  --  
 72
    65
 73
     4
 40
60.0
 49
37.5
 49
-7.5
 49
7.5
 49
-7.5
  0
LTYPE
  2
dashed
 70
   64
  3
-------   -------------   ------
 72
   65
 73
    2
 40
7.5
 49
6
 49
-1.5
  0
LTYPE
  2
dashed_spaced
 70
   64
  3
----        --------        ----
 72
   65
 73
    2
 40
12
 49
6
 49
-6
  0
LTYPE
  2
long_dashed_dotted
 70
   64
  3
------------- --- --------------
 72
   65
 73
    4
 40
15.25
 49
12
 49
-1.5
 49
0.25
 49
-1.5
  0
LTYPE
  2
long_dashed_double-dotted
 70
   64
  3
----------- --- --- ------------
 72
   65
 73
    6
 40
17
 49
12
 49
-1.5
 49
0.25
 49
-1.5
 49
0.25
 49
-1.5
  0
LTYPE
  2
long_dashed_triplicate-dotted
 70
   64
  3
--------- --- --- --- ----------
 72
   65
 73
    8
 40
18.75
 49
12
 49
-1.5
 49
0.25
 49
-1.5
 49
0.25
 49
-1.5
 49
0.25
 49
-1.5
  0
LTYPE
  2
dotted
 70
   64
  3
   -       -       -       -    
 72
   65
 73
    2
 40
1.75
 49
0.25
 49
-1.5
  0
LTYPE
  2
chain
 70
   64
  3
-------------- -- --------------
 72
   65
 73
    4
 40
18.5
 49
12
 49
-1.5
 49
3.5
 49
-1.5
  0
LTYPE
  2
chain_double_dash
 70
   64
  3
------------ -- -- -------------
 72
   65
 73
    6
 40
23.5
 49
12
 49
-1.5
 49
3.5
 49
-1.5
 49
3.5
 49
-1.5
  0
LTYPE
  2
dashed_dotted
 70
   64
  3
-----------     -     ----------
 72
   65
 73
    4
 40
9.25
 49
6
 49
-1.5
 49
0.25
 49
-1.5
  0
LTYPE
  2
double-dashed_dotted
 70
   64
  3
------   -----------   -   -----
 72
   65
 73
    6
 40
16.75
 49
6
 49
-1.5
 49
6
 49
-1.5
 49
0.25
 49
-1.5
  0
LTYPE
  2
dashed_double-dotted
 70
   64
  3
---------    -    -    ---------
 72
   65
 73
    6
 40
11
 49
6
 49
-1.5
 49
0.25
 49
-1.5
 49
0.25
 49
-1.5
  0
LTYPE
  2
double-dashed_double-dotted
 70
   64
  3
-----   ---------   -   -   ----
 72
   65
 73
    8
 40
18.5
 49
6
 49
-1.5
 49
6
 49
-1.5
 49
0.25
 49
-1.5
 49
0.25
 49
-1.5
  0
LTYPE
  2
dashed_triplicate-dotted
 70
   64
  3
-------    -    -    -    ------
 72
   65
 73
    8
 40
12.75
 49
6
 49
-1.5
 49
0.25
 49
-1.5
 49
0.25
 49
-1.5
 49
0.25
 49
-1.5
  0
LTYPE
  2
double-dashed_triplicate-dotted
 70
   64
  3
-----  ---------  -  -  -  -----
 72
   65
 73
   10
 40
20.25
 49
6
 49
-1.5
 49
6
 49
-1.5
 49
0.25
 49
-1.5
 49
0.25
 49
-1.5
 49
0.25
 49
-1.5
  0
LTYPE
  2
undefined
 70
   64
  3
--------------------------------
 72
   65
 73
    0
 40
0
  0
ENDTAB
  0
TABLE
  2
STYLE
  5
3
100
AcDbSymbolTable
 70
     1
  0
STYLE
  5
10
100
AcDbSymbolTableRecord
100
AcDbTextStyleTableRecord
  2
STANDARD
 70
     0
 40
0.0
 41
1.0
 50
0.0
 71
     0
 42
0.2
  3
txt
  4
bigfont.shx
  0
STYLE
  5
26
100
AcDbSymbolTableRecord
100
AcDbTextStyleTableRecord
  2
TATEGAKI
 70
    68
 40
0.0
 41
1.0
 50
0.0
 71
     0
 42
1.0
  3
txt
  4
bigfont.shx
  0
ENDTAB
  0
TABLE
  2
LAYER
 70
    9
  0
LAYER
  2
_0-0_図面枠
 70
   64
 62
    7
  6
CONTINUOUS
  0
LAYER
  2
_1-0_躯体
 70
   64
 62
    7
  6
CONTINUOUS
  0
LAYER
  2
_1-4_フレ__ム
 70
   64
 62
    7
  6
CONTINUOUS
  0
LAYER
  2
_1-5_ア__ム
 70
   64
 62
    7
  6
CONTINUOUS
  0
LAYER
  2
_1-6_ばね
 70
   64
 62
    7
  6
CONTINUOUS
  0
LAYER
  2
_1-7_カバ__
 70
   64
 62
    7
  6
CONTINUOUS
  0
LAYER
  2
_1-8_小物
 70
   64
 62
    7
  6
CONTINUOUS
  0
LAYER
  2
_1-f_寸法
 70
   64
 62
    7
  6
CONTINUOUS
  0
LAYER
  2
ADD_LINE
 70
   64
 62
    7
  6
CONTINUOUS
  0
ENDTAB
  0
ENDSEC
  0
SECTION
  2
BLOCKS
  0
BLOCK
  2
-000-
 70
   64
 10
0
 20
0
 30
0
  0
LINE
  8
_1-8_小物
  6
CONTINUOUS
 62
    4
 10
-61.787483860264587
 20
-19
 11
-59.787483860264587
 21
-19
  0
LINE
  8
_1-8_小物
  6
CONTINUOUS
 62
    4
 10
-62.120817193597929
 20
-19.707106781186582
 11
-62.120817193597929
 21
-18.292893218813447
  0
LINE
  8
_1-8_小物
  6
CONTINUOUS
 62
    4
 10
-62.120817193597929
 20
-18.292893218813447
 11
-59.454150526931244
 21
-18.292893218813447
  0
LINE
  8
_1-8_小物
  6
CONTINUOUS
 62
    4
 10
-59.454150526931244
 20
-19.707106781186582
 11
-59.454150526931244
 21
-18.292893218813447
  0
LINE
  8
_1-8_小物
  6
CONTINUOUS
 62
    4
 10
-62.120817193597929
 20
-19.707106781186582
 11
-59.454150526931244
 21
-19.707106781186582
  0
ENDBLK
  0
BLOCK
  2
-001-_1_
 70
   64
 10
0
 20
0
 30
0
  0
LINE
  8
_1-8_小物
  6
CONTINUOUS
 62
    4
 10
-118.45415052693124
 20
-19
 11
-120.45415052693124
 21
-19
  0
LINE
  8
_1-8_小物
  6
CONTINUOUS
 62
    4
 10
-118.12081719359792
 20
-19.707106781186582
 11
-118.12081719359792
 21
-18.292893218813447
  0
LINE
  8
_1-8_小物
  6
CONTINUOUS
 62
    4
 10
-118.12081719359792
 20
-18.292893218813447
 11
-120.78748386026459
 21
-18.292893218813447
  0
LINE
  8
_1-8_小物
  6
CONTINUOUS
 62
    4
 10
-120.78748386026459
 20
-19.707106781186582
 11
-120.78748386026459
 21
-18.292893218813447
  0
LINE
  8
_1-8_小物
  6
CONTINUOUS
 62
    4
 10
-118.12081719359792
 20
-19.707106781186582
 11
-120.78748386026459
 21
-19.707106781186582
  0
ENDBLK
  0
BLOCK
  2
-002-_2_
 70
   64
 10
0
 20
0
 30
0
  0
LINE
  8
_1-8_小物
  6
CONTINUOUS
 62
    4
 10
138.21251613973538
 20
-19
 11
140.21251613973538
 21
-19
  0
LINE
  8
_1-8_小物
  6
CONTINUOUS
 62
    4
 10
137.87918280640207
 20
-19.707106781186582
 11
137.87918280640207
 21
-18.292893218813447
  0
LINE
  8
_1-8_小物
  6
CONTINUOUS
 62
    4
 10
137.87918280640207
 20
-18.292893218813447
 11
140.54584947306876
 21
-18.292893218813447
  0
LINE
  8
_1-8_小物
  6
CONTINUOUS
 62
    4
 10
140.54584947306876
 20
-19.707106781186582
 11
140.54584947306876
 21
-18.292893218813447
  0
LINE
  8
_1-8_小物
  6
CONTINUOUS
 62
    4
 10
137.87918280640207
 20
-19.707106781186582
 11
140.54584947306876
 21
-19.707106781186582
  0
ENDBLK
  0
BLOCK
  2
-003-_3_
 70
   64
 10
0
 20
0
 30
0
  0
LINE
  8
_1-8_小物
  6
CONTINUOUS
 62
    4
 10
81.545849473068756
 20
-19
 11
79.545849473068756
 21
-19
  0
LINE
  8
_1-8_小物
  6
CONTINUOUS
 62
    4
 10
81.879182806402071
 20
-19.707106781186582
 11
81.879182806402071
 21
-18.292893218813447
  0
LINE
  8
_1-8_小物
  6
CONTINUOUS
 62
    4
 10
81.879182806402071
 20
-18.292893218813447
 11
79.212516139735385
 21
-18.292893218813447
  0
LINE
  8
_1-8_小物
  6
CONTINUOUS
 62
    4
 10
79.212516139735385
 20
-19.707106781186582
 11
79.212516139735385
 21
-18.292893218813447
  0
LINE
  8
_1-8_小物
  6
CONTINUOUS
 62
    4
 10
81.879182806402071
 20
-19.707106781186582
 11
79.212516139735385
 21
-19.707106781186582
  0
ENDBLK
  0
BLOCK
  2
-004-_4_
 70
   64
 10
0
 20
0
 30
0
  0
LINE
  8
_1-8_小物
  6
CONTINUOUS
 62
    4
 10
-53.197241746133159
 20
50.073391666666595
 11
-53.162351746133595
 21
49.407638333333296
  0
LINE
  8
_1-8_小物
  6
CONTINUOUS
 62
    4
 10
-53.249578412800133
 20
51.072021666666558
 11
-53.897885079466732
 21
50.704254999999904
  0
LINE
  8
_1-8_小物
  6
CONTINUOUS
 62
    4
 10
-53.897885079466732
 20
50.704254999999904
 11
-53.862995079466543
 21
50.038501666666605
  0
LINE
  8
_1-8_小物
  6
CONTINUOUS
 62
    4
 10
-53.862995079466543
 20
50.038501666666605
 11
-53.197241746133159
 21
50.073391666666595
  0
LINE
  8
_1-8_小物
  6
CONTINUOUS
 62
    4
 10
-53.284468412800038
 20
51.737774999999999
 11
-53.249578412800133
 21
51.072021666666558
  0
LINE
  8
_1-8_小物
  6
CONTINUOUS
 62
    4
 10
-53.336805079466671
 20
52.736403333333357
 11
-53.985111746133612
 21
52.36863666666639
  0
LINE
  8
_1-8_小物
  6
CONTINUOUS
 62
    4
 10
-53.985111746133612
 20
52.36863666666639
 11
-53.950221746133366
 21
51.702883333333318
  0
LINE
  8
_1-8_小物
  6
CONTINUOUS
 62
    4
 10
-53.950221746133366
 20
51.702883333333318
 11
-53.284468412800038
 21
51.737774999999999
  0
LINE
  8
_1-8_小物
  6
CONTINUOUS
 62
    4
 10
-53.371695079466861
 20
53.402156666666713
 11
-53.336805079466671
 21
52.736403333333357
  0
LINE
  8
_1-8_小物
  6
CONTINUOUS
 62
    4
 10
-53.42403174613321
 20
54.400786666666392
 11
-54.072338412799809
 21
54.033020000000022
  0
LINE
  8
_1-8_小物
  6
CONTINUOUS
 62
    4
 10
-54.072338412799809
 20
54.033020000000022
 11
-54.037448412800245
 21
53.367266666666666
  0
LINE
  8
_1-8_小物
  6
CONTINUOUS
 62
    4
 10
-54.037448412800245
 20
53.367266666666666
 11
-53.371695079466861
 21
53.402156666666713
  0
LINE
  8
_1-8_小物
  6
CONTINUOUS
 62
    4
 10
-53.458921746133399
 20
55.066539999999975
 11
-53.42403174613321
 21
54.400786666666392
  0
LINE
  8
_1-8_小物
  6
CONTINUOUS
 62
    4
 10
-53.511258412800032
 20
56.065170000000023
 11
-54.159565079466688
 21
55.697401666666593
  0
LINE
  8
_1-8_小物
  6
CONTINUOUS
 62
    4
 10
-54.159565079466688
 20
55.697401666666593
 11
-54.124675079466783
 21
55.031648333333294
  0
LINE
  8
_1-8_小物
  6
CONTINUOUS
 62
    4
 10
-54.124675079466783
 20
55.031648333333294
 11
-53.458921746133399
 21
55.066539999999975
  0
LINE
  8
_1-8_小物
  6
CONTINUOUS
 62
    4
 10
-53.546148412799937
 20
56.730921666666546
 11
-53.511258412800032
 21
56.065170000000023
  0
LINE
  8
_1-8_小物
  6
CONTINUOUS
 62
    4
 10
-54.246791746133511
 20
57.361784999999855
 11
-54.211901746133321
 21
56.696031666666556
  0
LINE
  8
_1-8_小物
  6
CONTINUOUS
 62
    4
 10
-54.211901746133321
 20
56.696031666666556
 11
-53.546148412799937
 21
56.730921666666546
  0
LINE
  8
_1-8_小物
  6
CONTINUOUS
 62
    4
 10
-53.666666746133387
 20
57.666666666666686
 11
-54.246791746133511
 21
57.361784999999855
  0
LINE
  8
_1-8_小物
  6
CONTINUOUS
 62
    4
 10
-56.802758412800017
 20
50.073391666666595
 11
-56.837648412799922
 21
49.407638333333296
  0
LINE
  8
_1-8_小物
  6
CONTINUOUS
 62
    4
 10
-56.750421746133384
 20
51.072021666666558
 11
-56.102115079466728
 21
50.704254999999904
  0
LINE
  8
_1-8_小物
  6
CONTINUOUS
 62
    4
 10
-56.102115079466728
 20
50.704254999999904
 11
-56.137005079466917
 21
50.038501666666605
  0
LINE
  8
_1-8_小物
  6
CONTINUOUS
 62
    4
 10
-56.137005079466917
 20
50.038501666666605
 11
-56.802758412800017
 21
50.073391666666595
  0
LINE
  8
_1-8_小物
  6
CONTINUOUS
 62
    4
 10
-56.715531746133138
 20
51.737774999999999
 11
-56.750421746133384
 21
51.072021666666558
  0
LINE
  8
_1-8_小物
  6
CONTINUOUS
 62
    4
 10
-56.663195079466846
 20
52.736403333333357
 11
-56.01488841280019
 21
52.36863666666639
  0
LINE
  8
_1-8_小物
  6
CONTINUOUS
 62
    4
 10
-56.01488841280019
 20
52.36863666666639
 11
-56.04977841279981
 21
51.702883333333318
  0
LINE
  8
_1-8_小物
  6
CONTINUOUS
 62
    4
 10
-56.04977841279981
 20
51.702883333333318
 11
-56.715531746133138
 21
51.737774999999999
  0
LINE
  8
_1-8_小物
  6
CONTINUOUS
 62
    4
 10
-56.628305079466941
 20
53.402156666666713
 11
-56.663195079466846
 21
52.736403333333357
  0
LINE
  8
_1-8_小物
  6
CONTINUOUS
 62
    4
 10
-56.575968412800307
 20
54.400786666666392
 11
-55.927661746133367
 21
54.033020000000022
  0
LINE
  8
_1-8_小物
  6
CONTINUOUS
 62
    4
 10
-55.927661746133367
 20
54.033020000000022
 11
-55.962551746133272
 21
53.367266666666666
  0
LINE
  8
_1-8_小物
  6
CONTINUOUS
 62
    4
 10
-55.962551746133272
 20
53.367266666666666
 11
-56.628305079466941
 21
53.402156666666713
  0
LINE
  8
_1-8_小物
  6
CONTINUOUS
 62
    4
 10
-56.541078412800061
 20
55.066539999999975
 11
-56.575968412800307
 21
54.400786666666392
  0
LINE
  8
_1-8_小物
  6
CONTINUOUS
 62
    4
 10
-56.488741746133144
 20
56.065170000000023
 11
-55.840435079466488
 21
55.697401666666593
  0
LINE
  8
_1-8_小物
  6
CONTINUOUS
 62
    4
 10
-55.840435079466488
 20
55.697401666666593
 11
-55.875325079466734
 21
55.031648333333294
  0
LINE
  8
_1-8_小物
  6
CONTINUOUS
 62
    4
 10
-55.875325079466734
 20
55.031648333333294
 11
-56.541078412800061
 21
55.066539999999975
  0
LINE
  8
_1-8_小物
  6
CONTINUOUS
 62
    4
 10
-56.453851746133523
 20
56.730921666666546
 11
-56.488741746133144
 21
56.065170000000023
  0
LINE
  8
_1-8_小物
  6
CONTINUOUS
 62
    4
 10
-55.75320841279995
 20
57.361784999999855
 11
-55.788098412800196
 21
56.696031666666556
  0
LINE
  8
_1-8_小物
  6
CONTINUOUS
 62
    4
 10
-55.788098412800196
 20
56.696031666666556
 11
-56.453851746133523
 21
56.730921666666546
  0
LINE
  8
_1-8_小物
  6
CONTINUOUS
 62
    4
 10
-55.019768412799976
 20
49.686434999999875
 11
-54.375201746133484
 21
50.258324999999957
  0
LINE
  8
_1-8_小物
  6
CONTINUOUS
 62
    4
 10
-55.623148412800163
 20
50.289813333333342
 11
-55.000000079466417
 21
49.666666666666544
  0
LINE
  8
_1-8_小物
  6
CONTINUOUS
 62
    4
 10
-56.333333412799789
 20
57.666666666666686
 11
-55.75320841279995
 21
57.361784999999855
  0
LINE
  8
_1-8_小物
  6
CONTINUOUS
 62
    4
 10
-53.458921746133399
 20
55.066539999999975
 11
-52.893800079466871
 21
56.619199999999807
  0
LINE
  8
_1-8_小物
  6
CONTINUOUS
 62
    4
 10
-53.813648412799864
 20
55.066539999999975
 11
-53.20703007946662
 21
56.733206666666575
  0
LINE
  8
_1-8_小物
  6
CONTINUOUS
 62
    4
 10
-56.541078412800061
 20
55.066539999999975
 11
-57.106200079466589
 21
56.619199999999807
  0
LINE
  8
_1-8_小物
  6
CONTINUOUS
 62
    4
 10
-56.186351746133596
 20
55.066539999999975
 11
-56.792970079466841
 21
56.733206666666575
  0
LINE
  8
_1-8_小物
  6
CONTINUOUS
 62
    4
 10
-54.327418412800057
 20
49.346579999999847
 11
-53.162351746133595
 21
49.407638333333296
  0
LINE
  8
_1-8_小物
  6
CONTINUOUS
 62
    4
 10
-53.162351746133595
 20
49.407638333333296
 11
-53.793213412800128
 21
48.706995000000035
  0
LINE
  8
_1-8_小物
  6
CONTINUOUS
 62
    4
 10
-53.793213412800128
 20
48.706995000000035
 11
-54.292528412799811
 21
48.680826666666491
  0
LINE
  8
_1-8_小物
  6
CONTINUOUS
 62
    4
 10
-54.292528412799811
 20
48.680826666666491
 11
-54.833333412799789
 21
58.999999999999801
  0
LINE
  8
_1-8_小物
  6
CONTINUOUS
 62
    4
 10
-53.666666746133387
 20
57.666666666666686
 11
-53.666666746133387
 21
58.999999999999801
  0
LINE
  8
_1-8_小物
  6
CONTINUOUS
 62
    4
 10
-55.67258174613346
 20
49.346579999999847
 11
-56.837648412799922
 21
49.407638333333296
  0
LINE
  8
_1-8_小物
  6
CONTINUOUS
 62
    4
 10
-56.837648412799922
 20
49.407638333333296
 11
-56.206786746133389
 21
48.706995000000035
  0
LINE
  8
_1-8_小物
  6
CONTINUOUS
 62
    4
 10
-56.206786746133389
 20
48.706995000000035
 11
-55.707471746133365
 21
48.680826666666491
  0
LINE
  8
_1-8_小物
  6
CONTINUOUS
 62
    4
 10
-55.707471746133365
 20
48.680826666666491
 11
-55.166666746133387
 21
58.999999999999801
  0
LINE
  8
_1-8_小物
  6
CONTINUOUS
 62
    4
 10
-56.333333412799789
 20
57.666666666666686
 11
-56.333333412799789
 21
58.999999999999801
  0
LINE
  8
_1-8_小物
  6
CONTINUOUS
 62
    4
 10
-57.106200079466589
 20
56.619199999999807
 11
-57.436985079466695
 21
58.88707333333349
  0
ARC
  8
_1-8_小物
  6
CONTINUOUS
 62
    4
 10
-57.305048412800033
 20
58.906318333333303
 40
0.1333333333333333
 50
98.130101999965902
 51
188.29846599999897
  0
LINE
  8
_1-8_小物
  6
CONTINUOUS
 62
    4
 10
-57.323905079466954
 20
59.03831166666663
 11
-57.258296746133283
 21
59.047683333333396
  0
ARC
  8
_1-8_小物
  6
CONTINUOUS
 62
    4
 10
-57.239440079466419
 20
58.915689999999984
 40
0.1333333333333333
 50
8.1301020000280779
 51
98.13010200022498
  0
LINE
  8
_1-8_小物
  6
CONTINUOUS
 62
    4
 10
-57.107446746133292
 20
58.934546666666563
 11
-56.792970079466841
 21
56.733206666666575
  0
LINE
  8
_1-8_小物
  6
CONTINUOUS
 62
    4
 10
-52.893800079466871
 20
56.619199999999807
 11
-52.563015079466766
 21
58.88707333333349
  0
ARC
  8
_1-8_小物
  6
CONTINUOUS
 62
    4
 10
-52.694951746133427
 20
58.906318333333303
 40
0.1333333333333333
 50
351.70153399996303
 51
81.869898000046192
  0
LINE
  8
_1-8_小物
  6
CONTINUOUS
 62
    4
 10
-52.676096746133453
 20
59.03831166666663
 11
-52.741703412800177
 21
59.047683333333396
  0
ARC
  8
_1-8_小物
  6
CONTINUOUS
 62
    4
 10
-52.760560079466472
 20
58.915689999999984
 40
0.1333333333333333
 50
81.869898000047925
 51
171.86989799997193
  0
LINE
  8
_1-8_小物
  6
CONTINUOUS
 62
    4
 10
-52.892553412800169
 20
58.934546666666563
 11
-53.20703007946662
 21
56.733206666666575
  0
LINE
  8
_1-8_小物
  6
CONTINUOUS
 62
    4
 10
-52.893800079466871
 20
56.619199999999807
 11
-52.563015079466766
 21
58.88707333333349
  0
ARC
  8
_1-8_小物
  6
CONTINUOUS
 62
    4
 10
-52.694951746133427
 20
58.906318333333303
 40
0.1333333333333333
 50
351.70153399996303
 51
81.869898000046192
  0
LINE
  8
_1-8_小物
  6
CONTINUOUS
 62
    4
 10
-52.676096746133453
 20
59.03831166666663
 11
-52.741703412800177
 21
59.047683333333396
  0
ARC
  8
_1-8_小物
  6
CONTINUOUS
 62
    4
 10
-52.760560079466472
 20
58.915689999999984
 40
0.1333333333333333
 50
81.869898000047925
 51
171.86989799997193
  0
LINE
  8
_1-8_小物
  6
CONTINUOUS
 62
    4
 10
-52.892553412800169
 20
58.934546666666563
 11
-53.20703007946662
 21
56.733206666666575
  0
LINE
  8
_1-8_小物
  6
CONTINUOUS
 62
    4
 10
-53.333333412799789
 20
61.666666666666686
 11
-53.666666746133387
 21
60.000000000000028
  0
LINE
  8
_1-8_小物
  6
CONTINUOUS
 62
    4
 10
-53.666666746133387
 20
61.666666666666686
 11
-53.666666746133387
 21
58.999999999999801
  0
LINE
  8
_1-8_小物
  6
CONTINUOUS
 62
    4
 10
-54.833333412799789
 20
58.999999999999801
 11
-55.000000079466417
 21
58.999999999999801
  0
LINE
  8
_1-8_小物
  6
CONTINUOUS
 62
    4
 10
-55.000000079466417
 20
60.000000000000028
 11
-55.000000079466417
 21
61.666666666666686
  0
LINE
  8
_1-8_小物
  6
CONTINUOUS
 62
    4
 10
-54.666666746133387
 20
61.666666666666686
 11
-55.000000079466417
 21
60.000000000000028
  0
LINE
  8
_1-8_小物
  6
CONTINUOUS
 62
    4
 10
-55.333333412800073
 20
61.666666666666686
 11
-55.000000079466417
 21
60.000000000000028
  0
LINE
  8
_1-8_小物
  6
CONTINUOUS
 62
    4
 10
-56.666666746133103
 20
61.666666666666686
 11
-56.333333412799789
 21
60.000000000000028
  0
LINE
  8
_1-8_小物
  6
CONTINUOUS
 62
    4
 10
-56.333333412799789
 20
61.666666666666686
 11
-56.333333412799789
 21
58.999999999999801
  0
LINE
  8
_1-8_小物
  6
CONTINUOUS
 62
    4
 10
-55.166666746133387
 20
58.999999999999801
 11
-55.000000079466417
 21
58.999999999999801
  0
LINE
  8
_1-8_小物
  6
CONTINUOUS
 62
    4
 10
-53.333333412799789
 20
61.666666666666686
 11
-56.666666746133103
 21
61.666666666666686
  0
ENDBLK
  0
BLOCK
  2
-005-_5_
 70
   64
 10
0
 20
0
 30
0
  0
LINE
  8
_1-8_小物
  6
CONTINUOUS
 62
    4
 10
-143.19724174613316
 20
50.073391666666595
 11
-143.16235174613357
 21
49.407638333333296
  0
LINE
  8
_1-8_小物
  6
CONTINUOUS
 62
    4
 10
-143.2495784128001
 20
51.072021666666558
 11
-143.89788507946673
 21
50.704254999999904
  0
LINE
  8
_1-8_小物
  6
CONTINUOUS
 62
    4
 10
-143.89788507946673
 20
50.704254999999904
 11
-143.86299507946654
 21
50.038501666666605
  0
LINE
  8
_1-8_小物
  6
CONTINUOUS
 62
    4
 10
-143.86299507946654
 20
50.038501666666605
 11
-143.19724174613316
 21
50.073391666666595
  0
LINE
  8
_1-8_小物
  6
CONTINUOUS
 62
    4
 10
-143.28446841280001
 20
51.737774999999999
 11
-143.2495784128001
 21
51.072021666666558
  0
LINE
  8
_1-8_小物
  6
CONTINUOUS
 62
    4
 10
-143.33680507946664
 20
52.736403333333357
 11
-143.98511174613358
 21
52.36863666666639
  0
LINE
  8
_1-8_小物
  6
CONTINUOUS
 62
    4
 10
-143.98511174613358
 20
52.36863666666639
 11
-143.95022174613337
 21
51.702883333333318
  0
LINE
  8
_1-8_小物
  6
CONTINUOUS
 62
    4
 10
-143.95022174613337
 20
51.702883333333318
 11
-143.28446841280001
 21
51.737774999999999
  0
LINE
  8
_1-8_小物
  6
CONTINUOUS
 62
    4
 10
-143.37169507946686
 20
53.402156666666713
 11
-143.33680507946664
 21
52.736403333333357
  0
LINE
  8
_1-8_小物
  6
CONTINUOUS
 62
    4
 10
-143.42403174613318
 20
54.400786666666392
 11
-144.07233841279981
 21
54.033020000000022
  0
LINE
  8
_1-8_小物
  6
CONTINUOUS
 62
    4
 10
-144.07233841279981
 20
54.033020000000022
 11
-144.03744841280022
 21
53.367266666666666
  0
LINE
  8
_1-8_小物
  6
CONTINUOUS
 62
    4
 10
-144.03744841280022
 20
53.367266666666666
 11
-143.37169507946686
 21
53.402156666666713
  0
LINE
  8
_1-8_小物
  6
CONTINUOUS
 62
    4
 10
-143.4589217461334
 20
55.066539999999975
 11
-143.42403174613318
 21
54.400786666666392
  0
LINE
  8
_1-8_小物
  6
CONTINUOUS
 62
    4
 10
-143.51125841280003
 20
56.065170000000023
 11
-144.15956507946666
 21
55.697401666666593
  0
LINE
  8
_1-8_小物
  6
CONTINUOUS
 62
    4
 10
-144.15956507946666
 20
55.697401666666593
 11
-144.12467507946675
 21
55.031648333333294
  0
LINE
  8
_1-8_小物
  6
CONTINUOUS
 62
    4
 10
-144.12467507946675
 20
55.031648333333294
 11
-143.4589217461334
 21
55.066539999999975
  0
LINE
  8
_1-8_小物
  6
CONTINUOUS
 62
    4
 10
-143.54614841279994
 20
56.730921666666546
 11
-143.51125841280003
 21
56.065170000000023
  0
LINE
  8
_1-8_小物
  6
CONTINUOUS
 62
    4
 10
-144.24679174613351
 20
57.361784999999855
 11
-144.21190174613329
 21
56.696031666666556
  0
LINE
  8
_1-8_小物
  6
CONTINUOUS
 62
    4
 10
-144.21190174613329
 20
56.696031666666556
 11
-143.54614841279994
 21
56.730921666666546
  0
LINE
  8
_1-8_小物
  6
CONTINUOUS
 62
    4
 10
-143.66666674613339
 20
57.666666666666686
 11
-144.24679174613351
 21
57.361784999999855
  0
LINE
  8
_1-8_小物
  6
CONTINUOUS
 62
    4
 10
-146.80275841279999
 20
50.073391666666595
 11
-146.83764841279989
 21
49.407638333333296
  0
LINE
  8
_1-8_小物
  6
CONTINUOUS
 62
    4
 10
-146.75042174613336
 20
51.072021666666558
 11
-146.10211507946673
 21
50.704254999999904
  0
LINE
  8
_1-8_小物
  6
CONTINUOUS
 62
    4
 10
-146.10211507946673
 20
50.704254999999904
 11
-146.13700507946692
 21
50.038501666666605
  0
LINE
  8
_1-8_小物
  6
CONTINUOUS
 62
    4
 10
-146.13700507946692
 20
50.038501666666605
 11
-146.80275841279999
 21
50.073391666666595
  0
LINE
  8
_1-8_小物
  6
CONTINUOUS
 62
    4
 10
-146.71553174613314
 20
51.737774999999999
 11
-146.75042174613336
 21
51.072021666666558
  0
LINE
  8
_1-8_小物
  6
CONTINUOUS
 62
    4
 10
-146.66319507946682
 20
52.736403333333357
 11
-146.01488841280019
 21
52.36863666666639
  0
LINE
  8
_1-8_小物
  6
CONTINUOUS
 62
    4
 10
-146.01488841280019
 20
52.36863666666639
 11
-146.04977841279978
 21
51.702883333333318
  0
LINE
  8
_1-8_小物
  6
CONTINUOUS
 62
    4
 10
-146.04977841279978
 20
51.702883333333318
 11
-146.71553174613314
 21
51.737774999999999
  0
LINE
  8
_1-8_小物
  6
CONTINUOUS
 62
    4
 10
-146.62830507946691
 20
53.402156666666713
 11
-146.66319507946682
 21
52.736403333333357
  0
LINE
  8
_1-8_小物
  6
CONTINUOUS
 62
    4
 10
-146.57596841280028
 20
54.400786666666392
 11
-145.92766174613334
 21
54.033020000000022
  0
LINE
  8
_1-8_小物
  6
CONTINUOUS
 62
    4
 10
-145.92766174613334
 20
54.033020000000022
 11
-145.96255174613324
 21
53.367266666666666
  0
LINE
  8
_1-8_小物
  6
CONTINUOUS
 62
    4
 10
-145.96255174613324
 20
53.367266666666666
 11
-146.62830507946691
 21
53.402156666666713
  0
LINE
  8
_1-8_小物
  6
CONTINUOUS
 62
    4
 10
-146.54107841280006
 20
55.066539999999975
 11
-146.57596841280028
 21
54.400786666666392
  0
LINE
  8
_1-8_小物
  6
CONTINUOUS
 62
    4
 10
-146.48874174613314
 20
56.065170000000023
 11
-145.84043507946649
 21
55.697401666666593
  0
LINE
  8
_1-8_小物
  6
CONTINUOUS
 62
    4
 10
-145.84043507946649
 20
55.697401666666593
 11
-145.87532507946671
 21
55.031648333333294
  0
LINE
  8
_1-8_小物
  6
CONTINUOUS
 62
    4
 10
-145.87532507946671
 20
55.031648333333294
 11
-146.54107841280006
 21
55.066539999999975
  0
LINE
  8
_1-8_小物
  6
CONTINUOUS
 62
    4
 10
-146.45385174613352
 20
56.730921666666546
 11
-146.48874174613314
 21
56.065170000000023
  0
LINE
  8
_1-8_小物
  6
CONTINUOUS
 62
    4
 10
-145.75320841279995
 20
57.361784999999855
 11
-145.78809841280017
 21
56.696031666666556
  0
LINE
  8
_1-8_小物
  6
CONTINUOUS
 62
    4
 10
-145.78809841280017
 20
56.696031666666556
 11
-146.45385174613352
 21
56.730921666666546
  0
LINE
  8
_1-8_小物
  6
CONTINUOUS
 62
    4
 10
-145.01976841279998
 20
49.686434999999875
 11
-144.37520174613346
 21
50.258324999999957
  0
LINE
  8
_1-8_小物
  6
CONTINUOUS
 62
    4
 10
-145.62314841280016
 20
50.289813333333342
 11
-145.00000007946642
 21
49.666666666666544
  0
LINE
  8
_1-8_小物
  6
CONTINUOUS
 62
    4
 10
-146.33333341279976
 20
57.666666666666686
 11
-145.75320841279995
 21
57.361784999999855
  0
LINE
  8
_1-8_小物
  6
CONTINUOUS
 62
    4
 10
-143.4589217461334
 20
55.066539999999975
 11
-142.89380007946687
 21
56.619199999999807
  0
LINE
  8
_1-8_小物
  6
CONTINUOUS
 62
    4
 10
-143.81364841279986
 20
55.066539999999975
 11
-143.20703007946662
 21
56.733206666666575
  0
LINE
  8
_1-8_小物
  6
CONTINUOUS
 62
    4
 10
-146.54107841280006
 20
55.066539999999975
 11
-147.10620007946659
 21
56.619199999999807
  0
LINE
  8
_1-8_小物
  6
CONTINUOUS
 62
    4
 10
-146.1863517461336
 20
55.066539999999975
 11
-146.79297007946684
 21
56.733206666666575
  0
LINE
  8
_1-8_小物
  6
CONTINUOUS
 62
    4
 10
-144.32741841280003
 20
49.346579999999847
 11
-143.16235174613357
 21
49.407638333333296
  0
LINE
  8
_1-8_小物
  6
CONTINUOUS
 62
    4
 10
-143.16235174613357
 20
49.407638333333296
 11
-143.7932134128001
 21
48.706995000000035
  0
LINE
  8
_1-8_小物
  6
CONTINUOUS
 62
    4
 10
-143.7932134128001
 20
48.706995000000035
 11
-144.29252841279981
 21
48.680826666666491
  0
LINE
  8
_1-8_小物
  6
CONTINUOUS
 62
    4
 10
-144.29252841279981
 20
48.680826666666491
 11
-144.83333341279976
 21
58.999999999999801
  0
LINE
  8
_1-8_小物
  6
CONTINUOUS
 62
    4
 10
-143.66666674613339
 20
57.666666666666686
 11
-143.66666674613339
 21
58.999999999999801
  0
LINE
  8
_1-8_小物
  6
CONTINUOUS
 62
    4
 10
-145.67258174613343
 20
49.346579999999847
 11
-146.83764841279989
 21
49.407638333333296
  0
LINE
  8
_1-8_小物
  6
CONTINUOUS
 62
    4
 10
-146.83764841279989
 20
49.407638333333296
 11
-146.20678674613336
 21
48.706995000000035
  0
LINE
  8
_1-8_小物
  6
CONTINUOUS
 62
    4
 10
-146.20678674613336
 20
48.706995000000035
 11
-145.70747174613334
 21
48.680826666666491
  0
LINE
  8
_1-8_小物
  6
CONTINUOUS
 62
    4
 10
-145.70747174613334
 20
48.680826666666491
 11
-145.16666674613339
 21
58.999999999999801
  0
LINE
  8
_1-8_小物
  6
CONTINUOUS
 62
    4
 10
-146.33333341279976
 20
57.666666666666686
 11
-146.33333341279976
 21
58.999999999999801
  0
LINE
  8
_1-8_小物
  6
CONTINUOUS
 62
    4
 10
-147.10620007946659
 20
56.619199999999807
 11
-147.43698507946669
 21
58.88707333333349
  0
ARC
  8
_1-8_小物
  6
CONTINUOUS
 62
    4
 10
-147.30504841280003
 20
58.906318333333303
 40
0.1333333333333333
 50
98.130101999965902
 51
188.29846599999897
  0
LINE
  8
_1-8_小物
  6
CONTINUOUS
 62
    4
 10
-147.32390507946693
 20
59.03831166666663
 11
-147.25829674613328
 21
59.047683333333396
  0
ARC
  8
_1-8_小物
  6
CONTINUOUS
 62
    4
 10
-147.23944007946642
 20
58.915689999999984
 40
0.1333333333333333
 50
8.1301020000280779
 51
98.130102000212887
  0
LINE
  8
_1-8_小物
  6
CONTINUOUS
 62
    4
 10
-147.10744674613329
 20
58.934546666666563
 11
-146.79297007946684
 21
56.733206666666575
  0
LINE
  8
_1-8_小物
  6
CONTINUOUS
 62
    4
 10
-142.89380007946687
 20
56.619199999999807
 11
-142.56301507946677
 21
58.88707333333349
  0
ARC
  8
_1-8_小物
  6
CONTINUOUS
 62
    4
 10
-142.69495174613343
 20
58.906318333333303
 40
0.1333333333333333
 50
351.70153399996479
 51
81.869898000034084
  0
LINE
  8
_1-8_小物
  6
CONTINUOUS
 62
    4
 10
-142.67609674613345
 20
59.03831166666663
 11
-142.74170341280018
 21
59.047683333333396
  0
ARC
  8
_1-8_小物
  6
CONTINUOUS
 62
    4
 10
-142.76056007946644
 20
58.915689999999984
 40
0.1333333333333333
 50
81.869898000047925
 51
171.86989799997193
  0
LINE
  8
_1-8_小物
  6
CONTINUOUS
 62
    4
 10
-142.89255341280017
 20
58.934546666666563
 11
-143.20703007946662
 21
56.733206666666575
  0
LINE
  8
_1-8_小物
  6
CONTINUOUS
 62
    4
 10
-142.89380007946687
 20
56.619199999999807
 11
-142.56301507946677
 21
58.88707333333349
  0
ARC
  8
_1-8_小物
  6
CONTINUOUS
 62
    4
 10
-142.69495174613343
 20
58.906318333333303
 40
0.1333333333333333
 50
351.70153399996479
 51
81.869898000034084
  0
LINE
  8
_1-8_小物
  6
CONTINUOUS
 62
    4
 10
-142.67609674613345
 20
59.03831166666663
 11
-142.74170341280018
 21
59.047683333333396
  0
ARC
  8
_1-8_小物
  6
CONTINUOUS
 62
    4
 10
-142.76056007946644
 20
58.915689999999984
 40
0.1333333333333333
 50
81.869898000047925
 51
171.86989799997193
  0
LINE
  8
_1-8_小物
  6
CONTINUOUS
 62
    4
 10
-142.89255341280017
 20
58.934546666666563
 11
-143.20703007946662
 21
56.733206666666575
  0
LINE
  8
_1-8_小物
  6
CONTINUOUS
 62
    4
 10
-143.33333341279976
 20
61.666666666666686
 11
-143.66666674613339
 21
60.000000000000028
  0
LINE
  8
_1-8_小物
  6
CONTINUOUS
 62
    4
 10
-143.66666674613339
 20
61.666666666666686
 11
-143.66666674613339
 21
58.999999999999801
  0
LINE
  8
_1-8_小物
  6
CONTINUOUS
 62
    4
 10
-144.83333341279976
 20
58.999999999999801
 11
-145.00000007946642
 21
58.999999999999801
  0
LINE
  8
_1-8_小物
  6
CONTINUOUS
 62
    4
 10
-145.00000007946642
 20
60.000000000000028
 11
-145.00000007946642
 21
61.666666666666686
  0
LINE
  8
_1-8_小物
  6
CONTINUOUS
 62
    4
 10
-144.66666674613339
 20
61.666666666666686
 11
-145.00000007946642
 21
60.000000000000028
  0
LINE
  8
_1-8_小物
  6
CONTINUOUS
 62
    4
 10
-145.33333341280007
 20
61.666666666666686
 11
-145.00000007946642
 21
60.000000000000028
  0
LINE
  8
_1-8_小物
  6
CONTINUOUS
 62
    4
 10
-146.6666667461331
 20
61.666666666666686
 11
-146.33333341279976
 21
60.000000000000028
  0
LINE
  8
_1-8_小物
  6
CONTINUOUS
 62
    4
 10
-146.33333341279976
 20
61.666666666666686
 11
-146.33333341279976
 21
58.999999999999801
  0
LINE
  8
_1-8_小物
  6
CONTINUOUS
 62
    4
 10
-145.16666674613339
 20
58.999999999999801
 11
-145.00000007946642
 21
58.999999999999801
  0
LINE
  8
_1-8_小物
  6
CONTINUOUS
 62
    4
 10
-143.33333341279976
 20
61.666666666666686
 11
-146.6666667461331
 21
61.666666666666686
  0
ENDBLK
  0
BLOCK
  2
-006-_6_
 70
   64
 10
0
 20
0
 30
0
  0
LINE
  8
ADD_LINE
  6
DOT
 62
    4
 10
-142.49999992053344
 20
62.666666666666799
 11
-142.49999992053344
 21
61.666666666666686
  0
LINE
  8
ADD_LINE
  6
DOT
 62
    4
 10
-147.49999992053344
 20
62.666666666666799
 11
-147.49999992053344
 21
61.666666666666686
  0
LINE
  8
_1-4_フレ__ム
  6
CENTER2
 62
    4
 10
-144.99999992053344
 20
60.000000000000028
 11
-144.99999992053344
 21
63.833333333333513
  0
LINE
  8
_1-4_フレ__ム
  6
CONTINUOUS
 62
    4
 10
-144.99999992053344
 20
62.566666666666777
 11
-145.09999992053324
 21
62.666666666666799
  0
LINE
  8
_1-4_フレ__ム
  6
CONTINUOUS
 62
    4
 10
-144.89999992053308
 20
62.666666666666799
 11
-144.99999992053344
 21
62.566666666666777
  0
LINE
  8
_1-4_フレ__ム
  6
CONTINUOUS
 62
    4
 10
-140.3333334127995
 20
62.666666666666799
 11
-144.89999992053308
 21
62.666666666666799
  0
LINE
  8
_1-4_フレ__ム
  6
CONTINUOUS
 62
    4
 10
-140.3333334127995
 20
63.500000000000057
 11
-140.3333334127995
 21
62.666666666666799
  0
LINE
  8
_1-4_フレ__ム
  6
CONTINUOUS
 62
    4
 10
-140.3333334127995
 20
63.500000000000057
 11
-139.33333341279945
 21
63.500000000000057
  0
LINE
  8
_1-4_フレ__ム
  6
CONTINUOUS
 62
    4
 10
-145.09999992053324
 20
62.666666666666799
 11
-150.99999982206688
 21
62.666666666666799
  0
ARC
  8
_1-4_フレ__ム
  6
CONTINUOUS
 62
    4
 10
-131.09999982206645
 20
61.933333333333678
 40
0.2666666666666667
 50
270
 51
0
  0
ARC
  8
_1-4_フレ__ム
  6
CONTINUOUS
 62
    4
 10
-131.1999998220665
 20
61.833333333333513
 40
0.1666666666666666
 50
180
 51
270
  0
LINE
  8
_1-4_フレ__ム
  6
CONTINUOUS
 62
    4
 10
-131.1999998220665
 20
61.666666666666686
 11
-131.09999982206645
 21
61.666666666666686
  0
ARC
  8
_1-4_フレ__ム
  6
CONTINUOUS
 62
    4
 10
-133.33333315540003
 20
62.666666666666799
 40
0.1666666666666666
 50
270
 51
0
  0
LINE
  8
_1-4_フレ__ム
  6
CONTINUOUS
 62
    4
 10
-130.83333315540003
 20
61.933333333333678
 11
-130.83333315540003
 21
62.933333333333422
  0
ARC
  8
_1-4_フレ__ム
  6
CONTINUOUS
 62
    4
 10
-131.46666648873335
 20
62.933333333333422
 40
0.6333333333333333
 50
0
 51
90
  0
LINE
  8
_1-4_フレ__ム
  6
CONTINUOUS
 62
    4
 10
-139.33333341279945
 20
63.500000000000057
 11
-139.33333341279945
 21
62.500000000000171
  0
LINE
  8
_1-4_フレ__ム
  6
CONTINUOUS
 62
    4
 10
-133.33333315540003
 20
62.500000000000171
 11
-139.33333341279945
 21
62.500000000000171
  0
LINE
  8
_1-4_フレ__ム
  6
CONTINUOUS
 62
    4
 10
-149.99999982206654
 20
61.666666666666686
 11
-150.99999982206688
 21
62.666666666666799
  0
LINE
  8
_1-4_フレ__ム
  6
CONTINUOUS
 62
    4
 10
-149.99999982206654
 20
61.666666666666686
 11
-132.33333333333326
 21
61.666666666666686
  0
LINE
  8
ADD_LINE
  6
DOT
 62
    4
 10
-133.83333315540003
 20
62.500000000000171
 11
-133.83333315540003
 21
61.666666666666686
  0
LINE
  8
_1-4_フレ__ム
  6
CENTER2
 62
    4
 10
-131.84999982206645
 20
62.483333333333519
 11
-131.84999982206645
 21
63.316666666666549
  0
LINE
  8
_1-4_フレ__ム
  6
CENTER2
 62
    4
 10
-131.84999982206645
 20
62.483333333333519
 11
-132.68333315540008
 21
62.483333333333519
  0
LINE
  8
_1-4_フレ__ム
  6
CENTER2
 62
    4
 10
-131.84999982206645
 20
62.483333333333519
 11
-131.84999982206645
 21
61.64999999999992
  0
LINE
  8
_1-4_フレ__ム
  6
CENTER2
 62
    4
 10
-131.84999982206645
 20
62.483333333333519
 11
-131.01666648873311
 21
62.483333333333519
  0
ARC
  8
_1-4_フレ__ム
  6
CONTINUOUS
 62
    4
 10
-131.84999982206645
 20
62.483333333333519
 40
0.4833333333332726
 50
0
 51
180
  0
LINE
  8
_1-4_フレ__ム
  6
CONTINUOUS
 62
    4
 10
-132.33333315540003
 20
61.666666666666686
 11
-132.33333315540003
 21
62.483333333333519
  0
LINE
  8
_1-4_フレ__ム
  6
CONTINUOUS
 62
    4
 10
-131.36666648873347
 20
62.483333333333519
 11
-131.36666648873347
 21
61.833333333333513
  0
LINE
  8
_1-4_フレ__ム
  6
CONTINUOUS
 62
    4
 10
-133.1666664887334
 20
63.466666666666754
 11
-133.1666664887334
 21
62.666666666666799
  0
LINE
  8
_1-4_フレ__ム
  6
CONTINUOUS
 62
    4
 10
-131.46666648873335
 20
63.566666666666777
 11
-133.06666648873335
 21
63.566666666666777
  0
ARC
  8
_1-4_フレ__ム
  6
CONTINUOUS
 62
    4
 10
-133.06666648873335
 20
63.466666666666754
 40
0.0999999999999999
 50
90
 51
180
  0
ENDBLK
  0
BLOCK
  2
-007-_7_
 70
   64
 10
0
 20
0
 30
0
  0
LINE
  8
_1-8_小物
  6
CONTINUOUS
 62
    4
 10
-133.96111093644976
 20
62.730313555190975
 11
-134.04814797349445
 21
62.629306961543449
  0
ARC
  8
_1-8_小物
  6
CONTINUOUS
 62
    4
 10
-130.9666664887331
 20
63.433333333333422
 40
0.1333333333333333
 50
0
 51
89.999998490725531
  0
ARC
  8
_1-8_小物
  6
CONTINUOUS
 62
    4
 10
-130.9666664887331
 20
63.433333333333422
 40
0.2666666666666666
 50
0
 51
89.999998490725531
  0
ARC
  8
_1-8_小物
  6
CONTINUOUS
 62
    4
 10
-130.9666664887331
 20
61.800000000000068
 40
0.2666666666666666
 50
270
 51
0
  0
ARC
  8
_1-8_小物
  6
CONTINUOUS
 62
    4
 10
-131.69999982206645
 20
61.293988670433379
 40
0.5
 50
53.031405798546594
 51
131.81031489580724
  0
ARC
  8
_1-8_小物
  6
CONTINUOUS
 62
    4
 10
-131.31912760539976
 20
61.800000000000068
 40
0.1333333333333333
 50
233.03140197499982
 51
269.99999849072555
  0
LINE
  8
_1-8_小物
  6
CONTINUOUS
 62
    4
 10
-131.32275832556647
 20
61.533333333333417
 11
-130.9666664887331
 21
61.533333333333417
  0
ARC
  8
_1-8_小物
  6
CONTINUOUS
 62
    4
 10
-130.9666664887331
 20
61.800000000000068
 40
0.1333333333333333
 50
270
 51
0
  0
ARC
  8
_1-8_小物
  6
CONTINUOUS
 62
    4
 10
-131.69999982206645
 20
61.250333466766762
 40
0.3999999999999999
 50
55.537811429938479
 51
127.63786311679968
  0
LINE
  8
_1-8_小物
  6
CONTINUOUS
 62
    4
 10
-131.31912760889981
 20
61.666666666666742
 11
-130.9666664887331
 21
61.666666666666742
  0
ARC
  8
_1-8_小物
  6
CONTINUOUS
 62
    4
 10
-131.32275832556647
 20
61.800000000000068
 40
0.2666666666666666
 50
235.53781142990741
 51
270
  0
LINE
  8
_1-8_小物
  6
CONTINUOUS
 62
    4
 10
-132.03333315539976
 20
61.666666666666742
 11
-131.94426726376645
 21
61.567087972566725
  0
LINE
  8
_1-8_小物
  6
CONTINUOUS
 62
    4
 10
-130.69999982206645
 20
61.800000000000068
 11
-130.69999982206645
 21
63.433333333333422
  0
LINE
  8
_1-8_小物
  6
CONTINUOUS
 62
    4
 10
-130.8333331553998
 20
61.800000000000068
 11
-130.8333331553998
 21
63.433333333333422
  0
ARC
  8
_1-8_小物
  6
CONTINUOUS
 62
    4
 10
-133.69999982206645
 20
63.033333333333417
 40
0.5333333333333333
 50
180
 51
0.0000086701116401
  0
ARC
  8
_1-8_小物
  6
CONTINUOUS
 62
    4
 10
-133.69999982206645
 20
63.033333333333417
 40
0.3999999999999999
 50
180.00000000009771
 51
0.0000018823917002
  0
LINE
  8
_1-8_小物
  6
CONTINUOUS
 62
    4
 10
-134.09999982206645
 20
63.033333333333417
 11
-134.23333315539978
 21
63.033333333333417
  0
LINE
  8
_1-8_小物
  6
CONTINUOUS
 62
    4
 10
-135.16666648873314
 20
62.500000000000028
 11
-135.16666648873314
 21
62.633333333333354
  0
LINE
  8
_1-8_小物
  6
DASHED1
 62
    4
 10
-132.5833331483268
 20
63.700000000000074
 11
-132.5833331483268
 21
63.566666666666748
  0
LINE
  8
_1-8_小物
  6
CONTINUOUS
 62
    4
 10
-134.66666648873314
 20
62.633333333333354
 11
-134.66666648873314
 21
62.500000000000028
  0
LINE
  8
_1-8_小物
  6
CONTINUOUS
 62
    4
 10
-135.16666648873314
 20
62.633333333333354
 11
-134.05276666354166
 21
62.633333333333354
  0
LINE
  8
_1-8_小物
  6
CONTINUOUS
 62
    4
 10
-135.16666648873314
 20
62.500000000000028
 11
-133.33333315540003
 21
62.500000000000028
  0
LINE
  8
_1-8_小物
  6
CONTINUOUS
 62
    4
 10
-133.3472329805912
 20
62.633333333333354
 11
-133.17003383921451
 21
62.633333333333354
  0
ARC
  8
_1-8_小物
  6
CONTINUOUS
 62
    4
 10
-132.26977134708335
 20
62.200000000000074
 40
0.1333333333333333
 50
241.52902134411696
 51
270
  0
LINE
  8
_1-8_小物
  6
CONTINUOUS
 62
    4
 10
-132.33333315540003
 20
61.933333333333422
 11
-131.36666648873347
 21
61.933333333333422
  0
LINE
  8
_1-8_小物
  6
CONTINUOUS
 62
    4
 10
-132.26977134708335
 20
62.06666666666672
 11
-131.36666648873347
 21
62.06666666666672
  0
LINE
  8
_1-8_小物
  6
CONTINUOUS
 62
    4
 10
-130.96666648523313
 20
63.566666666666748
 11
-133.06666648873312
 21
63.566666666666748
  0
LINE
  8
_1-8_小物
  6
CONTINUOUS
 62
    4
 10
-133.16666648873314
 20
63.033333333333417
 11
-133.16666648873314
 21
63.466666666666754
  0
ARC
  8
_1-8_小物
  6
CONTINUOUS
 62
    4
 10
-133.06666648873312
 20
63.466666666666754
 40
0.0999999999999999
 50
90
 51
180
  0
LINE
  8
_1-8_小物
  6
CONTINUOUS
 62
    4
 10
-130.96666648173309
 20
63.700000000000074
 11
-133.06666648873306
 21
63.700000000000074
  0
LINE
  8
_1-8_小物
  6
CONTINUOUS
 62
    4
 10
-133.29999982206641
 20
63.033333333333417
 11
-133.29999982206641
 21
63.466666666666725
  0
ARC
  8
_1-8_小物
  6
CONTINUOUS
 62
    4
 10
-133.06666648873306
 20
63.466666666666725
 40
0.2333333333333333
 50
90
 51
180
  0
ENDBLK
  0
BLOCK
  2
-008-_8_
 70
   64
 10
0
 20
0
 30
0
  0
ARC
  8
_1-4_フレ__ム
  6
CONTINUOUS
 62
    4
 10
-84.833333253866542
 20
61.666666666666657
 40
0.5
 50
90
 51
180
  0
LINE
  8
_1-4_フレ__ム
  6
CONTINUOUS
 62
    4
 10
-54.999999920533213
 20
62.066666666666606
 11
-55.09999992053298
 21
62.166666666666657
  0
LINE
  8
_1-4_フレ__ム
  6
CONTINUOUS
 62
    4
 10
-54.899999920532537
 20
62.166666666666657
 11
-54.999999920533213
 21
62.066666666666606
  0
LINE
  8
_1-4_フレ__ム
  6
CONTINUOUS
 62
    4
 10
-85.333333253866243
 20
61.666666666666657
 11
-49.999999920533213
 21
61.666666666666657
  0
LINE
  8
_1-4_フレ__ム
  6
CONTINUOUS
 62
    4
 10
-50
 20
61.666666685666684
 11
-49.00000001899997
 21
62.666666666666629
  0
LINE
  8
_1-4_フレ__ム
  6
CONTINUOUS
 62
    4
 10
-49.00000001899997
 20
62.666666666666629
 11
-49.707106800186551
 21
62.666666666666629
  0
LINE
  8
_1-4_フレ__ム
  6
CONTINUOUS
 62
    4
 10
-50.207106800186551
 20
62.166666666666657
 11
-49.707106800186551
 21
62.666666666666629
  0
LINE
  8
_1-4_フレ__ム
  6
CONTINUOUS
 62
    4
 10
-50.207106800186551
 20
62.166666666666657
 11
-54.899999920532537
 21
62.166666666666657
  0
LINE
  8
_1-4_フレ__ム
  6
CONTINUOUS
 62
    4
 10
-63.238095158628539
 20
63.39999999999992
 11
-63.238095158628539
 21
63.566666666666606
  0
ARC
  8
_1-4_フレ__ム
  6
CONTINUOUS
 62
    4
 10
-63.571428491961882
 20
63.39999999999992
 40
0.3333333333333333
 50
270
 51
0
  0
LINE
  8
_1-4_フレ__ム
  6
CONTINUOUS
 62
    4
 10
-63.571428491961882
 20
63.066666666666606
 11
-64.401932695700168
 21
63.066666666666606
  0
ARC
  8
_1-4_フレ__ム
  6
CONTINUOUS
 62
    4
 10
-64.401932695700168
 20
62.89999999999992
 40
0.1666666666666666
 50
90
 51
150.94539590094374
  0
LINE
  8
_1-4_フレ__ム
  6
CONTINUOUS
 62
    4
 10
-55.09999992053298
 20
62.166666666666657
 11
-64.716747510514949
 21
62.166666666666657
  0
ARC
  8
_1-4_フレ__ム
  6
CONTINUOUS
 62
    4
 10
-64.716747510514949
 20
62.333333333333314
 40
0.1666666666666666
 50
150.94539590094374
 51
270
  0
LINE
  8
_1-4_フレ__ム
  6
CONTINUOUS
 62
    4
 10
-63.238095158628539
 20
63.566666666666606
 11
-64.598067145366343
 21
63.566666666666606
  0
ARC
  8
_1-4_フレ__ム
  6
CONTINUOUS
 62
    4
 10
-64.598067145366343
 20
63.233333333333263
 40
0.3333333333333333
 50
90
 51
150.94539590092143
  0
LINE
  8
_1-4_フレ__ム
  6
CONTINUOUS
 62
    4
 10
-65.476728063769286
 20
62.338119022940447
 11
-64.889452904073494
 21
63.395214310392817
  0
LINE
  8
_1-4_フレ__ム
  6
CONTINUOUS
 62
    4
 10
-65.768113822476465
 20
62.166666666666657
 11
-84.833333253866542
 21
62.166666666666657
  0
ARC
  8
_1-4_フレ__ム
  6
CONTINUOUS
 62
    4
 10
-65.768113822476465
 20
62.5
 40
0.3333333333333333
 50
270
 51
330.94539590092143
  0
LINE
  8
_1-4_フレ__ム
  6
CONTINUOUS
 62
    4
 10
-64.86244038986851
 20
62.414273821863105
 11
-64.547625575053729
 21
62.980940488529711
  0
LINE
  8
_1-4_フレ__ム
  6
CENTER2
 62
    4
 10
-54.999999920532758
 20
63.833333333333314
 11
-54.999999920532758
 21
60
  0
LINE
  8
_1-4_フレ__ム
  6
DASHED1
 62
    4
 10
-52.499999920532758
 20
62.166666666666657
 11
-52.499999920532758
 21
61.666666666666657
  0
LINE
  8
_1-4_フレ__ム
  6
DASHED1
 62
    4
 10
-57.499999920532758
 20
62.166666666666657
 11
-57.499999920532758
 21
61.666666666666657
  0
ENDBLK
  0
BLOCK
  2
-009-_9_
 70
   64
 10
0
 20
0
 30
0
  0
LINE
  8
_1-8_小物
  6
CONTINUOUS
 62
    4
 10
-51.999999920532559
 20
62.666666666666657
 11
-57.999999920532872
 21
62.666666666666657
  0
LINE
  8
_1-8_小物
  6
CONTINUOUS
 62
    4
 10
-51.999999920532559
 20
62.166666666666657
 11
-57.999999920532872
 21
62.166666666666657
  0
LINE
  8
_1-8_小物
  6
CONTINUOUS
 62
    4
 10
-51.999999920532559
 20
62.666666666666657
 11
-51.999999920532559
 21
62.166666666666657
  0
LINE
  8
_1-8_小物
  6
CONTINUOUS
 62
    4
 10
-57.999999920532872
 20
62.666666666666657
 11
-57.999999920532872
 21
62.166666666666657
  0
LINE
  8
_1-8_小物
  6
CONTINUOUS
 62
    4
 10
-53.499999920532559
 20
62.666666666666657
 11
-53.536304181799409
 21
63.081626271666693
  0
LINE
  8
_1-8_小物
  6
CONTINUOUS
 62
    4
 10
-56.463695659299418
 20
63.081626271666693
 11
-56.499999920532559
 21
62.666666666666657
  0
ARC
  8
_1-8_小物
  6
CONTINUOUS
 62
    4
 10
-56.134951408899695
 20
63.052864876566588
 40
0.3299999999999999
 50
127.36755803205052
 51
175.00000000119871
  0
ARC
  8
_1-8_小物
  6
CONTINUOUS
 62
    4
 10
-53.865048432166049
 20
63.052864876566588
 40
0.3299999999999999
 50
4.999999998801286
 51
52.632441967949475
  0
ARC
  8
_1-8_小物
  6
CONTINUOUS
 62
    4
 10
-54.999999920532872
 20
61.566666666666634
 40
2.1999999999999997
 50
52.632441967704935
 51
68.266383543398163
  0
ARC
  8
_1-8_小物
  6
CONTINUOUS
 62
    4
 10
-54.999999920532872
 20
61.566666666666634
 40
2.1999999999999997
 50
111.74840859090331
 51
127.36755803230515
  0
LINE
  8
_1-8_小物
  6
CONTINUOUS
 62
    4
 10
-54.89499992053274
 20
63.753042376533386
 11
-54.89499992053274
 21
63.607770746533248
  0
LINE
  8
_1-8_小物
  6
CONTINUOUS
 62
    4
 10
-54.779237026565738
 20
63.753042376533386
 11
-54.89499992053274
 21
63.753042376533386
  0
LINE
  8
_1-8_小物
  6
CONTINUOUS
 62
    4
 10
-54.185832164366133
 20
63.607770746533248
 11
-54.779237026565738
 21
63.753042376533386
  0
LINE
  8
_1-8_小物
  6
CONTINUOUS
 62
    4
 10
-55.220762814532776
 20
63.753042376533386
 11
-55.654066237099528
 21
63.664563769400075
  0
LINE
  8
_1-8_小物
  6
CONTINUOUS
 62
    4
 10
-55.654066237099528
 20
63.664563769400075
 11
-55.814167676732382
 21
63.607770746533248
  0
LINE
  8
_1-8_小物
  6
CONTINUOUS
 62
    4
 10
-55.104999920532777
 20
63.753042376533386
 11
-55.220762814532776
 21
63.753042376533386
  0
LINE
  8
_1-8_小物
  6
CONTINUOUS
 62
    4
 10
-55.104999920532777
 20
63.607770746533248
 11
-55.104999920532777
 21
63.753042376533386
  0
LINE
  8
_1-8_小物
  6
CONTINUOUS
 62
    4
 10
-54.89499992053274
 20
63.607770746533248
 11
-54.999999920532872
 21
63.609472471333362
  0
LINE
  8
_1-8_小物
  6
CONTINUOUS
 62
    4
 10
-54.999999920532872
 20
63.609472471333362
 11
-55.104999920532777
 21
63.607770746533248
  0
LINE
  8
_1-8_小物
  6
CONTINUOUS
 62
    4
 10
-53.536304181799409
 20
63.081626271666693
 11
-56.463695659299418
 21
63.081626271666693
  0
LINE
  8
_1-8_小物
  6
CONTINUOUS
 62
    4
 10
-54.999999920532872
 20
63.315135148900055
 11
-56.335236965699522
 21
63.315135148900055
  0
LINE
  8
_1-8_小物
  6
CONTINUOUS
 62
    4
 10
-53.664762875399305
 20
63.315135148900055
 11
-54.999999920532872
 21
63.315135148900055
  0
ENDBLK
  0
BLOCK
  2
-010-_10_
 70
   64
 10
0
 20
0
 30
0
  0
LINE
  8
_1-5_ア__ム
  6
CONTINUOUS
 62
    4
 10
-148.32249381251341
 20
68.899999981366761
 11
-148.32249381251341
 21
65.233333426467027
  0
ARC
  8
_1-5_ア__ム
  6
CONTINUOUS
 62
    4
 10
-146.6558271458467
 20
65.233333426467027
 40
1.6666666666666665
 50
180
 51
270
  0
LINE
  8
_1-5_ア__ム
  6
CONTINUOUS
 62
    4
 10
-51.655827145846843
 20
68.900000000000148
 11
-51.655827145846843
 21
65.233333426467027
  0
ARC
  8
_1-5_ア__ム
  6
CONTINUOUS
 62
    4
 10
-53.322493812513471
 20
65.233333426467027
 40
1.6666666666666665
 50
270
 51
0
  0
LINE
  8
_1-5_ア__ム
  6
CONTINUOUS
 62
    4
 10
-148.32249381251341
 20
68.900000000000148
 11
-51.655827145846843
 21
68.900000000000148
  0
LINE
  8
_1-5_ア__ム
  6
DASHED1
 62
    4
 10
-148.32249381251341
 20
67.966666681300296
 11
-51.655827145846843
 21
67.966666681300296
  0
LINE
  8
_1-5_ア__ム
  6
CONTINUOUS
 62
    4
 10
-146.6558271458467
 20
63.566666759800285
 11
-53.322493812513471
 21
63.566666759800285
  0
LINE
  8
_1-5_ア__ム
  6
DASHED1
 62
    4
 10
-148.32249381251341
 20
67.233333347966948
 11
-51.655827145846843
 21
67.233333347966948
  0
LINE
  8
_1-5_ア__ム
  6
DASHED1
 62
    4
 10
-129.98916047918027
 20
67.966666681300239
 11
-129.98916047918027
 21
67.233333347966948
  0
LINE
  8
_1-5_ア__ム
  6
DASHED1
 62
    4
 10
-127.98916047917992
 20
67.966666681300239
 11
-127.98916047917992
 21
67.233333347966948
  0
LINE
  8
_1-5_ア__ム
  6
DASHED1
 62
    4
 10
-144.32249381251341
 20
67.966666681300239
 11
-144.32249381251341
 21
67.233333347966948
  0
LINE
  8
_1-5_ア__ム
  6
DASHED1
 62
    4
 10
-138.98916047917982
 20
67.966666681300239
 11
-138.98916047917982
 21
67.233333347967061
  0
ENDBLK
  0
BLOCK
  2
-011-_11_
 70
   64
 10
0
 20
0
 30
0
  0
LINE
  8
_1-6_ばね
  6
CENTER2
 62
    4
 10
-146.00582706638016
 20
61.614779322130545
 11
-146.00582706638016
 21
68.281445988797202
  0
LINE
  8
_1-6_ばね
  6
CENTER2
 62
    4
 10
-142.67249373304682
 20
64.950000007316874
 11
-149.33916039971348
 21
64.950000007316874
  0
CIRCLE
  8
_1-6_ばね
  6
CONTINUOUS
 62
    4
 10
-146.00582706638016
 20
64.950000007316874
 40
1.4166666739834075
  0
LINE
  8
_1-6_ばね
  6
CONTINUOUS
 62
    4
 10
-145.00409245452551
 20
63.948265395462215
 11
-140.62670608129744
 21
68.325651768690278
  0
ARC
  8
_1-6_ばね
  6
CONTINUOUS
 62
    4
 10
-139.40105432724076
 20
67.100000014633594
 40
1.7333333333333334
 50
90
 51
135
  0
LINE
  8
_1-6_ばね
  6
CONTINUOUS
 62
    4
 10
-144.39126657749716
 20
63.335439518433901
 11
-140.01388020426907
 21
67.712825891661964
  0
ARC
  8
_1-6_ばね
  6
CONTINUOUS
 62
    4
 10
-139.40105432724076
 20
67.100000014633622
 40
0.8666666666666667
 50
90
 51
134.99999999999736
  0
ARC
  8
_1-6_ばね
  6
CENTER2
 62
    4
 10
-139.40105432724067
 20
67.100000014633622
 40
1.2999999999999998
 50
90
 51
134.99999999999912
  0
LINE
  8
_1-6_ばね
  6
CONTINUOUS
 62
    4
 10
-129.35582706638019
 20
64.833333347966942
 11
-128.52249373304682
 21
64.833333347966942
  0
LINE
  8
_1-6_ばね
  6
CONTINUOUS
 62
    4
 10
-129.37249373304687
 20
64.833333347966942
 11
-129.37249373304687
 21
67.100000014633622
  0
LINE
  8
_1-6_ばね
  6
CENTER2
 62
    4
 10
-128.93916039971347
 20
64.833333347966942
 11
-128.93916039971347
 21
67.100000014633622
  0
LINE
  8
_1-6_ばね
  6
CONTINUOUS
 62
    4
 10
-128.50582706638016
 20
64.833333347966942
 11
-128.50582706638016
 21
67.100000014633594
  0
ARC
  8
_1-6_ばね
  6
CONTINUOUS
 62
    4
 10
-130.23916039971351
 20
67.100000014633594
 40
1.7333333333333334
 50
0
 51
90
  0
ARC
  8
_1-6_ばね
  6
CONTINUOUS
 62
    4
 10
-130.23916039971351
 20
67.100000014633622
 40
0.8666666666666667
 50
0
 51
90
  0
ARC
  8
_1-6_ばね
  6
CENTER2
 62
    4
 10
-130.23916039971351
 20
67.100000014633622
 40
1.2999999999999998
 50
0
 51
90
  0
LINE
  8
_1-6_ばね
  6
CONTINUOUS
 62
    4
 10
-139.40105432724076
 20
68.833333347966942
 11
-130.23916039971351
 21
68.833333347966942
  0
LINE
  8
_1-6_ばね
  6
CONTINUOUS
 62
    4
 10
-139.40105432724076
 20
67.966666681300296
 11
-130.23916039971351
 21
67.966666681300296
  0
LINE
  8
_1-6_ばね
  6
CENTER2
 62
    4
 10
-139.40105432724067
 20
68.400000014633633
 11
-130.23916039971351
 21
68.400000014633633
  0
LINE
  8
_1-6_ばね
  6
CENTER2
 62
    4
 10
-144.69767951601131
 20
63.641852456948016
 11
-140.32029314278321
 21
68.019238830176164
  0
ARC
  8
_1-6_ばね
  6
CONTINUOUS
 62
    4
 10
-146.00582706638016
 20
64.950000007316874
 40
2.2833333406500742
 50
6.6518764977933422
 51
315
  0
ARC
  8
_1-6_ばね
  6
CENTER2
 62
    4
 10
-146.00582706638016
 20
64.950000007316874
 40
1.8500000073167409
 50
355.02483380296769
 51
315.00000000000125
  0
LINE
  8
_1-6_ばね
  6
CONTINUOUS
 62
    4
 10
-132.23026632055993
 20
62.277434333610415
 11
-133.50412268659073
 21
64.608698616465205
  0
ARC
  8
_1-6_ばね
  6
CONTINUOUS
 62
    4
 10
-134.26465568357759
 20
64.193125913312997
 40
0.8666666666666667
 50
28.653206084986198
 51
83.653206084990231
  0
LINE
  8
_1-6_ばね
  6
CENTER2
 62
    4
 10
-131.84999982206645
 20
62.485220685186533
 11
-133.12385618809728
 21
64.816484968041351
  0
LINE
  8
_1-6_ばね
  6
CONTINUOUS
 62
    4
 10
-132.74358968960379
 20
65.024271319617412
 11
-131.469733323573
 21
62.693007036762651
  0
ARC
  8
_1-6_ばね
  6
CONTINUOUS
 62
    4
 10
-134.26465568357759
 20
64.19312591331294
 40
1.7333333333333334
 50
28.653206084990398
 51
83.653206084987531
  0
ARC
  8
_1-6_ばね
  6
CENTER2
 62
    4
 10
-134.26465568357759
 20
64.193125913312997
 40
1.2999999999999998
 50
28.653206084988451
 51
83.653206084989051
  0
ARC
  8
_1-6_ばね
  6
CONTINUOUS
 62
    4
 10
-131.84999982206645
 20
62.485220685186533
 40
0.4333333333333333
 50
208.65320608498783
 51
28.653206084987858
  0
LINE
  8
_1-6_ばね
  6
CONTINUOUS
 62
    4
 10
-141.03635658599688
 20
66.690349509934151
 11
-134.07304252997503
 21
65.915835652012731
  0
LINE
  8
_1-6_ばね
  6
CONTINUOUS
 62
    4
 10
-145.77756571104845
 20
67.217703603274288
 11
-142.13932736561728
 21
66.813030484370444
  0
LINE
  8
_1-6_ばね
  6
CENTER2
 62
    4
 10
-142.53169122133437
 20
66.42066662865335
 11
-144.46578927682719
 21
66.635792032233667
  0
LINE
  8
_1-6_ばね
  6
CENTER2
 62
    4
 10
-134.12094581837567
 20
65.485158217337812
 11
-141.42872044171395
 21
66.297985654217115
  0
LINE
  8
_1-6_ばね
  6
CONTINUOUS
 62
    4
 10
-134.16884910677638
 20
65.054480782662836
 11
-141.82108429743101
 21
65.905621798500022
  0
LINE
  8
_1-6_ばね
  6
CONTINUOUS
 62
    4
 10
-142.92405507705141
 20
66.028302772936314
 11
-144.06658466465962
 21
66.155383785162428
  0
ENDBLK
  0
BLOCK
  2
-012-_12_
 70
   64
 10
0
 20
0
 30
0
  0
LINE
  8
_0-0_図面枠
  6
CONTINUOUS
 62
    7
 10
-17.103643301208507
 20
124.788467342351
 11
-17.633973387058518
 21
124.48231430040101
  0
LINE
  8
_0-0_図面枠
  6
CONTINUOUS
 62
    7
 10
-16.197776643308515
 20
122.83680745630096
 11
-17.103643301208507
 21
124.788467342351
  0
LINE
  8
_0-0_図面枠
  6
CONTINUOUS
 62
    7
 10
-19.578517035358516
 20
123.35975314665097
 11
-16.197776643308515
 21
122.83680745630096
  0
LINE
  8
_0-0_図面枠
  6
CONTINUOUS
 62
    7
 10
-19.048186949458511
 20
123.66590618860101
 11
-19.578517035358516
 21
123.35975314665097
  0
LINE
  8
_0-0_図面枠
  6
CONTINUOUS
 62
    7
 10
-23.644381027158516
 20
126.31923255200098
 11
-19.048186949458511
 21
123.66590618860101
  0
LINE
  8
_0-0_図面枠
  6
CONTINUOUS
 62
    7
 10
-28.240575104858522
 20
123.66590618860101
 11
-23.644381027158516
 21
126.31923255200098
  0
LINE
  8
_0-0_図面枠
  6
CONTINUOUS
 62
    7
 10
-27.710245019008511
 20
123.35975314665097
 11
-28.240575104858522
 21
123.66590618860101
  0
LINE
  8
_0-0_図面枠
  6
CONTINUOUS
 62
    7
 10
-31.090985411008518
 20
122.83680745630096
 11
-27.710245019008511
 21
123.35975314665097
  0
LINE
  8
_0-0_図面枠
  6
CONTINUOUS
 62
    7
 10
-30.18511875315852
 20
124.788467342351
 11
-31.090985411008518
 21
122.83680745630096
  0
LINE
  8
_0-0_図面枠
  6
CONTINUOUS
 62
    7
 10
-29.654788667258515
 20
124.48231430040101
 11
-30.18511875315852
 21
124.788467342351
  0
LINE
  8
_0-0_図面枠
  6
CONTINUOUS
 62
    7
 10
-25.05859458955851
 20
127.13564066385101
 11
-29.654788667258515
 21
124.48231430040101
  0
LINE
  8
_0-0_図面枠
  6
CONTINUOUS
 62
    7
 10
-29.654788667258515
 20
129.78896702725098
 11
-25.05859458955851
 21
127.13564066385101
  0
LINE
  8
_0-0_図面枠
  6
CONTINUOUS
 62
    7
 10
-30.18511875315852
 20
129.48281398535102
 11
-29.654788667258515
 21
129.78896702725098
  0
LINE
  8
_0-0_図面枠
  6
CONTINUOUS
 62
    7
 10
-31.090985411008518
 20
131.434473871401
 11
-30.18511875315852
 21
129.48281398535102
  0
LINE
  8
_0-0_図面枠
  6
CONTINUOUS
 62
    7
 10
-27.710245019008511
 20
130.91152818105098
 11
-31.090985411008518
 21
131.434473871401
  0
LINE
  8
_0-0_図面枠
  6
CONTINUOUS
 62
    7
 10
-28.240575104858522
 20
130.605375139101
 11
-27.710245019008511
 21
130.91152818105098
  0
LINE
  8
_0-0_図面枠
  6
CONTINUOUS
 62
    7
 10
-23.644381027158516
 20
127.95204877565101
 11
-28.240575104858522
 21
130.605375139101
  0
LINE
  8
_0-0_図面枠
  6
CONTINUOUS
 62
    7
 10
-19.048186949458511
 20
130.605375139101
 11
-23.644381027158516
 21
127.95204877565101
  0
LINE
  8
_0-0_図面枠
  6
CONTINUOUS
 62
    7
 10
-19.578517035358516
 20
130.91152818105098
 11
-19.048186949458511
 21
130.605375139101
  0
LINE
  8
_0-0_図面枠
  6
CONTINUOUS
 62
    7
 10
-16.197776643308515
 20
131.434473871401
 11
-19.578517035358516
 21
130.91152818105098
  0
LINE
  8
_0-0_図面枠
  6
CONTINUOUS
 62
    7
 10
-17.103643301208507
 20
129.48281398535102
 11
-16.197776643308515
 21
131.434473871401
  0
LINE
  8
_0-0_図面枠
  6
CONTINUOUS
 62
    7
 10
-17.633973387058518
 20
129.78896702725098
 11
-17.103643301208507
 21
129.48281398535102
  0
LINE
  8
_0-0_図面枠
  6
CONTINUOUS
 62
    7
 10
-22.230167464808517
 20
127.13564066385101
 11
-17.633973387058518
 21
129.78896702725098
  0
LINE
  8
_0-0_図面枠
  6
CONTINUOUS
 62
    7
 10
-17.633973387058518
 20
124.48231430040101
 11
-22.230167464808517
 21
127.13564066385101
  0
LINE
  8
_0-0_図面枠
  6
CONTINUOUS
 62
    7
 10
-31.090985411008518
 20
122.83680745630096
 11
-31.090985411008518
 21
122.224401847401
  0
LINE
  8
_0-0_図面枠
  6
CONTINUOUS
 62
    7
 10
-27.710245019008511
 20
123.35975314665097
 11
-27.710245019008511
 21
122.74734753775101
  0
LINE
  8
_0-0_図面枠
  6
CONTINUOUS
 62
    7
 10
-31.090985411008518
 20
122.224401847401
 11
-27.710245019008511
 21
122.74734753775101
  0
LINE
  8
_0-0_図面枠
  6
CONTINUOUS
 62
    7
 10
-19.578517035358516
 20
123.35975314665097
 11
-19.578517035358516
 21
122.74734753775101
  0
LINE
  8
_0-0_図面枠
  6
CONTINUOUS
 62
    7
 10
-16.197776643308515
 20
122.83680745630096
 11
-16.197776643308515
 21
122.224401847401
  0
LINE
  8
_0-0_図面枠
  6
CONTINUOUS
 62
    7
 10
-19.578517035358516
 20
122.74734753775101
 11
-16.197776643308515
 21
122.224401847401
  0
LINE
  8
_0-0_図面枠
  6
CONTINUOUS
 62
    7
 10
-23.644381027158516
 20
126.31923255200098
 11
-23.644381027158516
 21
125.70682694310102
  0
LINE
  8
_0-0_図面枠
  6
CONTINUOUS
 62
    7
 10
-27.710245019008511
 20
123.35965362160101
 11
-23.644381027158516
 21
125.70682694310102
  0
LINE
  8
_0-0_図面枠
  6
CONTINUOUS
 62
    7
 10
-23.644381027158516
 20
125.70682694310102
 11
-19.578517035358516
 21
123.35965362160101
  0
LINE
  8
_0-0_図面枠
  6
CONTINUOUS
 62
    7
 10
-29.654788667258515
 20
129.78896702725098
 11
-29.654788667258515
 21
129.17656141835101
  0
LINE
  8
_0-0_図面枠
  6
CONTINUOUS
 62
    7
 10
-29.654788667258515
 20
129.17656141835101
 11
-25.58901087600853
 21
126.82943785940103
  0
LINE
  8
_0-0_図面枠
  6
CONTINUOUS
 62
    7
 10
-17.633973387058518
 20
129.78896702725098
 11
-17.633973387058518
 21
129.17656141835101
  0
LINE
  8
_0-0_図面枠
  6
CONTINUOUS
 62
    7
 10
-21.699751178358525
 20
126.82943785940103
 11
-17.633973387058518
 21
129.17656141835101
  0
LINE
  8
_0-0_図面枠
  6
CONTINUOUS
 62
    7
 10
-17.103643301208507
 20
129.48281398535102
 11
-17.103643301208507
 21
128.87040837640097
  0
LINE
  8
_0-0_図面枠
  6
CONTINUOUS
 62
    7
 10
-17.633973387058518
 20
129.17656141835101
 11
-17.103643301208507
 21
128.87040837640097
  0
LINE
  8
_0-0_図面枠
  6
CONTINUOUS
 62
    7
 10
-16.197776643308515
 20
131.434473871401
 11
-16.197776643308515
 21
130.82206826250098
  0
LINE
  8
_0-0_図面枠
  6
CONTINUOUS
 62
    7
 10
-17.103643301208507
 20
128.87040837640097
 11
-16.197776643308515
 21
130.82206826250098
  0
LINE
  8
_0-0_図面枠
  6
CONTINUOUS
 62
    7
 10
-30.18511875315852
 20
129.48281398535102
 11
-30.18511875315852
 21
128.87040837640097
  0
LINE
  8
_0-0_図面枠
  6
CONTINUOUS
 62
    7
 10
-30.18511875315852
 20
128.87040837640097
 11
-29.654788667258515
 21
129.17656141835101
  0
LINE
  8
_0-0_図面枠
  6
CONTINUOUS
 62
    7
 10
-31.090985411008518
 20
131.434473871401
 11
-31.090985411008518
 21
130.82206826250098
  0
LINE
  8
_0-0_図面枠
  6
CONTINUOUS
 62
    7
 10
-31.090985411008518
 20
130.82206826250098
 11
-30.18511875315852
 21
128.87040837640097
  0
LINE
  8
_0-0_図面枠
  6
CONTINUOUS
 62
    7
 10
-19.578517035358516
 20
130.91152818105098
 11
-19.578517035358516
 21
130.29922209715102
  0
LINE
  8
_0-0_図面枠
  6
CONTINUOUS
 62
    7
 10
-27.710245019008511
 20
130.91152818105098
 11
-27.710245019008511
 21
130.29922209715102
  0
LINE
  8
ADD_LINE
  6
DOT
 62
    4
 10
-31.090985411008518
 20
131.434473871401
 11
-16.19818007086306
 21
122.83610869927929
  0
LINE
  8
ADD_LINE
  6
DOT
 62
    4
 10
-16.197776643308515
 20
131.434473871401
 11
-31.090581983453973
 21
122.83610869927929
  0
ENDBLK
  0
BLOCK
  2
-013-_13_
 70
   64
 10
0
 20
0
 30
0
  0
LINE
  8
_0-0_図面枠
  6
CONTINUOUS
 62
    7
 10
181.88186991188218
 20
125.54988384232564
 11
181.35153982603219
 21
125.24373080037566
  0
LINE
  8
_0-0_図面枠
  6
CONTINUOUS
 62
    7
 10
182.78773656978217
 20
123.5982239562756
 11
181.88186991188218
 21
125.54988384232564
  0
LINE
  8
_0-0_図面枠
  6
CONTINUOUS
 62
    7
 10
179.40699617773214
 20
124.12116964662562
 11
182.78773656978217
 21
123.5982239562756
  0
LINE
  8
_0-0_図面枠
  6
CONTINUOUS
 62
    7
 10
179.93732626363214
 20
124.42732268857566
 11
179.40699617773214
 21
124.12116964662562
  0
LINE
  8
_0-0_図面枠
  6
CONTINUOUS
 62
    7
 10
175.34113218593217
 20
127.08064905197563
 11
179.93732626363214
 21
124.42732268857566
  0
LINE
  8
_0-0_図面枠
  6
CONTINUOUS
 62
    7
 10
170.74493810823219
 20
124.42732268857566
 11
175.34113218593217
 21
127.08064905197563
  0
LINE
  8
_0-0_図面枠
  6
CONTINUOUS
 62
    7
 10
171.27526819408217
 20
124.12116964662562
 11
170.74493810823219
 21
124.42732268857566
  0
LINE
  8
_0-0_図面枠
  6
CONTINUOUS
 62
    7
 10
167.89452780208217
 20
123.5982239562756
 11
171.27526819408217
 21
124.12116964662562
  0
LINE
  8
_0-0_図面枠
  6
CONTINUOUS
 62
    7
 10
168.80039445993214
 20
125.54988384232564
 11
167.89452780208217
 21
123.5982239562756
  0
LINE
  8
_0-0_図面枠
  6
CONTINUOUS
 62
    7
 10
169.33072454583214
 20
125.24373080037566
 11
168.80039445993214
 21
125.54988384232564
  0
LINE
  8
_0-0_図面枠
  6
CONTINUOUS
 62
    7
 10
173.92691862353217
 20
127.89705716382565
 11
169.33072454583214
 21
125.24373080037566
  0
LINE
  8
_0-0_図面枠
  6
CONTINUOUS
 62
    7
 10
169.33072454583214
 20
130.55038352722562
 11
173.92691862353217
 21
127.89705716382565
  0
LINE
  8
_0-0_図面枠
  6
CONTINUOUS
 62
    7
 10
168.80039445993214
 20
130.24423048532566
 11
169.33072454583214
 21
130.55038352722562
  0
LINE
  8
_0-0_図面枠
  6
CONTINUOUS
 62
    7
 10
167.89452780208217
 20
132.19589037137564
 11
168.80039445993214
 21
130.24423048532566
  0
LINE
  8
_0-0_図面枠
  6
CONTINUOUS
 62
    7
 10
171.27526819408217
 20
131.67294468102563
 11
167.89452780208217
 21
132.19589037137564
  0
LINE
  8
_0-0_図面枠
  6
CONTINUOUS
 62
    7
 10
170.74493810823219
 20
131.36679163907564
 11
171.27526819408217
 21
131.67294468102563
  0
LINE
  8
_0-0_図面枠
  6
CONTINUOUS
 62
    7
 10
175.34113218593217
 20
128.71346527562565
 11
170.74493810823219
 21
131.36679163907564
  0
LINE
  8
_0-0_図面枠
  6
CONTINUOUS
 62
    7
 10
179.93732626363214
 20
131.36679163907564
 11
175.34113218593217
 21
128.71346527562565
  0
LINE
  8
_0-0_図面枠
  6
CONTINUOUS
 62
    7
 10
179.40699617773214
 20
131.67294468102563
 11
179.93732626363214
 21
131.36679163907564
  0
LINE
  8
_0-0_図面枠
  6
CONTINUOUS
 62
    7
 10
182.78773656978217
 20
132.19589037137564
 11
179.40699617773214
 21
131.67294468102563
  0
LINE
  8
_0-0_図面枠
  6
CONTINUOUS
 62
    7
 10
181.88186991188218
 20
130.24423048532566
 11
182.78773656978217
 21
132.19589037137564
  0
LINE
  8
_0-0_図面枠
  6
CONTINUOUS
 62
    7
 10
181.35153982603219
 20
130.55038352722562
 11
181.88186991188218
 21
130.24423048532566
  0
LINE
  8
_0-0_図面枠
  6
CONTINUOUS
 62
    7
 10
176.75534574828214
 20
127.89705716382565
 11
181.35153982603219
 21
130.55038352722562
  0
LINE
  8
_0-0_図面枠
  6
CONTINUOUS
 62
    7
 10
181.35153982603219
 20
125.24373080037566
 11
176.75534574828214
 21
127.89705716382565
  0
LINE
  8
_0-0_図面枠
  6
CONTINUOUS
 62
    7
 10
167.89452780208217
 20
123.5982239562756
 11
167.89452780208217
 21
122.98581834737564
  0
LINE
  8
_0-0_図面枠
  6
CONTINUOUS
 62
    7
 10
171.27526819408217
 20
124.12116964662562
 11
171.27526819408217
 21
123.50876403772565
  0
LINE
  8
_0-0_図面枠
  6
CONTINUOUS
 62
    7
 10
167.89452780208217
 20
122.98581834737564
 11
171.27526819408217
 21
123.50876403772565
  0
LINE
  8
_0-0_図面枠
  6
CONTINUOUS
 62
    7
 10
179.40699617773214
 20
124.12116964662562
 11
179.40699617773214
 21
123.50876403772565
  0
LINE
  8
_0-0_図面枠
  6
CONTINUOUS
 62
    7
 10
182.78773656978217
 20
123.5982239562756
 11
182.78773656978217
 21
122.98581834737564
  0
LINE
  8
_0-0_図面枠
  6
CONTINUOUS
 62
    7
 10
179.40699617773214
 20
123.50876403772565
 11
182.78773656978217
 21
122.98581834737564
  0
LINE
  8
_0-0_図面枠
  6
CONTINUOUS
 62
    7
 10
175.34113218593217
 20
127.08064905197563
 11
175.34113218593217
 21
126.46824344307566
  0
LINE
  8
_0-0_図面枠
  6
CONTINUOUS
 62
    7
 10
171.27526819408217
 20
124.12107012157566
 11
175.34113218593217
 21
126.46824344307566
  0
LINE
  8
_0-0_図面枠
  6
CONTINUOUS
 62
    7
 10
175.34113218593217
 20
126.46824344307566
 11
179.40699617773214
 21
124.12107012157566
  0
LINE
  8
_0-0_図面枠
  6
CONTINUOUS
 62
    7
 10
169.33072454583214
 20
130.55038352722562
 11
169.33072454583214
 21
129.93797791832566
  0
LINE
  8
_0-0_図面枠
  6
CONTINUOUS
 62
    7
 10
169.33072454583214
 20
129.93797791832566
 11
173.39650233708215
 21
127.59085435937567
  0
LINE
  8
_0-0_図面枠
  6
CONTINUOUS
 62
    7
 10
181.35153982603219
 20
130.55038352722562
 11
181.35153982603219
 21
129.93797791832566
  0
LINE
  8
_0-0_図面枠
  6
CONTINUOUS
 62
    7
 10
177.28576203473216
 20
127.59085435937567
 11
181.35153982603219
 21
129.93797791832566
  0
LINE
  8
_0-0_図面枠
  6
CONTINUOUS
 62
    7
 10
181.88186991188218
 20
130.24423048532566
 11
181.88186991188218
 21
129.63182487637562
  0
LINE
  8
_0-0_図面枠
  6
CONTINUOUS
 62
    7
 10
181.35153982603219
 20
129.93797791832566
 11
181.88186991188218
 21
129.63182487637562
  0
LINE
  8
_0-0_図面枠
  6
CONTINUOUS
 62
    7
 10
182.78773656978217
 20
132.19589037137564
 11
182.78773656978217
 21
131.58348476247562
  0
LINE
  8
_0-0_図面枠
  6
CONTINUOUS
 62
    7
 10
181.88186991188218
 20
129.63182487637562
 11
182.78773656978217
 21
131.58348476247562
  0
LINE
  8
_0-0_図面枠
  6
CONTINUOUS
 62
    7
 10
168.80039445993214
 20
130.24423048532566
 11
168.80039445993214
 21
129.63182487637562
  0
LINE
  8
_0-0_図面枠
  6
CONTINUOUS
 62
    7
 10
168.80039445993214
 20
129.63182487637562
 11
169.33072454583214
 21
129.93797791832566
  0
LINE
  8
_0-0_図面枠
  6
CONTINUOUS
 62
    7
 10
167.89452780208217
 20
132.19589037137564
 11
167.89452780208217
 21
131.58348476247562
  0
LINE
  8
_0-0_図面枠
  6
CONTINUOUS
 62
    7
 10
167.89452780208217
 20
131.58348476247562
 11
168.80039445993214
 21
129.63182487637562
  0
LINE
  8
_0-0_図面枠
  6
CONTINUOUS
 62
    7
 10
179.40699617773214
 20
131.67294468102563
 11
179.40699617773214
 21
131.06063859712566
  0
LINE
  8
_0-0_図面枠
  6
CONTINUOUS
 62
    7
 10
171.27526819408217
 20
131.67294468102563
 11
171.27526819408217
 21
131.06063859712566
  0
LINE
  8
ADD_LINE
  6
DOT
 62
    4
 10
167.89452780208217
 20
132.19589037137564
 11
182.78733314222762
 21
123.59752519925394
  0
LINE
  8
ADD_LINE
  6
DOT
 62
    4
 10
182.78773656978217
 20
132.19589037137564
 11
167.89493122963671
 21
123.59752519925394
  0
ENDBLK
  0
BLOCK
  2
-014-_14_
 70
   64
 10
0
 20
0
 30
0
  0
LINE
  8
_1-8_小物
  6
CONTINUOUS
 62
    4
 10
126.47139500342269
 20
50.073391666666566
 11
126.50628500342231
 21
49.407638333333267
  0
LINE
  8
_1-8_小物
  6
CONTINUOUS
 62
    4
 10
126.41905833675577
 20
51.072021666666529
 11
125.77075167008911
 21
50.704254999999876
  0
LINE
  8
_1-8_小物
  6
CONTINUOUS
 62
    4
 10
125.77075167008911
 20
50.704254999999876
 11
125.80564167008936
 21
50.038501666666576
  0
LINE
  8
_1-8_小物
  6
CONTINUOUS
 62
    4
 10
125.80564167008936
 20
50.038501666666576
 11
126.47139500342269
 21
50.073391666666566
  0
LINE
  8
_1-8_小物
  6
CONTINUOUS
 62
    4
 10
126.38416833675586
 20
51.737774999999971
 11
126.41905833675577
 21
51.072021666666529
  0
LINE
  8
_1-8_小物
  6
CONTINUOUS
 62
    4
 10
126.33183167008923
 20
52.736403333333328
 11
125.68352500342229
 21
52.368636666666362
  0
LINE
  8
_1-8_小物
  6
CONTINUOUS
 62
    4
 10
125.68352500342229
 20
52.368636666666362
 11
125.71841500342248
 21
51.70288333333329
  0
LINE
  8
_1-8_小物
  6
CONTINUOUS
 62
    4
 10
125.71841500342248
 20
51.70288333333329
 11
126.38416833675586
 21
51.737774999999971
  0
LINE
  8
_1-8_小物
  6
CONTINUOUS
 62
    4
 10
126.29694167008904
 20
53.402156666666684
 11
126.33183167008923
 21
52.736403333333328
  0
LINE
  8
_1-8_小物
  6
CONTINUOUS
 62
    4
 10
126.24460500342269
 20
54.400786666666363
 11
125.59629833675604
 21
54.033019999999993
  0
LINE
  8
_1-8_小物
  6
CONTINUOUS
 62
    4
 10
125.59629833675604
 20
54.033019999999993
 11
125.63118833675566
 21
53.367266666666637
  0
LINE
  8
_1-8_小物
  6
CONTINUOUS
 62
    4
 10
125.63118833675566
 20
53.367266666666637
 11
126.29694167008904
 21
53.402156666666684
  0
LINE
  8
_1-8_小物
  6
CONTINUOUS
 62
    4
 10
126.2097150034225
 20
55.066539999999947
 11
126.24460500342269
 21
54.400786666666363
  0
LINE
  8
_1-8_小物
  6
CONTINUOUS
 62
    4
 10
126.15737833675587
 20
56.065169999999995
 11
125.50907167008921
 21
55.697401666666565
  0
LINE
  8
_1-8_小物
  6
CONTINUOUS
 62
    4
 10
125.50907167008921
 20
55.697401666666565
 11
125.54396167008912
 21
55.031648333333266
  0
LINE
  8
_1-8_小物
  6
CONTINUOUS
 62
    4
 10
125.54396167008912
 20
55.031648333333266
 11
126.2097150034225
 21
55.066539999999947
  0
LINE
  8
_1-8_小物
  6
CONTINUOUS
 62
    4
 10
126.12248833675596
 20
56.730921666666518
 11
126.15737833675587
 21
56.065169999999995
  0
LINE
  8
_1-8_小物
  6
CONTINUOUS
 62
    4
 10
125.42184500342239
 20
57.361784999999827
 11
125.45673500342258
 21
56.696031666666528
  0
LINE
  8
_1-8_小物
  6
CONTINUOUS
 62
    4
 10
125.45673500342258
 20
56.696031666666528
 11
126.12248833675596
 21
56.730921666666518
  0
LINE
  8
_1-8_小物
  6
CONTINUOUS
 62
    4
 10
126.00197000342246
 20
57.666666666666657
 11
125.42184500342239
 21
57.361784999999827
  0
LINE
  8
_1-8_小物
  6
CONTINUOUS
 62
    4
 10
122.86587833675588
 20
50.073391666666566
 11
122.83098833675598
 21
49.407638333333267
  0
LINE
  8
_1-8_小物
  6
CONTINUOUS
 62
    4
 10
122.91821500342252
 20
51.072021666666529
 11
123.56652167008917
 21
50.704254999999876
  0
LINE
  8
_1-8_小物
  6
CONTINUOUS
 62
    4
 10
123.56652167008917
 20
50.704254999999876
 11
123.53163167008893
 21
50.038501666666576
  0
LINE
  8
_1-8_小物
  6
CONTINUOUS
 62
    4
 10
123.53163167008893
 20
50.038501666666576
 11
122.86587833675588
 21
50.073391666666566
  0
LINE
  8
_1-8_小物
  6
CONTINUOUS
 62
    4
 10
122.95310500342271
 20
51.737774999999971
 11
122.91821500342252
 21
51.072021666666529
  0
LINE
  8
_1-8_小物
  6
CONTINUOUS
 62
    4
 10
123.00544167008906
 20
52.736403333333328
 11
123.65374833675571
 21
52.368636666666362
  0
LINE
  8
_1-8_小物
  6
CONTINUOUS
 62
    4
 10
123.65374833675571
 20
52.368636666666362
 11
123.61885833675609
 21
51.70288333333329
  0
LINE
  8
_1-8_小物
  6
CONTINUOUS
 62
    4
 10
123.61885833675609
 20
51.70288333333329
 11
122.95310500342271
 21
51.737774999999971
  0
LINE
  8
_1-8_小物
  6
CONTINUOUS
 62
    4
 10
123.04033167008896
 20
53.402156666666684
 11
123.00544167008906
 21
52.736403333333328
  0
LINE
  8
_1-8_小物
  6
CONTINUOUS
 62
    4
 10
123.09266833675559
 20
54.400786666666363
 11
123.74097500342253
 21
54.033019999999993
  0
LINE
  8
_1-8_小物
  6
CONTINUOUS
 62
    4
 10
123.74097500342253
 20
54.033019999999993
 11
123.70608500342263
 21
53.367266666666637
  0
LINE
  8
_1-8_小物
  6
CONTINUOUS
 62
    4
 10
123.70608500342263
 20
53.367266666666637
 11
123.04033167008896
 21
53.402156666666684
  0
LINE
  8
_1-8_小物
  6
CONTINUOUS
 62
    4
 10
123.12755833675578
 20
55.066539999999947
 11
123.09266833675559
 21
54.400786666666363
  0
LINE
  8
_1-8_小物
  6
CONTINUOUS
 62
    4
 10
123.17989500342276
 20
56.065169999999995
 11
123.82820167008936
 21
55.697401666666565
  0
LINE
  8
_1-8_小物
  6
CONTINUOUS
 62
    4
 10
123.82820167008936
 20
55.697401666666565
 11
123.79331167008917
 21
55.031648333333266
  0
LINE
  8
_1-8_小物
  6
CONTINUOUS
 62
    4
 10
123.79331167008917
 20
55.031648333333266
 11
123.12755833675578
 21
55.066539999999947
  0
LINE
  8
_1-8_小物
  6
CONTINUOUS
 62
    4
 10
123.21478500342232
 20
56.730921666666518
 11
123.17989500342276
 21
56.065169999999995
  0
LINE
  8
_1-8_小物
  6
CONTINUOUS
 62
    4
 10
123.91542833675589
 20
57.361784999999827
 11
123.88053833675571
 21
56.696031666666528
  0
LINE
  8
_1-8_小物
  6
CONTINUOUS
 62
    4
 10
123.88053833675571
 20
56.696031666666528
 11
123.21478500342232
 21
56.730921666666518
  0
LINE
  8
_1-8_小物
  6
CONTINUOUS
 62
    4
 10
124.64886833675587
 20
49.686434999999847
 11
125.29343500342242
 21
50.258324999999928
  0
LINE
  8
_1-8_小物
  6
CONTINUOUS
 62
    4
 10
124.04548833675574
 20
50.289813333333313
 11
124.66863667008943
 21
49.666666666666515
  0
LINE
  8
_1-8_小物
  6
CONTINUOUS
 62
    4
 10
123.33530333675611
 20
57.666666666666657
 11
123.91542833675589
 21
57.361784999999827
  0
LINE
  8
_1-8_小物
  6
CONTINUOUS
 62
    4
 10
126.2097150034225
 20
55.066539999999947
 11
126.77483667008903
 21
56.619199999999779
  0
LINE
  8
_1-8_小物
  6
CONTINUOUS
 62
    4
 10
125.85498833675604
 20
55.066539999999947
 11
126.46160667008928
 21
56.733206666666547
  0
LINE
  8
_1-8_小物
  6
CONTINUOUS
 62
    4
 10
123.12755833675578
 20
55.066539999999947
 11
122.56243667008926
 21
56.619199999999779
  0
LINE
  8
_1-8_小物
  6
CONTINUOUS
 62
    4
 10
123.48228500342225
 20
55.066539999999947
 11
122.875666670089
 21
56.733206666666547
  0
LINE
  8
_1-8_小物
  6
CONTINUOUS
 62
    4
 10
125.34121833675584
 20
49.346579999999818
 11
126.50628500342231
 21
49.407638333333267
  0
LINE
  8
_1-8_小物
  6
CONTINUOUS
 62
    4
 10
126.50628500342231
 20
49.407638333333267
 11
125.87542333675577
 21
48.706995000000006
  0
LINE
  8
_1-8_小物
  6
CONTINUOUS
 62
    4
 10
125.87542333675577
 20
48.706995000000006
 11
125.37610833675603
 21
48.680826666666462
  0
LINE
  8
_1-8_小物
  6
CONTINUOUS
 62
    4
 10
125.37610833675603
 20
48.680826666666462
 11
124.83530333675611
 21
58.999999999999773
  0
LINE
  8
_1-8_小物
  6
CONTINUOUS
 62
    4
 10
126.00197000342246
 20
57.666666666666657
 11
126.00197000342246
 21
58.999999999999773
  0
LINE
  8
_1-8_小物
  6
CONTINUOUS
 62
    4
 10
123.99605500342244
 20
49.346579999999818
 11
122.83098833675598
 21
49.407638333333267
  0
LINE
  8
_1-8_小物
  6
CONTINUOUS
 62
    4
 10
122.83098833675598
 20
49.407638333333267
 11
123.46185000342251
 21
48.706995000000006
  0
LINE
  8
_1-8_小物
  6
CONTINUOUS
 62
    4
 10
123.46185000342251
 20
48.706995000000006
 11
123.96116500342254
 21
48.680826666666462
  0
LINE
  8
_1-8_小物
  6
CONTINUOUS
 62
    4
 10
123.96116500342254
 20
48.680826666666462
 11
124.50197000342246
 21
58.999999999999773
  0
LINE
  8
_1-8_小物
  6
CONTINUOUS
 62
    4
 10
123.33530333675611
 20
57.666666666666657
 11
123.33530333675611
 21
58.999999999999773
  0
LINE
  8
_1-8_小物
  6
CONTINUOUS
 62
    4
 10
122.56243667008926
 20
56.619199999999779
 11
122.23165167008915
 21
58.887073333333461
  0
ARC
  8
_1-8_小物
  6
CONTINUOUS
 62
    4
 10
122.36358833675581
 20
58.906318333333274
 40
0.1333333333333333
 50
98.130101999941715
 51
188.29846600001281
  0
LINE
  8
_1-8_小物
  6
CONTINUOUS
 62
    4
 10
122.34473167008895
 20
59.038311666666601
 11
122.41034000342256
 21
59.047683333333367
  0
ARC
  8
_1-8_小物
  6
CONTINUOUS
 62
    4
 10
122.42919667008948
 20
58.915689999999955
 40
0.1333333333333333
 50
8.1301020000280779
 51
98.130102000238807
  0
LINE
  8
_1-8_小物
  6
CONTINUOUS
 62
    4
 10
122.56119000342255
 20
58.934546666666535
 11
122.875666670089
 21
56.733206666666547
  0
LINE
  8
_1-8_小物
  6
CONTINUOUS
 62
    4
 10
126.77483667008903
 20
56.619199999999779
 11
127.10562167008914
 21
58.887073333333461
  0
ARC
  8
_1-8_小物
  6
CONTINUOUS
 62
    4
 10
126.97368500342247
 20
58.906318333333274
 40
0.1333333333333333
 50
351.70153399996303
 51
81.869898000058242
  0
LINE
  8
_1-8_小物
  6
CONTINUOUS
 62
    4
 10
126.99254000342239
 20
59.038311666666601
 11
126.92693333675572
 21
59.047683333333367
  0
ARC
  8
_1-8_小物
  6
CONTINUOUS
 62
    4
 10
126.90807667008943
 20
58.915689999999955
 40
0.1333333333333333
 50
81.869898000034112
 51
171.86989799997193
  0
LINE
  8
_1-8_小物
  6
CONTINUOUS
 62
    4
 10
126.77608333675573
 20
58.934546666666535
 11
126.46160667008928
 21
56.733206666666547
  0
LINE
  8
_1-8_小物
  6
CONTINUOUS
 62
    4
 10
126.77483667008903
 20
56.619199999999779
 11
127.10562167008914
 21
58.887073333333461
  0
ARC
  8
_1-8_小物
  6
CONTINUOUS
 62
    4
 10
126.97368500342247
 20
58.906318333333274
 40
0.1333333333333333
 50
351.70153399996303
 51
81.869898000058242
  0
LINE
  8
_1-8_小物
  6
CONTINUOUS
 62
    4
 10
126.99254000342239
 20
59.038311666666601
 11
126.92693333675572
 21
59.047683333333367
  0
ARC
  8
_1-8_小物
  6
CONTINUOUS
 62
    4
 10
126.90807667008943
 20
58.915689999999955
 40
0.1333333333333333
 50
81.869898000034112
 51
171.86989799997193
  0
LINE
  8
_1-8_小物
  6
CONTINUOUS
 62
    4
 10
126.77608333675573
 20
58.934546666666535
 11
126.46160667008928
 21
56.733206666666547
  0
LINE
  8
_1-8_小物
  6
CONTINUOUS
 62
    4
 10
126.33530333675611
 20
61.666666666666657
 11
126.00197000342246
 21
60
  0
LINE
  8
_1-8_小物
  6
CONTINUOUS
 62
    4
 10
126.00197000342246
 20
61.666666666666657
 11
126.00197000342246
 21
58.999999999999773
  0
LINE
  8
_1-8_小物
  6
CONTINUOUS
 62
    4
 10
124.83530333675611
 20
58.999999999999773
 11
124.66863667008943
 21
58.999999999999773
  0
LINE
  8
_1-8_小物
  6
CONTINUOUS
 62
    4
 10
124.66863667008943
 20
60
 11
124.66863667008943
 21
61.666666666666657
  0
LINE
  8
_1-8_小物
  6
CONTINUOUS
 62
    4
 10
125.00197000342246
 20
61.666666666666657
 11
124.66863667008943
 21
60
  0
LINE
  8
_1-8_小物
  6
CONTINUOUS
 62
    4
 10
124.33530333675583
 20
61.666666666666657
 11
124.66863667008943
 21
60
  0
LINE
  8
_1-8_小物
  6
CONTINUOUS
 62
    4
 10
123.0019700034228
 20
61.666666666666657
 11
123.33530333675611
 21
60
  0
LINE
  8
_1-8_小物
  6
CONTINUOUS
 62
    4
 10
123.33530333675611
 20
61.666666666666657
 11
123.33530333675611
 21
58.999999999999773
  0
LINE
  8
_1-8_小物
  6
CONTINUOUS
 62
    4
 10
124.50197000342246
 20
58.999999999999773
 11
124.66863667008943
 21
58.999999999999773
  0
LINE
  8
_1-8_小物
  6
CONTINUOUS
 62
    4
 10
126.33530333675611
 20
61.666666666666657
 11
123.0019700034228
 21
61.666666666666657
  0
ENDBLK
  0
BLOCK
  2
-015-_15_
 70
   64
 10
0
 20
0
 30
0
  0
ARC
  8
_1-4_フレ__ム
  6
CONTINUOUS
 62
    4
 10
94.835303416222132
 20
61.666666666666799
 40
0.5
 50
90
 51
180
  0
LINE
  8
_1-4_フレ__ム
  6
CONTINUOUS
 62
    4
 10
124.6686367495555
 20
62.066666666666748
 11
124.56863674955571
 21
62.166666666666799
  0
LINE
  8
_1-4_フレ__ム
  6
CONTINUOUS
 62
    4
 10
124.76863674955615
 20
62.166666666666799
 11
124.6686367495555
 21
62.066666666666748
  0
LINE
  8
_1-4_フレ__ム
  6
CONTINUOUS
 62
    4
 10
94.335303416222416
 20
61.666666666666799
 11
129.6686367495555
 21
61.666666666666799
  0
LINE
  8
_1-4_フレ__ム
  6
CONTINUOUS
 62
    4
 10
129.66863667008869
 20
61.666666685666826
 11
130.66863665108872
 21
62.666666666666771
  0
LINE
  8
_1-4_フレ__ム
  6
CONTINUOUS
 62
    4
 10
130.66863665108872
 20
62.666666666666771
 11
129.96152986990217
 21
62.666666666666771
  0
LINE
  8
_1-4_フレ__ム
  6
CONTINUOUS
 62
    4
 10
129.46152986990217
 20
62.166666666666799
 11
129.96152986990217
 21
62.666666666666771
  0
LINE
  8
_1-4_フレ__ム
  6
CONTINUOUS
 62
    4
 10
129.46152986990217
 20
62.166666666666799
 11
124.76863674955615
 21
62.166666666666799
  0
LINE
  8
_1-4_フレ__ム
  6
CONTINUOUS
 62
    4
 10
116.43054151146015
 20
63.400000000000091
 11
116.43054151146015
 21
63.566666666666748
  0
ARC
  8
_1-4_フレ__ム
  6
CONTINUOUS
 62
    4
 10
116.09720817812683
 20
63.400000000000091
 40
0.3333333333333333
 50
270
 51
0
  0
LINE
  8
_1-4_フレ__ム
  6
CONTINUOUS
 62
    4
 10
116.09720817812683
 20
63.066666666666748
 11
115.26670397438852
 21
63.066666666666748
  0
ARC
  8
_1-4_フレ__ム
  6
CONTINUOUS
 62
    4
 10
115.26670397438852
 20
62.900000000000091
 40
0.1666666666666666
 50
90
 51
150.94539590093427
  0
LINE
  8
_1-4_フレ__ム
  6
CONTINUOUS
 62
    4
 10
124.56863674955571
 20
62.166666666666799
 11
114.95188915957374
 21
62.166666666666799
  0
ARC
  8
_1-4_フレ__ム
  6
CONTINUOUS
 62
    4
 10
114.95188915957374
 20
62.333333333333485
 40
0.1666666666666666
 50
150.94539590093427
 51
270
  0
LINE
  8
_1-4_フレ__ム
  6
CONTINUOUS
 62
    4
 10
116.43054151146015
 20
63.566666666666748
 11
115.07056952472243
 21
63.566666666666748
  0
ARC
  8
_1-4_フレ__ム
  6
CONTINUOUS
 62
    4
 10
115.07056952472243
 20
63.233333333333405
 40
0.3333333333333333
 50
90
 51
150.94539590092143
  0
LINE
  8
_1-4_フレ__ム
  6
CONTINUOUS
 62
    4
 10
114.19190860631937
 20
62.338119022940589
 11
114.77918376601519
 21
63.395214310392959
  0
LINE
  8
_1-4_フレ__ム
  6
CONTINUOUS
 62
    4
 10
113.90052284761225
 20
62.166666666666799
 11
94.835303416222132
 21
62.166666666666799
  0
ARC
  8
_1-4_フレ__ム
  6
CONTINUOUS
 62
    4
 10
113.90052284761225
 20
62.500000000000142
 40
0.3333333333333333
 50
270
 51
330.94539590092143
  0
LINE
  8
_1-4_フレ__ム
  6
CONTINUOUS
 62
    4
 10
114.80619628022021
 20
62.414273821863276
 11
115.12101109503499
 21
62.980940488529882
  0
LINE
  8
_1-4_フレ__ム
  6
CENTER2
 62
    4
 10
124.66863674955596
 20
63.833333333333485
 11
124.66863674955596
 21
60.000000000000142
  0
LINE
  8
_1-4_フレ__ム
  6
DASHED1
 62
    4
 10
127.16863674955596
 20
62.166666666666799
 11
127.16863674955596
 21
61.666666666666799
  0
LINE
  8
_1-4_フレ__ム
  6
DASHED1
 62
    4
 10
122.16863674955596
 20
62.166666666666799
 11
122.16863674955596
 21
61.666666666666799
  0
ENDBLK
  0
BLOCK
  2
-016-_16_
 70
   64
 10
0
 20
0
 30
0
  0
LINE
  8
_1-8_小物
  6
CONTINUOUS
 62
    4
 10
127.66863674955607
 20
62.666666666666799
 11
121.66863674955579
 21
62.666666666666799
  0
LINE
  8
_1-8_小物
  6
CONTINUOUS
 62
    4
 10
127.66863674955607
 20
62.166666666666799
 11
121.66863674955579
 21
62.166666666666799
  0
LINE
  8
_1-8_小物
  6
CONTINUOUS
 62
    4
 10
127.66863674955607
 20
62.666666666666799
 11
127.66863674955607
 21
62.166666666666799
  0
LINE
  8
_1-8_小物
  6
CONTINUOUS
 62
    4
 10
121.66863674955579
 20
62.666666666666799
 11
121.66863674955579
 21
62.166666666666799
  0
LINE
  8
_1-8_小物
  6
CONTINUOUS
 62
    4
 10
126.16863674955607
 20
62.666666666666799
 11
126.13233248828931
 21
63.081626271666835
  0
LINE
  8
_1-8_小物
  6
CONTINUOUS
 62
    4
 10
123.20494101078924
 20
63.081626271666835
 11
123.16863674955607
 21
62.666666666666799
  0
ARC
  8
_1-8_小物
  6
CONTINUOUS
 62
    4
 10
123.53368526118896
 20
63.05286487656673
 40
0.3299999999999999
 50
127.36755803205445
 51
175.00000000119914
  0
ARC
  8
_1-8_小物
  6
CONTINUOUS
 62
    4
 10
125.80358823792261
 20
63.05286487656673
 40
0.3299999999999999
 50
4.9999999988008561
 51
52.632441967934717
  0
ARC
  8
_1-8_小物
  6
CONTINUOUS
 62
    4
 10
124.66863674955579
 20
61.566666666666777
 40
2.1999999999999997
 50
52.632441967704345
 51
68.266383543397751
  0
ARC
  8
_1-8_小物
  6
CONTINUOUS
 62
    4
 10
124.66863674955579
 20
61.566666666666777
 40
2.1999999999999997
 50
111.74840859090097
 51
127.36755803230307
  0
LINE
  8
_1-8_小物
  6
CONTINUOUS
 62
    4
 10
124.77363674955598
 20
63.753042376533529
 11
124.77363674955598
 21
63.60777074653339
  0
LINE
  8
_1-8_小物
  6
CONTINUOUS
 62
    4
 10
124.88939964352289
 20
63.753042376533529
 11
124.77363674955598
 21
63.753042376533529
  0
LINE
  8
_1-8_小物
  6
CONTINUOUS
 62
    4
 10
125.48280450572258
 20
63.60777074653339
 11
124.88939964352289
 21
63.753042376533529
  0
LINE
  8
_1-8_小物
  6
CONTINUOUS
 62
    4
 10
124.44787385555594
 20
63.753042376533529
 11
124.0145704329891
 21
63.664563769400218
  0
LINE
  8
_1-8_小物
  6
CONTINUOUS
 62
    4
 10
124.0145704329891
 20
63.664563769400218
 11
123.85446899335625
 21
63.60777074653339
  0
LINE
  8
_1-8_小物
  6
CONTINUOUS
 62
    4
 10
124.56363674955594
 20
63.753042376533529
 11
124.44787385555594
 21
63.753042376533529
  0
LINE
  8
_1-8_小物
  6
CONTINUOUS
 62
    4
 10
124.56363674955594
 20
63.60777074653339
 11
124.56363674955594
 21
63.753042376533529
  0
LINE
  8
_1-8_小物
  6
CONTINUOUS
 62
    4
 10
124.77363674955598
 20
63.60777074653339
 11
124.66863674955579
 21
63.609472471333504
  0
LINE
  8
_1-8_小物
  6
CONTINUOUS
 62
    4
 10
124.66863674955579
 20
63.609472471333504
 11
124.56363674955594
 21
63.60777074653339
  0
LINE
  8
_1-8_小物
  6
CONTINUOUS
 62
    4
 10
126.13233248828931
 20
63.081626271666835
 11
123.20494101078924
 21
63.081626271666835
  0
LINE
  8
_1-8_小物
  6
CONTINUOUS
 62
    4
 10
124.66863674955579
 20
63.315135148900197
 11
123.33339970438914
 21
63.315135148900197
  0
LINE
  8
_1-8_小物
  6
CONTINUOUS
 62
    4
 10
126.00387379468941
 20
63.315135148900197
 11
124.66863674955579
 21
63.315135148900197
  0
ENDBLK
  0
BLOCK
  2
-017-_17_
 70
   64
 10
0
 20
0
 30
0
  0
LINE
  8
_1-8_小物
  6
CONTINUOUS
 62
    4
 10
34.742028336755368
 20
71.197241746133272
 11
34.076275003422126
 21
71.162351746133652
  0
LINE
  8
_1-8_小物
  6
CONTINUOUS
 62
    4
 10
35.740658336755388
 20
71.24957841280019
 11
35.372891670088677
 21
71.897885079466846
  0
LINE
  8
_1-8_小物
  6
CONTINUOUS
 62
    4
 10
35.372891670088677
 20
71.897885079466846
 11
34.707138336755435
 21
71.862995079466629
  0
LINE
  8
_1-8_小物
  6
CONTINUOUS
 62
    4
 10
34.707138336755435
 20
71.862995079466629
 11
34.742028336755368
 21
71.197241746133272
  0
LINE
  8
_1-8_小物
  6
CONTINUOUS
 62
    4
 10
36.406411670088829
 20
71.284468412800095
 11
35.740658336755388
 21
71.24957841280019
  0
LINE
  8
_1-8_小物
  6
CONTINUOUS
 62
    4
 10
37.40504000342213
 20
71.336805079466728
 11
37.037273336755163
 21
71.985111746133668
  0
LINE
  8
_1-8_小物
  6
CONTINUOUS
 62
    4
 10
37.037273336755163
 20
71.985111746133668
 11
36.371520003422148
 21
71.950221746133479
  0
LINE
  8
_1-8_小物
  6
CONTINUOUS
 62
    4
 10
36.371520003422148
 20
71.950221746133479
 11
36.406411670088829
 21
71.284468412800095
  0
LINE
  8
_1-8_小物
  6
CONTINUOUS
 62
    4
 10
38.070793336755543
 20
71.371695079466946
 11
37.40504000342213
 21
71.336805079466728
  0
LINE
  8
_1-8_小物
  6
CONTINUOUS
 62
    4
 10
39.069423336755165
 20
71.424031746133267
 11
38.701656670088852
 21
72.072338412799922
  0
LINE
  8
_1-8_小物
  6
CONTINUOUS
 62
    4
 10
38.701656670088852
 20
72.072338412799922
 11
38.035903336755439
 21
72.037448412800302
  0
LINE
  8
_1-8_小物
  6
CONTINUOUS
 62
    4
 10
38.035903336755439
 20
72.037448412800302
 11
38.070793336755543
 21
71.371695079466946
  0
LINE
  8
_1-8_小物
  6
CONTINUOUS
 62
    4
 10
39.735176670088805
 20
71.458921746133484
 11
39.069423336755165
 21
71.424031746133267
  0
LINE
  8
_1-8_小物
  6
CONTINUOUS
 62
    4
 10
40.733806670088853
 20
71.511258412800117
 11
40.366038336755366
 21
72.159565079466745
  0
LINE
  8
_1-8_小物
  6
CONTINUOUS
 62
    4
 10
40.366038336755366
 20
72.159565079466745
 11
39.700285003422124
 21
72.12467507946684
  0
LINE
  8
_1-8_小物
  6
CONTINUOUS
 62
    4
 10
39.700285003422124
 20
72.12467507946684
 11
39.735176670088805
 21
71.458921746133484
  0
LINE
  8
_1-8_小物
  6
CONTINUOUS
 62
    4
 10
41.399558336755319
 20
71.546148412800022
 11
40.733806670088853
 21
71.511258412800117
  0
LINE
  8
_1-8_小物
  6
CONTINUOUS
 62
    4
 10
42.030421670088629
 20
72.246791746133596
 11
41.364668336755386
 21
72.211901746133378
  0
LINE
  8
_1-8_小物
  6
CONTINUOUS
 62
    4
 10
41.364668336755386
 20
72.211901746133378
 11
41.399558336755319
 21
71.546148412800022
  0
LINE
  8
_1-8_小物
  6
CONTINUOUS
 62
    4
 10
42.335303336755516
 20
71.666666746133501
 11
42.030421670088629
 21
72.246791746133596
  0
LINE
  8
_1-8_小物
  6
CONTINUOUS
 62
    4
 10
34.742028336755368
 20
74.802758412800074
 11
34.076275003422126
 21
74.837648412799979
  0
LINE
  8
_1-8_小物
  6
CONTINUOUS
 62
    4
 10
35.740658336755388
 20
74.750421746133441
 11
35.372891670088677
 21
74.102115079466813
  0
LINE
  8
_1-8_小物
  6
CONTINUOUS
 62
    4
 10
35.372891670088677
 20
74.102115079466813
 11
34.707138336755435
 21
74.137005079467031
  0
LINE
  8
_1-8_小物
  6
CONTINUOUS
 62
    4
 10
34.707138336755435
 20
74.137005079467031
 11
34.742028336755368
 21
74.802758412800074
  0
LINE
  8
_1-8_小物
  6
CONTINUOUS
 62
    4
 10
36.406411670088829
 20
74.715531746133252
 11
35.740658336755388
 21
74.750421746133441
  0
LINE
  8
_1-8_小物
  6
CONTINUOUS
 62
    4
 10
37.40504000342213
 20
74.663195079466902
 11
37.037273336755163
 21
74.014888412800275
  0
LINE
  8
_1-8_小物
  6
CONTINUOUS
 62
    4
 10
37.037273336755163
 20
74.014888412800275
 11
36.371520003422148
 21
74.049778412799867
  0
LINE
  8
_1-8_小物
  6
CONTINUOUS
 62
    4
 10
36.371520003422148
 20
74.049778412799867
 11
36.406411670088829
 21
74.715531746133252
  0
LINE
  8
_1-8_小物
  6
CONTINUOUS
 62
    4
 10
38.070793336755543
 20
74.628305079466998
 11
37.40504000342213
 21
74.663195079466902
  0
LINE
  8
_1-8_小物
  6
CONTINUOUS
 62
    4
 10
39.069423336755165
 20
74.575968412800364
 11
38.701656670088852
 21
73.927661746133424
  0
LINE
  8
_1-8_小物
  6
CONTINUOUS
 62
    4
 10
38.701656670088852
 20
73.927661746133424
 11
38.035903336755439
 21
73.962551746133329
  0
LINE
  8
_1-8_小物
  6
CONTINUOUS
 62
    4
 10
38.035903336755439
 20
73.962551746133329
 11
38.070793336755543
 21
74.628305079466998
  0
LINE
  8
_1-8_小物
  6
CONTINUOUS
 62
    4
 10
39.735176670088805
 20
74.541078412800175
 11
39.069423336755165
 21
74.575968412800364
  0
LINE
  8
_1-8_小物
  6
CONTINUOUS
 62
    4
 10
40.733806670088853
 20
74.488741746133229
 11
40.366038336755366
 21
73.840435079466602
  0
LINE
  8
_1-8_小物
  6
CONTINUOUS
 62
    4
 10
40.366038336755366
 20
73.840435079466602
 11
39.700285003422124
 21
73.875325079466791
  0
LINE
  8
_1-8_小物
  6
CONTINUOUS
 62
    4
 10
39.700285003422124
 20
73.875325079466791
 11
39.735176670088805
 21
74.541078412800175
  0
LINE
  8
_1-8_小物
  6
CONTINUOUS
 62
    4
 10
41.399558336755319
 20
74.453851746133637
 11
40.733806670088853
 21
74.488741746133229
  0
LINE
  8
_1-8_小物
  6
CONTINUOUS
 62
    4
 10
42.030421670088629
 20
73.753208412800063
 11
41.364668336755386
 21
73.788098412800252
  0
LINE
  8
_1-8_小物
  6
CONTINUOUS
 62
    4
 10
41.364668336755386
 20
73.788098412800252
 11
41.399558336755319
 21
74.453851746133637
  0
LINE
  8
_1-8_小物
  6
CONTINUOUS
 62
    4
 10
34.355071670088648
 20
73.01976841280009
 11
34.926961670088787
 21
72.375201746133541
  0
LINE
  8
_1-8_小物
  6
CONTINUOUS
 62
    4
 10
34.958450003422115
 20
73.623148412800248
 11
34.335303336755317
 21
73.000000079466531
  0
LINE
  8
_1-8_小物
  6
CONTINUOUS
 62
    4
 10
42.335303336755516
 20
74.333333412799846
 11
42.030421670088629
 21
73.753208412800063
  0
LINE
  8
_1-8_小物
  6
CONTINUOUS
 62
    4
 10
39.735176670088805
 20
71.458921746133484
 11
41.287836670088637
 21
70.893800079466956
  0
LINE
  8
_1-8_小物
  6
CONTINUOUS
 62
    4
 10
39.735176670088805
 20
71.813648412799949
 11
41.401843336755348
 21
71.207030079466705
  0
LINE
  8
_1-8_小物
  6
CONTINUOUS
 62
    4
 10
39.735176670088805
 20
74.541078412800175
 11
41.287836670088637
 21
75.106200079466703
  0
LINE
  8
_1-8_小物
  6
CONTINUOUS
 62
    4
 10
39.735176670088805
 20
74.18635174613371
 11
41.401843336755348
 21
74.792970079466954
  0
LINE
  8
_1-8_小物
  6
CONTINUOUS
 62
    4
 10
34.015216670088677
 20
72.327418412800114
 11
34.076275003422126
 21
71.162351746133652
  0
LINE
  8
_1-8_小物
  6
CONTINUOUS
 62
    4
 10
34.076275003422126
 20
71.162351746133652
 11
33.375631670088808
 21
71.793213412800185
  0
LINE
  8
_1-8_小物
  6
CONTINUOUS
 62
    4
 10
33.375631670088808
 20
71.793213412800185
 11
33.349463336755264
 21
72.292528412799925
  0
LINE
  8
_1-8_小物
  6
CONTINUOUS
 62
    4
 10
33.349463336755264
 20
72.292528412799925
 11
43.668636670088574
 21
72.833333412799846
  0
LINE
  8
_1-8_小物
  6
CONTINUOUS
 62
    4
 10
42.335303336755516
 20
71.666666746133501
 11
43.668636670088574
 21
71.666666746133501
  0
LINE
  8
_1-8_小物
  6
CONTINUOUS
 62
    4
 10
34.015216670088677
 20
73.672581746133517
 11
34.076275003422126
 21
74.837648412799979
  0
LINE
  8
_1-8_小物
  6
CONTINUOUS
 62
    4
 10
34.076275003422126
 20
74.837648412799979
 11
33.375631670088808
 21
74.206786746133446
  0
LINE
  8
_1-8_小物
  6
CONTINUOUS
 62
    4
 10
33.375631670088808
 20
74.206786746133446
 11
33.349463336755264
 21
73.707471746133422
  0
LINE
  8
_1-8_小物
  6
CONTINUOUS
 62
    4
 10
33.349463336755264
 20
73.707471746133422
 11
43.668636670088574
 21
73.166666746133501
  0
LINE
  8
_1-8_小物
  6
CONTINUOUS
 62
    4
 10
42.335303336755516
 20
74.333333412799846
 11
43.668636670088574
 21
74.333333412799846
  0
LINE
  8
_1-8_小物
  6
CONTINUOUS
 62
    4
 10
41.287836670088637
 20
75.106200079466703
 11
43.55571000342232
 21
75.436985079466808
  0
ARC
  8
_1-8_小物
  6
CONTINUOUS
 62
    4
 10
43.574955003422076
 20
75.305048412800147
 40
0.1333333333333333
 50
8.13010199995208
 51
98.29846600000073
  0
LINE
  8
_1-8_小物
  6
CONTINUOUS
 62
    4
 10
43.70694833675546
 20
75.323905079467011
 11
43.716320003422226
 21
75.258296746133396
  0
ARC
  8
_1-8_小物
  6
CONTINUOUS
 62
    4
 10
43.584326670088814
 20
75.239440079466505
 40
0.1333333333333333
 50
278.1301020000281
 51
8.1301020002267137
  0
LINE
  8
_1-8_小物
  6
CONTINUOUS
 62
    4
 10
43.603183336755393
 20
75.107446746133405
 11
41.401843336755348
 21
74.792970079466954
  0
LINE
  8
_1-8_小物
  6
CONTINUOUS
 62
    4
 10
41.287836670088637
 20
70.893800079466956
 11
43.55571000342232
 21
70.563015079466851
  0
ARC
  8
_1-8_小物
  6
CONTINUOUS
 62
    4
 10
43.574955003422076
 20
70.694951746133512
 40
0.1333333333333333
 50
261.70153399996479
 51
351.86989800004795
  0
LINE
  8
_1-8_小物
  6
CONTINUOUS
 62
    4
 10
43.70694833675546
 20
70.676096746133567
 11
43.716320003422226
 21
70.741703412800263
  0
ARC
  8
_1-8_小物
  6
CONTINUOUS
 62
    4
 10
43.584326670088814
 20
70.760560079466529
 40
0.1333333333333333
 50
351.86989800004619
 51
81.869897999971897
  0
LINE
  8
_1-8_小物
  6
CONTINUOUS
 62
    4
 10
43.603183336755393
 20
70.892553412800254
 11
41.401843336755348
 21
71.207030079466705
  0
LINE
  8
_1-8_小物
  6
CONTINUOUS
 62
    4
 10
41.287836670088637
 20
70.893800079466956
 11
43.55571000342232
 21
70.563015079466851
  0
ARC
  8
_1-8_小物
  6
CONTINUOUS
 62
    4
 10
43.574955003422076
 20
70.694951746133512
 40
0.1333333333333333
 50
261.70153399996479
 51
351.86989800004795
  0
LINE
  8
_1-8_小物
  6
CONTINUOUS
 62
    4
 10
43.70694833675546
 20
70.676096746133567
 11
43.716320003422226
 21
70.741703412800263
  0
ARC
  8
_1-8_小物
  6
CONTINUOUS
 62
    4
 10
43.584326670088814
 20
70.760560079466529
 40
0.1333333333333333
 50
351.86989800004619
 51
81.869897999971897
  0
LINE
  8
_1-8_小物
  6
CONTINUOUS
 62
    4
 10
43.603183336755393
 20
70.892553412800254
 11
41.401843336755348
 21
71.207030079466705
  0
LINE
  8
_1-8_小物
  6
CONTINUOUS
 62
    4
 10
46.335303336755487
 20
71.333333412799846
 11
44.668636670088802
 21
71.666666746133501
  0
LINE
  8
_1-8_小物
  6
CONTINUOUS
 62
    4
 10
46.335303336755487
 20
71.666666746133501
 11
43.668636670088574
 21
71.666666746133501
  0
LINE
  8
_1-8_小物
  6
CONTINUOUS
 62
    4
 10
43.668636670088574
 20
72.833333412799846
 11
43.668636670088574
 21
73.000000079466531
  0
LINE
  8
_1-8_小物
  6
CONTINUOUS
 62
    4
 10
44.668636670088802
 20
73.000000079466531
 11
46.335303336755487
 21
73.000000079466531
  0
LINE
  8
_1-8_小物
  6
CONTINUOUS
 62
    4
 10
46.335303336755487
 20
72.666666746133501
 11
44.668636670088802
 21
73.000000079466531
  0
LINE
  8
_1-8_小物
  6
CONTINUOUS
 62
    4
 10
46.335303336755487
 20
73.333333412800158
 11
44.668636670088802
 21
73.000000079466531
  0
LINE
  8
_1-8_小物
  6
CONTINUOUS
 62
    4
 10
46.335303336755487
 20
74.666666746133188
 11
44.668636670088802
 21
74.333333412799846
  0
LINE
  8
_1-8_小物
  6
CONTINUOUS
 62
    4
 10
46.335303336755487
 20
74.333333412799846
 11
43.668636670088574
 21
74.333333412799846
  0
LINE
  8
_1-8_小物
  6
CONTINUOUS
 62
    4
 10
43.668636670088574
 20
73.166666746133501
 11
43.668636670088574
 21
73.000000079466531
  0
LINE
  8
_1-8_小物
  6
CONTINUOUS
 62
    4
 10
46.335303336755487
 20
71.333333412799846
 11
46.335303336755487
 21
74.666666746133188
  0
ENDBLK
  0
BLOCK
  2
-018-_18_
 70
   64
 10
0
 20
0
 30
0
  0
LINE
  8
_1-4_フレ__ム
  6
CONTINUOUS
 62
    4
 10
47.33530333675543
 20
73.10000007946644
 11
47.235303336755976
 21
73.000000079466531
  0
LINE
  8
_1-4_フレ__ム
  6
CONTINUOUS
 62
    4
 10
47.235303336755976
 20
73.000000079466531
 11
47.335303336755828
 21
72.900000079466224
  0
LINE
  8
_1-4_フレ__ム
  6
CONTINUOUS
 62
    4
 10
47.335303336755828
 20
68.333333412800073
 11
47.335303336755828
 21
72.900000079466224
  0
LINE
  8
_1-4_フレ__ム
  6
CONTINUOUS
 62
    4
 10
47.33530333675543
 20
78.333333412799789
 11
47.33530333675543
 21
73.10000007946644
  0
ARC
  8
_1-4_フレ__ム
  6
CONTINUOUS
 62
    4
 10
49.10196999905645
 20
80.000000079466304
 40
0.1666666666666666
 50
270
 51
90
  0
LINE
  8
_1-4_フレ__ム
  6
CONTINUOUS
 62
    4
 10
49.001969999056485
 20
79.833333412799618
 11
49.001969999056485
 21
76.666666746133103
  0
LINE
  8
_1-4_フレ__ム
  6
CONTINUOUS
 62
    4
 10
48.501969999056485
 20
80.166666746132961
 11
49.10196999905645
 21
80.166666746132961
  0
LINE
  8
_1-4_フレ__ム
  6
CONTINUOUS
 62
    4
 10
48.501969999056485
 20
76.666666746133103
 11
49.001969999056485
 21
76.666666746133103
  0
LINE
  8
_1-4_フレ__ム
  6
CONTINUOUS
 62
    4
 10
48.501969999056485
 20
78.333333412799789
 11
47.33530333675543
 21
78.333333412799789
  0
LINE
  8
_1-4_フレ__ム
  6
CONTINUOUS
 62
    4
 10
48.501969999056485
 20
78.333333412799789
 11
48.501969999056485
 21
76.666666746133103
  0
LINE
  8
_1-4_フレ__ム
  6
CONTINUOUS
 62
    4
 10
48.501969999056485
 20
80.166666746132961
 11
48.501969999056485
 21
79.333333412799789
  0
ARC
  8
_1-4_フレ__ム
  6
CONTINUOUS
 62
    4
 10
47.668636670089313
 20
66.000000079466446
 40
0.1666666666666666
 50
180
 51
270
  0
ARC
  8
_1-4_フレ__ム
  6
CONTINUOUS
 62
    4
 10
47.485303336756317
 20
64.516666746133097
 40
0.4833333333332726
 50
270
 51
90
  0
ARC
  8
_1-4_フレ__ム
  6
CONTINUOUS
 62
    4
 10
47.968636670089438
 20
64.100000079466582
 40
0.5999999999999999
 50
270
 51
0
  0
LINE
  8
_1-4_フレ__ム
  6
CONTINUOUS
 62
    4
 10
46.668636670088858
 20
63.866666746133092
 11
46.668636670088858
 21
63.766666746133183
  0
LINE
  8
_1-4_フレ__ム
  6
CONTINUOUS
 62
    4
 10
47.485303336756317
 20
64.033333412799834
 11
46.835303336755771
 21
64.033333412799749
  0
ARC
  8
_1-4_フレ__ム
  6
CONTINUOUS
 62
    4
 10
46.835303336755771
 20
63.866666746133092
 40
0.1666666666666666
 50
90
 51
180
  0
ARC
  8
_1-4_フレ__ム
  6
CONTINUOUS
 62
    4
 10
46.935303336755965
 20
63.766666746133183
 40
0.2666666666666667
 50
180
 51
270
  0
LINE
  8
_1-4_フレ__ム
  6
CONTINUOUS
 62
    4
 10
46.935303336755965
 20
63.500000079466474
 11
47.968636670089438
 21
63.500000079466531
  0
LINE
  8
_1-4_フレ__ム
  6
CONTINUOUS
 62
    4
 10
46.33530333675543
 20
65.000000079466531
 11
47.485303336756317
 21
65.000000079466531
  0
LINE
  8
_1-4_フレ__ム
  6
CONTINUOUS
 62
    4
 10
48.501969999056485
 20
79.333333412799789
 11
46.33530333675543
 21
79.333333412799789
  0
LINE
  8
_1-4_フレ__ム
  6
CONTINUOUS
 62
    4
 10
46.33530333675543
 20
65.000000079466531
 11
46.33530333675543
 21
79.333333412799789
  0
LINE
  8
_1-4_フレ__ム
  6
CONTINUOUS
 62
    4
 10
47.335303336755828
 20
68.333333412800073
 11
47.501970003422628
 21
68.333333412800073
  0
LINE
  8
_1-4_フレ__ム
  6
CONTINUOUS
 62
    4
 10
47.501970003422628
 20
66.000000079466446
 11
47.501970003422628
 21
68.333333412800073
  0
LINE
  8
_1-4_フレ__ム
  6
CONTINUOUS
 62
    4
 10
49.001969999056485
 20
79.833333412799618
 11
49.10196999905645
 21
79.833333412799618
  0
LINE
  8
_1-4_フレ__ム
  6
CENTER2
 62
    4
 10
48.501970003422173
 20
73.000000079466531
 11
44.668636670088802
 21
73.000000079466531
  0
LINE
  8
_1-4_フレ__ム
  6
CENTER2
 62
    4
 10
47.485303336756317
 20
64.516666746133097
 11
48.318636670089461
 21
64.516666746133097
  0
LINE
  8
_1-4_フレ__ム
  6
CENTER2
 62
    4
 10
47.485303336756317
 20
64.516666746133097
 11
47.485303336756317
 21
65.350000079466582
  0
LINE
  8
_1-4_フレ__ム
  6
CENTER2
 62
    4
 10
47.485303336756317
 20
64.516666746133097
 11
46.651970003422832
 21
64.516666746133097
  0
LINE
  8
_1-4_フレ__ム
  6
CENTER2
 62
    4
 10
47.485303336756317
 20
64.516666746133097
 11
47.485303336756317
 21
63.683333412799698
  0
LINE
  8
_1-4_フレ__ム
  6
DASHED1
 62
    4
 10
47.335303336755828
 20
75.500000079466815
 11
46.33530333675543
 21
75.500000079466815
  0
LINE
  8
_1-4_フレ__ム
  6
DASHED1
 62
    4
 10
47.335303336755828
 20
70.500000079466815
 11
46.33530333675543
 21
70.500000079466815
  0
LINE
  8
_1-4_フレ__ム
  6
DASHED1
 62
    4
 10
47.5019700034224
 20
66.833333412799846
 11
46.33530333675543
 21
66.833333412799846
  0
LINE
  8
_1-4_フレ__ム
  6
CONTINUOUS
 62
    4
 10
48.468636670089325
 20
65.833333412799931
 11
47.668636670089313
 21
65.833333412799931
  0
LINE
  8
_1-4_フレ__ム
  6
CONTINUOUS
 62
    4
 10
48.568636670089347
 20
64.100000079466582
 11
48.568636670089347
 21
65.733333412799908
  0
ARC
  8
_1-4_フレ__ム
  6
CONTINUOUS
 62
    4
 10
48.468636670089325
 20
65.733333412799908
 40
0.0999999999999999
 50
0
 51
90
  0
ENDBLK
  0
BLOCK
  2
-019-_19_
 70
   64
 10
0
 20
0
 30
0
  0
LINE
  8
_1-8_小物
  6
CONTINUOUS
 62
    4
 10
47.732283558613631
 20
66.627777860516517
 11
47.631276964966105
 21
66.714814897561212
  0
ARC
  8
_1-8_小物
  6
CONTINUOUS
 62
    4
 10
48.435303336756078
 20
63.633333412799857
 40
0.1333333333333333
 50
270
 51
359.99999849072555
  0
ARC
  8
_1-8_小物
  6
CONTINUOUS
 62
    4
 10
48.435303336756078
 20
63.633333412799857
 40
0.2666666666666666
 50
270
 51
359.99999849072555
  0
ARC
  8
_1-8_小物
  6
CONTINUOUS
 62
    4
 10
46.801970003422696
 20
63.633333412799857
 40
0.2666666666666666
 50
180
 51
270
  0
ARC
  8
_1-8_小物
  6
CONTINUOUS
 62
    4
 10
46.295958673856035
 20
64.366666746133205
 40
0.5
 50
323.03140579854858
 51
41.810314895802605
  0
ARC
  8
_1-8_小物
  6
CONTINUOUS
 62
    4
 10
46.801970003422696
 20
63.985794529466517
 40
0.1333333333333333
 50
143.03140197499252
 51
179.99999849072555
  0
LINE
  8
_1-8_小物
  6
CONTINUOUS
 62
    4
 10
46.535303336756044
 20
63.989425249633229
 11
46.535303336756044
 21
63.633333412799857
  0
ARC
  8
_1-8_小物
  6
CONTINUOUS
 62
    4
 10
46.801970003422696
 20
63.633333412799857
 40
0.1333333333333333
 50
180
 51
270
  0
ARC
  8
_1-8_小物
  6
CONTINUOUS
 62
    4
 10
46.252303470189418
 20
64.366666746133205
 40
0.3999999999999999
 50
325.5378114299408
 51
37.637863116799679
  0
LINE
  8
_1-8_小物
  6
CONTINUOUS
 62
    4
 10
46.66863667008937
 20
63.985794532966565
 11
46.66863667008937
 21
63.633333412799857
  0
ARC
  8
_1-8_小物
  6
CONTINUOUS
 62
    4
 10
46.801970003422696
 20
63.989425249633229
 40
0.2666666666666666
 50
145.53781142990746
 51
180
  0
LINE
  8
_1-8_小物
  6
CONTINUOUS
 62
    4
 10
46.66863667008937
 20
64.70000007946652
 11
46.569057975989381
 21
64.610934187833209
  0
LINE
  8
_1-8_小物
  6
CONTINUOUS
 62
    4
 10
46.801970003422696
 20
63.366666746133205
 11
48.435303336756078
 21
63.366666746133205
  0
LINE
  8
_1-8_小物
  6
CONTINUOUS
 62
    4
 10
46.801970003422696
 20
63.50000007946656
 11
48.435303336756078
 21
63.50000007946656
  0
ARC
  8
_1-8_小物
  6
CONTINUOUS
 62
    4
 10
48.035303336756044
 20
66.366666746133205
 40
0.5333333333333333
 50
90
 51
270.00000867011471
  0
ARC
  8
_1-8_小物
  6
CONTINUOUS
 62
    4
 10
48.035303336756044
 20
66.366666746133205
 40
0.3999999999999999
 50
90.0000000000977
 51
270.0000018823917
  0
LINE
  8
_1-8_小物
  6
CONTINUOUS
 62
    4
 10
48.035303336756044
 20
66.766666746133211
 11
48.035303336756044
 21
66.900000079466537
  0
LINE
  8
_1-8_小物
  6
CONTINUOUS
 62
    4
 10
47.501970003422684
 20
67.833333412799902
 11
47.63530333675601
 21
67.833333412799902
  0
LINE
  8
_1-8_小物
  6
DASHED1
 62
    4
 10
48.70197000342273
 20
65.250000072393561
 11
48.568636670089404
 21
65.250000072393561
  0
LINE
  8
_1-8_小物
  6
CONTINUOUS
 62
    4
 10
47.63530333675601
 20
67.333333412799902
 11
47.501970003422684
 21
67.333333412799902
  0
LINE
  8
_1-8_小物
  6
CONTINUOUS
 62
    4
 10
47.63530333675601
 20
67.833333412799902
 11
47.63530333675601
 21
66.719433587608421
  0
LINE
  8
_1-8_小物
  6
CONTINUOUS
 62
    4
 10
47.63530333675601
 20
66.013899904657961
 11
47.63530333675601
 21
65.836700763280902
  0
LINE
  8
_1-8_小物
  6
CONTINUOUS
 62
    4
 10
47.501970003422684
 20
67.833333412799902
 11
47.501970003422684
 21
66.000000079466446
  0
ARC
  8
_1-8_小物
  6
CONTINUOUS
 62
    4
 10
47.20197000342273
 20
64.936438271150109
 40
0.1333333333333333
 50
151.52902134424266
 51
180
  0
LINE
  8
_1-8_小物
  6
CONTINUOUS
 62
    4
 10
47.068636670089347
 20
64.936438271150109
 11
47.068636670089347
 21
64.033333412799834
  0
LINE
  8
_1-8_小物
  6
CONTINUOUS
 62
    4
 10
46.935303336756078
 20
65.000000079466531
 11
46.935303336756078
 21
64.033333412799834
  0
LINE
  8
_1-8_小物
  6
CONTINUOUS
 62
    4
 10
48.035303336756044
 20
65.966666746133171
 11
48.468636670089381
 21
65.966666746133171
  0
LINE
  8
_1-8_小物
  6
CONTINUOUS
 62
    4
 10
48.70197000342273
 20
63.633333405799846
 11
48.70197000342273
 21
65.733333412799823
  0
ARC
  8
_1-8_小物
  6
CONTINUOUS
 62
    4
 10
48.468636670089381
 20
65.733333412799823
 40
0.2333333333333333
 50
0
 51
90
  0
LINE
  8
_1-8_小物
  6
CONTINUOUS
 62
    4
 10
48.035303336756044
 20
65.833333412799902
 11
48.468636670089438
 21
65.833333412799902
  0
LINE
  8
_1-8_小物
  6
CONTINUOUS
 62
    4
 10
48.568636670089404
 20
63.633333409299894
 11
48.568636670089404
 21
65.733333412799908
  0
ARC
  8
_1-8_小物
  6
CONTINUOUS
 62
    4
 10
48.468636670089438
 20
65.733333412799908
 40
0.0999999999999999
 50
0
 51
90
  0
ENDBLK
  0
BLOCK
  2
-020-_20_
 70
   64
 10
0
 20
0
 30
0
  0
LINE
  8
_1-8_小物
  6
CONTINUOUS
 62
    4
 10
47.835303336755601
 20
70.000000079466133
 11
47.835303336755601
 21
76.000000079466474
  0
LINE
  8
_1-8_小物
  6
CONTINUOUS
 62
    4
 10
47.335303336755601
 20
70.000000079466133
 11
47.335303336755601
 21
76.000000079466474
  0
LINE
  8
_1-8_小物
  6
CONTINUOUS
 62
    4
 10
47.835303336755601
 20
70.000000079466133
 11
47.335303336755601
 21
70.000000079466133
  0
LINE
  8
_1-8_小物
  6
CONTINUOUS
 62
    4
 10
47.835303336755601
 20
76.000000079466474
 11
47.335303336755601
 21
76.000000079466474
  0
LINE
  8
_1-8_小物
  6
CONTINUOUS
 62
    4
 10
47.835303336755601
 20
71.500000079466133
 11
48.250262941755636
 21
71.536304340733011
  0
LINE
  8
_1-8_小物
  6
CONTINUOUS
 62
    4
 10
48.250262941755636
 20
74.46369581823302
 11
47.835303336755601
 21
74.500000079466133
  0
ARC
  8
_1-8_小物
  6
CONTINUOUS
 62
    4
 10
48.221501546655531
 20
74.134951567833298
 40
0.3299999999999999
 50
37.367558032054447
 51
85.000000001194223
  0
ARC
  8
_1-8_小物
  6
CONTINUOUS
 62
    4
 10
48.221501546655531
 20
71.865048591099651
 40
0.3299999999999999
 50
274.99999999880617
 51
322.63244196794949
  0
ARC
  8
_1-8_小物
  6
CONTINUOUS
 62
    4
 10
46.735303336755578
 20
73.000000079466474
 40
2.1999999999999997
 50
322.63244196770495
 51
338.26638354339843
  0
ARC
  8
_1-8_小物
  6
CONTINUOUS
 62
    4
 10
46.735303336755578
 20
73.000000079466474
 40
2.1999999999999997
 50
21.748408590903018
 51
37.367558032305141
  0
LINE
  8
_1-8_小物
  6
CONTINUOUS
 62
    4
 10
48.92167904662233
 20
72.895000079466342
 11
48.776407416622192
 21
72.895000079466342
  0
LINE
  8
_1-8_小物
  6
CONTINUOUS
 62
    4
 10
48.92167904662233
 20
72.779237185499312
 11
48.92167904662233
 21
72.895000079466342
  0
LINE
  8
_1-8_小物
  6
CONTINUOUS
 62
    4
 10
48.776407416622192
 20
72.185832323299735
 11
48.92167904662233
 21
72.779237185499312
  0
LINE
  8
_1-8_小物
  6
CONTINUOUS
 62
    4
 10
48.92167904662233
 20
73.220762973466378
 11
48.833200439489019
 21
73.654066396033102
  0
LINE
  8
_1-8_小物
  6
CONTINUOUS
 62
    4
 10
48.833200439489019
 20
73.654066396033102
 11
48.776407416622192
 21
73.814167835665955
  0
LINE
  8
_1-8_小物
  6
CONTINUOUS
 62
    4
 10
48.92167904662233
 20
73.105000079466379
 11
48.92167904662233
 21
73.220762973466378
  0
LINE
  8
_1-8_小物
  6
CONTINUOUS
 62
    4
 10
48.776407416622192
 20
73.105000079466379
 11
48.92167904662233
 21
73.105000079466379
  0
LINE
  8
_1-8_小物
  6
CONTINUOUS
 62
    4
 10
48.776407416622192
 20
72.895000079466342
 11
48.778109141422306
 21
73.000000079466474
  0
LINE
  8
_1-8_小物
  6
CONTINUOUS
 62
    4
 10
48.778109141422306
 20
73.000000079466474
 11
48.776407416622192
 21
73.105000079466379
  0
LINE
  8
_1-8_小物
  6
CONTINUOUS
 62
    4
 10
48.250262941755636
 20
71.536304340733011
 11
48.250262941755636
 21
74.46369581823302
  0
LINE
  8
_1-8_小物
  6
CONTINUOUS
 62
    4
 10
48.483771818988998
 20
73.000000079466474
 11
48.483771818988998
 21
74.335237124633124
  0
LINE
  8
_1-8_小物
  6
CONTINUOUS
 62
    4
 10
48.483771818988998
 20
71.664763034332907
 11
48.483771818988998
 21
73.000000079466474
  0
ENDBLK
  0
BLOCK
  2
-021-_21_
 70
   64
 10
0
 20
0
 30
0
  0
LINE
  8
_1-5_ア__ム
  6
CONTINUOUS
 62
    4
 10
53.568636670087869
 20
68.900000060833122
 11
53.568636670087869
 21
65.233333505933501
  0
ARC
  8
_1-5_ア__ム
  6
CONTINUOUS
 62
    4
 10
55.235303336754498
 20
65.233333505933501
 40
1.6666666666666665
 50
180
 51
270
  0
LINE
  8
_1-5_ア__ム
  6
DASHED1
 62
    4
 10
71.901970003421013
 20
67.966666760766685
 11
71.901970003421013
 21
67.233333427433422
  0
LINE
  8
_1-5_ア__ム
  6
DASHED1
 62
    4
 10
73.901970003421354
 20
67.966666760766685
 11
73.901970003421354
 21
67.233333427433422
  0
LINE
  8
_1-5_ア__ム
  6
DASHED1
 62
    4
 10
57.568636670087869
 20
67.966666760766685
 11
57.568636670087869
 21
67.233333427433422
  0
LINE
  8
_1-5_ア__ム
  6
DASHED1
 62
    4
 10
62.901970003421468
 20
67.966666760766685
 11
62.901970003421468
 21
67.233333427433422
  0
LINE
  8
_1-5_ア__ム
  6
CONTINUOUS
 62
    4
 10
127.56863667008787
 20
68.900000079466622
 11
127.56863667008787
 21
65.233333505933501
  0
ARC
  8
_1-5_ア__ム
  6
CONTINUOUS
 62
    4
 10
125.90197000342118
 20
65.233333505933501
 40
1.6666666666666665
 50
270
 51
0
  0
LINE
  8
_1-5_ア__ム
  6
CONTINUOUS
 62
    4
 10
53.568636670087869
 20
68.900000079466622
 11
127.56863667008787
 21
68.900000079466622
  0
LINE
  8
_1-5_ア__ム
  6
DASHED1
 62
    4
 10
53.568636670087869
 20
67.96666676076677
 11
127.56863667008787
 21
67.96666676076677
  0
LINE
  8
_1-5_ア__ム
  6
DASHED1
 62
    4
 10
53.568636670087869
 20
67.233333427433422
 11
127.56863667008787
 21
67.233333427433422
  0
LINE
  8
_1-5_ア__ム
  6
CONTINUOUS
 62
    4
 10
55.235303336754498
 20
63.566666839266759
 11
125.90197000342118
 21
63.566666839266759
  0
ENDBLK
  0
BLOCK
  2
-022-_22_
 70
   64
 10
0
 20
0
 30
0
  0
LINE
  8
_1-7_カバ__
  6
CENTER2
 62
    4
 10
-99.999999999999829
 20
70.900000000000148
 11
-99.999999999999829
 21
66.800000000000182
  0
LINE
  8
_1-7_カバ__
  6
CENTER2
 62
    4
 10
-136.66666666667285
 20
70.900000000000148
 11
-136.66666666667285
 21
66.800000000000182
  0
LINE
  8
_1-7_カバ__
  6
CENTER2
 62
    4
 10
-63.333333333326863
 20
70.900000000000148
 11
-63.333333333326863
 21
66.800000000000182
  0
ARC
  8
_1-7_カバ__
  6
CONTINUOUS
 62
    4
 10
-152.83333225127114
 20
68.733333333333491
 40
0.5
 50
90
 51
180
  0
LINE
  8
_1-7_カバ__
  6
CONTINUOUS
 62
    4
 10
-153.33333225127114
 20
65.066666666666862
 11
-153.33333225127114
 21
68.733333333333491
  0
ARC
  8
_1-7_カバ__
  6
CONTINUOUS
 62
    4
 10
-152.83333225127114
 20
65.066666666666862
 40
0.5
 50
180
 51
270
  0
ARC
  8
_1-7_カバ__
  6
CONTINUOUS
 62
    4
 10
-152.83333225127114
 20
68.733333333333491
 40
0.1666666666666666
 50
90
 51
180
  0
LINE
  8
_1-7_カバ__
  6
CONTINUOUS
 62
    4
 10
-152.99999891793783
 20
65.066666666666862
 11
-152.99999891793783
 21
68.733333333333491
  0
ARC
  8
_1-7_カバ__
  6
CONTINUOUS
 62
    4
 10
-152.83333225127114
 20
65.066666666666862
 40
0.1666666666666666
 50
180
 51
270
  0
ARC
  8
_1-7_カバ__
  6
CONTINUOUS
 62
    4
 10
-47.166667748728543
 20
68.733333333333491
 40
0.5
 50
0
 51
90
  0
LINE
  8
_1-7_カバ__
  6
CONTINUOUS
 62
    4
 10
-46.666667748728543
 20
65.066666666666862
 11
-46.666667748728543
 21
68.733333333333491
  0
ARC
  8
_1-7_カバ__
  6
CONTINUOUS
 62
    4
 10
-47.166667748728543
 20
65.066666666666862
 40
0.5
 50
270
 51
0
  0
ARC
  8
_1-7_カバ__
  6
CONTINUOUS
 62
    4
 10
-47.166667748728543
 20
68.733333333333491
 40
0.1666666666666666
 50
0
 51
90
  0
LINE
  8
_1-7_カバ__
  6
CONTINUOUS
 62
    4
 10
-47.000001082061857
 20
65.066666666666862
 11
-47.000001082061857
 21
68.733333333333491
  0
ARC
  8
_1-7_カバ__
  6
CONTINUOUS
 62
    4
 10
-47.166667748728543
 20
65.066666666666862
 40
0.1666666666666666
 50
270
 51
0
  0
LINE
  8
_1-7_カバ__
  6
CONTINUOUS
 62
    4
 10
-152.83333225127114
 20
69.233333333333491
 11
-47.166667748728543
 21
69.233333333333491
  0
LINE
  8
_1-7_カバ__
  6
CONTINUOUS
 62
    4
 10
-152.83333225127114
 20
68.900000000000148
 11
-47.166667748728543
 21
68.900000000000148
  0
LINE
  8
_1-7_カバ__
  6
CONTINUOUS
 62
    4
 10
-149.99999891793783
 20
64.900000000000148
 11
-149.99999891793783
 21
64.566666666666862
  0
LINE
  8
_1-7_カバ__
  6
CONTINUOUS
 62
    4
 10
-152.83333225127114
 20
64.566666666666862
 11
-149.99999891793783
 21
64.566666666666862
  0
LINE
  8
_1-7_カバ__
  6
CONTINUOUS
 62
    4
 10
-152.83333225127114
 20
64.900000000000148
 11
-149.99999891793783
 21
64.900000000000148
  0
LINE
  8
_1-7_カバ__
  6
CONTINUOUS
 62
    4
 10
-50.000001082061857
 20
64.900000000000148
 11
-50.000001082061857
 21
64.566666666666862
  0
LINE
  8
_1-7_カバ__
  6
CONTINUOUS
 62
    4
 10
-47.166667748728543
 20
64.566666666666862
 11
-50.000001082061857
 21
64.566666666666862
  0
LINE
  8
_1-7_カバ__
  6
CONTINUOUS
 62
    4
 10
-47.166667748728543
 20
64.900000000000148
 11
-50.000001082061857
 21
64.900000000000148
  0
LINE
  8
_1-7_カバ__
  6
DASHED1
 62
    4
 10
-135.91666666667285
 20
68.900000000000148
 11
-135.58333333333951
 21
69.233333333333491
  0
LINE
  8
_1-7_カバ__
  6
DASHED1
 62
    4
 10
-137.41666666667285
 20
68.900000000000148
 11
-137.7500000000062
 21
69.233333333333491
  0
LINE
  8
_1-7_カバ__
  6
DASHED1
 62
    4
 10
-62.583333333326863
 20
68.900000000000148
 11
-62.249999999993491
 21
69.233333333333491
  0
LINE
  8
_1-7_カバ__
  6
DASHED1
 62
    4
 10
-64.083333333326863
 20
68.900000000000148
 11
-64.416666666660177
 21
69.233333333333491
  0
ENDBLK
  0
BLOCK
  2
-023-_23_
 70
   64
 10
0
 20
0
 30
0
  0
ARC
  8
_1-8_小物
  6
CONTINUOUS
 62
    4
 10
-50.000001082061857
 20
64.666666666666885
 40
0.0999999999999999
 50
180
 51
270
  0
LINE
  8
_1-8_小物
  6
CONTINUOUS
 62
    4
 10
-47.166667748728486
 20
63.900000000000205
 11
-47.166667748728486
 21
63.440932613378578
  0
ARC
  8
_1-8_小物
  6
CONTINUOUS
 62
    4
 10
-47.333334415395143
 20
63.900000000000205
 40
0.1666666666666666
 50
0
 51
90
  0
LINE
  8
_1-8_小物
  6
CONTINUOUS
 62
    4
 10
-46.666667748728486
 20
63.900000000000205
 11
-46.666667748728486
 21
63.400000000000205
  0
ARC
  8
_1-8_小物
  6
CONTINUOUS
 62
    4
 10
-47.333334415395143
 20
63.900000000000205
 40
0.6666666666666666
 50
0
 51
90
  0
LINE
  8
_1-8_小物
  6
CONTINUOUS
 62
    4
 10
-47.333334415395143
 20
64.066666666666862
 11
-49.933334415395166
 21
64.066666666666862
  0
ARC
  8
_1-8_小物
  6
CONTINUOUS
 62
    4
 10
-49.933334415395166
 20
64.566666666666862
 40
0.5
 50
180
 51
270
  0
ARC
  8
_1-8_小物
  6
CONTINUOUS
 62
    4
 10
-47.578690224539855
 20
60.941329593456345
 40
0.4999999999999946
 50
190.63980919808779
 51
350.63980919808859
  0
LINE
  8
_1-8_小物
  6
CONTINUOUS
 62
    4
 10
-47.166667748728486
 20
63.440932613378578
 11
-47.54794423011424
 21
61.127855292971446
  0
ARC
  8
_1-8_小物
  6
CONTINUOUS
 62
    4
 10
-47.580833743534384
 20
61.133276641337403
 40
0.0333333333333333
 50
190.63980919811479
 51
350.63980919805704
  0
ARC
  8
_1-8_小物
  6
CONTINUOUS
 62
    4
 10
-48.055184864080474
 20
62.12368015842813
 40
0.25
 50
10.639809198087802
 51
190.63980919808139
  0
LINE
  8
_1-8_小物
  6
CONTINUOUS
 62
    4
 10
-48.300886689634325
 20
62.077521595630799
 11
-48.07009387564753
 21
60.849012467861627
  0
LINE
  8
_1-8_小物
  6
CONTINUOUS
 62
    4
 10
-46.666667748728486
 20
63.400000000000205
 11
-47.085347523239506
 21
60.86000936796728
  0
LINE
  8
_1-8_小物
  6
CONTINUOUS
 62
    4
 10
-47.333334415395143
 20
64.566666666666862
 11
-50.000001082061857
 21
64.566666666666862
  0
ARC
  8
_1-8_小物
  6
CONTINUOUS
 62
    4
 10
-48.145111191470249
 20
65.307718113462698
 40
0.1666666666666666
 50
267.28051796002211
 51
357.28051796004166
  0
ARC
  8
_1-8_小物
  6
CONTINUOUS
 62
    4
 10
-47.986539907543431
 20
65.133331464118839
 40
0.3333333333333333
 50
267.28051796003172
 51
357.28051796004166
  0
LINE
  8
_1-8_小物
  6
CONTINUOUS
 62
    4
 10
-47.653581974272782
 20
65.117516098701799
 11
-47.637766608855799
 21
65.450474031972362
  0
ARC
  8
_1-8_小物
  6
CONTINUOUS
 62
    4
 10
-47.804245575491109
 20
65.458381714680911
 40
0.1666666666666666
 50
357.28051796004121
 51
177.28051796003194
  0
LINE
  8
_1-8_小物
  6
CONTINUOUS
 62
    4
 10
-47.978632224834854
 20
65.299810430754178
 11
-47.970724542126447
 21
65.466289397389403
  0
LINE
  8
_1-8_小物
  6
CONTINUOUS
 62
    4
 10
-50.10000108206188
 20
64.795148141348051
 11
-50.10000108206188
 21
64.666666666666885
  0
LINE
  8
_1-8_小物
  6
CONTINUOUS
 62
    4
 10
-48.15301887417877
 20
65.141239146827417
 11
-50.084185716644782
 21
65.232968780643006
  0
LINE
  8
_1-8_小物
  6
CONTINUOUS
 62
    4
 10
-50.433334415395166
 20
64.900010847372414
 11
-50.433334415395166
 21
64.566666666666862
  0
ARC
  8
_1-8_小物
  6
CONTINUOUS
 62
    4
 10
-50.000001082061857
 20
64.795148141348051
 40
0.0999999999999999
 50
87.280517960028206
 51
180
  0
ARC
  8
_1-8_小物
  6
CONTINUOUS
 62
    4
 10
-50.10000108206188
 20
64.900010847372414
 40
0.3333333333333333
 50
87.280517960036576
 51
180
  0
LINE
  8
_1-8_小物
  6
CONTINUOUS
 62
    4
 10
-48.002355272960557
 20
64.800373530848276
 11
-49.995256472436722
 21
64.895035521329191
  0
LINE
  8
_1-8_小物
  6
CONTINUOUS
 62
    4
 10
-47.809483038526707
 20
62.169838721225517
 11
-47.613593986941453
 21
61.127122166297738
  0
ENDBLK
  0
BLOCK
  2
-024-_24_
 70
   64
 10
0
 20
0
 30
0
  0
LINE
  8
_1-8_小物
  6
CONTINUOUS
 62
    4
 10
-64.333333333326863
 20
69.233333333333491
 11
-62.333333333326863
 21
69.233333333333491
  0
LINE
  8
_1-8_小物
  6
CONTINUOUS
 62
    4
 10
-62.333333333326976
 20
69.233333333333491
 11
-62.333333333326976
 21
69.166666666666799
  0
LINE
  8
_1-8_小物
  6
CONTINUOUS
 62
    4
 10
-64.333333333326749
 20
69.166666666666799
 11
-63.833333333326749
 21
68.666666666666799
  0
LINE
  8
_1-8_小物
  6
CONTINUOUS
 62
    4
 10
-63.833333333326749
 20
68.666666666666799
 11
-62.833333333326976
 21
68.666666666666799
  0
LINE
  8
_1-8_小物
  6
CONTINUOUS
 62
    4
 10
-62.333333333326976
 20
69.166666666666799
 11
-62.833333333326976
 21
68.666666666666799
  0
LINE
  8
_1-8_小物
  6
CONTINUOUS
 62
    4
 10
-64.333333333326749
 20
69.166666666666799
 11
-64.333333333326749
 21
69.233333333333491
  0
LINE
  8
_1-8_小物
  6
CONTINUOUS
 62
    4
 10
-62.333333333326976
 20
69.166666666666799
 11
-64.333333333326749
 21
69.166666666666799
  0
LINE
  8
_1-8_小物
  6
CONTINUOUS
 62
    4
 10
-62.833333333326976
 20
65.602419988491135
 11
-62.645833333326863
 21
65.494166666666871
  0
LINE
  8
_1-8_小物
  6
CONTINUOUS
 62
    4
 10
-62.645833333326863
 20
65.494166666666871
 11
-62.83333333332692
 21
65.385913344842606
  0
LINE
  8
_1-8_小物
  6
CONTINUOUS
 62
    4
 10
-62.833333333326976
 20
65.602419988491135
 11
-63.833333333326806
 21
65.367419988491179
  0
LINE
  8
_1-8_小物
  6
CONTINUOUS
 62
    4
 10
-64.020833333326863
 20
65.259166666666886
 11
-63.833333333326806
 21
65.367419988491179
  0
LINE
  8
_1-8_小物
  6
CONTINUOUS
 62
    4
 10
-63.833333333326806
 20
65.150913344842621
 11
-64.020833333326863
 21
65.259166666666886
  0
LINE
  8
_1-8_小物
  6
CONTINUOUS
 62
    4
 10
-62.83333333332692
 20
65.385913344842606
 11
-63.833333333326806
 21
65.150913344842621
  0
LINE
  8
_1-8_小物
  6
CONTINUOUS
 62
    4
 10
-62.645833333326863
 20
65.494166666666871
 11
-64.020833333326863
 21
65.259166666666886
  0
LINE
  8
_1-8_小物
  6
CONTINUOUS
 62
    4
 10
-62.833333333326976
 20
66.072419988491134
 11
-62.645833333326863
 21
65.96416666666687
  0
LINE
  8
_1-8_小物
  6
CONTINUOUS
 62
    4
 10
-62.645833333326863
 20
65.96416666666687
 11
-62.83333333332692
 21
65.855913344842577
  0
LINE
  8
_1-8_小物
  6
CONTINUOUS
 62
    4
 10
-62.833333333326976
 20
66.072419988491134
 11
-63.833333333326806
 21
65.837419988491149
  0
LINE
  8
_1-8_小物
  6
CONTINUOUS
 62
    4
 10
-64.020833333326863
 20
65.729166666666885
 11
-63.833333333326806
 21
65.837419988491149
  0
LINE
  8
_1-8_小物
  6
CONTINUOUS
 62
    4
 10
-63.833333333326806
 20
65.62091334484262
 11
-64.020833333326863
 21
65.729166666666885
  0
LINE
  8
_1-8_小物
  6
CONTINUOUS
 62
    4
 10
-62.83333333332692
 20
65.855913344842577
 11
-63.833333333326806
 21
65.62091334484262
  0
LINE
  8
_1-8_小物
  6
CONTINUOUS
 62
    4
 10
-62.645833333326863
 20
65.96416666666687
 11
-64.020833333326863
 21
65.729166666666885
  0
LINE
  8
_1-8_小物
  6
CONTINUOUS
 62
    4
 10
-62.833333333326976
 20
66.542419988491133
 11
-62.645833333326863
 21
66.43416666666684
  0
LINE
  8
_1-8_小物
  6
CONTINUOUS
 62
    4
 10
-62.645833333326863
 20
66.43416666666684
 11
-62.83333333332692
 21
66.325913344842576
  0
LINE
  8
_1-8_小物
  6
CONTINUOUS
 62
    4
 10
-62.833333333326976
 20
66.542419988491133
 11
-63.833333333326806
 21
66.307419988491148
  0
LINE
  8
_1-8_小物
  6
CONTINUOUS
 62
    4
 10
-64.020833333326863
 20
66.199166666666883
 11
-63.833333333326806
 21
66.307419988491148
  0
LINE
  8
_1-8_小物
  6
CONTINUOUS
 62
    4
 10
-63.833333333326806
 20
66.090913344842591
 11
-64.020833333326863
 21
66.199166666666883
  0
LINE
  8
_1-8_小物
  6
CONTINUOUS
 62
    4
 10
-62.83333333332692
 20
66.325913344842576
 11
-63.833333333326806
 21
66.090913344842591
  0
LINE
  8
_1-8_小物
  6
CONTINUOUS
 62
    4
 10
-62.645833333326863
 20
66.43416666666684
 11
-64.020833333326863
 21
66.199166666666883
  0
LINE
  8
_1-8_小物
  6
CONTINUOUS
 62
    4
 10
-62.833333333326976
 20
67.012419988491104
 11
-62.645833333326863
 21
66.904166666666839
  0
LINE
  8
_1-8_小物
  6
CONTINUOUS
 62
    4
 10
-62.645833333326863
 20
66.904166666666839
 11
-62.83333333332692
 21
66.795913344842575
  0
LINE
  8
_1-8_小物
  6
CONTINUOUS
 62
    4
 10
-62.833333333326976
 20
67.012419988491104
 11
-63.833333333326806
 21
66.777419988491147
  0
LINE
  8
_1-8_小物
  6
CONTINUOUS
 62
    4
 10
-64.020833333326863
 20
66.669166666666854
 11
-63.833333333326806
 21
66.777419988491147
  0
LINE
  8
_1-8_小物
  6
CONTINUOUS
 62
    4
 10
-63.833333333326806
 20
66.560913344842589
 11
-64.020833333326863
 21
66.669166666666854
  0
LINE
  8
_1-8_小物
  6
CONTINUOUS
 62
    4
 10
-62.83333333332692
 20
66.795913344842575
 11
-63.833333333326806
 21
66.560913344842589
  0
LINE
  8
_1-8_小物
  6
CONTINUOUS
 62
    4
 10
-62.645833333326863
 20
66.904166666666839
 11
-64.020833333326863
 21
66.669166666666854
  0
LINE
  8
_1-8_小物
  6
CONTINUOUS
 62
    4
 10
-62.833333333326976
 20
67.482419988491102
 11
-62.645833333326863
 21
67.374166666666838
  0
LINE
  8
_1-8_小物
  6
CONTINUOUS
 62
    4
 10
-62.645833333326863
 20
67.374166666666838
 11
-62.83333333332692
 21
67.265913344842545
  0
LINE
  8
_1-8_小物
  6
CONTINUOUS
 62
    4
 10
-62.833333333326976
 20
67.482419988491102
 11
-63.833333333326806
 21
67.247419988491117
  0
LINE
  8
_1-8_小物
  6
CONTINUOUS
 62
    4
 10
-64.020833333326863
 20
67.139166666666853
 11
-63.833333333326806
 21
67.247419988491117
  0
LINE
  8
_1-8_小物
  6
CONTINUOUS
 62
    4
 10
-63.833333333326806
 20
67.030913344842588
 11
-64.020833333326863
 21
67.139166666666853
  0
LINE
  8
_1-8_小物
  6
CONTINUOUS
 62
    4
 10
-62.83333333332692
 20
67.265913344842545
 11
-63.833333333326806
 21
67.030913344842588
  0
LINE
  8
_1-8_小物
  6
CONTINUOUS
 62
    4
 10
-62.645833333326863
 20
67.374166666666838
 11
-64.020833333326863
 21
67.139166666666853
  0
LINE
  8
_1-8_小物
  6
CONTINUOUS
 62
    4
 10
-62.833333333326976
 20
67.952419988491101
 11
-62.645833333326863
 21
67.844166666666808
  0
LINE
  8
_1-8_小物
  6
CONTINUOUS
 62
    4
 10
-62.645833333326863
 20
67.844166666666808
 11
-62.83333333332692
 21
67.735913344842544
  0
LINE
  8
_1-8_小物
  6
CONTINUOUS
 62
    4
 10
-62.833333333326976
 20
67.952419988491101
 11
-63.833333333326806
 21
67.717419988491116
  0
LINE
  8
_1-8_小物
  6
CONTINUOUS
 62
    4
 10
-64.020833333326863
 20
67.609166666666852
 11
-63.833333333326806
 21
67.717419988491116
  0
LINE
  8
_1-8_小物
  6
CONTINUOUS
 62
    4
 10
-63.833333333326806
 20
67.500913344842559
 11
-64.020833333326863
 21
67.609166666666852
  0
LINE
  8
_1-8_小物
  6
CONTINUOUS
 62
    4
 10
-62.83333333332692
 20
67.735913344842544
 11
-63.833333333326806
 21
67.500913344842559
  0
LINE
  8
_1-8_小物
  6
CONTINUOUS
 62
    4
 10
-62.645833333326863
 20
67.844166666666808
 11
-64.020833333326863
 21
67.609166666666852
  0
LINE
  8
_1-8_小物
  6
CONTINUOUS
 62
    4
 10
-62.833333333326976
 20
68.422419988491072
 11
-62.645833333326863
 21
68.314166666666807
  0
LINE
  8
_1-8_小物
  6
CONTINUOUS
 62
    4
 10
-62.645833333326863
 20
68.314166666666807
 11
-62.83333333332692
 21
68.205913344842543
  0
LINE
  8
_1-8_小物
  6
CONTINUOUS
 62
    4
 10
-62.833333333326976
 20
68.422419988491072
 11
-63.833333333326806
 21
68.187419988491115
  0
LINE
  8
_1-8_小物
  6
CONTINUOUS
 62
    4
 10
-64.020833333326863
 20
68.079166666666822
 11
-63.833333333326806
 21
68.187419988491115
  0
LINE
  8
_1-8_小物
  6
CONTINUOUS
 62
    4
 10
-63.833333333326806
 20
67.970913344842558
 11
-64.020833333326863
 21
68.079166666666822
  0
LINE
  8
_1-8_小物
  6
CONTINUOUS
 62
    4
 10
-62.83333333332692
 20
68.205913344842543
 11
-63.833333333326806
 21
67.970913344842558
  0
LINE
  8
_1-8_小物
  6
CONTINUOUS
 62
    4
 10
-62.645833333326863
 20
68.314166666666807
 11
-64.020833333326863
 21
68.079166666666822
  0
LINE
  8
_1-8_小物
  6
CONTINUOUS
 62
    4
 10
-63.833333333326749
 20
65.150913344842621
 11
-63.833333333326749
 21
64.89741998849118
  0
LINE
  8
_1-8_小物
  6
CONTINUOUS
 62
    4
 10
-63.833333333326749
 20
65.62091334484262
 11
-63.833333333326749
 21
65.367419988491179
  0
LINE
  8
_1-8_小物
  6
CONTINUOUS
 62
    4
 10
-63.833333333326749
 20
66.090913344842591
 11
-63.833333333326749
 21
65.837419988491206
  0
LINE
  8
_1-8_小物
  6
CONTINUOUS
 62
    4
 10
-63.833333333326749
 20
66.560913344842589
 11
-63.833333333326749
 21
66.307419988491148
  0
LINE
  8
_1-8_小物
  6
CONTINUOUS
 62
    4
 10
-63.833333333326749
 20
67.030913344842588
 11
-63.833333333326749
 21
66.777419988491147
  0
LINE
  8
_1-8_小物
  6
CONTINUOUS
 62
    4
 10
-63.833333333326749
 20
67.500913344842559
 11
-63.833333333326749
 21
67.247419988491117
  0
LINE
  8
_1-8_小物
  6
CONTINUOUS
 62
    4
 10
-63.833333333326749
 20
68.666666666666799
 11
-63.833333333326749
 21
68.187419988491115
  0
LINE
  8
_1-8_小物
  6
CONTINUOUS
 62
    4
 10
-63.833333333326749
 20
67.970913344842558
 11
-63.833333333326749
 21
67.717419988491145
  0
LINE
  8
_1-8_小物
  6
CONTINUOUS
 62
    4
 10
-62.833333333326976
 20
68.666666666666799
 11
-62.833333333326976
 21
68.422419988491072
  0
LINE
  8
_1-8_小物
  6
CONTINUOUS
 62
    4
 10
-62.833333333326976
 20
68.205913344842486
 11
-62.833333333326976
 21
67.952419988491101
  0
LINE
  8
_1-8_小物
  6
CONTINUOUS
 62
    4
 10
-62.833333333326976
 20
67.735913344842544
 11
-62.833333333326976
 21
67.482419988491102
  0
LINE
  8
_1-8_小物
  6
CONTINUOUS
 62
    4
 10
-62.833333333326976
 20
67.265913344842517
 11
-62.833333333326976
 21
67.012419988491104
  0
LINE
  8
_1-8_小物
  6
CONTINUOUS
 62
    4
 10
-62.833333333326976
 20
66.795913344842575
 11
-62.833333333326976
 21
66.542419988491133
  0
LINE
  8
_1-8_小物
  6
CONTINUOUS
 62
    4
 10
-62.833333333326976
 20
66.325913344842576
 11
-62.833333333326976
 21
66.072419988491134
  0
LINE
  8
_1-8_小物
  6
CONTINUOUS
 62
    4
 10
-62.833333333326976
 20
65.855913344842548
 11
-62.833333333326976
 21
65.602419988491135
  0
LINE
  8
_1-8_小物
  6
CONTINUOUS
 62
    4
 10
-62.766666666660313
 20
64.893333333333487
 11
-62.766666666660313
 21
63.896666666666817
  0
LINE
  8
_1-8_小物
  6
CONTINUOUS
 62
    4
 10
-63.899999999993412
 20
64.893333333333487
 11
-62.766666666660313
 21
64.893333333333487
  0
LINE
  8
_1-8_小物
  6
CONTINUOUS
 62
    4
 10
-63.899999999993412
 20
64.893333333333487
 11
-63.899999999993412
 21
63.896666666666817
  0
LINE
  8
_1-8_小物
  6
CONTINUOUS
 62
    4
 10
-63.899999999993412
 20
63.896666666666817
 11
-63.333333333326863
 21
63.569501514126102
  0
LINE
  8
_1-8_小物
  6
CONTINUOUS
 62
    4
 10
-62.766666666660313
 20
63.896666666666817
 11
-63.333333333326863
 21
63.569501514126102
  0
LINE
  8
_1-8_小物
  6
CONTINUOUS
 62
    4
 10
-63.333333333326863
 20
63.684971567964027
 11
-62.866666666660223
 21
63.954401693585794
  0
LINE
  8
_1-8_小物
  6
CONTINUOUS
 62
    4
 10
-62.866666666660223
 20
64.893333333333487
 11
-62.866666666660223
 21
63.954401693585794
  0
LINE
  8
_1-8_小物
  6
CONTINUOUS
 62
    4
 10
-63.333333333326863
 20
63.684971567964027
 11
-63.120266551635751
 21
64.893333333333487
  0
LINE
  8
_1-8_小物
  6
CONTINUOUS
 62
    4
 10
-62.833333333326976
 20
65.38591334484255
 11
-62.833333333326976
 21
64.893333333333487
  0
LINE
  8
_1-8_小物
  6
CONTINUOUS
 62
    4
 10
-63.333333333326863
 20
63.569501514126102
 11
-63.333333333326863
 21
63.684971567964027
  0
LINE
  8
_1-8_小物
  6
CENTER2
 62
    4
 10
-63.333333333326863
 20
69.566666666666833
 11
-63.333333333326863
 21
63.236168180792788
  0
ENDBLK
  0
BLOCK
  2
-025-_25_
 70
   64
 10
0
 20
0
 30
0
  0
LINE
  8
_1-8_小物
  6
CONTINUOUS
 62
    4
 10
-137.66666666667288
 20
69.233333333333491
 11
-135.66666666667288
 21
69.233333333333491
  0
LINE
  8
_1-8_小物
  6
CONTINUOUS
 62
    4
 10
-135.666666666673
 20
69.233333333333491
 11
-135.666666666673
 21
69.166666666666799
  0
LINE
  8
_1-8_小物
  6
CONTINUOUS
 62
    4
 10
-137.66666666667277
 20
69.166666666666799
 11
-137.16666666667277
 21
68.666666666666799
  0
LINE
  8
_1-8_小物
  6
CONTINUOUS
 62
    4
 10
-137.16666666667277
 20
68.666666666666799
 11
-136.166666666673
 21
68.666666666666799
  0
LINE
  8
_1-8_小物
  6
CONTINUOUS
 62
    4
 10
-135.666666666673
 20
69.166666666666799
 11
-136.166666666673
 21
68.666666666666799
  0
LINE
  8
_1-8_小物
  6
CONTINUOUS
 62
    4
 10
-137.66666666667277
 20
69.166666666666799
 11
-137.66666666667277
 21
69.233333333333491
  0
LINE
  8
_1-8_小物
  6
CONTINUOUS
 62
    4
 10
-135.666666666673
 20
69.166666666666799
 11
-137.66666666667277
 21
69.166666666666799
  0
LINE
  8
_1-8_小物
  6
CONTINUOUS
 62
    4
 10
-136.166666666673
 20
65.602419988491135
 11
-135.97916666667288
 21
65.494166666666871
  0
LINE
  8
_1-8_小物
  6
CONTINUOUS
 62
    4
 10
-135.97916666667288
 20
65.494166666666871
 11
-136.16666666667294
 21
65.385913344842606
  0
LINE
  8
_1-8_小物
  6
CONTINUOUS
 62
    4
 10
-136.166666666673
 20
65.602419988491135
 11
-137.16666666667282
 21
65.367419988491179
  0
LINE
  8
_1-8_小物
  6
CONTINUOUS
 62
    4
 10
-137.35416666667288
 20
65.259166666666886
 11
-137.16666666667282
 21
65.367419988491179
  0
LINE
  8
_1-8_小物
  6
CONTINUOUS
 62
    4
 10
-137.16666666667282
 20
65.150913344842621
 11
-137.35416666667288
 21
65.259166666666886
  0
LINE
  8
_1-8_小物
  6
CONTINUOUS
 62
    4
 10
-136.16666666667294
 20
65.385913344842606
 11
-137.16666666667282
 21
65.150913344842621
  0
LINE
  8
_1-8_小物
  6
CONTINUOUS
 62
    4
 10
-135.97916666667288
 20
65.494166666666871
 11
-137.35416666667288
 21
65.259166666666886
  0
LINE
  8
_1-8_小物
  6
CONTINUOUS
 62
    4
 10
-136.166666666673
 20
66.072419988491134
 11
-135.97916666667288
 21
65.96416666666687
  0
LINE
  8
_1-8_小物
  6
CONTINUOUS
 62
    4
 10
-135.97916666667288
 20
65.96416666666687
 11
-136.16666666667294
 21
65.855913344842577
  0
LINE
  8
_1-8_小物
  6
CONTINUOUS
 62
    4
 10
-136.166666666673
 20
66.072419988491134
 11
-137.16666666667282
 21
65.837419988491149
  0
LINE
  8
_1-8_小物
  6
CONTINUOUS
 62
    4
 10
-137.35416666667288
 20
65.729166666666885
 11
-137.16666666667282
 21
65.837419988491149
  0
LINE
  8
_1-8_小物
  6
CONTINUOUS
 62
    4
 10
-137.16666666667282
 20
65.62091334484262
 11
-137.35416666667288
 21
65.729166666666885
  0
LINE
  8
_1-8_小物
  6
CONTINUOUS
 62
    4
 10
-136.16666666667294
 20
65.855913344842577
 11
-137.16666666667282
 21
65.62091334484262
  0
LINE
  8
_1-8_小物
  6
CONTINUOUS
 62
    4
 10
-135.97916666667288
 20
65.96416666666687
 11
-137.35416666667288
 21
65.729166666666885
  0
LINE
  8
_1-8_小物
  6
CONTINUOUS
 62
    4
 10
-136.166666666673
 20
66.542419988491133
 11
-135.97916666667288
 21
66.43416666666684
  0
LINE
  8
_1-8_小物
  6
CONTINUOUS
 62
    4
 10
-135.97916666667288
 20
66.43416666666684
 11
-136.16666666667294
 21
66.325913344842576
  0
LINE
  8
_1-8_小物
  6
CONTINUOUS
 62
    4
 10
-136.166666666673
 20
66.542419988491133
 11
-137.16666666667282
 21
66.307419988491148
  0
LINE
  8
_1-8_小物
  6
CONTINUOUS
 62
    4
 10
-137.35416666667288
 20
66.199166666666883
 11
-137.16666666667282
 21
66.307419988491148
  0
LINE
  8
_1-8_小物
  6
CONTINUOUS
 62
    4
 10
-137.16666666667282
 20
66.090913344842591
 11
-137.35416666667288
 21
66.199166666666883
  0
LINE
  8
_1-8_小物
  6
CONTINUOUS
 62
    4
 10
-136.16666666667294
 20
66.325913344842576
 11
-137.16666666667282
 21
66.090913344842591
  0
LINE
  8
_1-8_小物
  6
CONTINUOUS
 62
    4
 10
-135.97916666667288
 20
66.43416666666684
 11
-137.35416666667288
 21
66.199166666666883
  0
LINE
  8
_1-8_小物
  6
CONTINUOUS
 62
    4
 10
-136.166666666673
 20
67.012419988491104
 11
-135.97916666667288
 21
66.904166666666839
  0
LINE
  8
_1-8_小物
  6
CONTINUOUS
 62
    4
 10
-135.97916666667288
 20
66.904166666666839
 11
-136.16666666667294
 21
66.795913344842575
  0
LINE
  8
_1-8_小物
  6
CONTINUOUS
 62
    4
 10
-136.166666666673
 20
67.012419988491104
 11
-137.16666666667282
 21
66.777419988491147
  0
LINE
  8
_1-8_小物
  6
CONTINUOUS
 62
    4
 10
-137.35416666667288
 20
66.669166666666854
 11
-137.16666666667282
 21
66.777419988491147
  0
LINE
  8
_1-8_小物
  6
CONTINUOUS
 62
    4
 10
-137.16666666667282
 20
66.560913344842589
 11
-137.35416666667288
 21
66.669166666666854
  0
LINE
  8
_1-8_小物
  6
CONTINUOUS
 62
    4
 10
-136.16666666667294
 20
66.795913344842575
 11
-137.16666666667282
 21
66.560913344842589
  0
LINE
  8
_1-8_小物
  6
CONTINUOUS
 62
    4
 10
-135.97916666667288
 20
66.904166666666839
 11
-137.35416666667288
 21
66.669166666666854
  0
LINE
  8
_1-8_小物
  6
CONTINUOUS
 62
    4
 10
-136.166666666673
 20
67.482419988491102
 11
-135.97916666667288
 21
67.374166666666838
  0
LINE
  8
_1-8_小物
  6
CONTINUOUS
 62
    4
 10
-135.97916666667288
 20
67.374166666666838
 11
-136.16666666667294
 21
67.265913344842545
  0
LINE
  8
_1-8_小物
  6
CONTINUOUS
 62
    4
 10
-136.166666666673
 20
67.482419988491102
 11
-137.16666666667282
 21
67.247419988491117
  0
LINE
  8
_1-8_小物
  6
CONTINUOUS
 62
    4
 10
-137.35416666667288
 20
67.139166666666853
 11
-137.16666666667282
 21
67.247419988491117
  0
LINE
  8
_1-8_小物
  6
CONTINUOUS
 62
    4
 10
-137.16666666667282
 20
67.030913344842588
 11
-137.35416666667288
 21
67.139166666666853
  0
LINE
  8
_1-8_小物
  6
CONTINUOUS
 62
    4
 10
-136.16666666667294
 20
67.265913344842545
 11
-137.16666666667282
 21
67.030913344842588
  0
LINE
  8
_1-8_小物
  6
CONTINUOUS
 62
    4
 10
-135.97916666667288
 20
67.374166666666838
 11
-137.35416666667288
 21
67.139166666666853
  0
LINE
  8
_1-8_小物
  6
CONTINUOUS
 62
    4
 10
-136.166666666673
 20
67.952419988491101
 11
-135.97916666667288
 21
67.844166666666808
  0
LINE
  8
_1-8_小物
  6
CONTINUOUS
 62
    4
 10
-135.97916666667288
 20
67.844166666666808
 11
-136.16666666667294
 21
67.735913344842544
  0
LINE
  8
_1-8_小物
  6
CONTINUOUS
 62
    4
 10
-136.166666666673
 20
67.952419988491101
 11
-137.16666666667282
 21
67.717419988491116
  0
LINE
  8
_1-8_小物
  6
CONTINUOUS
 62
    4
 10
-137.35416666667288
 20
67.609166666666852
 11
-137.16666666667282
 21
67.717419988491116
  0
LINE
  8
_1-8_小物
  6
CONTINUOUS
 62
    4
 10
-137.16666666667282
 20
67.500913344842559
 11
-137.35416666667288
 21
67.609166666666852
  0
LINE
  8
_1-8_小物
  6
CONTINUOUS
 62
    4
 10
-136.16666666667294
 20
67.735913344842544
 11
-137.16666666667282
 21
67.500913344842559
  0
LINE
  8
_1-8_小物
  6
CONTINUOUS
 62
    4
 10
-135.97916666667288
 20
67.844166666666808
 11
-137.35416666667288
 21
67.609166666666852
  0
LINE
  8
_1-8_小物
  6
CONTINUOUS
 62
    4
 10
-136.166666666673
 20
68.422419988491072
 11
-135.97916666667288
 21
68.314166666666807
  0
LINE
  8
_1-8_小物
  6
CONTINUOUS
 62
    4
 10
-135.97916666667288
 20
68.314166666666807
 11
-136.16666666667294
 21
68.205913344842543
  0
LINE
  8
_1-8_小物
  6
CONTINUOUS
 62
    4
 10
-136.166666666673
 20
68.422419988491072
 11
-137.16666666667282
 21
68.187419988491115
  0
LINE
  8
_1-8_小物
  6
CONTINUOUS
 62
    4
 10
-137.35416666667288
 20
68.079166666666822
 11
-137.16666666667282
 21
68.187419988491115
  0
LINE
  8
_1-8_小物
  6
CONTINUOUS
 62
    4
 10
-137.16666666667282
 20
67.970913344842558
 11
-137.35416666667288
 21
68.079166666666822
  0
LINE
  8
_1-8_小物
  6
CONTINUOUS
 62
    4
 10
-136.16666666667294
 20
68.205913344842543
 11
-137.16666666667282
 21
67.970913344842558
  0
LINE
  8
_1-8_小物
  6
CONTINUOUS
 62
    4
 10
-135.97916666667288
 20
68.314166666666807
 11
-137.35416666667288
 21
68.079166666666822
  0
LINE
  8
_1-8_小物
  6
CONTINUOUS
 62
    4
 10
-137.16666666667277
 20
65.150913344842621
 11
-137.16666666667277
 21
64.89741998849118
  0
LINE
  8
_1-8_小物
  6
CONTINUOUS
 62
    4
 10
-137.16666666667277
 20
65.62091334484262
 11
-137.16666666667277
 21
65.367419988491179
  0
LINE
  8
_1-8_小物
  6
CONTINUOUS
 62
    4
 10
-137.16666666667277
 20
66.090913344842591
 11
-137.16666666667277
 21
65.837419988491206
  0
LINE
  8
_1-8_小物
  6
CONTINUOUS
 62
    4
 10
-137.16666666667277
 20
66.560913344842589
 11
-137.16666666667277
 21
66.307419988491148
  0
LINE
  8
_1-8_小物
  6
CONTINUOUS
 62
    4
 10
-137.16666666667277
 20
67.030913344842588
 11
-137.16666666667277
 21
66.777419988491147
  0
LINE
  8
_1-8_小物
  6
CONTINUOUS
 62
    4
 10
-137.16666666667277
 20
67.500913344842559
 11
-137.16666666667277
 21
67.247419988491117
  0
LINE
  8
_1-8_小物
  6
CONTINUOUS
 62
    4
 10
-137.16666666667277
 20
68.666666666666799
 11
-137.16666666667277
 21
68.187419988491115
  0
LINE
  8
_1-8_小物
  6
CONTINUOUS
 62
    4
 10
-137.16666666667277
 20
67.970913344842558
 11
-137.16666666667277
 21
67.717419988491145
  0
LINE
  8
_1-8_小物
  6
CONTINUOUS
 62
    4
 10
-136.166666666673
 20
68.666666666666799
 11
-136.166666666673
 21
68.422419988491072
  0
LINE
  8
_1-8_小物
  6
CONTINUOUS
 62
    4
 10
-136.166666666673
 20
68.205913344842486
 11
-136.166666666673
 21
67.952419988491101
  0
LINE
  8
_1-8_小物
  6
CONTINUOUS
 62
    4
 10
-136.166666666673
 20
67.735913344842544
 11
-136.166666666673
 21
67.482419988491102
  0
LINE
  8
_1-8_小物
  6
CONTINUOUS
 62
    4
 10
-136.166666666673
 20
67.265913344842517
 11
-136.166666666673
 21
67.012419988491104
  0
LINE
  8
_1-8_小物
  6
CONTINUOUS
 62
    4
 10
-136.166666666673
 20
66.795913344842575
 11
-136.166666666673
 21
66.542419988491133
  0
LINE
  8
_1-8_小物
  6
CONTINUOUS
 62
    4
 10
-136.166666666673
 20
66.325913344842576
 11
-136.166666666673
 21
66.072419988491134
  0
LINE
  8
_1-8_小物
  6
CONTINUOUS
 62
    4
 10
-136.166666666673
 20
65.855913344842548
 11
-136.166666666673
 21
65.602419988491135
  0
LINE
  8
_1-8_小物
  6
CONTINUOUS
 62
    4
 10
-136.10000000000633
 20
64.893333333333487
 11
-136.10000000000633
 21
63.896666666666817
  0
LINE
  8
_1-8_小物
  6
CONTINUOUS
 62
    4
 10
-137.23333333333943
 20
64.893333333333487
 11
-136.10000000000633
 21
64.893333333333487
  0
LINE
  8
_1-8_小物
  6
CONTINUOUS
 62
    4
 10
-137.23333333333943
 20
64.893333333333487
 11
-137.23333333333943
 21
63.896666666666817
  0
LINE
  8
_1-8_小物
  6
CONTINUOUS
 62
    4
 10
-137.23333333333943
 20
63.896666666666817
 11
-136.66666666667288
 21
63.569501514126102
  0
LINE
  8
_1-8_小物
  6
CONTINUOUS
 62
    4
 10
-136.10000000000633
 20
63.896666666666817
 11
-136.66666666667288
 21
63.569501514126102
  0
LINE
  8
_1-8_小物
  6
CONTINUOUS
 62
    4
 10
-136.66666666667288
 20
63.684971567964027
 11
-136.20000000000624
 21
63.954401693585794
  0
LINE
  8
_1-8_小物
  6
CONTINUOUS
 62
    4
 10
-136.20000000000624
 20
64.893333333333487
 11
-136.20000000000624
 21
63.954401693585794
  0
LINE
  8
_1-8_小物
  6
CONTINUOUS
 62
    4
 10
-136.66666666667288
 20
63.684971567964027
 11
-136.45359988498177
 21
64.893333333333487
  0
LINE
  8
_1-8_小物
  6
CONTINUOUS
 62
    4
 10
-136.166666666673
 20
65.38591334484255
 11
-136.166666666673
 21
64.893333333333487
  0
LINE
  8
_1-8_小物
  6
CONTINUOUS
 62
    4
 10
-136.66666666667288
 20
63.569501514126102
 11
-136.66666666667288
 21
63.684971567964027
  0
LINE
  8
_1-8_小物
  6
CENTER2
 62
    4
 10
-136.66666666667288
 20
69.566666666666833
 11
-136.66666666667288
 21
63.236168180792788
  0
ENDBLK
  0
BLOCK
  2
-026-_26_
 70
   64
 10
0
 20
0
 30
0
  0
LINE
  8
_1-7_カバ__
  6
CENTER2
 62
    4
 10
62.23530334188888
 20
71.900000079466622
 11
62.23530334188888
 21
66.800000079466628
  0
ARC
  8
_1-7_カバ__
  6
CONTINUOUS
 62
    4
 10
54.068636675222194
 20
69.400000079466622
 40
0.5
 50
180
 51
270
  0
ARC
  8
_1-7_カバ__
  6
CONTINUOUS
 62
    4
 10
54.068636675222194
 20
69.400000079466622
 40
0.1666666666666666
 50
180
 51
270
  0
LINE
  8
_1-7_カバ__
  6
CONTINUOUS
 62
    4
 10
132.66863667465037
 20
65.066666746133279
 11
132.66863667465037
 21
68.733333412799936
  0
ARC
  8
_1-7_カバ__
  6
CONTINUOUS
 62
    4
 10
132.16863667465037
 20
68.733333412799936
 40
0.1666666666666666
 50
0
 51
90
  0
LINE
  8
_1-7_カバ__
  6
CONTINUOUS
 62
    4
 10
132.33530334131711
 20
65.066666746133279
 11
132.33530334131711
 21
68.733333412799936
  0
ARC
  8
_1-7_カバ__
  6
CONTINUOUS
 62
    4
 10
132.16863667465037
 20
65.066666746133279
 40
0.1666666666666666
 50
270
 51
0
  0
ARC
  8
_1-7_カバ__
  6
CONTINUOUS
 62
    4
 10
132.16863667465037
 20
68.733333412799936
 40
0.5
 50
0
 51
90
  0
ARC
  8
_1-7_カバ__
  6
CONTINUOUS
 62
    4
 10
132.16863667465037
 20
65.066666746133279
 40
0.5
 50
270
 51
0
  0
LINE
  8
_1-7_カバ__
  6
CONTINUOUS
 62
    4
 10
129.33530334131734
 20
64.566666746133279
 11
129.33530334131734
 21
64.900000079466622
  0
LINE
  8
_1-7_カバ__
  6
CONTINUOUS
 62
    4
 10
132.16863667465037
 20
64.566666746133279
 11
129.33530334131734
 21
64.566666746133279
  0
LINE
  8
_1-7_カバ__
  6
CONTINUOUS
 62
    4
 10
132.16863667465037
 20
64.900000079466622
 11
129.33530334131734
 21
64.900000079466622
  0
LINE
  8
_1-7_カバ__
  6
CENTER2
 62
    4
 10
116.00197000798386
 20
71.900000079466622
 11
116.00197000798386
 21
66.800000079466628
  0
LINE
  8
_1-7_カバ__
  6
CONTINUOUS
 62
    4
 10
54.068636675222194
 20
69.233333412799936
 11
132.16863667465037
 21
69.233333412799936
  0
LINE
  8
_1-7_カバ__
  6
CONTINUOUS
 62
    4
 10
54.068636675222194
 20
68.900000079466622
 11
132.16863667465037
 21
68.900000079466622
  0
LINE
  8
_1-7_カバ__
  6
CONTINUOUS
 62
    4
 10
49.735303341888709
 20
84.666666746133302
 11
53.401970008555566
 21
84.666666746133302
  0
ARC
  8
_1-7_カバ__
  6
CONTINUOUS
 62
    4
 10
49.735303341888709
 20
84.166666746133302
 40
0.5
 50
90
 51
180
  0
ARC
  8
_1-7_カバ__
  6
CONTINUOUS
 62
    4
 10
53.401970008555566
 20
84.166666746133302
 40
0.5
 50
0
 51
90
  0
ARC
  8
_1-7_カバ__
  6
CONTINUOUS
 62
    4
 10
49.735303341888709
 20
84.166666746133302
 40
0.1666666666666666
 50
90
 51
180
  0
LINE
  8
_1-7_カバ__
  6
CONTINUOUS
 62
    4
 10
49.735303341888709
 20
84.333333412799931
 11
53.401970008555566
 21
84.333333412799931
  0
ARC
  8
_1-7_カバ__
  6
CONTINUOUS
 62
    4
 10
53.401970008555566
 20
84.166666746133302
 40
0.1666666666666666
 50
0
 51
90
  0
LINE
  8
_1-7_カバ__
  6
CONTINUOUS
 62
    4
 10
49.235303341888709
 20
81.333333412799931
 11
49.568636675222081
 21
81.333333412799931
  0
LINE
  8
_1-7_カバ__
  6
CONTINUOUS
 62
    4
 10
49.235303341888709
 20
84.166666746133302
 11
49.235303341888709
 21
81.333333412799931
  0
LINE
  8
_1-7_カバ__
  6
CONTINUOUS
 62
    4
 10
49.568636675222081
 20
84.166666746133302
 11
49.568636675222081
 21
81.333333412799931
  0
LINE
  8
_1-7_カバ__
  6
CONTINUOUS
 62
    4
 10
53.901970008555566
 20
84.166666746133302
 11
53.901970008555566
 21
69.400012785318381
  0
LINE
  8
_1-7_カバ__
  6
CONTINUOUS
 62
    4
 10
53.568636675222194
 20
84.166666746133302
 11
53.568636675222194
 21
69.400012785318381
  0
LINE
  8
_1-7_カバ__
  6
DASHED1
 62
    4
 10
116.75197000798386
 20
68.900000079466622
 11
117.08530334131711
 21
69.233333412799936
  0
LINE
  8
_1-7_カバ__
  6
DASHED1
 62
    4
 10
115.25197000798386
 20
68.900000079466622
 11
114.91863667465054
 21
69.233333412799936
  0
LINE
  8
_1-7_カバ__
  6
DASHED1
 62
    4
 10
62.98530334188888
 20
68.900000079466622
 11
63.318636675222194
 21
69.233333412799936
  0
LINE
  8
_1-7_カバ__
  6
DASHED1
 62
    4
 10
61.48530334188888
 20
68.900000079466622
 11
61.151970008555566
 21
69.233333412799936
  0
ENDBLK
  0
BLOCK
  2
-027-_27_
 70
   64
 10
0
 20
0
 30
0
  0
ARC
  8
_1-8_小物
  6
CONTINUOUS
 62
    4
 10
49.335303341888789
 20
81.333320706948172
 40
0.0999999999999999
 50
180
 51
270
  0
LINE
  8
_1-8_小物
  6
CONTINUOUS
 62
    4
 10
48.568636675222365
 20
84.166654040281571
 11
48.109569288600767
 21
84.166654040281628
  0
ARC
  8
_1-8_小物
  6
CONTINUOUS
 62
    4
 10
48.568636675222365
 20
83.999987373614914
 40
0.1666666666666666
 50
0
 51
90
  0
LINE
  8
_1-8_小物
  6
CONTINUOUS
 62
    4
 10
48.568636675222422
 20
84.666654040281571
 11
48.068636675222422
 21
84.666654040281628
  0
ARC
  8
_1-8_小物
  6
CONTINUOUS
 62
    4
 10
48.568636675222365
 20
83.999987373614914
 40
0.6666666666666666
 50
0
 51
89.999999999995111
  0
LINE
  8
_1-8_小物
  6
CONTINUOUS
 62
    4
 10
48.735303341888994
 20
83.999987373614886
 11
48.735303341888709
 21
81.399987373614891
  0
ARC
  8
_1-8_小物
  6
CONTINUOUS
 62
    4
 10
49.235303341888709
 20
81.399987373614863
 40
0.5
 50
179.99999999999349
 51
269.99999999999346
  0
ARC
  8
_1-8_小物
  6
CONTINUOUS
 62
    4
 10
45.609966268678477
 20
83.754631564470543
 40
0.4999999999999946
 50
99.360190801901751
 51
259.36019080190198
  0
LINE
  8
_1-8_小物
  6
CONTINUOUS
 62
    4
 10
48.109569288600767
 20
84.166654040281628
 11
45.79649196819355
 21
83.78537755889613
  0
ARC
  8
_1-8_小物
  6
CONTINUOUS
 62
    4
 10
45.801913316559535
 20
83.752488045476071
 40
0.0333333333333333
 50
99.360190801950935
 51
259.36019080183718
  0
ARC
  8
_1-8_小物
  6
CONTINUOUS
 62
    4
 10
46.792316833650148
 20
83.278136924929868
 40
0.25
 50
259.36019080191221
 51
79.360190801911017
  0
LINE
  8
_1-8_小物
  6
CONTINUOUS
 62
    4
 10
46.746158270852845
 20
83.032435099376016
 11
45.517649143083673
 21
83.263227913362925
  0
LINE
  8
_1-8_小物
  6
CONTINUOUS
 62
    4
 10
48.068636675222422
 20
84.666654040281628
 11
45.528646043189525
 21
84.247974265770978
  0
LINE
  8
_1-8_小物
  6
CONTINUOUS
 62
    4
 10
49.235303341888994
 20
83.999987373614829
 11
49.235303341888709
 21
81.333320706948172
  0
ARC
  8
_1-8_小物
  6
CONTINUOUS
 62
    4
 10
49.976354788684773
 20
83.188210597539751
 40
0.1666666666666666
 50
92.719482039948559
 51
182.7194820399676
  0
ARC
  8
_1-8_小物
  6
CONTINUOUS
 62
    4
 10
49.801968139340943
 20
83.346781881466484
 40
0.3333333333333333
 50
92.719482039948559
 51
182.71948203995345
  0
LINE
  8
_1-8_小物
  6
CONTINUOUS
 62
    4
 10
49.786152773923902
 20
83.679739814737133
 11
50.119110707194466
 21
83.695555180154145
  0
ARC
  8
_1-8_小物
  6
CONTINUOUS
 62
    4
 10
50.127018389903014
 20
83.529076213518834
 40
0.1666666666666666
 50
272.71948203994856
 51
92.719482039948559
  0
LINE
  8
_1-8_小物
  6
CONTINUOUS
 62
    4
 10
49.968447105976281
 20
83.354689564175061
 11
50.134926072611506
 21
83.362597246883524
  0
LINE
  8
_1-8_小物
  6
CONTINUOUS
 62
    4
 10
49.463784816569841
 20
81.233320706948149
 11
49.335303341888675
 21
81.233320706948177
  0
LINE
  8
_1-8_小物
  6
CONTINUOUS
 62
    4
 10
49.809875822049435
 20
83.180302914831174
 11
49.901605455864853
 21
81.249136072365161
  0
LINE
  8
_1-8_小物
  6
CONTINUOUS
 62
    4
 10
49.568647522594233
 20
80.899987373614806
 11
49.235303341888653
 21
80.899987373614863
  0
ARC
  8
_1-8_小物
  6
CONTINUOUS
 62
    4
 10
49.463784816569841
 20
81.333320706948143
 40
0.0999999999999999
 50
270
 51
2.7194820399554942
  0
ARC
  8
_1-8_小物
  6
CONTINUOUS
 62
    4
 10
49.568647522594233
 20
81.233320706948149
 40
0.3333333333333333
 50
270
 51
2.7194820399539026
  0
LINE
  8
_1-8_小物
  6
CONTINUOUS
 62
    4
 10
49.469010206070379
 20
83.330966516049472
 11
49.563672196551067
 21
81.33806531657325
  0
LINE
  8
_1-8_小物
  6
CONTINUOUS
 62
    4
 10
46.83847539644762
 20
83.523838750483634
 11
45.795758841519898
 21
83.719727802068917
  0
ENDBLK
  0
BLOCK
  2
-028-_28_
 70
   64
 10
0
 20
0
 30
0
  0
ARC
  8
_1-8_小物
  6
CONTINUOUS
 62
    4
 10
129.3353033361833
 20
64.666666746133274
 40
0.0999999999999999
 50
180
 51
270
  0
LINE
  8
_1-8_小物
  6
CONTINUOUS
 62
    4
 10
132.16863666951667
 20
63.900000079466565
 11
132.16863666951667
 21
63.440932692844967
  0
ARC
  8
_1-8_小物
  6
CONTINUOUS
 62
    4
 10
132.00197000284999
 20
63.900000079466565
 40
0.1666666666666666
 50
0
 51
90
  0
LINE
  8
_1-8_小物
  6
CONTINUOUS
 62
    4
 10
132.66863666951667
 20
63.900000079466565
 11
132.66863666951667
 21
63.400000079466565
  0
ARC
  8
_1-8_小物
  6
CONTINUOUS
 62
    4
 10
132.00197000284999
 20
63.900000079466565
 40
0.6666666666666666
 50
0
 51
90
  0
LINE
  8
_1-8_小物
  6
CONTINUOUS
 62
    4
 10
132.00197000284999
 20
64.066666746133251
 11
129.40197000284996
 21
64.066666746133251
  0
ARC
  8
_1-8_小物
  6
CONTINUOUS
 62
    4
 10
129.40197000284996
 20
64.566666746133251
 40
0.5
 50
180
 51
270
  0
ARC
  8
_1-8_小物
  6
CONTINUOUS
 62
    4
 10
131.75661419370527
 20
60.941329672922734
 40
0.4999999999999946
 50
190.63980919808779
 51
350.63980919808859
  0
LINE
  8
_1-8_小物
  6
CONTINUOUS
 62
    4
 10
132.16863666951667
 20
63.440932692844967
 11
131.78736018813089
 21
61.127855372437836
  0
ARC
  8
_1-8_小物
  6
CONTINUOUS
 62
    4
 10
131.75447067471077
 20
61.133276720803792
 40
0.0333333333333333
 50
190.63980919810578
 51
350.63980919806494
  0
ARC
  8
_1-8_小物
  6
CONTINUOUS
 62
    4
 10
131.28011955416468
 20
62.123680237894519
 40
0.25
 50
10.639809198086599
 51
190.6398091980802
  0
LINE
  8
_1-8_小物
  6
CONTINUOUS
 62
    4
 10
131.03441772861083
 20
62.077521675097188
 11
131.26521054259763
 21
60.849012547328016
  0
LINE
  8
_1-8_小物
  6
CONTINUOUS
 62
    4
 10
132.66863666951667
 20
63.400000079466565
 11
132.24995689500565
 21
60.860009447433669
  0
LINE
  8
_1-8_小物
  6
CONTINUOUS
 62
    4
 10
132.00197000284999
 20
64.566666746133251
 11
129.3353033361833
 21
64.566666746133251
  0
ARC
  8
_1-8_小物
  6
CONTINUOUS
 62
    4
 10
131.19019322677491
 20
65.307718192929087
 40
0.1666666666666666
 50
267.2805179600129
 51
357.28051796003143
  0
ARC
  8
_1-8_小物
  6
CONTINUOUS
 62
    4
 10
131.3487645107017
 20
65.133331543585228
 40
0.3333333333333333
 50
267.28051796003172
 51
357.28051796003723
  0
LINE
  8
_1-8_小物
  6
CONTINUOUS
 62
    4
 10
131.68172244397238
 20
65.11751617816816
 11
131.69753780938936
 21
65.450474111438723
  0
ARC
  8
_1-8_小物
  6
CONTINUOUS
 62
    4
 10
131.53105884275402
 20
65.4583817941473
 40
0.1666666666666666
 50
357.28051796004212
 51
177.28051796004218
  0
LINE
  8
_1-8_小物
  6
CONTINUOUS
 62
    4
 10
131.3566721934103
 20
65.299810510220539
 11
131.36457987611868
 21
65.466289476855792
  0
LINE
  8
_1-8_小物
  6
CONTINUOUS
 62
    4
 10
129.23530333618328
 20
64.79514822081444
 11
129.23530333618328
 21
64.666666746133274
  0
LINE
  8
_1-8_小物
  6
CONTINUOUS
 62
    4
 10
131.18228554406636
 20
65.141239226293806
 11
129.25111870160038
 21
65.232968860109395
  0
LINE
  8
_1-8_小物
  6
CONTINUOUS
 62
    4
 10
128.90197000284996
 20
64.900010926838775
 11
128.90197000284996
 21
64.566666746133251
  0
ARC
  8
_1-8_小物
  6
CONTINUOUS
 62
    4
 10
129.3353033361833
 20
64.79514822081444
 40
0.0999999999999999
 50
87.280517960044477
 51
180
  0
ARC
  8
_1-8_小物
  6
CONTINUOUS
 62
    4
 10
129.23530333618328
 20
64.900010926838775
 40
0.3333333333333333
 50
87.280517960041692
 51
180
  0
LINE
  8
_1-8_小物
  6
CONTINUOUS
 62
    4
 10
131.3329491452846
 20
64.800373610314665
 11
129.34004794580841
 21
64.895035600795552
  0
LINE
  8
_1-8_小物
  6
CONTINUOUS
 62
    4
 10
131.52582137971842
 20
62.169838800691906
 11
131.72171043130368
 21
61.127122245764127
  0
ENDBLK
  0
BLOCK
  2
-029-_29_
 70
   64
 10
0
 20
0
 30
0
  0
LINE
  8
_1-8_小物
  6
CONTINUOUS
 62
    4
 10
61.23530334188888
 20
69.233333412799936
 11
63.23530334188888
 21
69.233333412799936
  0
LINE
  8
_1-8_小物
  6
CONTINUOUS
 62
    4
 10
63.235303341888766
 20
69.233333412799936
 11
63.235303341888766
 21
69.166666746133274
  0
LINE
  8
_1-8_小物
  6
CONTINUOUS
 62
    4
 10
61.235303341888994
 20
69.166666746133274
 11
61.735303341888994
 21
68.666666746133274
  0
LINE
  8
_1-8_小物
  6
CONTINUOUS
 62
    4
 10
61.735303341888994
 20
68.666666746133274
 11
62.735303341888766
 21
68.666666746133274
  0
LINE
  8
_1-8_小物
  6
CONTINUOUS
 62
    4
 10
63.235303341888766
 20
69.166666746133274
 11
62.735303341888766
 21
68.666666746133274
  0
LINE
  8
_1-8_小物
  6
CONTINUOUS
 62
    4
 10
61.235303341888994
 20
69.166666746133274
 11
61.235303341888994
 21
69.233333412799936
  0
LINE
  8
_1-8_小物
  6
CONTINUOUS
 62
    4
 10
63.235303341888766
 20
69.166666746133274
 11
61.235303341888994
 21
69.166666746133274
  0
LINE
  8
_1-8_小物
  6
CONTINUOUS
 62
    4
 10
62.735303341888766
 20
65.60242006795761
 11
62.92280334188888
 21
65.494166746133317
  0
LINE
  8
_1-8_小物
  6
CONTINUOUS
 62
    4
 10
62.92280334188888
 20
65.494166746133317
 11
62.735303341888766
 21
65.385913424309052
  0
LINE
  8
_1-8_小物
  6
CONTINUOUS
 62
    4
 10
62.735303341888766
 20
65.60242006795761
 11
61.73530334188888
 21
65.367420067957624
  0
LINE
  8
_1-8_小物
  6
CONTINUOUS
 62
    4
 10
61.54780334188888
 20
65.25916674613336
 11
61.73530334188888
 21
65.367420067957624
  0
LINE
  8
_1-8_小物
  6
CONTINUOUS
 62
    4
 10
61.73530334188888
 20
65.150913424309067
 11
61.54780334188888
 21
65.25916674613336
  0
LINE
  8
_1-8_小物
  6
CONTINUOUS
 62
    4
 10
62.735303341888766
 20
65.385913424309052
 11
61.73530334188888
 21
65.150913424309067
  0
LINE
  8
_1-8_小物
  6
CONTINUOUS
 62
    4
 10
62.92280334188888
 20
65.494166746133317
 11
61.54780334188888
 21
65.25916674613336
  0
LINE
  8
_1-8_小物
  6
CONTINUOUS
 62
    4
 10
62.735303341888766
 20
66.07242006795758
 11
62.92280334188888
 21
65.964166746133316
  0
LINE
  8
_1-8_小物
  6
CONTINUOUS
 62
    4
 10
62.92280334188888
 20
65.964166746133316
 11
62.735303341888766
 21
65.855913424309051
  0
LINE
  8
_1-8_小物
  6
CONTINUOUS
 62
    4
 10
62.735303341888766
 20
66.07242006795758
 11
61.73530334188888
 21
65.837420067957623
  0
LINE
  8
_1-8_小物
  6
CONTINUOUS
 62
    4
 10
61.54780334188888
 20
65.72916674613333
 11
61.73530334188888
 21
65.837420067957623
  0
LINE
  8
_1-8_小物
  6
CONTINUOUS
 62
    4
 10
61.73530334188888
 20
65.620913424309066
 11
61.54780334188888
 21
65.72916674613333
  0
LINE
  8
_1-8_小物
  6
CONTINUOUS
 62
    4
 10
62.735303341888766
 20
65.855913424309051
 11
61.73530334188888
 21
65.620913424309066
  0
LINE
  8
_1-8_小物
  6
CONTINUOUS
 62
    4
 10
62.92280334188888
 20
65.964166746133316
 11
61.54780334188888
 21
65.72916674613333
  0
LINE
  8
_1-8_小物
  6
CONTINUOUS
 62
    4
 10
62.735303341888766
 20
66.542420067957579
 11
62.92280334188888
 21
66.434166746133315
  0
LINE
  8
_1-8_小物
  6
CONTINUOUS
 62
    4
 10
62.92280334188888
 20
66.434166746133315
 11
62.735303341888766
 21
66.325913424309022
  0
LINE
  8
_1-8_小物
  6
CONTINUOUS
 62
    4
 10
62.735303341888766
 20
66.542420067957579
 11
61.73530334188888
 21
66.307420067957594
  0
LINE
  8
_1-8_小物
  6
CONTINUOUS
 62
    4
 10
61.54780334188888
 20
66.199166746133329
 11
61.73530334188888
 21
66.307420067957594
  0
LINE
  8
_1-8_小物
  6
CONTINUOUS
 62
    4
 10
61.73530334188888
 20
66.090913424309065
 11
61.54780334188888
 21
66.199166746133329
  0
LINE
  8
_1-8_小物
  6
CONTINUOUS
 62
    4
 10
62.735303341888766
 20
66.325913424309022
 11
61.73530334188888
 21
66.090913424309065
  0
LINE
  8
_1-8_小物
  6
CONTINUOUS
 62
    4
 10
62.92280334188888
 20
66.434166746133315
 11
61.54780334188888
 21
66.199166746133329
  0
LINE
  8
_1-8_小物
  6
CONTINUOUS
 62
    4
 10
62.735303341888766
 20
67.012420067957578
 11
62.92280334188888
 21
66.904166746133285
  0
LINE
  8
_1-8_小物
  6
CONTINUOUS
 62
    4
 10
62.92280334188888
 20
66.904166746133285
 11
62.735303341888766
 21
66.79591342430902
  0
LINE
  8
_1-8_小物
  6
CONTINUOUS
 62
    4
 10
62.735303341888766
 20
67.012420067957578
 11
61.73530334188888
 21
66.777420067957593
  0
LINE
  8
_1-8_小物
  6
CONTINUOUS
 62
    4
 10
61.54780334188888
 20
66.669166746133328
 11
61.73530334188888
 21
66.777420067957593
  0
LINE
  8
_1-8_小物
  6
CONTINUOUS
 62
    4
 10
61.73530334188888
 20
66.560913424309035
 11
61.54780334188888
 21
66.669166746133328
  0
LINE
  8
_1-8_小物
  6
CONTINUOUS
 62
    4
 10
62.735303341888766
 20
66.79591342430902
 11
61.73530334188888
 21
66.560913424309035
  0
LINE
  8
_1-8_小物
  6
CONTINUOUS
 62
    4
 10
62.92280334188888
 20
66.904166746133285
 11
61.54780334188888
 21
66.669166746133328
  0
LINE
  8
_1-8_小物
  6
CONTINUOUS
 62
    4
 10
62.735303341888766
 20
67.482420067957548
 11
62.92280334188888
 21
67.374166746133284
  0
LINE
  8
_1-8_小物
  6
CONTINUOUS
 62
    4
 10
62.92280334188888
 20
67.374166746133284
 11
62.735303341888766
 21
67.265913424309019
  0
LINE
  8
_1-8_小物
  6
CONTINUOUS
 62
    4
 10
62.735303341888766
 20
67.482420067957548
 11
61.73530334188888
 21
67.247420067957592
  0
LINE
  8
_1-8_小物
  6
CONTINUOUS
 62
    4
 10
61.54780334188888
 20
67.139166746133299
 11
61.73530334188888
 21
67.247420067957592
  0
LINE
  8
_1-8_小物
  6
CONTINUOUS
 62
    4
 10
61.73530334188888
 20
67.030913424309034
 11
61.54780334188888
 21
67.139166746133299
  0
LINE
  8
_1-8_小物
  6
CONTINUOUS
 62
    4
 10
62.735303341888766
 20
67.265913424309019
 11
61.73530334188888
 21
67.030913424309034
  0
LINE
  8
_1-8_小物
  6
CONTINUOUS
 62
    4
 10
62.92280334188888
 20
67.374166746133284
 11
61.54780334188888
 21
67.139166746133299
  0
LINE
  8
_1-8_小物
  6
CONTINUOUS
 62
    4
 10
62.735303341888766
 20
67.952420067957547
 11
62.92280334188888
 21
67.844166746133283
  0
LINE
  8
_1-8_小物
  6
CONTINUOUS
 62
    4
 10
62.92280334188888
 20
67.844166746133283
 11
62.735303341888766
 21
67.73591342430899
  0
LINE
  8
_1-8_小物
  6
CONTINUOUS
 62
    4
 10
62.735303341888766
 20
67.952420067957547
 11
61.73530334188888
 21
67.717420067957562
  0
LINE
  8
_1-8_小物
  6
CONTINUOUS
 62
    4
 10
61.54780334188888
 20
67.609166746133297
 11
61.73530334188888
 21
67.717420067957562
  0
LINE
  8
_1-8_小物
  6
CONTINUOUS
 62
    4
 10
61.73530334188888
 20
67.500913424309033
 11
61.54780334188888
 21
67.609166746133297
  0
LINE
  8
_1-8_小物
  6
CONTINUOUS
 62
    4
 10
62.735303341888766
 20
67.73591342430899
 11
61.73530334188888
 21
67.500913424309033
  0
LINE
  8
_1-8_小物
  6
CONTINUOUS
 62
    4
 10
62.92280334188888
 20
67.844166746133283
 11
61.54780334188888
 21
67.609166746133297
  0
LINE
  8
_1-8_小物
  6
CONTINUOUS
 62
    4
 10
62.735303341888766
 20
68.422420067957546
 11
62.92280334188888
 21
68.314166746133253
  0
LINE
  8
_1-8_小物
  6
CONTINUOUS
 62
    4
 10
62.92280334188888
 20
68.314166746133253
 11
62.735303341888766
 21
68.205913424308989
  0
LINE
  8
_1-8_小物
  6
CONTINUOUS
 62
    4
 10
62.735303341888766
 20
68.422420067957546
 11
61.73530334188888
 21
68.187420067957561
  0
LINE
  8
_1-8_小物
  6
CONTINUOUS
 62
    4
 10
61.54780334188888
 20
68.079166746133296
 11
61.73530334188888
 21
68.187420067957561
  0
LINE
  8
_1-8_小物
  6
CONTINUOUS
 62
    4
 10
61.73530334188888
 20
67.970913424309003
 11
61.54780334188888
 21
68.079166746133296
  0
LINE
  8
_1-8_小物
  6
CONTINUOUS
 62
    4
 10
62.735303341888766
 20
68.205913424308989
 11
61.73530334188888
 21
67.970913424309003
  0
LINE
  8
_1-8_小物
  6
CONTINUOUS
 62
    4
 10
62.92280334188888
 20
68.314166746133253
 11
61.54780334188888
 21
68.079166746133296
  0
LINE
  8
_1-8_小物
  6
CONTINUOUS
 62
    4
 10
61.735303341888994
 20
65.150913424309067
 11
61.735303341888994
 21
64.897420067957626
  0
LINE
  8
_1-8_小物
  6
CONTINUOUS
 62
    4
 10
61.735303341888994
 20
65.620913424309066
 11
61.735303341888994
 21
65.367420067957624
  0
LINE
  8
_1-8_小物
  6
CONTINUOUS
 62
    4
 10
61.735303341888994
 20
66.090913424309065
 11
61.735303341888994
 21
65.837420067957652
  0
LINE
  8
_1-8_小物
  6
CONTINUOUS
 62
    4
 10
61.735303341888994
 20
66.560913424309035
 11
61.735303341888994
 21
66.307420067957594
  0
LINE
  8
_1-8_小物
  6
CONTINUOUS
 62
    4
 10
61.735303341888994
 20
67.030913424309034
 11
61.735303341888994
 21
66.777420067957593
  0
LINE
  8
_1-8_小物
  6
CONTINUOUS
 62
    4
 10
61.735303341888994
 20
67.500913424309033
 11
61.735303341888994
 21
67.247420067957592
  0
LINE
  8
_1-8_小物
  6
CONTINUOUS
 62
    4
 10
61.735303341888994
 20
68.666666746133274
 11
61.735303341888994
 21
68.187420067957561
  0
LINE
  8
_1-8_小物
  6
CONTINUOUS
 62
    4
 10
61.735303341888994
 20
67.970913424309003
 11
61.735303341888994
 21
67.717420067957619
  0
LINE
  8
_1-8_小物
  6
CONTINUOUS
 62
    4
 10
62.735303341888766
 20
68.666666746133274
 11
62.735303341888766
 21
68.422420067957546
  0
LINE
  8
_1-8_小物
  6
CONTINUOUS
 62
    4
 10
62.735303341888766
 20
68.20591342430896
 11
62.735303341888766
 21
67.952420067957547
  0
LINE
  8
_1-8_小物
  6
CONTINUOUS
 62
    4
 10
62.735303341888766
 20
67.73591342430899
 11
62.735303341888766
 21
67.482420067957548
  0
LINE
  8
_1-8_小物
  6
CONTINUOUS
 62
    4
 10
62.735303341888766
 20
67.265913424308962
 11
62.735303341888766
 21
67.012420067957578
  0
LINE
  8
_1-8_小物
  6
CONTINUOUS
 62
    4
 10
62.735303341888766
 20
66.79591342430902
 11
62.735303341888766
 21
66.542420067957579
  0
LINE
  8
_1-8_小物
  6
CONTINUOUS
 62
    4
 10
62.735303341888766
 20
66.325913424309022
 11
62.735303341888766
 21
66.07242006795758
  0
LINE
  8
_1-8_小物
  6
CONTINUOUS
 62
    4
 10
62.735303341888766
 20
65.855913424308994
 11
62.735303341888766
 21
65.60242006795761
  0
LINE
  8
_1-8_小物
  6
CONTINUOUS
 62
    4
 10
62.801970008555372
 20
64.893333412799961
 11
62.801970008555372
 21
63.896666746133292
  0
LINE
  8
_1-8_小物
  6
CONTINUOUS
 62
    4
 10
61.668636675222274
 20
64.893333412799961
 11
62.801970008555372
 21
64.893333412799961
  0
LINE
  8
_1-8_小物
  6
CONTINUOUS
 62
    4
 10
61.668636675222274
 20
64.893333412799961
 11
61.668636675222274
 21
63.896666746133292
  0
LINE
  8
_1-8_小物
  6
CONTINUOUS
 62
    4
 10
61.668636675222274
 20
63.896666746133292
 11
62.23530334188888
 21
63.569501593592577
  0
LINE
  8
_1-8_小物
  6
CONTINUOUS
 62
    4
 10
62.801970008555372
 20
63.896666746133292
 11
62.23530334188888
 21
63.569501593592577
  0
LINE
  8
_1-8_小物
  6
CONTINUOUS
 62
    4
 10
62.23530334188888
 20
63.684971647430473
 11
62.701970008555463
 21
63.954401773052268
  0
LINE
  8
_1-8_小物
  6
CONTINUOUS
 62
    4
 10
62.701970008555463
 20
64.893333412799961
 11
62.701970008555463
 21
63.954401773052268
  0
LINE
  8
_1-8_小物
  6
CONTINUOUS
 62
    4
 10
62.23530334188888
 20
63.684971647430473
 11
62.448370123579934
 21
64.893333412799961
  0
LINE
  8
_1-8_小物
  6
CONTINUOUS
 62
    4
 10
62.735303341888766
 20
65.385913424309024
 11
62.735303341888766
 21
64.893333412799961
  0
LINE
  8
_1-8_小物
  6
CONTINUOUS
 62
    4
 10
62.23530334188888
 20
63.569501593592577
 11
62.23530334188888
 21
63.684971647430473
  0
LINE
  8
_1-8_小物
  6
CENTER2
 62
    4
 10
62.23530334188888
 20
69.566666746133279
 11
62.23530334188888
 21
63.236168260259234
  0
ENDBLK
  0
BLOCK
  2
-030-_30_
 70
   64
 10
0
 20
0
 30
0
  0
LINE
  8
_1-8_小物
  6
CONTINUOUS
 62
    4
 10
115.00197000798386
 20
69.233333412799936
 11
117.00197000798386
 21
69.233333412799936
  0
LINE
  8
_1-8_小物
  6
CONTINUOUS
 62
    4
 10
117.00197000798369
 20
69.233333412799936
 11
117.00197000798369
 21
69.166666746133274
  0
LINE
  8
_1-8_小物
  6
CONTINUOUS
 62
    4
 10
115.00197000798397
 20
69.166666746133274
 11
115.50197000798397
 21
68.666666746133274
  0
LINE
  8
_1-8_小物
  6
CONTINUOUS
 62
    4
 10
115.50197000798397
 20
68.666666746133274
 11
116.50197000798369
 21
68.666666746133274
  0
LINE
  8
_1-8_小物
  6
CONTINUOUS
 62
    4
 10
117.00197000798369
 20
69.166666746133274
 11
116.50197000798369
 21
68.666666746133274
  0
LINE
  8
_1-8_小物
  6
CONTINUOUS
 62
    4
 10
115.00197000798397
 20
69.166666746133274
 11
115.00197000798397
 21
69.233333412799936
  0
LINE
  8
_1-8_小物
  6
CONTINUOUS
 62
    4
 10
117.00197000798369
 20
69.166666746133274
 11
115.00197000798397
 21
69.166666746133274
  0
LINE
  8
_1-8_小物
  6
CONTINUOUS
 62
    4
 10
116.50197000798369
 20
65.60242006795761
 11
116.68947000798386
 21
65.494166746133317
  0
LINE
  8
_1-8_小物
  6
CONTINUOUS
 62
    4
 10
116.68947000798386
 20
65.494166746133317
 11
116.50197000798374
 21
65.385913424309052
  0
LINE
  8
_1-8_小物
  6
CONTINUOUS
 62
    4
 10
116.50197000798369
 20
65.60242006795761
 11
115.50197000798391
 21
65.367420067957624
  0
LINE
  8
_1-8_小物
  6
CONTINUOUS
 62
    4
 10
115.31447000798386
 20
65.25916674613336
 11
115.50197000798391
 21
65.367420067957624
  0
LINE
  8
_1-8_小物
  6
CONTINUOUS
 62
    4
 10
115.50197000798391
 20
65.150913424309067
 11
115.31447000798386
 21
65.25916674613336
  0
LINE
  8
_1-8_小物
  6
CONTINUOUS
 62
    4
 10
116.50197000798374
 20
65.385913424309052
 11
115.50197000798391
 21
65.150913424309067
  0
LINE
  8
_1-8_小物
  6
CONTINUOUS
 62
    4
 10
116.68947000798386
 20
65.494166746133317
 11
115.31447000798386
 21
65.25916674613336
  0
LINE
  8
_1-8_小物
  6
CONTINUOUS
 62
    4
 10
116.50197000798369
 20
66.07242006795758
 11
116.68947000798386
 21
65.964166746133316
  0
LINE
  8
_1-8_小物
  6
CONTINUOUS
 62
    4
 10
116.68947000798386
 20
65.964166746133316
 11
116.50197000798374
 21
65.855913424309051
  0
LINE
  8
_1-8_小物
  6
CONTINUOUS
 62
    4
 10
116.50197000798369
 20
66.07242006795758
 11
115.50197000798391
 21
65.837420067957623
  0
LINE
  8
_1-8_小物
  6
CONTINUOUS
 62
    4
 10
115.31447000798386
 20
65.72916674613333
 11
115.50197000798391
 21
65.837420067957623
  0
LINE
  8
_1-8_小物
  6
CONTINUOUS
 62
    4
 10
115.50197000798391
 20
65.620913424309066
 11
115.31447000798386
 21
65.72916674613333
  0
LINE
  8
_1-8_小物
  6
CONTINUOUS
 62
    4
 10
116.50197000798374
 20
65.855913424309051
 11
115.50197000798391
 21
65.620913424309066
  0
LINE
  8
_1-8_小物
  6
CONTINUOUS
 62
    4
 10
116.68947000798386
 20
65.964166746133316
 11
115.31447000798386
 21
65.72916674613333
  0
LINE
  8
_1-8_小物
  6
CONTINUOUS
 62
    4
 10
116.50197000798369
 20
66.542420067957579
 11
116.68947000798386
 21
66.434166746133315
  0
LINE
  8
_1-8_小物
  6
CONTINUOUS
 62
    4
 10
116.68947000798386
 20
66.434166746133315
 11
116.50197000798374
 21
66.325913424309022
  0
LINE
  8
_1-8_小物
  6
CONTINUOUS
 62
    4
 10
116.50197000798369
 20
66.542420067957579
 11
115.50197000798391
 21
66.307420067957594
  0
LINE
  8
_1-8_小物
  6
CONTINUOUS
 62
    4
 10
115.31447000798386
 20
66.199166746133329
 11
115.50197000798391
 21
66.307420067957594
  0
LINE
  8
_1-8_小物
  6
CONTINUOUS
 62
    4
 10
115.50197000798391
 20
66.090913424309065
 11
115.31447000798386
 21
66.199166746133329
  0
LINE
  8
_1-8_小物
  6
CONTINUOUS
 62
    4
 10
116.50197000798374
 20
66.325913424309022
 11
115.50197000798391
 21
66.090913424309065
  0
LINE
  8
_1-8_小物
  6
CONTINUOUS
 62
    4
 10
116.68947000798386
 20
66.434166746133315
 11
115.31447000798386
 21
66.199166746133329
  0
LINE
  8
_1-8_小物
  6
CONTINUOUS
 62
    4
 10
116.50197000798369
 20
67.012420067957578
 11
116.68947000798386
 21
66.904166746133285
  0
LINE
  8
_1-8_小物
  6
CONTINUOUS
 62
    4
 10
116.68947000798386
 20
66.904166746133285
 11
116.50197000798374
 21
66.79591342430902
  0
LINE
  8
_1-8_小物
  6
CONTINUOUS
 62
    4
 10
116.50197000798369
 20
67.012420067957578
 11
115.50197000798391
 21
66.777420067957593
  0
LINE
  8
_1-8_小物
  6
CONTINUOUS
 62
    4
 10
115.31447000798386
 20
66.669166746133328
 11
115.50197000798391
 21
66.777420067957593
  0
LINE
  8
_1-8_小物
  6
CONTINUOUS
 62
    4
 10
115.50197000798391
 20
66.560913424309035
 11
115.31447000798386
 21
66.669166746133328
  0
LINE
  8
_1-8_小物
  6
CONTINUOUS
 62
    4
 10
116.50197000798374
 20
66.79591342430902
 11
115.50197000798391
 21
66.560913424309035
  0
LINE
  8
_1-8_小物
  6
CONTINUOUS
 62
    4
 10
116.68947000798386
 20
66.904166746133285
 11
115.31447000798386
 21
66.669166746133328
  0
LINE
  8
_1-8_小物
  6
CONTINUOUS
 62
    4
 10
116.50197000798369
 20
67.482420067957548
 11
116.68947000798386
 21
67.374166746133284
  0
LINE
  8
_1-8_小物
  6
CONTINUOUS
 62
    4
 10
116.68947000798386
 20
67.374166746133284
 11
116.50197000798374
 21
67.265913424309019
  0
LINE
  8
_1-8_小物
  6
CONTINUOUS
 62
    4
 10
116.50197000798369
 20
67.482420067957548
 11
115.50197000798391
 21
67.247420067957592
  0
LINE
  8
_1-8_小物
  6
CONTINUOUS
 62
    4
 10
115.31447000798386
 20
67.139166746133299
 11
115.50197000798391
 21
67.247420067957592
  0
LINE
  8
_1-8_小物
  6
CONTINUOUS
 62
    4
 10
115.50197000798391
 20
67.030913424309034
 11
115.31447000798386
 21
67.139166746133299
  0
LINE
  8
_1-8_小物
  6
CONTINUOUS
 62
    4
 10
116.50197000798374
 20
67.265913424309019
 11
115.50197000798391
 21
67.030913424309034
  0
LINE
  8
_1-8_小物
  6
CONTINUOUS
 62
    4
 10
116.68947000798386
 20
67.374166746133284
 11
115.31447000798386
 21
67.139166746133299
  0
LINE
  8
_1-8_小物
  6
CONTINUOUS
 62
    4
 10
116.50197000798369
 20
67.952420067957547
 11
116.68947000798386
 21
67.844166746133283
  0
LINE
  8
_1-8_小物
  6
CONTINUOUS
 62
    4
 10
116.68947000798386
 20
67.844166746133283
 11
116.50197000798374
 21
67.73591342430899
  0
LINE
  8
_1-8_小物
  6
CONTINUOUS
 62
    4
 10
116.50197000798369
 20
67.952420067957547
 11
115.50197000798391
 21
67.717420067957562
  0
LINE
  8
_1-8_小物
  6
CONTINUOUS
 62
    4
 10
115.31447000798386
 20
67.609166746133297
 11
115.50197000798391
 21
67.717420067957562
  0
LINE
  8
_1-8_小物
  6
CONTINUOUS
 62
    4
 10
115.50197000798391
 20
67.500913424309033
 11
115.31447000798386
 21
67.609166746133297
  0
LINE
  8
_1-8_小物
  6
CONTINUOUS
 62
    4
 10
116.50197000798374
 20
67.73591342430899
 11
115.50197000798391
 21
67.500913424309033
  0
LINE
  8
_1-8_小物
  6
CONTINUOUS
 62
    4
 10
116.68947000798386
 20
67.844166746133283
 11
115.31447000798386
 21
67.609166746133297
  0
LINE
  8
_1-8_小物
  6
CONTINUOUS
 62
    4
 10
116.50197000798369
 20
68.422420067957546
 11
116.68947000798386
 21
68.314166746133253
  0
LINE
  8
_1-8_小物
  6
CONTINUOUS
 62
    4
 10
116.68947000798386
 20
68.314166746133253
 11
116.50197000798374
 21
68.205913424308989
  0
LINE
  8
_1-8_小物
  6
CONTINUOUS
 62
    4
 10
116.50197000798369
 20
68.422420067957546
 11
115.50197000798391
 21
68.187420067957561
  0
LINE
  8
_1-8_小物
  6
CONTINUOUS
 62
    4
 10
115.31447000798386
 20
68.079166746133296
 11
115.50197000798391
 21
68.187420067957561
  0
LINE
  8
_1-8_小物
  6
CONTINUOUS
 62
    4
 10
115.50197000798391
 20
67.970913424309003
 11
115.31447000798386
 21
68.079166746133296
  0
LINE
  8
_1-8_小物
  6
CONTINUOUS
 62
    4
 10
116.50197000798374
 20
68.205913424308989
 11
115.50197000798391
 21
67.970913424309003
  0
LINE
  8
_1-8_小物
  6
CONTINUOUS
 62
    4
 10
116.68947000798386
 20
68.314166746133253
 11
115.31447000798386
 21
68.079166746133296
  0
LINE
  8
_1-8_小物
  6
CONTINUOUS
 62
    4
 10
115.50197000798397
 20
65.150913424309067
 11
115.50197000798397
 21
64.897420067957626
  0
LINE
  8
_1-8_小物
  6
CONTINUOUS
 62
    4
 10
115.50197000798397
 20
65.620913424309066
 11
115.50197000798397
 21
65.367420067957624
  0
LINE
  8
_1-8_小物
  6
CONTINUOUS
 62
    4
 10
115.50197000798397
 20
66.090913424309065
 11
115.50197000798397
 21
65.837420067957652
  0
LINE
  8
_1-8_小物
  6
CONTINUOUS
 62
    4
 10
115.50197000798397
 20
66.560913424309035
 11
115.50197000798397
 21
66.307420067957594
  0
LINE
  8
_1-8_小物
  6
CONTINUOUS
 62
    4
 10
115.50197000798397
 20
67.030913424309034
 11
115.50197000798397
 21
66.777420067957593
  0
LINE
  8
_1-8_小物
  6
CONTINUOUS
 62
    4
 10
115.50197000798397
 20
67.500913424309033
 11
115.50197000798397
 21
67.247420067957592
  0
LINE
  8
_1-8_小物
  6
CONTINUOUS
 62
    4
 10
115.50197000798397
 20
68.666666746133274
 11
115.50197000798397
 21
68.187420067957561
  0
LINE
  8
_1-8_小物
  6
CONTINUOUS
 62
    4
 10
115.50197000798397
 20
67.970913424309003
 11
115.50197000798397
 21
67.717420067957619
  0
LINE
  8
_1-8_小物
  6
CONTINUOUS
 62
    4
 10
116.50197000798369
 20
68.666666746133274
 11
116.50197000798369
 21
68.422420067957546
  0
LINE
  8
_1-8_小物
  6
CONTINUOUS
 62
    4
 10
116.50197000798369
 20
68.20591342430896
 11
116.50197000798369
 21
67.952420067957547
  0
LINE
  8
_1-8_小物
  6
CONTINUOUS
 62
    4
 10
116.50197000798369
 20
67.73591342430899
 11
116.50197000798369
 21
67.482420067957548
  0
LINE
  8
_1-8_小物
  6
CONTINUOUS
 62
    4
 10
116.50197000798369
 20
67.265913424308962
 11
116.50197000798369
 21
67.012420067957578
  0
LINE
  8
_1-8_小物
  6
CONTINUOUS
 62
    4
 10
116.50197000798369
 20
66.79591342430902
 11
116.50197000798369
 21
66.542420067957579
  0
LINE
  8
_1-8_小物
  6
CONTINUOUS
 62
    4
 10
116.50197000798369
 20
66.325913424309022
 11
116.50197000798369
 21
66.07242006795758
  0
LINE
  8
_1-8_小物
  6
CONTINUOUS
 62
    4
 10
116.50197000798369
 20
65.855913424308994
 11
116.50197000798369
 21
65.60242006795761
  0
LINE
  8
_1-8_小物
  6
CONTINUOUS
 62
    4
 10
116.56863667465035
 20
64.893333412799961
 11
116.56863667465035
 21
63.896666746133292
  0
LINE
  8
_1-8_小物
  6
CONTINUOUS
 62
    4
 10
115.43530334131731
 20
64.893333412799961
 11
116.56863667465035
 21
64.893333412799961
  0
LINE
  8
_1-8_小物
  6
CONTINUOUS
 62
    4
 10
115.43530334131731
 20
64.893333412799961
 11
115.43530334131731
 21
63.896666746133292
  0
LINE
  8
_1-8_小物
  6
CONTINUOUS
 62
    4
 10
115.43530334131731
 20
63.896666746133292
 11
116.00197000798386
 21
63.569501593592577
  0
LINE
  8
_1-8_小物
  6
CONTINUOUS
 62
    4
 10
116.56863667465035
 20
63.896666746133292
 11
116.00197000798386
 21
63.569501593592577
  0
LINE
  8
_1-8_小物
  6
CONTINUOUS
 62
    4
 10
116.00197000798386
 20
63.684971647430473
 11
116.46863667465044
 21
63.954401773052268
  0
LINE
  8
_1-8_小物
  6
CONTINUOUS
 62
    4
 10
116.46863667465044
 20
64.893333412799961
 11
116.46863667465044
 21
63.954401773052268
  0
LINE
  8
_1-8_小物
  6
CONTINUOUS
 62
    4
 10
116.00197000798386
 20
63.684971647430473
 11
116.21503678967491
 21
64.893333412799961
  0
LINE
  8
_1-8_小物
  6
CONTINUOUS
 62
    4
 10
116.50197000798369
 20
65.385913424309024
 11
116.50197000798369
 21
64.893333412799961
  0
LINE
  8
_1-8_小物
  6
CONTINUOUS
 62
    4
 10
116.00197000798386
 20
63.569501593592577
 11
116.00197000798386
 21
63.684971647430473
  0
LINE
  8
_1-8_小物
  6
CENTER2
 62
    4
 10
116.00197000798386
 20
69.566666746133279
 11
116.00197000798386
 21
63.236168260259234
  0
ENDBLK
  0
BLOCK
  2
-031-_31_
 70
   64
 10
0
 20
0
 30
0
  0
ARC
  8
_1-8_小物
  6
CONTINUOUS
 62
    4
 10
-149.99999891793786
 20
64.666666666666885
 40
0.0999999999999999
 50
270
 51
0
  0
LINE
  8
_1-8_小物
  6
CONTINUOUS
 62
    4
 10
-152.83333225127123
 20
63.900000000000205
 11
-152.83333225127123
 21
63.440932613378578
  0
ARC
  8
_1-8_小物
  6
CONTINUOUS
 62
    4
 10
-152.66666558460457
 20
63.900000000000205
 40
0.1666666666666666
 50
90
 51
180
  0
LINE
  8
_1-8_小物
  6
CONTINUOUS
 62
    4
 10
-153.33333225127123
 20
63.900000000000205
 11
-153.33333225127123
 21
63.400000000000205
  0
ARC
  8
_1-8_小物
  6
CONTINUOUS
 62
    4
 10
-152.66666558460457
 20
63.900000000000205
 40
0.6666666666666666
 50
90
 51
180
  0
LINE
  8
_1-8_小物
  6
CONTINUOUS
 62
    4
 10
-152.66666558460457
 20
64.066666666666862
 11
-150.06666558460455
 21
64.066666666666862
  0
ARC
  8
_1-8_小物
  6
CONTINUOUS
 62
    4
 10
-150.06666558460455
 20
64.566666666666862
 40
0.5
 50
270
 51
0
  0
ARC
  8
_1-8_小物
  6
CONTINUOUS
 62
    4
 10
-152.42130977545986
 20
60.941329593456345
 40
0.4999999999999946
 50
189.36019080191193
 51
349.36019080191221
  0
LINE
  8
_1-8_小物
  6
CONTINUOUS
 62
    4
 10
-152.83333225127123
 20
63.440932613378578
 11
-152.45205576988548
 21
61.127855292971446
  0
ARC
  8
_1-8_小物
  6
CONTINUOUS
 62
    4
 10
-152.41916625646533
 20
61.133276641337403
 40
0.0333333333333333
 50
189.36019080194299
 51
349.36019080188521
  0
ARC
  8
_1-8_小物
  6
CONTINUOUS
 62
    4
 10
-151.94481513591924
 20
62.12368015842813
 40
0.25
 50
349.36019080191858
 51
169.36019080191227
  0
LINE
  8
_1-8_小物
  6
CONTINUOUS
 62
    4
 10
-151.69911331036539
 20
62.077521595630799
 11
-151.92990612435219
 21
60.849012467861627
  0
LINE
  8
_1-8_小物
  6
CONTINUOUS
 62
    4
 10
-153.33333225127123
 20
63.400000000000205
 11
-152.91465247676021
 21
60.86000936796728
  0
LINE
  8
_1-8_小物
  6
CONTINUOUS
 62
    4
 10
-152.66666558460457
 20
64.566666666666862
 11
-149.99999891793786
 21
64.566666666666862
  0
ARC
  8
_1-8_小物
  6
CONTINUOUS
 62
    4
 10
-151.85488880852947
 20
65.307718113462698
 40
0.1666666666666666
 50
182.71948203995831
 51
272.71948203997789
  0
ARC
  8
_1-8_小物
  6
CONTINUOUS
 62
    4
 10
-152.01346009245628
 20
65.133331464118839
 40
0.3333333333333333
 50
182.71948203995856
 51
272.71948203996828
  0
LINE
  8
_1-8_小物
  6
CONTINUOUS
 62
    4
 10
-152.34641802572693
 20
65.117516098701799
 11
-152.36223339114392
 21
65.450474031972362
  0
ARC
  8
_1-8_小物
  6
CONTINUOUS
 62
    4
 10
-152.19575442450861
 20
65.458381714680911
 40
0.1666666666666666
 50
2.7194820399680757
 51
182.71948203995879
  0
LINE
  8
_1-8_小物
  6
CONTINUOUS
 62
    4
 10
-152.02136777516486
 20
65.299810430754178
 11
-152.02927545787327
 21
65.466289397389403
  0
LINE
  8
_1-8_小物
  6
CONTINUOUS
 62
    4
 10
-149.89999891793784
 20
64.795148141348051
 11
-149.89999891793784
 21
64.666666666666885
  0
LINE
  8
_1-8_小物
  6
CONTINUOUS
 62
    4
 10
-151.84698112582095
 20
65.141239146827417
 11
-149.91581428335493
 21
65.232968780643006
  0
LINE
  8
_1-8_小物
  6
CONTINUOUS
 62
    4
 10
-149.56666558460455
 20
64.900010847372414
 11
-149.56666558460455
 21
64.566666666666862
  0
ARC
  8
_1-8_小物
  6
CONTINUOUS
 62
    4
 10
-149.99999891793786
 20
64.795148141348051
 40
0.0999999999999999
 50
0
 51
92.719482039971794
  0
ARC
  8
_1-8_小物
  6
CONTINUOUS
 62
    4
 10
-149.89999891793784
 20
64.900010847372414
 40
0.3333333333333333
 50
0
 51
92.719482039963438
  0
LINE
  8
_1-8_小物
  6
CONTINUOUS
 62
    4
 10
-151.99764472703916
 20
64.800373530848276
 11
-150.00474352756299
 21
64.895035521329191
  0
LINE
  8
_1-8_小物
  6
CONTINUOUS
 62
    4
 10
-152.19051696147301
 20
62.169838721225517
 11
-152.38640601305826
 21
61.127122166297738
  0
ENDBLK
  0
ENDSEC
  0
SECTION
  2
ENTITIES
  0
LINE
  8
_0-0_図面枠
  6
CONTINUOUS
 62
    6
 10
410.00000000000006
 20
287
 11
10
 21
287.00000000000006
  0
LINE
  8
_0-0_図面枠
  6
CONTINUOUS
 62
    6
 10
410
 20
9.9999999999998863
 11
410.00000000000006
 21
287
  0
LINE
  8
_0-0_図面枠
  6
CONTINUOUS
 62
    6
 10
9.9999999999999147
 20
10
 11
410
 21
9.9999999999998863
  0
LINE
  8
_0-0_図面枠
  6
CONTINUOUS
 62
    6
 10
10
 20
287.00000000000006
 11
9.9999999999999147
 21
10
  0
LINE
  8
ADD_LINE
  6
DOT
 62
    4
 10
0
 20
148.5
 11
420
 21
148.5
  0
LINE
  8
_0-0_図面枠
  6
CONTINUOUS
 62
    6
 10
210
 20
287
 11
210.00000000000003
 21
9.9999999999999432
  0
TEXT
  8
_0-0_図面枠
 62
    4
 10
41.666666666666686
 20
128
 40
3
 41
1
 50
0
  1
（落下防止ワイヤー）
  0
INSERT
  2
-000-
  8
_1-8_小物
 10
210
 20
148.5
 41
1
 42
1
 50
0
  0
LINE
  8
_1-8_小物
  6
CONTINUOUS
 62
    4
 10
157.03985321657842
 20
131.84018902839435
 11
151.17656837665947
 21
130.18752043233465
  0
LINE
  8
_1-8_小物
  6
CONTINUOUS
 62
    4
 10
157.16066740562403
 20
131.35707331101597
 11
151.24647145802518
 21
129.68796469593613
  0
LINE
  8
_1-8_小物
  6
CONTINUOUS
 62
    4
 10
157.03985321657842
 20
127.15981097160562
 11
151.17656837665947
 21
128.81247956766532
  0
LINE
  8
_1-8_小物
  6
CONTINUOUS
 62
    4
 10
157.16066740562403
 20
127.64292668898401
 11
151.24647145802518
 21
129.31203530406384
  0
LINE
  8
_1-8_小物
  6
CONTINUOUS
 62
    4
 10
157.1606675134222
 20
127.64292665856117
 11
157.1606675134222
 21
127.64292665856117
  0
LINE
  8
_1-8_小物
  6
CONTINUOUS
 62
    4
 10
157.1606675134222
 20
127.64292665856117
 11
157.6334904430544
 21
127.54220923628057
  0
LINE
  8
_1-8_小物
  6
CONTINUOUS
 62
    4
 10
157.6334904430544
 20
127.54220923628057
 11
158.1239067754791
 21
127.50097829566566
  0
LINE
  8
_1-8_小物
  6
CONTINUOUS
 62
    4
 10
158.1239067754791
 20
127.50097829566566
 11
158.61701545859825
 21
127.52048661798315
  0
LINE
  8
_1-8_小物
  6
CONTINUOUS
 62
    4
 10
158.61701545859825
 20
127.52048661798315
 11
159.09783363460025
 21
127.60014145273114
  0
LINE
  8
_1-8_小物
  6
CONTINUOUS
 62
    4
 10
159.09783363460025
 20
127.60014145273114
 11
159.55175188651307
 21
127.73752252806307
  0
LINE
  8
_1-8_小物
  6
CONTINUOUS
 62
    4
 10
159.55175188651307
 20
127.73752252806307
 11
159.96497813794605
 21
127.92845558952315
  0
LINE
  8
_1-8_小物
  6
CONTINUOUS
 62
    4
 10
159.96497813794605
 20
127.92845558952315
 11
160.32495671835193
 21
128.16713923265576
  0
LINE
  8
_1-8_小物
  6
CONTINUOUS
 62
    4
 10
160.32495671835193
 20
128.16713923265576
 11
160.62074986072309
 21
128.446321175744
  0
LINE
  8
_1-8_小物
  6
CONTINUOUS
 62
    4
 10
160.62074986072309
 20
128.446321175744
 11
160.84337004010709
 21
128.75751861672009
  0
LINE
  8
_1-8_小物
  6
CONTINUOUS
 62
    4
 10
160.84337004010709
 20
128.75751861672009
 11
160.98605305500459
 21
129.0912759788134
  0
LINE
  8
_1-8_小物
  6
CONTINUOUS
 62
    4
 10
160.98605305500459
 20
129.0912759788134
 11
161.04446355420905
 21
129.43745221346614
  0
LINE
  8
_1-8_小物
  6
CONTINUOUS
 62
    4
 10
161.04446355420905
 20
129.43745221346614
 11
161.01682676425926
 21
129.78552893096199
  0
LINE
  8
_1-8_小物
  6
CONTINUOUS
 62
    4
 10
161.01682676425926
 20
129.78552893096199
 11
160.90398241503294
 21
130.12492999637519
  0
LINE
  8
_1-8_小物
  6
CONTINUOUS
 62
    4
 10
160.90398241503294
 20
130.12492999637519
 11
160.70935922497938
 21
130.44534288007836
  0
LINE
  8
_1-8_小物
  6
CONTINUOUS
 62
    4
 10
160.70935922497938
 20
130.44534288007836
 11
160.43887072124426
 21
130.73703199873694
  0
LINE
  8
_1-8_小物
  6
CONTINUOUS
 62
    4
 10
160.43887072124426
 20
130.73703199873694
 11
160.10073556013975
 21
130.99113452608228
  0
LINE
  8
_1-8_小物
  6
CONTINUOUS
 62
    4
 10
160.10073556013975
 20
130.99113452608228
 11
159.70522780743138
 21
131.19992968540308
  0
LINE
  8
_1-8_小物
  6
CONTINUOUS
 62
    4
 10
159.70522780743138
 20
131.19992968540308
 11
159.26436476604863
 21
131.35707334143885
  0
LINE
  8
_1-8_小物
  6
CONTINUOUS
 62
    4
 10
159.26436476604863
 20
131.35707334143885
 11
158.79154183641643
 21
131.45779076371943
  0
LINE
  8
_1-8_小物
  6
CONTINUOUS
 62
    4
 10
158.79154183641643
 20
131.45779076371943
 11
158.30112550399173
 21
131.49902170433435
  0
LINE
  8
_1-8_小物
  6
CONTINUOUS
 62
    4
 10
158.30112550399173
 20
131.49902170433435
 11
157.80801682087258
 21
131.47951338201685
  0
LINE
  8
_1-8_小物
  6
CONTINUOUS
 62
    4
 10
157.80801682087258
 20
131.47951338201685
 11
157.32719864487058
 21
131.39985854726888
  0
LINE
  8
_1-8_小物
  6
CONTINUOUS
 62
    4
 10
157.32719864487058
 20
131.39985854726888
 11
157.160667405624
 21
131.35707331101594
  0
LINE
  8
_1-8_小物
  6
CONTINUOUS
 62
    4
 10
157.039853303781
 20
127.15981094702609
 11
157.039853303781
 21
127.15981094702609
  0
LINE
  8
_1-8_小物
  6
CONTINUOUS
 62
    4
 10
157.039853303781
 20
127.15981094702609
 11
157.5994947731449
 21
127.04264060375607
  0
LINE
  8
_1-8_小物
  6
CONTINUOUS
 62
    4
 10
157.5994947731449
 20
127.04264060375607
 11
158.1777625865289
 21
127.00013588225708
  0
LINE
  8
_1-8_小物
  6
CONTINUOUS
 62
    4
 10
158.1777625865289
 20
127.00013588225708
 11
158.75708636904091
 21
127.03358826698343
  0
LINE
  8
_1-8_小物
  6
CONTINUOUS
 62
    4
 10
158.75708636904091
 20
127.03358826698343
 11
159.31986366070132
 21
127.14198132415292
  0
LINE
  8
_1-8_小物
  6
CONTINUOUS
 62
    4
 10
159.31986366070132
 20
127.14198132415292
 11
159.84899475828206
 21
127.32202158557301
  0
LINE
  8
_1-8_小物
  6
CONTINUOUS
 62
    4
 10
159.84899475828206
 20
127.32202158557301
 11
160.32840228113639
 21
127.56823861900521
  0
LINE
  8
_1-8_小物
  6
CONTINUOUS
 62
    4
 10
160.32840228113639
 20
127.56823861900521
 11
160.74351967427432
 21
127.87315124448051
  0
LINE
  8
_1-8_小物
  6
CONTINUOUS
 62
    4
 10
160.74351967427432
 20
127.87315124448051
 11
161.08173380576486
 21
128.22749484616708
  0
LINE
  8
_1-8_小物
  6
CONTINUOUS
 62
    4
 10
161.08173380576486
 20
128.22749484616708
 11
161.33276821036728
 21
128.62050287303418
  0
LINE
  8
_1-8_小物
  6
CONTINUOUS
 62
    4
 10
161.33276821036728
 20
128.62050287303418
 11
161.48899533472729
 21
129.04023397505711
  0
LINE
  8
_1-8_小物
  6
CONTINUOUS
 62
    4
 10
161.48899533472729
 20
129.04023397505711
 11
161.54566829672595
 21
129.47393483509512
  0
LINE
  8
_1-8_小物
  6
CONTINUOUS
 62
    4
 10
161.54566829672595
 20
129.47393483509512
 11
161.5010651170908
 21
129.90842767197913
  0
LINE
  8
_1-8_小物
  6
CONTINUOUS
 62
    4
 10
161.5010651170908
 20
129.90842767197913
 11
161.35654104086481
 21
130.33051064072444
  0
LINE
  8
_1-8_小物
  6
CONTINUOUS
 62
    4
 10
161.35654104086481
 20
130.33051064072444
 11
161.11648735897137
 21
130.72735896391001
  0
LINE
  8
_1-8_小物
  6
CONTINUOUS
 62
    4
 10
161.11648735897137
 20
130.72735896391001
 11
160.78819798106178
 21
131.08691460605075
  0
LINE
  8
_1-8_小物
  6
CONTINUOUS
 62
    4
 10
160.78819798106178
 20
131.08691460605075
 11
160.38164781376139
 21
131.3982526509042
  0
LINE
  8
_1-8_小物
  6
CONTINUOUS
 62
    4
 10
160.38164781376139
 20
131.3982526509042
 11
159.9091896781793
 21
131.6519132495221
  0
LINE
  8
_1-8_小物
  6
CONTINUOUS
 62
    4
 10
159.9091896781793
 20
131.6519132495221
 11
159.38517897568983
 21
131.84018905297393
  0
LINE
  8
_1-8_小物
  6
CONTINUOUS
 62
    4
 10
159.38517897568983
 20
131.84018905297393
 11
158.82553750632593
 21
131.95735939624393
  0
LINE
  8
_1-8_小物
  6
CONTINUOUS
 62
    4
 10
158.82553750632593
 20
131.95735939624393
 11
158.24726969294193
 21
131.99986411774293
  0
LINE
  8
_1-8_小物
  6
CONTINUOUS
 62
    4
 10
158.24726969294193
 20
131.99986411774293
 11
157.66794591042992
 21
131.96641173301657
  0
LINE
  8
_1-8_小物
  6
CONTINUOUS
 62
    4
 10
157.66794591042992
 20
131.96641173301657
 11
157.10516861876951
 21
131.85801867584706
  0
LINE
  8
_1-8_小物
  6
CONTINUOUS
 62
    4
 10
157.10516861876951
 20
131.85801867584706
 11
157.03985321657842
 21
131.84018902839435
  0
ARC
  8
_1-8_小物
  6
CONTINUOUS
 62
    4
 10
149.88841540894515
 20
124.49999999999997
 40
5
 50
74.23983426036601
 51
82.444482010074083
  0
ARC
  8
_1-8_小物
  6
CONTINUOUS
 62
    4
 10
149.82008748449641
 20
123.99999999999997
 40
5
 50
74.258588419679057
 51
81.653895699843488
  0
ARC
  8
_1-8_小物
  6
CONTINUOUS
 62
    4
 10
149.82008748449641
 20
135
 40
5
 50
278.34610430015653
 51
285.74141158032086
  0
ARC
  8
_1-8_小物
  6
CONTINUOUS
 62
    4
 10
149.88841540894515
 20
134.5
 40
5
 50
277.55551798992593
 51
285.76016573963392
  0
INSERT
  2
-001-_1_
  8
_1-8_小物
 10
210
 20
148.5
 41
1
 42
1
 50
0
  0
LINE
  8
_1-8_小物
  6
CONTINUOUS
 62
    4
 10
82.718512396225748
 20
131.84018902839435
 11
88.581797236144695
 21
130.18752043233465
  0
LINE
  8
_1-8_小物
  6
CONTINUOUS
 62
    4
 10
82.597698207180116
 20
131.35707331101597
 11
88.511894154779
 21
129.68796469593613
  0
LINE
  8
_1-8_小物
  6
CONTINUOUS
 62
    4
 10
82.718512396225748
 20
127.15981097160562
 11
88.581797236144695
 21
128.81247956766532
  0
LINE
  8
_1-8_小物
  6
CONTINUOUS
 62
    4
 10
82.597698207180116
 20
127.64292668898401
 11
88.511894154779
 21
129.31203530406384
  0
LINE
  8
_1-8_小物
  6
CONTINUOUS
 62
    4
 10
82.597698207180201
 20
131.35707331101594
 11
82.597698207180201
 21
131.35707331101594
  0
LINE
  8
_1-8_小物
  6
CONTINUOUS
 62
    4
 10
82.597698207180201
 20
131.35707331101594
 11
82.124875283394388
 21
131.45779074697211
  0
LINE
  8
_1-8_小物
  6
CONTINUOUS
 62
    4
 10
82.124875283394388
 20
131.45779074697211
 11
81.634458953363037
 21
131.49902170177148
  0
LINE
  8
_1-8_小物
  6
CONTINUOUS
 62
    4
 10
81.634458953363037
 20
131.49902170177148
 11
81.141350269111499
 21
131.47951339371627
  0
LINE
  8
_1-8_小物
  6
CONTINUOUS
 62
    4
 10
81.141350269111499
 20
131.47951339371627
 11
80.660532088485724
 21
131.39985857287513
  0
LINE
  8
_1-8_小物
  6
CONTINUOUS
 62
    4
 10
80.660532088485724
 20
131.39985857287513
 11
80.206613828598293
 21
131.262477510672
  0
LINE
  8
_1-8_小物
  6
CONTINUOUS
 62
    4
 10
80.206613828598293
 20
131.262477510672
 11
79.79338756608216
 21
131.07154446116377
  0
LINE
  8
_1-8_小物
  6
CONTINUOUS
 62
    4
 10
79.79338756608216
 20
131.07154446116377
 11
79.433408971821308
 21
130.8328608284429
  0
LINE
  8
_1-8_小物
  6
CONTINUOUS
 62
    4
 10
79.433408971821308
 20
130.8328608284429
 11
79.137615813244381
 21
130.55367889390996
  0
LINE
  8
_1-8_小物
  6
CONTINUOUS
 62
    4
 10
79.137615813244381
 20
130.55367889390996
 11
78.914995615796187
 21
130.24248145937278
  0
LINE
  8
_1-8_小物
  6
CONTINUOUS
 62
    4
 10
78.914995615796187
 20
130.24248145937278
 11
78.772312581524943
 21
129.90872410140634
  0
LINE
  8
_1-8_小物
  6
CONTINUOUS
 62
    4
 10
78.772312581524943
 20
129.90872410140634
 11
78.71390206222587
 21
129.56254786844303
  0
LINE
  8
_1-8_小物
  6
CONTINUOUS
 62
    4
 10
78.71390206222587
 20
129.56254786844303
 11
78.741538831970715
 21
129.2144711501478
  0
LINE
  8
_1-8_小物
  6
CONTINUOUS
 62
    4
 10
78.741538831970715
 20
129.2144711501478
 11
78.854383161495676
 21
128.8750700814708
  0
LINE
  8
_1-8_小物
  6
CONTINUOUS
 62
    4
 10
78.854383161495676
 20
128.8750700814708
 11
79.0490063329501
 21
128.55465719213848
  0
LINE
  8
_1-8_小物
  6
CONTINUOUS
 62
    4
 10
79.0490063329501
 20
128.55465719213848
 11
79.319494819753459
 21
128.26296806565651
  0
LINE
  8
_1-8_小物
  6
CONTINUOUS
 62
    4
 10
79.319494819753459
 20
128.26296806565651
 11
79.657629966107976
 21
128.0088655285312
  0
LINE
  8
_1-8_小物
  6
CONTINUOUS
 62
    4
 10
79.657629966107976
 20
128.0088655285312
 11
80.053137706696333
 21
127.80007035777102
  0
LINE
  8
_1-8_小物
  6
CONTINUOUS
 62
    4
 10
80.053137706696333
 20
127.80007035777102
 11
80.494000738957297
 21
127.64292668898406
  0
LINE
  8
_1-8_小物
  6
CONTINUOUS
 62
    4
 10
80.494000738957297
 20
127.64292668898406
 11
80.96682366274311
 21
127.54220925302788
  0
LINE
  8
_1-8_小物
  6
CONTINUOUS
 62
    4
 10
80.96682366274311
 20
127.54220925302788
 11
81.457239992774475
 21
127.50097829822853
  0
LINE
  8
_1-8_小物
  6
CONTINUOUS
 62
    4
 10
81.457239992774475
 20
127.50097829822853
 11
81.950348677026014
 21
127.52048660628371
  0
LINE
  8
_1-8_小物
  6
CONTINUOUS
 62
    4
 10
81.950348677026014
 20
127.52048660628371
 11
82.431166857651789
 21
127.60014142712487
  0
LINE
  8
_1-8_小物
  6
CONTINUOUS
 62
    4
 10
82.431166857651789
 20
127.60014142712487
 11
82.597698099381958
 21
127.64292665856115
  0
LINE
  8
_1-8_小物
  6
CONTINUOUS
 62
    4
 10
82.718512396225748
 20
131.84018902839435
 11
82.718512396225748
 21
131.84018902839435
  0
LINE
  8
_1-8_小物
  6
CONTINUOUS
 62
    4
 10
82.718512396225748
 20
131.84018902839435
 11
82.158870931227966
 21
131.9573593833947
  0
LINE
  8
_1-8_小物
  6
CONTINUOUS
 62
    4
 10
82.158870931227966
 20
131.9573593833947
 11
81.580603119427835
 21
131.99986411701445
  0
LINE
  8
_1-8_小物
  6
CONTINUOUS
 62
    4
 10
81.580603119427835
 20
131.99986411701445
 11
81.001279335669281
 21
131.96641174443101
  0
LINE
  8
_1-8_小物
  6
CONTINUOUS
 62
    4
 10
81.001279335669281
 20
131.96641174443101
 11
80.438502039969819
 21
131.8580186990576
  0
LINE
  8
_1-8_小物
  6
CONTINUOUS
 62
    4
 10
80.438502039969819
 20
131.8580186990576
 11
79.909370935680229
 21
131.67797844872834
  0
LINE
  8
_1-8_小物
  6
CONTINUOUS
 62
    4
 10
79.909370935680229
 20
131.67797844872834
 11
79.429963403651087
 21
131.43176142534475
  0
LINE
  8
_1-8_小物
  6
CONTINUOUS
 62
    4
 10
79.429963403651087
 20
131.43176142534475
 11
79.014845999151206
 21
131.12684880857049
  0
LINE
  8
_1-8_小物
  6
CONTINUOUS
 62
    4
 10
79.014845999151206
 20
131.12684880857049
 11
78.676631854456744
 21
130.77250521397306
  0
LINE
  8
_1-8_小物
  6
CONTINUOUS
 62
    4
 10
78.676631854456744
 20
130.77250521397306
 11
78.425597435209639
 21
130.37949719236775
  0
LINE
  8
_1-8_小物
  6
CONTINUOUS
 62
    4
 10
78.425597435209639
 20
130.37949719236775
 11
78.269370295209171
 21
129.95976609361941
  0
LINE
  8
_1-8_小物
  6
CONTINUOUS
 62
    4
 10
78.269370295209171
 20
129.95976609361941
 11
78.212697317049489
 21
129.52606523476931
  0
LINE
  8
_1-8_小物
  6
CONTINUOUS
 62
    4
 10
78.212697317049489
 20
129.52606523476931
 11
78.257300480494095
 21
129.0915723969504
  0
LINE
  8
_1-8_小物
  6
CONTINUOUS
 62
    4
 10
78.257300480494095
 20
129.0915723969504
 11
78.401824540991996
 21
128.66948942517578
  0
LINE
  8
_1-8_小物
  6
CONTINUOUS
 62
    4
 10
78.401824540991996
 20
128.66948942517578
 11
78.641878208097665
 21
128.27264109695858
  0
LINE
  8
_1-8_小物
  6
CONTINUOUS
 62
    4
 10
78.641878208097665
 20
128.27264109695858
 11
78.970167572609114
 21
127.91308544793674
  0
LINE
  8
_1-8_小物
  6
CONTINUOUS
 62
    4
 10
78.970167572609114
 20
127.91308544793674
 11
79.376717728308108
 21
127.60174739456183
  0
LINE
  8
_1-8_小物
  6
CONTINUOUS
 62
    4
 10
79.376717728308108
 20
127.60174739456183
 11
79.849175854438016
 21
127.34808678604097
  0
LINE
  8
_1-8_小物
  6
CONTINUOUS
 62
    4
 10
79.849175854438016
 20
127.34808678604097
 11
80.37318654991175
 21
127.15981097160564
  0
LINE
  8
_1-8_小物
  6
CONTINUOUS
 62
    4
 10
80.37318654991175
 20
127.15981097160564
 11
80.932828014909546
 21
127.04264061660528
  0
LINE
  8
_1-8_小物
  6
CONTINUOUS
 62
    4
 10
80.932828014909546
 20
127.04264061660528
 11
81.511095826709678
 21
127.00013588298553
  0
LINE
  8
_1-8_小物
  6
CONTINUOUS
 62
    4
 10
81.511095826709678
 20
127.00013588298553
 11
82.090419610468231
 21
127.03358825556899
  0
LINE
  8
_1-8_小物
  6
CONTINUOUS
 62
    4
 10
82.090419610468231
 20
127.03358825556899
 11
82.653196906167693
 21
127.1419813009424
  0
LINE
  8
_1-8_小物
  6
CONTINUOUS
 62
    4
 10
82.653196906167693
 20
127.1419813009424
 11
82.718512309023168
 21
127.15981094702607
  0
ARC
  8
_1-8_小物
  6
CONTINUOUS
 62
    4
 10
89.869950203859005
 20
124.49999999999997
 40
5
 50
97.555517989925761
 51
105.76016573963415
  0
ARC
  8
_1-8_小物
  6
CONTINUOUS
 62
    4
 10
89.938278128307758
 20
123.99999999999997
 40
5
 50
98.346104300156512
 51
105.74141158032096
  0
ARC
  8
_1-8_小物
  6
CONTINUOUS
 62
    4
 10
89.938278128307758
 20
135
 40
5
 50
254.25858841967909
 51
261.65389569984347
  0
ARC
  8
_1-8_小物
  6
CONTINUOUS
 62
    4
 10
89.869950203859005
 20
134.5
 40
5
 50
254.23983426036591
 51
262.44448201007424
  0
LINE
  8
_1-8_小物
  6
CONTINUOUS
 62
    4
 10
91.879182806402085
 20
129.24999999999997
 11
118.21251613973541
 21
129.24999999999997
  0
LINE
  8
_1-8_小物
  6
CONTINUOUS
 62
    4
 10
91.879182806402085
 20
129.75
 11
118.21251613973541
 21
129.75
  0
LINE
  8
_1-8_小物
  6
CONTINUOUS
 62
    4
 10
147.87918280640207
 20
129.24999999999997
 11
121.54584947306876
 21
129.24999999999997
  0
LINE
  8
_1-8_小物
  6
CONTINUOUS
 62
    4
 10
147.87918280640207
 20
129.75
 11
121.54584947306876
 21
129.75
  0
TEXT
  8
_0-0_図面枠
 62
    4
 10
241.66666666666663
 20
128
 40
3
 41
1
 50
0
  1
（落下防止ワイヤー）
  0
INSERT
  2
-002-_2_
  8
_1-8_小物
 10
210
 20
148.5
 41
1
 42
1
 50
0
  0
LINE
  8
_1-8_小物
  6
CONTINUOUS
 62
    4
 10
357.03985321657842
 20
131.84018902839435
 11
351.17656837665947
 21
130.18752043233465
  0
LINE
  8
_1-8_小物
  6
CONTINUOUS
 62
    4
 10
357.16066740562405
 20
131.35707331101597
 11
351.24647145802516
 21
129.68796469593613
  0
LINE
  8
_1-8_小物
  6
CONTINUOUS
 62
    4
 10
357.03985321657842
 20
127.15981097160562
 11
351.17656837665947
 21
128.81247956766532
  0
LINE
  8
_1-8_小物
  6
CONTINUOUS
 62
    4
 10
357.16066740562405
 20
127.64292668898401
 11
351.24647145802516
 21
129.31203530406384
  0
LINE
  8
_1-8_小物
  6
CONTINUOUS
 62
    4
 10
357.1606675134222
 20
127.64292665856115
 11
357.1606675134222
 21
127.64292665856115
  0
LINE
  8
_1-8_小物
  6
CONTINUOUS
 62
    4
 10
357.1606675134222
 20
127.64292665856115
 11
357.63349044305437
 21
127.54220923628056
  0
LINE
  8
_1-8_小物
  6
CONTINUOUS
 62
    4
 10
357.63349044305437
 20
127.54220923628056
 11
358.1239067754791
 21
127.50097829566566
  0
LINE
  8
_1-8_小物
  6
CONTINUOUS
 62
    4
 10
358.1239067754791
 20
127.50097829566566
 11
358.61701545859825
 21
127.52048661798315
  0
LINE
  8
_1-8_小物
  6
CONTINUOUS
 62
    4
 10
358.61701545859825
 20
127.52048661798315
 11
359.09783363460025
 21
127.60014145273114
  0
LINE
  8
_1-8_小物
  6
CONTINUOUS
 62
    4
 10
359.09783363460025
 20
127.60014145273114
 11
359.55175188651305
 21
127.73752252806307
  0
LINE
  8
_1-8_小物
  6
CONTINUOUS
 62
    4
 10
359.55175188651305
 20
127.73752252806307
 11
359.96497813794605
 21
127.92845558952317
  0
LINE
  8
_1-8_小物
  6
CONTINUOUS
 62
    4
 10
359.96497813794605
 20
127.92845558952317
 11
360.32495671835193
 21
128.16713923265576
  0
LINE
  8
_1-8_小物
  6
CONTINUOUS
 62
    4
 10
360.32495671835193
 20
128.16713923265576
 11
360.62074986072309
 21
128.44632117574403
  0
LINE
  8
_1-8_小物
  6
CONTINUOUS
 62
    4
 10
360.62074986072309
 20
128.44632117574403
 11
360.84337004010706
 21
128.75751861672009
  0
LINE
  8
_1-8_小物
  6
CONTINUOUS
 62
    4
 10
360.84337004010706
 20
128.75751861672009
 11
360.98605305500456
 21
129.09127597881343
  0
LINE
  8
_1-8_小物
  6
CONTINUOUS
 62
    4
 10
360.98605305500456
 20
129.09127597881343
 11
361.04446355420902
 21
129.43745221346614
  0
LINE
  8
_1-8_小物
  6
CONTINUOUS
 62
    4
 10
361.04446355420902
 20
129.43745221346614
 11
361.01682676425924
 21
129.78552893096202
  0
LINE
  8
_1-8_小物
  6
CONTINUOUS
 62
    4
 10
361.01682676425924
 20
129.78552893096202
 11
360.90398241503294
 21
130.12492999637522
  0
LINE
  8
_1-8_小物
  6
CONTINUOUS
 62
    4
 10
360.90398241503294
 20
130.12492999637522
 11
360.70935922497932
 21
130.44534288007839
  0
LINE
  8
_1-8_小物
  6
CONTINUOUS
 62
    4
 10
360.70935922497932
 20
130.44534288007839
 11
360.4388707212442
 21
130.73703199873694
  0
LINE
  8
_1-8_小物
  6
CONTINUOUS
 62
    4
 10
360.4388707212442
 20
130.73703199873694
 11
360.1007355601397
 21
130.99113452608228
  0
LINE
  8
_1-8_小物
  6
CONTINUOUS
 62
    4
 10
360.1007355601397
 20
130.99113452608228
 11
359.70522780743136
 21
131.19992968540308
  0
LINE
  8
_1-8_小物
  6
CONTINUOUS
 62
    4
 10
359.70522780743136
 20
131.19992968540308
 11
359.26436476604857
 21
131.35707334143885
  0
LINE
  8
_1-8_小物
  6
CONTINUOUS
 62
    4
 10
359.26436476604857
 20
131.35707334143885
 11
358.7915418364164
 21
131.45779076371943
  0
LINE
  8
_1-8_小物
  6
CONTINUOUS
 62
    4
 10
358.7915418364164
 20
131.45779076371943
 11
358.30112550399167
 21
131.49902170433435
  0
LINE
  8
_1-8_小物
  6
CONTINUOUS
 62
    4
 10
358.30112550399167
 20
131.49902170433435
 11
357.80801682087252
 21
131.47951338201685
  0
LINE
  8
_1-8_小物
  6
CONTINUOUS
 62
    4
 10
357.80801682087252
 20
131.47951338201685
 11
357.32719864487052
 21
131.39985854726888
  0
LINE
  8
_1-8_小物
  6
CONTINUOUS
 62
    4
 10
357.32719864487052
 20
131.39985854726888
 11
357.16066740562394
 21
131.35707331101594
  0
LINE
  8
_1-8_小物
  6
CONTINUOUS
 62
    4
 10
357.039853303781
 20
127.15981094702607
 11
357.039853303781
 21
127.15981094702607
  0
LINE
  8
_1-8_小物
  6
CONTINUOUS
 62
    4
 10
357.039853303781
 20
127.15981094702607
 11
357.5994947731449
 21
127.04264060375607
  0
LINE
  8
_1-8_小物
  6
CONTINUOUS
 62
    4
 10
357.5994947731449
 20
127.04264060375607
 11
358.1777625865289
 21
127.00013588225708
  0
LINE
  8
_1-8_小物
  6
CONTINUOUS
 62
    4
 10
358.1777625865289
 20
127.00013588225708
 11
358.75708636904091
 21
127.03358826698343
  0
LINE
  8
_1-8_小物
  6
CONTINUOUS
 62
    4
 10
358.75708636904091
 20
127.03358826698343
 11
359.31986366070134
 21
127.14198132415294
  0
LINE
  8
_1-8_小物
  6
CONTINUOUS
 62
    4
 10
359.31986366070134
 20
127.14198132415294
 11
359.84899475828206
 21
127.32202158557303
  0
LINE
  8
_1-8_小物
  6
CONTINUOUS
 62
    4
 10
359.84899475828206
 20
127.32202158557303
 11
360.32840228113639
 21
127.56823861900523
  0
LINE
  8
_1-8_小物
  6
CONTINUOUS
 62
    4
 10
360.32840228113639
 20
127.56823861900523
 11
360.7435196742743
 21
127.87315124448052
  0
LINE
  8
_1-8_小物
  6
CONTINUOUS
 62
    4
 10
360.7435196742743
 20
127.87315124448052
 11
361.08173380576483
 21
128.2274948461671
  0
LINE
  8
_1-8_小物
  6
CONTINUOUS
 62
    4
 10
361.08173380576483
 20
128.2274948461671
 11
361.33276821036725
 21
128.62050287303421
  0
LINE
  8
_1-8_小物
  6
CONTINUOUS
 62
    4
 10
361.33276821036725
 20
128.62050287303421
 11
361.48899533472729
 21
129.04023397505713
  0
LINE
  8
_1-8_小物
  6
CONTINUOUS
 62
    4
 10
361.48899533472729
 20
129.04023397505713
 11
361.54566829672592
 21
129.47393483509512
  0
LINE
  8
_1-8_小物
  6
CONTINUOUS
 62
    4
 10
361.54566829672592
 20
129.47393483509512
 11
361.50106511709077
 21
129.90842767197915
  0
LINE
  8
_1-8_小物
  6
CONTINUOUS
 62
    4
 10
361.50106511709077
 20
129.90842767197915
 11
361.35654104086478
 21
130.33051064072447
  0
LINE
  8
_1-8_小物
  6
CONTINUOUS
 62
    4
 10
361.35654104086478
 20
130.33051064072447
 11
361.11648735897131
 21
130.72735896391001
  0
LINE
  8
_1-8_小物
  6
CONTINUOUS
 62
    4
 10
361.11648735897131
 20
130.72735896391001
 11
360.78819798106173
 21
131.08691460605075
  0
LINE
  8
_1-8_小物
  6
CONTINUOUS
 62
    4
 10
360.78819798106173
 20
131.08691460605075
 11
360.38164781376133
 21
131.3982526509042
  0
LINE
  8
_1-8_小物
  6
CONTINUOUS
 62
    4
 10
360.38164781376133
 20
131.3982526509042
 11
359.90918967817925
 21
131.6519132495221
  0
LINE
  8
_1-8_小物
  6
CONTINUOUS
 62
    4
 10
359.90918967817925
 20
131.6519132495221
 11
359.38517897568977
 21
131.84018905297393
  0
LINE
  8
_1-8_小物
  6
CONTINUOUS
 62
    4
 10
359.38517897568977
 20
131.84018905297393
 11
358.82553750632587
 21
131.95735939624393
  0
LINE
  8
_1-8_小物
  6
CONTINUOUS
 62
    4
 10
358.82553750632587
 20
131.95735939624393
 11
358.24726969294187
 21
131.99986411774293
  0
LINE
  8
_1-8_小物
  6
CONTINUOUS
 62
    4
 10
358.24726969294187
 20
131.99986411774293
 11
357.66794591042986
 21
131.96641173301657
  0
LINE
  8
_1-8_小物
  6
CONTINUOUS
 62
    4
 10
357.66794591042986
 20
131.96641173301657
 11
357.10516861876948
 21
131.85801867584706
  0
LINE
  8
_1-8_小物
  6
CONTINUOUS
 62
    4
 10
357.10516861876948
 20
131.85801867584706
 11
357.03985321657842
 21
131.84018902839438
  0
ARC
  8
_1-8_小物
  6
CONTINUOUS
 62
    4
 10
349.88841540894515
 20
124.49999999999997
 40
5
 50
74.239834260366322
 51
82.444482010074083
  0
ARC
  8
_1-8_小物
  6
CONTINUOUS
 62
    4
 10
349.82008748449636
 20
123.99999999999997
 40
5
 50
74.258588419678418
 51
81.653895699842849
  0
ARC
  8
_1-8_小物
  6
CONTINUOUS
 62
    4
 10
349.82008748449636
 20
135
 40
5
 50
278.34610430015715
 51
285.7414115803216
  0
ARC
  8
_1-8_小物
  6
CONTINUOUS
 62
    4
 10
349.88841540894515
 20
134.5
 40
5
 50
277.55551798992593
 51
285.76016573963363
  0
INSERT
  2
-003-_3_
  8
_1-8_小物
 10
210
 20
148.5
 41
1
 42
1
 50
0
  0
LINE
  8
_1-8_小物
  6
CONTINUOUS
 62
    4
 10
282.71851239622572
 20
131.84018902839435
 11
288.58179723614467
 21
130.18752043233465
  0
LINE
  8
_1-8_小物
  6
CONTINUOUS
 62
    4
 10
282.59769820718009
 20
131.35707331101597
 11
288.51189415477899
 21
129.68796469593613
  0
LINE
  8
_1-8_小物
  6
CONTINUOUS
 62
    4
 10
282.71851239622572
 20
127.15981097160562
 11
288.58179723614467
 21
128.81247956766532
  0
LINE
  8
_1-8_小物
  6
CONTINUOUS
 62
    4
 10
282.59769820718009
 20
127.64292668898401
 11
288.51189415477899
 21
129.31203530406384
  0
LINE
  8
_1-8_小物
  6
CONTINUOUS
 62
    4
 10
282.5976982071802
 20
131.35707331101594
 11
282.5976982071802
 21
131.35707331101594
  0
LINE
  8
_1-8_小物
  6
CONTINUOUS
 62
    4
 10
282.5976982071802
 20
131.35707331101594
 11
282.12487528339437
 21
131.45779074697211
  0
LINE
  8
_1-8_小物
  6
CONTINUOUS
 62
    4
 10
282.12487528339437
 20
131.45779074697211
 11
281.63445895336304
 21
131.49902170177148
  0
LINE
  8
_1-8_小物
  6
CONTINUOUS
 62
    4
 10
281.63445895336304
 20
131.49902170177148
 11
281.14135026911151
 21
131.47951339371627
  0
LINE
  8
_1-8_小物
  6
CONTINUOUS
 62
    4
 10
281.14135026911151
 20
131.47951339371627
 11
280.6605320884857
 21
131.39985857287513
  0
LINE
  8
_1-8_小物
  6
CONTINUOUS
 62
    4
 10
280.6605320884857
 20
131.39985857287513
 11
280.20661382859828
 21
131.262477510672
  0
LINE
  8
_1-8_小物
  6
CONTINUOUS
 62
    4
 10
280.20661382859828
 20
131.262477510672
 11
279.79338756608217
 21
131.07154446116377
  0
LINE
  8
_1-8_小物
  6
CONTINUOUS
 62
    4
 10
279.79338756608217
 20
131.07154446116377
 11
279.43340897182128
 21
130.8328608284429
  0
LINE
  8
_1-8_小物
  6
CONTINUOUS
 62
    4
 10
279.43340897182128
 20
130.8328608284429
 11
279.13761581324439
 21
130.55367889390996
  0
LINE
  8
_1-8_小物
  6
CONTINUOUS
 62
    4
 10
279.13761581324439
 20
130.55367889390996
 11
278.91499561579622
 21
130.24248145937278
  0
LINE
  8
_1-8_小物
  6
CONTINUOUS
 62
    4
 10
278.91499561579622
 20
130.24248145937278
 11
278.77231258152494
 21
129.90872410140634
  0
LINE
  8
_1-8_小物
  6
CONTINUOUS
 62
    4
 10
278.77231258152494
 20
129.90872410140634
 11
278.71390206222588
 21
129.56254786844303
  0
LINE
  8
_1-8_小物
  6
CONTINUOUS
 62
    4
 10
278.71390206222588
 20
129.56254786844303
 11
278.74153883197073
 21
129.2144711501478
  0
LINE
  8
_1-8_小物
  6
CONTINUOUS
 62
    4
 10
278.74153883197073
 20
129.2144711501478
 11
278.85438316149566
 21
128.8750700814708
  0
LINE
  8
_1-8_小物
  6
CONTINUOUS
 62
    4
 10
278.85438316149566
 20
128.8750700814708
 11
279.04900633295011
 21
128.55465719213848
  0
LINE
  8
_1-8_小物
  6
CONTINUOUS
 62
    4
 10
279.04900633295011
 20
128.55465719213848
 11
279.31949481975346
 21
128.26296806565651
  0
LINE
  8
_1-8_小物
  6
CONTINUOUS
 62
    4
 10
279.31949481975346
 20
128.26296806565651
 11
279.657629966108
 21
128.0088655285312
  0
LINE
  8
_1-8_小物
  6
CONTINUOUS
 62
    4
 10
279.657629966108
 20
128.0088655285312
 11
280.0531377066963
 21
127.80007035777102
  0
LINE
  8
_1-8_小物
  6
CONTINUOUS
 62
    4
 10
280.0531377066963
 20
127.80007035777102
 11
280.49400073895731
 21
127.64292668898406
  0
LINE
  8
_1-8_小物
  6
CONTINUOUS
 62
    4
 10
280.49400073895731
 20
127.64292668898406
 11
280.96682366274314
 21
127.54220925302788
  0
LINE
  8
_1-8_小物
  6
CONTINUOUS
 62
    4
 10
280.96682366274314
 20
127.54220925302788
 11
281.45723999277448
 21
127.50097829822853
  0
LINE
  8
_1-8_小物
  6
CONTINUOUS
 62
    4
 10
281.45723999277448
 20
127.50097829822853
 11
281.950348677026
 21
127.52048660628371
  0
LINE
  8
_1-8_小物
  6
CONTINUOUS
 62
    4
 10
281.950348677026
 20
127.52048660628371
 11
282.43116685765176
 21
127.60014142712487
  0
LINE
  8
_1-8_小物
  6
CONTINUOUS
 62
    4
 10
282.43116685765176
 20
127.60014142712487
 11
282.59769809938194
 21
127.64292665856115
  0
LINE
  8
_1-8_小物
  6
CONTINUOUS
 62
    4
 10
282.71851239622572
 20
131.84018902839438
 11
282.71851239622572
 21
131.84018902839438
  0
LINE
  8
_1-8_小物
  6
CONTINUOUS
 62
    4
 10
282.71851239622572
 20
131.84018902839438
 11
282.15887093122791
 21
131.9573593833947
  0
LINE
  8
_1-8_小物
  6
CONTINUOUS
 62
    4
 10
282.15887093122791
 20
131.9573593833947
 11
281.58060311942779
 21
131.99986411701445
  0
LINE
  8
_1-8_小物
  6
CONTINUOUS
 62
    4
 10
281.58060311942779
 20
131.99986411701445
 11
281.00127933566927
 21
131.96641174443101
  0
LINE
  8
_1-8_小物
  6
CONTINUOUS
 62
    4
 10
281.00127933566927
 20
131.96641174443101
 11
280.43850203996976
 21
131.8580186990576
  0
LINE
  8
_1-8_小物
  6
CONTINUOUS
 62
    4
 10
280.43850203996976
 20
131.8580186990576
 11
279.90937093568022
 21
131.67797844872834
  0
LINE
  8
_1-8_小物
  6
CONTINUOUS
 62
    4
 10
279.90937093568022
 20
131.67797844872834
 11
279.42996340365107
 21
131.43176142534472
  0
LINE
  8
_1-8_小物
  6
CONTINUOUS
 62
    4
 10
279.42996340365107
 20
131.43176142534472
 11
279.01484599915119
 21
131.12684880857049
  0
LINE
  8
_1-8_小物
  6
CONTINUOUS
 62
    4
 10
279.01484599915119
 20
131.12684880857049
 11
278.67663185445673
 21
130.77250521397303
  0
LINE
  8
_1-8_小物
  6
CONTINUOUS
 62
    4
 10
278.67663185445673
 20
130.77250521397303
 11
278.42559743520962
 21
130.37949719236772
  0
LINE
  8
_1-8_小物
  6
CONTINUOUS
 62
    4
 10
278.42559743520962
 20
130.37949719236772
 11
278.26937029520917
 21
129.95976609361938
  0
LINE
  8
_1-8_小物
  6
CONTINUOUS
 62
    4
 10
278.26937029520917
 20
129.95976609361938
 11
278.2126973170495
 21
129.52606523476928
  0
LINE
  8
_1-8_小物
  6
CONTINUOUS
 62
    4
 10
278.2126973170495
 20
129.52606523476928
 11
278.25730048049411
 21
129.09157239695037
  0
LINE
  8
_1-8_小物
  6
CONTINUOUS
 62
    4
 10
278.25730048049411
 20
129.09157239695037
 11
278.40182454099198
 21
128.66948942517575
  0
LINE
  8
_1-8_小物
  6
CONTINUOUS
 62
    4
 10
278.40182454099198
 20
128.66948942517575
 11
278.64187820809769
 21
128.27264109695858
  0
LINE
  8
_1-8_小物
  6
CONTINUOUS
 62
    4
 10
278.64187820809769
 20
128.27264109695858
 11
278.97016757260911
 21
127.91308544793672
  0
LINE
  8
_1-8_小物
  6
CONTINUOUS
 62
    4
 10
278.97016757260911
 20
127.91308544793672
 11
279.37671772830811
 21
127.60174739456181
  0
LINE
  8
_1-8_小物
  6
CONTINUOUS
 62
    4
 10
279.37671772830811
 20
127.60174739456181
 11
279.84917585443804
 21
127.34808678604097
  0
LINE
  8
_1-8_小物
  6
CONTINUOUS
 62
    4
 10
279.84917585443804
 20
127.34808678604097
 11
280.37318654991179
 21
127.15981097160564
  0
LINE
  8
_1-8_小物
  6
CONTINUOUS
 62
    4
 10
280.37318654991179
 20
127.15981097160564
 11
280.93282801490955
 21
127.04264061660528
  0
LINE
  8
_1-8_小物
  6
CONTINUOUS
 62
    4
 10
280.93282801490955
 20
127.04264061660528
 11
281.51109582670972
 21
127.00013588298553
  0
LINE
  8
_1-8_小物
  6
CONTINUOUS
 62
    4
 10
281.51109582670972
 20
127.00013588298553
 11
282.09041961046825
 21
127.03358825556899
  0
LINE
  8
_1-8_小物
  6
CONTINUOUS
 62
    4
 10
282.09041961046825
 20
127.03358825556899
 11
282.65319690616769
 21
127.14198130094242
  0
LINE
  8
_1-8_小物
  6
CONTINUOUS
 62
    4
 10
282.65319690616769
 20
127.14198130094242
 11
282.71851230902314
 21
127.15981094702607
  0
ARC
  8
_1-8_小物
  6
CONTINUOUS
 62
    4
 10
289.86995020385899
 20
124.49999999999997
 40
5
 50
97.555517989925917
 51
105.76016573963432
  0
ARC
  8
_1-8_小物
  6
CONTINUOUS
 62
    4
 10
289.93827812830773
 20
123.99999999999997
 40
5
 50
98.346104300156512
 51
105.74141158032096
  0
ARC
  8
_1-8_小物
  6
CONTINUOUS
 62
    4
 10
289.93827812830773
 20
135
 40
5
 50
254.25858841967909
 51
261.65389569984347
  0
ARC
  8
_1-8_小物
  6
CONTINUOUS
 62
    4
 10
289.86995020385899
 20
134.5
 40
5
 50
254.23983426036577
 51
262.44448201007407
  0
LINE
  8
_1-8_小物
  6
CONTINUOUS
 62
    4
 10
291.87918280640207
 20
129.24999999999997
 11
318.21251613973538
 21
129.24999999999997
  0
LINE
  8
_1-8_小物
  6
CONTINUOUS
 62
    4
 10
291.87918280640207
 20
129.75
 11
318.21251613973538
 21
129.75
  0
LINE
  8
_1-8_小物
  6
CONTINUOUS
 62
    4
 10
347.87918280640207
 20
129.24999999999997
 11
321.54584947306876
 21
129.24999999999997
  0
LINE
  8
_1-8_小物
  6
CONTINUOUS
 62
    4
 10
347.87918280640207
 20
129.75
 11
321.54584947306876
 21
129.75
  0
LINE
  8
_0-0_図面枠
  6
CONTINUOUS
 62
    4
 10
182.14999999999998
 20
56.199999999999989
 11
40
 21
56.199999999999989
  0
LINE
  8
_0-0_図面枠
  6
CONTINUOUS
 62
    4
 10
182.14999999999998
 20
68.199999999999989
 11
40
 21
68.199999999999989
  0
LINE
  8
_0-0_図面枠
  6
CONTINUOUS
 62
    4
 10
182.14999999999998
 20
62.199999999999989
 11
40
 21
62.199999999999989
  0
LINE
  8
_0-0_図面枠
  6
CONTINUOUS
 62
    4
 10
182.14999999999998
 20
74.199999999999989
 11
40
 21
74.199999999999989
  0
LINE
  8
_0-0_図面枠
  6
CONTINUOUS
 62
    4
 10
182.14999999999998
 20
110.20000000000005
 11
40
 21
110.20000000000005
  0
LINE
  8
_0-0_図面枠
  6
CONTINUOUS
 62
    4
 10
182.14999999999998
 20
104.20000000000005
 11
40
 21
104.20000000000005
  0
LINE
  8
_0-0_図面枠
  6
CONTINUOUS
 62
    4
 10
182.14999999999998
 20
98.200000000000045
 11
40
 21
98.200000000000045
  0
LINE
  8
_0-0_図面枠
  6
CONTINUOUS
 62
    4
 10
182.14999999999998
 20
92.200000000000045
 11
40
 21
92.200000000000045
  0
LINE
  8
_0-0_図面枠
  6
CONTINUOUS
 62
    4
 10
182.14999999999998
 20
86.200000000000045
 11
40
 21
86.200000000000045
  0
LINE
  8
_0-0_図面枠
  6
CONTINUOUS
 62
    4
 10
182.14999999999998
 20
80.199999999999989
 11
40
 21
80.199999999999989
  0
LINE
  8
_0-0_図面枠
  6
CONTINUOUS
 62
    4
 10
182.14999999999998
 20
121
 11
40
 21
121
  0
LINE
  8
_0-0_図面枠
  6
CONTINUOUS
 62
    4
 10
182.14999999999998
 20
50.199999999999989
 11
40
 21
50.199999999999989
  0
TEXT
  8
_0-0_図面枠
 62
    4
 10
165.55126400000003
 20
116.20001049999996
 40
3.2000000000000002
 41
1
 50
0
  1
使用
  0
TEXT
  8
_0-0_図面枠
 62
    4
 10
150.50638249999997
 20
116.20001049999996
 40
3.2000000000000002
 41
1
 50
0
  1
定　尺
  0
TEXT
  8
_0-0_図面枠
 62
    4
 10
148.3435475
 20
111.40000399999997
 40
3.2000000000000002
 41
1
 50
0
  1
（ｍｍ）
  0
TEXT
  8
_0-0_図面枠
 62
    4
 10
165.55126400000003
 20
111.40000399999997
 40
3.2000000000000002
 41
1
 50
0
  1
数量
  0
TEXT
  8
_0-0_図面枠
 62
    4
 10
40.497068000000013
 20
105.42754949999994
 40
3.2000000000000002
 41
1
 50
0
  1
　１
  0
TEXT
  8
_0-0_図面枠
 62
    4
 10
149.27047700000003
 20
105.40000399999997
 40
3.2000000000000002
 41
1
 50
0
  1
３０００
  0
TEXT
  8
_0-0_図面枠
 62
    4
 10
177.00512500000002
 20
105.40000399999997
 40
3.2000000000000002
 41
1
 50
0
  1
本
  0
TEXT
  8
_0-0_図面枠
 62
    4
 10
43.586831999999958
 20
99.427549499999941
 40
3.2000000000000002
 41
1
 50
0
  1
２
  0
TEXT
  8
_0-0_図面枠
 62
    4
 10
43.586831999999958
 20
93.427549499999941
 40
3.2000000000000002
 41
1
 50
0
  1
３
  0
TEXT
  8
_0-0_図面枠
 62
    4
 10
43.586831999999958
 20
87.427549499999941
 40
3.2000000000000002
 41
1
 50
0
  1
４
  0
TEXT
  8
_0-0_図面枠
 62
    4
 10
169.36022149999994
 20
87.450002999999924
 40
3.2000000000000002
 41
1
 50
0
  1
１
  0
TEXT
  8
_0-0_図面枠
 62
    4
 10
43.586831999999958
 20
81.427560999999969
 40
3.2000000000000002
 41
1
 50
0
  1
５
  0
TEXT
  8
_0-0_図面枠
 62
    4
 10
177.00512500000002
 20
81.399992499999996
 40
3.2000000000000002
 41
1
 50
0
  1
本
  0
TEXT
  8
_0-0_図面枠
 62
    4
 10
43.586831999999958
 20
75.427560999999969
 40
3.2000000000000002
 41
1
 50
0
  1
６
  0
TEXT
  8
_0-0_図面枠
 62
    4
 10
43.586831999999958
 20
69.427555499999983
 40
3.2000000000000002
 41
1
 50
0
  1
７
  0
TEXT
  8
_0-0_図面枠
 62
    4
 10
43.586831999999958
 20
63.427555499999983
 40
3.2000000000000002
 41
1
 50
0
  1
８
  0
TEXT
  8
_0-0_図面枠
 62
    4
 10
43.586831999999958
 20
57.427555499999983
 40
3.2000000000000002
 41
1
 50
0
  1
９
  0
LINE
  8
_0-0_図面枠
  6
CONTINUOUS
 62
    4
 10
382.15000000000009
 20
110.19999999999999
 11
240
 21
110.19999999999999
  0
LINE
  8
_0-0_図面枠
  6
CONTINUOUS
 62
    4
 10
382.15000000000009
 20
104.19999999999999
 11
240
 21
104.19999999999999
  0
LINE
  8
_0-0_図面枠
  6
CONTINUOUS
 62
    4
 10
382.15000000000009
 20
98.199999999999989
 11
240
 21
98.199999999999989
  0
LINE
  8
_0-0_図面枠
  6
CONTINUOUS
 62
    4
 10
382.15000000000009
 20
92.199999999999989
 11
240
 21
92.199999999999989
  0
LINE
  8
_0-0_図面枠
  6
CONTINUOUS
 62
    4
 10
382.15000000000009
 20
86.199999999999989
 11
240
 21
86.199999999999989
  0
LINE
  8
_0-0_図面枠
  6
CONTINUOUS
 62
    4
 10
382.15000000000009
 20
80.199999999999989
 11
240
 21
80.199999999999989
  0
LINE
  8
_0-0_図面枠
  6
CONTINUOUS
 62
    4
 10
382.15000000000009
 20
74.199999999999989
 11
240
 21
74.199999999999989
  0
LINE
  8
_0-0_図面枠
  6
CONTINUOUS
 62
    4
 10
382.15000000000009
 20
68.199999999999989
 11
240
 21
68.199999999999989
  0
LINE
  8
_0-0_図面枠
  6
CONTINUOUS
 62
    4
 10
382.15000000000009
 20
62.199999999999989
 11
240
 21
62.199999999999989
  0
LINE
  8
_0-0_図面枠
  6
CONTINUOUS
 62
    4
 10
382.15000000000009
 20
56.199999999999989
 11
240
 21
56.199999999999989
  0
LINE
  8
_0-0_図面枠
  6
CONTINUOUS
 62
    4
 10
382.15000000000009
 20
121
 11
240
 21
121
  0
LINE
  8
_0-0_図面枠
  6
CONTINUOUS
 62
    4
 10
382.15000000000009
 20
50.199999999999989
 11
240
 21
50.199999999999989
  0
TEXT
  8
_0-0_図面枠
 62
    4
 10
365.55123000000003
 20
116.20001050000002
 40
3.2000000000000002
 41
1
 50
0
  1
使用
  0
TEXT
  8
_0-0_図面枠
 62
    4
 10
350.50632500000006
 20
116.20002199999999
 40
3.2000000000000002
 41
1
 50
0
  1
定　尺
  0
TEXT
  8
_0-0_図面枠
 62
    4
 10
348.34349000000003
 20
111.400015
 40
3.2000000000000002
 41
1
 50
0
  1
（ｍｍ）
  0
TEXT
  8
_0-0_図面枠
 62
    4
 10
365.55123000000003
 20
111.40000400000002
 40
3.2000000000000002
 41
1
 50
0
  1
数量
  0
TEXT
  8
_0-0_図面枠
 62
    4
 10
240.4970505
 20
105.4275495
 40
3.2000000000000002
 41
1
 50
0
  1
　１
  0
TEXT
  8
_0-0_図面枠
 62
    4
 10
243.5868145
 20
99.427549499999998
 40
3.2000000000000002
 41
1
 50
0
  1
２
  0
TEXT
  8
_0-0_図面枠
 62
    4
 10
243.5868145
 20
93.427549499999998
 40
3.2000000000000002
 41
1
 50
0
  1
３
  0
TEXT
  8
_0-0_図面枠
 62
    4
 10
243.5868145
 20
87.427549499999998
 40
3.2000000000000002
 41
1
 50
0
  1
４
  0
TEXT
  8
_0-0_図面枠
 62
    4
 10
243.5868145
 20
81.427560999999997
 40
3.2000000000000002
 41
1
 50
0
  1
５
  0
TEXT
  8
_0-0_図面枠
 62
    4
 10
243.5868145
 20
75.427560999999997
 40
3.2000000000000002
 41
1
 50
0
  1
６
  0
TEXT
  8
_0-0_図面枠
 62
    4
 10
243.5868145
 20
69.427560999999997
 40
3.2000000000000002
 41
1
 50
0
  1
７
  0
TEXT
  8
_0-0_図面枠
 62
    4
 10
243.5868145
 20
63.427555499999983
 40
3.2000000000000002
 41
1
 50
0
  1
８
  0
TEXT
  8
_0-0_図面枠
 62
    4
 10
243.5868145
 20
57.427555499999983
 40
3.2000000000000002
 41
1
 50
0
  1
９
  0
TEXT
  8
_0-0_図面枠
 62
    4
 10
240.4970505
 20
51.427555499999983
 40
3.2000000000000002
 41
1
 50
0
  1
１０
  0
TEXT
  8
_0-0_図面枠
 62
    4
 10
169.36022149999994
 20
105.44999150000001
 40
3.2000000000000002
 41
1
 50
0
  1
１
  0
TEXT
  8
_0-0_図面枠
 62
    4
 10
48.400007500000015
 20
87.400003999999967
 40
3.2000000000000002
 41
1
 50
0
  1
ＳＳＧばねフレーム
  0
TEXT
  8
_0-0_図面枠
 62
    4
 10
149.27047700000003
 20
87.400003999999967
 40
3.2000000000000002
 41
1
 50
0
  1
３０００
  0
TEXT
  8
_0-0_図面枠
 62
    4
 10
169.36022149999994
 20
93.44999150000001
 40
3.2000000000000002
 41
1
 50
0
  1
６
  0
TEXT
  8
_0-0_図面枠
 62
    4
 10
149.27047700000003
 20
81.400003999999967
 40
3.2000000000000002
 41
1
 50
0
  1
３０００
  0
TEXT
  8
_0-0_図面枠
 62
    4
 10
169.36022149999994
 20
81.450002999999924
 40
3.2000000000000002
 41
1
 50
0
  1
１
  0
TEXT
  8
_0-0_図面枠
 62
    4
 10
177.00512500000002
 20
93.400004000000024
 40
3.2000000000000002
 41
1
 50
0
  1
個
  0
TEXT
  8
_0-0_図面枠
 62
    4
 10
178.54999999999998
 20
118.80000000000001
 40
3.2000000000000002
 41
1
 50
0
  1
単位
  7
TATEGAKI
  0
TEXT
  8
_0-0_図面枠
 62
    4
 10
378.55000000000007
 20
118.80000000000001
 40
3.2000000000000002
 41
1
 50
0
  1
単位
  7
TATEGAKI
  0
TEXT
  8
_0-0_図面枠
 62
    4
 10
40.4970505
 20
51.427555499999983
 40
3.2000000000000002
 41
1
 50
0
  1
１０
  0
TEXT
  8
_0-0_図面枠
 62
    4
 10
349.27047700000014
 20
105.40000399999997
 40
3.2000000000000002
 41
1
 50
0
  1
３０００
  0
TEXT
  8
_0-0_図面枠
 62
    4
 10
377.00512500000013
 20
105.40000399999997
 40
3.2000000000000002
 41
1
 50
0
  1
本
  0
TEXT
  8
_0-0_図面枠
 62
    4
 10
369.36022150000008
 20
87.450002999999924
 40
3.2000000000000002
 41
1
 50
0
  1
１
  0
TEXT
  8
_0-0_図面枠
 62
    4
 10
377.00512500000013
 20
81.399992499999996
 40
3.2000000000000002
 41
1
 50
0
  1
本
  0
TEXT
  8
_0-0_図面枠
 62
    4
 10
369.36022150000008
 20
105.44999150000001
 40
3.2000000000000002
 41
1
 50
0
  1
１
  0
TEXT
  8
_0-0_図面枠
 62
    4
 10
349.27047700000014
 20
87.400003999999967
 40
3.2000000000000002
 41
1
 50
0
  1
３０００
  0
TEXT
  8
_0-0_図面枠
 62
    4
 10
369.36022150000008
 20
93.44999150000001
 40
3.2000000000000002
 41
1
 50
0
  1
６
  0
TEXT
  8
_0-0_図面枠
 62
    4
 10
349.27047700000014
 20
81.400003999999967
 40
3.2000000000000002
 41
1
 50
0
  1
３０００
  0
TEXT
  8
_0-0_図面枠
 62
    4
 10
369.36022150000008
 20
81.450002999999924
 40
3.2000000000000002
 41
1
 50
0
  1
１
  0
TEXT
  8
_0-0_図面枠
 62
    4
 10
377.00512500000013
 20
93.400004000000024
 40
3.2000000000000002
 41
1
 50
0
  1
個
  0
TEXT
  8
_0-0_図面枠
 62
    4
 10
248.4000075000001
 20
87.400003999999967
 40
3.2000000000000002
 41
1
 50
0
  1
ＳＣＧばねフレーム
  0
TEXT
  8
_0-0_図面枠
 62
    4
 10
177.00512500000002
 20
87.400003999999967
 40
3.2000000000000002
 41
1
 50
0
  1
本
  0
TEXT
  8
_0-0_図面枠
 62
    4
 10
67.633333333333383
 20
114.00000000000003
 40
3.2000000000000002
 41
1
 50
0
  1
部材名称
  0
TEXT
  8
_0-0_図面枠
 62
    4
 10
119.10833333333338
 20
114.00000000000001
 40
3.2000000000000002
 41
1
 50
0
  1
規　格
  0
TEXT
  8
_0-0_図面枠
 62
    4
 10
267.63333333333333
 20
114
 40
3.2000000000000002
 41
1
 50
0
  1
部材名称
  0
TEXT
  8
_0-0_図面枠
 62
    4
 10
319.10833333333335
 20
114
 40
3.2000000000000002
 41
1
 50
0
  1
規　格
  0
TEXT
  8
_0-0_図面枠
 62
    4
 10
48.400007500000015
 20
99.400003999999967
 40
3.2000000000000002
 41
1
 50
0
  1
ＳＳＧアーム(Ｄ)
  0
TEXT
  8
_0-0_図面枠
 62
    4
 10
48.400007500000015
 20
93.400003999999967
 40
3.2000000000000002
 41
1
 50
0
  1
ＳＳＧばね(Ｄ)
  0
TEXT
  8
_0-0_図面枠
 62
    4
 10
48.400007500000015
 20
81.400003999999967
 40
3.2000000000000002
 41
1
 50
0
  1
ＳＳＧフレーム(Ｄ)
  0
TEXT
  8
_0-0_図面枠
 62
    4
 10
248.4000075000001
 20
99.400003999999967
 40
3.2000000000000002
 41
1
 50
0
  1
ＳＣＧアーム(Ｄ)
  0
TEXT
  8
_0-0_図面枠
 62
    4
 10
248.4000075000001
 20
93.400003999999967
 40
3.2000000000000002
 41
1
 50
0
  1
ＳＣＧばね(Ｄ)
  0
TEXT
  8
_0-0_図面枠
 62
    4
 10
248.4000075000001
 20
81.400003999999967
 40
3.2000000000000002
 41
1
 50
0
  1
ＳＳＧフレーム(Ｄ)
  0
TEXT
  8
_0-0_図面枠
 62
    4
 10
166.27045749999999
 20
69.450008499999967
 40
3.2000000000000002
 41
1
 50
0
  1
１２
  0
TEXT
  8
_0-0_図面枠
 62
    4
 10
48.400007500000015
 20
69.40000950000001
 40
3.2000000000000002
 41
1
 50
0
  1
ステンタッピンねじ
  0
TEXT
  8
_0-0_図面枠
 62
    4
 10
48.400007500000015
 20
63.40000950000001
 40
3.2000000000000002
 41
1
 50
0
  1
ステンワッシャー
  0
TEXT
  8
_0-0_図面枠
 62
    4
 10
166.27045749999999
 20
63.450008499999967
 40
3.2000000000000002
 41
1
 50
0
  1
１２
  0
TEXT
  8
_0-0_図面枠
 62
    4
 10
177.00512500000002
 20
75.399992499999996
 40
3.2000000000000002
 41
1
 50
0
  1
本
  0
TEXT
  8
_0-0_図面枠
 62
    4
 10
366.27045750000013
 20
69.450008499999967
 40
3.2000000000000002
 41
1
 50
0
  1
１２
  0
TEXT
  8
_0-0_図面枠
 62
    4
 10
248.4000075000001
 20
69.40000950000001
 40
3.2000000000000002
 41
1
 50
0
  1
ステンタッピンねじ
  0
TEXT
  8
_0-0_図面枠
 62
    4
 10
248.4000075000001
 20
63.40000950000001
 40
3.2000000000000002
 41
1
 50
0
  1
ステンワッシャー
  0
TEXT
  8
_0-0_図面枠
 62
    4
 10
366.27045750000013
 20
63.450008499999967
 40
3.2000000000000002
 41
1
 50
0
  1
１２
  0
TEXT
  8
_0-0_図面枠
 62
    4
 10
377.00512500000013
 20
75.399992499999996
 40
3.2000000000000002
 41
1
 50
0
  1
本
  0
TEXT
  8
_0-0_図面枠
 62
    4
 10
377.00512500000013
 20
63.40000950000001
 40
3.2000000000000002
 41
1
 50
0
  1
枚
  0
TEXT
  8
_0-0_図面枠
 62
    4
 10
177.00512500000002
 20
63.40000950000001
 40
3.2000000000000002
 41
1
 50
0
  1
枚
  0
TEXT
  8
_0-0_図面枠
 62
    4
 10
177.00512500000002
 20
69.399992499999996
 40
3.2000000000000002
 41
1
 50
0
  1
本
  0
TEXT
  8
_0-0_図面枠
 62
    4
 10
377.00512500000013
 20
69.399992499999996
 40
3.2000000000000002
 41
1
 50
0
  1
本
  0
TEXT
  8
_0-0_図面枠
 62
    4
 10
102.06669116666677
 20
69.40000950000001
 40
3.2000000000000002
 41
1
 50
0
  1
なべ５×５０
  0
TEXT
  8
_0-0_図面枠
 62
    4
 10
102.06663366666675
 20
63.400003999999996
 40
3.2000000000000002
 41
1
 50
0
  1
１．５×１８×５．５穴
  0
TEXT
  8
_0-0_図面枠
 62
    4
 10
302.06669116666689
 20
69.40000950000001
 40
3.2000000000000002
 41
1
 50
0
  1
なべ５×５０
  0
TEXT
  8
_0-0_図面枠
 62
    4
 10
302.06663366666686
 20
63.400003999999996
 40
3.2000000000000002
 41
1
 50
0
  1
１．５×１８×５．５穴
  0
TEXT
  8
_0-0_図面枠
 62
    4
 10
48.400007500000015
 20
76.000009500000004
 40
3.2000000000000002
 41
1
 50
0
  1
ステンドリリングねじ
  0
TEXT
  8
_0-0_図面枠
 62
    4
 10
248.40000750000002
 20
76.000009500000004
 40
3.2000000000000002
 41
1
 50
0
  1
ステンドリリングねじ
  0
TEXT
  8
_0-0_図面枠
 62
    4
 10
169.36022149999994
 20
99.44999150000001
 40
3.2000000000000002
 41
1
 50
0
  1
６
  0
TEXT
  8
_0-0_図面枠
 62
    4
 10
177.00512500000002
 20
99.400004000000024
 40
3.2000000000000002
 41
1
 50
0
  1
個
  0
TEXT
  8
_0-0_図面枠
 62
    4
 10
369.36022150000008
 20
99.449991499999953
 40
3.2000000000000002
 41
1
 50
0
  1
６
  0
TEXT
  8
_0-0_図面枠
 62
    4
 10
377.00512500000013
 20
99.400003999999967
 40
3.2000000000000002
 41
1
 50
0
  1
個
  0
LINE
  8
_0-0_図面枠
  6
CONTINUOUS
 62
    4
 10
182.14999999999998
 20
38.199999999999989
 11
40
 21
38.199999999999989
  0
LINE
  8
_0-0_図面枠
  6
CONTINUOUS
 62
    4
 10
182.14999999999998
 20
32.199999999999989
 11
40
 21
32.199999999999989
  0
LINE
  8
_0-0_図面枠
  6
CONTINUOUS
 62
    4
 10
182.14999999999998
 20
26.199999999999989
 11
40
 21
26.199999999999989
  0
TEXT
  8
_0-0_図面枠
 62
    4
 10
43.586831999999958
 20
33.427555499999983
 40
3.2000000000000002
 41
1
 50
0
  1
※
  0
TEXT
  8
_0-0_図面枠
 62
    4
 10
43.586831999999958
 20
27.427560999999969
 40
3.2000000000000002
 41
1
 50
0
  1
※
  0
LINE
  8
_0-0_図面枠
  6
CONTINUOUS
 62
    4
 10
382.15000000000009
 20
38.199999999999989
 11
240
 21
38.199999999999989
  0
LINE
  8
_0-0_図面枠
  6
CONTINUOUS
 62
    4
 10
382.15000000000009
 20
26.199999999999989
 11
240
 21
26.199999999999989
  0
LINE
  8
_0-0_図面枠
  6
CONTINUOUS
 62
    4
 10
382.15000000000009
 20
32.199999999999989
 11
240
 21
32.199999999999989
  0
TEXT
  8
_0-0_図面枠
 62
    4
 10
243.5868145
 20
33.427555499999983
 40
3.2000000000000002
 41
1
 50
0
  1
※
  0
TEXT
  8
_0-0_図面枠
 62
    4
 10
243.5868145
 20
27.427555499999983
 40
3.2000000000000002
 41
1
 50
0
  1
※
  0
TEXT
  8
_0-0_図面枠
 62
    4
 10
169.36022149999994
 20
39.450002999999981
 40
3.2000000000000002
 41
1
 50
0
  1
１
  0
TEXT
  8
_0-0_図面枠
 62
    4
 10
369.8602370000001
 20
39.450002999999981
 40
3.2000000000000002
 41
1
 50
0
  1
１
  0
TEXT
  8
_0-0_図面枠
 62
    4
 10
377.00510200000008
 20
39.400003999999996
 40
3.2000000000000002
 41
1
 50
0
  1
個
  0
TEXT
  8
_0-0_図面枠
 62
    4
 10
177.00512500000002
 20
39.400003999999967
 40
3.2000000000000002
 41
1
 50
0
  1
個
  0
TEXT
  8
_0-0_図面枠
 62
    4
 10
149.27047700000003
 20
33.400014999999996
 40
3.2000000000000002
 41
1
 50
0
  1
６０００
  0
TEXT
  8
_0-0_図面枠
 62
    4
 10
169.36022149999994
 20
33.450002999999981
 40
3.2000000000000002
 41
1
 50
0
  1
１
  0
TEXT
  8
_0-0_図面枠
 62
    4
 10
177.00512500000002
 20
33.40000950000001
 40
3.2000000000000002
 41
1
 50
0
  1
巻
  0
TEXT
  8
_0-0_図面枠
 62
    4
 10
48.400007500000015
 20
33.40000950000001
 40
3.2000000000000002
 41
1
 50
0
  1
ブチルテープ
  0
TEXT
  8
_0-0_図面枠
 62
    4
 10
169.36022149999994
 20
27.450002999999981
 40
3.2000000000000002
 41
1
 50
0
  1
２
  0
TEXT
  8
_0-0_図面枠
 62
    4
 10
177.00512500000002
 20
27.40000950000001
 40
3.2000000000000002
 41
1
 50
0
  1
本
  0
TEXT
  8
_0-0_図面枠
 62
    4
 10
349.27041950000012
 20
33.40000950000001
 40
3.2000000000000002
 41
1
 50
0
  1
６０００
  0
TEXT
  8
_0-0_図面枠
 62
    4
 10
369.8602370000001
 20
33.450002999999981
 40
3.2000000000000002
 41
1
 50
0
  1
１
  0
TEXT
  8
_0-0_図面枠
 62
    4
 10
377.00510200000008
 20
33.40000950000001
 40
3.2000000000000002
 41
1
 50
0
  1
巻
  0
TEXT
  8
_0-0_図面枠
 62
    4
 10
248.400013
 20
33.40000950000001
 40
3.2000000000000002
 41
1
 50
0
  1
ブチルテープ
  0
TEXT
  8
_0-0_図面枠
 62
    4
 10
369.8602370000001
 20
27.450002999999981
 40
3.2000000000000002
 41
1
 50
0
  1
２
  0
TEXT
  8
_0-0_図面枠
 62
    4
 10
377.00510200000008
 20
27.400006499999989
 40
3.2000000000000002
 41
1
 50
0
  1
本
  0
TEXT
  8
_0-0_図面枠
 62
    4
 10
102.06669116666677
 20
33.40000950000001
 40
3.2000000000000002
 41
1
 50
0
  1
ｔ１．０×ｗ３０
  0
TEXT
  8
_0-0_図面枠
 62
    4
 10
102.06669116666677
 20
27.400009499999996
 40
3.2000000000000002
 41
1
 50
0
  1
１.５×(１×１９)Ｌ＝６００
  0
TEXT
  8
_0-0_図面枠
 62
    4
 10
302.06663366666669
 20
33.40000950000001
 40
3.2000000000000002
 41
1
 50
0
  1
ｔ１．０×ｗ３０
  0
TEXT
  8
_0-0_図面枠
 62
    4
 10
302.06669116666671
 20
27.400009499999996
 40
3.2000000000000002
 41
1
 50
0
  1
１.５×(１×１９)Ｌ＝６００
  0
TEXT
  8
_0-0_図面枠
 62
    4
 10
243.5868145
 20
39.427558500000004
 40
3.2000000000000002
 41
1
 50
0
  1
※
  0
TEXT
  8
_0-0_図面枠
 62
    4
 10
43.586831999999958
 20
39.427555499999968
 40
3.2000000000000002
 41
1
 50
0
  1
※
  0
TEXT
  8
_0-0_図面枠
 62
    4
 10
48.400007500000015
 20
27.40000950000001
 40
3.2000000000000002
 41
1
 50
0
  1
落下防止ワイヤー
  0
TEXT
  8
_0-0_図面枠
 62
    4
 10
248.40000750000002
 20
27.40000950000001
 40
3.2000000000000002
 41
1
 50
0
  1
落下防止ワイヤー
  0
LINE
  8
_0-0_図面枠
  6
CONTINUOUS
 62
    4
 10
40
 20
26.200000000000017
 11
40
 21
121
  0
LINE
  8
_0-0_図面枠
  6
CONTINUOUS
 62
    4
 10
47.200000000000045
 20
26.200000000000017
 11
47.200000000000045
 21
121
  0
LINE
  8
_0-0_図面枠
  6
CONTINUOUS
 62
    4
 10
162.95000000000002
 20
26.200000000000003
 11
162.95000000000002
 21
121.00000000000001
  0
LINE
  8
_0-0_図面枠
  6
CONTINUOUS
 62
    4
 10
147.95000000000005
 20
26.200000000000003
 11
147.95000000000005
 21
121.00000000000001
  0
LINE
  8
_0-0_図面枠
  6
CONTINUOUS
 62
    4
 10
174.95000000000005
 20
26.200000000000003
 11
174.95000000000005
 21
121.00000000000001
  0
LINE
  8
_0-0_図面枠
  6
CONTINUOUS
 62
    4
 10
146.95000000000005
 20
26.200000000000003
 11
146.95000000000005
 21
121.00000000000001
  0
LINE
  8
_0-0_図面枠
  6
CONTINUOUS
 62
    4
 10
240
 20
26.199999999999989
 11
240
 21
121.00000000000003
  0
LINE
  8
_0-0_図面枠
  6
CONTINUOUS
 62
    4
 10
247.20000000000005
 20
26.199999999999989
 11
247.20000000000005
 21
121.00000000000003
  0
LINE
  8
_0-0_図面枠
  6
CONTINUOUS
 62
    4
 10
346.95000000000005
 20
26.199999999999989
 11
346.95000000000005
 21
121
  0
LINE
  8
_0-0_図面枠
  6
CONTINUOUS
 62
    4
 10
382.15000000000009
 20
26.199999999999989
 11
382.15000000000009
 21
121
  0
LINE
  8
_0-0_図面枠
  6
CONTINUOUS
 62
    4
 10
374.95000000000005
 20
26.199999999999989
 11
374.95000000000005
 21
121
  0
LINE
  8
_0-0_図面枠
  6
CONTINUOUS
 62
    4
 10
362.95000000000005
 20
26.199999999999989
 11
362.95000000000005
 21
121
  0
LINE
  8
_0-0_図面枠
  6
CONTINUOUS
 62
    4
 10
347.95000000000005
 20
26.199999999999989
 11
347.95000000000005
 21
121
  0
LINE
  8
_0-0_図面枠
  6
CONTINUOUS
 62
    4
 10
182.14999999999998
 20
26.200000000000003
 11
182.14999999999998
 21
121.00000000000001
  0
LINE
  8
_0-0_図面枠
  6
CONTINUOUS
 62
    4
 10
100.86666666666673
 20
26.200000000000003
 11
100.86666666666673
 21
121.00000000000001
  0
LINE
  8
_0-0_図面枠
  6
CONTINUOUS
 62
    4
 10
300.86666666666667
 20
26.199999999999989
 11
300.86666666666667
 21
121
  0
LINE
  8
_0-0_図面枠
  6
CONTINUOUS
 62
    4
 10
182.14999999999998
 20
44.199999999999989
 11
40
 21
44.199999999999989
  0
LINE
  8
_0-0_図面枠
  6
CONTINUOUS
 62
    4
 10
382.15000000000009
 20
44.199999999999989
 11
240
 21
44.199999999999989
  0
TEXT
  8
_0-0_図面枠
 62
    4
 10
40.4970505
 20
45.427555499999983
 40
3.2000000000000002
 41
1
 50
0
  1
１１
  0
TEXT
  8
_0-0_図面枠
 62
    4
 10
240.4970505
 20
45.427555499999983
 40
3.2000000000000002
 41
1
 50
0
  1
１１
  0
TEXT
  8
_0-0_図面枠
 62
    4
 10
149.27047700000003
 20
51.40000950000001
 40
3.2000000000000002
 41
1
 50
0
  1
３１００
  0
TEXT
  8
_0-0_図面枠
 62
    4
 10
169.36022149999994
 20
51.449997499999995
 40
3.2000000000000002
 41
1
 50
0
  1
２
  0
TEXT
  8
_0-0_図面枠
 62
    4
 10
177.00512500000002
 20
51.40000950000001
 40
3.2000000000000002
 41
1
 50
0
  1
本
  0
TEXT
  8
_0-0_図面枠
 62
    4
 10
122.30833333333339
 20
51.599999999999994
 40
3.2000000000000002
 41
1
 50
0
  1
―
  0
TEXT
  8
_0-0_図面枠
 62
    4
 10
166.27045749999996
 20
57.450008499999953
 40
3.2000000000000002
 41
1
 50
0
  1
１２
  0
TEXT
  8
_0-0_図面枠
 62
    4
 10
177.00512500000002
 20
57.399992499999982
 40
3.2000000000000002
 41
1
 50
0
  1
本
  0
TEXT
  8
_0-0_図面枠
 62
    4
 10
153.85000000000002
 20
57.599999999999994
 40
3.2000000000000002
 41
1
 50
0
  1
―
  0
TEXT
  8
_0-0_図面枠
 62
    4
 10
102.06669116666673
 20
57.400009499999996
 40
3.2000000000000002
 41
1
 50
0
  1
φ８×４０
  0
TEXT
  8
_0-0_図面枠
 62
    4
 10
153.85000000000002
 20
45.599999999999994
 40
3.2000000000000002
 41
1
 50
0
  1
―
  0
TEXT
  8
_0-0_図面枠
 62
    4
 10
169.36022149999991
 20
45.450002999999924
 40
3.2000000000000002
 41
1
 50
0
  1
６
  0
TEXT
  8
_0-0_図面枠
 62
    4
 10
122.30833333333337
 20
45.599999999999994
 40
3.2000000000000002
 41
1
 50
0
  1
―
  0
TEXT
  8
_0-0_図面枠
 62
    4
 10
48.400007499999987
 20
45.400003999999967
 40
3.2000000000000002
 41
1
 50
0
  1
ＳＳＧクリップ
  0
TEXT
  8
_0-0_図面枠
 62
    4
 10
349.27047700000003
 20
51.40000950000001
 40
3.2000000000000002
 41
1
 50
0
  1
３１００
  0
TEXT
  8
_0-0_図面枠
 62
    4
 10
369.36022149999997
 20
51.449997499999995
 40
3.2000000000000002
 41
1
 50
0
  1
２
  0
TEXT
  8
_0-0_図面枠
 62
    4
 10
377.00512500000002
 20
51.40000950000001
 40
3.2000000000000002
 41
1
 50
0
  1
本
  0
TEXT
  8
_0-0_図面枠
 62
    4
 10
322.30833333333339
 20
51.599999999999994
 40
3.2000000000000002
 41
1
 50
0
  1
―
  0
TEXT
  8
_0-0_図面枠
 62
    4
 10
366.27045749999996
 20
57.450008499999953
 40
3.2000000000000002
 41
1
 50
0
  1
１２
  0
TEXT
  8
_0-0_図面枠
 62
    4
 10
377.00512500000002
 20
57.399992499999982
 40
3.2000000000000002
 41
1
 50
0
  1
本
  0
TEXT
  8
_0-0_図面枠
 62
    4
 10
353.85000000000002
 20
57.599999999999994
 40
3.2000000000000002
 41
1
 50
0
  1
―
  0
TEXT
  8
_0-0_図面枠
 62
    4
 10
302.06669116666671
 20
57.400009499999996
 40
3.2000000000000002
 41
1
 50
0
  1
φ８×４０
  0
TEXT
  8
_0-0_図面枠
 62
    4
 10
353.85000000000002
 20
45.599999999999994
 40
3.2000000000000002
 41
1
 50
0
  1
―
  0
TEXT
  8
_0-0_図面枠
 62
    4
 10
369.36022149999991
 20
45.450002999999924
 40
3.2000000000000002
 41
1
 50
0
  1
６
  0
TEXT
  8
_0-0_図面枠
 62
    4
 10
322.30833333333334
 20
45.599999999999994
 40
3.2000000000000002
 41
1
 50
0
  1
―
  0
TEXT
  8
_0-0_図面枠
 62
    4
 10
248.40000749999999
 20
45.400003999999967
 40
3.2000000000000002
 41
1
 50
0
  1
ＳＳＧクリップ
  0
TEXT
  8
_0-0_図面枠
 62
    4
 10
122.30833333333341
 20
105.60000000000007
 40
3.2000000000000002
 41
1
 50
0
  1
―
  0
TEXT
  8
_0-0_図面枠
 62
    4
 10
122.30833333333341
 20
93.600000000000065
 40
3.2000000000000002
 41
1
 50
0
  1
―
  0
TEXT
  8
_0-0_図面枠
 62
    4
 10
122.30833333333341
 20
87.600000000000065
 40
3.2000000000000002
 41
1
 50
0
  1
―
  0
TEXT
  8
_0-0_図面枠
 62
    4
 10
122.30833333333341
 20
81.600000000000065
 40
3.2000000000000002
 41
1
 50
0
  1
―
  0
TEXT
  8
_0-0_図面枠
 62
    4
 10
322.30833333333322
 20
105.60000000000001
 40
3.2000000000000002
 41
1
 50
0
  1
―
  0
TEXT
  8
_0-0_図面枠
 62
    4
 10
322.30833333333322
 20
93.600000000000009
 40
3.2000000000000002
 41
1
 50
0
  1
―
  0
TEXT
  8
_0-0_図面枠
 62
    4
 10
322.30833333333322
 20
87.600000000000009
 40
3.2000000000000002
 41
1
 50
0
  1
―
  0
TEXT
  8
_0-0_図面枠
 62
    4
 10
322.30833333333322
 20
81.600000000000009
 40
3.2000000000000002
 41
1
 50
0
  1
―
  0
TEXT
  8
_0-0_図面枠
 62
    4
 10
102.06669116666677
 20
99.400004000000024
 40
3.2000000000000002
 41
1
 50
0
  1
Ｌ＝２９０
  0
TEXT
  8
_0-0_図面枠
 62
    4
 10
302.06669116666666
 20
99.400003999999967
 40
3.2000000000000002
 41
1
 50
0
  1
Ｌ＝２２２
  0
TEXT
  8
_0-0_図面枠
 62
    4
 10
166.27045749999999
 20
75.450008499999967
 40
3.2000000000000002
 41
1
 50
0
  1
１２
  0
TEXT
  8
_0-0_図面枠
 62
    4
 10
366.27045750000002
 20
75.450008499999967
 40
3.2000000000000002
 41
1
 50
0
  1
１２
  0
TEXT
  8
_0-0_図面枠
 62
    4
 10
153.85000000000005
 20
99.600000000000051
 40
3.2000000000000002
 41
1
 50
0
  1
―
  0
TEXT
  8
_0-0_図面枠
 62
    4
 10
153.85000000000005
 20
93.600000000000051
 40
3.2000000000000002
 41
1
 50
0
  1
―
  0
TEXT
  8
_0-0_図面枠
 62
    4
 10
153.85000000000005
 20
75.599999999999994
 40
3.2000000000000002
 41
1
 50
0
  1
―
  0
TEXT
  8
_0-0_図面枠
 62
    4
 10
153.85000000000005
 20
69.599999999999994
 40
3.2000000000000002
 41
1
 50
0
  1
―
  0
TEXT
  8
_0-0_図面枠
 62
    4
 10
153.85000000000005
 20
63.599999999999994
 40
3.2000000000000002
 41
1
 50
0
  1
―
  0
TEXT
  8
_0-0_図面枠
 62
    4
 10
153.85000000000005
 20
39.599999999999994
 40
3.2000000000000002
 41
1
 50
0
  1
―
  0
TEXT
  8
_0-0_図面枠
 62
    4
 10
153.85000000000005
 20
27.599999999999994
 40
3.2000000000000002
 41
1
 50
0
  1
―
  0
TEXT
  8
_0-0_図面枠
 62
    4
 10
353.85000000000002
 20
99.599999999999994
 40
3.2000000000000002
 41
1
 50
0
  1
―
  0
TEXT
  8
_0-0_図面枠
 62
    4
 10
353.85000000000002
 20
93.599999999999994
 40
3.2000000000000002
 41
1
 50
0
  1
―
  0
TEXT
  8
_0-0_図面枠
 62
    4
 10
353.85000000000002
 20
75.599999999999994
 40
3.2000000000000002
 41
1
 50
0
  1
―
  0
TEXT
  8
_0-0_図面枠
 62
    4
 10
353.85000000000002
 20
69.599999999999994
 40
3.2000000000000002
 41
1
 50
0
  1
―
  0
TEXT
  8
_0-0_図面枠
 62
    4
 10
353.85000000000002
 20
63.599999999999994
 40
3.2000000000000002
 41
1
 50
0
  1
―
  0
TEXT
  8
_0-0_図面枠
 62
    4
 10
353.85000000000002
 20
39.599999999999994
 40
3.2000000000000002
 41
1
 50
0
  1
―
  0
TEXT
  8
_0-0_図面枠
 62
    4
 10
353.85000000000002
 20
27.599999999999994
 40
3.2000000000000002
 41
1
 50
0
  1
―
  0
TEXT
  8
_0-0_図面枠
 62
    4
 10
102.0666796666667
 20
39.400003999999967
 40
3.2000000000000002
 41
1
 50
0
  1
ＡＬ　ｔ＝１．５
  0
TEXT
  8
_0-0_図面枠
 62
    4
 10
302.06667966666669
 20
39.400003999999967
 40
3.2000000000000002
 41
1
 50
0
  1
ＡＬ　ｔ＝１．５
  0
TEXT
  8
_0-0_図面枠
 62
    4
 10
302.06667966666674
 20
76.000009500000004
 40
3.2000000000000002
 41
1
 50
0
  1
皿(Ｄ６)４×１６
  0
TEXT
  8
_0-0_図面枠
 62
    4
 10
248.400013
 20
39.400003999999996
 40
3.2000000000000002
 41
1
 50
0
  1
ジョイントプレート
  0
TEXT
  8
_0-0_図面枠
 62
    4
 10
48.400007500000015
 20
39.400003999999967
 40
3.2000000000000002
 41
1
 50
0
  1
ジョイントプレート
  0
TEXT
  8
_0-0_図面枠
 62
    4
 10
102.06667966666673
 20
76.000009500000004
 40
3.2000000000000002
 41
1
 50
0
  1
皿(Ｄ６)４×１６
  0
TEXT
  8
_0-0_図面枠
 62
    4
 10
20
 20
280
 40
3.2000000000000002
 41
1
 50
0
  1
（ステンレス２００タイプ）
  0
TEXT
  8
_0-0_図面枠
 62
    4
 10
30
 20
270
 40
3.2000000000000002
 41
1
 50
0
  1
◇内壁＋内壁（２００ＫＫＧ－Ｓ）　Ｓ＝１／３
  0
TEXT
  8
_0-0_図面枠
 62
    4
 10
230
 20
270
 40
3.2000000000000002
 41
1
 50
0
  1
◇内壁＋内壁コーナー（２００ＫＣＧ－Ｓ）　Ｓ＝１／３
  0
TEXT
  8
_0-0_図面枠
 62
    4
 10
220
 20
280
 40
3.2000000000000002
 41
1
 50
0
  1
（ステンレス２００タイプ）
  0
TEXT
  8
_0-0_図面枠
 62
    4
 10
248.40000750000002
 20
51.400003999999967
 40
3.2000000000000002
 41
1
 50
0
  1
ガスケットＧＳ
  0
TEXT
  8
_0-0_図面枠
 62
    4
 10
48.400007500000015
 20
51.400003999999967
 40
3.2000000000000002
 41
1
 50
0
  1
ガスケットＧＳ
  0
TEXT
  8
_0-0_図面枠
 62
    4
 10
48.400007500000015
 20
105.40000399999997
 40
3.2000000000000002
 41
1
 50
0
  1
ＵＵＧキャップ(Ｄ)Ｓ
  0
TEXT
  8
_0-0_図面枠
 62
    4
 10
248.4000075000001
 20
105.40000399999997
 40
3.2000000000000002
 41
1
 50
0
  1
ＵＣＧキャップ(Ｄ)Ｓ
  0
TEXT
  8
_0-0_図面枠
 62
    4
 10
177.00512500000002
 20
45.399992499999996
 40
3.2000000000000002
 41
1
 50
0
  1
個
  0
TEXT
  8
_0-0_図面枠
 62
    4
 10
377.00512500000002
 20
45.399992499999996
 40
3.2000000000000002
 41
1
 50
0
  1
個
  0
TEXT
  8
_0-0_図面枠
 62
    4
 10
48.400007499999987
 20
57.400003999999953
 40
3.2000000000000002
 41
1
 50
0
  1
アンカープラグ
  0
TEXT
  8
_0-0_図面枠
 62
    4
 10
248.40000749999999
 20
57.400003999999953
 40
3.2000000000000002
 41
1
 50
0
  1
アンカープラグ
  0
LINE
  8
_1-0_躯体
  6
CENTER2
 62
    4
 10
65.00000007946656
 20
216.57179397977325
 11
65.00000007946656
 21
193.50000000000003
  0
LINE
  8
_1-0_躯体
  6
CENTER2
 62
    4
 10
155.00000007946724
 20
216.57179397977325
 11
155.00000007946724
 21
193.50000000000003
  0
INSERT
  2
-004-_4_
  8
_1-8_小物
 10
210
 20
148.5
 41
1
 42
1
 50
0
  0
INSERT
  2
-005-_5_
  8
_1-8_小物
 10
210
 20
148.5
 41
1
 42
1
 50
0
  0
LINE
  8
_1-0_躯体
  6
CONTINUOUS
 62
    6
 10
53.3333333333334
 20
210.16666666666669
 11
76.666666666666742
 21
210.16666666666669
  0
LINE
  8
_1-0_躯体
  6
CONTINUOUS
 62
    6
 10
166.66666666666674
 20
210.16666666666669
 11
143.3333333333334
 21
210.16666666666669
  0
LINE
  8
_1-f_寸法
  6
CONTINUOUS
 62
    4
 10
143.33333333333144
 20
195.16666666666669
 11
143.33333333333144
 21
188.56666666666672
  0
LINE
  8
_1-f_寸法
  6
CONTINUOUS
 62
    4
 10
154.9999999999981
 20
195.16666666666669
 11
154.9999999999981
 21
188.56666666666672
  0
POINT
  8
_1-f_寸法
 62
    4
 10
154.9999999999981
 20
190.16666666666669
  0
POINT
  8
_1-f_寸法
 62
    4
 10
143.33333333333144
 20
190.16666666666669
  0
LINE
  8
_1-f_寸法
  6
CONTINUOUS
 62
    4
 10
154.9999999999981
 20
190.16666666666669
 11
143.33333333333144
 21
190.16666666666669
  0
TEXT
  8
_1-f_寸法
 62
    4
 10
147.56666666666473
 20
190.16666666666669
 40
3.2000000000000002
 41
1
 50
0
  1
35
  0
CIRCLE
  8
_1-f_寸法
  6
CONTINUOUS
 62
    4
 10
166.66666674613322
 20
215.16666666666669
 40
1.6666666666666665
  0
CIRCLE
  8
_1-f_寸法
  6
CONTINUOUS
 62
    4
 10
166.66666674613322
 20
215.16666666666669
 40
1.6666666666666665
  0
CIRCLE
  8
_1-f_寸法
  6
CONTINUOUS
 62
    4
 10
148.3333334127999
 20
205.16666666666669
 40
1.6666666666666665
  0
CIRCLE
  8
_1-f_寸法
  6
CONTINUOUS
 62
    4
 10
161.66666674613322
 20
198.50000000000003
 40
1.6666666666666665
  0
CIRCLE
  8
_1-f_寸法
  6
CONTINUOUS
 62
    4
 10
161.66666674613322
 20
205.16666666666669
 40
1.6666666666666665
  0
LINE
  8
_1-f_寸法
  6
CONTINUOUS
 62
    4
 10
160.50555769424119
 20
206.36232696432333
 11
155.00000007946656
 21
212.03171404361677
  0
LINE
  8
_1-f_寸法
  6
CONTINUOUS
 62
    4
 10
160.70179688099915
 20
199.85897164103375
 11
155.75000007946642
 21
206.83333333333329
  0
LINE
  8
_1-f_寸法
  6
CONTINUOUS
 62
    4
 10
76.666666666667112
 20
195.16666666666666
 11
76.666666666667112
 21
188.56666666666666
  0
LINE
  8
_1-f_寸法
  6
CONTINUOUS
 62
    4
 10
65.000000000000369
 20
195.16666666666666
 11
65.000000000000369
 21
188.56666666666666
  0
POINT
  8
_1-f_寸法
 62
    4
 10
65.000000000000369
 20
190.16666666666666
  0
POINT
  8
_1-f_寸法
 62
    4
 10
76.666666666667112
 20
190.16666666666666
  0
LINE
  8
_1-f_寸法
  6
CONTINUOUS
 62
    4
 10
65.000000000000369
 20
190.16666666666666
 11
76.666666666667112
 21
190.16666666666666
  0
TEXT
  8
_1-f_寸法
 62
    4
 10
69.233333333333746
 20
190.16666666666666
 40
3.2000000000000002
 41
1
 50
0
  1
35
  0
CIRCLE
  8
_1-f_寸法
  6
CONTINUOUS
 62
    4
 10
53.333333253865305
 20
215.16666666666666
 40
1.6666666666666665
  0
CIRCLE
  8
_1-f_寸法
  6
CONTINUOUS
 62
    4
 10
53.333333253865305
 20
215.16666666666666
 40
1.6666666666666665
  0
CIRCLE
  8
_1-f_寸法
  6
CONTINUOUS
 62
    4
 10
71.666666587198648
 20
205.16666666666666
 40
1.6666666666666665
  0
CIRCLE
  8
_1-f_寸法
  6
CONTINUOUS
 62
    4
 10
58.333333253865305
 20
198.5
 40
1.6666666666666665
  0
CIRCLE
  8
_1-f_寸法
  6
CONTINUOUS
 62
    4
 10
58.333333253865305
 20
205.16666666666666
 40
1.6666666666666665
  0
LINE
  8
_1-f_寸法
  6
CONTINUOUS
 62
    4
 10
70.64656001888261
 20
206.48468046289804
 11
66.958333253865305
 21
211.25
  0
LINE
  8
_1-f_寸法
  6
CONTINUOUS
 62
    4
 10
59.494442305757332
 20
206.3623269643233
 11
64.999999920531934
 21
212.03171404361674
  0
LINE
  8
_1-f_寸法
  6
CONTINUOUS
 62
    4
 10
59.298203118999396
 20
199.85897164103372
 11
64.249999920532133
 21
206.83333333333326
  0
LINE
  8
_1-f_寸法
  6
CONTINUOUS
 62
    4
 10
163.33333333391161
 20
220.16666666666666
 11
163.33333333391161
 21
226.76666666666665
  0
LINE
  8
_1-f_寸法
  6
CONTINUOUS
 62
    4
 10
56.666666666666657
 20
220.16666666666666
 11
56.666666666666657
 21
226.76666666666665
  0
POINT
  8
_1-f_寸法
 62
    4
 10
56.666666666666657
 20
225.16666666666666
  0
POINT
  8
_1-f_寸法
 62
    4
 10
163.33333333391161
 20
225.16666666666666
  0
LINE
  8
_1-f_寸法
  6
CONTINUOUS
 62
    4
 10
56.666666666666657
 20
225.16666666666666
 11
163.33333333391161
 21
225.16666666666666
  0
TEXT
  8
_1-f_寸法
 62
    4
 10
107.60000000028914
 20
225.16666666666666
 40
3.2000000000000002
 41
1
 50
0
  1
320
  0
CIRCLE
  8
_1-f_寸法
  6
CONTINUOUS
 62
    4
 10
68.333333333327062
 20
221.83333333333329
 40
1.6666666666666665
  0
TEXT
  8
_1-f_寸法
 62
    4
 10
67.708333333327062
 20
220.58333333333329
 40
2.5
 41
1
 50
0
  1
3
  0
LINE
  8
_1-f_寸法
  6
CONTINUOUS
 62
    4
 10
69.166666666660404
 20
220.38995766035922
 11
70.844806995853276
 21
217.48333334796683
  0
CIRCLE
  8
_1-f_寸法
  6
CONTINUOUS
 62
    4
 10
81.666666746126907
 20
221.83333333333329
 40
1.6666666666666665
  0
TEXT
  8
_1-f_寸法
 62
    4
 10
81.041666746126907
 20
220.58333333333329
 40
2.5
 41
1
 50
0
  1
4
  0
LINE
  8
_1-f_寸法
  6
CONTINUOUS
 62
    4
 10
80.833333412793564
 20
220.38995766035922
 11
75.268279767036233
 21
210.75100199906117
  0
CIRCLE
  8
_1-f_寸法
  6
CONTINUOUS
 62
    4
 10
76.66666666666049
 20
221.8333333333332
 40
1.6666666666666665
  0
CIRCLE
  8
_1-f_寸法
  6
CONTINUOUS
 62
    4
 10
150.00000000057832
 20
221.8333333333332
 40
1.6666666666666665
  0
CIRCLE
  8
_1-f_寸法
  6
CONTINUOUS
 62
    4
 10
141.66666666724507
 20
221.83333333333329
 40
1.6666666666666665
  0
TEXT
  8
_1-f_寸法
 62
    4
 10
141.04166666724507
 20
220.58333333333329
 40
2.5
 41
1
 50
0
  1
2
  0
CIRCLE
  8
_1-f_寸法
  6
CONTINUOUS
 62
    4
 10
135.00000000057835
 20
221.83333333333329
 40
1.6666666666666665
  0
TEXT
  8
_1-f_寸法
 62
    4
 10
134.37500000057835
 20
220.58333333333329
 40
2.5
 41
1
 50
0
  1
1
  0
LINE
  8
_1-f_寸法
  6
CONTINUOUS
 62
    4
 10
140.83333333391172
 20
220.38995766035922
 11
138.70293386363244
 21
216.69999753741766
  0
CIRCLE
  8
_1-f_寸法
  6
CONTINUOUS
 62
    4
 10
155.00000000057835
 20
221.83333333333337
 40
1.6666666666666665
  0
TEXT
  8
_1-f_寸法
 62
    4
 10
154.37500000057835
 20
220.58333333333337
 40
2.5
 41
1
 50
0
  1
5
  0
TEXT
  8
_1-f_寸法
 62
    4
 10
165.41666674613322
 20
213.91666666666669
 40
2.5
 41
1
 50
0
  1
10
  0
TEXT
  8
_1-f_寸法
 62
    4
 10
71.041666587198648
 20
203.91666666666666
 40
2.5
 41
1
 50
0
  1
8
  0
TEXT
  8
_1-f_寸法
 62
    4
 10
57.708333253865305
 20
203.91666666666666
 40
2.5
 41
1
 50
0
  1
7
  0
TEXT
  8
_1-f_寸法
 62
    4
 10
52.083333253865305
 20
213.91666666666666
 40
2.5
 41
1
 50
0
  1
10
  0
TEXT
  8
_1-f_寸法
 62
    4
 10
57.708333253865305
 20
197.25
 40
2.5
 41
1
 50
0
  1
9
  0
TEXT
  8
_1-f_寸法
 62
    4
 10
161.04166674613322
 20
197.25000000000003
 40
2.5
 41
1
 50
0
  1
9
  0
TEXT
  8
_1-f_寸法
 62
    4
 10
147.7083334127999
 20
203.91666666666669
 40
2.5
 41
1
 50
0
  1
8
  0
TEXT
  8
_1-f_寸法
 62
    4
 10
161.04166674613322
 20
203.91666666666669
 40
2.5
 41
1
 50
0
  1
7
  0
TEXT
  8
_1-f_寸法
 62
    4
 10
149.37500000057832
 20
220.5833333333332
 40
2.5
 41
1
 50
0
  1
6
  0
TEXT
  8
_1-f_寸法
 62
    4
 10
76.04166666666049
 20
220.5833333333332
 40
2.5
 41
1
 50
0
  1
6
  0
INSERT
  2
-006-_6_
  8
_1-4_フレ__ム
 10
210
 20
148.5
 41
1
 42
1
 50
0
  0
INSERT
  2
-007-_7_
  8
_1-8_小物
 10
210
 20
148.5
 41
1
 42
1
 50
0
  0
INSERT
  2
-008-_8_
  8
_1-4_フレ__ム
 10
210
 20
148.5
 41
1
 42
1
 50
0
  0
INSERT
  2
-009-_9_
  8
_1-8_小物
 10
210
 20
148.5
 41
1
 42
1
 50
0
  0
INSERT
  2
-010-_10_
  8
_1-5_ア__ム
 10
210
 20
148.5
 41
1
 42
1
 50
0
  0
INSERT
  2
-011-_11_
  8
_1-6_ばね
 10
210
 20
148.5
 41
1
 42
1
 50
0
  0
LINE
  8
_1-0_躯体
  6
CONTINUOUS
 62
    6
 10
76.666666666666742
 20
210.16666666666669
 11
76.666666666666742
 21
186.83333333333337
  0
LINE
  8
_1-0_躯体
  6
CENTER2
 62
    4
 10
110.00000000000014
 20
186.83333333333337
 11
110.00000000000014
 21
223.50000000000003
  0
LINE
  8
_1-0_躯体
  6
CONTINUOUS
 62
    6
 10
143.3333333333334
 20
210.16666666666669
 11
143.3333333333334
 21
186.83333333333337
  0
LINE
  8
_1-f_寸法
  6
CONTINUOUS
 62
    4
 10
143.3333333333334
 20
183.50000000000003
 11
143.3333333333334
 21
171.90000000000003
  0
LINE
  8
_1-f_寸法
  6
CONTINUOUS
 62
    4
 10
76.666666666666657
 20
183.50000000000003
 11
76.666666666666657
 21
171.90000000000003
  0
POINT
  8
_1-f_寸法
 62
    4
 10
76.666666666666657
 20
173.50000000000003
  0
POINT
  8
_1-f_寸法
 62
    4
 10
143.3333333333334
 20
173.50000000000003
  0
LINE
  8
_1-f_寸法
  6
CONTINUOUS
 62
    4
 10
76.666666666666657
 20
173.50000000000003
 11
143.3333333333334
 21
173.50000000000003
  0
TEXT
  8
_1-f_寸法
 62
    4
 10
107.60000000000004
 20
173.50000000000003
 40
3.2000000000000002
 41
1
 50
0
  1
200
  0
LINE
  8
_0-0_図面枠
  6
CONTINUOUS
 62
    2
 10
165
 20
246.99999999999989
 11
165
 21
286.99999999999994
  0
INSERT
  2
-012-_12_
  8
_0-0_図面枠
 10
210
 20
148.5
 41
1
 42
1
 50
0
  0
LINE
  8
_0-0_図面枠
  6
CONTINUOUS
 62
    2
 10
178.99460475445102
 20
263.11505807960708
 11
181.1596682639121
 21
261.86505807960708
  0
LINE
  8
_0-0_図面枠
  6
CONTINUOUS
 62
    2
 10
181.1596682639121
 20
261.86505807960708
 11
195.88210012824757
 21
270.36505807960708
  0
LINE
  8
_0-0_図面枠
  6
CONTINUOUS
 62
    2
 10
195.88210012824757
 20
270.36505807960708
 11
193.71703661878647
 21
271.61505807960708
  0
LINE
  8
_0-0_図面枠
  6
CONTINUOUS
 62
    2
 10
181.1596682639121
 20
261.86505807960708
 11
181.1596682639121
 21
251.86505807960708
  0
LINE
  8
_0-0_図面枠
  6
CONTINUOUS
 62
    2
 10
178.99460475445102
 20
263.11505807960708
 11
178.99460475445102
 21
253.11505807960708
  0
TEXT
  8
_0-0_図面枠
 62
    4
 10
172.59769212770593
 20
280.88494192039269
 40
2.5
 41
1
 50
0
  1
-100
  0
TEXT
  8
_0-0_図面枠
 62
    4
 10
195.11354581797704
 20
280.88494192039263
 40
2.5
 41
1
 50
0
  1
+100
  0
TEXT
  8
_0-0_図面枠
 62
    4
 10
195.11354581797701
 20
267.8854077312804
 40
2.5
 41
1
 50
0
  1
+100
  0
TEXT
  8
_0-0_図面枠
 62
    4
 10
172.59728872183661
 20
267.88610650082205
 40
2.5
 41
1
 50
0
  1
-100
  0
LINE
  8
_0-0_図面枠
  6
CONTINUOUS
 62
    2
 10
195.88210012824757
 20
270.36505807960708
 11
195.88210012824757
 21
270.18409224854929
  0
LINE
  8
_0-0_図面枠
  6
CONTINUOUS
 62
    2
 10
195.88210012824757
 20
268.01364867294279
 11
195.88210012824757
 21
260.36505807960708
  0
LINE
  8
_0-0_図面枠
  6
CONTINUOUS
 62
    2
 10
193.71703661878647
 20
271.61505807960708
 11
193.71703661878647
 21
271.52033947808673
  0
LINE
  8
_0-0_図面枠
  6
CONTINUOUS
 62
    2
 10
193.71703661878647
 20
270.73757885370622
 11
193.71703661878647
 21
269.11505807960708
  0
LINE
  8
_0-0_図面枠
  6
CONTINUOUS
 62
    3
 10
184.19075717715765
 20
266.11505807960708
 11
184.19075717715765
 21
263.61505807960708
  0
LINE
  8
_0-0_図面枠
  6
CONTINUOUS
 62
    3
 10
188.52088419607986
 20
268.61505807960708
 11
188.52088419607986
 21
266.11505807960708
  0
LINE
  8
_0-0_図面枠
  6
CONTINUOUS
 62
    3
 10
184.19075717715765
 20
266.11505807960708
 11
178.99460475445102
 21
263.11505807960708
  0
LINE
  8
_0-0_図面枠
  6
CONTINUOUS
 62
    3
 10
188.52088419607986
 20
268.61505807960708
 11
184.19075717715768
 21
271.11505807960708
  0
LINE
  8
_0-0_図面枠
  6
CONTINUOUS
 62
    3
 10
184.19075717715765
 20
266.11505807960708
 11
179.86063015823547
 21
268.61505807960708
  0
LINE
  8
_0-0_図面枠
  6
CONTINUOUS
 62
    3
 10
178.99460475445102
 20
263.11505807960708
 11
175.53050313931325
 21
261.11505807960708
  0
LINE
  8
_0-0_図面枠
  6
CONTINUOUS
 62
    3
 10
193.71703661878647
 20
271.61505807960708
 11
197.18113823392423
 21
273.61505807960708
  0
LINE
  8
_0-0_図面枠
  6
CONTINUOUS
 62
    3
 10
193.71703661878647
 20
271.61505807960708
 11
193.68236424150379
 21
271.59503997324947
  0
LINE
  8
_0-0_図面枠
  6
CONTINUOUS
 62
    3
 10
192.51835025799221
 20
270.92299618652856
 11
188.52088419607986
 21
268.61505807960708
  0
LINE
  8
_0-0_図面枠
  6
CONTINUOUS
 62
    2
 10
165
 20
246.99999999999989
 11
210
 21
246.99999999999989
  0
LINE
  8
_0-0_図面枠
  6
CONTINUOUS
 62
    2
 10
365.00000000000006
 20
247.00000000000006
 11
365.00000000000006
 21
287.00000000000006
  0
INSERT
  2
-013-_13_
  8
_0-0_図面枠
 10
210
 20
148.5
 41
1
 42
1
 50
0
  0
LINE
  8
_0-0_図面枠
  6
CONTINUOUS
 62
    4
 10
392.70254983187715
 20
272.37647457958172
 11
392.66787745459447
 21
272.35645647322411
  0
LINE
  8
_0-0_図面枠
  6
CONTINUOUS
 62
    2
 10
377.98011796754167
 20
263.87647457958172
 11
380.14518147700278
 21
262.62647457958172
  0
LINE
  8
_0-0_図面枠
  6
CONTINUOUS
 62
    2
 10
380.14518147700278
 20
262.62647457958172
 11
380.14518147700278
 21
252.62647457958172
  0
LINE
  8
_0-0_図面枠
  6
CONTINUOUS
 62
    2
 10
377.98011796754167
 20
263.87647457958172
 11
377.98011796754167
 21
253.87647457958172
  0
LINE
  8
_0-0_図面枠
  6
CONTINUOUS
 62
    2
 10
387.50639740917052
 20
266.87647457958167
 11
390.97049902430831
 21
264.87647457958167
  0
LINE
  8
_0-0_図面枠
  6
CONTINUOUS
 62
    2
 10
390.97049902430831
 20
264.87647457958167
 11
393.13556253376942
 21
266.12647457958167
  0
LINE
  8
_0-0_図面枠
  6
CONTINUOUS
 62
    2
 10
380.14518147700278
 20
262.62647457958172
 11
387.50639740917052
 21
266.87647457958172
  0
LINE
  8
_0-0_図面枠
  6
CONTINUOUS
 62
    2
 10
390.97049902430831
 20
264.87647457958167
 11
390.97049902430831
 21
254.87647457958167
  0
LINE
  8
_0-0_図面枠
  6
CONTINUOUS
 62
    2
 10
393.13556253376942
 20
266.12647457958167
 11
393.13556253376942
 21
256.12647457958167
  0
TEXT
  8
_0-0_図面枠
 62
    4
 10
371.58360876835116
 20
281.64635842036733
 40
2.5
 41
1
 50
0
  1
-100
  0
TEXT
  8
_0-0_図面枠
 62
    4
 10
394.09946245862227
 20
281.64635842036728
 40
2.5
 41
1
 50
0
  1
+100
  0
TEXT
  8
_0-0_図面枠
 62
    4
 10
394.09946245862227
 20
268.64682423125504
 40
2.5
 41
1
 50
0
  1
+100
  0
TEXT
  8
_0-0_図面枠
 62
    4
 10
371.58320536248186
 20
268.6475230007967
 40
2.5
 41
1
 50
0
  1
-100
  0
LINE
  8
_0-0_図面枠
  6
CONTINUOUS
 62
    3
 10
377.98011796754167
 20
263.87647457958172
 11
374.51601635240394
 21
261.87647457958172
  0
LINE
  8
_0-0_図面枠
  6
CONTINUOUS
 62
    3
 10
383.17627039024831
 20
266.87647457958172
 11
383.17627039024831
 21
264.37647457958172
  0
LINE
  8
_0-0_図面枠
  6
CONTINUOUS
 62
    3
 10
383.17627039024831
 20
266.87647457958172
 11
377.98011796754167
 21
263.87647457958172
  0
LINE
  8
_0-0_図面枠
  6
CONTINUOUS
 62
    3
 10
396.16665144701494
 20
264.37647457958172
 11
383.17627039024836
 21
271.87647457958172
  0
LINE
  8
_0-0_図面枠
  6
CONTINUOUS
 62
    3
 10
396.16665144701494
 20
264.37647457958172
 11
400.49677846593715
 21
266.87647457958172
  0
LINE
  8
_0-0_図面枠
  6
CONTINUOUS
 62
    3
 10
396.16665144701494
 20
264.37647457958167
 11
396.16665144701494
 21
254.37647457958167
  0
LINE
  8
_0-0_図面枠
  6
CONTINUOUS
 62
    3
 10
383.17627039024831
 20
266.87647457958172
 11
378.84614337132615
 21
269.37647457958172
  0
LINE
  8
_0-0_図面枠
  6
CONTINUOUS
 62
    2
 10
365.00000000000006
 20
247
 11
410.00000000000006
 21
247
  0
LINE
  8
_1-0_躯体
  6
CENTER2
 62
    4
 10
334.66863674955596
 20
216.57179397977325
 11
334.66863674955596
 21
193.50000000000003
  0
INSERT
  2
-014-_14_
  8
_1-8_小物
 10
210
 20
148.5
 41
1
 42
1
 50
0
  0
LINE
  8
_1-0_躯体
  6
CONTINUOUS
 62
    6
 10
346.33530333675537
 20
210.16666666666666
 11
323.00197000342212
 21
210.16666666666666
  0
LINE
  8
_1-f_寸法
  6
CONTINUOUS
 62
    4
 10
323.00197000342013
 20
195.16666666666657
 11
323.00197000342013
 21
188.56666666666661
  0
LINE
  8
_1-f_寸法
  6
CONTINUOUS
 62
    4
 10
334.66863667008681
 20
195.16666666666657
 11
334.66863667008681
 21
188.56666666666661
  0
POINT
  8
_1-f_寸法
 62
    4
 10
334.66863667008681
 20
190.16666666666657
  0
POINT
  8
_1-f_寸法
 62
    4
 10
323.00197000342013
 20
190.16666666666657
  0
LINE
  8
_1-f_寸法
  6
CONTINUOUS
 62
    4
 10
334.66863667008681
 20
190.16666666666657
 11
323.00197000342013
 21
190.16666666666657
  0
TEXT
  8
_1-f_寸法
 62
    4
 10
327.23530333675342
 20
190.16666666666657
 40
3.2000000000000002
 41
1
 50
0
  1
35
  0
LINE
  8
_1-f_寸法
  6
CONTINUOUS
 62
    4
 10
239.66863667008923
 20
210.16666674613327
 11
304.66863667008886
 21
210.16666674613327
  0
CIRCLE
  8
_1-f_寸法
  6
CONTINUOUS
 62
    4
 10
346.33530333675537
 20
215.16666666666666
 40
1.6666666666666665
  0
CIRCLE
  8
_1-f_寸法
  6
CONTINUOUS
 62
    4
 10
346.33530333675537
 20
215.16666666666666
 40
1.6666666666666665
  0
CIRCLE
  8
_1-f_寸法
  6
CONTINUOUS
 62
    4
 10
328.00197000342212
 20
205.16666666666666
 40
1.6666666666666665
  0
CIRCLE
  8
_1-f_寸法
  6
CONTINUOUS
 62
    4
 10
341.33530333675537
 20
198.5
 40
1.6666666666666665
  0
CIRCLE
  8
_1-f_寸法
  6
CONTINUOUS
 62
    4
 10
341.33530333675537
 20
205.16666666666666
 40
1.6666666666666665
  0
LINE
  8
_1-f_寸法
  6
CONTINUOUS
 62
    4
 10
340.17419428486335
 20
206.36232696432322
 11
334.66863667008874
 21
212.03171404361666
  0
LINE
  8
_1-f_寸法
  6
CONTINUOUS
 62
    4
 10
340.37043347162137
 20
199.85897164103363
 11
335.41863667008863
 21
206.83333333333317
  0
CIRCLE
  8
_1-f_寸法
  6
CONTINUOUS
 62
    4
 10
322.16866950123853
 20
221.83333333386037
 40
1.6666666666666665
  0
CIRCLE
  8
_1-f_寸法
  6
CONTINUOUS
 62
    4
 10
339.66863666135578
 20
221.8333333146999
 40
1.6666666666666665
  0
TEXT
  8
_1-f_寸法
 62
    4
 10
339.04363666135578
 20
220.5833333146999
 40
2.5
 41
1
 50
0
  1
2
  0
LINE
  8
_1-f_寸法
  6
CONTINUOUS
 62
    4
 10
336.70490386850111
 20
216.69999753741763
 11
338.83530332802246
 21
220.38995764172583
  0
CIRCLE
  8
_1-f_寸法
  6
CONTINUOUS
 62
    4
 10
333.00197000342217
 20
221.83333333333331
 40
1.6666666666666665
  0
TEXT
  8
_1-f_寸法
 62
    4
 10
332.37697000342217
 20
220.58333333333331
 40
2.5
 41
1
 50
0
  1
5
  0
CIRCLE
  8
_1-f_寸法
  6
CONTINUOUS
 62
    4
 10
268.00197000342183
 20
228.49999990189991
 40
1.6666666666666665
  0
TEXT
  8
_1-f_寸法
 62
    4
 10
267.37697000342183
 20
227.24999990189991
 40
2.5
 41
1
 50
0
  1
3
  0
CIRCLE
  8
_1-f_寸法
  6
CONTINUOUS
 62
    4
 10
268.83533616790493
 20
221.83333325439389
 40
1.6666666666666665
  0
CIRCLE
  8
_1-f_寸法
  6
CONTINUOUS
 62
    4
 10
261.33530333675498
 20
236.83333325386678
 40
1.6666666666666665
  0
CIRCLE
  8
_1-f_寸法
  6
CONTINUOUS
 62
    4
 10
261.33530333675498
 20
236.83333325386678
 40
1.6666666666666665
  0
CIRCLE
  8
_1-f_寸法
  6
CONTINUOUS
 62
    4
 10
309.66863666951724
 20
221.83332698040726
 40
1.6666666666666665
  0
TEXT
  8
_1-f_寸法
 62
    4
 10
309.04363666951724
 20
220.58332698040726
 40
2.5
 41
1
 50
0
  1
1
  0
TEXT
  8
_1-f_寸法
 62
    4
 10
268.21033616790493
 20
220.58333325439389
 40
2.5
 41
1
 50
0
  1
6
  0
TEXT
  8
_1-f_寸法
 62
    4
 10
321.54366950123853
 20
220.58333333386037
 40
2.5
 41
1
 50
0
  1
6
  0
TEXT
  8
_1-f_寸法
 62
    4
 10
260.08530333675498
 20
235.58333325386678
 40
2.5
 41
1
 50
0
  1
10
  0
TEXT
  8
_1-f_寸法
 62
    4
 10
345.08530333675537
 20
213.91666666666666
 40
2.5
 41
1
 50
0
  1
10
  0
TEXT
  8
_1-f_寸法
 62
    4
 10
340.71030333675537
 20
203.91666666666666
 40
2.5
 41
1
 50
0
  1
7
  0
TEXT
  8
_1-f_寸法
 62
    4
 10
327.37697000342212
 20
203.91666666666666
 40
2.5
 41
1
 50
0
  1
8
  0
TEXT
  8
_1-f_寸法
 62
    4
 10
340.71030333675537
 20
197.25
 40
2.5
 41
1
 50
0
  1
9
  0
INSERT
  2
-015-_15_
  8
_1-4_フレ__ム
 10
210
 20
148.5
 41
1
 42
1
 50
0
  0
INSERT
  2
-016-_16_
  8
_1-8_小物
 10
210
 20
148.5
 41
1
 42
1
 50
0
  0
LINE
  8
_1-f_寸法
  6
CONTINUOUS
 62
    4
 10
342.6686366695165
 20
236.83334603918507
 11
342.6686366695165
 21
248.43334603918504
  0
LINE
  8
_1-f_寸法
  6
CONTINUOUS
 62
    4
 10
256.33530333675543
 20
236.83334603918507
 11
256.33530333675543
 21
248.43334603918504
  0
POINT
  8
_1-f_寸法
 62
    4
 10
256.33530333675543
 20
246.83334603918505
  0
POINT
  8
_1-f_寸法
 62
    4
 10
342.6686366695165
 20
246.83334603918505
  0
LINE
  8
_1-f_寸法
  6
CONTINUOUS
 62
    4
 10
256.33530333675543
 20
246.83334603918505
 11
342.6686366695165
 21
246.83334603918505
  0
TEXT
  8
_1-f_寸法
 62
    4
 10
297.10197000313588
 20
246.83334603918505
 40
3.2000000000000002
 41
1
 50
0
  1
259
  0
LINE
  8
_1-f_寸法
  6
CONTINUOUS
 62
    4
 10
342.66863666951696
 20
236.83334603918507
 11
342.66863666951696
 21
220.16667937251844
  0
LINE
  8
_1-0_躯体
  6
CENTER2
 62
    4
 10
259.40709729752899
 20
221.50000000000003
 11
239.66863667008877
 21
221.50000000000003
  0
INSERT
  2
-017-_17_
  8
_1-8_小物
 10
210
 20
148.5
 41
1
 42
1
 50
0
  0
LINE
  8
_1-f_寸法
  6
CONTINUOUS
 62
    4
 10
252.84790794737904
 20
227.46680183369122
 11
256.91863667008801
 21
225.58333325386698
  0
CIRCLE
  8
_1-f_寸法
  6
CONTINUOUS
 62
    4
 10
251.33530333675452
 20
228.16666258390887
 40
1.6666666666666665
  0
TEXT
  8
_1-f_寸法
 62
    4
 10
250.71030333675452
 20
226.91666258390887
 40
2.5
 41
1
 50
0
  1
4
  0
CIRCLE
  8
_1-f_寸法
  6
CONTINUOUS
 62
    4
 10
246.33530333675498
 20
226.4999999205335
 40
1.6666666666666665
  0
CIRCLE
  8
_1-f_寸法
  6
CONTINUOUS
 62
    4
 10
251.33530333675498
 20
216.4999999205335
 40
1.6666666666666665
  0
CIRCLE
  8
_1-f_寸法
  6
CONTINUOUS
 62
    4
 10
244.66863667008835
 20
216.4999999205335
 40
1.6666666666666665
  0
LINE
  8
_1-f_寸法
  6
CONTINUOUS
 62
    4
 10
246.15336242512927
 20
217.25721006976269
 11
253.0019700034216
 21
220.75000000000014
  0
LINE
  8
_1-f_寸法
  6
CONTINUOUS
 62
    4
 10
258.20035071370495
 20
221.4999999205335
 11
252.68252081211136
 21
217.481214908124
  0
LINE
  8
_1-f_寸法
  6
CONTINUOUS
 62
    4
 10
257.41863667008835
 20
223.45833333333331
 11
247.94254382613968
 21
226.05891513609836
  0
LINE
  8
_1-f_寸法
  6
CONTINUOUS
 62
    4
 10
348.00197000342206
 20
233.16666031374081
 11
266.33530333675532
 21
233.16666031374081
  0
TEXT
  8
_1-f_寸法
 62
    4
 10
250.71030333675498
 20
215.2499999205335
 40
2.5
 41
1
 50
0
  1
7
  0
TEXT
  8
_1-f_寸法
 62
    4
 10
245.71030333675498
 20
225.2499999205335
 40
2.5
 41
1
 50
0
  1
8
  0
TEXT
  8
_1-f_寸法
 62
    4
 10
244.04363667008835
 20
215.2499999205335
 40
2.5
 41
1
 50
0
  1
9
  0
INSERT
  2
-018-_18_
  8
_1-4_フレ__ム
 10
210
 20
148.5
 41
1
 42
1
 50
0
  0
INSERT
  2
-019-_19_
  8
_1-8_小物
 10
210
 20
148.5
 41
1
 42
1
 50
0
  0
INSERT
  2
-020-_20_
  8
_1-8_小物
 10
210
 20
148.5
 41
1
 42
1
 50
0
  0
LINE
  8
_1-6_ばね
  6
CENTER2
 62
    4
 10
261.28530333457212
 20
230.66666674613322
 11
261.28530333457212
 21
224.00000007946656
  0
LINE
  8
_1-6_ばね
  6
CENTER2
 62
    4
 10
264.61863666790538
 20
227.3333334127999
 11
257.95197000123875
 21
227.3333334127999
  0
CIRCLE
  8
_1-6_ばね
  6
CONTINUOUS
 62
    4
 10
261.28530333457212
 20
227.3333334127999
 40
1.4166666739834075
  0
ARC
  8
_1-6_ばね
  6
CONTINUOUS
 62
    4
 10
272.43964306665413
 20
215.60000011273337
 40
0.8666666666666667
 50
90
 51
120.49335808176306
  0
ARC
  8
_1-6_ばね
  6
CONTINUOUS
 62
    4
 10
268.73096360685344
 20
216.43333346868332
 40
0.8666666666666667
 50
270
 51
300.49335808175789
  0
LINE
  8
_1-6_ばね
  6
CONTINUOUS
 62
    4
 10
268.73096360685344
 20
214.70000013534997
 11
263.71863667008694
 21
214.70000013534997
  0
LINE
  8
_1-6_ばね
  6
CONTINUOUS
 62
    4
 10
271.99986305358442
 20
216.34679637090258
 11
269.61052363299285
 21
214.93974095234489
  0
ARC
  8
_1-6_ばね
  6
CONTINUOUS
 62
    4
 10
268.73096360685344
 20
216.43333346868332
 40
1.7333333333333334
 50
270
 51
300.49335808175533
  0
ARC
  8
_1-6_ばね
  6
CONTINUOUS
 62
    4
 10
272.43964306665401
 20
215.60000011273328
 40
1.7333333333333334
 50
90
 51
120.49335808175486
  0
ARC
  8
_1-6_ばね
  6
CENTER2
 62
    4
 10
268.73096360685366
 20
216.43333346868326
 40
1.2999999999999998
 50
270
 51
300.49335808175448
  0
ARC
  8
_1-6_ばね
  6
CENTER2
 62
    4
 10
272.43964306665401
 20
215.60000011273328
 40
1.2999999999999998
 50
90
 51
120.49335808175448
  0
ARC
  8
_1-6_ばね
  6
CONTINUOUS
 62
    4
 10
263.71863667008728
 20
216.43333346868332
 40
0.8666666666666667
 50
180
 51
270
  0
ARC
  8
_1-6_ばね
  6
CONTINUOUS
 62
    4
 10
263.71863667008694
 20
216.43333346868332
 40
1.7333333333333334
 50
180
 51
270
  0
ARC
  8
_1-6_ばね
  6
CENTER2
 62
    4
 10
263.71863667008728
 20
216.43333346868326
 40
1.2999999999999998
 50
180
 51
270
  0
LINE
  8
_1-6_ばね
  6
CONTINUOUS
 62
    4
 10
262.85197000342049
 20
222.07950065851165
 11
262.85197000342049
 21
216.43333346868332
  0
ARC
  8
_1-6_ばね
  6
CONTINUOUS
 62
    4
 10
261.11863667008714
 20
222.07950065851165
 40
1.7333333333333334
 50
0
 51
34.999999999999957
  0
LINE
  8
_1-6_ばね
  6
CENTER2
 62
    4
 10
259.76987204664391
 20
226.27221700135388
 11
262.18353432766281
 21
222.82515002576815
  0
LINE
  8
_1-6_ばね
  6
CENTER2
 62
    4
 10
262.4186366700871
 20
222.07950065851179
 11
262.4186366700871
 21
216.43333346868332
  0
ARC
  8
_1-6_ばね
  6
CENTER2
 62
    4
 10
261.11863667008714
 20
222.07950065851179
 40
1.2999999999999998
 50
0
 51
34.999999999999133
  0
ARC
  8
_1-6_ばね
  6
CONTINUOUS
 62
    4
 10
261.11863667008691
 20
222.07950065851202
 40
0.8666666666666667
 50
0
 51
34.999999999998103
  0
LINE
  8
_1-6_ばね
  6
CENTER2
 62
    4
 10
268.73096360685366
 20
215.13333346868322
 11
263.71863667008728
 21
215.13333346868322
  0
LINE
  8
_1-6_ばね
  6
CENTER2
 62
    4
 10
271.77997304704957
 20
216.72019449998703
 11
269.39063362645817
 21
215.31313908142948
  0
LINE
  8
_1-6_ばね
  6
CONTINUOUS
 62
    4
 10
271.5600830405146
 20
217.09359262907174
 11
269.17074361992314
 21
215.68653721051402
  0
LINE
  8
_1-6_ばね
  6
CONTINUOUS
 62
    4
 10
268.73096360685344
 20
215.56666680201661
 11
263.71863667008728
 21
215.56666680201661
  0
ARC
  8
_1-6_ばね
  6
CONTINUOUS
 62
    4
 10
276.78530333675388
 20
215.60000011273337
 40
0.8666666666666667
 50
0
 51
90
  0
LINE
  8
_1-6_ばね
  6
CONTINUOUS
 62
    4
 10
277.65197000342056
 20
214.80000011273341
 11
277.65197000342056
 21
215.60000011273337
  0
LINE
  8
_1-6_ばね
  6
CONTINUOUS
 62
    4
 10
278.51863667008735
 20
214.80000011273341
 11
278.51863667008735
 21
215.60000011273328
  0
ARC
  8
_1-6_ばね
  6
CONTINUOUS
 62
    4
 10
276.785303336754
 20
215.60000011273328
 40
1.7333333333333334
 50
0
 51
90
  0
ARC
  8
_1-6_ばね
  6
CENTER2
 62
    4
 10
276.78530333675388
 20
215.60000011273328
 40
1.2999999999999998
 50
0
 51
90
  0
LINE
  8
_1-6_ばね
  6
CENTER2
 62
    4
 10
278.08530333675395
 20
214.80000011273341
 11
278.08530333675395
 21
215.60000011273328
  0
LINE
  8
_1-6_ばね
  6
CONTINUOUS
 62
    4
 10
281.25661601956477
 20
213.5232593742017
 11
283.2994012012154
 21
215.23735966669915
  0
LINE
  8
_1-6_ばね
  6
CONTINUOUS
 62
    4
 10
283.2994012012154
 20
215.23735966669915
 11
283.85648379627713
 21
214.5734544826627
  0
LINE
  8
_1-6_ばね
  6
CONTINUOUS
 62
    4
 10
281.81369861462639
 20
212.85935419016528
 11
283.85648379627713
 21
214.5734544826627
  0
LINE
  8
_1-6_ばね
  6
CENTER2
 62
    4
 10
281.53515731709564
 20
213.19130678218349
 11
283.57794249874627
 21
214.90540707468091
  0
ARC
  8
_1-6_ばね
  6
CONTINUOUS
 62
    4
 10
280.18530333675398
 20
214.80000011273333
 40
1.6666666666666665
 50
179.99999999999707
 51
309.99999999999761
  0
ARC
  8
_1-6_ばね
  6
CENTER2
 62
    4
 10
280.18530333675398
 20
214.80000011273333
 40
2.0999999999999996
 50
179.9999999999977
 51
309.99999999999733
  0
ARC
  8
_1-6_ばね
  6
CONTINUOUS
 62
    4
 10
280.18530333675398
 20
214.80000011273333
 40
2.5333333333333328
 50
179.99999999999807
 51
309.99999999999744
  0
LINE
  8
_1-6_ばね
  6
CONTINUOUS
 62
    4
 10
276.785303336754
 20
217.33333344606663
 11
272.43964306665401
 21
217.33333344606663
  0
LINE
  8
_1-6_ばね
  6
CENTER2
 62
    4
 10
276.78530333675388
 20
216.90000011273324
 11
272.43964306665401
 21
216.90000011273324
  0
LINE
  8
_1-6_ばね
  6
CONTINUOUS
 62
    4
 10
276.78530333675388
 20
216.46666677939999
 11
272.43964306665413
 21
216.46666677939999
  0
LINE
  8
_1-6_ばね
  6
CONTINUOUS
 62
    4
 10
260.12483793250254
 20
226.52076679043921
 11
262.53850021352144
 21
223.07369981485346
  0
ARC
  8
_1-6_ばね
  6
CENTER2
 62
    4
 10
261.28530333457212
 20
227.3333334127999
 40
1.8500000073167409
 50
255.02483380297065
 51
215.00000000000057
  0
ARC
  8
_1-6_ばね
  6
CONTINUOUS
 62
    4
 10
261.28530333457212
 20
227.3333334127999
 40
2.2833333406500742
 50
266.65187649779466
 51
214.99999999999696
  0
LINE
  8
_1-6_ばね
  6
CONTINUOUS
 62
    4
 10
261.98530333675359
 20
222.07950065851202
 11
261.98530333675359
 21
216.43333346868332
  0
LINE
  8
_1-6_ばね
  6
CONTINUOUS
 62
    4
 10
259.41490616078528
 20
226.02366721226841
 11
261.82856844180407
 21
222.57660023668291
  0
INSERT
  2
-021-_21_
  8
_1-5_ア__ム
 10
210
 20
148.5
 41
1
 42
1
 50
0
  0
LINE
  8
_1-6_ばね
  6
CONTINUOUS
 62
    4
 10
263.40178011640609
 20
226.47651535948742
 11
262.2126210609149
 21
223.53910347708734
  0
LINE
  8
_1-6_ばね
  6
CONTINUOUS
 62
    4
 10
261.82502017670396
 20
222.58166768441299
 11
257.88697046194864
 21
212.85405894091608
  0
LINE
  8
_1-6_ばね
  6
CENTER2
 62
    4
 10
257.48530333675632
 20
213.0166667461331
 11
261.52879172109141
 21
223.00472576283633
  0
LINE
  8
_1-6_ばね
  6
CENTER2
 62
    4
 10
261.91639260530241
 20
223.96216155551068
 11
262.49790854288466
 21
225.39859835256618
  0
LINE
  8
_1-6_ばね
  6
CONTINUOUS
 62
    4
 10
261.62016414968991
 20
224.38521963393387
 11
261.9264815669639
 21
225.14187234336896
  0
LINE
  8
_1-6_ばね
  6
CONTINUOUS
 62
    4
 10
257.08363621156388
 20
213.17927455135015
 11
261.23256326547897
 21
223.42778384125953
  0
ARC
  8
_1-6_ばね
  6
CONTINUOUS
 62
    4
 10
257.48530333675632
 20
213.0166667461331
 40
0.4333333333333333
 50
157.96031013033516
 51
337.96031013033172
  0
LINE
  8
_1-f_寸法
  6
CONTINUOUS
 62
    4
 10
239.66863667008923
 20
210.16666674613327
 11
233.06863667008923
 21
210.16666674613327
  0
LINE
  8
_1-f_寸法
  6
CONTINUOUS
 62
    4
 10
239.66863667008923
 20
221.50000000000003
 11
233.06863667008923
 21
221.50000000000003
  0
POINT
  8
_1-f_寸法
 62
    4
 10
234.66863667008923
 20
221.50000000000003
  0
POINT
  8
_1-f_寸法
 62
    4
 10
234.66863667008923
 20
210.16666674613327
  0
LINE
  8
_1-f_寸法
  6
CONTINUOUS
 62
    4
 10
234.66863667008923
 20
221.50000000000003
 11
234.66863667008923
 21
210.16666674613327
  0
TEXT
  8
_1-f_寸法
 62
    4
 10
234.66863667008923
 20
214.23333337306667
 40
3.2000000000000002
 41
1
 50
90
  1
34
  0
LINE
  8
_1-f_寸法
  6
CONTINUOUS
 62
    4
 10
353.00197000342206
 20
233.16666031374081
 11
361.26863667008871
 21
233.16666031374081
  0
LINE
  8
_1-f_寸法
  6
CONTINUOUS
 62
    4
 10
353.00197000342206
 20
210.16666666666666
 11
361.26863667008871
 21
210.16666666666666
  0
POINT
  8
_1-f_寸法
 62
    4
 10
359.66863667008874
 20
210.16666666666666
  0
POINT
  8
_1-f_寸法
 62
    4
 10
359.66863667008874
 20
233.16666031374081
  0
LINE
  8
_1-f_寸法
  6
CONTINUOUS
 62
    4
 10
359.66863667008874
 20
210.16666666666666
 11
359.66863667008874
 21
233.16666031374081
  0
TEXT
  8
_1-f_寸法
 62
    4
 10
359.66863667008874
 20
220.06666349020375
 40
3.2000000000000002
 41
1
 50
90
  1
69
  0
LINE
  8
_1-0_躯体
  6
CONTINUOUS
 62
    6
 10
256.33530333675543
 20
234.80886749755274
 11
256.33530333675543
 21
186.83333333333331
  0
LINE
  8
_1-0_躯体
  6
CENTER2
 62
    4
 10
289.6686366700888
 20
186.83333333333331
 11
289.6686366700888
 21
239.90711865714903
  0
LINE
  8
_1-0_躯体
  6
CONTINUOUS
 62
    6
 10
323.00197000342212
 20
210.16666666666666
 11
323.00197000342212
 21
186.83333333333331
  0
LINE
  8
_1-f_寸法
  6
CONTINUOUS
 62
    4
 10
323.00197000342212
 20
183.5
 11
323.00197000342212
 21
171.90000000000001
  0
LINE
  8
_1-f_寸法
  6
CONTINUOUS
 62
    4
 10
256.33530333675532
 20
183.5
 11
256.33530333675532
 21
171.90000000000001
  0
POINT
  8
_1-f_寸法
 62
    4
 10
256.33530333675532
 20
173.5
  0
POINT
  8
_1-f_寸法
 62
    4
 10
323.00197000342212
 20
173.5
  0
LINE
  8
_1-f_寸法
  6
CONTINUOUS
 62
    4
 10
256.33530333675532
 20
173.5
 11
323.00197000342212
 21
173.5
  0
TEXT
  8
_1-f_寸法
 62
    4
 10
287.26863667008877
 20
173.5
 40
3.2000000000000002
 41
1
 50
0
  1
200
  0
INSERT
  2
-022-_22_
  8
_1-7_カバ__
 10
210
 20
148.5
 41
1
 42
1
 50
0
  0
INSERT
  2
-023-_23_
  8
_1-8_小物
 10
210
 20
148.5
 41
1
 42
1
 50
0
  0
INSERT
  2
-024-_24_
  8
_1-8_小物
 10
210
 20
148.5
 41
1
 42
1
 50
0
  0
INSERT
  2
-025-_25_
  8
_1-8_小物
 10
210
 20
148.5
 41
1
 42
1
 50
0
  0
LINE
  8
_1-f_寸法
  6
CONTINUOUS
 62
    4
 10
75.615283192419014
 20
220.5401316600163
 11
73.333333333327147
 21
217.73333333333349
  0
LINE
  8
_1-f_寸法
  6
CONTINUOUS
 62
    4
 10
148.94861652622825
 20
220.54013166010458
 11
146.66666666667314
 21
217.73333333333349
  0
INSERT
  2
-026-_26_
  8
_1-7_カバ__
 10
210
 20
148.5
 41
1
 42
1
 50
0
  0
INSERT
  2
-027-_27_
  8
_1-8_小物
 10
210
 20
148.5
 41
1
 42
1
 50
0
  0
INSERT
  2
-028-_28_
  8
_1-8_小物
 10
210
 20
148.5
 41
1
 42
1
 50
0
  0
LINE
  8
_1-f_寸法
  6
CONTINUOUS
 62
    4
 10
345.15679203477794
 20
213.98815536468902
 11
342.27760192553774
 21
211.10896525544902
  0
LINE
  8
_1-f_寸法
  6
CONTINUOUS
 62
    4
 10
260.15679203477742
 20
235.6548219518892
 11
257.28629276947083
 21
232.78432268658267
  0
LINE
  8
_1-f_寸法
  6
CONTINUOUS
 62
    4
 10
267.16863667008846
 20
227.05662422892584
 11
262.85197000342049
 21
219.57993824291816
  0
INSERT
  2
-029-_29_
  8
_1-8_小物
 10
210
 20
148.5
 41
1
 42
1
 50
0
  0
LINE
  8
_1-7_カバ__
  6
CONTINUOUS
 62
    4
 10
268.83533616790493
 20
221.83333325439389
 11
272.23530334188888
 21
217.73333341279994
  0
INSERT
  2
-030-_30_
  8
_1-8_小物
 10
210
 20
148.5
 41
1
 42
1
 50
0
  0
LINE
  8
_1-7_カバ__
  6
CONTINUOUS
 62
    4
 10
323.3069189338687
 20
220.61589092992705
 11
326.00197000798386
 21
217.73333341279994
  0
LINE
  8
_1-f_寸法
  6
CONTINUOUS
 62
    4
 10
168.33333333333331
 20
217.73333333333349
 11
174.93333333333328
 21
217.73333333333349
  0
LINE
  8
_1-f_寸法
  6
CONTINUOUS
 62
    4
 10
168.33333333333331
 20
210.16666666666669
 11
174.93333333333328
 21
210.16666666666669
  0
POINT
  8
_1-f_寸法
 62
    4
 10
173.33333333333329
 20
210.16666666666669
  0
POINT
  8
_1-f_寸法
 62
    4
 10
173.33333333333329
 20
217.73333333333349
  0
LINE
  8
_1-f_寸法
  6
CONTINUOUS
 62
    4
 10
173.33333333333329
 20
210.16666666666669
 11
173.33333333333329
 21
217.73333333333349
  0
TEXT
  8
_1-f_寸法
 62
    4
 10
173.33333333333329
 20
210.75000000000011
 40
3.2000000000000002
 41
1
 50
90
  1
22.7
  0
LINE
  8
_1-f_寸法
  6
CONTINUOUS
 62
    4
 10
263.90197000855557
 20
236.83334603918507
 11
263.90197000855557
 21
243.43334603918504
  0
LINE
  8
_1-f_寸法
  6
CONTINUOUS
 62
    4
 10
256.33530333675543
 20
236.83334603918507
 11
256.33530333675543
 21
243.43334603918504
  0
POINT
  8
_1-f_寸法
 62
    4
 10
256.33530333675543
 20
241.83334603918505
  0
POINT
  8
_1-f_寸法
 62
    4
 10
263.90197000855557
 20
241.83334603918505
  0
LINE
  8
_1-f_寸法
  6
CONTINUOUS
 62
    4
 10
256.33530333675543
 20
241.83334603918505
 11
263.90197000855557
 21
241.83334603918505
  0
TEXT
  8
_1-f_寸法
 62
    4
 10
256.91863667265551
 20
241.83334603918505
 40
3.2000000000000002
 41
1
 50
0
  1
22.7
  0
LINE
  8
_1-f_寸法
  6
CONTINUOUS
 62
    4
 10
342.66863666951696
 20
236.83334603918507
 11
342.66863666951696
 21
243.43334603918504
  0
POINT
  8
_1-f_寸法
 62
    4
 10
342.66863666951696
 20
241.83334603918505
  0
LINE
  8
_1-f_寸法
  6
CONTINUOUS
 62
    4
 10
263.90197000855557
 20
241.83334603918505
 11
342.66863666951696
 21
241.83334603918505
  0
TEXT
  8
_1-f_寸法
 62
    4
 10
299.28530333903626
 20
241.83334603918505
 40
3.2000000000000002
 41
1
 50
0
  1
236.3
  0
LINE
  8
_1-f_寸法
  6
CONTINUOUS
 62
    4
 10
348.00197000342206
 20
217.73333341279994
 11
354.60197000342203
 21
217.73333341279994
  0
LINE
  8
_1-f_寸法
  6
CONTINUOUS
 62
    4
 10
348.00197000342206
 20
210.16666666666666
 11
354.60197000342203
 21
210.16666666666666
  0
POINT
  8
_1-f_寸法
 62
    4
 10
353.00197000342206
 20
210.16666666666666
  0
POINT
  8
_1-f_寸法
 62
    4
 10
353.00197000342206
 20
217.73333341279994
  0
LINE
  8
_1-f_寸法
  6
CONTINUOUS
 62
    4
 10
353.00197000342206
 20
210.16666666666666
 11
353.00197000342206
 21
217.73333341279994
  0
TEXT
  8
_1-f_寸法
 62
    4
 10
353.00197000342206
 20
210.75000003973332
 40
3.2000000000000002
 41
1
 50
90
  1
22.7
  0
LINE
  8
_1-f_寸法
  6
CONTINUOUS
 62
    4
 10
348.00197000342206
 20
233.16666031374081
 11
354.60197000342203
 21
233.16666031374081
  0
POINT
  8
_1-f_寸法
 62
    4
 10
353.00197000342206
 20
233.16666031374081
  0
LINE
  8
_1-f_寸法
  6
CONTINUOUS
 62
    4
 10
353.00197000342206
 20
217.73333341279994
 11
353.00197000342206
 21
233.16666031374081
  0
TEXT
  8
_1-f_寸法
 62
    4
 10
353.00197000342206
 20
222.24999686327038
 40
3.2000000000000002
 41
1
 50
90
  1
46.3
  0
INSERT
  2
-031-_31_
  8
_1-8_小物
 10
210
 20
148.5
 41
1
 42
1
 50
0
  0
LINE
  8
_1-f_寸法
  6
CONTINUOUS
 62
    4
 10
134.16666666724507
 20
220.38995766035922
 11
132.53663885203599
 21
217.56666666666683
  0
LINE
  8
_1-f_寸法
  6
CONTINUOUS
 62
    4
 10
312.13199410431616
 20
217.56666674613328
 11
310.5019700028505
 21
220.38995130743319
  0
LINE
  8
_1-f_寸法
  6
CONTINUOUS
 62
    4
 10
54.511844555842856
 20
213.98815536468911
 11
56.959961361571828
 21
211.54003855896013
  0
LINE
  8
_1-f_寸法
  6
CONTINUOUS
 62
    4
 10
153.86734592127212
 20
220.6106835411162
 11
145.74580975568125
 21
211.84384582184887
  0
LINE
  8
_1-f_寸法
  6
CONTINUOUS
 62
    4
 10
165.48815544415567
 20
213.98815536468913
 11
163.01679261938642
 21
211.51679253991995
  0
LINE
  8
_1-f_寸法
  6
CONTINUOUS
 62
    4
 10
332.00064172473975
 20
220.50099724356892
 11
325.47386077671638
 21
211.81666666666675
  0
LINE
  8
_1-f_寸法
  6
CONTINUOUS
 62
    4
 10
329.01722862073223
 20
206.48841842768502
 11
332.4186367495559
 21
210.9166666666668
  0
LINE
  8
_1-f_寸法
  6
CONTINUOUS
 62
    4
 10
149.34859201862147
 20
206.48841843650965
 11
152.75000007946727
 21
210.91666666666666
  0
ENDSEC
  0
EOF
