  0
SECTION
  2
HEADER
  9
$ACADVER
  1
AC1009
  9
$INSBASE
 10
0
 20
0
 30
0
  9
$EXTMIN
 10
0
 20
0
  9
$EXTMAX
 10
420
 20
297
  9
$LIMMIN
 10
0
 20
0
  9
$LIMMAX
 10
420
 20
297
  9
$LTSCALE
 40
1
  0
ENDSEC
  0
SECTION
  2
TABLES
  0
TABLE
  2
LTYPE
 70
     9
  0
LTYPE
  2
CONTINUOUS
 70
    64
  3
実線
 72
    65
 73
     0
 40
0.0
  0
LTYPE
  2
DASHED1
 70
    64
  3
--  --  --  --  --  --  --  --  
 72
    65
 73
     2
 40
2.5
 49
1.25
 49
-1.25
  0
LTYPE
  2
DASHED2
 70
    64
  3
----    ----    ----    ----    
 72
    65
 73
     2
 40
5.0
 49
2.5
 49
-2.5
  0
LTYPE
  2
DASHED3
 70
    64
  3
------  ------  ------  ------  
 72
    65
 73
     2
 40
5.0
 49
3.75
 49
-1.25
  0
LTYPE
  2
CENTER1
 70
    64
  3
----- - ----- - ----- - ----- - 
 72
    65
 73
     4
 40
10.0
 49
6.25
 49
-1.25
 49
1.25
 49
-1.25
  0
LTYPE
  2
CENTER2
 70
    64
  3
----------  --  ----------  --  
 72
    65
 73
     4
 40
20.0
 49
12.5
 49
-2.5
 49
2.5
 49
-2.5
  0
LTYPE
  2
PHANTOM1
 70
    64
  3
--- - - --- - - --- - - --- - - 
 72
    65
 73
     6
 40
10.0
 49
3.25
 49
-1.25
 49
1.25
 49
-1.25
 49
1.25
 49
-1.25
  0
LTYPE
  2
PHANTOM2
 70
    64
  3
--------  -  -  --------  -  -  
 72
    65
 73
     6
 40
20.0
 49
10.0
 49
-2.5
 49
1.25
 49
-2.5
 49
1.25
 49
-2.5
  0
LTYPE
  2
DOT
 70
    64
  3
-   -   -   -   -   -   -   -   
 72
    65
 73
     2
 40
2.5
 49
0.625
 49
-1.875
  0
LTYPE
  2
DUMMY
 70
    64
  3
ダミー
 72
    65
 73
     0
 40
0.0
  0
LTYPE
  2
RAND1
 70
    64
  3
ランダム線1
 72
    65
 73
     4
 40
10.0
 49
1.0
 49
-2.0
 49
3.0
 49
-4.0
  0
LTYPE
  2
RAND2
 70
    64
  3
ランダム線2
 72
    65
 73
     4
 40
14.0
 49
2.0
 49
-3.0
 49
4.0
 49
-5.0
  0
LTYPE
  2
RAND3
 70
    64
  3
ランダム線3
 72
    65
 73
     4
 40
18.0
 49
3.0
 49
-4.0
 49
5.0
 49
-6.0
  0
LTYPE
  2
RAND4
 70
    64
  3
ランダム線4
 72
    65
 73
     4
 40
22.0
 49
4.0
 49
-5.0
 49
6.0
 49
-7.0
  0
LTYPE
  2
RAND5
 70
    64
  3
ランダム線5
 72
    65
 73
     4
 40
26.0
 49
5.0
 49
-6.0
 49
7.0
 49
-8.0
  0
LTYPE
  2
LONG1
 70
    64
  3
----------  --  ----------  --  
 72
    65
 73
     4
 40
40.0
 49
32.5
 49
-2.5
 49
2.5
 49
-2.5
  0
LTYPE
  2
LONG2
 70
    64
  3
--------  -  -  --------  -  -  
 72
    65
 73
     6
 40
40.0
 49
30.0
 49
-2.5
 49
1.25
 49
-2.5
 49
1.25
 49
-2.5
  0
LTYPE
  2
LONG3
 70
    64
  3
+++++++++++++++..+++++++++++++++
 72
    65
 73
     2
 40
40.0
 49
37.5
 49
-2.5
  0
LTYPE
  2
LONG4
 70
    64
  3
+++++++++++++++..+++++++++++++++
 72
    65
 73
     2
 40
80.0
 49
75.0
 49
-5.0
  0
LTYPE
  2
LONG5
 70
    64
  3
----------  --  ----------  --  
 72
    65
 73
     4
 40
60.0
 49
37.5
 49
-7.5
 49
7.5
 49
-7.5
  0
LTYPE
  2
dashed
 70
   64
  3
-------   -------------   ------
 72
   65
 73
    2
 40
7.5
 49
6
 49
-1.5
  0
LTYPE
  2
dashed_spaced
 70
   64
  3
----        --------        ----
 72
   65
 73
    2
 40
12
 49
6
 49
-6
  0
LTYPE
  2
long_dashed_dotted
 70
   64
  3
------------- --- --------------
 72
   65
 73
    4
 40
15.25
 49
12
 49
-1.5
 49
0.25
 49
-1.5
  0
LTYPE
  2
long_dashed_double-dotted
 70
   64
  3
----------- --- --- ------------
 72
   65
 73
    6
 40
17
 49
12
 49
-1.5
 49
0.25
 49
-1.5
 49
0.25
 49
-1.5
  0
LTYPE
  2
long_dashed_triplicate-dotted
 70
   64
  3
--------- --- --- --- ----------
 72
   65
 73
    8
 40
18.75
 49
12
 49
-1.5
 49
0.25
 49
-1.5
 49
0.25
 49
-1.5
 49
0.25
 49
-1.5
  0
LTYPE
  2
dotted
 70
   64
  3
   -       -       -       -    
 72
   65
 73
    2
 40
1.75
 49
0.25
 49
-1.5
  0
LTYPE
  2
chain
 70
   64
  3
-------------- -- --------------
 72
   65
 73
    4
 40
18.5
 49
12
 49
-1.5
 49
3.5
 49
-1.5
  0
LTYPE
  2
chain_double_dash
 70
   64
  3
------------ -- -- -------------
 72
   65
 73
    6
 40
23.5
 49
12
 49
-1.5
 49
3.5
 49
-1.5
 49
3.5
 49
-1.5
  0
LTYPE
  2
dashed_dotted
 70
   64
  3
-----------     -     ----------
 72
   65
 73
    4
 40
9.25
 49
6
 49
-1.5
 49
0.25
 49
-1.5
  0
LTYPE
  2
double-dashed_dotted
 70
   64
  3
------   -----------   -   -----
 72
   65
 73
    6
 40
16.75
 49
6
 49
-1.5
 49
6
 49
-1.5
 49
0.25
 49
-1.5
  0
LTYPE
  2
dashed_double-dotted
 70
   64
  3
---------    -    -    ---------
 72
   65
 73
    6
 40
11
 49
6
 49
-1.5
 49
0.25
 49
-1.5
 49
0.25
 49
-1.5
  0
LTYPE
  2
double-dashed_double-dotted
 70
   64
  3
-----   ---------   -   -   ----
 72
   65
 73
    8
 40
18.5
 49
6
 49
-1.5
 49
6
 49
-1.5
 49
0.25
 49
-1.5
 49
0.25
 49
-1.5
  0
LTYPE
  2
dashed_triplicate-dotted
 70
   64
  3
-------    -    -    -    ------
 72
   65
 73
    8
 40
12.75
 49
6
 49
-1.5
 49
0.25
 49
-1.5
 49
0.25
 49
-1.5
 49
0.25
 49
-1.5
  0
LTYPE
  2
double-dashed_triplicate-dotted
 70
   64
  3
-----  ---------  -  -  -  -----
 72
   65
 73
   10
 40
20.25
 49
6
 49
-1.5
 49
6
 49
-1.5
 49
0.25
 49
-1.5
 49
0.25
 49
-1.5
 49
0.25
 49
-1.5
  0
LTYPE
  2
undefined
 70
   64
  3
--------------------------------
 72
   65
 73
    0
 40
0
  0
ENDTAB
  0
TABLE
  2
STYLE
  5
3
100
AcDbSymbolTable
 70
     1
  0
STYLE
  5
10
100
AcDbSymbolTableRecord
100
AcDbTextStyleTableRecord
  2
STANDARD
 70
     0
 40
0.0
 41
1.0
 50
0.0
 71
     0
 42
0.2
  3
txt
  4
bigfont.shx
  0
STYLE
  5
26
100
AcDbSymbolTableRecord
100
AcDbTextStyleTableRecord
  2
TATEGAKI
 70
    68
 40
0.0
 41
1.0
 50
0.0
 71
     0
 42
1.0
  3
txt
  4
bigfont.shx
  0
ENDTAB
  0
TABLE
  2
LAYER
 70
    9
  0
LAYER
  2
_0-0_図面枠
 70
   64
 62
    7
  6
CONTINUOUS
  0
LAYER
  2
_1-0_躯体
 70
   64
 62
    7
  6
CONTINUOUS
  0
LAYER
  2
_1-4_フレ__ム
 70
   64
 62
    7
  6
CONTINUOUS
  0
LAYER
  2
_1-5_ア__ム
 70
   64
 62
    7
  6
CONTINUOUS
  0
LAYER
  2
_1-6_ばね
 70
   64
 62
    7
  6
CONTINUOUS
  0
LAYER
  2
_1-7_カバ__
 70
   64
 62
    7
  6
CONTINUOUS
  0
LAYER
  2
_1-8_小物
 70
   64
 62
    7
  6
CONTINUOUS
  0
LAYER
  2
_1-f_寸法
 70
   64
 62
    7
  6
CONTINUOUS
  0
LAYER
  2
ADD_LINE
 70
   64
 62
    7
  6
CONTINUOUS
  0
ENDTAB
  0
ENDSEC
  0
SECTION
  2
BLOCKS
  0
BLOCK
  2
-000-
 70
   64
 10
0
 20
0
 30
0
  0
LINE
  8
_1-8_小物
  6
CONTINUOUS
 62
    4
 10
-61.787483860264587
 20
-19
 11
-59.787483860264587
 21
-19
  0
LINE
  8
_1-8_小物
  6
CONTINUOUS
 62
    4
 10
-62.120817193597929
 20
-19.707106781186582
 11
-62.120817193597929
 21
-18.292893218813447
  0
LINE
  8
_1-8_小物
  6
CONTINUOUS
 62
    4
 10
-62.120817193597929
 20
-18.292893218813447
 11
-59.454150526931244
 21
-18.292893218813447
  0
LINE
  8
_1-8_小物
  6
CONTINUOUS
 62
    4
 10
-59.454150526931244
 20
-19.707106781186582
 11
-59.454150526931244
 21
-18.292893218813447
  0
LINE
  8
_1-8_小物
  6
CONTINUOUS
 62
    4
 10
-62.120817193597929
 20
-19.707106781186582
 11
-59.454150526931244
 21
-19.707106781186582
  0
ENDBLK
  0
BLOCK
  2
-001-_1_
 70
   64
 10
0
 20
0
 30
0
  0
LINE
  8
_1-8_小物
  6
CONTINUOUS
 62
    4
 10
-118.45415052693124
 20
-19
 11
-120.45415052693124
 21
-19
  0
LINE
  8
_1-8_小物
  6
CONTINUOUS
 62
    4
 10
-118.12081719359792
 20
-19.707106781186582
 11
-118.12081719359792
 21
-18.292893218813447
  0
LINE
  8
_1-8_小物
  6
CONTINUOUS
 62
    4
 10
-118.12081719359792
 20
-18.292893218813447
 11
-120.78748386026459
 21
-18.292893218813447
  0
LINE
  8
_1-8_小物
  6
CONTINUOUS
 62
    4
 10
-120.78748386026459
 20
-19.707106781186582
 11
-120.78748386026459
 21
-18.292893218813447
  0
LINE
  8
_1-8_小物
  6
CONTINUOUS
 62
    4
 10
-118.12081719359792
 20
-19.707106781186582
 11
-120.78748386026459
 21
-19.707106781186582
  0
ENDBLK
  0
BLOCK
  2
-002-_2_
 70
   64
 10
0
 20
0
 30
0
  0
LINE
  8
_1-8_小物
  6
CONTINUOUS
 62
    4
 10
138.21251613973538
 20
-19
 11
140.21251613973538
 21
-19
  0
LINE
  8
_1-8_小物
  6
CONTINUOUS
 62
    4
 10
137.87918280640207
 20
-19.707106781186582
 11
137.87918280640207
 21
-18.292893218813447
  0
LINE
  8
_1-8_小物
  6
CONTINUOUS
 62
    4
 10
137.87918280640207
 20
-18.292893218813447
 11
140.54584947306876
 21
-18.292893218813447
  0
LINE
  8
_1-8_小物
  6
CONTINUOUS
 62
    4
 10
140.54584947306876
 20
-19.707106781186582
 11
140.54584947306876
 21
-18.292893218813447
  0
LINE
  8
_1-8_小物
  6
CONTINUOUS
 62
    4
 10
137.87918280640207
 20
-19.707106781186582
 11
140.54584947306876
 21
-19.707106781186582
  0
ENDBLK
  0
BLOCK
  2
-003-_3_
 70
   64
 10
0
 20
0
 30
0
  0
LINE
  8
_1-8_小物
  6
CONTINUOUS
 62
    4
 10
81.545849473068756
 20
-19
 11
79.545849473068756
 21
-19
  0
LINE
  8
_1-8_小物
  6
CONTINUOUS
 62
    4
 10
81.879182806402071
 20
-19.707106781186582
 11
81.879182806402071
 21
-18.292893218813447
  0
LINE
  8
_1-8_小物
  6
CONTINUOUS
 62
    4
 10
81.879182806402071
 20
-18.292893218813447
 11
79.212516139735385
 21
-18.292893218813447
  0
LINE
  8
_1-8_小物
  6
CONTINUOUS
 62
    4
 10
79.212516139735385
 20
-19.707106781186582
 11
79.212516139735385
 21
-18.292893218813447
  0
LINE
  8
_1-8_小物
  6
CONTINUOUS
 62
    4
 10
81.879182806402071
 20
-19.707106781186582
 11
79.212516139735385
 21
-19.707106781186582
  0
ENDBLK
  0
BLOCK
  2
-004-_4_
 70
   64
 10
0
 20
0
 30
0
  0
LINE
  8
_1-8_小物
  6
CONTINUOUS
 62
    4
 10
-53.197241746133159
 20
50.073391666666595
 11
-53.162351746133595
 21
49.407638333333296
  0
LINE
  8
_1-8_小物
  6
CONTINUOUS
 62
    4
 10
-53.249578412800133
 20
51.072021666666558
 11
-53.897885079466732
 21
50.704254999999904
  0
LINE
  8
_1-8_小物
  6
CONTINUOUS
 62
    4
 10
-53.897885079466732
 20
50.704254999999904
 11
-53.862995079466543
 21
50.038501666666605
  0
LINE
  8
_1-8_小物
  6
CONTINUOUS
 62
    4
 10
-53.862995079466543
 20
50.038501666666605
 11
-53.197241746133159
 21
50.073391666666595
  0
LINE
  8
_1-8_小物
  6
CONTINUOUS
 62
    4
 10
-53.284468412800038
 20
51.737774999999999
 11
-53.249578412800133
 21
51.072021666666558
  0
LINE
  8
_1-8_小物
  6
CONTINUOUS
 62
    4
 10
-53.336805079466671
 20
52.736403333333357
 11
-53.985111746133612
 21
52.36863666666639
  0
LINE
  8
_1-8_小物
  6
CONTINUOUS
 62
    4
 10
-53.985111746133612
 20
52.36863666666639
 11
-53.950221746133366
 21
51.702883333333318
  0
LINE
  8
_1-8_小物
  6
CONTINUOUS
 62
    4
 10
-53.950221746133366
 20
51.702883333333318
 11
-53.284468412800038
 21
51.737774999999999
  0
LINE
  8
_1-8_小物
  6
CONTINUOUS
 62
    4
 10
-53.371695079466861
 20
53.402156666666713
 11
-53.336805079466671
 21
52.736403333333357
  0
LINE
  8
_1-8_小物
  6
CONTINUOUS
 62
    4
 10
-53.42403174613321
 20
54.400786666666392
 11
-54.072338412799809
 21
54.033020000000022
  0
LINE
  8
_1-8_小物
  6
CONTINUOUS
 62
    4
 10
-54.072338412799809
 20
54.033020000000022
 11
-54.037448412800245
 21
53.367266666666666
  0
LINE
  8
_1-8_小物
  6
CONTINUOUS
 62
    4
 10
-54.037448412800245
 20
53.367266666666666
 11
-53.371695079466861
 21
53.402156666666713
  0
LINE
  8
_1-8_小物
  6
CONTINUOUS
 62
    4
 10
-53.458921746133399
 20
55.066539999999975
 11
-53.42403174613321
 21
54.400786666666392
  0
LINE
  8
_1-8_小物
  6
CONTINUOUS
 62
    4
 10
-53.511258412800032
 20
56.065170000000023
 11
-54.159565079466688
 21
55.697401666666593
  0
LINE
  8
_1-8_小物
  6
CONTINUOUS
 62
    4
 10
-54.159565079466688
 20
55.697401666666593
 11
-54.124675079466783
 21
55.031648333333294
  0
LINE
  8
_1-8_小物
  6
CONTINUOUS
 62
    4
 10
-54.124675079466783
 20
55.031648333333294
 11
-53.458921746133399
 21
55.066539999999975
  0
LINE
  8
_1-8_小物
  6
CONTINUOUS
 62
    4
 10
-53.546148412799937
 20
56.730921666666546
 11
-53.511258412800032
 21
56.065170000000023
  0
LINE
  8
_1-8_小物
  6
CONTINUOUS
 62
    4
 10
-54.246791746133511
 20
57.361784999999855
 11
-54.211901746133321
 21
56.696031666666556
  0
LINE
  8
_1-8_小物
  6
CONTINUOUS
 62
    4
 10
-54.211901746133321
 20
56.696031666666556
 11
-53.546148412799937
 21
56.730921666666546
  0
LINE
  8
_1-8_小物
  6
CONTINUOUS
 62
    4
 10
-53.666666746133387
 20
57.666666666666686
 11
-54.246791746133511
 21
57.361784999999855
  0
LINE
  8
_1-8_小物
  6
CONTINUOUS
 62
    4
 10
-56.802758412800017
 20
50.073391666666595
 11
-56.837648412799922
 21
49.407638333333296
  0
LINE
  8
_1-8_小物
  6
CONTINUOUS
 62
    4
 10
-56.750421746133384
 20
51.072021666666558
 11
-56.102115079466728
 21
50.704254999999904
  0
LINE
  8
_1-8_小物
  6
CONTINUOUS
 62
    4
 10
-56.102115079466728
 20
50.704254999999904
 11
-56.137005079466917
 21
50.038501666666605
  0
LINE
  8
_1-8_小物
  6
CONTINUOUS
 62
    4
 10
-56.137005079466917
 20
50.038501666666605
 11
-56.802758412800017
 21
50.073391666666595
  0
LINE
  8
_1-8_小物
  6
CONTINUOUS
 62
    4
 10
-56.715531746133138
 20
51.737774999999999
 11
-56.750421746133384
 21
51.072021666666558
  0
LINE
  8
_1-8_小物
  6
CONTINUOUS
 62
    4
 10
-56.663195079466846
 20
52.736403333333357
 11
-56.01488841280019
 21
52.36863666666639
  0
LINE
  8
_1-8_小物
  6
CONTINUOUS
 62
    4
 10
-56.01488841280019
 20
52.36863666666639
 11
-56.04977841279981
 21
51.702883333333318
  0
LINE
  8
_1-8_小物
  6
CONTINUOUS
 62
    4
 10
-56.04977841279981
 20
51.702883333333318
 11
-56.715531746133138
 21
51.737774999999999
  0
LINE
  8
_1-8_小物
  6
CONTINUOUS
 62
    4
 10
-56.628305079466941
 20
53.402156666666713
 11
-56.663195079466846
 21
52.736403333333357
  0
LINE
  8
_1-8_小物
  6
CONTINUOUS
 62
    4
 10
-56.575968412800307
 20
54.400786666666392
 11
-55.927661746133367
 21
54.033020000000022
  0
LINE
  8
_1-8_小物
  6
CONTINUOUS
 62
    4
 10
-55.927661746133367
 20
54.033020000000022
 11
-55.962551746133272
 21
53.367266666666666
  0
LINE
  8
_1-8_小物
  6
CONTINUOUS
 62
    4
 10
-55.962551746133272
 20
53.367266666666666
 11
-56.628305079466941
 21
53.402156666666713
  0
LINE
  8
_1-8_小物
  6
CONTINUOUS
 62
    4
 10
-56.541078412800061
 20
55.066539999999975
 11
-56.575968412800307
 21
54.400786666666392
  0
LINE
  8
_1-8_小物
  6
CONTINUOUS
 62
    4
 10
-56.488741746133144
 20
56.065170000000023
 11
-55.840435079466488
 21
55.697401666666593
  0
LINE
  8
_1-8_小物
  6
CONTINUOUS
 62
    4
 10
-55.840435079466488
 20
55.697401666666593
 11
-55.875325079466734
 21
55.031648333333294
  0
LINE
  8
_1-8_小物
  6
CONTINUOUS
 62
    4
 10
-55.875325079466734
 20
55.031648333333294
 11
-56.541078412800061
 21
55.066539999999975
  0
LINE
  8
_1-8_小物
  6
CONTINUOUS
 62
    4
 10
-56.453851746133523
 20
56.730921666666546
 11
-56.488741746133144
 21
56.065170000000023
  0
LINE
  8
_1-8_小物
  6
CONTINUOUS
 62
    4
 10
-55.75320841279995
 20
57.361784999999855
 11
-55.788098412800196
 21
56.696031666666556
  0
LINE
  8
_1-8_小物
  6
CONTINUOUS
 62
    4
 10
-55.788098412800196
 20
56.696031666666556
 11
-56.453851746133523
 21
56.730921666666546
  0
LINE
  8
_1-8_小物
  6
CONTINUOUS
 62
    4
 10
-55.019768412799976
 20
49.686434999999875
 11
-54.375201746133484
 21
50.258324999999957
  0
LINE
  8
_1-8_小物
  6
CONTINUOUS
 62
    4
 10
-55.623148412800163
 20
50.289813333333342
 11
-55.000000079466417
 21
49.666666666666544
  0
LINE
  8
_1-8_小物
  6
CONTINUOUS
 62
    4
 10
-56.333333412799789
 20
57.666666666666686
 11
-55.75320841279995
 21
57.361784999999855
  0
LINE
  8
_1-8_小物
  6
CONTINUOUS
 62
    4
 10
-53.458921746133399
 20
55.066539999999975
 11
-52.893800079466871
 21
56.619199999999807
  0
LINE
  8
_1-8_小物
  6
CONTINUOUS
 62
    4
 10
-53.813648412799864
 20
55.066539999999975
 11
-53.20703007946662
 21
56.733206666666575
  0
LINE
  8
_1-8_小物
  6
CONTINUOUS
 62
    4
 10
-56.541078412800061
 20
55.066539999999975
 11
-57.106200079466589
 21
56.619199999999807
  0
LINE
  8
_1-8_小物
  6
CONTINUOUS
 62
    4
 10
-56.186351746133596
 20
55.066539999999975
 11
-56.792970079466841
 21
56.733206666666575
  0
LINE
  8
_1-8_小物
  6
CONTINUOUS
 62
    4
 10
-54.327418412800057
 20
49.346579999999847
 11
-53.162351746133595
 21
49.407638333333296
  0
LINE
  8
_1-8_小物
  6
CONTINUOUS
 62
    4
 10
-53.162351746133595
 20
49.407638333333296
 11
-53.793213412800128
 21
48.706995000000035
  0
LINE
  8
_1-8_小物
  6
CONTINUOUS
 62
    4
 10
-53.793213412800128
 20
48.706995000000035
 11
-54.292528412799811
 21
48.680826666666491
  0
LINE
  8
_1-8_小物
  6
CONTINUOUS
 62
    4
 10
-54.292528412799811
 20
48.680826666666491
 11
-54.833333412799789
 21
58.999999999999801
  0
LINE
  8
_1-8_小物
  6
CONTINUOUS
 62
    4
 10
-53.666666746133387
 20
57.666666666666686
 11
-53.666666746133387
 21
58.999999999999801
  0
LINE
  8
_1-8_小物
  6
CONTINUOUS
 62
    4
 10
-55.67258174613346
 20
49.346579999999847
 11
-56.837648412799922
 21
49.407638333333296
  0
LINE
  8
_1-8_小物
  6
CONTINUOUS
 62
    4
 10
-56.837648412799922
 20
49.407638333333296
 11
-56.206786746133389
 21
48.706995000000035
  0
LINE
  8
_1-8_小物
  6
CONTINUOUS
 62
    4
 10
-56.206786746133389
 20
48.706995000000035
 11
-55.707471746133365
 21
48.680826666666491
  0
LINE
  8
_1-8_小物
  6
CONTINUOUS
 62
    4
 10
-55.707471746133365
 20
48.680826666666491
 11
-55.166666746133387
 21
58.999999999999801
  0
LINE
  8
_1-8_小物
  6
CONTINUOUS
 62
    4
 10
-56.333333412799789
 20
57.666666666666686
 11
-56.333333412799789
 21
58.999999999999801
  0
LINE
  8
_1-8_小物
  6
CONTINUOUS
 62
    4
 10
-57.106200079466589
 20
56.619199999999807
 11
-57.436985079466695
 21
58.88707333333349
  0
ARC
  8
_1-8_小物
  6
CONTINUOUS
 62
    4
 10
-57.305048412800033
 20
58.906318333333303
 40
0.1333333333333333
 50
98.130101999965902
 51
188.29846599999897
  0
LINE
  8
_1-8_小物
  6
CONTINUOUS
 62
    4
 10
-57.323905079466954
 20
59.03831166666663
 11
-57.258296746133283
 21
59.047683333333396
  0
ARC
  8
_1-8_小物
  6
CONTINUOUS
 62
    4
 10
-57.239440079466419
 20
58.915689999999984
 40
0.1333333333333333
 50
8.1301020000280779
 51
98.13010200022498
  0
LINE
  8
_1-8_小物
  6
CONTINUOUS
 62
    4
 10
-57.107446746133292
 20
58.934546666666563
 11
-56.792970079466841
 21
56.733206666666575
  0
LINE
  8
_1-8_小物
  6
CONTINUOUS
 62
    4
 10
-52.893800079466871
 20
56.619199999999807
 11
-52.563015079466766
 21
58.88707333333349
  0
ARC
  8
_1-8_小物
  6
CONTINUOUS
 62
    4
 10
-52.694951746133427
 20
58.906318333333303
 40
0.1333333333333333
 50
351.70153399996303
 51
81.869898000046192
  0
LINE
  8
_1-8_小物
  6
CONTINUOUS
 62
    4
 10
-52.676096746133453
 20
59.03831166666663
 11
-52.741703412800177
 21
59.047683333333396
  0
ARC
  8
_1-8_小物
  6
CONTINUOUS
 62
    4
 10
-52.760560079466472
 20
58.915689999999984
 40
0.1333333333333333
 50
81.869898000047925
 51
171.86989799997193
  0
LINE
  8
_1-8_小物
  6
CONTINUOUS
 62
    4
 10
-52.892553412800169
 20
58.934546666666563
 11
-53.20703007946662
 21
56.733206666666575
  0
LINE
  8
_1-8_小物
  6
CONTINUOUS
 62
    4
 10
-52.893800079466871
 20
56.619199999999807
 11
-52.563015079466766
 21
58.88707333333349
  0
ARC
  8
_1-8_小物
  6
CONTINUOUS
 62
    4
 10
-52.694951746133427
 20
58.906318333333303
 40
0.1333333333333333
 50
351.70153399996303
 51
81.869898000046192
  0
LINE
  8
_1-8_小物
  6
CONTINUOUS
 62
    4
 10
-52.676096746133453
 20
59.03831166666663
 11
-52.741703412800177
 21
59.047683333333396
  0
ARC
  8
_1-8_小物
  6
CONTINUOUS
 62
    4
 10
-52.760560079466472
 20
58.915689999999984
 40
0.1333333333333333
 50
81.869898000047925
 51
171.86989799997193
  0
LINE
  8
_1-8_小物
  6
CONTINUOUS
 62
    4
 10
-52.892553412800169
 20
58.934546666666563
 11
-53.20703007946662
 21
56.733206666666575
  0
LINE
  8
_1-8_小物
  6
CONTINUOUS
 62
    4
 10
-53.333333412799789
 20
61.666666666666686
 11
-53.666666746133387
 21
60.000000000000028
  0
LINE
  8
_1-8_小物
  6
CONTINUOUS
 62
    4
 10
-53.666666746133387
 20
61.666666666666686
 11
-53.666666746133387
 21
58.999999999999801
  0
LINE
  8
_1-8_小物
  6
CONTINUOUS
 62
    4
 10
-54.833333412799789
 20
58.999999999999801
 11
-55.000000079466417
 21
58.999999999999801
  0
LINE
  8
_1-8_小物
  6
CONTINUOUS
 62
    4
 10
-55.000000079466417
 20
60.000000000000028
 11
-55.000000079466417
 21
61.666666666666686
  0
LINE
  8
_1-8_小物
  6
CONTINUOUS
 62
    4
 10
-54.666666746133387
 20
61.666666666666686
 11
-55.000000079466417
 21
60.000000000000028
  0
LINE
  8
_1-8_小物
  6
CONTINUOUS
 62
    4
 10
-55.333333412800073
 20
61.666666666666686
 11
-55.000000079466417
 21
60.000000000000028
  0
LINE
  8
_1-8_小物
  6
CONTINUOUS
 62
    4
 10
-56.666666746133103
 20
61.666666666666686
 11
-56.333333412799789
 21
60.000000000000028
  0
LINE
  8
_1-8_小物
  6
CONTINUOUS
 62
    4
 10
-56.333333412799789
 20
61.666666666666686
 11
-56.333333412799789
 21
58.999999999999801
  0
LINE
  8
_1-8_小物
  6
CONTINUOUS
 62
    4
 10
-55.166666746133387
 20
58.999999999999801
 11
-55.000000079466417
 21
58.999999999999801
  0
LINE
  8
_1-8_小物
  6
CONTINUOUS
 62
    4
 10
-53.333333412799789
 20
61.666666666666686
 11
-56.666666746133103
 21
61.666666666666686
  0
ENDBLK
  0
BLOCK
  2
-005-_5_
 70
   64
 10
0
 20
0
 30
0
  0
LINE
  8
_1-8_小物
  6
CONTINUOUS
 62
    4
 10
-143.19724174613316
 20
50.073391666666595
 11
-143.16235174613357
 21
49.407638333333296
  0
LINE
  8
_1-8_小物
  6
CONTINUOUS
 62
    4
 10
-143.2495784128001
 20
51.072021666666558
 11
-143.89788507946673
 21
50.704254999999904
  0
LINE
  8
_1-8_小物
  6
CONTINUOUS
 62
    4
 10
-143.89788507946673
 20
50.704254999999904
 11
-143.86299507946654
 21
50.038501666666605
  0
LINE
  8
_1-8_小物
  6
CONTINUOUS
 62
    4
 10
-143.86299507946654
 20
50.038501666666605
 11
-143.19724174613316
 21
50.073391666666595
  0
LINE
  8
_1-8_小物
  6
CONTINUOUS
 62
    4
 10
-143.28446841280001
 20
51.737774999999999
 11
-143.2495784128001
 21
51.072021666666558
  0
LINE
  8
_1-8_小物
  6
CONTINUOUS
 62
    4
 10
-143.33680507946664
 20
52.736403333333357
 11
-143.98511174613358
 21
52.36863666666639
  0
LINE
  8
_1-8_小物
  6
CONTINUOUS
 62
    4
 10
-143.98511174613358
 20
52.36863666666639
 11
-143.95022174613337
 21
51.702883333333318
  0
LINE
  8
_1-8_小物
  6
CONTINUOUS
 62
    4
 10
-143.95022174613337
 20
51.702883333333318
 11
-143.28446841280001
 21
51.737774999999999
  0
LINE
  8
_1-8_小物
  6
CONTINUOUS
 62
    4
 10
-143.37169507946686
 20
53.402156666666713
 11
-143.33680507946664
 21
52.736403333333357
  0
LINE
  8
_1-8_小物
  6
CONTINUOUS
 62
    4
 10
-143.42403174613318
 20
54.400786666666392
 11
-144.07233841279981
 21
54.033020000000022
  0
LINE
  8
_1-8_小物
  6
CONTINUOUS
 62
    4
 10
-144.07233841279981
 20
54.033020000000022
 11
-144.03744841280022
 21
53.367266666666666
  0
LINE
  8
_1-8_小物
  6
CONTINUOUS
 62
    4
 10
-144.03744841280022
 20
53.367266666666666
 11
-143.37169507946686
 21
53.402156666666713
  0
LINE
  8
_1-8_小物
  6
CONTINUOUS
 62
    4
 10
-143.4589217461334
 20
55.066539999999975
 11
-143.42403174613318
 21
54.400786666666392
  0
LINE
  8
_1-8_小物
  6
CONTINUOUS
 62
    4
 10
-143.51125841280003
 20
56.065170000000023
 11
-144.15956507946666
 21
55.697401666666593
  0
LINE
  8
_1-8_小物
  6
CONTINUOUS
 62
    4
 10
-144.15956507946666
 20
55.697401666666593
 11
-144.12467507946675
 21
55.031648333333294
  0
LINE
  8
_1-8_小物
  6
CONTINUOUS
 62
    4
 10
-144.12467507946675
 20
55.031648333333294
 11
-143.4589217461334
 21
55.066539999999975
  0
LINE
  8
_1-8_小物
  6
CONTINUOUS
 62
    4
 10
-143.54614841279994
 20
56.730921666666546
 11
-143.51125841280003
 21
56.065170000000023
  0
LINE
  8
_1-8_小物
  6
CONTINUOUS
 62
    4
 10
-144.24679174613351
 20
57.361784999999855
 11
-144.21190174613329
 21
56.696031666666556
  0
LINE
  8
_1-8_小物
  6
CONTINUOUS
 62
    4
 10
-144.21190174613329
 20
56.696031666666556
 11
-143.54614841279994
 21
56.730921666666546
  0
LINE
  8
_1-8_小物
  6
CONTINUOUS
 62
    4
 10
-143.66666674613339
 20
57.666666666666686
 11
-144.24679174613351
 21
57.361784999999855
  0
LINE
  8
_1-8_小物
  6
CONTINUOUS
 62
    4
 10
-146.80275841279999
 20
50.073391666666595
 11
-146.83764841279989
 21
49.407638333333296
  0
LINE
  8
_1-8_小物
  6
CONTINUOUS
 62
    4
 10
-146.75042174613336
 20
51.072021666666558
 11
-146.10211507946673
 21
50.704254999999904
  0
LINE
  8
_1-8_小物
  6
CONTINUOUS
 62
    4
 10
-146.10211507946673
 20
50.704254999999904
 11
-146.13700507946692
 21
50.038501666666605
  0
LINE
  8
_1-8_小物
  6
CONTINUOUS
 62
    4
 10
-146.13700507946692
 20
50.038501666666605
 11
-146.80275841279999
 21
50.073391666666595
  0
LINE
  8
_1-8_小物
  6
CONTINUOUS
 62
    4
 10
-146.71553174613314
 20
51.737774999999999
 11
-146.75042174613336
 21
51.072021666666558
  0
LINE
  8
_1-8_小物
  6
CONTINUOUS
 62
    4
 10
-146.66319507946682
 20
52.736403333333357
 11
-146.01488841280019
 21
52.36863666666639
  0
LINE
  8
_1-8_小物
  6
CONTINUOUS
 62
    4
 10
-146.01488841280019
 20
52.36863666666639
 11
-146.04977841279978
 21
51.702883333333318
  0
LINE
  8
_1-8_小物
  6
CONTINUOUS
 62
    4
 10
-146.04977841279978
 20
51.702883333333318
 11
-146.71553174613314
 21
51.737774999999999
  0
LINE
  8
_1-8_小物
  6
CONTINUOUS
 62
    4
 10
-146.62830507946691
 20
53.402156666666713
 11
-146.66319507946682
 21
52.736403333333357
  0
LINE
  8
_1-8_小物
  6
CONTINUOUS
 62
    4
 10
-146.57596841280028
 20
54.400786666666392
 11
-145.92766174613334
 21
54.033020000000022
  0
LINE
  8
_1-8_小物
  6
CONTINUOUS
 62
    4
 10
-145.92766174613334
 20
54.033020000000022
 11
-145.96255174613324
 21
53.367266666666666
  0
LINE
  8
_1-8_小物
  6
CONTINUOUS
 62
    4
 10
-145.96255174613324
 20
53.367266666666666
 11
-146.62830507946691
 21
53.402156666666713
  0
LINE
  8
_1-8_小物
  6
CONTINUOUS
 62
    4
 10
-146.54107841280006
 20
55.066539999999975
 11
-146.57596841280028
 21
54.400786666666392
  0
LINE
  8
_1-8_小物
  6
CONTINUOUS
 62
    4
 10
-146.48874174613314
 20
56.065170000000023
 11
-145.84043507946649
 21
55.697401666666593
  0
LINE
  8
_1-8_小物
  6
CONTINUOUS
 62
    4
 10
-145.84043507946649
 20
55.697401666666593
 11
-145.87532507946671
 21
55.031648333333294
  0
LINE
  8
_1-8_小物
  6
CONTINUOUS
 62
    4
 10
-145.87532507946671
 20
55.031648333333294
 11
-146.54107841280006
 21
55.066539999999975
  0
LINE
  8
_1-8_小物
  6
CONTINUOUS
 62
    4
 10
-146.45385174613352
 20
56.730921666666546
 11
-146.48874174613314
 21
56.065170000000023
  0
LINE
  8
_1-8_小物
  6
CONTINUOUS
 62
    4
 10
-145.75320841279995
 20
57.361784999999855
 11
-145.78809841280017
 21
56.696031666666556
  0
LINE
  8
_1-8_小物
  6
CONTINUOUS
 62
    4
 10
-145.78809841280017
 20
56.696031666666556
 11
-146.45385174613352
 21
56.730921666666546
  0
LINE
  8
_1-8_小物
  6
CONTINUOUS
 62
    4
 10
-145.01976841279998
 20
49.686434999999875
 11
-144.37520174613346
 21
50.258324999999957
  0
LINE
  8
_1-8_小物
  6
CONTINUOUS
 62
    4
 10
-145.62314841280016
 20
50.289813333333342
 11
-145.00000007946642
 21
49.666666666666544
  0
LINE
  8
_1-8_小物
  6
CONTINUOUS
 62
    4
 10
-146.33333341279976
 20
57.666666666666686
 11
-145.75320841279995
 21
57.361784999999855
  0
LINE
  8
_1-8_小物
  6
CONTINUOUS
 62
    4
 10
-143.4589217461334
 20
55.066539999999975
 11
-142.89380007946687
 21
56.619199999999807
  0
LINE
  8
_1-8_小物
  6
CONTINUOUS
 62
    4
 10
-143.81364841279986
 20
55.066539999999975
 11
-143.20703007946662
 21
56.733206666666575
  0
LINE
  8
_1-8_小物
  6
CONTINUOUS
 62
    4
 10
-146.54107841280006
 20
55.066539999999975
 11
-147.10620007946659
 21
56.619199999999807
  0
LINE
  8
_1-8_小物
  6
CONTINUOUS
 62
    4
 10
-146.1863517461336
 20
55.066539999999975
 11
-146.79297007946684
 21
56.733206666666575
  0
LINE
  8
_1-8_小物
  6
CONTINUOUS
 62
    4
 10
-144.32741841280003
 20
49.346579999999847
 11
-143.16235174613357
 21
49.407638333333296
  0
LINE
  8
_1-8_小物
  6
CONTINUOUS
 62
    4
 10
-143.16235174613357
 20
49.407638333333296
 11
-143.7932134128001
 21
48.706995000000035
  0
LINE
  8
_1-8_小物
  6
CONTINUOUS
 62
    4
 10
-143.7932134128001
 20
48.706995000000035
 11
-144.29252841279981
 21
48.680826666666491
  0
LINE
  8
_1-8_小物
  6
CONTINUOUS
 62
    4
 10
-144.29252841279981
 20
48.680826666666491
 11
-144.83333341279976
 21
58.999999999999801
  0
LINE
  8
_1-8_小物
  6
CONTINUOUS
 62
    4
 10
-143.66666674613339
 20
57.666666666666686
 11
-143.66666674613339
 21
58.999999999999801
  0
LINE
  8
_1-8_小物
  6
CONTINUOUS
 62
    4
 10
-145.67258174613343
 20
49.346579999999847
 11
-146.83764841279989
 21
49.407638333333296
  0
LINE
  8
_1-8_小物
  6
CONTINUOUS
 62
    4
 10
-146.83764841279989
 20
49.407638333333296
 11
-146.20678674613336
 21
48.706995000000035
  0
LINE
  8
_1-8_小物
  6
CONTINUOUS
 62
    4
 10
-146.20678674613336
 20
48.706995000000035
 11
-145.70747174613334
 21
48.680826666666491
  0
LINE
  8
_1-8_小物
  6
CONTINUOUS
 62
    4
 10
-145.70747174613334
 20
48.680826666666491
 11
-145.16666674613339
 21
58.999999999999801
  0
LINE
  8
_1-8_小物
  6
CONTINUOUS
 62
    4
 10
-146.33333341279976
 20
57.666666666666686
 11
-146.33333341279976
 21
58.999999999999801
  0
LINE
  8
_1-8_小物
  6
CONTINUOUS
 62
    4
 10
-147.10620007946659
 20
56.619199999999807
 11
-147.43698507946669
 21
58.88707333333349
  0
ARC
  8
_1-8_小物
  6
CONTINUOUS
 62
    4
 10
-147.30504841280003
 20
58.906318333333303
 40
0.1333333333333333
 50
98.130101999965902
 51
188.29846599999897
  0
LINE
  8
_1-8_小物
  6
CONTINUOUS
 62
    4
 10
-147.32390507946693
 20
59.03831166666663
 11
-147.25829674613328
 21
59.047683333333396
  0
ARC
  8
_1-8_小物
  6
CONTINUOUS
 62
    4
 10
-147.23944007946642
 20
58.915689999999984
 40
0.1333333333333333
 50
8.1301020000280779
 51
98.130102000212887
  0
LINE
  8
_1-8_小物
  6
CONTINUOUS
 62
    4
 10
-147.10744674613329
 20
58.934546666666563
 11
-146.79297007946684
 21
56.733206666666575
  0
LINE
  8
_1-8_小物
  6
CONTINUOUS
 62
    4
 10
-142.89380007946687
 20
56.619199999999807
 11
-142.56301507946677
 21
58.88707333333349
  0
ARC
  8
_1-8_小物
  6
CONTINUOUS
 62
    4
 10
-142.69495174613343
 20
58.906318333333303
 40
0.1333333333333333
 50
351.70153399996479
 51
81.869898000034084
  0
LINE
  8
_1-8_小物
  6
CONTINUOUS
 62
    4
 10
-142.67609674613345
 20
59.03831166666663
 11
-142.74170341280018
 21
59.047683333333396
  0
ARC
  8
_1-8_小物
  6
CONTINUOUS
 62
    4
 10
-142.76056007946644
 20
58.915689999999984
 40
0.1333333333333333
 50
81.869898000047925
 51
171.86989799997193
  0
LINE
  8
_1-8_小物
  6
CONTINUOUS
 62
    4
 10
-142.89255341280017
 20
58.934546666666563
 11
-143.20703007946662
 21
56.733206666666575
  0
LINE
  8
_1-8_小物
  6
CONTINUOUS
 62
    4
 10
-142.89380007946687
 20
56.619199999999807
 11
-142.56301507946677
 21
58.88707333333349
  0
ARC
  8
_1-8_小物
  6
CONTINUOUS
 62
    4
 10
-142.69495174613343
 20
58.906318333333303
 40
0.1333333333333333
 50
351.70153399996479
 51
81.869898000034084
  0
LINE
  8
_1-8_小物
  6
CONTINUOUS
 62
    4
 10
-142.67609674613345
 20
59.03831166666663
 11
-142.74170341280018
 21
59.047683333333396
  0
ARC
  8
_1-8_小物
  6
CONTINUOUS
 62
    4
 10
-142.76056007946644
 20
58.915689999999984
 40
0.1333333333333333
 50
81.869898000047925
 51
171.86989799997193
  0
LINE
  8
_1-8_小物
  6
CONTINUOUS
 62
    4
 10
-142.89255341280017
 20
58.934546666666563
 11
-143.20703007946662
 21
56.733206666666575
  0
LINE
  8
_1-8_小物
  6
CONTINUOUS
 62
    4
 10
-143.33333341279976
 20
61.666666666666686
 11
-143.66666674613339
 21
60.000000000000028
  0
LINE
  8
_1-8_小物
  6
CONTINUOUS
 62
    4
 10
-143.66666674613339
 20
61.666666666666686
 11
-143.66666674613339
 21
58.999999999999801
  0
LINE
  8
_1-8_小物
  6
CONTINUOUS
 62
    4
 10
-144.83333341279976
 20
58.999999999999801
 11
-145.00000007946642
 21
58.999999999999801
  0
LINE
  8
_1-8_小物
  6
CONTINUOUS
 62
    4
 10
-145.00000007946642
 20
60.000000000000028
 11
-145.00000007946642
 21
61.666666666666686
  0
LINE
  8
_1-8_小物
  6
CONTINUOUS
 62
    4
 10
-144.66666674613339
 20
61.666666666666686
 11
-145.00000007946642
 21
60.000000000000028
  0
LINE
  8
_1-8_小物
  6
CONTINUOUS
 62
    4
 10
-145.33333341280007
 20
61.666666666666686
 11
-145.00000007946642
 21
60.000000000000028
  0
LINE
  8
_1-8_小物
  6
CONTINUOUS
 62
    4
 10
-146.6666667461331
 20
61.666666666666686
 11
-146.33333341279976
 21
60.000000000000028
  0
LINE
  8
_1-8_小物
  6
CONTINUOUS
 62
    4
 10
-146.33333341279976
 20
61.666666666666686
 11
-146.33333341279976
 21
58.999999999999801
  0
LINE
  8
_1-8_小物
  6
CONTINUOUS
 62
    4
 10
-145.16666674613339
 20
58.999999999999801
 11
-145.00000007946642
 21
58.999999999999801
  0
LINE
  8
_1-8_小物
  6
CONTINUOUS
 62
    4
 10
-143.33333341279976
 20
61.666666666666686
 11
-146.6666667461331
 21
61.666666666666686
  0
ENDBLK
  0
BLOCK
  2
-006-_6_
 70
   64
 10
0
 20
0
 30
0
  0
LINE
  8
ADD_LINE
  6
DOT
 62
    4
 10
-142.49999992053344
 20
62.666666666666799
 11
-142.49999992053344
 21
61.666666666666686
  0
LINE
  8
ADD_LINE
  6
DOT
 62
    4
 10
-147.49999992053344
 20
62.666666666666799
 11
-147.49999992053344
 21
61.666666666666686
  0
LINE
  8
_1-4_フレ__ム
  6
CENTER2
 62
    4
 10
-144.99999992053344
 20
60.000000000000028
 11
-144.99999992053344
 21
63.833333333333513
  0
LINE
  8
_1-4_フレ__ム
  6
CONTINUOUS
 62
    4
 10
-144.99999992053344
 20
62.566666666666777
 11
-145.09999992053324
 21
62.666666666666799
  0
LINE
  8
_1-4_フレ__ム
  6
CONTINUOUS
 62
    4
 10
-144.89999992053308
 20
62.666666666666799
 11
-144.99999992053344
 21
62.566666666666777
  0
LINE
  8
_1-4_フレ__ム
  6
CONTINUOUS
 62
    4
 10
-140.3333334127995
 20
62.666666666666799
 11
-144.89999992053308
 21
62.666666666666799
  0
LINE
  8
_1-4_フレ__ム
  6
CONTINUOUS
 62
    4
 10
-140.3333334127995
 20
63.500000000000057
 11
-140.3333334127995
 21
62.666666666666799
  0
LINE
  8
_1-4_フレ__ム
  6
CONTINUOUS
 62
    4
 10
-140.3333334127995
 20
63.500000000000057
 11
-139.33333341279945
 21
63.500000000000057
  0
LINE
  8
_1-4_フレ__ム
  6
CONTINUOUS
 62
    4
 10
-145.09999992053324
 20
62.666666666666799
 11
-150.99999982206688
 21
62.666666666666799
  0
ARC
  8
_1-4_フレ__ム
  6
CONTINUOUS
 62
    4
 10
-131.09999982206645
 20
61.933333333333678
 40
0.2666666666666667
 50
270
 51
0
  0
ARC
  8
_1-4_フレ__ム
  6
CONTINUOUS
 62
    4
 10
-131.1999998220665
 20
61.833333333333513
 40
0.1666666666666666
 50
180
 51
270
  0
LINE
  8
_1-4_フレ__ム
  6
CONTINUOUS
 62
    4
 10
-131.1999998220665
 20
61.666666666666686
 11
-131.09999982206645
 21
61.666666666666686
  0
ARC
  8
_1-4_フレ__ム
  6
CONTINUOUS
 62
    4
 10
-133.33333315540003
 20
62.666666666666799
 40
0.1666666666666666
 50
270
 51
0
  0
LINE
  8
_1-4_フレ__ム
  6
CONTINUOUS
 62
    4
 10
-130.83333315540003
 20
61.933333333333678
 11
-130.83333315540003
 21
62.933333333333422
  0
ARC
  8
_1-4_フレ__ム
  6
CONTINUOUS
 62
    4
 10
-131.46666648873335
 20
62.933333333333422
 40
0.6333333333333333
 50
0
 51
90
  0
LINE
  8
_1-4_フレ__ム
  6
CONTINUOUS
 62
    4
 10
-139.33333341279945
 20
63.500000000000057
 11
-139.33333341279945
 21
62.500000000000171
  0
LINE
  8
_1-4_フレ__ム
  6
CONTINUOUS
 62
    4
 10
-133.33333315540003
 20
62.500000000000171
 11
-139.33333341279945
 21
62.500000000000171
  0
LINE
  8
_1-4_フレ__ム
  6
CONTINUOUS
 62
    4
 10
-149.99999982206654
 20
61.666666666666686
 11
-150.99999982206688
 21
62.666666666666799
  0
LINE
  8
_1-4_フレ__ム
  6
CONTINUOUS
 62
    4
 10
-149.99999982206654
 20
61.666666666666686
 11
-132.33333333333326
 21
61.666666666666686
  0
LINE
  8
ADD_LINE
  6
DOT
 62
    4
 10
-133.83333315540003
 20
62.500000000000171
 11
-133.83333315540003
 21
61.666666666666686
  0
LINE
  8
_1-4_フレ__ム
  6
CENTER2
 62
    4
 10
-131.84999982206645
 20
62.483333333333519
 11
-131.84999982206645
 21
63.316666666666549
  0
LINE
  8
_1-4_フレ__ム
  6
CENTER2
 62
    4
 10
-131.84999982206645
 20
62.483333333333519
 11
-132.68333315540008
 21
62.483333333333519
  0
LINE
  8
_1-4_フレ__ム
  6
CENTER2
 62
    4
 10
-131.84999982206645
 20
62.483333333333519
 11
-131.84999982206645
 21
61.64999999999992
  0
LINE
  8
_1-4_フレ__ム
  6
CENTER2
 62
    4
 10
-131.84999982206645
 20
62.483333333333519
 11
-131.01666648873311
 21
62.483333333333519
  0
ARC
  8
_1-4_フレ__ム
  6
CONTINUOUS
 62
    4
 10
-131.84999982206645
 20
62.483333333333519
 40
0.4833333333332726
 50
0
 51
180
  0
LINE
  8
_1-4_フレ__ム
  6
CONTINUOUS
 62
    4
 10
-132.33333315540003
 20
61.666666666666686
 11
-132.33333315540003
 21
62.483333333333519
  0
LINE
  8
_1-4_フレ__ム
  6
CONTINUOUS
 62
    4
 10
-131.36666648873347
 20
62.483333333333519
 11
-131.36666648873347
 21
61.833333333333513
  0
LINE
  8
_1-4_フレ__ム
  6
CONTINUOUS
 62
    4
 10
-133.1666664887334
 20
63.466666666666754
 11
-133.1666664887334
 21
62.666666666666799
  0
LINE
  8
_1-4_フレ__ム
  6
CONTINUOUS
 62
    4
 10
-131.46666648873335
 20
63.566666666666777
 11
-133.06666648873335
 21
63.566666666666777
  0
ARC
  8
_1-4_フレ__ム
  6
CONTINUOUS
 62
    4
 10
-133.06666648873335
 20
63.466666666666754
 40
0.0999999999999999
 50
90
 51
180
  0
ENDBLK
  0
BLOCK
  2
-007-_7_
 70
   64
 10
0
 20
0
 30
0
  0
LINE
  8
_1-8_小物
  6
CONTINUOUS
 62
    4
 10
-133.96111093644976
 20
62.730313555190975
 11
-134.04814797349445
 21
62.629306961543449
  0
ARC
  8
_1-8_小物
  6
CONTINUOUS
 62
    4
 10
-130.9666664887331
 20
63.433333333333422
 40
0.1333333333333333
 50
0
 51
89.999998490725531
  0
ARC
  8
_1-8_小物
  6
CONTINUOUS
 62
    4
 10
-130.9666664887331
 20
63.433333333333422
 40
0.2666666666666666
 50
0
 51
89.999998490725531
  0
ARC
  8
_1-8_小物
  6
CONTINUOUS
 62
    4
 10
-130.9666664887331
 20
61.800000000000068
 40
0.2666666666666666
 50
270
 51
0
  0
ARC
  8
_1-8_小物
  6
CONTINUOUS
 62
    4
 10
-131.69999982206645
 20
61.293988670433379
 40
0.5
 50
53.031405798546594
 51
131.81031489580724
  0
ARC
  8
_1-8_小物
  6
CONTINUOUS
 62
    4
 10
-131.31912760539976
 20
61.800000000000068
 40
0.1333333333333333
 50
233.03140197499982
 51
269.99999849072555
  0
LINE
  8
_1-8_小物
  6
CONTINUOUS
 62
    4
 10
-131.32275832556647
 20
61.533333333333417
 11
-130.9666664887331
 21
61.533333333333417
  0
ARC
  8
_1-8_小物
  6
CONTINUOUS
 62
    4
 10
-130.9666664887331
 20
61.800000000000068
 40
0.1333333333333333
 50
270
 51
0
  0
ARC
  8
_1-8_小物
  6
CONTINUOUS
 62
    4
 10
-131.69999982206645
 20
61.250333466766762
 40
0.3999999999999999
 50
55.537811429938479
 51
127.63786311679968
  0
LINE
  8
_1-8_小物
  6
CONTINUOUS
 62
    4
 10
-131.31912760889981
 20
61.666666666666742
 11
-130.9666664887331
 21
61.666666666666742
  0
ARC
  8
_1-8_小物
  6
CONTINUOUS
 62
    4
 10
-131.32275832556647
 20
61.800000000000068
 40
0.2666666666666666
 50
235.53781142990741
 51
270
  0
LINE
  8
_1-8_小物
  6
CONTINUOUS
 62
    4
 10
-132.03333315539976
 20
61.666666666666742
 11
-131.94426726376645
 21
61.567087972566725
  0
LINE
  8
_1-8_小物
  6
CONTINUOUS
 62
    4
 10
-130.69999982206645
 20
61.800000000000068
 11
-130.69999982206645
 21
63.433333333333422
  0
LINE
  8
_1-8_小物
  6
CONTINUOUS
 62
    4
 10
-130.8333331553998
 20
61.800000000000068
 11
-130.8333331553998
 21
63.433333333333422
  0
ARC
  8
_1-8_小物
  6
CONTINUOUS
 62
    4
 10
-133.69999982206645
 20
63.033333333333417
 40
0.5333333333333333
 50
180
 51
0.0000086701116401
  0
ARC
  8
_1-8_小物
  6
CONTINUOUS
 62
    4
 10
-133.69999982206645
 20
63.033333333333417
 40
0.3999999999999999
 50
180.00000000009771
 51
0.0000018823917002
  0
LINE
  8
_1-8_小物
  6
CONTINUOUS
 62
    4
 10
-134.09999982206645
 20
63.033333333333417
 11
-134.23333315539978
 21
63.033333333333417
  0
LINE
  8
_1-8_小物
  6
CONTINUOUS
 62
    4
 10
-135.16666648873314
 20
62.500000000000028
 11
-135.16666648873314
 21
62.633333333333354
  0
LINE
  8
_1-8_小物
  6
DASHED1
 62
    4
 10
-132.5833331483268
 20
63.700000000000074
 11
-132.5833331483268
 21
63.566666666666748
  0
LINE
  8
_1-8_小物
  6
CONTINUOUS
 62
    4
 10
-134.66666648873314
 20
62.633333333333354
 11
-134.66666648873314
 21
62.500000000000028
  0
LINE
  8
_1-8_小物
  6
CONTINUOUS
 62
    4
 10
-135.16666648873314
 20
62.633333333333354
 11
-134.05276666354166
 21
62.633333333333354
  0
LINE
  8
_1-8_小物
  6
CONTINUOUS
 62
    4
 10
-135.16666648873314
 20
62.500000000000028
 11
-133.33333315540003
 21
62.500000000000028
  0
LINE
  8
_1-8_小物
  6
CONTINUOUS
 62
    4
 10
-133.3472329805912
 20
62.633333333333354
 11
-133.17003383921451
 21
62.633333333333354
  0
ARC
  8
_1-8_小物
  6
CONTINUOUS
 62
    4
 10
-132.26977134708335
 20
62.200000000000074
 40
0.1333333333333333
 50
241.52902134411696
 51
270
  0
LINE
  8
_1-8_小物
  6
CONTINUOUS
 62
    4
 10
-132.33333315540003
 20
61.933333333333422
 11
-131.36666648873347
 21
61.933333333333422
  0
LINE
  8
_1-8_小物
  6
CONTINUOUS
 62
    4
 10
-132.26977134708335
 20
62.06666666666672
 11
-131.36666648873347
 21
62.06666666666672
  0
LINE
  8
_1-8_小物
  6
CONTINUOUS
 62
    4
 10
-130.96666648523313
 20
63.566666666666748
 11
-133.06666648873312
 21
63.566666666666748
  0
LINE
  8
_1-8_小物
  6
CONTINUOUS
 62
    4
 10
-133.16666648873314
 20
63.033333333333417
 11
-133.16666648873314
 21
63.466666666666754
  0
ARC
  8
_1-8_小物
  6
CONTINUOUS
 62
    4
 10
-133.06666648873312
 20
63.466666666666754
 40
0.0999999999999999
 50
90
 51
180
  0
LINE
  8
_1-8_小物
  6
CONTINUOUS
 62
    4
 10
-130.96666648173309
 20
63.700000000000074
 11
-133.06666648873306
 21
63.700000000000074
  0
LINE
  8
_1-8_小物
  6
CONTINUOUS
 62
    4
 10
-133.29999982206641
 20
63.033333333333417
 11
-133.29999982206641
 21
63.466666666666725
  0
ARC
  8
_1-8_小物
  6
CONTINUOUS
 62
    4
 10
-133.06666648873306
 20
63.466666666666725
 40
0.2333333333333333
 50
90
 51
180
  0
ENDBLK
  0
BLOCK
  2
-008-_8_
 70
   64
 10
0
 20
0
 30
0
  0
ARC
  8
_1-4_フレ__ム
  6
CONTINUOUS
 62
    4
 10
-84.833333253866542
 20
61.666666666666657
 40
0.5
 50
90
 51
180
  0
LINE
  8
_1-4_フレ__ム
  6
CONTINUOUS
 62
    4
 10
-54.999999920533213
 20
62.066666666666606
 11
-55.09999992053298
 21
62.166666666666657
  0
LINE
  8
_1-4_フレ__ム
  6
CONTINUOUS
 62
    4
 10
-54.899999920532537
 20
62.166666666666657
 11
-54.999999920533213
 21
62.066666666666606
  0
LINE
  8
_1-4_フレ__ム
  6
CONTINUOUS
 62
    4
 10
-85.333333253866243
 20
61.666666666666657
 11
-49.999999920533213
 21
61.666666666666657
  0
LINE
  8
_1-4_フレ__ム
  6
CONTINUOUS
 62
    4
 10
-50
 20
61.666666685666684
 11
-49.00000001899997
 21
62.666666666666629
  0
LINE
  8
_1-4_フレ__ム
  6
CONTINUOUS
 62
    4
 10
-49.00000001899997
 20
62.666666666666629
 11
-49.707106800186551
 21
62.666666666666629
  0
LINE
  8
_1-4_フレ__ム
  6
CONTINUOUS
 62
    4
 10
-50.207106800186551
 20
62.166666666666657
 11
-49.707106800186551
 21
62.666666666666629
  0
LINE
  8
_1-4_フレ__ム
  6
CONTINUOUS
 62
    4
 10
-50.207106800186551
 20
62.166666666666657
 11
-54.899999920532537
 21
62.166666666666657
  0
LINE
  8
_1-4_フレ__ム
  6
CONTINUOUS
 62
    4
 10
-63.238095158628539
 20
63.39999999999992
 11
-63.238095158628539
 21
63.566666666666606
  0
ARC
  8
_1-4_フレ__ム
  6
CONTINUOUS
 62
    4
 10
-63.571428491961882
 20
63.39999999999992
 40
0.3333333333333333
 50
270
 51
0
  0
LINE
  8
_1-4_フレ__ム
  6
CONTINUOUS
 62
    4
 10
-63.571428491961882
 20
63.066666666666606
 11
-64.401932695700168
 21
63.066666666666606
  0
ARC
  8
_1-4_フレ__ム
  6
CONTINUOUS
 62
    4
 10
-64.401932695700168
 20
62.89999999999992
 40
0.1666666666666666
 50
90
 51
150.94539590094374
  0
LINE
  8
_1-4_フレ__ム
  6
CONTINUOUS
 62
    4
 10
-55.09999992053298
 20
62.166666666666657
 11
-64.716747510514949
 21
62.166666666666657
  0
ARC
  8
_1-4_フレ__ム
  6
CONTINUOUS
 62
    4
 10
-64.716747510514949
 20
62.333333333333314
 40
0.1666666666666666
 50
150.94539590094374
 51
270
  0
LINE
  8
_1-4_フレ__ム
  6
CONTINUOUS
 62
    4
 10
-63.238095158628539
 20
63.566666666666606
 11
-64.598067145366343
 21
63.566666666666606
  0
ARC
  8
_1-4_フレ__ム
  6
CONTINUOUS
 62
    4
 10
-64.598067145366343
 20
63.233333333333263
 40
0.3333333333333333
 50
90
 51
150.94539590092143
  0
LINE
  8
_1-4_フレ__ム
  6
CONTINUOUS
 62
    4
 10
-65.476728063769286
 20
62.338119022940447
 11
-64.889452904073494
 21
63.395214310392817
  0
LINE
  8
_1-4_フレ__ム
  6
CONTINUOUS
 62
    4
 10
-65.768113822476465
 20
62.166666666666657
 11
-84.833333253866542
 21
62.166666666666657
  0
ARC
  8
_1-4_フレ__ム
  6
CONTINUOUS
 62
    4
 10
-65.768113822476465
 20
62.5
 40
0.3333333333333333
 50
270
 51
330.94539590092143
  0
LINE
  8
_1-4_フレ__ム
  6
CONTINUOUS
 62
    4
 10
-64.86244038986851
 20
62.414273821863105
 11
-64.547625575053729
 21
62.980940488529711
  0
LINE
  8
_1-4_フレ__ム
  6
CENTER2
 62
    4
 10
-54.999999920532758
 20
63.833333333333314
 11
-54.999999920532758
 21
60
  0
LINE
  8
_1-4_フレ__ム
  6
DASHED1
 62
    4
 10
-52.499999920532758
 20
62.166666666666657
 11
-52.499999920532758
 21
61.666666666666657
  0
LINE
  8
_1-4_フレ__ム
  6
DASHED1
 62
    4
 10
-57.499999920532758
 20
62.166666666666657
 11
-57.499999920532758
 21
61.666666666666657
  0
ENDBLK
  0
BLOCK
  2
-009-_9_
 70
   64
 10
0
 20
0
 30
0
  0
LINE
  8
_1-8_小物
  6
CONTINUOUS
 62
    4
 10
-51.999999920532559
 20
62.666666666666657
 11
-57.999999920532872
 21
62.666666666666657
  0
LINE
  8
_1-8_小物
  6
CONTINUOUS
 62
    4
 10
-51.999999920532559
 20
62.166666666666657
 11
-57.999999920532872
 21
62.166666666666657
  0
LINE
  8
_1-8_小物
  6
CONTINUOUS
 62
    4
 10
-51.999999920532559
 20
62.666666666666657
 11
-51.999999920532559
 21
62.166666666666657
  0
LINE
  8
_1-8_小物
  6
CONTINUOUS
 62
    4
 10
-57.999999920532872
 20
62.666666666666657
 11
-57.999999920532872
 21
62.166666666666657
  0
LINE
  8
_1-8_小物
  6
CONTINUOUS
 62
    4
 10
-53.499999920532559
 20
62.666666666666657
 11
-53.536304181799409
 21
63.081626271666693
  0
LINE
  8
_1-8_小物
  6
CONTINUOUS
 62
    4
 10
-56.463695659299418
 20
63.081626271666693
 11
-56.499999920532559
 21
62.666666666666657
  0
ARC
  8
_1-8_小物
  6
CONTINUOUS
 62
    4
 10
-56.134951408899695
 20
63.052864876566588
 40
0.3299999999999999
 50
127.36755803205052
 51
175.00000000119871
  0
ARC
  8
_1-8_小物
  6
CONTINUOUS
 62
    4
 10
-53.865048432166049
 20
63.052864876566588
 40
0.3299999999999999
 50
4.999999998801286
 51
52.632441967949475
  0
ARC
  8
_1-8_小物
  6
CONTINUOUS
 62
    4
 10
-54.999999920532872
 20
61.566666666666634
 40
2.1999999999999997
 50
52.632441967704935
 51
68.266383543398163
  0
ARC
  8
_1-8_小物
  6
CONTINUOUS
 62
    4
 10
-54.999999920532872
 20
61.566666666666634
 40
2.1999999999999997
 50
111.74840859090331
 51
127.36755803230515
  0
LINE
  8
_1-8_小物
  6
CONTINUOUS
 62
    4
 10
-54.89499992053274
 20
63.753042376533386
 11
-54.89499992053274
 21
63.607770746533248
  0
LINE
  8
_1-8_小物
  6
CONTINUOUS
 62
    4
 10
-54.779237026565738
 20
63.753042376533386
 11
-54.89499992053274
 21
63.753042376533386
  0
LINE
  8
_1-8_小物
  6
CONTINUOUS
 62
    4
 10
-54.185832164366133
 20
63.607770746533248
 11
-54.779237026565738
 21
63.753042376533386
  0
LINE
  8
_1-8_小物
  6
CONTINUOUS
 62
    4
 10
-55.220762814532776
 20
63.753042376533386
 11
-55.654066237099528
 21
63.664563769400075
  0
LINE
  8
_1-8_小物
  6
CONTINUOUS
 62
    4
 10
-55.654066237099528
 20
63.664563769400075
 11
-55.814167676732382
 21
63.607770746533248
  0
LINE
  8
_1-8_小物
  6
CONTINUOUS
 62
    4
 10
-55.104999920532777
 20
63.753042376533386
 11
-55.220762814532776
 21
63.753042376533386
  0
LINE
  8
_1-8_小物
  6
CONTINUOUS
 62
    4
 10
-55.104999920532777
 20
63.607770746533248
 11
-55.104999920532777
 21
63.753042376533386
  0
LINE
  8
_1-8_小物
  6
CONTINUOUS
 62
    4
 10
-54.89499992053274
 20
63.607770746533248
 11
-54.999999920532872
 21
63.609472471333362
  0
LINE
  8
_1-8_小物
  6
CONTINUOUS
 62
    4
 10
-54.999999920532872
 20
63.609472471333362
 11
-55.104999920532777
 21
63.607770746533248
  0
LINE
  8
_1-8_小物
  6
CONTINUOUS
 62
    4
 10
-53.536304181799409
 20
63.081626271666693
 11
-56.463695659299418
 21
63.081626271666693
  0
LINE
  8
_1-8_小物
  6
CONTINUOUS
 62
    4
 10
-54.999999920532872
 20
63.315135148900055
 11
-56.335236965699522
 21
63.315135148900055
  0
LINE
  8
_1-8_小物
  6
CONTINUOUS
 62
    4
 10
-53.664762875399305
 20
63.315135148900055
 11
-54.999999920532872
 21
63.315135148900055
  0
ENDBLK
  0
BLOCK
  2
-010-_10_
 70
   64
 10
0
 20
0
 30
0
  0
LINE
  8
_1-8_小物
  6
CONTINUOUS
 62
    4
 10
-64.322493812507105
 20
69.664779314813813
 11
-62.322493812507105
 21
69.664779314813813
  0
LINE
  8
_1-8_小物
  6
CONTINUOUS
 62
    4
 10
-62.322493812507219
 20
69.664779314813813
 11
-62.322493812507219
 21
69.598112648147122
  0
LINE
  8
_1-8_小物
  6
CONTINUOUS
 62
    4
 10
-64.322493812506991
 20
69.598112648147122
 11
-63.822493812506991
 21
69.098112648147122
  0
LINE
  8
_1-8_小物
  6
CONTINUOUS
 62
    4
 10
-63.822493812506991
 20
69.098112648147122
 11
-62.822493812507219
 21
69.098112648147122
  0
LINE
  8
_1-8_小物
  6
CONTINUOUS
 62
    4
 10
-62.322493812507219
 20
69.598112648147122
 11
-62.822493812507219
 21
69.098112648147122
  0
LINE
  8
_1-8_小物
  6
CONTINUOUS
 62
    4
 10
-64.322493812506991
 20
69.598112648147122
 11
-64.322493812506991
 21
69.664779314813813
  0
LINE
  8
_1-8_小物
  6
CONTINUOUS
 62
    4
 10
-62.322493812507219
 20
69.598112648147122
 11
-64.322493812506991
 21
69.598112648147122
  0
LINE
  8
_1-8_小物
  6
CONTINUOUS
 62
    4
 10
-62.822493812507219
 20
66.033865969971458
 11
-62.634993812507105
 21
65.925612648147194
  0
LINE
  8
_1-8_小物
  6
CONTINUOUS
 62
    4
 10
-62.634993812507105
 20
65.925612648147194
 11
-62.822493812507162
 21
65.817359326322901
  0
LINE
  8
_1-8_小物
  6
CONTINUOUS
 62
    4
 10
-62.822493812507219
 20
66.033865969971458
 11
-63.822493812507048
 21
65.798865969971473
  0
LINE
  8
_1-8_小物
  6
CONTINUOUS
 62
    4
 10
-64.009993812507105
 20
65.690612648147209
 11
-63.822493812507048
 21
65.798865969971473
  0
LINE
  8
_1-8_小物
  6
CONTINUOUS
 62
    4
 10
-63.822493812507048
 20
65.582359326322944
 11
-64.009993812507105
 21
65.690612648147209
  0
LINE
  8
_1-8_小物
  6
CONTINUOUS
 62
    4
 10
-62.822493812507162
 20
65.817359326322901
 11
-63.822493812507048
 21
65.582359326322944
  0
LINE
  8
_1-8_小物
  6
CONTINUOUS
 62
    4
 10
-62.634993812507105
 20
65.925612648147194
 11
-64.009993812507105
 21
65.690612648147209
  0
LINE
  8
_1-8_小物
  6
CONTINUOUS
 62
    4
 10
-62.822493812507219
 20
66.503865969971457
 11
-62.634993812507105
 21
66.395612648147164
  0
LINE
  8
_1-8_小物
  6
CONTINUOUS
 62
    4
 10
-62.634993812507105
 20
66.395612648147164
 11
-62.822493812507162
 21
66.2873593263229
  0
LINE
  8
_1-8_小物
  6
CONTINUOUS
 62
    4
 10
-62.822493812507219
 20
66.503865969971457
 11
-63.822493812507048
 21
66.268865969971472
  0
LINE
  8
_1-8_小物
  6
CONTINUOUS
 62
    4
 10
-64.009993812507105
 20
66.160612648147207
 11
-63.822493812507048
 21
66.268865969971472
  0
LINE
  8
_1-8_小物
  6
CONTINUOUS
 62
    4
 10
-63.822493812507048
 20
66.052359326322915
 11
-64.009993812507105
 21
66.160612648147207
  0
LINE
  8
_1-8_小物
  6
CONTINUOUS
 62
    4
 10
-62.822493812507162
 20
66.2873593263229
 11
-63.822493812507048
 21
66.052359326322915
  0
LINE
  8
_1-8_小物
  6
CONTINUOUS
 62
    4
 10
-62.634993812507105
 20
66.395612648147164
 11
-64.009993812507105
 21
66.160612648147207
  0
LINE
  8
_1-8_小物
  6
CONTINUOUS
 62
    4
 10
-62.822493812507219
 20
66.973865969971428
 11
-62.634993812507105
 21
66.865612648147163
  0
LINE
  8
_1-8_小物
  6
CONTINUOUS
 62
    4
 10
-62.634993812507105
 20
66.865612648147163
 11
-62.822493812507162
 21
66.757359326322899
  0
LINE
  8
_1-8_小物
  6
CONTINUOUS
 62
    4
 10
-62.822493812507219
 20
66.973865969971428
 11
-63.822493812507048
 21
66.738865969971471
  0
LINE
  8
_1-8_小物
  6
CONTINUOUS
 62
    4
 10
-64.009993812507105
 20
66.630612648147178
 11
-63.822493812507048
 21
66.738865969971471
  0
LINE
  8
_1-8_小物
  6
CONTINUOUS
 62
    4
 10
-63.822493812507048
 20
66.522359326322913
 11
-64.009993812507105
 21
66.630612648147178
  0
LINE
  8
_1-8_小物
  6
CONTINUOUS
 62
    4
 10
-62.822493812507162
 20
66.757359326322899
 11
-63.822493812507048
 21
66.522359326322913
  0
LINE
  8
_1-8_小物
  6
CONTINUOUS
 62
    4
 10
-62.634993812507105
 20
66.865612648147163
 11
-64.009993812507105
 21
66.630612648147178
  0
LINE
  8
_1-8_小物
  6
CONTINUOUS
 62
    4
 10
-62.822493812507219
 20
67.443865969971426
 11
-62.634993812507105
 21
67.335612648147162
  0
LINE
  8
_1-8_小物
  6
CONTINUOUS
 62
    4
 10
-62.634993812507105
 20
67.335612648147162
 11
-62.822493812507162
 21
67.227359326322869
  0
LINE
  8
_1-8_小物
  6
CONTINUOUS
 62
    4
 10
-62.822493812507219
 20
67.443865969971426
 11
-63.822493812507048
 21
67.208865969971441
  0
LINE
  8
_1-8_小物
  6
CONTINUOUS
 62
    4
 10
-64.009993812507105
 20
67.100612648147177
 11
-63.822493812507048
 21
67.208865969971441
  0
LINE
  8
_1-8_小物
  6
CONTINUOUS
 62
    4
 10
-63.822493812507048
 20
66.992359326322912
 11
-64.009993812507105
 21
67.100612648147177
  0
LINE
  8
_1-8_小物
  6
CONTINUOUS
 62
    4
 10
-62.822493812507162
 20
67.227359326322869
 11
-63.822493812507048
 21
66.992359326322912
  0
LINE
  8
_1-8_小物
  6
CONTINUOUS
 62
    4
 10
-62.634993812507105
 20
67.335612648147162
 11
-64.009993812507105
 21
67.100612648147177
  0
LINE
  8
_1-8_小物
  6
CONTINUOUS
 62
    4
 10
-62.822493812507219
 20
67.913865969971425
 11
-62.634993812507105
 21
67.805612648147132
  0
LINE
  8
_1-8_小物
  6
CONTINUOUS
 62
    4
 10
-62.634993812507105
 20
67.805612648147132
 11
-62.822493812507162
 21
67.697359326322868
  0
LINE
  8
_1-8_小物
  6
CONTINUOUS
 62
    4
 10
-62.822493812507219
 20
67.913865969971425
 11
-63.822493812507048
 21
67.67886596997144
  0
LINE
  8
_1-8_小物
  6
CONTINUOUS
 62
    4
 10
-64.009993812507105
 20
67.570612648147176
 11
-63.822493812507048
 21
67.67886596997144
  0
LINE
  8
_1-8_小物
  6
CONTINUOUS
 62
    4
 10
-63.822493812507048
 20
67.462359326322883
 11
-64.009993812507105
 21
67.570612648147176
  0
LINE
  8
_1-8_小物
  6
CONTINUOUS
 62
    4
 10
-62.822493812507162
 20
67.697359326322868
 11
-63.822493812507048
 21
67.462359326322883
  0
LINE
  8
_1-8_小物
  6
CONTINUOUS
 62
    4
 10
-62.634993812507105
 20
67.805612648147132
 11
-64.009993812507105
 21
67.570612648147176
  0
LINE
  8
_1-8_小物
  6
CONTINUOUS
 62
    4
 10
-62.822493812507219
 20
68.383865969971396
 11
-62.634993812507105
 21
68.275612648147131
  0
LINE
  8
_1-8_小物
  6
CONTINUOUS
 62
    4
 10
-62.634993812507105
 20
68.275612648147131
 11
-62.822493812507162
 21
68.167359326322867
  0
LINE
  8
_1-8_小物
  6
CONTINUOUS
 62
    4
 10
-62.822493812507219
 20
68.383865969971396
 11
-63.822493812507048
 21
68.148865969971439
  0
LINE
  8
_1-8_小物
  6
CONTINUOUS
 62
    4
 10
-64.009993812507105
 20
68.040612648147146
 11
-63.822493812507048
 21
68.148865969971439
  0
LINE
  8
_1-8_小物
  6
CONTINUOUS
 62
    4
 10
-63.822493812507048
 20
67.932359326322882
 11
-64.009993812507105
 21
68.040612648147146
  0
LINE
  8
_1-8_小物
  6
CONTINUOUS
 62
    4
 10
-62.822493812507162
 20
68.167359326322867
 11
-63.822493812507048
 21
67.932359326322882
  0
LINE
  8
_1-8_小物
  6
CONTINUOUS
 62
    4
 10
-62.634993812507105
 20
68.275612648147131
 11
-64.009993812507105
 21
68.040612648147146
  0
LINE
  8
_1-8_小物
  6
CONTINUOUS
 62
    4
 10
-62.822493812507219
 20
68.853865969971395
 11
-62.634993812507105
 21
68.74561264814713
  0
LINE
  8
_1-8_小物
  6
CONTINUOUS
 62
    4
 10
-62.634993812507105
 20
68.74561264814713
 11
-62.822493812507162
 21
68.637359326322837
  0
LINE
  8
_1-8_小物
  6
CONTINUOUS
 62
    4
 10
-62.822493812507219
 20
68.853865969971395
 11
-63.822493812507048
 21
68.618865969971409
  0
LINE
  8
_1-8_小物
  6
CONTINUOUS
 62
    4
 10
-64.009993812507105
 20
68.510612648147145
 11
-63.822493812507048
 21
68.618865969971409
  0
LINE
  8
_1-8_小物
  6
CONTINUOUS
 62
    4
 10
-63.822493812507048
 20
68.40235932632288
 11
-64.009993812507105
 21
68.510612648147145
  0
LINE
  8
_1-8_小物
  6
CONTINUOUS
 62
    4
 10
-62.822493812507162
 20
68.637359326322837
 11
-63.822493812507048
 21
68.40235932632288
  0
LINE
  8
_1-8_小物
  6
CONTINUOUS
 62
    4
 10
-62.634993812507105
 20
68.74561264814713
 11
-64.009993812507105
 21
68.510612648147145
  0
LINE
  8
_1-8_小物
  6
CONTINUOUS
 62
    4
 10
-63.822493812506991
 20
65.582359326322944
 11
-63.822493812506991
 21
65.328865969971503
  0
LINE
  8
_1-8_小物
  6
CONTINUOUS
 62
    4
 10
-63.822493812506991
 20
66.052359326322915
 11
-63.822493812506991
 21
65.798865969971473
  0
LINE
  8
_1-8_小物
  6
CONTINUOUS
 62
    4
 10
-63.822493812506991
 20
66.522359326322913
 11
-63.822493812506991
 21
66.2688659699715
  0
LINE
  8
_1-8_小物
  6
CONTINUOUS
 62
    4
 10
-63.822493812506991
 20
66.992359326322912
 11
-63.822493812506991
 21
66.738865969971471
  0
LINE
  8
_1-8_小物
  6
CONTINUOUS
 62
    4
 10
-63.822493812506991
 20
67.462359326322883
 11
-63.822493812506991
 21
67.208865969971441
  0
LINE
  8
_1-8_小物
  6
CONTINUOUS
 62
    4
 10
-63.822493812506991
 20
67.932359326322882
 11
-63.822493812506991
 21
67.67886596997144
  0
LINE
  8
_1-8_小物
  6
CONTINUOUS
 62
    4
 10
-63.822493812506991
 20
69.098112648147122
 11
-63.822493812506991
 21
68.618865969971409
  0
LINE
  8
_1-8_小物
  6
CONTINUOUS
 62
    4
 10
-63.822493812506991
 20
68.40235932632288
 11
-63.822493812506991
 21
68.148865969971467
  0
LINE
  8
_1-8_小物
  6
CONTINUOUS
 62
    4
 10
-62.822493812507219
 20
69.098112648147122
 11
-62.822493812507219
 21
68.853865969971395
  0
LINE
  8
_1-8_小物
  6
CONTINUOUS
 62
    4
 10
-62.822493812507219
 20
68.637359326322809
 11
-62.822493812507219
 21
68.383865969971396
  0
LINE
  8
_1-8_小物
  6
CONTINUOUS
 62
    4
 10
-62.822493812507219
 20
68.167359326322867
 11
-62.822493812507219
 21
67.913865969971425
  0
LINE
  8
_1-8_小物
  6
CONTINUOUS
 62
    4
 10
-62.822493812507219
 20
67.697359326322839
 11
-62.822493812507219
 21
67.443865969971426
  0
LINE
  8
_1-8_小物
  6
CONTINUOUS
 62
    4
 10
-62.822493812507219
 20
67.227359326322869
 11
-62.822493812507219
 21
66.973865969971428
  0
LINE
  8
_1-8_小物
  6
CONTINUOUS
 62
    4
 10
-62.822493812507219
 20
66.757359326322899
 11
-62.822493812507219
 21
66.503865969971457
  0
LINE
  8
_1-8_小物
  6
CONTINUOUS
 62
    4
 10
-62.822493812507219
 20
66.287359326322871
 11
-62.822493812507219
 21
66.033865969971458
  0
LINE
  8
_1-8_小物
  6
CONTINUOUS
 62
    4
 10
-62.755827145840556
 20
65.32477931481381
 11
-62.755827145840556
 21
64.32811264814714
  0
LINE
  8
_1-8_小物
  6
CONTINUOUS
 62
    4
 10
-63.889160479173654
 20
65.32477931481381
 11
-62.755827145840556
 21
65.32477931481381
  0
LINE
  8
_1-8_小物
  6
CONTINUOUS
 62
    4
 10
-63.889160479173654
 20
65.32477931481381
 11
-63.889160479173654
 21
64.32811264814714
  0
LINE
  8
_1-8_小物
  6
CONTINUOUS
 62
    4
 10
-63.889160479173654
 20
64.32811264814714
 11
-63.322493812507105
 21
64.000947495606425
  0
LINE
  8
_1-8_小物
  6
CONTINUOUS
 62
    4
 10
-62.755827145840556
 20
64.32811264814714
 11
-63.322493812507105
 21
64.000947495606425
  0
LINE
  8
_1-8_小物
  6
CONTINUOUS
 62
    4
 10
-63.322493812507105
 20
64.11641754944435
 11
-62.855827145840465
 21
64.385847675066117
  0
LINE
  8
_1-8_小物
  6
CONTINUOUS
 62
    4
 10
-62.855827145840465
 20
65.32477931481381
 11
-62.855827145840465
 21
64.385847675066117
  0
LINE
  8
_1-8_小物
  6
CONTINUOUS
 62
    4
 10
-63.322493812507105
 20
64.11641754944435
 11
-63.109427030815993
 21
65.32477931481381
  0
LINE
  8
_1-8_小物
  6
CONTINUOUS
 62
    4
 10
-62.822493812507219
 20
65.817359326322872
 11
-62.822493812507219
 21
65.32477931481381
  0
LINE
  8
_1-8_小物
  6
CONTINUOUS
 62
    4
 10
-63.322493812507105
 20
64.000947495606425
 11
-63.322493812507105
 21
64.11641754944435
  0
LINE
  8
_1-8_小物
  6
CENTER2
 62
    4
 10
-63.322493812507105
 20
69.998112648147128
 11
-63.322493812507105
 21
63.667614162273082
  0
ENDBLK
  0
BLOCK
  2
-011-_11_
 70
   64
 10
0
 20
0
 30
0
  0
LINE
  8
_1-5_ア__ム
  6
CONTINUOUS
 62
    4
 10
-148.32249381251341
 20
68.899999981366761
 11
-148.32249381251341
 21
65.233333426467027
  0
ARC
  8
_1-5_ア__ム
  6
CONTINUOUS
 62
    4
 10
-146.6558271458467
 20
65.233333426467027
 40
1.6666666666666665
 50
180
 51
270
  0
LINE
  8
_1-5_ア__ム
  6
CONTINUOUS
 62
    4
 10
-51.655827145846843
 20
68.900000000000148
 11
-51.655827145846843
 21
65.233333426467027
  0
ARC
  8
_1-5_ア__ム
  6
CONTINUOUS
 62
    4
 10
-53.322493812513471
 20
65.233333426467027
 40
1.6666666666666665
 50
270
 51
0
  0
LINE
  8
_1-5_ア__ム
  6
CONTINUOUS
 62
    4
 10
-148.32249381251341
 20
68.900000000000148
 11
-51.655827145846843
 21
68.900000000000148
  0
LINE
  8
_1-5_ア__ム
  6
DASHED1
 62
    4
 10
-148.32249381251341
 20
67.966666681300296
 11
-51.655827145846843
 21
67.966666681300296
  0
LINE
  8
_1-5_ア__ム
  6
CONTINUOUS
 62
    4
 10
-146.6558271458467
 20
63.566666759800285
 11
-53.322493812513471
 21
63.566666759800285
  0
LINE
  8
_1-5_ア__ム
  6
DASHED1
 62
    4
 10
-148.32249381251341
 20
67.233333347966948
 11
-51.655827145846843
 21
67.233333347966948
  0
LINE
  8
_1-5_ア__ム
  6
DASHED1
 62
    4
 10
-129.98916047918027
 20
67.966666681300239
 11
-129.98916047918027
 21
67.233333347966948
  0
LINE
  8
_1-5_ア__ム
  6
DASHED1
 62
    4
 10
-127.98916047917992
 20
67.966666681300239
 11
-127.98916047917992
 21
67.233333347966948
  0
LINE
  8
_1-5_ア__ム
  6
DASHED1
 62
    4
 10
-144.32249381251341
 20
67.966666681300239
 11
-144.32249381251341
 21
67.233333347966948
  0
LINE
  8
_1-5_ア__ム
  6
DASHED1
 62
    4
 10
-138.98916047917982
 20
67.966666681300239
 11
-138.98916047917982
 21
67.233333347967061
  0
ENDBLK
  0
BLOCK
  2
-012-_12_
 70
   64
 10
0
 20
0
 30
0
  0
LINE
  8
_1-7_カバ__
  6
CONTINUOUS
 62
    4
 10
-136.65582714585315
 20
69.595955988548155
 11
-136.58511646773451
 21
69.666666666666799
  0
LINE
  8
_1-7_カバ__
  6
CONTINUOUS
 62
    4
 10
-136.65582714585315
 20
69.595955988548155
 11
-136.7265378239718
 21
69.666666666666799
  0
LINE
  8
_1-7_カバ__
  6
CONTINUOUS
 62
    4
 10
-63.322493812507105
 20
69.595955988548155
 11
-63.251783134388432
 21
69.666666666666799
  0
LINE
  8
_1-7_カバ__
  6
CONTINUOUS
 62
    4
 10
-63.322493812507105
 20
69.595955988548155
 11
-63.393204490625777
 21
69.666666666666799
  0
LINE
  8
_1-7_カバ__
  6
CONTINUOUS
 62
    4
 10
-63.251783134388432
 20
69.666666666666799
 11
-46.655827145268688
 21
69.666666666666799
  0
LINE
  8
_1-7_カバ__
  6
CONTINUOUS
 62
    4
 10
-153.32249381251978
 20
69.666666666666799
 11
-136.7265378239718
 21
69.666666666666799
  0
LINE
  8
_1-7_カバ__
  6
CONTINUOUS
 62
    4
 10
-136.58511646773451
 20
69.666666666666799
 11
-63.393204490625777
 21
69.666666666666799
  0
LINE
  8
_1-7_カバ__
  6
CENTER2
 62
    4
 10
-99.989161561248466
 20
71.333333333333485
 11
-99.989161561248466
 21
67.233333333333462
  0
LINE
  8
_1-7_カバ__
  6
CENTER2
 62
    4
 10
-136.65582822792152
 20
71.333333333333485
 11
-136.65582822792152
 21
67.233333333333462
  0
LINE
  8
_1-7_カバ__
  6
CENTER2
 62
    4
 10
-63.32249489457547
 20
71.333333333333485
 11
-63.32249489457547
 21
67.233333333333462
  0
LINE
  8
_1-7_カバ__
  6
CONTINUOUS
 62
    4
 10
-153.32249489458815
 20
65.000000000000171
 11
-153.32249489458815
 21
69.666666666666799
  0
LINE
  8
_1-7_カバ__
  6
CONTINUOUS
 62
    4
 10
-149.98916156125495
 20
65.000000000000171
 11
-149.98916156125495
 21
65.666666666666799
  0
LINE
  8
_1-7_カバ__
  6
CONTINUOUS
 62
    4
 10
-153.32249489458815
 20
65.000000000000171
 11
-149.98916156125495
 21
65.000000000000171
  0
LINE
  8
_1-7_カバ__
  6
CONTINUOUS
 62
    4
 10
-152.4891615612548
 20
65.666666666666799
 11
-149.98916156125495
 21
65.666666666666799
  0
LINE
  8
_1-7_カバ__
  6
CONTINUOUS
 62
    4
 10
-152.4891615612548
 20
65.666666666666799
 11
-152.4891615612548
 21
68.900000000000148
  0
LINE
  8
_1-7_カバ__
  6
CONTINUOUS
 62
    4
 10
-46.655826063772082
 20
65.000000000000171
 11
-46.655826063772082
 21
69.666666666666799
  0
LINE
  8
_1-7_カバ__
  6
CONTINUOUS
 62
    4
 10
-49.989159397105254
 20
65.000000000000171
 11
-49.989159397105254
 21
65.666666666666799
  0
LINE
  8
_1-7_カバ__
  6
CONTINUOUS
 62
    4
 10
-46.655826063772082
 20
65.000000000000171
 11
-49.989159397105254
 21
65.000000000000171
  0
LINE
  8
_1-7_カバ__
  6
CONTINUOUS
 62
    4
 10
-47.489159397105425
 20
65.666666666666799
 11
-49.989159397105254
 21
65.666666666666799
  0
LINE
  8
_1-7_カバ__
  6
CONTINUOUS
 62
    4
 10
-152.4891615612548
 20
68.900000000000148
 11
-47.489159397105425
 21
68.900000000000148
  0
LINE
  8
_1-7_カバ__
  6
CONTINUOUS
 62
    4
 10
-47.489159397105425
 20
65.666666666666799
 11
-47.489159397105425
 21
68.900000000000148
  0
LINE
  8
_1-7_カバ__
  6
DASHED1
 62
    4
 10
-62.572493812507076
 20
69.333333333333542
 11
-62.239160479173819
 21
69.666666666666799
  0
LINE
  8
_1-7_カバ__
  6
DASHED1
 62
    4
 10
-64.072493812507076
 20
69.333333333333542
 11
-64.405827145840334
 21
69.666666666666799
  0
LINE
  8
_1-7_カバ__
  6
DASHED1
 62
    4
 10
-64.072493812507076
 20
69.333333333333542
 11
-62.572493812507076
 21
69.333333333333542
  0
LINE
  8
_1-7_カバ__
  6
DASHED1
 62
    4
 10
-62.572493812507076
 20
69.333333333333542
 11
-62.572493812507076
 21
68.900000000000148
  0
LINE
  8
_1-7_カバ__
  6
DASHED1
 62
    4
 10
-64.072493812507076
 20
69.333333333333542
 11
-64.072493812507076
 21
68.900000000000148
  0
LINE
  8
_1-7_カバ__
  6
DASHED1
 62
    4
 10
-135.9058271458531
 20
69.333333333333542
 11
-135.57249381251984
 21
69.666666666666799
  0
LINE
  8
_1-7_カバ__
  6
DASHED1
 62
    4
 10
-137.4058271458531
 20
69.333333333333542
 11
-137.73916047918635
 21
69.666666666666799
  0
LINE
  8
_1-7_カバ__
  6
DASHED1
 62
    4
 10
-137.4058271458531
 20
69.333333333333542
 11
-135.9058271458531
 21
69.333333333333542
  0
LINE
  8
_1-7_カバ__
  6
DASHED1
 62
    4
 10
-135.9058271458531
 20
69.333333333333542
 11
-135.9058271458531
 21
68.900000000000148
  0
LINE
  8
_1-7_カバ__
  6
DASHED1
 62
    4
 10
-137.4058271458531
 20
69.333333333333542
 11
-137.4058271458531
 21
68.900000000000148
  0
ENDBLK
  0
BLOCK
  2
-013-_13_
 70
   64
 10
0
 20
0
 30
0
  0
ARC
  8
_1-7_カバ__
  6
CONTINUOUS
 62
    4
 10
-49.989159397105254
 20
65.100000000000193
 40
0.0999999999999999
 50
180
 51
270
  0
ARC
  8
_1-7_カバ__
  6
CONTINUOUS
 62
    4
 10
-47.322492730438597
 20
64.333333333333513
 40
0.1666666666666666
 50
0
 51
90
  0
ARC
  8
_1-7_カバ__
  6
CONTINUOUS
 62
    4
 10
-47.322492730438597
 20
64.333333333333513
 40
0.6666666666666666
 50
0
 51
90
  0
ARC
  8
_1-7_カバ__
  6
CONTINUOUS
 62
    4
 10
-49.922492730438591
 20
65.000000000000171
 40
0.5
 50
180
 51
270
  0
ARC
  8
_1-7_カバ__
  6
CONTINUOUS
 62
    4
 10
-47.963903211357291
 20
65.733331781236814
 40
0.3333333333333333
 50
262.77709821968227
 51
352.77709821968284
  0
LINE
  8
_1-7_カバ__
  6
CONTINUOUS
 62
    4
 10
-50.089159397105277
 20
65.553204070036202
 11
-50.089159397105277
 21
65.100000000000193
  0
LINE
  8
_1-7_カバ__
  6
CONTINUOUS
 62
    4
 10
-47.322492730438597
 20
65.000000000000171
 11
-49.989159397105254
 21
65.000000000000171
  0
LINE
  8
_1-7_カバ__
  6
CONTINUOUS
 62
    4
 10
-48.005813139080061
 20
65.402643606260199
 11
-49.976586418788429
 21
65.652410522529209
  0
ARC
  8
_1-7_カバ__
  6
CONTINUOUS
 62
    4
 10
-49.989159397105254
 20
65.553204070036202
 40
0.0999999999999999
 50
82.777098219687119
 51
180
  0
LINE
  8
_1-7_カバ__
  6
CONTINUOUS
 62
    4
 10
-50.422492730438591
 20
65.733877444075233
 11
-50.422492730438591
 21
65.000000000000171
  0
ARC
  8
_1-7_カバ__
  6
CONTINUOUS
 62
    4
 10
-50.089159397105277
 20
65.733877444075233
 40
0.3333333333333333
 50
82.777098219682259
 51
180
  0
LINE
  8
_1-7_カバ__
  6
CONTINUOUS
 62
    4
 10
-48.187002948296367
 20
65.828806365638115
 11
-50.047249469382507
 21
66.064565619051848
  0
ARC
  8
_1-7_カバ__
  6
CONTINUOUS
 62
    4
 10
-48.166047984434982
 20
65.994150453126423
 40
0.1666666666666666
 50
262.77709821968227
 51
352.77709821968227
  0
ARC
  8
_1-7_カバ__
  6
CONTINUOUS
 62
    4
 10
-47.793909006497813
 20
66.014187167814441
 40
0.1999999998953772
 50
352.77709820255006
 51
172.77709820255916
  0
LINE
  8
_1-7_カバ__
  6
CONTINUOUS
 62
    4
 10
-48.000703896946675
 20
65.973195489265038
 11
-47.992321911372471
 21
66.039333124494249
  0
LINE
  8
_1-7_カバ__
  6
CONTINUOUS
 62
    4
 10
-47.633215036380648
 20
65.691421853514072
 11
-47.595496101415534
 21
65.989041211108315
  0
LINE
  8
_1-7_カバ__
  6
CONTINUOUS
 62
    4
 10
-49.422492730438591
 20
64.333333333333513
 11
-49.589159397105277
 21
64.500000000000171
  0
LINE
  8
_1-7_カバ__
  6
CONTINUOUS
 62
    4
 10
-49.422492730438591
 20
64.333333333333513
 11
-49.255826063771934
 21
64.500000000000171
  0
LINE
  8
_1-7_カバ__
  6
CONTINUOUS
 62
    4
 10
-48.755826063771934
 20
64.333333333333513
 11
-48.922492730438591
 21
64.500000000000171
  0
LINE
  8
_1-7_カバ__
  6
CONTINUOUS
 62
    4
 10
-48.755826063771934
 20
64.333333333333513
 11
-48.589159397105277
 21
64.500000000000171
  0
LINE
  8
_1-7_カバ__
  6
CONTINUOUS
 62
    4
 10
-47.322492730438597
 20
64.500000000000171
 11
-48.589159397105277
 21
64.500000000000171
  0
LINE
  8
_1-7_カバ__
  6
CONTINUOUS
 62
    4
 10
-48.922492730438591
 20
64.500000000000171
 11
-49.255826063771934
 21
64.500000000000171
  0
LINE
  8
_1-7_カバ__
  6
CONTINUOUS
 62
    4
 10
-49.589159397105277
 20
64.500000000000171
 11
-49.922492730438591
 21
64.500000000000171
  0
ARC
  8
_1-7_カバ__
  6
CONTINUOUS
 62
    4
 10
-47.567848539583281
 20
60.874662926789711
 40
0.4999999999999946
 50
190.63980919808779
 51
350.63980919808483
  0
LINE
  8
_1-7_カバ__
  6
CONTINUOUS
 62
    4
 10
-47.15582606377194
 20
63.374265946711887
 11
-47.537102545157722
 21
61.061188626304784
  0
ARC
  8
_1-7_カバ__
  6
CONTINUOUS
 62
    4
 10
-47.569992058577725
 20
61.066609974670712
 40
0.0333333333333333
 50
190.63980919806679
 51
350.63980919809728
  0
ARC
  8
_1-7_カバ__
  6
CONTINUOUS
 62
    4
 10
-48.044343179123871
 20
62.057013491761438
 40
0.25
 50
10.639809198087802
 51
190.63980919807378
  0
LINE
  8
_1-7_カバ__
  6
CONTINUOUS
 62
    4
 10
-48.290045004677694
 20
62.010854928964136
 11
-48.059252190690927
 21
60.782345801194992
  0
LINE
  8
_1-7_カバ__
  6
CONTINUOUS
 62
    4
 10
-46.65582606377194
 20
63.333333333333513
 11
-47.074505838282846
 21
60.793342701300617
  0
LINE
  8
_1-7_カバ__
  6
CONTINUOUS
 62
    4
 10
-47.798641353570048
 20
62.103172054558854
 11
-47.602752301984907
 21
61.060455499631075
  0
LINE
  8
_1-7_カバ__
  6
CONTINUOUS
 62
    4
 10
-47.15582606377194
 20
64.333333333333513
 11
-47.15582606377194
 21
63.374265946711887
  0
LINE
  8
_1-7_カバ__
  6
CONTINUOUS
 62
    4
 10
-46.65582606377194
 20
64.333333333333513
 11
-46.65582606377194
 21
63.333333333333513
  0
ENDBLK
  0
BLOCK
  2
-014-_14_
 70
   64
 10
0
 20
0
 30
0
  0
ARC
  8
_1-7_カバ__
  6
CONTINUOUS
 62
    4
 10
-150.01084060289446
 20
65.100000000000193
 40
0.0999999999999999
 50
270
 51
0
  0
ARC
  8
_1-7_カバ__
  6
CONTINUOUS
 62
    4
 10
-152.67750726956112
 20
64.333333333333513
 40
0.1666666666666666
 50
90
 51
180
  0
ARC
  8
_1-7_カバ__
  6
CONTINUOUS
 62
    4
 10
-152.67750726956112
 20
64.333333333333513
 40
0.6666666666666666
 50
90
 51
180
  0
ARC
  8
_1-7_カバ__
  6
CONTINUOUS
 62
    4
 10
-150.0775072695611
 20
65.000000000000171
 40
0.5
 50
270
 51
0
  0
ARC
  8
_1-7_カバ__
  6
CONTINUOUS
 62
    4
 10
-152.03609678864242
 20
65.733331781236814
 40
0.3333333333333333
 50
187.22290178031713
 51
277.22290178032256
  0
LINE
  8
_1-7_カバ__
  6
CONTINUOUS
 62
    4
 10
-149.91084060289444
 20
65.553204070036202
 11
-149.91084060289444
 21
65.100000000000193
  0
LINE
  8
_1-7_カバ__
  6
CONTINUOUS
 62
    4
 10
-152.67750726956112
 20
65.000000000000171
 11
-150.01084060289446
 21
65.000000000000171
  0
LINE
  8
_1-7_カバ__
  6
CONTINUOUS
 62
    4
 10
-151.99418686091963
 20
65.402643606260199
 11
-150.02341358121129
 21
65.652410522529209
  0
ARC
  8
_1-7_カバ__
  6
CONTINUOUS
 62
    4
 10
-150.01084060289446
 20
65.553204070036202
 40
0.0999999999999999
 50
0
 51
97.222901780312881
  0
LINE
  8
_1-7_カバ__
  6
CONTINUOUS
 62
    4
 10
-149.5775072695611
 20
65.733877444075233
 11
-149.5775072695611
 21
65.000000000000171
  0
ARC
  8
_1-7_カバ__
  6
CONTINUOUS
 62
    4
 10
-149.91084060289444
 20
65.733877444075233
 40
0.3333333333333333
 50
0
 51
97.22290178031291
  0
LINE
  8
_1-7_カバ__
  6
CONTINUOUS
 62
    4
 10
-151.81299705170335
 20
65.828806365638115
 11
-149.95275053061718
 21
66.064565619051848
  0
ARC
  8
_1-7_カバ__
  6
CONTINUOUS
 62
    4
 10
-151.83395201556471
 20
65.994150453126423
 40
0.1666666666666666
 50
187.22290178031653
 51
277.22290178030801
  0
ARC
  8
_1-7_カバ__
  6
CONTINUOUS
 62
    4
 10
-152.20609099350187
 20
66.014187167814441
 40
0.1999999998953772
 50
7.2229017974408301
 51
187.22290179744891
  0
LINE
  8
_1-7_カバ__
  6
CONTINUOUS
 62
    4
 10
-151.99929610305304
 20
65.973195489265038
 11
-152.00767808862722
 21
66.039333124494249
  0
LINE
  8
_1-7_カバ__
  6
CONTINUOUS
 62
    4
 10
-152.36678496361907
 20
65.691421853514072
 11
-152.40450389858415
 21
65.989041211108315
  0
LINE
  8
_1-7_カバ__
  6
CONTINUOUS
 62
    4
 10
-150.5775072695611
 20
64.333333333333513
 11
-150.41084060289444
 21
64.500000000000171
  0
LINE
  8
_1-7_カバ__
  6
CONTINUOUS
 62
    4
 10
-150.5775072695611
 20
64.333333333333513
 11
-150.74417393622775
 21
64.500000000000171
  0
LINE
  8
_1-7_カバ__
  6
CONTINUOUS
 62
    4
 10
-151.24417393622775
 20
64.333333333333513
 11
-151.0775072695611
 21
64.500000000000171
  0
LINE
  8
_1-7_カバ__
  6
CONTINUOUS
 62
    4
 10
-151.24417393622775
 20
64.333333333333513
 11
-151.41084060289444
 21
64.500000000000171
  0
LINE
  8
_1-7_カバ__
  6
CONTINUOUS
 62
    4
 10
-152.67750726956112
 20
64.500000000000171
 11
-151.41084060289444
 21
64.500000000000171
  0
LINE
  8
_1-7_カバ__
  6
CONTINUOUS
 62
    4
 10
-151.0775072695611
 20
64.500000000000171
 11
-150.74417393622775
 21
64.500000000000171
  0
LINE
  8
_1-7_カバ__
  6
CONTINUOUS
 62
    4
 10
-150.41084060289444
 20
64.500000000000171
 11
-150.0775072695611
 21
64.500000000000171
  0
ARC
  8
_1-7_カバ__
  6
CONTINUOUS
 62
    4
 10
-152.43215146041641
 20
60.874662926789711
 40
0.4999999999999946
 50
189.36019080191514
 51
349.36019080191221
  0
LINE
  8
_1-7_カバ__
  6
CONTINUOUS
 62
    4
 10
-152.84417393622775
 20
63.374265946711887
 11
-152.46289745484199
 21
61.061188626304784
  0
ARC
  8
_1-7_カバ__
  6
CONTINUOUS
 62
    4
 10
-152.43000794142196
 20
61.066609974670712
 40
0.0333333333333333
 50
189.36019080189476
 51
349.36019080193319
  0
ARC
  8
_1-7_カバ__
  6
CONTINUOUS
 62
    4
 10
-151.95565682087584
 20
62.057013491761438
 40
0.25
 50
349.36019080192619
 51
169.36019080191102
  0
LINE
  8
_1-7_カバ__
  6
CONTINUOUS
 62
    4
 10
-151.70995499532202
 20
62.010854928964136
 11
-151.94074780930879
 21
60.782345801194992
  0
LINE
  8
_1-7_カバ__
  6
CONTINUOUS
 62
    4
 10
-153.34417393622775
 20
63.333333333333513
 11
-152.92549416171684
 21
60.793342701300617
  0
LINE
  8
_1-7_カバ__
  6
CONTINUOUS
 62
    4
 10
-152.20135864642964
 20
62.103172054558854
 11
-152.39724769801478
 21
61.060455499631075
  0
LINE
  8
_1-7_カバ__
  6
CONTINUOUS
 62
    4
 10
-152.84417393622775
 20
64.333333333333513
 11
-152.84417393622775
 21
63.374265946711887
  0
LINE
  8
_1-7_カバ__
  6
CONTINUOUS
 62
    4
 10
-153.34417393622775
 20
64.333333333333513
 11
-153.34417393622775
 21
63.333333333333513
  0
ENDBLK
  0
BLOCK
  2
-015-_15_
 70
   64
 10
0
 20
0
 30
0
  0
LINE
  8
_1-8_小物
  6
CONTINUOUS
 62
    4
 10
-137.65582714585315
 20
69.666666666666799
 11
-135.65582714585315
 21
69.666666666666799
  0
LINE
  8
_1-8_小物
  6
CONTINUOUS
 62
    4
 10
-135.65582714585327
 20
69.666666666666799
 11
-135.65582714585327
 21
69.600000000000136
  0
LINE
  8
_1-8_小物
  6
CONTINUOUS
 62
    4
 10
-137.65582714585304
 20
69.600000000000136
 11
-137.15582714585304
 21
69.100000000000136
  0
LINE
  8
_1-8_小物
  6
CONTINUOUS
 62
    4
 10
-137.15582714585304
 20
69.100000000000136
 11
-136.15582714585327
 21
69.100000000000136
  0
LINE
  8
_1-8_小物
  6
CONTINUOUS
 62
    4
 10
-135.65582714585327
 20
69.600000000000136
 11
-136.15582714585327
 21
69.100000000000136
  0
LINE
  8
_1-8_小物
  6
CONTINUOUS
 62
    4
 10
-137.65582714585304
 20
69.600000000000136
 11
-137.65582714585304
 21
69.666666666666799
  0
LINE
  8
_1-8_小物
  6
CONTINUOUS
 62
    4
 10
-135.65582714585327
 20
69.600000000000136
 11
-137.65582714585304
 21
69.600000000000136
  0
LINE
  8
_1-8_小物
  6
CONTINUOUS
 62
    4
 10
-136.15582714585327
 20
66.035753321824473
 11
-135.96832714585315
 21
65.92750000000018
  0
LINE
  8
_1-8_小物
  6
CONTINUOUS
 62
    4
 10
-135.96832714585315
 20
65.92750000000018
 11
-136.15582714585318
 21
65.819246678175915
  0
LINE
  8
_1-8_小物
  6
CONTINUOUS
 62
    4
 10
-136.15582714585327
 20
66.035753321824473
 11
-137.15582714585307
 21
65.800753321824487
  0
LINE
  8
_1-8_小物
  6
CONTINUOUS
 62
    4
 10
-137.34332714585315
 20
65.692500000000223
 11
-137.15582714585307
 21
65.800753321824487
  0
LINE
  8
_1-8_小物
  6
CONTINUOUS
 62
    4
 10
-137.15582714585307
 20
65.58424667817593
 11
-137.34332714585315
 21
65.692500000000223
  0
LINE
  8
_1-8_小物
  6
CONTINUOUS
 62
    4
 10
-136.15582714585318
 20
65.819246678175915
 11
-137.15582714585307
 21
65.58424667817593
  0
LINE
  8
_1-8_小物
  6
CONTINUOUS
 62
    4
 10
-135.96832714585315
 20
65.92750000000018
 11
-137.34332714585315
 21
65.692500000000223
  0
LINE
  8
_1-8_小物
  6
CONTINUOUS
 62
    4
 10
-136.15582714585327
 20
66.505753321824443
 11
-135.96832714585315
 21
66.397500000000178
  0
LINE
  8
_1-8_小物
  6
CONTINUOUS
 62
    4
 10
-135.96832714585315
 20
66.397500000000178
 11
-136.15582714585318
 21
66.289246678175914
  0
LINE
  8
_1-8_小物
  6
CONTINUOUS
 62
    4
 10
-136.15582714585327
 20
66.505753321824443
 11
-137.15582714585307
 21
66.270753321824486
  0
LINE
  8
_1-8_小物
  6
CONTINUOUS
 62
    4
 10
-137.34332714585315
 20
66.162500000000193
 11
-137.15582714585307
 21
66.270753321824486
  0
LINE
  8
_1-8_小物
  6
CONTINUOUS
 62
    4
 10
-137.15582714585307
 20
66.054246678175929
 11
-137.34332714585315
 21
66.162500000000193
  0
LINE
  8
_1-8_小物
  6
CONTINUOUS
 62
    4
 10
-136.15582714585318
 20
66.289246678175914
 11
-137.15582714585307
 21
66.054246678175929
  0
LINE
  8
_1-8_小物
  6
CONTINUOUS
 62
    4
 10
-135.96832714585315
 20
66.397500000000178
 11
-137.34332714585315
 21
66.162500000000193
  0
LINE
  8
_1-8_小物
  6
CONTINUOUS
 62
    4
 10
-136.15582714585327
 20
66.975753321824442
 11
-135.96832714585315
 21
66.867500000000177
  0
LINE
  8
_1-8_小物
  6
CONTINUOUS
 62
    4
 10
-135.96832714585315
 20
66.867500000000177
 11
-136.15582714585318
 21
66.759246678175884
  0
LINE
  8
_1-8_小物
  6
CONTINUOUS
 62
    4
 10
-136.15582714585327
 20
66.975753321824442
 11
-137.15582714585307
 21
66.740753321824457
  0
LINE
  8
_1-8_小物
  6
CONTINUOUS
 62
    4
 10
-137.34332714585315
 20
66.632500000000192
 11
-137.15582714585307
 21
66.740753321824457
  0
LINE
  8
_1-8_小物
  6
CONTINUOUS
 62
    4
 10
-137.15582714585307
 20
66.524246678175928
 11
-137.34332714585315
 21
66.632500000000192
  0
LINE
  8
_1-8_小物
  6
CONTINUOUS
 62
    4
 10
-136.15582714585318
 20
66.759246678175884
 11
-137.15582714585307
 21
66.524246678175928
  0
LINE
  8
_1-8_小物
  6
CONTINUOUS
 62
    4
 10
-135.96832714585315
 20
66.867500000000177
 11
-137.34332714585315
 21
66.632500000000192
  0
LINE
  8
_1-8_小物
  6
CONTINUOUS
 62
    4
 10
-136.15582714585327
 20
67.445753321824441
 11
-135.96832714585315
 21
67.337500000000148
  0
LINE
  8
_1-8_小物
  6
CONTINUOUS
 62
    4
 10
-135.96832714585315
 20
67.337500000000148
 11
-136.15582714585318
 21
67.229246678175883
  0
LINE
  8
_1-8_小物
  6
CONTINUOUS
 62
    4
 10
-136.15582714585327
 20
67.445753321824441
 11
-137.15582714585307
 21
67.210753321824455
  0
LINE
  8
_1-8_小物
  6
CONTINUOUS
 62
    4
 10
-137.34332714585315
 20
67.102500000000191
 11
-137.15582714585307
 21
67.210753321824455
  0
LINE
  8
_1-8_小物
  6
CONTINUOUS
 62
    4
 10
-137.15582714585307
 20
66.994246678175898
 11
-137.34332714585315
 21
67.102500000000191
  0
LINE
  8
_1-8_小物
  6
CONTINUOUS
 62
    4
 10
-136.15582714585318
 20
67.229246678175883
 11
-137.15582714585307
 21
66.994246678175898
  0
LINE
  8
_1-8_小物
  6
CONTINUOUS
 62
    4
 10
-135.96832714585315
 20
67.337500000000148
 11
-137.34332714585315
 21
67.102500000000191
  0
LINE
  8
_1-8_小物
  6
CONTINUOUS
 62
    4
 10
-136.15582714585327
 20
67.915753321824411
 11
-135.96832714585315
 21
67.807500000000147
  0
LINE
  8
_1-8_小物
  6
CONTINUOUS
 62
    4
 10
-135.96832714585315
 20
67.807500000000147
 11
-136.15582714585318
 21
67.699246678175882
  0
LINE
  8
_1-8_小物
  6
CONTINUOUS
 62
    4
 10
-136.15582714585327
 20
67.915753321824411
 11
-137.15582714585307
 21
67.680753321824454
  0
LINE
  8
_1-8_小物
  6
CONTINUOUS
 62
    4
 10
-137.34332714585315
 20
67.572500000000161
 11
-137.15582714585307
 21
67.680753321824454
  0
LINE
  8
_1-8_小物
  6
CONTINUOUS
 62
    4
 10
-137.15582714585307
 20
67.464246678175897
 11
-137.34332714585315
 21
67.572500000000161
  0
LINE
  8
_1-8_小物
  6
CONTINUOUS
 62
    4
 10
-136.15582714585318
 20
67.699246678175882
 11
-137.15582714585307
 21
67.464246678175897
  0
LINE
  8
_1-8_小物
  6
CONTINUOUS
 62
    4
 10
-135.96832714585315
 20
67.807500000000147
 11
-137.34332714585315
 21
67.572500000000161
  0
LINE
  8
_1-8_小物
  6
CONTINUOUS
 62
    4
 10
-136.15582714585327
 20
68.38575332182441
 11
-135.96832714585315
 21
68.277500000000146
  0
LINE
  8
_1-8_小物
  6
CONTINUOUS
 62
    4
 10
-135.96832714585315
 20
68.277500000000146
 11
-136.15582714585318
 21
68.169246678175853
  0
LINE
  8
_1-8_小物
  6
CONTINUOUS
 62
    4
 10
-136.15582714585327
 20
68.38575332182441
 11
-137.15582714585307
 21
68.150753321824425
  0
LINE
  8
_1-8_小物
  6
CONTINUOUS
 62
    4
 10
-137.34332714585315
 20
68.04250000000016
 11
-137.15582714585307
 21
68.150753321824425
  0
LINE
  8
_1-8_小物
  6
CONTINUOUS
 62
    4
 10
-137.15582714585307
 20
67.934246678175896
 11
-137.34332714585315
 21
68.04250000000016
  0
LINE
  8
_1-8_小物
  6
CONTINUOUS
 62
    4
 10
-136.15582714585318
 20
68.169246678175853
 11
-137.15582714585307
 21
67.934246678175896
  0
LINE
  8
_1-8_小物
  6
CONTINUOUS
 62
    4
 10
-135.96832714585315
 20
68.277500000000146
 11
-137.34332714585315
 21
68.04250000000016
  0
LINE
  8
_1-8_小物
  6
CONTINUOUS
 62
    4
 10
-136.15582714585327
 20
68.855753321824409
 11
-135.96832714585315
 21
68.747500000000116
  0
LINE
  8
_1-8_小物
  6
CONTINUOUS
 62
    4
 10
-135.96832714585315
 20
68.747500000000116
 11
-136.15582714585318
 21
68.639246678175851
  0
LINE
  8
_1-8_小物
  6
CONTINUOUS
 62
    4
 10
-136.15582714585327
 20
68.855753321824409
 11
-137.15582714585307
 21
68.620753321824424
  0
LINE
  8
_1-8_小物
  6
CONTINUOUS
 62
    4
 10
-137.34332714585315
 20
68.512500000000159
 11
-137.15582714585307
 21
68.620753321824424
  0
LINE
  8
_1-8_小物
  6
CONTINUOUS
 62
    4
 10
-137.15582714585307
 20
68.404246678175866
 11
-137.34332714585315
 21
68.512500000000159
  0
LINE
  8
_1-8_小物
  6
CONTINUOUS
 62
    4
 10
-136.15582714585318
 20
68.639246678175851
 11
-137.15582714585307
 21
68.404246678175866
  0
LINE
  8
_1-8_小物
  6
CONTINUOUS
 62
    4
 10
-135.96832714585315
 20
68.747500000000116
 11
-137.34332714585315
 21
68.512500000000159
  0
LINE
  8
_1-8_小物
  6
CONTINUOUS
 62
    4
 10
-137.15582714585304
 20
65.58424667817593
 11
-137.15582714585304
 21
65.330753321824488
  0
LINE
  8
_1-8_小物
  6
CONTINUOUS
 62
    4
 10
-137.15582714585304
 20
66.054246678175929
 11
-137.15582714585304
 21
65.800753321824487
  0
LINE
  8
_1-8_小物
  6
CONTINUOUS
 62
    4
 10
-137.15582714585304
 20
66.524246678175928
 11
-137.15582714585304
 21
66.270753321824515
  0
LINE
  8
_1-8_小物
  6
CONTINUOUS
 62
    4
 10
-137.15582714585304
 20
66.994246678175898
 11
-137.15582714585304
 21
66.740753321824457
  0
LINE
  8
_1-8_小物
  6
CONTINUOUS
 62
    4
 10
-137.15582714585304
 20
67.464246678175897
 11
-137.15582714585304
 21
67.210753321824455
  0
LINE
  8
_1-8_小物
  6
CONTINUOUS
 62
    4
 10
-137.15582714585304
 20
67.934246678175896
 11
-137.15582714585304
 21
67.680753321824454
  0
LINE
  8
_1-8_小物
  6
CONTINUOUS
 62
    4
 10
-137.15582714585304
 20
69.100000000000136
 11
-137.15582714585304
 21
68.620753321824424
  0
LINE
  8
_1-8_小物
  6
CONTINUOUS
 62
    4
 10
-137.15582714585304
 20
68.404246678175866
 11
-137.15582714585304
 21
68.150753321824482
  0
LINE
  8
_1-8_小物
  6
CONTINUOUS
 62
    4
 10
-136.15582714585327
 20
69.100000000000136
 11
-136.15582714585327
 21
68.855753321824409
  0
LINE
  8
_1-8_小物
  6
CONTINUOUS
 62
    4
 10
-136.15582714585327
 20
68.639246678175823
 11
-136.15582714585327
 21
68.38575332182441
  0
LINE
  8
_1-8_小物
  6
CONTINUOUS
 62
    4
 10
-136.15582714585327
 20
68.169246678175853
 11
-136.15582714585327
 21
67.915753321824411
  0
LINE
  8
_1-8_小物
  6
CONTINUOUS
 62
    4
 10
-136.15582714585327
 20
67.699246678175825
 11
-136.15582714585327
 21
67.445753321824441
  0
LINE
  8
_1-8_小物
  6
CONTINUOUS
 62
    4
 10
-136.15582714585327
 20
67.229246678175883
 11
-136.15582714585327
 21
66.975753321824442
  0
LINE
  8
_1-8_小物
  6
CONTINUOUS
 62
    4
 10
-136.15582714585327
 20
66.759246678175884
 11
-136.15582714585327
 21
66.505753321824443
  0
LINE
  8
_1-8_小物
  6
CONTINUOUS
 62
    4
 10
-136.15582714585327
 20
66.289246678175857
 11
-136.15582714585327
 21
66.035753321824473
  0
LINE
  8
_1-8_小物
  6
CONTINUOUS
 62
    4
 10
-136.08916047918657
 20
65.326666666666824
 11
-136.08916047918657
 21
64.330000000000155
  0
LINE
  8
_1-8_小物
  6
CONTINUOUS
 62
    4
 10
-137.22249381251967
 20
65.326666666666824
 11
-136.08916047918657
 21
65.326666666666824
  0
LINE
  8
_1-8_小物
  6
CONTINUOUS
 62
    4
 10
-137.22249381251967
 20
65.326666666666824
 11
-137.22249381251967
 21
64.330000000000155
  0
LINE
  8
_1-8_小物
  6
CONTINUOUS
 62
    4
 10
-137.22249381251967
 20
64.330000000000155
 11
-136.65582714585315
 21
64.00283484745944
  0
LINE
  8
_1-8_小物
  6
CONTINUOUS
 62
    4
 10
-136.08916047918657
 20
64.330000000000155
 11
-136.65582714585315
 21
64.00283484745944
  0
LINE
  8
_1-8_小物
  6
CONTINUOUS
 62
    4
 10
-136.65582714585315
 20
64.118304901297336
 11
-136.18916047918648
 21
64.387735026919131
  0
LINE
  8
_1-8_小物
  6
CONTINUOUS
 62
    4
 10
-136.18916047918648
 20
65.326666666666824
 11
-136.18916047918648
 21
64.387735026919131
  0
LINE
  8
_1-8_小物
  6
CONTINUOUS
 62
    4
 10
-136.65582714585315
 20
64.118304901297336
 11
-136.44276036416201
 21
65.326666666666824
  0
LINE
  8
_1-8_小物
  6
CONTINUOUS
 62
    4
 10
-136.15582714585327
 20
65.819246678175887
 11
-136.15582714585327
 21
65.326666666666824
  0
LINE
  8
_1-8_小物
  6
CONTINUOUS
 62
    4
 10
-136.65582714585315
 20
64.00283484745944
 11
-136.65582714585315
 21
64.118304901297336
  0
LINE
  8
_1-8_小物
  6
CENTER2
 62
    4
 10
-136.65582714585315
 20
70.000000000000142
 11
-136.65582714585315
 21
63.669501514126097
  0
ENDBLK
  0
BLOCK
  2
-016-_16_
 70
   64
 10
0
 20
0
 30
0
  0
LINE
  8
_1-6_ばね
  6
CENTER2
 62
    4
 10
-146.00582706638016
 20
61.614779322130545
 11
-146.00582706638016
 21
68.281445988797202
  0
LINE
  8
_1-6_ばね
  6
CENTER2
 62
    4
 10
-142.67249373304682
 20
64.950000007316874
 11
-149.33916039971348
 21
64.950000007316874
  0
CIRCLE
  8
_1-6_ばね
  6
CONTINUOUS
 62
    4
 10
-146.00582706638016
 20
64.950000007316874
 40
1.4166666739834075
  0
LINE
  8
_1-6_ばね
  6
CONTINUOUS
 62
    4
 10
-145.00409245452551
 20
63.948265395462215
 11
-140.62670608129744
 21
68.325651768690278
  0
ARC
  8
_1-6_ばね
  6
CONTINUOUS
 62
    4
 10
-139.40105432724076
 20
67.100000014633594
 40
1.7333333333333334
 50
90
 51
135
  0
LINE
  8
_1-6_ばね
  6
CONTINUOUS
 62
    4
 10
-144.39126657749716
 20
63.335439518433901
 11
-140.01388020426907
 21
67.712825891661964
  0
ARC
  8
_1-6_ばね
  6
CONTINUOUS
 62
    4
 10
-139.40105432724076
 20
67.100000014633622
 40
0.8666666666666667
 50
90
 51
134.99999999999736
  0
ARC
  8
_1-6_ばね
  6
CENTER2
 62
    4
 10
-139.40105432724067
 20
67.100000014633622
 40
1.2999999999999998
 50
90
 51
134.99999999999912
  0
LINE
  8
_1-6_ばね
  6
CONTINUOUS
 62
    4
 10
-129.35582706638019
 20
64.833333347966942
 11
-128.52249373304682
 21
64.833333347966942
  0
LINE
  8
_1-6_ばね
  6
CONTINUOUS
 62
    4
 10
-129.37249373304687
 20
64.833333347966942
 11
-129.37249373304687
 21
67.100000014633622
  0
LINE
  8
_1-6_ばね
  6
CENTER2
 62
    4
 10
-128.93916039971347
 20
64.833333347966942
 11
-128.93916039971347
 21
67.100000014633622
  0
LINE
  8
_1-6_ばね
  6
CONTINUOUS
 62
    4
 10
-128.50582706638016
 20
64.833333347966942
 11
-128.50582706638016
 21
67.100000014633594
  0
ARC
  8
_1-6_ばね
  6
CONTINUOUS
 62
    4
 10
-130.23916039971351
 20
67.100000014633594
 40
1.7333333333333334
 50
0
 51
90
  0
ARC
  8
_1-6_ばね
  6
CONTINUOUS
 62
    4
 10
-130.23916039971351
 20
67.100000014633622
 40
0.8666666666666667
 50
0
 51
90
  0
ARC
  8
_1-6_ばね
  6
CENTER2
 62
    4
 10
-130.23916039971351
 20
67.100000014633622
 40
1.2999999999999998
 50
0
 51
90
  0
LINE
  8
_1-6_ばね
  6
CONTINUOUS
 62
    4
 10
-139.40105432724076
 20
68.833333347966942
 11
-130.23916039971351
 21
68.833333347966942
  0
LINE
  8
_1-6_ばね
  6
CONTINUOUS
 62
    4
 10
-139.40105432724076
 20
67.966666681300296
 11
-130.23916039971351
 21
67.966666681300296
  0
LINE
  8
_1-6_ばね
  6
CENTER2
 62
    4
 10
-139.40105432724067
 20
68.400000014633633
 11
-130.23916039971351
 21
68.400000014633633
  0
LINE
  8
_1-6_ばね
  6
CENTER2
 62
    4
 10
-144.69767951601131
 20
63.641852456948016
 11
-140.32029314278321
 21
68.019238830176164
  0
ARC
  8
_1-6_ばね
  6
CONTINUOUS
 62
    4
 10
-146.00582706638016
 20
64.950000007316874
 40
2.2833333406500742
 50
6.6518764977933422
 51
315
  0
ARC
  8
_1-6_ばね
  6
CENTER2
 62
    4
 10
-146.00582706638016
 20
64.950000007316874
 40
1.8500000073167409
 50
355.02483380296769
 51
315.00000000000125
  0
LINE
  8
_1-6_ばね
  6
CONTINUOUS
 62
    4
 10
-132.23026632055993
 20
62.277434333610415
 11
-133.50412268659073
 21
64.608698616465205
  0
ARC
  8
_1-6_ばね
  6
CONTINUOUS
 62
    4
 10
-134.26465568357759
 20
64.193125913312997
 40
0.8666666666666667
 50
28.653206084986198
 51
83.653206084990231
  0
LINE
  8
_1-6_ばね
  6
CENTER2
 62
    4
 10
-131.84999982206645
 20
62.485220685186533
 11
-133.12385618809728
 21
64.816484968041351
  0
LINE
  8
_1-6_ばね
  6
CONTINUOUS
 62
    4
 10
-132.74358968960379
 20
65.024271319617412
 11
-131.469733323573
 21
62.693007036762651
  0
ARC
  8
_1-6_ばね
  6
CONTINUOUS
 62
    4
 10
-134.26465568357759
 20
64.19312591331294
 40
1.7333333333333334
 50
28.653206084990398
 51
83.653206084987531
  0
ARC
  8
_1-6_ばね
  6
CENTER2
 62
    4
 10
-134.26465568357759
 20
64.193125913312997
 40
1.2999999999999998
 50
28.653206084988451
 51
83.653206084989051
  0
ARC
  8
_1-6_ばね
  6
CONTINUOUS
 62
    4
 10
-131.84999982206645
 20
62.485220685186533
 40
0.4333333333333333
 50
208.65320608498783
 51
28.653206084987858
  0
LINE
  8
_1-6_ばね
  6
CONTINUOUS
 62
    4
 10
-141.03635658599688
 20
66.690349509934151
 11
-134.07304252997503
 21
65.915835652012731
  0
LINE
  8
_1-6_ばね
  6
CONTINUOUS
 62
    4
 10
-145.77756571104845
 20
67.217703603274288
 11
-142.13932736561728
 21
66.813030484370444
  0
LINE
  8
_1-6_ばね
  6
CENTER2
 62
    4
 10
-142.53169122133437
 20
66.42066662865335
 11
-144.46578927682719
 21
66.635792032233667
  0
LINE
  8
_1-6_ばね
  6
CENTER2
 62
    4
 10
-134.12094581837567
 20
65.485158217337812
 11
-141.42872044171395
 21
66.297985654217115
  0
LINE
  8
_1-6_ばね
  6
CONTINUOUS
 62
    4
 10
-134.16884910677638
 20
65.054480782662836
 11
-141.82108429743101
 21
65.905621798500022
  0
LINE
  8
_1-6_ばね
  6
CONTINUOUS
 62
    4
 10
-142.92405507705141
 20
66.028302772936314
 11
-144.06658466465962
 21
66.155383785162428
  0
ENDBLK
  0
BLOCK
  2
-017-_17_
 70
   64
 10
0
 20
0
 30
0
  0
LINE
  8
_0-0_図面枠
  6
CONTINUOUS
 62
    7
 10
-17.103643301208535
 20
124.788467342351
 11
-17.633973387058546
 21
124.48231430040101
  0
LINE
  8
_0-0_図面枠
  6
CONTINUOUS
 62
    7
 10
-16.197776643308543
 20
122.83680745630096
 11
-17.103643301208535
 21
124.788467342351
  0
LINE
  8
_0-0_図面枠
  6
CONTINUOUS
 62
    7
 10
-19.578517035358544
 20
123.35975314665097
 11
-16.197776643308543
 21
122.83680745630096
  0
LINE
  8
_0-0_図面枠
  6
CONTINUOUS
 62
    7
 10
-19.04818694945854
 20
123.66590618860101
 11
-19.578517035358544
 21
123.35975314665097
  0
LINE
  8
_0-0_図面枠
  6
CONTINUOUS
 62
    7
 10
-23.644381027158545
 20
126.31923255200098
 11
-19.04818694945854
 21
123.66590618860101
  0
LINE
  8
_0-0_図面枠
  6
CONTINUOUS
 62
    7
 10
-28.24057510485855
 20
123.66590618860101
 11
-23.644381027158545
 21
126.31923255200098
  0
LINE
  8
_0-0_図面枠
  6
CONTINUOUS
 62
    7
 10
-27.710245019008539
 20
123.35975314665097
 11
-28.24057510485855
 21
123.66590618860101
  0
LINE
  8
_0-0_図面枠
  6
CONTINUOUS
 62
    7
 10
-31.090985411008546
 20
122.83680745630096
 11
-27.710245019008539
 21
123.35975314665097
  0
LINE
  8
_0-0_図面枠
  6
CONTINUOUS
 62
    7
 10
-30.185118753158548
 20
124.788467342351
 11
-31.090985411008546
 21
122.83680745630096
  0
LINE
  8
_0-0_図面枠
  6
CONTINUOUS
 62
    7
 10
-29.654788667258543
 20
124.48231430040101
 11
-30.185118753158548
 21
124.788467342351
  0
LINE
  8
_0-0_図面枠
  6
CONTINUOUS
 62
    7
 10
-25.058594589558538
 20
127.13564066385101
 11
-29.654788667258543
 21
124.48231430040101
  0
LINE
  8
_0-0_図面枠
  6
CONTINUOUS
 62
    7
 10
-29.654788667258543
 20
129.78896702725098
 11
-25.058594589558538
 21
127.13564066385101
  0
LINE
  8
_0-0_図面枠
  6
CONTINUOUS
 62
    7
 10
-30.185118753158548
 20
129.48281398535102
 11
-29.654788667258543
 21
129.78896702725098
  0
LINE
  8
_0-0_図面枠
  6
CONTINUOUS
 62
    7
 10
-31.090985411008546
 20
131.434473871401
 11
-30.185118753158548
 21
129.48281398535102
  0
LINE
  8
_0-0_図面枠
  6
CONTINUOUS
 62
    7
 10
-27.710245019008539
 20
130.91152818105098
 11
-31.090985411008546
 21
131.434473871401
  0
LINE
  8
_0-0_図面枠
  6
CONTINUOUS
 62
    7
 10
-28.24057510485855
 20
130.605375139101
 11
-27.710245019008539
 21
130.91152818105098
  0
LINE
  8
_0-0_図面枠
  6
CONTINUOUS
 62
    7
 10
-23.644381027158545
 20
127.95204877565101
 11
-28.24057510485855
 21
130.605375139101
  0
LINE
  8
_0-0_図面枠
  6
CONTINUOUS
 62
    7
 10
-19.04818694945854
 20
130.605375139101
 11
-23.644381027158545
 21
127.95204877565101
  0
LINE
  8
_0-0_図面枠
  6
CONTINUOUS
 62
    7
 10
-19.578517035358544
 20
130.91152818105098
 11
-19.04818694945854
 21
130.605375139101
  0
LINE
  8
_0-0_図面枠
  6
CONTINUOUS
 62
    7
 10
-16.197776643308543
 20
131.434473871401
 11
-19.578517035358544
 21
130.91152818105098
  0
LINE
  8
_0-0_図面枠
  6
CONTINUOUS
 62
    7
 10
-17.103643301208535
 20
129.48281398535102
 11
-16.197776643308543
 21
131.434473871401
  0
LINE
  8
_0-0_図面枠
  6
CONTINUOUS
 62
    7
 10
-17.633973387058546
 20
129.78896702725098
 11
-17.103643301208535
 21
129.48281398535102
  0
LINE
  8
_0-0_図面枠
  6
CONTINUOUS
 62
    7
 10
-22.230167464808545
 20
127.13564066385101
 11
-17.633973387058546
 21
129.78896702725098
  0
LINE
  8
_0-0_図面枠
  6
CONTINUOUS
 62
    7
 10
-17.633973387058546
 20
124.48231430040101
 11
-22.230167464808545
 21
127.13564066385101
  0
LINE
  8
_0-0_図面枠
  6
CONTINUOUS
 62
    7
 10
-31.090985411008546
 20
122.83680745630096
 11
-31.090985411008546
 21
122.224401847401
  0
LINE
  8
_0-0_図面枠
  6
CONTINUOUS
 62
    7
 10
-27.710245019008539
 20
123.35975314665097
 11
-27.710245019008539
 21
122.74734753775101
  0
LINE
  8
_0-0_図面枠
  6
CONTINUOUS
 62
    7
 10
-31.090985411008546
 20
122.224401847401
 11
-27.710245019008539
 21
122.74734753775101
  0
LINE
  8
_0-0_図面枠
  6
CONTINUOUS
 62
    7
 10
-19.578517035358544
 20
123.35975314665097
 11
-19.578517035358544
 21
122.74734753775101
  0
LINE
  8
_0-0_図面枠
  6
CONTINUOUS
 62
    7
 10
-16.197776643308543
 20
122.83680745630096
 11
-16.197776643308543
 21
122.224401847401
  0
LINE
  8
_0-0_図面枠
  6
CONTINUOUS
 62
    7
 10
-19.578517035358544
 20
122.74734753775101
 11
-16.197776643308543
 21
122.224401847401
  0
LINE
  8
_0-0_図面枠
  6
CONTINUOUS
 62
    7
 10
-23.644381027158545
 20
126.31923255200098
 11
-23.644381027158545
 21
125.70682694310102
  0
LINE
  8
_0-0_図面枠
  6
CONTINUOUS
 62
    7
 10
-27.710245019008539
 20
123.35965362160101
 11
-23.644381027158545
 21
125.70682694310102
  0
LINE
  8
_0-0_図面枠
  6
CONTINUOUS
 62
    7
 10
-23.644381027158545
 20
125.70682694310102
 11
-19.578517035358544
 21
123.35965362160101
  0
LINE
  8
_0-0_図面枠
  6
CONTINUOUS
 62
    7
 10
-29.654788667258543
 20
129.78896702725098
 11
-29.654788667258543
 21
129.17656141835101
  0
LINE
  8
_0-0_図面枠
  6
CONTINUOUS
 62
    7
 10
-29.654788667258543
 20
129.17656141835101
 11
-25.589010876008558
 21
126.82943785940103
  0
LINE
  8
_0-0_図面枠
  6
CONTINUOUS
 62
    7
 10
-17.633973387058546
 20
129.78896702725098
 11
-17.633973387058546
 21
129.17656141835101
  0
LINE
  8
_0-0_図面枠
  6
CONTINUOUS
 62
    7
 10
-21.699751178358554
 20
126.82943785940103
 11
-17.633973387058546
 21
129.17656141835101
  0
LINE
  8
_0-0_図面枠
  6
CONTINUOUS
 62
    7
 10
-17.103643301208535
 20
129.48281398535102
 11
-17.103643301208535
 21
128.87040837640097
  0
LINE
  8
_0-0_図面枠
  6
CONTINUOUS
 62
    7
 10
-17.633973387058546
 20
129.17656141835101
 11
-17.103643301208535
 21
128.87040837640097
  0
LINE
  8
_0-0_図面枠
  6
CONTINUOUS
 62
    7
 10
-16.197776643308543
 20
131.434473871401
 11
-16.197776643308543
 21
130.82206826250098
  0
LINE
  8
_0-0_図面枠
  6
CONTINUOUS
 62
    7
 10
-17.103643301208535
 20
128.87040837640097
 11
-16.197776643308543
 21
130.82206826250098
  0
LINE
  8
_0-0_図面枠
  6
CONTINUOUS
 62
    7
 10
-30.185118753158548
 20
129.48281398535102
 11
-30.185118753158548
 21
128.87040837640097
  0
LINE
  8
_0-0_図面枠
  6
CONTINUOUS
 62
    7
 10
-30.185118753158548
 20
128.87040837640097
 11
-29.654788667258543
 21
129.17656141835101
  0
LINE
  8
_0-0_図面枠
  6
CONTINUOUS
 62
    7
 10
-31.090985411008546
 20
131.434473871401
 11
-31.090985411008546
 21
130.82206826250098
  0
LINE
  8
_0-0_図面枠
  6
CONTINUOUS
 62
    7
 10
-31.090985411008546
 20
130.82206826250098
 11
-30.185118753158548
 21
128.87040837640097
  0
LINE
  8
_0-0_図面枠
  6
CONTINUOUS
 62
    7
 10
-19.578517035358544
 20
130.91152818105098
 11
-19.578517035358544
 21
130.29922209715102
  0
LINE
  8
_0-0_図面枠
  6
CONTINUOUS
 62
    7
 10
-27.710245019008539
 20
130.91152818105098
 11
-27.710245019008539
 21
130.29922209715102
  0
LINE
  8
ADD_LINE
  6
DOT
 62
    4
 10
-31.090985411008546
 20
131.434473871401
 11
-16.198180070863089
 21
122.83610869927929
  0
LINE
  8
ADD_LINE
  6
DOT
 62
    4
 10
-16.197776643308543
 20
131.434473871401
 11
-31.090581983454001
 21
122.83610869927929
  0
ENDBLK
  0
BLOCK
  2
-018-_18_
 70
   64
 10
0
 20
0
 30
0
  0
LINE
  8
_0-0_図面枠
  6
CONTINUOUS
 62
    7
 10
181.88186991188218
 20
125.54988384232564
 11
181.35153982603219
 21
125.24373080037566
  0
LINE
  8
_0-0_図面枠
  6
CONTINUOUS
 62
    7
 10
182.78773656978217
 20
123.5982239562756
 11
181.88186991188218
 21
125.54988384232564
  0
LINE
  8
_0-0_図面枠
  6
CONTINUOUS
 62
    7
 10
179.40699617773214
 20
124.12116964662562
 11
182.78773656978217
 21
123.5982239562756
  0
LINE
  8
_0-0_図面枠
  6
CONTINUOUS
 62
    7
 10
179.93732626363214
 20
124.42732268857566
 11
179.40699617773214
 21
124.12116964662562
  0
LINE
  8
_0-0_図面枠
  6
CONTINUOUS
 62
    7
 10
175.34113218593211
 20
127.08064905197563
 11
179.93732626363214
 21
124.42732268857566
  0
LINE
  8
_0-0_図面枠
  6
CONTINUOUS
 62
    7
 10
170.74493810823219
 20
124.42732268857566
 11
175.34113218593211
 21
127.08064905197563
  0
LINE
  8
_0-0_図面枠
  6
CONTINUOUS
 62
    7
 10
171.27526819408217
 20
124.12116964662562
 11
170.74493810823219
 21
124.42732268857566
  0
LINE
  8
_0-0_図面枠
  6
CONTINUOUS
 62
    7
 10
167.89452780208217
 20
123.5982239562756
 11
171.27526819408217
 21
124.12116964662562
  0
LINE
  8
_0-0_図面枠
  6
CONTINUOUS
 62
    7
 10
168.80039445993214
 20
125.54988384232564
 11
167.89452780208217
 21
123.5982239562756
  0
LINE
  8
_0-0_図面枠
  6
CONTINUOUS
 62
    7
 10
169.33072454583214
 20
125.24373080037566
 11
168.80039445993214
 21
125.54988384232564
  0
LINE
  8
_0-0_図面枠
  6
CONTINUOUS
 62
    7
 10
173.92691862353217
 20
127.89705716382565
 11
169.33072454583214
 21
125.24373080037566
  0
LINE
  8
_0-0_図面枠
  6
CONTINUOUS
 62
    7
 10
169.33072454583214
 20
130.55038352722562
 11
173.92691862353217
 21
127.89705716382565
  0
LINE
  8
_0-0_図面枠
  6
CONTINUOUS
 62
    7
 10
168.80039445993214
 20
130.24423048532566
 11
169.33072454583214
 21
130.55038352722562
  0
LINE
  8
_0-0_図面枠
  6
CONTINUOUS
 62
    7
 10
167.89452780208217
 20
132.19589037137564
 11
168.80039445993214
 21
130.24423048532566
  0
LINE
  8
_0-0_図面枠
  6
CONTINUOUS
 62
    7
 10
171.27526819408217
 20
131.67294468102563
 11
167.89452780208217
 21
132.19589037137564
  0
LINE
  8
_0-0_図面枠
  6
CONTINUOUS
 62
    7
 10
170.74493810823219
 20
131.36679163907564
 11
171.27526819408217
 21
131.67294468102563
  0
LINE
  8
_0-0_図面枠
  6
CONTINUOUS
 62
    7
 10
175.34113218593211
 20
128.71346527562565
 11
170.74493810823219
 21
131.36679163907564
  0
LINE
  8
_0-0_図面枠
  6
CONTINUOUS
 62
    7
 10
179.93732626363214
 20
131.36679163907564
 11
175.34113218593211
 21
128.71346527562565
  0
LINE
  8
_0-0_図面枠
  6
CONTINUOUS
 62
    7
 10
179.40699617773214
 20
131.67294468102563
 11
179.93732626363214
 21
131.36679163907564
  0
LINE
  8
_0-0_図面枠
  6
CONTINUOUS
 62
    7
 10
182.78773656978217
 20
132.19589037137564
 11
179.40699617773214
 21
131.67294468102563
  0
LINE
  8
_0-0_図面枠
  6
CONTINUOUS
 62
    7
 10
181.88186991188218
 20
130.24423048532566
 11
182.78773656978217
 21
132.19589037137564
  0
LINE
  8
_0-0_図面枠
  6
CONTINUOUS
 62
    7
 10
181.35153982603219
 20
130.55038352722562
 11
181.88186991188218
 21
130.24423048532566
  0
LINE
  8
_0-0_図面枠
  6
CONTINUOUS
 62
    7
 10
176.75534574828214
 20
127.89705716382565
 11
181.35153982603219
 21
130.55038352722562
  0
LINE
  8
_0-0_図面枠
  6
CONTINUOUS
 62
    7
 10
181.35153982603219
 20
125.24373080037566
 11
176.75534574828214
 21
127.89705716382565
  0
LINE
  8
_0-0_図面枠
  6
CONTINUOUS
 62
    7
 10
167.89452780208217
 20
123.5982239562756
 11
167.89452780208217
 21
122.98581834737564
  0
LINE
  8
_0-0_図面枠
  6
CONTINUOUS
 62
    7
 10
171.27526819408217
 20
124.12116964662562
 11
171.27526819408217
 21
123.50876403772565
  0
LINE
  8
_0-0_図面枠
  6
CONTINUOUS
 62
    7
 10
167.89452780208217
 20
122.98581834737564
 11
171.27526819408217
 21
123.50876403772565
  0
LINE
  8
_0-0_図面枠
  6
CONTINUOUS
 62
    7
 10
179.40699617773214
 20
124.12116964662562
 11
179.40699617773214
 21
123.50876403772565
  0
LINE
  8
_0-0_図面枠
  6
CONTINUOUS
 62
    7
 10
182.78773656978217
 20
123.5982239562756
 11
182.78773656978217
 21
122.98581834737564
  0
LINE
  8
_0-0_図面枠
  6
CONTINUOUS
 62
    7
 10
179.40699617773214
 20
123.50876403772565
 11
182.78773656978217
 21
122.98581834737564
  0
LINE
  8
_0-0_図面枠
  6
CONTINUOUS
 62
    7
 10
175.34113218593211
 20
127.08064905197563
 11
175.34113218593211
 21
126.46824344307566
  0
LINE
  8
_0-0_図面枠
  6
CONTINUOUS
 62
    7
 10
171.27526819408217
 20
124.12107012157566
 11
175.34113218593211
 21
126.46824344307566
  0
LINE
  8
_0-0_図面枠
  6
CONTINUOUS
 62
    7
 10
175.34113218593211
 20
126.46824344307566
 11
179.40699617773214
 21
124.12107012157566
  0
LINE
  8
_0-0_図面枠
  6
CONTINUOUS
 62
    7
 10
169.33072454583214
 20
130.55038352722562
 11
169.33072454583214
 21
129.93797791832566
  0
LINE
  8
_0-0_図面枠
  6
CONTINUOUS
 62
    7
 10
169.33072454583214
 20
129.93797791832566
 11
173.3965023370821
 21
127.59085435937567
  0
LINE
  8
_0-0_図面枠
  6
CONTINUOUS
 62
    7
 10
181.35153982603219
 20
130.55038352722562
 11
181.35153982603219
 21
129.93797791832566
  0
LINE
  8
_0-0_図面枠
  6
CONTINUOUS
 62
    7
 10
177.2857620347321
 20
127.59085435937567
 11
181.35153982603219
 21
129.93797791832566
  0
LINE
  8
_0-0_図面枠
  6
CONTINUOUS
 62
    7
 10
181.88186991188218
 20
130.24423048532566
 11
181.88186991188218
 21
129.63182487637562
  0
LINE
  8
_0-0_図面枠
  6
CONTINUOUS
 62
    7
 10
181.35153982603219
 20
129.93797791832566
 11
181.88186991188218
 21
129.63182487637562
  0
LINE
  8
_0-0_図面枠
  6
CONTINUOUS
 62
    7
 10
182.78773656978217
 20
132.19589037137564
 11
182.78773656978217
 21
131.58348476247562
  0
LINE
  8
_0-0_図面枠
  6
CONTINUOUS
 62
    7
 10
181.88186991188218
 20
129.63182487637562
 11
182.78773656978217
 21
131.58348476247562
  0
LINE
  8
_0-0_図面枠
  6
CONTINUOUS
 62
    7
 10
168.80039445993214
 20
130.24423048532566
 11
168.80039445993214
 21
129.63182487637562
  0
LINE
  8
_0-0_図面枠
  6
CONTINUOUS
 62
    7
 10
168.80039445993214
 20
129.63182487637562
 11
169.33072454583214
 21
129.93797791832566
  0
LINE
  8
_0-0_図面枠
  6
CONTINUOUS
 62
    7
 10
167.89452780208217
 20
132.19589037137564
 11
167.89452780208217
 21
131.58348476247562
  0
LINE
  8
_0-0_図面枠
  6
CONTINUOUS
 62
    7
 10
167.89452780208217
 20
131.58348476247562
 11
168.80039445993214
 21
129.63182487637562
  0
LINE
  8
_0-0_図面枠
  6
CONTINUOUS
 62
    7
 10
179.40699617773214
 20
131.67294468102563
 11
179.40699617773214
 21
131.06063859712566
  0
LINE
  8
_0-0_図面枠
  6
CONTINUOUS
 62
    7
 10
171.27526819408217
 20
131.67294468102563
 11
171.27526819408217
 21
131.06063859712566
  0
LINE
  8
ADD_LINE
  6
DOT
 62
    4
 10
167.89452780208217
 20
132.19589037137564
 11
182.78733314222757
 21
123.59752519925394
  0
LINE
  8
ADD_LINE
  6
DOT
 62
    4
 10
182.78773656978217
 20
132.19589037137564
 11
167.89493122963665
 21
123.59752519925394
  0
ENDBLK
  0
BLOCK
  2
-019-_19_
 70
   64
 10
0
 20
0
 30
0
  0
LINE
  8
_1-8_小物
  6
CONTINUOUS
 62
    4
 10
126.47139500342263
 20
50.073391666666566
 11
126.50628500342225
 21
49.407638333333267
  0
LINE
  8
_1-8_小物
  6
CONTINUOUS
 62
    4
 10
126.41905833675571
 20
51.072021666666529
 11
125.77075167008906
 21
50.704254999999876
  0
LINE
  8
_1-8_小物
  6
CONTINUOUS
 62
    4
 10
125.77075167008906
 20
50.704254999999876
 11
125.80564167008924
 21
50.038501666666576
  0
LINE
  8
_1-8_小物
  6
CONTINUOUS
 62
    4
 10
125.80564167008924
 20
50.038501666666576
 11
126.47139500342263
 21
50.073391666666566
  0
LINE
  8
_1-8_小物
  6
CONTINUOUS
 62
    4
 10
126.38416833675581
 20
51.737774999999971
 11
126.41905833675571
 21
51.072021666666529
  0
LINE
  8
_1-8_小物
  6
CONTINUOUS
 62
    4
 10
126.33183167008917
 20
52.736403333333328
 11
125.68352500342223
 21
52.368636666666362
  0
LINE
  8
_1-8_小物
  6
CONTINUOUS
 62
    4
 10
125.68352500342223
 20
52.368636666666362
 11
125.71841500342242
 21
51.70288333333329
  0
LINE
  8
_1-8_小物
  6
CONTINUOUS
 62
    4
 10
125.71841500342242
 20
51.70288333333329
 11
126.38416833675581
 21
51.737774999999971
  0
LINE
  8
_1-8_小物
  6
CONTINUOUS
 62
    4
 10
126.29694167008893
 20
53.402156666666684
 11
126.33183167008917
 21
52.736403333333328
  0
LINE
  8
_1-8_小物
  6
CONTINUOUS
 62
    4
 10
126.24460500342263
 20
54.400786666666363
 11
125.59629833675598
 21
54.033019999999993
  0
LINE
  8
_1-8_小物
  6
CONTINUOUS
 62
    4
 10
125.59629833675598
 20
54.033019999999993
 11
125.6311883367556
 21
53.367266666666637
  0
LINE
  8
_1-8_小物
  6
CONTINUOUS
 62
    4
 10
125.6311883367556
 20
53.367266666666637
 11
126.29694167008893
 21
53.402156666666684
  0
LINE
  8
_1-8_小物
  6
CONTINUOUS
 62
    4
 10
126.20971500342239
 20
55.066539999999947
 11
126.24460500342263
 21
54.400786666666363
  0
LINE
  8
_1-8_小物
  6
CONTINUOUS
 62
    4
 10
126.15737833675576
 20
56.065169999999995
 11
125.50907167008916
 21
55.697401666666565
  0
LINE
  8
_1-8_小物
  6
CONTINUOUS
 62
    4
 10
125.50907167008916
 20
55.697401666666565
 11
125.54396167008906
 21
55.031648333333266
  0
LINE
  8
_1-8_小物
  6
CONTINUOUS
 62
    4
 10
125.54396167008906
 20
55.031648333333266
 11
126.20971500342239
 21
55.066539999999947
  0
LINE
  8
_1-8_小物
  6
CONTINUOUS
 62
    4
 10
126.12248833675585
 20
56.730921666666518
 11
126.15737833675576
 21
56.065169999999995
  0
LINE
  8
_1-8_小物
  6
CONTINUOUS
 62
    4
 10
125.42184500342228
 20
57.361784999999827
 11
125.45673500342252
 21
56.696031666666528
  0
LINE
  8
_1-8_小物
  6
CONTINUOUS
 62
    4
 10
125.45673500342252
 20
56.696031666666528
 11
126.12248833675585
 21
56.730921666666518
  0
LINE
  8
_1-8_小物
  6
CONTINUOUS
 62
    4
 10
126.0019700034224
 20
57.666666666666657
 11
125.42184500342228
 21
57.361784999999827
  0
LINE
  8
_1-8_小物
  6
CONTINUOUS
 62
    4
 10
122.86587833675583
 20
50.073391666666566
 11
122.83098833675592
 21
49.407638333333267
  0
LINE
  8
_1-8_小物
  6
CONTINUOUS
 62
    4
 10
122.91821500342246
 20
51.072021666666529
 11
123.56652167008906
 21
50.704254999999876
  0
LINE
  8
_1-8_小物
  6
CONTINUOUS
 62
    4
 10
123.56652167008906
 20
50.704254999999876
 11
123.53163167008887
 21
50.038501666666576
  0
LINE
  8
_1-8_小物
  6
CONTINUOUS
 62
    4
 10
123.53163167008887
 20
50.038501666666576
 11
122.86587833675583
 21
50.073391666666566
  0
LINE
  8
_1-8_小物
  6
CONTINUOUS
 62
    4
 10
122.95310500342265
 20
51.737774999999971
 11
122.91821500342246
 21
51.072021666666529
  0
LINE
  8
_1-8_小物
  6
CONTINUOUS
 62
    4
 10
123.005441670089
 20
52.736403333333328
 11
123.6537483367556
 21
52.368636666666362
  0
LINE
  8
_1-8_小物
  6
CONTINUOUS
 62
    4
 10
123.6537483367556
 20
52.368636666666362
 11
123.61885833675603
 21
51.70288333333329
  0
LINE
  8
_1-8_小物
  6
CONTINUOUS
 62
    4
 10
123.61885833675603
 20
51.70288333333329
 11
122.95310500342265
 21
51.737774999999971
  0
LINE
  8
_1-8_小物
  6
CONTINUOUS
 62
    4
 10
123.0403316700889
 20
53.402156666666684
 11
123.005441670089
 21
52.736403333333328
  0
LINE
  8
_1-8_小物
  6
CONTINUOUS
 62
    4
 10
123.09266833675554
 20
54.400786666666363
 11
123.74097500342248
 21
54.033019999999993
  0
LINE
  8
_1-8_小物
  6
CONTINUOUS
 62
    4
 10
123.74097500342248
 20
54.033019999999993
 11
123.70608500342257
 21
53.367266666666637
  0
LINE
  8
_1-8_小物
  6
CONTINUOUS
 62
    4
 10
123.70608500342257
 20
53.367266666666637
 11
123.0403316700889
 21
53.402156666666684
  0
LINE
  8
_1-8_小物
  6
CONTINUOUS
 62
    4
 10
123.12755833675573
 20
55.066539999999947
 11
123.09266833675554
 21
54.400786666666363
  0
LINE
  8
_1-8_小物
  6
CONTINUOUS
 62
    4
 10
123.17989500342264
 20
56.065169999999995
 11
123.8282016700893
 21
55.697401666666565
  0
LINE
  8
_1-8_小物
  6
CONTINUOUS
 62
    4
 10
123.8282016700893
 20
55.697401666666565
 11
123.79331167008911
 21
55.031648333333266
  0
LINE
  8
_1-8_小物
  6
CONTINUOUS
 62
    4
 10
123.79331167008911
 20
55.031648333333266
 11
123.12755833675573
 21
55.066539999999947
  0
LINE
  8
_1-8_小物
  6
CONTINUOUS
 62
    4
 10
123.21478500342226
 20
56.730921666666518
 11
123.17989500342264
 21
56.065169999999995
  0
LINE
  8
_1-8_小物
  6
CONTINUOUS
 62
    4
 10
123.91542833675584
 20
57.361784999999827
 11
123.88053833675565
 21
56.696031666666528
  0
LINE
  8
_1-8_小物
  6
CONTINUOUS
 62
    4
 10
123.88053833675565
 20
56.696031666666528
 11
123.21478500342226
 21
56.730921666666518
  0
LINE
  8
_1-8_小物
  6
CONTINUOUS
 62
    4
 10
124.64886833675581
 20
49.686434999999847
 11
125.29343500342236
 21
50.258324999999928
  0
LINE
  8
_1-8_小物
  6
CONTINUOUS
 62
    4
 10
124.04548833675562
 20
50.289813333333313
 11
124.66863667008937
 21
49.666666666666515
  0
LINE
  8
_1-8_小物
  6
CONTINUOUS
 62
    4
 10
123.33530333675606
 20
57.666666666666657
 11
123.91542833675584
 21
57.361784999999827
  0
LINE
  8
_1-8_小物
  6
CONTINUOUS
 62
    4
 10
126.20971500342239
 20
55.066539999999947
 11
126.77483667008892
 21
56.619199999999779
  0
LINE
  8
_1-8_小物
  6
CONTINUOUS
 62
    4
 10
125.85498833675592
 20
55.066539999999947
 11
126.46160667008917
 21
56.733206666666547
  0
LINE
  8
_1-8_小物
  6
CONTINUOUS
 62
    4
 10
123.12755833675573
 20
55.066539999999947
 11
122.5624366700892
 21
56.619199999999779
  0
LINE
  8
_1-8_小物
  6
CONTINUOUS
 62
    4
 10
123.48228500342219
 20
55.066539999999947
 11
122.87566667008895
 21
56.733206666666547
  0
LINE
  8
_1-8_小物
  6
CONTINUOUS
 62
    4
 10
125.34121833675579
 20
49.346579999999818
 11
126.50628500342225
 21
49.407638333333267
  0
LINE
  8
_1-8_小物
  6
CONTINUOUS
 62
    4
 10
126.50628500342225
 20
49.407638333333267
 11
125.87542333675572
 21
48.706995000000006
  0
LINE
  8
_1-8_小物
  6
CONTINUOUS
 62
    4
 10
125.87542333675572
 20
48.706995000000006
 11
125.37610833675598
 21
48.680826666666462
  0
LINE
  8
_1-8_小物
  6
CONTINUOUS
 62
    4
 10
125.37610833675598
 20
48.680826666666462
 11
124.83530333675606
 21
58.999999999999773
  0
LINE
  8
_1-8_小物
  6
CONTINUOUS
 62
    4
 10
126.0019700034224
 20
57.666666666666657
 11
126.0019700034224
 21
58.999999999999773
  0
LINE
  8
_1-8_小物
  6
CONTINUOUS
 62
    4
 10
123.99605500342238
 20
49.346579999999818
 11
122.83098833675592
 21
49.407638333333267
  0
LINE
  8
_1-8_小物
  6
CONTINUOUS
 62
    4
 10
122.83098833675592
 20
49.407638333333267
 11
123.46185000342246
 21
48.706995000000006
  0
LINE
  8
_1-8_小物
  6
CONTINUOUS
 62
    4
 10
123.46185000342246
 20
48.706995000000006
 11
123.96116500342248
 21
48.680826666666462
  0
LINE
  8
_1-8_小物
  6
CONTINUOUS
 62
    4
 10
123.96116500342248
 20
48.680826666666462
 11
124.5019700034224
 21
58.999999999999773
  0
LINE
  8
_1-8_小物
  6
CONTINUOUS
 62
    4
 10
123.33530333675606
 20
57.666666666666657
 11
123.33530333675606
 21
58.999999999999773
  0
LINE
  8
_1-8_小物
  6
CONTINUOUS
 62
    4
 10
122.5624366700892
 20
56.619199999999779
 11
122.23165167008909
 21
58.887073333333461
  0
ARC
  8
_1-8_小物
  6
CONTINUOUS
 62
    4
 10
122.36358833675575
 20
58.906318333333274
 40
0.1333333333333333
 50
98.130101999965902
 51
188.29846600001281
  0
LINE
  8
_1-8_小物
  6
CONTINUOUS
 62
    4
 10
122.34473167008889
 20
59.038311666666601
 11
122.4103400034225
 21
59.047683333333367
  0
ARC
  8
_1-8_小物
  6
CONTINUOUS
 62
    4
 10
122.42919667008937
 20
58.915689999999955
 40
0.1333333333333333
 50
8.1301020000280779
 51
98.13010200021462
  0
LINE
  8
_1-8_小物
  6
CONTINUOUS
 62
    4
 10
122.5611900034225
 20
58.934546666666535
 11
122.87566667008895
 21
56.733206666666547
  0
LINE
  8
_1-8_小物
  6
CONTINUOUS
 62
    4
 10
126.77483667008892
 20
56.619199999999779
 11
127.10562167008902
 21
58.887073333333461
  0
ARC
  8
_1-8_小物
  6
CONTINUOUS
 62
    4
 10
126.97368500342236
 20
58.906318333333274
 40
0.1333333333333333
 50
351.70153399996656
 51
81.869898000034084
  0
LINE
  8
_1-8_小物
  6
CONTINUOUS
 62
    4
 10
126.99254000342233
 20
59.038311666666601
 11
126.92693333675561
 21
59.047683333333367
  0
ARC
  8
_1-8_小物
  6
CONTINUOUS
 62
    4
 10
126.90807667008937
 20
58.915689999999955
 40
0.1333333333333333
 50
81.869898000058299
 51
171.86989799997193
  0
LINE
  8
_1-8_小物
  6
CONTINUOUS
 62
    4
 10
126.77608333675562
 20
58.934546666666535
 11
126.46160667008917
 21
56.733206666666547
  0
LINE
  8
_1-8_小物
  6
CONTINUOUS
 62
    4
 10
126.77483667008892
 20
56.619199999999779
 11
127.10562167008902
 21
58.887073333333461
  0
ARC
  8
_1-8_小物
  6
CONTINUOUS
 62
    4
 10
126.97368500342236
 20
58.906318333333274
 40
0.1333333333333333
 50
351.70153399996656
 51
81.869898000034084
  0
LINE
  8
_1-8_小物
  6
CONTINUOUS
 62
    4
 10
126.99254000342233
 20
59.038311666666601
 11
126.92693333675561
 21
59.047683333333367
  0
ARC
  8
_1-8_小物
  6
CONTINUOUS
 62
    4
 10
126.90807667008937
 20
58.915689999999955
 40
0.1333333333333333
 50
81.869898000058299
 51
171.86989799997193
  0
LINE
  8
_1-8_小物
  6
CONTINUOUS
 62
    4
 10
126.77608333675562
 20
58.934546666666535
 11
126.46160667008917
 21
56.733206666666547
  0
LINE
  8
_1-8_小物
  6
CONTINUOUS
 62
    4
 10
126.33530333675606
 20
61.666666666666657
 11
126.0019700034224
 21
60
  0
LINE
  8
_1-8_小物
  6
CONTINUOUS
 62
    4
 10
126.0019700034224
 20
61.666666666666657
 11
126.0019700034224
 21
58.999999999999773
  0
LINE
  8
_1-8_小物
  6
CONTINUOUS
 62
    4
 10
124.83530333675606
 20
58.999999999999773
 11
124.66863667008937
 21
58.999999999999773
  0
LINE
  8
_1-8_小物
  6
CONTINUOUS
 62
    4
 10
124.66863667008937
 20
60
 11
124.66863667008937
 21
61.666666666666657
  0
LINE
  8
_1-8_小物
  6
CONTINUOUS
 62
    4
 10
125.0019700034224
 20
61.666666666666657
 11
124.66863667008937
 21
60
  0
LINE
  8
_1-8_小物
  6
CONTINUOUS
 62
    4
 10
124.33530333675571
 20
61.666666666666657
 11
124.66863667008937
 21
60
  0
LINE
  8
_1-8_小物
  6
CONTINUOUS
 62
    4
 10
123.00197000342268
 20
61.666666666666657
 11
123.33530333675606
 21
60
  0
LINE
  8
_1-8_小物
  6
CONTINUOUS
 62
    4
 10
123.33530333675606
 20
61.666666666666657
 11
123.33530333675606
 21
58.999999999999773
  0
LINE
  8
_1-8_小物
  6
CONTINUOUS
 62
    4
 10
124.5019700034224
 20
58.999999999999773
 11
124.66863667008937
 21
58.999999999999773
  0
LINE
  8
_1-8_小物
  6
CONTINUOUS
 62
    4
 10
126.33530333675606
 20
61.666666666666657
 11
123.00197000342268
 21
61.666666666666657
  0
ENDBLK
  0
BLOCK
  2
-020-_20_
 70
   64
 10
0
 20
0
 30
0
  0
ARC
  8
_1-4_フレ__ム
  6
CONTINUOUS
 62
    4
 10
94.835303416222075
 20
61.666666666666799
 40
0.5
 50
90
 51
180
  0
LINE
  8
_1-4_フレ__ム
  6
CONTINUOUS
 62
    4
 10
124.66863674955539
 20
62.066666666666748
 11
124.56863674955565
 21
62.166666666666799
  0
LINE
  8
_1-4_フレ__ム
  6
CONTINUOUS
 62
    4
 10
124.76863674955609
 20
62.166666666666799
 11
124.66863674955539
 21
62.066666666666748
  0
LINE
  8
_1-4_フレ__ム
  6
CONTINUOUS
 62
    4
 10
94.335303416222359
 20
61.666666666666799
 11
129.66863674955539
 21
61.666666666666799
  0
LINE
  8
_1-4_フレ__ム
  6
CONTINUOUS
 62
    4
 10
129.66863667008863
 20
61.666666685666826
 11
130.66863665108866
 21
62.666666666666771
  0
LINE
  8
_1-4_フレ__ム
  6
CONTINUOUS
 62
    4
 10
130.66863665108866
 20
62.666666666666771
 11
129.96152986990205
 21
62.666666666666771
  0
LINE
  8
_1-4_フレ__ム
  6
CONTINUOUS
 62
    4
 10
129.46152986990205
 20
62.166666666666799
 11
129.96152986990205
 21
62.666666666666771
  0
LINE
  8
_1-4_フレ__ム
  6
CONTINUOUS
 62
    4
 10
129.46152986990205
 20
62.166666666666799
 11
124.76863674955609
 21
62.166666666666799
  0
LINE
  8
_1-4_フレ__ム
  6
CONTINUOUS
 62
    4
 10
116.43054151146009
 20
63.400000000000091
 11
116.43054151146009
 21
63.566666666666748
  0
ARC
  8
_1-4_フレ__ム
  6
CONTINUOUS
 62
    4
 10
116.09720817812672
 20
63.400000000000091
 40
0.3333333333333333
 50
270
 51
0
  0
LINE
  8
_1-4_フレ__ム
  6
CONTINUOUS
 62
    4
 10
116.09720817812672
 20
63.066666666666748
 11
115.26670397438846
 21
63.066666666666748
  0
ARC
  8
_1-4_フレ__ム
  6
CONTINUOUS
 62
    4
 10
115.26670397438846
 20
62.900000000000091
 40
0.1666666666666666
 50
90
 51
150.94539590093427
  0
LINE
  8
_1-4_フレ__ム
  6
CONTINUOUS
 62
    4
 10
124.56863674955565
 20
62.166666666666799
 11
114.95188915957368
 21
62.166666666666799
  0
ARC
  8
_1-4_フレ__ム
  6
CONTINUOUS
 62
    4
 10
114.95188915957368
 20
62.333333333333485
 40
0.1666666666666666
 50
150.94539590093427
 51
270
  0
LINE
  8
_1-4_フレ__ム
  6
CONTINUOUS
 62
    4
 10
116.43054151146009
 20
63.566666666666748
 11
115.07056952472237
 21
63.566666666666748
  0
ARC
  8
_1-4_フレ__ム
  6
CONTINUOUS
 62
    4
 10
115.07056952472237
 20
63.233333333333405
 40
0.3333333333333333
 50
90
 51
150.94539590092143
  0
LINE
  8
_1-4_フレ__ム
  6
CONTINUOUS
 62
    4
 10
114.19190860631932
 20
62.338119022940589
 11
114.77918376601514
 21
63.395214310392959
  0
LINE
  8
_1-4_フレ__ム
  6
CONTINUOUS
 62
    4
 10
113.90052284761214
 20
62.166666666666799
 11
94.835303416222075
 21
62.166666666666799
  0
ARC
  8
_1-4_フレ__ム
  6
CONTINUOUS
 62
    4
 10
113.90052284761214
 20
62.500000000000142
 40
0.3333333333333333
 50
270
 51
330.94539590092143
  0
LINE
  8
_1-4_フレ__ム
  6
CONTINUOUS
 62
    4
 10
114.80619628022009
 20
62.414273821863276
 11
115.12101109503487
 21
62.980940488529882
  0
LINE
  8
_1-4_フレ__ム
  6
CENTER2
 62
    4
 10
124.66863674955584
 20
63.833333333333485
 11
124.66863674955584
 21
60.000000000000142
  0
LINE
  8
_1-4_フレ__ム
  6
DASHED1
 62
    4
 10
127.16863674955584
 20
62.166666666666799
 11
127.16863674955584
 21
61.666666666666799
  0
LINE
  8
_1-4_フレ__ム
  6
DASHED1
 62
    4
 10
122.16863674955584
 20
62.166666666666799
 11
122.16863674955584
 21
61.666666666666799
  0
ENDBLK
  0
BLOCK
  2
-021-_21_
 70
   64
 10
0
 20
0
 30
0
  0
LINE
  8
_1-8_小物
  6
CONTINUOUS
 62
    4
 10
127.66863674955601
 20
62.666666666666799
 11
121.66863674955573
 21
62.666666666666799
  0
LINE
  8
_1-8_小物
  6
CONTINUOUS
 62
    4
 10
127.66863674955601
 20
62.166666666666799
 11
121.66863674955573
 21
62.166666666666799
  0
LINE
  8
_1-8_小物
  6
CONTINUOUS
 62
    4
 10
127.66863674955601
 20
62.666666666666799
 11
127.66863674955601
 21
62.166666666666799
  0
LINE
  8
_1-8_小物
  6
CONTINUOUS
 62
    4
 10
121.66863674955573
 20
62.666666666666799
 11
121.66863674955573
 21
62.166666666666799
  0
LINE
  8
_1-8_小物
  6
CONTINUOUS
 62
    4
 10
126.16863674955601
 20
62.666666666666799
 11
126.13233248828919
 21
63.081626271666835
  0
LINE
  8
_1-8_小物
  6
CONTINUOUS
 62
    4
 10
123.20494101078918
 20
63.081626271666835
 11
123.16863674955601
 21
62.666666666666799
  0
ARC
  8
_1-8_小物
  6
CONTINUOUS
 62
    4
 10
123.53368526118891
 20
63.05286487656673
 40
0.3299999999999999
 50
127.36755803205445
 51
175.00000000119914
  0
ARC
  8
_1-8_小物
  6
CONTINUOUS
 62
    4
 10
125.80358823792255
 20
63.05286487656673
 40
0.3299999999999999
 50
4.9999999988017167
 51
52.632441967934717
  0
ARC
  8
_1-8_小物
  6
CONTINUOUS
 62
    4
 10
124.66863674955573
 20
61.566666666666777
 40
2.1999999999999997
 50
52.632441967705518
 51
68.26638354339913
  0
ARC
  8
_1-8_小物
  6
CONTINUOUS
 62
    4
 10
124.66863674955573
 20
61.566666666666777
 40
2.1999999999999997
 50
111.74840859090097
 51
127.36755803230307
  0
LINE
  8
_1-8_小物
  6
CONTINUOUS
 62
    4
 10
124.77363674955586
 20
63.753042376533529
 11
124.77363674955586
 21
63.60777074653339
  0
LINE
  8
_1-8_小物
  6
CONTINUOUS
 62
    4
 10
124.88939964352284
 20
63.753042376533529
 11
124.77363674955586
 21
63.753042376533529
  0
LINE
  8
_1-8_小物
  6
CONTINUOUS
 62
    4
 10
125.48280450572247
 20
63.60777074653339
 11
124.88939964352284
 21
63.753042376533529
  0
LINE
  8
_1-8_小物
  6
CONTINUOUS
 62
    4
 10
124.44787385555583
 20
63.753042376533529
 11
124.01457043298905
 21
63.664563769400218
  0
LINE
  8
_1-8_小物
  6
CONTINUOUS
 62
    4
 10
124.01457043298905
 20
63.664563769400218
 11
123.85446899335619
 21
63.60777074653339
  0
LINE
  8
_1-8_小物
  6
CONTINUOUS
 62
    4
 10
124.56363674955583
 20
63.753042376533529
 11
124.44787385555583
 21
63.753042376533529
  0
LINE
  8
_1-8_小物
  6
CONTINUOUS
 62
    4
 10
124.56363674955583
 20
63.60777074653339
 11
124.56363674955583
 21
63.753042376533529
  0
LINE
  8
_1-8_小物
  6
CONTINUOUS
 62
    4
 10
124.77363674955586
 20
63.60777074653339
 11
124.66863674955573
 21
63.609472471333504
  0
LINE
  8
_1-8_小物
  6
CONTINUOUS
 62
    4
 10
124.66863674955573
 20
63.609472471333504
 11
124.56363674955583
 21
63.60777074653339
  0
LINE
  8
_1-8_小物
  6
CONTINUOUS
 62
    4
 10
126.13233248828919
 20
63.081626271666835
 11
123.20494101078918
 21
63.081626271666835
  0
LINE
  8
_1-8_小物
  6
CONTINUOUS
 62
    4
 10
124.66863674955573
 20
63.315135148900197
 11
123.33339970438908
 21
63.315135148900197
  0
LINE
  8
_1-8_小物
  6
CONTINUOUS
 62
    4
 10
126.0038737946893
 20
63.315135148900197
 11
124.66863674955573
 21
63.315135148900197
  0
ENDBLK
  0
BLOCK
  2
-022-_22_
 70
   64
 10
0
 20
0
 30
0
  0
LINE
  8
_1-8_小物
  6
CONTINUOUS
 62
    4
 10
34.742028336755311
 20
71.197241746133272
 11
34.07627500342204
 21
71.162351746133652
  0
LINE
  8
_1-8_小物
  6
CONTINUOUS
 62
    4
 10
35.740658336755303
 20
71.24957841280019
 11
35.37289167008862
 21
71.897885079466846
  0
LINE
  8
_1-8_小物
  6
CONTINUOUS
 62
    4
 10
35.37289167008862
 20
71.897885079466846
 11
34.707138336755349
 21
71.862995079466629
  0
LINE
  8
_1-8_小物
  6
CONTINUOUS
 62
    4
 10
34.707138336755349
 20
71.862995079466629
 11
34.742028336755311
 21
71.197241746133272
  0
LINE
  8
_1-8_小物
  6
CONTINUOUS
 62
    4
 10
36.406411670088744
 20
71.284468412800095
 11
35.740658336755303
 21
71.24957841280019
  0
LINE
  8
_1-8_小物
  6
CONTINUOUS
 62
    4
 10
37.405040003422073
 20
71.336805079466728
 11
37.037273336755106
 21
71.985111746133668
  0
LINE
  8
_1-8_小物
  6
CONTINUOUS
 62
    4
 10
37.037273336755106
 20
71.985111746133668
 11
36.371520003422063
 21
71.950221746133479
  0
LINE
  8
_1-8_小物
  6
CONTINUOUS
 62
    4
 10
36.371520003422063
 20
71.950221746133479
 11
36.406411670088744
 21
71.284468412800095
  0
LINE
  8
_1-8_小物
  6
CONTINUOUS
 62
    4
 10
38.070793336755457
 20
71.371695079466946
 11
37.405040003422073
 21
71.336805079466728
  0
LINE
  8
_1-8_小物
  6
CONTINUOUS
 62
    4
 10
39.069423336755108
 20
71.424031746133267
 11
38.701656670088767
 21
72.072338412799922
  0
LINE
  8
_1-8_小物
  6
CONTINUOUS
 62
    4
 10
38.701656670088767
 20
72.072338412799922
 11
38.035903336755382
 21
72.037448412800302
  0
LINE
  8
_1-8_小物
  6
CONTINUOUS
 62
    4
 10
38.035903336755382
 20
72.037448412800302
 11
38.070793336755457
 21
71.371695079466946
  0
LINE
  8
_1-8_小物
  6
CONTINUOUS
 62
    4
 10
39.73517667008872
 20
71.458921746133484
 11
39.069423336755108
 21
71.424031746133267
  0
LINE
  8
_1-8_小物
  6
CONTINUOUS
 62
    4
 10
40.733806670088768
 20
71.511258412800117
 11
40.36603833675531
 21
72.159565079466745
  0
LINE
  8
_1-8_小物
  6
CONTINUOUS
 62
    4
 10
40.36603833675531
 20
72.159565079466745
 11
39.700285003422039
 21
72.12467507946684
  0
LINE
  8
_1-8_小物
  6
CONTINUOUS
 62
    4
 10
39.700285003422039
 20
72.12467507946684
 11
39.73517667008872
 21
71.458921746133484
  0
LINE
  8
_1-8_小物
  6
CONTINUOUS
 62
    4
 10
41.399558336755263
 20
71.546148412800022
 11
40.733806670088768
 21
71.511258412800117
  0
LINE
  8
_1-8_小物
  6
CONTINUOUS
 62
    4
 10
42.030421670088572
 20
72.246791746133596
 11
41.364668336755301
 21
72.211901746133378
  0
LINE
  8
_1-8_小物
  6
CONTINUOUS
 62
    4
 10
41.364668336755301
 20
72.211901746133378
 11
41.399558336755263
 21
71.546148412800022
  0
LINE
  8
_1-8_小物
  6
CONTINUOUS
 62
    4
 10
42.33530333675543
 20
71.666666746133501
 11
42.030421670088572
 21
72.246791746133596
  0
LINE
  8
_1-8_小物
  6
CONTINUOUS
 62
    4
 10
34.742028336755311
 20
74.802758412800074
 11
34.07627500342204
 21
74.837648412799979
  0
LINE
  8
_1-8_小物
  6
CONTINUOUS
 62
    4
 10
35.740658336755303
 20
74.750421746133441
 11
35.37289167008862
 21
74.102115079466813
  0
LINE
  8
_1-8_小物
  6
CONTINUOUS
 62
    4
 10
35.37289167008862
 20
74.102115079466813
 11
34.707138336755349
 21
74.137005079467031
  0
LINE
  8
_1-8_小物
  6
CONTINUOUS
 62
    4
 10
34.707138336755349
 20
74.137005079467031
 11
34.742028336755311
 21
74.802758412800074
  0
LINE
  8
_1-8_小物
  6
CONTINUOUS
 62
    4
 10
36.406411670088744
 20
74.715531746133252
 11
35.740658336755303
 21
74.750421746133441
  0
LINE
  8
_1-8_小物
  6
CONTINUOUS
 62
    4
 10
37.405040003422073
 20
74.663195079466902
 11
37.037273336755106
 21
74.014888412800275
  0
LINE
  8
_1-8_小物
  6
CONTINUOUS
 62
    4
 10
37.037273336755106
 20
74.014888412800275
 11
36.371520003422063
 21
74.049778412799867
  0
LINE
  8
_1-8_小物
  6
CONTINUOUS
 62
    4
 10
36.371520003422063
 20
74.049778412799867
 11
36.406411670088744
 21
74.715531746133252
  0
LINE
  8
_1-8_小物
  6
CONTINUOUS
 62
    4
 10
38.070793336755457
 20
74.628305079466998
 11
37.405040003422073
 21
74.663195079466902
  0
LINE
  8
_1-8_小物
  6
CONTINUOUS
 62
    4
 10
39.069423336755108
 20
74.575968412800364
 11
38.701656670088767
 21
73.927661746133424
  0
LINE
  8
_1-8_小物
  6
CONTINUOUS
 62
    4
 10
38.701656670088767
 20
73.927661746133424
 11
38.035903336755382
 21
73.962551746133329
  0
LINE
  8
_1-8_小物
  6
CONTINUOUS
 62
    4
 10
38.035903336755382
 20
73.962551746133329
 11
38.070793336755457
 21
74.628305079466998
  0
LINE
  8
_1-8_小物
  6
CONTINUOUS
 62
    4
 10
39.73517667008872
 20
74.541078412800175
 11
39.069423336755108
 21
74.575968412800364
  0
LINE
  8
_1-8_小物
  6
CONTINUOUS
 62
    4
 10
40.733806670088768
 20
74.488741746133229
 11
40.36603833675531
 21
73.840435079466602
  0
LINE
  8
_1-8_小物
  6
CONTINUOUS
 62
    4
 10
40.36603833675531
 20
73.840435079466602
 11
39.700285003422039
 21
73.875325079466791
  0
LINE
  8
_1-8_小物
  6
CONTINUOUS
 62
    4
 10
39.700285003422039
 20
73.875325079466791
 11
39.73517667008872
 21
74.541078412800175
  0
LINE
  8
_1-8_小物
  6
CONTINUOUS
 62
    4
 10
41.399558336755263
 20
74.453851746133637
 11
40.733806670088768
 21
74.488741746133229
  0
LINE
  8
_1-8_小物
  6
CONTINUOUS
 62
    4
 10
42.030421670088572
 20
73.753208412800063
 11
41.364668336755301
 21
73.788098412800252
  0
LINE
  8
_1-8_小物
  6
CONTINUOUS
 62
    4
 10
41.364668336755301
 20
73.788098412800252
 11
41.399558336755263
 21
74.453851746133637
  0
LINE
  8
_1-8_小物
  6
CONTINUOUS
 62
    4
 10
34.355071670088591
 20
73.01976841280009
 11
34.926961670088701
 21
72.375201746133541
  0
LINE
  8
_1-8_小物
  6
CONTINUOUS
 62
    4
 10
34.958450003422058
 20
73.623148412800248
 11
34.33530333675526
 21
73.000000079466531
  0
LINE
  8
_1-8_小物
  6
CONTINUOUS
 62
    4
 10
42.33530333675543
 20
74.333333412799846
 11
42.030421670088572
 21
73.753208412800063
  0
LINE
  8
_1-8_小物
  6
CONTINUOUS
 62
    4
 10
39.73517667008872
 20
71.458921746133484
 11
41.287836670088552
 21
70.893800079466956
  0
LINE
  8
_1-8_小物
  6
CONTINUOUS
 62
    4
 10
39.73517667008872
 20
71.813648412799949
 11
41.401843336755292
 21
71.207030079466705
  0
LINE
  8
_1-8_小物
  6
CONTINUOUS
 62
    4
 10
39.73517667008872
 20
74.541078412800175
 11
41.287836670088552
 21
75.106200079466703
  0
LINE
  8
_1-8_小物
  6
CONTINUOUS
 62
    4
 10
39.73517667008872
 20
74.18635174613371
 11
41.401843336755292
 21
74.792970079466954
  0
LINE
  8
_1-8_小物
  6
CONTINUOUS
 62
    4
 10
34.015216670088591
 20
72.327418412800114
 11
34.07627500342204
 21
71.162351746133652
  0
LINE
  8
_1-8_小物
  6
CONTINUOUS
 62
    4
 10
34.07627500342204
 20
71.162351746133652
 11
33.375631670088751
 21
71.793213412800185
  0
LINE
  8
_1-8_小物
  6
CONTINUOUS
 62
    4
 10
33.375631670088751
 20
71.793213412800185
 11
33.349463336755207
 21
72.292528412799925
  0
LINE
  8
_1-8_小物
  6
CONTINUOUS
 62
    4
 10
33.349463336755207
 20
72.292528412799925
 11
43.668636670088517
 21
72.833333412799846
  0
LINE
  8
_1-8_小物
  6
CONTINUOUS
 62
    4
 10
42.33530333675543
 20
71.666666746133501
 11
43.668636670088517
 21
71.666666746133501
  0
LINE
  8
_1-8_小物
  6
CONTINUOUS
 62
    4
 10
34.015216670088591
 20
73.672581746133517
 11
34.07627500342204
 21
74.837648412799979
  0
LINE
  8
_1-8_小物
  6
CONTINUOUS
 62
    4
 10
34.07627500342204
 20
74.837648412799979
 11
33.375631670088751
 21
74.206786746133446
  0
LINE
  8
_1-8_小物
  6
CONTINUOUS
 62
    4
 10
33.375631670088751
 20
74.206786746133446
 11
33.349463336755207
 21
73.707471746133422
  0
LINE
  8
_1-8_小物
  6
CONTINUOUS
 62
    4
 10
33.349463336755207
 20
73.707471746133422
 11
43.668636670088517
 21
73.166666746133501
  0
LINE
  8
_1-8_小物
  6
CONTINUOUS
 62
    4
 10
42.33530333675543
 20
74.333333412799846
 11
43.668636670088517
 21
74.333333412799846
  0
LINE
  8
_1-8_小物
  6
CONTINUOUS
 62
    4
 10
41.287836670088552
 20
75.106200079466703
 11
43.555710003422234
 21
75.436985079466808
  0
ARC
  8
_1-8_小物
  6
CONTINUOUS
 62
    4
 10
43.574955003422019
 20
75.305048412800147
 40
0.1333333333333333
 50
8.1301019999538067
 51
98.298466000012823
  0
LINE
  8
_1-8_小物
  6
CONTINUOUS
 62
    4
 10
43.706948336755374
 20
75.323905079467011
 11
43.71632000342214
 21
75.258296746133396
  0
ARC
  8
_1-8_小物
  6
CONTINUOUS
 62
    4
 10
43.584326670088728
 20
75.239440079466505
 40
0.1333333333333333
 50
278.1301020000281
 51
8.1301020002249516
  0
LINE
  8
_1-8_小物
  6
CONTINUOUS
 62
    4
 10
43.603183336755308
 20
75.107446746133405
 11
41.401843336755292
 21
74.792970079466954
  0
LINE
  8
_1-8_小物
  6
CONTINUOUS
 62
    4
 10
41.287836670088552
 20
70.893800079466956
 11
43.555710003422234
 21
70.563015079466851
  0
ARC
  8
_1-8_小物
  6
CONTINUOUS
 62
    4
 10
43.574955003422019
 20
70.694951746133512
 40
0.1333333333333333
 50
261.70153399996479
 51
351.86989800004619
  0
LINE
  8
_1-8_小物
  6
CONTINUOUS
 62
    4
 10
43.706948336755374
 20
70.676096746133567
 11
43.71632000342214
 21
70.741703412800263
  0
ARC
  8
_1-8_小物
  6
CONTINUOUS
 62
    4
 10
43.584326670088728
 20
70.760560079466529
 40
0.1333333333333333
 50
351.86989800004795
 51
81.869897999971897
  0
LINE
  8
_1-8_小物
  6
CONTINUOUS
 62
    4
 10
43.603183336755308
 20
70.892553412800254
 11
41.401843336755292
 21
71.207030079466705
  0
LINE
  8
_1-8_小物
  6
CONTINUOUS
 62
    4
 10
41.287836670088552
 20
70.893800079466956
 11
43.555710003422234
 21
70.563015079466851
  0
ARC
  8
_1-8_小物
  6
CONTINUOUS
 62
    4
 10
43.574955003422019
 20
70.694951746133512
 40
0.1333333333333333
 50
261.70153399996479
 51
351.86989800004619
  0
LINE
  8
_1-8_小物
  6
CONTINUOUS
 62
    4
 10
43.706948336755374
 20
70.676096746133567
 11
43.71632000342214
 21
70.741703412800263
  0
ARC
  8
_1-8_小物
  6
CONTINUOUS
 62
    4
 10
43.584326670088728
 20
70.760560079466529
 40
0.1333333333333333
 50
351.86989800004795
 51
81.869897999971897
  0
LINE
  8
_1-8_小物
  6
CONTINUOUS
 62
    4
 10
43.603183336755308
 20
70.892553412800254
 11
41.401843336755292
 21
71.207030079466705
  0
LINE
  8
_1-8_小物
  6
CONTINUOUS
 62
    4
 10
46.33530333675543
 20
71.333333412799846
 11
44.668636670088745
 21
71.666666746133501
  0
LINE
  8
_1-8_小物
  6
CONTINUOUS
 62
    4
 10
46.33530333675543
 20
71.666666746133501
 11
43.668636670088517
 21
71.666666746133501
  0
LINE
  8
_1-8_小物
  6
CONTINUOUS
 62
    4
 10
43.668636670088517
 20
72.833333412799846
 11
43.668636670088517
 21
73.000000079466531
  0
LINE
  8
_1-8_小物
  6
CONTINUOUS
 62
    4
 10
44.668636670088745
 20
73.000000079466531
 11
46.33530333675543
 21
73.000000079466531
  0
LINE
  8
_1-8_小物
  6
CONTINUOUS
 62
    4
 10
46.33530333675543
 20
72.666666746133501
 11
44.668636670088745
 21
73.000000079466531
  0
LINE
  8
_1-8_小物
  6
CONTINUOUS
 62
    4
 10
46.33530333675543
 20
73.333333412800158
 11
44.668636670088745
 21
73.000000079466531
  0
LINE
  8
_1-8_小物
  6
CONTINUOUS
 62
    4
 10
46.33530333675543
 20
74.666666746133188
 11
44.668636670088745
 21
74.333333412799846
  0
LINE
  8
_1-8_小物
  6
CONTINUOUS
 62
    4
 10
46.33530333675543
 20
74.333333412799846
 11
43.668636670088517
 21
74.333333412799846
  0
LINE
  8
_1-8_小物
  6
CONTINUOUS
 62
    4
 10
43.668636670088517
 20
73.166666746133501
 11
43.668636670088517
 21
73.000000079466531
  0
LINE
  8
_1-8_小物
  6
CONTINUOUS
 62
    4
 10
46.33530333675543
 20
71.333333412799846
 11
46.33530333675543
 21
74.666666746133188
  0
ENDBLK
  0
BLOCK
  2
-023-_23_
 70
   64
 10
0
 20
0
 30
0
  0
LINE
  8
_1-4_フレ__ム
  6
CONTINUOUS
 62
    4
 10
47.335303336755373
 20
73.10000007946644
 11
47.235303336755919
 21
73.000000079466531
  0
LINE
  8
_1-4_フレ__ム
  6
CONTINUOUS
 62
    4
 10
47.235303336755919
 20
73.000000079466531
 11
47.335303336755771
 21
72.900000079466224
  0
LINE
  8
_1-4_フレ__ム
  6
CONTINUOUS
 62
    4
 10
47.335303336755771
 20
68.333333412800073
 11
47.335303336755771
 21
72.900000079466224
  0
LINE
  8
_1-4_フレ__ム
  6
CONTINUOUS
 62
    4
 10
47.335303336755373
 20
78.333333412799789
 11
47.335303336755373
 21
73.10000007946644
  0
ARC
  8
_1-4_フレ__ム
  6
CONTINUOUS
 62
    4
 10
49.101969999056394
 20
80.000000079466304
 40
0.1666666666666666
 50
270
 51
90
  0
LINE
  8
_1-4_フレ__ム
  6
CONTINUOUS
 62
    4
 10
49.001969999056428
 20
79.833333412799618
 11
49.001969999056428
 21
76.666666746133103
  0
LINE
  8
_1-4_フレ__ム
  6
CONTINUOUS
 62
    4
 10
48.501969999056428
 20
80.166666746132961
 11
49.101969999056394
 21
80.166666746132961
  0
LINE
  8
_1-4_フレ__ム
  6
CONTINUOUS
 62
    4
 10
48.501969999056428
 20
76.666666746133103
 11
49.001969999056428
 21
76.666666746133103
  0
LINE
  8
_1-4_フレ__ム
  6
CONTINUOUS
 62
    4
 10
48.501969999056428
 20
78.333333412799789
 11
47.335303336755373
 21
78.333333412799789
  0
LINE
  8
_1-4_フレ__ム
  6
CONTINUOUS
 62
    4
 10
48.501969999056428
 20
78.333333412799789
 11
48.501969999056428
 21
76.666666746133103
  0
LINE
  8
_1-4_フレ__ム
  6
CONTINUOUS
 62
    4
 10
48.501969999056428
 20
80.166666746132961
 11
48.501969999056428
 21
79.333333412799789
  0
ARC
  8
_1-4_フレ__ム
  6
CONTINUOUS
 62
    4
 10
47.668636670089256
 20
66.000000079466446
 40
0.1666666666666666
 50
180
 51
270
  0
ARC
  8
_1-4_フレ__ム
  6
CONTINUOUS
 62
    4
 10
47.48530333675626
 20
64.516666746133097
 40
0.4833333333332726
 50
270
 51
90
  0
ARC
  8
_1-4_フレ__ム
  6
CONTINUOUS
 62
    4
 10
47.968636670089381
 20
64.100000079466582
 40
0.5999999999999999
 50
270
 51
0
  0
LINE
  8
_1-4_フレ__ム
  6
CONTINUOUS
 62
    4
 10
46.668636670088802
 20
63.866666746133092
 11
46.668636670088802
 21
63.766666746133183
  0
LINE
  8
_1-4_フレ__ム
  6
CONTINUOUS
 62
    4
 10
47.48530333675626
 20
64.033333412799834
 11
46.835303336755715
 21
64.033333412799749
  0
ARC
  8
_1-4_フレ__ム
  6
CONTINUOUS
 62
    4
 10
46.835303336755715
 20
63.866666746133092
 40
0.1666666666666666
 50
90
 51
180
  0
ARC
  8
_1-4_フレ__ム
  6
CONTINUOUS
 62
    4
 10
46.935303336755908
 20
63.766666746133183
 40
0.2666666666666667
 50
180
 51
270
  0
LINE
  8
_1-4_フレ__ム
  6
CONTINUOUS
 62
    4
 10
46.935303336755908
 20
63.500000079466474
 11
47.968636670089381
 21
63.500000079466531
  0
LINE
  8
_1-4_フレ__ム
  6
CONTINUOUS
 62
    4
 10
46.335303336755373
 20
65.000000079466531
 11
47.48530333675626
 21
65.000000079466531
  0
LINE
  8
_1-4_フレ__ム
  6
CONTINUOUS
 62
    4
 10
48.501969999056428
 20
79.333333412799789
 11
46.335303336755373
 21
79.333333412799789
  0
LINE
  8
_1-4_フレ__ム
  6
CONTINUOUS
 62
    4
 10
46.335303336755373
 20
65.000000079466531
 11
46.335303336755373
 21
79.333333412799789
  0
LINE
  8
_1-4_フレ__ム
  6
CONTINUOUS
 62
    4
 10
47.335303336755771
 20
68.333333412800073
 11
47.501970003422571
 21
68.333333412800073
  0
LINE
  8
_1-4_フレ__ム
  6
CONTINUOUS
 62
    4
 10
47.501970003422571
 20
66.000000079466446
 11
47.501970003422571
 21
68.333333412800073
  0
LINE
  8
_1-4_フレ__ム
  6
CONTINUOUS
 62
    4
 10
49.001969999056428
 20
79.833333412799618
 11
49.101969999056394
 21
79.833333412799618
  0
LINE
  8
_1-4_フレ__ム
  6
CENTER2
 62
    4
 10
48.501970003422116
 20
73.000000079466531
 11
44.668636670088745
 21
73.000000079466531
  0
LINE
  8
_1-4_フレ__ム
  6
CENTER2
 62
    4
 10
47.48530333675626
 20
64.516666746133097
 11
48.318636670089404
 21
64.516666746133097
  0
LINE
  8
_1-4_フレ__ム
  6
CENTER2
 62
    4
 10
47.48530333675626
 20
64.516666746133097
 11
47.48530333675626
 21
65.350000079466582
  0
LINE
  8
_1-4_フレ__ム
  6
CENTER2
 62
    4
 10
47.48530333675626
 20
64.516666746133097
 11
46.651970003422775
 21
64.516666746133097
  0
LINE
  8
_1-4_フレ__ム
  6
CENTER2
 62
    4
 10
47.48530333675626
 20
64.516666746133097
 11
47.48530333675626
 21
63.683333412799698
  0
LINE
  8
_1-4_フレ__ム
  6
DASHED1
 62
    4
 10
47.335303336755771
 20
75.500000079466815
 11
46.335303336755373
 21
75.500000079466815
  0
LINE
  8
_1-4_フレ__ム
  6
DASHED1
 62
    4
 10
47.335303336755771
 20
70.500000079466815
 11
46.335303336755373
 21
70.500000079466815
  0
LINE
  8
_1-4_フレ__ム
  6
DASHED1
 62
    4
 10
47.501970003422343
 20
66.833333412799846
 11
46.335303336755373
 21
66.833333412799846
  0
LINE
  8
_1-4_フレ__ム
  6
CONTINUOUS
 62
    4
 10
48.468636670089268
 20
65.833333412799931
 11
47.668636670089256
 21
65.833333412799931
  0
LINE
  8
_1-4_フレ__ム
  6
CONTINUOUS
 62
    4
 10
48.56863667008929
 20
64.100000079466582
 11
48.56863667008929
 21
65.733333412799908
  0
ARC
  8
_1-4_フレ__ム
  6
CONTINUOUS
 62
    4
 10
48.468636670089268
 20
65.733333412799908
 40
0.0999999999999999
 50
0
 51
90
  0
ENDBLK
  0
BLOCK
  2
-024-_24_
 70
   64
 10
0
 20
0
 30
0
  0
LINE
  8
_1-8_小物
  6
CONTINUOUS
 62
    4
 10
47.732283558613574
 20
66.627777860516517
 11
47.631276964966048
 21
66.714814897561212
  0
ARC
  8
_1-8_小物
  6
CONTINUOUS
 62
    4
 10
48.435303336756022
 20
63.633333412799857
 40
0.1333333333333333
 50
270
 51
359.99999849072555
  0
ARC
  8
_1-8_小物
  6
CONTINUOUS
 62
    4
 10
48.435303336756022
 20
63.633333412799857
 40
0.2666666666666666
 50
270
 51
359.99999849072555
  0
ARC
  8
_1-8_小物
  6
CONTINUOUS
 62
    4
 10
46.801970003422639
 20
63.633333412799857
 40
0.2666666666666666
 50
180
 51
270
  0
ARC
  8
_1-8_小物
  6
CONTINUOUS
 62
    4
 10
46.295958673855978
 20
64.366666746133205
 40
0.5
 50
323.03140579854858
 51
41.810314895802605
  0
ARC
  8
_1-8_小物
  6
CONTINUOUS
 62
    4
 10
46.801970003422639
 20
63.985794529466517
 40
0.1333333333333333
 50
143.03140197500721
 51
179.99999849072555
  0
LINE
  8
_1-8_小物
  6
CONTINUOUS
 62
    4
 10
46.535303336755987
 20
63.989425249633229
 11
46.535303336755987
 21
63.633333412799857
  0
ARC
  8
_1-8_小物
  6
CONTINUOUS
 62
    4
 10
46.801970003422639
 20
63.633333412799857
 40
0.1333333333333333
 50
180
 51
270
  0
ARC
  8
_1-8_小物
  6
CONTINUOUS
 62
    4
 10
46.252303470189361
 20
64.366666746133205
 40
0.3999999999999999
 50
325.5378114299408
 51
37.637863116799679
  0
LINE
  8
_1-8_小物
  6
CONTINUOUS
 62
    4
 10
46.668636670089313
 20
63.985794532966565
 11
46.668636670089313
 21
63.633333412799857
  0
ARC
  8
_1-8_小物
  6
CONTINUOUS
 62
    4
 10
46.801970003422639
 20
63.989425249633229
 40
0.2666666666666666
 50
145.53781142990746
 51
180
  0
LINE
  8
_1-8_小物
  6
CONTINUOUS
 62
    4
 10
46.668636670089313
 20
64.70000007946652
 11
46.569057975989324
 21
64.610934187833209
  0
LINE
  8
_1-8_小物
  6
CONTINUOUS
 62
    4
 10
46.801970003422639
 20
63.366666746133205
 11
48.435303336756022
 21
63.366666746133205
  0
LINE
  8
_1-8_小物
  6
CONTINUOUS
 62
    4
 10
46.801970003422639
 20
63.50000007946656
 11
48.435303336756022
 21
63.50000007946656
  0
ARC
  8
_1-8_小物
  6
CONTINUOUS
 62
    4
 10
48.035303336755987
 20
66.366666746133205
 40
0.5333333333333333
 50
90
 51
270.00000867010863
  0
ARC
  8
_1-8_小物
  6
CONTINUOUS
 62
    4
 10
48.035303336755987
 20
66.366666746133205
 40
0.3999999999999999
 50
90.0000000000977
 51
270.0000018823917
  0
LINE
  8
_1-8_小物
  6
CONTINUOUS
 62
    4
 10
48.035303336755987
 20
66.766666746133211
 11
48.035303336755987
 21
66.900000079466537
  0
LINE
  8
_1-8_小物
  6
CONTINUOUS
 62
    4
 10
47.501970003422628
 20
67.833333412799902
 11
47.635303336755953
 21
67.833333412799902
  0
LINE
  8
_1-8_小物
  6
DASHED1
 62
    4
 10
48.701970003422673
 20
65.250000072393561
 11
48.568636670089347
 21
65.250000072393561
  0
LINE
  8
_1-8_小物
  6
CONTINUOUS
 62
    4
 10
47.635303336755953
 20
67.333333412799902
 11
47.501970003422628
 21
67.333333412799902
  0
LINE
  8
_1-8_小物
  6
CONTINUOUS
 62
    4
 10
47.635303336755953
 20
67.833333412799902
 11
47.635303336755953
 21
66.719433587608421
  0
LINE
  8
_1-8_小物
  6
CONTINUOUS
 62
    4
 10
47.635303336755953
 20
66.013899904657961
 11
47.635303336755953
 21
65.836700763280902
  0
LINE
  8
_1-8_小物
  6
CONTINUOUS
 62
    4
 10
47.501970003422628
 20
67.833333412799902
 11
47.501970003422628
 21
66.000000079466446
  0
ARC
  8
_1-8_小物
  6
CONTINUOUS
 62
    4
 10
47.201970003422673
 20
64.936438271150109
 40
0.1333333333333333
 50
151.52902134424266
 51
180
  0
LINE
  8
_1-8_小物
  6
CONTINUOUS
 62
    4
 10
47.06863667008929
 20
64.936438271150109
 11
47.06863667008929
 21
64.033333412799834
  0
LINE
  8
_1-8_小物
  6
CONTINUOUS
 62
    4
 10
46.935303336756022
 20
65.000000079466531
 11
46.935303336756022
 21
64.033333412799834
  0
LINE
  8
_1-8_小物
  6
CONTINUOUS
 62
    4
 10
48.035303336755987
 20
65.966666746133171
 11
48.468636670089325
 21
65.966666746133171
  0
LINE
  8
_1-8_小物
  6
CONTINUOUS
 62
    4
 10
48.701970003422673
 20
63.633333405799846
 11
48.701970003422673
 21
65.733333412799823
  0
ARC
  8
_1-8_小物
  6
CONTINUOUS
 62
    4
 10
48.468636670089325
 20
65.733333412799823
 40
0.2333333333333333
 50
0
 51
90
  0
LINE
  8
_1-8_小物
  6
CONTINUOUS
 62
    4
 10
48.035303336755987
 20
65.833333412799902
 11
48.468636670089381
 21
65.833333412799902
  0
LINE
  8
_1-8_小物
  6
CONTINUOUS
 62
    4
 10
48.568636670089347
 20
63.633333409299894
 11
48.568636670089347
 21
65.733333412799908
  0
ARC
  8
_1-8_小物
  6
CONTINUOUS
 62
    4
 10
48.468636670089381
 20
65.733333412799908
 40
0.0999999999999999
 50
0
 51
90
  0
ENDBLK
  0
BLOCK
  2
-025-_25_
 70
   64
 10
0
 20
0
 30
0
  0
LINE
  8
_1-8_小物
  6
CONTINUOUS
 62
    4
 10
47.835303336755544
 20
70.000000079466133
 11
47.835303336755544
 21
76.000000079466474
  0
LINE
  8
_1-8_小物
  6
CONTINUOUS
 62
    4
 10
47.335303336755544
 20
70.000000079466133
 11
47.335303336755544
 21
76.000000079466474
  0
LINE
  8
_1-8_小物
  6
CONTINUOUS
 62
    4
 10
47.835303336755544
 20
70.000000079466133
 11
47.335303336755544
 21
70.000000079466133
  0
LINE
  8
_1-8_小物
  6
CONTINUOUS
 62
    4
 10
47.835303336755544
 20
76.000000079466474
 11
47.335303336755544
 21
76.000000079466474
  0
LINE
  8
_1-8_小物
  6
CONTINUOUS
 62
    4
 10
47.835303336755544
 20
71.500000079466133
 11
48.25026294175558
 21
71.536304340733011
  0
LINE
  8
_1-8_小物
  6
CONTINUOUS
 62
    4
 10
48.25026294175558
 20
74.46369581823302
 11
47.835303336755544
 21
74.500000079466133
  0
ARC
  8
_1-8_小物
  6
CONTINUOUS
 62
    4
 10
48.221501546655475
 20
74.134951567833298
 40
0.3299999999999999
 50
37.367558032054447
 51
85.000000001204057
  0
ARC
  8
_1-8_小物
  6
CONTINUOUS
 62
    4
 10
48.221501546655475
 20
71.865048591099651
 40
0.3299999999999999
 50
274.9999999987964
 51
322.63244196794949
  0
ARC
  8
_1-8_小物
  6
CONTINUOUS
 62
    4
 10
46.735303336755521
 20
73.000000079466474
 40
2.1999999999999997
 50
322.63244196770495
 51
338.26638354339843
  0
ARC
  8
_1-8_小物
  6
CONTINUOUS
 62
    4
 10
46.735303336755521
 20
73.000000079466474
 40
2.1999999999999997
 50
21.748408590903569
 51
37.367558032305141
  0
LINE
  8
_1-8_小物
  6
CONTINUOUS
 62
    4
 10
48.921679046622273
 20
72.895000079466342
 11
48.776407416622135
 21
72.895000079466342
  0
LINE
  8
_1-8_小物
  6
CONTINUOUS
 62
    4
 10
48.921679046622273
 20
72.779237185499312
 11
48.921679046622273
 21
72.895000079466342
  0
LINE
  8
_1-8_小物
  6
CONTINUOUS
 62
    4
 10
48.776407416622135
 20
72.185832323299735
 11
48.921679046622273
 21
72.779237185499312
  0
LINE
  8
_1-8_小物
  6
CONTINUOUS
 62
    4
 10
48.921679046622273
 20
73.220762973466378
 11
48.833200439488962
 21
73.654066396033102
  0
LINE
  8
_1-8_小物
  6
CONTINUOUS
 62
    4
 10
48.833200439488962
 20
73.654066396033102
 11
48.776407416622135
 21
73.814167835665955
  0
LINE
  8
_1-8_小物
  6
CONTINUOUS
 62
    4
 10
48.921679046622273
 20
73.105000079466379
 11
48.921679046622273
 21
73.220762973466378
  0
LINE
  8
_1-8_小物
  6
CONTINUOUS
 62
    4
 10
48.776407416622135
 20
73.105000079466379
 11
48.921679046622273
 21
73.105000079466379
  0
LINE
  8
_1-8_小物
  6
CONTINUOUS
 62
    4
 10
48.776407416622135
 20
72.895000079466342
 11
48.778109141422249
 21
73.000000079466474
  0
LINE
  8
_1-8_小物
  6
CONTINUOUS
 62
    4
 10
48.778109141422249
 20
73.000000079466474
 11
48.776407416622135
 21
73.105000079466379
  0
LINE
  8
_1-8_小物
  6
CONTINUOUS
 62
    4
 10
48.25026294175558
 20
71.536304340733011
 11
48.25026294175558
 21
74.46369581823302
  0
LINE
  8
_1-8_小物
  6
CONTINUOUS
 62
    4
 10
48.483771818988942
 20
73.000000079466474
 11
48.483771818988942
 21
74.335237124633124
  0
LINE
  8
_1-8_小物
  6
CONTINUOUS
 62
    4
 10
48.483771818988942
 20
71.664763034332907
 11
48.483771818988942
 21
73.000000079466474
  0
ENDBLK
  0
BLOCK
  2
-026-_26_
 70
   64
 10
0
 20
0
 30
0
  0
LINE
  8
_1-5_ア__ム
  6
CONTINUOUS
 62
    4
 10
53.568636670087812
 20
68.900000060833122
 11
53.568636670087812
 21
65.233333505933501
  0
ARC
  8
_1-5_ア__ム
  6
CONTINUOUS
 62
    4
 10
55.235303336754441
 20
65.233333505933501
 40
1.6666666666666665
 50
180
 51
270
  0
LINE
  8
_1-5_ア__ム
  6
DASHED1
 62
    4
 10
71.901970003420956
 20
67.966666760766685
 11
71.901970003420956
 21
67.233333427433422
  0
LINE
  8
_1-5_ア__ム
  6
DASHED1
 62
    4
 10
73.901970003421297
 20
67.966666760766685
 11
73.901970003421297
 21
67.233333427433422
  0
LINE
  8
_1-5_ア__ム
  6
DASHED1
 62
    4
 10
57.568636670087812
 20
67.966666760766685
 11
57.568636670087812
 21
67.233333427433422
  0
LINE
  8
_1-5_ア__ム
  6
DASHED1
 62
    4
 10
62.901970003421411
 20
67.966666760766685
 11
62.901970003421411
 21
67.233333427433422
  0
LINE
  8
_1-5_ア__ム
  6
CONTINUOUS
 62
    4
 10
127.56863667008781
 20
68.900000079466622
 11
127.56863667008781
 21
65.233333505933501
  0
ARC
  8
_1-5_ア__ム
  6
CONTINUOUS
 62
    4
 10
125.90197000342113
 20
65.233333505933501
 40
1.6666666666666665
 50
270
 51
0
  0
LINE
  8
_1-5_ア__ム
  6
CONTINUOUS
 62
    4
 10
53.568636670087812
 20
68.900000079466622
 11
127.56863667008781
 21
68.900000079466622
  0
LINE
  8
_1-5_ア__ム
  6
DASHED1
 62
    4
 10
53.568636670087812
 20
67.96666676076677
 11
127.56863667008781
 21
67.96666676076677
  0
LINE
  8
_1-5_ア__ム
  6
DASHED1
 62
    4
 10
53.568636670087812
 20
67.233333427433422
 11
127.56863667008781
 21
67.233333427433422
  0
LINE
  8
_1-5_ア__ム
  6
CONTINUOUS
 62
    4
 10
55.235303336754441
 20
63.566666839266759
 11
125.90197000342113
 21
63.566666839266759
  0
ENDBLK
  0
BLOCK
  2
-027-_27_
 70
   64
 10
0
 20
0
 30
0
  0
LINE
  8
_1-7_カバ__
  6
CENTER2
 62
    4
 10
62.668636670088176
 20
72.333333412799902
 11
62.668636670088176
 21
67.233333412799936
  0
LINE
  8
_1-7_カバ__
  6
CENTER2
 62
    4
 10
116.0019700028497
 20
72.333333412799902
 11
116.0019700028497
 21
67.233333412799936
  0
LINE
  8
_1-7_カバ__
  6
CONTINUOUS
 62
    4
 10
116.0019700028497
 20
69.595956068014573
 11
116.0726806809684
 21
69.666666746133274
  0
LINE
  8
_1-7_カバ__
  6
CONTINUOUS
 62
    4
 10
116.0019700028497
 20
69.595956068014573
 11
115.93125932473112
 21
69.666666746133274
  0
LINE
  8
_1-7_カバ__
  6
CONTINUOUS
 62
    4
 10
62.668636670088176
 20
69.595956068014573
 11
62.73934734820682
 21
69.666666746133274
  0
LINE
  8
_1-7_カバ__
  6
CONTINUOUS
 62
    4
 10
62.668636670088176
 20
69.595956068014573
 11
62.597925991969532
 21
69.666666746133274
  0
LINE
  8
_1-7_カバ__
  6
CONTINUOUS
 62
    4
 10
54.335303336754805
 20
69.666666746133274
 11
62.597925991969532
 21
69.666666746133274
  0
LINE
  8
_1-7_カバ__
  6
CONTINUOUS
 62
    4
 10
62.73934734820682
 20
69.666666746133274
 11
115.93125932473112
 21
69.666666746133274
  0
LINE
  8
_1-7_カバ__
  6
DASHED1
 62
    4
 10
63.418636670088176
 20
69.333333412800016
 11
63.751970003421434
 21
69.666666746133274
  0
LINE
  8
_1-7_カバ__
  6
DASHED1
 62
    4
 10
61.918636670088176
 20
69.333333412800016
 11
61.585303336754919
 21
69.666666746133274
  0
LINE
  8
_1-7_カバ__
  6
DASHED1
 62
    4
 10
61.918636670088176
 20
69.333333412800016
 11
63.418636670088176
 21
69.333333412800016
  0
LINE
  8
_1-7_カバ__
  6
DASHED1
 62
    4
 10
116.75197000284982
 20
69.333333412800016
 11
117.08530333618307
 21
69.666666746133274
  0
LINE
  8
_1-7_カバ__
  6
DASHED1
 62
    4
 10
115.25197000284982
 20
69.333333412800016
 11
114.91863666951656
 21
69.666666746133274
  0
LINE
  8
_1-7_カバ__
  6
DASHED1
 62
    4
 10
115.25197000284982
 20
69.333333412800016
 11
116.75197000284982
 21
69.333333412800016
  0
LINE
  8
_1-7_カバ__
  6
DASHED1
 62
    4
 10
116.75197000284982
 20
69.333333412800016
 11
116.75197000284982
 21
68.900000079466622
  0
LINE
  8
_1-7_カバ__
  6
DASHED1
 62
    4
 10
115.25197000284982
 20
69.333333412800016
 11
115.25197000284982
 21
68.900000079466622
  0
LINE
  8
_1-7_カバ__
  6
DASHED1
 62
    4
 10
63.418636670088176
 20
69.333333412800016
 11
63.418636670088176
 21
68.900000079466622
  0
LINE
  8
_1-7_カバ__
  6
DASHED1
 62
    4
 10
61.918636670088176
 20
69.333333412800016
 11
61.918636670088176
 21
68.900000079466622
  0
LINE
  8
_1-7_カバ__
  6
CONTINUOUS
 62
    4
 10
49.668636670088006
 20
84.666654040281514
 11
49.668636670088006
 21
81.333320706948172
  0
LINE
  8
_1-7_カバ__
  6
CONTINUOUS
 62
    4
 10
132.66863666951633
 20
65.000000079466588
 11
129.33530333618319
 21
65.000000079466588
  0
LINE
  8
_1-7_カバ__
  6
CONTINUOUS
 62
    4
 10
49.668636670088006
 20
81.333320706948172
 11
50.168636670088176
 21
81.333320706948172
  0
LINE
  8
_1-7_カバ__
  6
CONTINUOUS
 62
    4
 10
50.168636670088176
 20
83.899987373614863
 11
50.168636670088176
 21
81.333320706948172
  0
LINE
  8
_1-7_カバ__
  6
CONTINUOUS
 62
    4
 10
129.33530333618319
 20
65.000000079466588
 11
129.33530333618319
 21
65.500000079466588
  0
LINE
  8
_1-7_カバ__
  6
CONTINUOUS
 62
    4
 10
131.901970002849
 20
65.500000079466588
 11
129.33530333618319
 21
65.500000079466588
  0
LINE
  8
_1-7_カバ__
  6
CONTINUOUS
 62
    4
 10
50.168636670088176
 20
83.899987373614863
 11
53.568636670087812
 21
83.899987373614863
  0
LINE
  8
_1-7_カバ__
  6
CONTINUOUS
 62
    4
 10
53.568636670087812
 20
83.899987373614863
 11
53.568636670087812
 21
68.900000079466622
  0
LINE
  8
_1-7_カバ__
  6
CONTINUOUS
 62
    4
 10
49.668636670088006
 20
84.666654040281514
 11
54.335303336754805
 21
84.666654040281514
  0
LINE
  8
_1-7_カバ__
  6
CONTINUOUS
 62
    4
 10
54.335303336754805
 20
84.666654040281514
 11
54.335303336754805
 21
69.666666746133274
  0
LINE
  8
_1-7_カバ__
  6
CONTINUOUS
 62
    4
 10
53.568636670087812
 20
68.900000079466622
 11
131.901970002849
 21
68.900000079466622
  0
LINE
  8
_1-7_カバ__
  6
CONTINUOUS
 62
    4
 10
131.901970002849
 20
65.500000079466588
 11
131.901970002849
 21
68.900000079466622
  0
LINE
  8
_1-7_カバ__
  6
CONTINUOUS
 62
    4
 10
116.0726806809684
 20
69.666666746133274
 11
132.66863666951633
 21
69.666666746133274
  0
LINE
  8
_1-7_カバ__
  6
CONTINUOUS
 62
    4
 10
132.66863666951633
 20
65.000000079466588
 11
132.66863666951633
 21
69.666666746133274
  0
ENDBLK
  0
BLOCK
  2
-028-_28_
 70
   64
 10
0
 20
0
 30
0
  0
ARC
  8
_1-8_小物
  6
CONTINUOUS
 62
    4
 10
129.33530333618319
 20
65.100000079466611
 40
0.0999999999999999
 50
180
 51
270
  0
LINE
  8
_1-8_小物
  6
CONTINUOUS
 62
    4
 10
132.1686366695165
 20
64.333333412799931
 11
132.1686366695165
 21
63.874266026178304
  0
ARC
  8
_1-8_小物
  6
CONTINUOUS
 62
    4
 10
132.00197000284982
 20
64.333333412799931
 40
0.1666666666666666
 50
0
 51
90
  0
LINE
  8
_1-8_小物
  6
CONTINUOUS
 62
    4
 10
132.6686366695165
 20
64.333333412799931
 11
132.6686366695165
 21
63.833333412799931
  0
ARC
  8
_1-8_小物
  6
CONTINUOUS
 62
    4
 10
132.00197000284982
 20
64.333333412799931
 40
0.6666666666666666
 50
0
 51
90
  0
LINE
  8
_1-8_小物
  6
CONTINUOUS
 62
    4
 10
132.00197000284982
 20
64.500000079466588
 11
129.40197000284991
 21
64.500000079466588
  0
ARC
  8
_1-8_小物
  6
CONTINUOUS
 62
    4
 10
129.40197000284991
 20
65.000000079466588
 40
0.5
 50
180
 51
270
  0
ARC
  8
_1-8_小物
  6
CONTINUOUS
 62
    4
 10
131.7566141937051
 20
61.374663006256071
 40
0.4999999999999946
 50
190.63980919808901
 51
350.63980919809183
  0
LINE
  8
_1-8_小物
  6
CONTINUOUS
 62
    4
 10
132.1686366695165
 20
63.874266026178304
 11
131.78736018813072
 21
61.561188705771201
  0
ARC
  8
_1-8_小物
  6
CONTINUOUS
 62
    4
 10
131.75447067471077
 20
61.566610054137129
 40
0.0333333333333333
 50
190.63980919805775
 51
350.63980919811314
  0
ARC
  8
_1-8_小物
  6
CONTINUOUS
 62
    4
 10
131.28011955416463
 20
62.557013571227856
 40
0.25
 50
10.639809198089004
 51
190.63980919807378
  0
LINE
  8
_1-8_小物
  6
CONTINUOUS
 62
    4
 10
131.03441772861078
 20
62.510855008430553
 11
131.26521054259752
 21
61.282345880661353
  0
LINE
  8
_1-8_小物
  6
CONTINUOUS
 62
    4
 10
132.6686366695165
 20
63.833333412799931
 11
132.24995689500565
 21
61.293342780767034
  0
LINE
  8
_1-8_小物
  6
CONTINUOUS
 62
    4
 10
132.00197000284982
 20
65.000000079466588
 11
129.33530333618319
 21
65.000000079466588
  0
ARC
  8
_1-8_小物
  6
CONTINUOUS
 62
    4
 10
131.19019322677485
 20
65.741051526262424
 40
0.1666666666666666
 50
267.28051796003189
 51
357.28051796004121
  0
ARC
  8
_1-8_小物
  6
CONTINUOUS
 62
    4
 10
131.34876451070159
 20
65.566664876918594
 40
0.3333333333333333
 50
267.28051796004166
 51
357.28051796003678
  0
LINE
  8
_1-8_小物
  6
CONTINUOUS
 62
    4
 10
131.68172244397221
 20
65.550849511501525
 11
131.69753780938936
 21
65.883807444772089
  0
ARC
  8
_1-8_小物
  6
CONTINUOUS
 62
    4
 10
131.53105884275402
 20
65.891715127480666
 40
0.1666666666666666
 50
357.28051796003234
 51
177.28051796004218
  0
LINE
  8
_1-8_小物
  6
CONTINUOUS
 62
    4
 10
131.35667219341013
 20
65.733143843553904
 11
131.36457987611868
 21
65.899622810189157
  0
LINE
  8
_1-8_小物
  6
CONTINUOUS
 62
    4
 10
129.23530333618322
 20
65.228481554147777
 11
129.23530333618322
 21
65.100000079466611
  0
LINE
  8
_1-8_小物
  6
CONTINUOUS
 62
    4
 10
131.1822855440663
 20
65.574572559627143
 11
129.25111870160026
 21
65.666302193442732
  0
LINE
  8
_1-8_小物
  6
CONTINUOUS
 62
    4
 10
128.90197000284991
 20
65.33334426017214
 11
128.90197000284991
 21
65.000000079466588
  0
ARC
  8
_1-8_小物
  6
CONTINUOUS
 62
    4
 10
129.33530333618319
 20
65.228481554147777
 40
0.0999999999999999
 50
87.280517960011949
 51
180
  0
ARC
  8
_1-8_小物
  6
CONTINUOUS
 62
    4
 10
129.23530333618322
 20
65.33334426017214
 40
0.3333333333333333
 50
87.280517960041465
 51
180
  0
LINE
  8
_1-8_小物
  6
CONTINUOUS
 62
    4
 10
131.33294914528454
 20
65.233706943648031
 11
129.34004794580835
 21
65.328368934128918
  0
LINE
  8
_1-8_小物
  6
CONTINUOUS
 62
    4
 10
131.52582137971842
 20
62.603172134025272
 11
131.72171043130356
 21
61.560455579097493
  0
ENDBLK
  0
BLOCK
  2
-029-_29_
 70
   64
 10
0
 20
0
 30
0
  0
ARC
  8
_1-8_小物
  6
CONTINUOUS
 62
    4
 10
49.768636670088028
 20
81.333320706948172
 40
0.0999999999999999
 50
180
 51
270
  0
LINE
  8
_1-8_小物
  6
CONTINUOUS
 62
    4
 10
49.001970003421604
 20
84.166654040281571
 11
48.542902616800006
 21
84.166654040281628
  0
ARC
  8
_1-8_小物
  6
CONTINUOUS
 62
    4
 10
49.001970003421604
 20
83.999987373614914
 40
0.1666666666666666
 50
0
 51
90
  0
LINE
  8
_1-8_小物
  6
CONTINUOUS
 62
    4
 10
49.001970003421661
 20
84.666654040281571
 11
48.501970003421661
 21
84.666654040281628
  0
ARC
  8
_1-8_小物
  6
CONTINUOUS
 62
    4
 10
49.001970003421604
 20
83.999987373614914
 40
0.6666666666666666
 50
0
 51
89.999999999995111
  0
LINE
  8
_1-8_小物
  6
CONTINUOUS
 62
    4
 10
49.168636670088233
 20
83.999987373614886
 11
49.168636670087949
 21
81.399987373614891
  0
ARC
  8
_1-8_小物
  6
CONTINUOUS
 62
    4
 10
49.668636670087949
 20
81.399987373614863
 40
0.5
 50
179.99999999999349
 51
269.99999999998698
  0
ARC
  8
_1-8_小物
  6
CONTINUOUS
 62
    4
 10
46.043299596877716
 20
83.754631564470543
 40
0.4999999999999946
 50
99.360190801901751
 51
259.36019080190522
  0
LINE
  8
_1-8_小物
  6
CONTINUOUS
 62
    4
 10
48.542902616800006
 20
84.166654040281628
 11
46.229825296392789
 21
83.78537755889613
  0
ARC
  8
_1-8_小物
  6
CONTINUOUS
 62
    4
 10
46.235246644758774
 20
83.752488045476071
 40
0.0333333333333333
 50
99.360190801902732
 51
259.36019080183718
  0
ARC
  8
_1-8_小物
  6
CONTINUOUS
 62
    4
 10
47.225650161849387
 20
83.278136924929868
 40
0.25
 50
259.360190801925
 51
79.36019080189817
  0
LINE
  8
_1-8_小物
  6
CONTINUOUS
 62
    4
 10
47.179491599052085
 20
83.032435099376016
 11
45.950982471282884
 21
83.263227913362925
  0
LINE
  8
_1-8_小物
  6
CONTINUOUS
 62
    4
 10
48.501970003421661
 20
84.666654040281628
 11
45.961979371388736
 21
84.247974265770978
  0
LINE
  8
_1-8_小物
  6
CONTINUOUS
 62
    4
 10
49.668636670088233
 20
83.999987373614829
 11
49.668636670087949
 21
81.333320706948172
  0
ARC
  8
_1-8_小物
  6
CONTINUOUS
 62
    4
 10
50.409688116884013
 20
83.188210597539751
 40
0.1666666666666666
 50
92.719482039948559
 51
182.7194820399676
  0
ARC
  8
_1-8_小物
  6
CONTINUOUS
 62
    4
 10
50.235301467540182
 20
83.346781881466484
 40
0.3333333333333333
 50
92.719482039948559
 51
182.71948203995345
  0
LINE
  8
_1-8_小物
  6
CONTINUOUS
 62
    4
 10
50.219486102123142
 20
83.679739814737133
 11
50.552444035393705
 21
83.695555180154145
  0
ARC
  8
_1-8_小物
  6
CONTINUOUS
 62
    4
 10
50.560351718102254
 20
83.529076213518834
 40
0.1666666666666666
 50
272.71948203994856
 51
92.719482039948559
  0
LINE
  8
_1-8_小物
  6
CONTINUOUS
 62
    4
 10
50.401780434175521
 20
83.354689564175061
 11
50.568259400810746
 21
83.362597246883524
  0
LINE
  8
_1-8_小物
  6
CONTINUOUS
 62
    4
 10
49.897118144769081
 20
81.233320706948149
 11
49.768636670087915
 21
81.233320706948177
  0
LINE
  8
_1-8_小物
  6
CONTINUOUS
 62
    4
 10
50.243209150248674
 20
83.180302914831174
 11
50.334938784064093
 21
81.249136072365161
  0
LINE
  8
_1-8_小物
  6
CONTINUOUS
 62
    4
 10
50.001980850793473
 20
80.899987373614806
 11
49.668636670087892
 21
80.899987373614863
  0
ARC
  8
_1-8_小物
  6
CONTINUOUS
 62
    4
 10
49.897118144769081
 20
81.333320706948143
 40
0.0999999999999999
 50
270
 51
2.7194820399554942
  0
ARC
  8
_1-8_小物
  6
CONTINUOUS
 62
    4
 10
50.001980850793473
 20
81.233320706948149
 40
0.3333333333333333
 50
270
 51
2.7194820399534478
  0
LINE
  8
_1-8_小物
  6
CONTINUOUS
 62
    4
 10
49.902343534269619
 20
83.330966516049472
 11
49.997005524750307
 21
81.33806531657325
  0
LINE
  8
_1-8_小物
  6
CONTINUOUS
 62
    4
 10
47.27180872464686
 20
83.523838750483634
 11
46.229092169719138
 21
83.719727802068917
  0
ENDBLK
  0
BLOCK
  2
-030-_30_
 70
   64
 10
0
 20
0
 30
0
  0
LINE
  8
_1-8_小物
  6
CONTINUOUS
 62
    4
 10
115.0019700028497
 20
69.666666587200041
 11
117.0019700028497
 21
69.666666587200041
  0
LINE
  8
_1-8_小物
  6
CONTINUOUS
 62
    4
 10
117.00197000284959
 20
69.666666587200041
 11
117.00197000284959
 21
69.599999920533378
  0
LINE
  8
_1-8_小物
  6
CONTINUOUS
 62
    4
 10
115.00197000284987
 20
69.599999920533378
 11
115.50197000284987
 21
69.099999920533378
  0
LINE
  8
_1-8_小物
  6
CONTINUOUS
 62
    4
 10
115.50197000284987
 20
69.099999920533378
 11
116.50197000284959
 21
69.099999920533378
  0
LINE
  8
_1-8_小物
  6
CONTINUOUS
 62
    4
 10
117.00197000284959
 20
69.599999920533378
 11
116.50197000284959
 21
69.099999920533378
  0
LINE
  8
_1-8_小物
  6
CONTINUOUS
 62
    4
 10
115.00197000284987
 20
69.599999920533378
 11
115.00197000284987
 21
69.666666587200041
  0
LINE
  8
_1-8_小物
  6
CONTINUOUS
 62
    4
 10
117.00197000284959
 20
69.599999920533378
 11
115.00197000284987
 21
69.599999920533378
  0
LINE
  8
_1-8_小物
  6
CONTINUOUS
 62
    4
 10
116.50197000284959
 20
66.035753242357714
 11
116.6894700028497
 21
65.927499920533421
  0
LINE
  8
_1-8_小物
  6
CONTINUOUS
 62
    4
 10
116.6894700028497
 20
65.927499920533421
 11
116.50197000284965
 21
65.819246598709157
  0
LINE
  8
_1-8_小物
  6
CONTINUOUS
 62
    4
 10
116.50197000284959
 20
66.035753242357714
 11
115.50197000284982
 21
65.800753242357729
  0
LINE
  8
_1-8_小物
  6
CONTINUOUS
 62
    4
 10
115.3144700028497
 20
65.692499920533464
 11
115.50197000284982
 21
65.800753242357729
  0
LINE
  8
_1-8_小物
  6
CONTINUOUS
 62
    4
 10
115.50197000284982
 20
65.584246598709171
 11
115.3144700028497
 21
65.692499920533464
  0
LINE
  8
_1-8_小物
  6
CONTINUOUS
 62
    4
 10
116.50197000284965
 20
65.819246598709157
 11
115.50197000284982
 21
65.584246598709171
  0
LINE
  8
_1-8_小物
  6
CONTINUOUS
 62
    4
 10
116.6894700028497
 20
65.927499920533421
 11
115.3144700028497
 21
65.692499920533464
  0
LINE
  8
_1-8_小物
  6
CONTINUOUS
 62
    4
 10
116.50197000284959
 20
66.505753242357684
 11
116.6894700028497
 21
66.39749992053342
  0
LINE
  8
_1-8_小物
  6
CONTINUOUS
 62
    4
 10
116.6894700028497
 20
66.39749992053342
 11
116.50197000284965
 21
66.289246598709155
  0
LINE
  8
_1-8_小物
  6
CONTINUOUS
 62
    4
 10
116.50197000284959
 20
66.505753242357684
 11
115.50197000284982
 21
66.270753242357728
  0
LINE
  8
_1-8_小物
  6
CONTINUOUS
 62
    4
 10
115.3144700028497
 20
66.162499920533435
 11
115.50197000284982
 21
66.270753242357728
  0
LINE
  8
_1-8_小物
  6
CONTINUOUS
 62
    4
 10
115.50197000284982
 20
66.05424659870917
 11
115.3144700028497
 21
66.162499920533435
  0
LINE
  8
_1-8_小物
  6
CONTINUOUS
 62
    4
 10
116.50197000284965
 20
66.289246598709155
 11
115.50197000284982
 21
66.05424659870917
  0
LINE
  8
_1-8_小物
  6
CONTINUOUS
 62
    4
 10
116.6894700028497
 20
66.39749992053342
 11
115.3144700028497
 21
66.162499920533435
  0
LINE
  8
_1-8_小物
  6
CONTINUOUS
 62
    4
 10
116.50197000284959
 20
66.975753242357683
 11
116.6894700028497
 21
66.867499920533419
  0
LINE
  8
_1-8_小物
  6
CONTINUOUS
 62
    4
 10
116.6894700028497
 20
66.867499920533419
 11
116.50197000284965
 21
66.759246598709126
  0
LINE
  8
_1-8_小物
  6
CONTINUOUS
 62
    4
 10
116.50197000284959
 20
66.975753242357683
 11
115.50197000284982
 21
66.740753242357698
  0
LINE
  8
_1-8_小物
  6
CONTINUOUS
 62
    4
 10
115.3144700028497
 20
66.632499920533434
 11
115.50197000284982
 21
66.740753242357698
  0
LINE
  8
_1-8_小物
  6
CONTINUOUS
 62
    4
 10
115.50197000284982
 20
66.524246598709169
 11
115.3144700028497
 21
66.632499920533434
  0
LINE
  8
_1-8_小物
  6
CONTINUOUS
 62
    4
 10
116.50197000284965
 20
66.759246598709126
 11
115.50197000284982
 21
66.524246598709169
  0
LINE
  8
_1-8_小物
  6
CONTINUOUS
 62
    4
 10
116.6894700028497
 20
66.867499920533419
 11
115.3144700028497
 21
66.632499920533434
  0
LINE
  8
_1-8_小物
  6
CONTINUOUS
 62
    4
 10
116.50197000284959
 20
67.445753242357682
 11
116.6894700028497
 21
67.337499920533389
  0
LINE
  8
_1-8_小物
  6
CONTINUOUS
 62
    4
 10
116.6894700028497
 20
67.337499920533389
 11
116.50197000284965
 21
67.229246598709125
  0
LINE
  8
_1-8_小物
  6
CONTINUOUS
 62
    4
 10
116.50197000284959
 20
67.445753242357682
 11
115.50197000284982
 21
67.210753242357697
  0
LINE
  8
_1-8_小物
  6
CONTINUOUS
 62
    4
 10
115.3144700028497
 20
67.102499920533432
 11
115.50197000284982
 21
67.210753242357697
  0
LINE
  8
_1-8_小物
  6
CONTINUOUS
 62
    4
 10
115.50197000284982
 20
66.99424659870914
 11
115.3144700028497
 21
67.102499920533432
  0
LINE
  8
_1-8_小物
  6
CONTINUOUS
 62
    4
 10
116.50197000284965
 20
67.229246598709125
 11
115.50197000284982
 21
66.99424659870914
  0
LINE
  8
_1-8_小物
  6
CONTINUOUS
 62
    4
 10
116.6894700028497
 20
67.337499920533389
 11
115.3144700028497
 21
67.102499920533432
  0
LINE
  8
_1-8_小物
  6
CONTINUOUS
 62
    4
 10
116.50197000284959
 20
67.915753242357653
 11
116.6894700028497
 21
67.807499920533388
  0
LINE
  8
_1-8_小物
  6
CONTINUOUS
 62
    4
 10
116.6894700028497
 20
67.807499920533388
 11
116.50197000284965
 21
67.699246598709124
  0
LINE
  8
_1-8_小物
  6
CONTINUOUS
 62
    4
 10
116.50197000284959
 20
67.915753242357653
 11
115.50197000284982
 21
67.680753242357696
  0
LINE
  8
_1-8_小物
  6
CONTINUOUS
 62
    4
 10
115.3144700028497
 20
67.572499920533403
 11
115.50197000284982
 21
67.680753242357696
  0
LINE
  8
_1-8_小物
  6
CONTINUOUS
 62
    4
 10
115.50197000284982
 20
67.464246598709138
 11
115.3144700028497
 21
67.572499920533403
  0
LINE
  8
_1-8_小物
  6
CONTINUOUS
 62
    4
 10
116.50197000284965
 20
67.699246598709124
 11
115.50197000284982
 21
67.464246598709138
  0
LINE
  8
_1-8_小物
  6
CONTINUOUS
 62
    4
 10
116.6894700028497
 20
67.807499920533388
 11
115.3144700028497
 21
67.572499920533403
  0
LINE
  8
_1-8_小物
  6
CONTINUOUS
 62
    4
 10
116.50197000284959
 20
68.385753242357652
 11
116.6894700028497
 21
68.277499920533387
  0
LINE
  8
_1-8_小物
  6
CONTINUOUS
 62
    4
 10
116.6894700028497
 20
68.277499920533387
 11
116.50197000284965
 21
68.169246598709094
  0
LINE
  8
_1-8_小物
  6
CONTINUOUS
 62
    4
 10
116.50197000284959
 20
68.385753242357652
 11
115.50197000284982
 21
68.150753242357666
  0
LINE
  8
_1-8_小物
  6
CONTINUOUS
 62
    4
 10
115.3144700028497
 20
68.042499920533402
 11
115.50197000284982
 21
68.150753242357666
  0
LINE
  8
_1-8_小物
  6
CONTINUOUS
 62
    4
 10
115.50197000284982
 20
67.934246598709137
 11
115.3144700028497
 21
68.042499920533402
  0
LINE
  8
_1-8_小物
  6
CONTINUOUS
 62
    4
 10
116.50197000284965
 20
68.169246598709094
 11
115.50197000284982
 21
67.934246598709137
  0
LINE
  8
_1-8_小物
  6
CONTINUOUS
 62
    4
 10
116.6894700028497
 20
68.277499920533387
 11
115.3144700028497
 21
68.042499920533402
  0
LINE
  8
_1-8_小物
  6
CONTINUOUS
 62
    4
 10
116.50197000284959
 20
68.85575324235765
 11
116.6894700028497
 21
68.747499920533357
  0
LINE
  8
_1-8_小物
  6
CONTINUOUS
 62
    4
 10
116.6894700028497
 20
68.747499920533357
 11
116.50197000284965
 21
68.639246598709093
  0
LINE
  8
_1-8_小物
  6
CONTINUOUS
 62
    4
 10
116.50197000284959
 20
68.85575324235765
 11
115.50197000284982
 21
68.620753242357665
  0
LINE
  8
_1-8_小物
  6
CONTINUOUS
 62
    4
 10
115.3144700028497
 20
68.512499920533401
 11
115.50197000284982
 21
68.620753242357665
  0
LINE
  8
_1-8_小物
  6
CONTINUOUS
 62
    4
 10
115.50197000284982
 20
68.404246598709108
 11
115.3144700028497
 21
68.512499920533401
  0
LINE
  8
_1-8_小物
  6
CONTINUOUS
 62
    4
 10
116.50197000284965
 20
68.639246598709093
 11
115.50197000284982
 21
68.404246598709108
  0
LINE
  8
_1-8_小物
  6
CONTINUOUS
 62
    4
 10
116.6894700028497
 20
68.747499920533357
 11
115.3144700028497
 21
68.512499920533401
  0
LINE
  8
_1-8_小物
  6
CONTINUOUS
 62
    4
 10
115.50197000284987
 20
65.584246598709171
 11
115.50197000284987
 21
65.33075324235773
  0
LINE
  8
_1-8_小物
  6
CONTINUOUS
 62
    4
 10
115.50197000284987
 20
66.05424659870917
 11
115.50197000284987
 21
65.800753242357729
  0
LINE
  8
_1-8_小物
  6
CONTINUOUS
 62
    4
 10
115.50197000284987
 20
66.524246598709169
 11
115.50197000284987
 21
66.270753242357756
  0
LINE
  8
_1-8_小物
  6
CONTINUOUS
 62
    4
 10
115.50197000284987
 20
66.99424659870914
 11
115.50197000284987
 21
66.740753242357698
  0
LINE
  8
_1-8_小物
  6
CONTINUOUS
 62
    4
 10
115.50197000284987
 20
67.464246598709138
 11
115.50197000284987
 21
67.210753242357697
  0
LINE
  8
_1-8_小物
  6
CONTINUOUS
 62
    4
 10
115.50197000284987
 20
67.934246598709137
 11
115.50197000284987
 21
67.680753242357696
  0
LINE
  8
_1-8_小物
  6
CONTINUOUS
 62
    4
 10
115.50197000284987
 20
69.099999920533378
 11
115.50197000284987
 21
68.620753242357665
  0
LINE
  8
_1-8_小物
  6
CONTINUOUS
 62
    4
 10
115.50197000284987
 20
68.404246598709108
 11
115.50197000284987
 21
68.150753242357723
  0
LINE
  8
_1-8_小物
  6
CONTINUOUS
 62
    4
 10
116.50197000284959
 20
69.099999920533378
 11
116.50197000284959
 21
68.85575324235765
  0
LINE
  8
_1-8_小物
  6
CONTINUOUS
 62
    4
 10
116.50197000284959
 20
68.639246598709065
 11
116.50197000284959
 21
68.385753242357652
  0
LINE
  8
_1-8_小物
  6
CONTINUOUS
 62
    4
 10
116.50197000284959
 20
68.169246598709094
 11
116.50197000284959
 21
67.915753242357653
  0
LINE
  8
_1-8_小物
  6
CONTINUOUS
 62
    4
 10
116.50197000284959
 20
67.699246598709067
 11
116.50197000284959
 21
67.445753242357682
  0
LINE
  8
_1-8_小物
  6
CONTINUOUS
 62
    4
 10
116.50197000284959
 20
67.229246598709125
 11
116.50197000284959
 21
66.975753242357683
  0
LINE
  8
_1-8_小物
  6
CONTINUOUS
 62
    4
 10
116.50197000284959
 20
66.759246598709126
 11
116.50197000284959
 21
66.505753242357684
  0
LINE
  8
_1-8_小物
  6
CONTINUOUS
 62
    4
 10
116.50197000284959
 20
66.289246598709099
 11
116.50197000284959
 21
66.035753242357714
  0
LINE
  8
_1-8_小物
  6
CONTINUOUS
 62
    4
 10
116.56863666951625
 20
65.326666587200066
 11
116.56863666951625
 21
64.329999920533396
  0
LINE
  8
_1-8_小物
  6
CONTINUOUS
 62
    4
 10
115.43530333618321
 20
65.326666587200066
 11
116.56863666951625
 21
65.326666587200066
  0
LINE
  8
_1-8_小物
  6
CONTINUOUS
 62
    4
 10
115.43530333618321
 20
65.326666587200066
 11
115.43530333618321
 21
64.329999920533396
  0
LINE
  8
_1-8_小物
  6
CONTINUOUS
 62
    4
 10
115.43530333618321
 20
64.329999920533396
 11
116.0019700028497
 21
64.002834767992681
  0
LINE
  8
_1-8_小物
  6
CONTINUOUS
 62
    4
 10
116.56863666951625
 20
64.329999920533396
 11
116.0019700028497
 21
64.002834767992681
  0
LINE
  8
_1-8_小物
  6
CONTINUOUS
 62
    4
 10
116.0019700028497
 20
64.118304821830577
 11
116.46863666951634
 21
64.387734947452373
  0
LINE
  8
_1-8_小物
  6
CONTINUOUS
 62
    4
 10
116.46863666951634
 20
65.326666587200066
 11
116.46863666951634
 21
64.387734947452373
  0
LINE
  8
_1-8_小物
  6
CONTINUOUS
 62
    4
 10
116.0019700028497
 20
64.118304821830577
 11
116.21503678454081
 21
65.326666587200066
  0
LINE
  8
_1-8_小物
  6
CONTINUOUS
 62
    4
 10
116.50197000284959
 20
65.819246598709128
 11
116.50197000284959
 21
65.326666587200066
  0
LINE
  8
_1-8_小物
  6
CONTINUOUS
 62
    4
 10
116.0019700028497
 20
64.002834767992681
 11
116.0019700028497
 21
64.118304821830577
  0
LINE
  8
_1-8_小物
  6
CENTER2
 62
    4
 10
116.0019700028497
 20
69.999999920533384
 11
116.0019700028497
 21
63.669501434659338
  0
ENDBLK
  0
BLOCK
  2
-031-_31_
 70
   64
 10
0
 20
0
 30
0
  0
LINE
  8
_1-8_小物
  6
CONTINUOUS
 62
    4
 10
61.668636670088176
 20
69.666666666666657
 11
63.668636670088176
 21
69.666666666666657
  0
LINE
  8
_1-8_小物
  6
CONTINUOUS
 62
    4
 10
63.668636670088063
 20
69.666666666666657
 11
63.668636670088063
 21
69.599999999999966
  0
LINE
  8
_1-8_小物
  6
CONTINUOUS
 62
    4
 10
61.66863667008829
 20
69.599999999999966
 11
62.16863667008829
 21
69.099999999999966
  0
LINE
  8
_1-8_小物
  6
CONTINUOUS
 62
    4
 10
62.16863667008829
 20
69.099999999999966
 11
63.168636670088063
 21
69.099999999999966
  0
LINE
  8
_1-8_小物
  6
CONTINUOUS
 62
    4
 10
63.668636670088063
 20
69.599999999999966
 11
63.168636670088063
 21
69.099999999999966
  0
LINE
  8
_1-8_小物
  6
CONTINUOUS
 62
    4
 10
61.66863667008829
 20
69.599999999999966
 11
61.66863667008829
 21
69.666666666666657
  0
LINE
  8
_1-8_小物
  6
CONTINUOUS
 62
    4
 10
63.668636670088063
 20
69.599999999999966
 11
61.66863667008829
 21
69.599999999999966
  0
LINE
  8
_1-8_小物
  6
CONTINUOUS
 62
    4
 10
63.168636670088063
 20
66.035753321824302
 11
63.356136670088176
 21
65.927500000000038
  0
LINE
  8
_1-8_小物
  6
CONTINUOUS
 62
    4
 10
63.356136670088176
 20
65.927500000000038
 11
63.168636670088119
 21
65.819246678175773
  0
LINE
  8
_1-8_小物
  6
CONTINUOUS
 62
    4
 10
63.168636670088063
 20
66.035753321824302
 11
62.168636670088176
 21
65.800753321824345
  0
LINE
  8
_1-8_小物
  6
CONTINUOUS
 62
    4
 10
61.981136670088176
 20
65.692500000000052
 11
62.168636670088176
 21
65.800753321824345
  0
LINE
  8
_1-8_小物
  6
CONTINUOUS
 62
    4
 10
62.168636670088176
 20
65.584246678175788
 11
61.981136670088176
 21
65.692500000000052
  0
LINE
  8
_1-8_小物
  6
CONTINUOUS
 62
    4
 10
63.168636670088119
 20
65.819246678175773
 11
62.168636670088176
 21
65.584246678175788
  0
LINE
  8
_1-8_小物
  6
CONTINUOUS
 62
    4
 10
63.356136670088176
 20
65.927500000000038
 11
61.981136670088176
 21
65.692500000000052
  0
LINE
  8
_1-8_小物
  6
CONTINUOUS
 62
    4
 10
63.168636670088063
 20
66.505753321824301
 11
63.356136670088176
 21
66.397500000000036
  0
LINE
  8
_1-8_小物
  6
CONTINUOUS
 62
    4
 10
63.356136670088176
 20
66.397500000000036
 11
63.168636670088119
 21
66.289246678175743
  0
LINE
  8
_1-8_小物
  6
CONTINUOUS
 62
    4
 10
63.168636670088063
 20
66.505753321824301
 11
62.168636670088176
 21
66.270753321824316
  0
LINE
  8
_1-8_小物
  6
CONTINUOUS
 62
    4
 10
61.981136670088176
 20
66.162500000000051
 11
62.168636670088176
 21
66.270753321824316
  0
LINE
  8
_1-8_小物
  6
CONTINUOUS
 62
    4
 10
62.168636670088176
 20
66.054246678175787
 11
61.981136670088176
 21
66.162500000000051
  0
LINE
  8
_1-8_小物
  6
CONTINUOUS
 62
    4
 10
63.168636670088119
 20
66.289246678175743
 11
62.168636670088176
 21
66.054246678175787
  0
LINE
  8
_1-8_小物
  6
CONTINUOUS
 62
    4
 10
63.356136670088176
 20
66.397500000000036
 11
61.981136670088176
 21
66.162500000000051
  0
LINE
  8
_1-8_小物
  6
CONTINUOUS
 62
    4
 10
63.168636670088063
 20
66.9757533218243
 11
63.356136670088176
 21
66.867500000000007
  0
LINE
  8
_1-8_小物
  6
CONTINUOUS
 62
    4
 10
63.356136670088176
 20
66.867500000000007
 11
63.168636670088119
 21
66.759246678175742
  0
LINE
  8
_1-8_小物
  6
CONTINUOUS
 62
    4
 10
63.168636670088063
 20
66.9757533218243
 11
62.168636670088176
 21
66.740753321824315
  0
LINE
  8
_1-8_小物
  6
CONTINUOUS
 62
    4
 10
61.981136670088176
 20
66.63250000000005
 11
62.168636670088176
 21
66.740753321824315
  0
LINE
  8
_1-8_小物
  6
CONTINUOUS
 62
    4
 10
62.168636670088176
 20
66.524246678175757
 11
61.981136670088176
 21
66.63250000000005
  0
LINE
  8
_1-8_小物
  6
CONTINUOUS
 62
    4
 10
63.168636670088119
 20
66.759246678175742
 11
62.168636670088176
 21
66.524246678175757
  0
LINE
  8
_1-8_小物
  6
CONTINUOUS
 62
    4
 10
63.356136670088176
 20
66.867500000000007
 11
61.981136670088176
 21
66.63250000000005
  0
LINE
  8
_1-8_小物
  6
CONTINUOUS
 62
    4
 10
63.168636670088063
 20
67.44575332182427
 11
63.356136670088176
 21
67.337500000000006
  0
LINE
  8
_1-8_小物
  6
CONTINUOUS
 62
    4
 10
63.356136670088176
 20
67.337500000000006
 11
63.168636670088119
 21
67.229246678175741
  0
LINE
  8
_1-8_小物
  6
CONTINUOUS
 62
    4
 10
63.168636670088063
 20
67.44575332182427
 11
62.168636670088176
 21
67.210753321824313
  0
LINE
  8
_1-8_小物
  6
CONTINUOUS
 62
    4
 10
61.981136670088176
 20
67.10250000000002
 11
62.168636670088176
 21
67.210753321824313
  0
LINE
  8
_1-8_小物
  6
CONTINUOUS
 62
    4
 10
62.168636670088176
 20
66.994246678175756
 11
61.981136670088176
 21
67.10250000000002
  0
LINE
  8
_1-8_小物
  6
CONTINUOUS
 62
    4
 10
63.168636670088119
 20
67.229246678175741
 11
62.168636670088176
 21
66.994246678175756
  0
LINE
  8
_1-8_小物
  6
CONTINUOUS
 62
    4
 10
63.356136670088176
 20
67.337500000000006
 11
61.981136670088176
 21
67.10250000000002
  0
LINE
  8
_1-8_小物
  6
CONTINUOUS
 62
    4
 10
63.168636670088063
 20
67.915753321824269
 11
63.356136670088176
 21
67.807500000000005
  0
LINE
  8
_1-8_小物
  6
CONTINUOUS
 62
    4
 10
63.356136670088176
 20
67.807500000000005
 11
63.168636670088119
 21
67.699246678175712
  0
LINE
  8
_1-8_小物
  6
CONTINUOUS
 62
    4
 10
63.168636670088063
 20
67.915753321824269
 11
62.168636670088176
 21
67.680753321824284
  0
LINE
  8
_1-8_小物
  6
CONTINUOUS
 62
    4
 10
61.981136670088176
 20
67.572500000000019
 11
62.168636670088176
 21
67.680753321824284
  0
LINE
  8
_1-8_小物
  6
CONTINUOUS
 62
    4
 10
62.168636670088176
 20
67.464246678175755
 11
61.981136670088176
 21
67.572500000000019
  0
LINE
  8
_1-8_小物
  6
CONTINUOUS
 62
    4
 10
63.168636670088119
 20
67.699246678175712
 11
62.168636670088176
 21
67.464246678175755
  0
LINE
  8
_1-8_小物
  6
CONTINUOUS
 62
    4
 10
63.356136670088176
 20
67.807500000000005
 11
61.981136670088176
 21
67.572500000000019
  0
LINE
  8
_1-8_小物
  6
CONTINUOUS
 62
    4
 10
63.168636670088063
 20
68.385753321824268
 11
63.356136670088176
 21
68.277499999999975
  0
LINE
  8
_1-8_小物
  6
CONTINUOUS
 62
    4
 10
63.356136670088176
 20
68.277499999999975
 11
63.168636670088119
 21
68.16924667817571
  0
LINE
  8
_1-8_小物
  6
CONTINUOUS
 62
    4
 10
63.168636670088063
 20
68.385753321824268
 11
62.168636670088176
 21
68.150753321824283
  0
LINE
  8
_1-8_小物
  6
CONTINUOUS
 62
    4
 10
61.981136670088176
 20
68.042500000000018
 11
62.168636670088176
 21
68.150753321824283
  0
LINE
  8
_1-8_小物
  6
CONTINUOUS
 62
    4
 10
62.168636670088176
 20
67.934246678175725
 11
61.981136670088176
 21
68.042500000000018
  0
LINE
  8
_1-8_小物
  6
CONTINUOUS
 62
    4
 10
63.168636670088119
 20
68.16924667817571
 11
62.168636670088176
 21
67.934246678175725
  0
LINE
  8
_1-8_小物
  6
CONTINUOUS
 62
    4
 10
63.356136670088176
 20
68.277499999999975
 11
61.981136670088176
 21
68.042500000000018
  0
LINE
  8
_1-8_小物
  6
CONTINUOUS
 62
    4
 10
63.168636670088063
 20
68.855753321824238
 11
63.356136670088176
 21
68.747499999999974
  0
LINE
  8
_1-8_小物
  6
CONTINUOUS
 62
    4
 10
63.356136670088176
 20
68.747499999999974
 11
63.168636670088119
 21
68.639246678175709
  0
LINE
  8
_1-8_小物
  6
CONTINUOUS
 62
    4
 10
63.168636670088063
 20
68.855753321824238
 11
62.168636670088176
 21
68.620753321824282
  0
LINE
  8
_1-8_小物
  6
CONTINUOUS
 62
    4
 10
61.981136670088176
 20
68.512499999999989
 11
62.168636670088176
 21
68.620753321824282
  0
LINE
  8
_1-8_小物
  6
CONTINUOUS
 62
    4
 10
62.168636670088176
 20
68.404246678175724
 11
61.981136670088176
 21
68.512499999999989
  0
LINE
  8
_1-8_小物
  6
CONTINUOUS
 62
    4
 10
63.168636670088119
 20
68.639246678175709
 11
62.168636670088176
 21
68.404246678175724
  0
LINE
  8
_1-8_小物
  6
CONTINUOUS
 62
    4
 10
63.356136670088176
 20
68.747499999999974
 11
61.981136670088176
 21
68.512499999999989
  0
LINE
  8
_1-8_小物
  6
CONTINUOUS
 62
    4
 10
62.16863667008829
 20
65.584246678175788
 11
62.16863667008829
 21
65.330753321824346
  0
LINE
  8
_1-8_小物
  6
CONTINUOUS
 62
    4
 10
62.16863667008829
 20
66.054246678175787
 11
62.16863667008829
 21
65.800753321824345
  0
LINE
  8
_1-8_小物
  6
CONTINUOUS
 62
    4
 10
62.16863667008829
 20
66.524246678175757
 11
62.16863667008829
 21
66.270753321824373
  0
LINE
  8
_1-8_小物
  6
CONTINUOUS
 62
    4
 10
62.16863667008829
 20
66.994246678175756
 11
62.16863667008829
 21
66.740753321824315
  0
LINE
  8
_1-8_小物
  6
CONTINUOUS
 62
    4
 10
62.16863667008829
 20
67.464246678175755
 11
62.16863667008829
 21
67.210753321824313
  0
LINE
  8
_1-8_小物
  6
CONTINUOUS
 62
    4
 10
62.16863667008829
 20
67.934246678175725
 11
62.16863667008829
 21
67.680753321824284
  0
LINE
  8
_1-8_小物
  6
CONTINUOUS
 62
    4
 10
62.16863667008829
 20
69.099999999999966
 11
62.16863667008829
 21
68.620753321824282
  0
LINE
  8
_1-8_小物
  6
CONTINUOUS
 62
    4
 10
62.16863667008829
 20
68.404246678175724
 11
62.16863667008829
 21
68.150753321824311
  0
LINE
  8
_1-8_小物
  6
CONTINUOUS
 62
    4
 10
63.168636670088063
 20
69.099999999999966
 11
63.168636670088063
 21
68.855753321824238
  0
LINE
  8
_1-8_小物
  6
CONTINUOUS
 62
    4
 10
63.168636670088063
 20
68.639246678175653
 11
63.168636670088063
 21
68.385753321824268
  0
LINE
  8
_1-8_小物
  6
CONTINUOUS
 62
    4
 10
63.168636670088063
 20
68.16924667817571
 11
63.168636670088063
 21
67.915753321824269
  0
LINE
  8
_1-8_小物
  6
CONTINUOUS
 62
    4
 10
63.168636670088063
 20
67.699246678175683
 11
63.168636670088063
 21
67.44575332182427
  0
LINE
  8
_1-8_小物
  6
CONTINUOUS
 62
    4
 10
63.168636670088063
 20
67.229246678175741
 11
63.168636670088063
 21
66.9757533218243
  0
LINE
  8
_1-8_小物
  6
CONTINUOUS
 62
    4
 10
63.168636670088063
 20
66.759246678175742
 11
63.168636670088063
 21
66.505753321824301
  0
LINE
  8
_1-8_小物
  6
CONTINUOUS
 62
    4
 10
63.168636670088063
 20
66.289246678175715
 11
63.168636670088063
 21
66.035753321824302
  0
LINE
  8
_1-8_小物
  6
CONTINUOUS
 62
    4
 10
63.235303336754725
 20
65.326666666666654
 11
63.235303336754725
 21
64.329999999999984
  0
LINE
  8
_1-8_小物
  6
CONTINUOUS
 62
    4
 10
62.10197000342157
 20
65.326666666666654
 11
63.235303336754725
 21
65.326666666666654
  0
LINE
  8
_1-8_小物
  6
CONTINUOUS
 62
    4
 10
62.10197000342157
 20
65.326666666666654
 11
62.10197000342157
 21
64.329999999999984
  0
LINE
  8
_1-8_小物
  6
CONTINUOUS
 62
    4
 10
62.10197000342157
 20
64.329999999999984
 11
62.668636670088176
 21
64.002834847459269
  0
LINE
  8
_1-8_小物
  6
CONTINUOUS
 62
    4
 10
63.235303336754725
 20
64.329999999999984
 11
62.668636670088176
 21
64.002834847459269
  0
LINE
  8
_1-8_小物
  6
CONTINUOUS
 62
    4
 10
62.668636670088176
 20
64.118304901297194
 11
63.135303336754816
 21
64.387735026918961
  0
LINE
  8
_1-8_小物
  6
CONTINUOUS
 62
    4
 10
63.135303336754816
 20
65.326666666666654
 11
63.135303336754816
 21
64.387735026918961
  0
LINE
  8
_1-8_小物
  6
CONTINUOUS
 62
    4
 10
62.668636670088176
 20
64.118304901297194
 11
62.881703451779288
 21
65.326666666666654
  0
LINE
  8
_1-8_小物
  6
CONTINUOUS
 62
    4
 10
63.168636670088063
 20
65.819246678175716
 11
63.168636670088063
 21
65.326666666666654
  0
LINE
  8
_1-8_小物
  6
CONTINUOUS
 62
    4
 10
62.668636670088176
 20
64.002834847459269
 11
62.668636670088176
 21
64.118304901297194
  0
LINE
  8
_1-8_小物
  6
CENTER2
 62
    4
 10
62.668636670088176
 20
70
 11
62.668636670088176
 21
63.669501514125955
  0
ENDBLK
  0
ENDSEC
  0
SECTION
  2
ENTITIES
  0
LINE
  8
_0-0_図面枠
  6
CONTINUOUS
 62
    6
 10
410.00000000000006
 20
287
 11
10
 21
287.00000000000006
  0
LINE
  8
_0-0_図面枠
  6
CONTINUOUS
 62
    6
 10
410
 20
9.9999999999998863
 11
410.00000000000006
 21
287
  0
LINE
  8
_0-0_図面枠
  6
CONTINUOUS
 62
    6
 10
9.9999999999999147
 20
10
 11
410
 21
9.9999999999998863
  0
LINE
  8
_0-0_図面枠
  6
CONTINUOUS
 62
    6
 10
10
 20
287.00000000000006
 11
9.9999999999999147
 21
10
  0
LINE
  8
ADD_LINE
  6
DOT
 62
    4
 10
0
 20
148.5
 11
420
 21
148.5
  0
LINE
  8
_0-0_図面枠
  6
CONTINUOUS
 62
    6
 10
210
 20
287
 11
210.00000000000003
 21
9.9999999999999432
  0
TEXT
  8
_0-0_図面枠
 62
    4
 10
20
 20
280
 40
3.2000000000000002
 41
1
 50
0
  1
（アルミ２００タイプ）
  0
TEXT
  8
_0-0_図面枠
 62
    4
 10
220
 20
280
 40
3.2000000000000002
 41
1
 50
0
  1
（アルミ２００タイプ）
  0
TEXT
  8
_0-0_図面枠
 62
    4
 10
30
 20
270
 40
3.2000000000000002
 41
1
 50
0
  1
◇内壁＋内壁（２００ＫＫＧ－Ａ）　Ｓ＝１／３
  0
TEXT
  8
_0-0_図面枠
 62
    4
 10
230
 20
270
 40
3.2000000000000002
 41
1
 50
0
  1
◇内壁＋内壁コーナー（２００ＫＣＧ－Ａ）　Ｓ＝１／３
  0
TEXT
  8
_0-0_図面枠
 62
    4
 10
41.666666666666686
 20
128
 40
3
 41
1
 50
0
  1
（落下防止ワイヤー）
  0
INSERT
  2
-000-
  8
_1-8_小物
 10
210
 20
148.5
 41
1
 42
1
 50
0
  0
LINE
  8
_1-8_小物
  6
CONTINUOUS
 62
    4
 10
157.03985321657842
 20
131.84018902839435
 11
151.17656837665947
 21
130.18752043233465
  0
LINE
  8
_1-8_小物
  6
CONTINUOUS
 62
    4
 10
157.16066740562403
 20
131.35707331101597
 11
151.24647145802518
 21
129.68796469593613
  0
LINE
  8
_1-8_小物
  6
CONTINUOUS
 62
    4
 10
157.03985321657842
 20
127.15981097160562
 11
151.17656837665947
 21
128.81247956766532
  0
LINE
  8
_1-8_小物
  6
CONTINUOUS
 62
    4
 10
157.16066740562403
 20
127.64292668898401
 11
151.24647145802518
 21
129.31203530406384
  0
LINE
  8
_1-8_小物
  6
CONTINUOUS
 62
    4
 10
157.1606675134222
 20
127.64292665856117
 11
157.1606675134222
 21
127.64292665856117
  0
LINE
  8
_1-8_小物
  6
CONTINUOUS
 62
    4
 10
157.1606675134222
 20
127.64292665856117
 11
157.6334904430544
 21
127.54220923628057
  0
LINE
  8
_1-8_小物
  6
CONTINUOUS
 62
    4
 10
157.6334904430544
 20
127.54220923628057
 11
158.1239067754791
 21
127.50097829566566
  0
LINE
  8
_1-8_小物
  6
CONTINUOUS
 62
    4
 10
158.1239067754791
 20
127.50097829566566
 11
158.61701545859825
 21
127.52048661798315
  0
LINE
  8
_1-8_小物
  6
CONTINUOUS
 62
    4
 10
158.61701545859825
 20
127.52048661798315
 11
159.09783363460025
 21
127.60014145273114
  0
LINE
  8
_1-8_小物
  6
CONTINUOUS
 62
    4
 10
159.09783363460025
 20
127.60014145273114
 11
159.55175188651307
 21
127.73752252806307
  0
LINE
  8
_1-8_小物
  6
CONTINUOUS
 62
    4
 10
159.55175188651307
 20
127.73752252806307
 11
159.96497813794605
 21
127.92845558952315
  0
LINE
  8
_1-8_小物
  6
CONTINUOUS
 62
    4
 10
159.96497813794605
 20
127.92845558952315
 11
160.32495671835193
 21
128.16713923265576
  0
LINE
  8
_1-8_小物
  6
CONTINUOUS
 62
    4
 10
160.32495671835193
 20
128.16713923265576
 11
160.62074986072309
 21
128.446321175744
  0
LINE
  8
_1-8_小物
  6
CONTINUOUS
 62
    4
 10
160.62074986072309
 20
128.446321175744
 11
160.84337004010709
 21
128.75751861672009
  0
LINE
  8
_1-8_小物
  6
CONTINUOUS
 62
    4
 10
160.84337004010709
 20
128.75751861672009
 11
160.98605305500459
 21
129.0912759788134
  0
LINE
  8
_1-8_小物
  6
CONTINUOUS
 62
    4
 10
160.98605305500459
 20
129.0912759788134
 11
161.04446355420905
 21
129.43745221346614
  0
LINE
  8
_1-8_小物
  6
CONTINUOUS
 62
    4
 10
161.04446355420905
 20
129.43745221346614
 11
161.01682676425926
 21
129.78552893096199
  0
LINE
  8
_1-8_小物
  6
CONTINUOUS
 62
    4
 10
161.01682676425926
 20
129.78552893096199
 11
160.90398241503294
 21
130.12492999637519
  0
LINE
  8
_1-8_小物
  6
CONTINUOUS
 62
    4
 10
160.90398241503294
 20
130.12492999637519
 11
160.70935922497938
 21
130.44534288007836
  0
LINE
  8
_1-8_小物
  6
CONTINUOUS
 62
    4
 10
160.70935922497938
 20
130.44534288007836
 11
160.43887072124426
 21
130.73703199873694
  0
LINE
  8
_1-8_小物
  6
CONTINUOUS
 62
    4
 10
160.43887072124426
 20
130.73703199873694
 11
160.10073556013975
 21
130.99113452608228
  0
LINE
  8
_1-8_小物
  6
CONTINUOUS
 62
    4
 10
160.10073556013975
 20
130.99113452608228
 11
159.70522780743138
 21
131.19992968540308
  0
LINE
  8
_1-8_小物
  6
CONTINUOUS
 62
    4
 10
159.70522780743138
 20
131.19992968540308
 11
159.26436476604863
 21
131.35707334143885
  0
LINE
  8
_1-8_小物
  6
CONTINUOUS
 62
    4
 10
159.26436476604863
 20
131.35707334143885
 11
158.79154183641643
 21
131.45779076371943
  0
LINE
  8
_1-8_小物
  6
CONTINUOUS
 62
    4
 10
158.79154183641643
 20
131.45779076371943
 11
158.30112550399173
 21
131.49902170433435
  0
LINE
  8
_1-8_小物
  6
CONTINUOUS
 62
    4
 10
158.30112550399173
 20
131.49902170433435
 11
157.80801682087258
 21
131.47951338201685
  0
LINE
  8
_1-8_小物
  6
CONTINUOUS
 62
    4
 10
157.80801682087258
 20
131.47951338201685
 11
157.32719864487058
 21
131.39985854726888
  0
LINE
  8
_1-8_小物
  6
CONTINUOUS
 62
    4
 10
157.32719864487058
 20
131.39985854726888
 11
157.160667405624
 21
131.35707331101594
  0
LINE
  8
_1-8_小物
  6
CONTINUOUS
 62
    4
 10
157.039853303781
 20
127.15981094702609
 11
157.039853303781
 21
127.15981094702609
  0
LINE
  8
_1-8_小物
  6
CONTINUOUS
 62
    4
 10
157.039853303781
 20
127.15981094702609
 11
157.5994947731449
 21
127.04264060375607
  0
LINE
  8
_1-8_小物
  6
CONTINUOUS
 62
    4
 10
157.5994947731449
 20
127.04264060375607
 11
158.1777625865289
 21
127.00013588225708
  0
LINE
  8
_1-8_小物
  6
CONTINUOUS
 62
    4
 10
158.1777625865289
 20
127.00013588225708
 11
158.75708636904091
 21
127.03358826698343
  0
LINE
  8
_1-8_小物
  6
CONTINUOUS
 62
    4
 10
158.75708636904091
 20
127.03358826698343
 11
159.31986366070132
 21
127.14198132415292
  0
LINE
  8
_1-8_小物
  6
CONTINUOUS
 62
    4
 10
159.31986366070132
 20
127.14198132415292
 11
159.84899475828206
 21
127.32202158557301
  0
LINE
  8
_1-8_小物
  6
CONTINUOUS
 62
    4
 10
159.84899475828206
 20
127.32202158557301
 11
160.32840228113639
 21
127.56823861900521
  0
LINE
  8
_1-8_小物
  6
CONTINUOUS
 62
    4
 10
160.32840228113639
 20
127.56823861900521
 11
160.74351967427432
 21
127.87315124448051
  0
LINE
  8
_1-8_小物
  6
CONTINUOUS
 62
    4
 10
160.74351967427432
 20
127.87315124448051
 11
161.08173380576486
 21
128.22749484616708
  0
LINE
  8
_1-8_小物
  6
CONTINUOUS
 62
    4
 10
161.08173380576486
 20
128.22749484616708
 11
161.33276821036728
 21
128.62050287303418
  0
LINE
  8
_1-8_小物
  6
CONTINUOUS
 62
    4
 10
161.33276821036728
 20
128.62050287303418
 11
161.48899533472729
 21
129.04023397505711
  0
LINE
  8
_1-8_小物
  6
CONTINUOUS
 62
    4
 10
161.48899533472729
 20
129.04023397505711
 11
161.54566829672595
 21
129.47393483509512
  0
LINE
  8
_1-8_小物
  6
CONTINUOUS
 62
    4
 10
161.54566829672595
 20
129.47393483509512
 11
161.5010651170908
 21
129.90842767197913
  0
LINE
  8
_1-8_小物
  6
CONTINUOUS
 62
    4
 10
161.5010651170908
 20
129.90842767197913
 11
161.35654104086481
 21
130.33051064072444
  0
LINE
  8
_1-8_小物
  6
CONTINUOUS
 62
    4
 10
161.35654104086481
 20
130.33051064072444
 11
161.11648735897137
 21
130.72735896391001
  0
LINE
  8
_1-8_小物
  6
CONTINUOUS
 62
    4
 10
161.11648735897137
 20
130.72735896391001
 11
160.78819798106178
 21
131.08691460605075
  0
LINE
  8
_1-8_小物
  6
CONTINUOUS
 62
    4
 10
160.78819798106178
 20
131.08691460605075
 11
160.38164781376139
 21
131.3982526509042
  0
LINE
  8
_1-8_小物
  6
CONTINUOUS
 62
    4
 10
160.38164781376139
 20
131.3982526509042
 11
159.9091896781793
 21
131.6519132495221
  0
LINE
  8
_1-8_小物
  6
CONTINUOUS
 62
    4
 10
159.9091896781793
 20
131.6519132495221
 11
159.38517897568983
 21
131.84018905297393
  0
LINE
  8
_1-8_小物
  6
CONTINUOUS
 62
    4
 10
159.38517897568983
 20
131.84018905297393
 11
158.82553750632593
 21
131.95735939624393
  0
LINE
  8
_1-8_小物
  6
CONTINUOUS
 62
    4
 10
158.82553750632593
 20
131.95735939624393
 11
158.24726969294193
 21
131.99986411774293
  0
LINE
  8
_1-8_小物
  6
CONTINUOUS
 62
    4
 10
158.24726969294193
 20
131.99986411774293
 11
157.66794591042992
 21
131.96641173301657
  0
LINE
  8
_1-8_小物
  6
CONTINUOUS
 62
    4
 10
157.66794591042992
 20
131.96641173301657
 11
157.10516861876951
 21
131.85801867584706
  0
LINE
  8
_1-8_小物
  6
CONTINUOUS
 62
    4
 10
157.10516861876951
 20
131.85801867584706
 11
157.03985321657842
 21
131.84018902839435
  0
ARC
  8
_1-8_小物
  6
CONTINUOUS
 62
    4
 10
149.88841540894515
 20
124.49999999999997
 40
5
 50
74.23983426036601
 51
82.444482010074083
  0
ARC
  8
_1-8_小物
  6
CONTINUOUS
 62
    4
 10
149.82008748449641
 20
123.99999999999997
 40
5
 50
74.258588419679057
 51
81.653895699843488
  0
ARC
  8
_1-8_小物
  6
CONTINUOUS
 62
    4
 10
149.82008748449641
 20
135
 40
5
 50
278.34610430015653
 51
285.74141158032086
  0
ARC
  8
_1-8_小物
  6
CONTINUOUS
 62
    4
 10
149.88841540894515
 20
134.5
 40
5
 50
277.55551798992593
 51
285.76016573963392
  0
INSERT
  2
-001-_1_
  8
_1-8_小物
 10
210
 20
148.5
 41
1
 42
1
 50
0
  0
LINE
  8
_1-8_小物
  6
CONTINUOUS
 62
    4
 10
82.718512396225748
 20
131.84018902839435
 11
88.581797236144695
 21
130.18752043233465
  0
LINE
  8
_1-8_小物
  6
CONTINUOUS
 62
    4
 10
82.597698207180116
 20
131.35707331101597
 11
88.511894154779
 21
129.68796469593613
  0
LINE
  8
_1-8_小物
  6
CONTINUOUS
 62
    4
 10
82.718512396225748
 20
127.15981097160562
 11
88.581797236144695
 21
128.81247956766532
  0
LINE
  8
_1-8_小物
  6
CONTINUOUS
 62
    4
 10
82.597698207180116
 20
127.64292668898401
 11
88.511894154779
 21
129.31203530406384
  0
LINE
  8
_1-8_小物
  6
CONTINUOUS
 62
    4
 10
82.597698207180201
 20
131.35707331101594
 11
82.597698207180201
 21
131.35707331101594
  0
LINE
  8
_1-8_小物
  6
CONTINUOUS
 62
    4
 10
82.597698207180201
 20
131.35707331101594
 11
82.124875283394388
 21
131.45779074697211
  0
LINE
  8
_1-8_小物
  6
CONTINUOUS
 62
    4
 10
82.124875283394388
 20
131.45779074697211
 11
81.634458953363037
 21
131.49902170177148
  0
LINE
  8
_1-8_小物
  6
CONTINUOUS
 62
    4
 10
81.634458953363037
 20
131.49902170177148
 11
81.141350269111499
 21
131.47951339371627
  0
LINE
  8
_1-8_小物
  6
CONTINUOUS
 62
    4
 10
81.141350269111499
 20
131.47951339371627
 11
80.660532088485724
 21
131.39985857287513
  0
LINE
  8
_1-8_小物
  6
CONTINUOUS
 62
    4
 10
80.660532088485724
 20
131.39985857287513
 11
80.206613828598293
 21
131.262477510672
  0
LINE
  8
_1-8_小物
  6
CONTINUOUS
 62
    4
 10
80.206613828598293
 20
131.262477510672
 11
79.79338756608216
 21
131.07154446116377
  0
LINE
  8
_1-8_小物
  6
CONTINUOUS
 62
    4
 10
79.79338756608216
 20
131.07154446116377
 11
79.433408971821308
 21
130.8328608284429
  0
LINE
  8
_1-8_小物
  6
CONTINUOUS
 62
    4
 10
79.433408971821308
 20
130.8328608284429
 11
79.137615813244381
 21
130.55367889390996
  0
LINE
  8
_1-8_小物
  6
CONTINUOUS
 62
    4
 10
79.137615813244381
 20
130.55367889390996
 11
78.914995615796187
 21
130.24248145937278
  0
LINE
  8
_1-8_小物
  6
CONTINUOUS
 62
    4
 10
78.914995615796187
 20
130.24248145937278
 11
78.772312581524943
 21
129.90872410140634
  0
LINE
  8
_1-8_小物
  6
CONTINUOUS
 62
    4
 10
78.772312581524943
 20
129.90872410140634
 11
78.71390206222587
 21
129.56254786844303
  0
LINE
  8
_1-8_小物
  6
CONTINUOUS
 62
    4
 10
78.71390206222587
 20
129.56254786844303
 11
78.741538831970715
 21
129.2144711501478
  0
LINE
  8
_1-8_小物
  6
CONTINUOUS
 62
    4
 10
78.741538831970715
 20
129.2144711501478
 11
78.854383161495676
 21
128.8750700814708
  0
LINE
  8
_1-8_小物
  6
CONTINUOUS
 62
    4
 10
78.854383161495676
 20
128.8750700814708
 11
79.0490063329501
 21
128.55465719213848
  0
LINE
  8
_1-8_小物
  6
CONTINUOUS
 62
    4
 10
79.0490063329501
 20
128.55465719213848
 11
79.319494819753459
 21
128.26296806565651
  0
LINE
  8
_1-8_小物
  6
CONTINUOUS
 62
    4
 10
79.319494819753459
 20
128.26296806565651
 11
79.657629966107976
 21
128.0088655285312
  0
LINE
  8
_1-8_小物
  6
CONTINUOUS
 62
    4
 10
79.657629966107976
 20
128.0088655285312
 11
80.053137706696333
 21
127.80007035777102
  0
LINE
  8
_1-8_小物
  6
CONTINUOUS
 62
    4
 10
80.053137706696333
 20
127.80007035777102
 11
80.494000738957297
 21
127.64292668898406
  0
LINE
  8
_1-8_小物
  6
CONTINUOUS
 62
    4
 10
80.494000738957297
 20
127.64292668898406
 11
80.96682366274311
 21
127.54220925302788
  0
LINE
  8
_1-8_小物
  6
CONTINUOUS
 62
    4
 10
80.96682366274311
 20
127.54220925302788
 11
81.457239992774475
 21
127.50097829822853
  0
LINE
  8
_1-8_小物
  6
CONTINUOUS
 62
    4
 10
81.457239992774475
 20
127.50097829822853
 11
81.950348677026014
 21
127.52048660628371
  0
LINE
  8
_1-8_小物
  6
CONTINUOUS
 62
    4
 10
81.950348677026014
 20
127.52048660628371
 11
82.431166857651789
 21
127.60014142712487
  0
LINE
  8
_1-8_小物
  6
CONTINUOUS
 62
    4
 10
82.431166857651789
 20
127.60014142712487
 11
82.597698099381958
 21
127.64292665856115
  0
LINE
  8
_1-8_小物
  6
CONTINUOUS
 62
    4
 10
82.718512396225748
 20
131.84018902839435
 11
82.718512396225748
 21
131.84018902839435
  0
LINE
  8
_1-8_小物
  6
CONTINUOUS
 62
    4
 10
82.718512396225748
 20
131.84018902839435
 11
82.158870931227966
 21
131.9573593833947
  0
LINE
  8
_1-8_小物
  6
CONTINUOUS
 62
    4
 10
82.158870931227966
 20
131.9573593833947
 11
81.580603119427835
 21
131.99986411701445
  0
LINE
  8
_1-8_小物
  6
CONTINUOUS
 62
    4
 10
81.580603119427835
 20
131.99986411701445
 11
81.001279335669281
 21
131.96641174443101
  0
LINE
  8
_1-8_小物
  6
CONTINUOUS
 62
    4
 10
81.001279335669281
 20
131.96641174443101
 11
80.438502039969819
 21
131.8580186990576
  0
LINE
  8
_1-8_小物
  6
CONTINUOUS
 62
    4
 10
80.438502039969819
 20
131.8580186990576
 11
79.909370935680229
 21
131.67797844872834
  0
LINE
  8
_1-8_小物
  6
CONTINUOUS
 62
    4
 10
79.909370935680229
 20
131.67797844872834
 11
79.429963403651087
 21
131.43176142534475
  0
LINE
  8
_1-8_小物
  6
CONTINUOUS
 62
    4
 10
79.429963403651087
 20
131.43176142534475
 11
79.014845999151206
 21
131.12684880857049
  0
LINE
  8
_1-8_小物
  6
CONTINUOUS
 62
    4
 10
79.014845999151206
 20
131.12684880857049
 11
78.676631854456744
 21
130.77250521397306
  0
LINE
  8
_1-8_小物
  6
CONTINUOUS
 62
    4
 10
78.676631854456744
 20
130.77250521397306
 11
78.425597435209639
 21
130.37949719236775
  0
LINE
  8
_1-8_小物
  6
CONTINUOUS
 62
    4
 10
78.425597435209639
 20
130.37949719236775
 11
78.269370295209171
 21
129.95976609361941
  0
LINE
  8
_1-8_小物
  6
CONTINUOUS
 62
    4
 10
78.269370295209171
 20
129.95976609361941
 11
78.212697317049489
 21
129.52606523476931
  0
LINE
  8
_1-8_小物
  6
CONTINUOUS
 62
    4
 10
78.212697317049489
 20
129.52606523476931
 11
78.257300480494095
 21
129.0915723969504
  0
LINE
  8
_1-8_小物
  6
CONTINUOUS
 62
    4
 10
78.257300480494095
 20
129.0915723969504
 11
78.401824540991996
 21
128.66948942517578
  0
LINE
  8
_1-8_小物
  6
CONTINUOUS
 62
    4
 10
78.401824540991996
 20
128.66948942517578
 11
78.641878208097665
 21
128.27264109695858
  0
LINE
  8
_1-8_小物
  6
CONTINUOUS
 62
    4
 10
78.641878208097665
 20
128.27264109695858
 11
78.970167572609114
 21
127.91308544793674
  0
LINE
  8
_1-8_小物
  6
CONTINUOUS
 62
    4
 10
78.970167572609114
 20
127.91308544793674
 11
79.376717728308108
 21
127.60174739456183
  0
LINE
  8
_1-8_小物
  6
CONTINUOUS
 62
    4
 10
79.376717728308108
 20
127.60174739456183
 11
79.849175854438016
 21
127.34808678604097
  0
LINE
  8
_1-8_小物
  6
CONTINUOUS
 62
    4
 10
79.849175854438016
 20
127.34808678604097
 11
80.37318654991175
 21
127.15981097160564
  0
LINE
  8
_1-8_小物
  6
CONTINUOUS
 62
    4
 10
80.37318654991175
 20
127.15981097160564
 11
80.932828014909546
 21
127.04264061660528
  0
LINE
  8
_1-8_小物
  6
CONTINUOUS
 62
    4
 10
80.932828014909546
 20
127.04264061660528
 11
81.511095826709678
 21
127.00013588298553
  0
LINE
  8
_1-8_小物
  6
CONTINUOUS
 62
    4
 10
81.511095826709678
 20
127.00013588298553
 11
82.090419610468231
 21
127.03358825556899
  0
LINE
  8
_1-8_小物
  6
CONTINUOUS
 62
    4
 10
82.090419610468231
 20
127.03358825556899
 11
82.653196906167693
 21
127.1419813009424
  0
LINE
  8
_1-8_小物
  6
CONTINUOUS
 62
    4
 10
82.653196906167693
 20
127.1419813009424
 11
82.718512309023168
 21
127.15981094702607
  0
ARC
  8
_1-8_小物
  6
CONTINUOUS
 62
    4
 10
89.869950203859005
 20
124.49999999999997
 40
5
 50
97.555517989925761
 51
105.76016573963415
  0
ARC
  8
_1-8_小物
  6
CONTINUOUS
 62
    4
 10
89.938278128307758
 20
123.99999999999997
 40
5
 50
98.346104300156512
 51
105.74141158032096
  0
ARC
  8
_1-8_小物
  6
CONTINUOUS
 62
    4
 10
89.938278128307758
 20
135
 40
5
 50
254.25858841967909
 51
261.65389569984347
  0
ARC
  8
_1-8_小物
  6
CONTINUOUS
 62
    4
 10
89.869950203859005
 20
134.5
 40
5
 50
254.23983426036591
 51
262.44448201007424
  0
LINE
  8
_1-8_小物
  6
CONTINUOUS
 62
    4
 10
91.879182806402085
 20
129.24999999999997
 11
118.21251613973541
 21
129.24999999999997
  0
LINE
  8
_1-8_小物
  6
CONTINUOUS
 62
    4
 10
91.879182806402085
 20
129.75
 11
118.21251613973541
 21
129.75
  0
LINE
  8
_1-8_小物
  6
CONTINUOUS
 62
    4
 10
147.87918280640207
 20
129.24999999999997
 11
121.54584947306876
 21
129.24999999999997
  0
LINE
  8
_1-8_小物
  6
CONTINUOUS
 62
    4
 10
147.87918280640207
 20
129.75
 11
121.54584947306876
 21
129.75
  0
TEXT
  8
_0-0_図面枠
 62
    4
 10
241.66666666666663
 20
128
 40
3
 41
1
 50
0
  1
（落下防止ワイヤー）
  0
INSERT
  2
-002-_2_
  8
_1-8_小物
 10
210
 20
148.5
 41
1
 42
1
 50
0
  0
LINE
  8
_1-8_小物
  6
CONTINUOUS
 62
    4
 10
357.03985321657842
 20
131.84018902839435
 11
351.17656837665947
 21
130.18752043233465
  0
LINE
  8
_1-8_小物
  6
CONTINUOUS
 62
    4
 10
357.16066740562405
 20
131.35707331101597
 11
351.24647145802516
 21
129.68796469593613
  0
LINE
  8
_1-8_小物
  6
CONTINUOUS
 62
    4
 10
357.03985321657842
 20
127.15981097160562
 11
351.17656837665947
 21
128.81247956766532
  0
LINE
  8
_1-8_小物
  6
CONTINUOUS
 62
    4
 10
357.16066740562405
 20
127.64292668898401
 11
351.24647145802516
 21
129.31203530406384
  0
LINE
  8
_1-8_小物
  6
CONTINUOUS
 62
    4
 10
357.1606675134222
 20
127.64292665856115
 11
357.1606675134222
 21
127.64292665856115
  0
LINE
  8
_1-8_小物
  6
CONTINUOUS
 62
    4
 10
357.1606675134222
 20
127.64292665856115
 11
357.63349044305437
 21
127.54220923628056
  0
LINE
  8
_1-8_小物
  6
CONTINUOUS
 62
    4
 10
357.63349044305437
 20
127.54220923628056
 11
358.1239067754791
 21
127.50097829566566
  0
LINE
  8
_1-8_小物
  6
CONTINUOUS
 62
    4
 10
358.1239067754791
 20
127.50097829566566
 11
358.61701545859825
 21
127.52048661798315
  0
LINE
  8
_1-8_小物
  6
CONTINUOUS
 62
    4
 10
358.61701545859825
 20
127.52048661798315
 11
359.09783363460025
 21
127.60014145273114
  0
LINE
  8
_1-8_小物
  6
CONTINUOUS
 62
    4
 10
359.09783363460025
 20
127.60014145273114
 11
359.55175188651305
 21
127.73752252806307
  0
LINE
  8
_1-8_小物
  6
CONTINUOUS
 62
    4
 10
359.55175188651305
 20
127.73752252806307
 11
359.96497813794605
 21
127.92845558952317
  0
LINE
  8
_1-8_小物
  6
CONTINUOUS
 62
    4
 10
359.96497813794605
 20
127.92845558952317
 11
360.32495671835193
 21
128.16713923265576
  0
LINE
  8
_1-8_小物
  6
CONTINUOUS
 62
    4
 10
360.32495671835193
 20
128.16713923265576
 11
360.62074986072309
 21
128.44632117574403
  0
LINE
  8
_1-8_小物
  6
CONTINUOUS
 62
    4
 10
360.62074986072309
 20
128.44632117574403
 11
360.84337004010706
 21
128.75751861672009
  0
LINE
  8
_1-8_小物
  6
CONTINUOUS
 62
    4
 10
360.84337004010706
 20
128.75751861672009
 11
360.98605305500456
 21
129.09127597881343
  0
LINE
  8
_1-8_小物
  6
CONTINUOUS
 62
    4
 10
360.98605305500456
 20
129.09127597881343
 11
361.04446355420902
 21
129.43745221346614
  0
LINE
  8
_1-8_小物
  6
CONTINUOUS
 62
    4
 10
361.04446355420902
 20
129.43745221346614
 11
361.01682676425924
 21
129.78552893096202
  0
LINE
  8
_1-8_小物
  6
CONTINUOUS
 62
    4
 10
361.01682676425924
 20
129.78552893096202
 11
360.90398241503294
 21
130.12492999637522
  0
LINE
  8
_1-8_小物
  6
CONTINUOUS
 62
    4
 10
360.90398241503294
 20
130.12492999637522
 11
360.70935922497932
 21
130.44534288007839
  0
LINE
  8
_1-8_小物
  6
CONTINUOUS
 62
    4
 10
360.70935922497932
 20
130.44534288007839
 11
360.4388707212442
 21
130.73703199873694
  0
LINE
  8
_1-8_小物
  6
CONTINUOUS
 62
    4
 10
360.4388707212442
 20
130.73703199873694
 11
360.1007355601397
 21
130.99113452608228
  0
LINE
  8
_1-8_小物
  6
CONTINUOUS
 62
    4
 10
360.1007355601397
 20
130.99113452608228
 11
359.70522780743136
 21
131.19992968540308
  0
LINE
  8
_1-8_小物
  6
CONTINUOUS
 62
    4
 10
359.70522780743136
 20
131.19992968540308
 11
359.26436476604857
 21
131.35707334143885
  0
LINE
  8
_1-8_小物
  6
CONTINUOUS
 62
    4
 10
359.26436476604857
 20
131.35707334143885
 11
358.7915418364164
 21
131.45779076371943
  0
LINE
  8
_1-8_小物
  6
CONTINUOUS
 62
    4
 10
358.7915418364164
 20
131.45779076371943
 11
358.30112550399167
 21
131.49902170433435
  0
LINE
  8
_1-8_小物
  6
CONTINUOUS
 62
    4
 10
358.30112550399167
 20
131.49902170433435
 11
357.80801682087252
 21
131.47951338201685
  0
LINE
  8
_1-8_小物
  6
CONTINUOUS
 62
    4
 10
357.80801682087252
 20
131.47951338201685
 11
357.32719864487052
 21
131.39985854726888
  0
LINE
  8
_1-8_小物
  6
CONTINUOUS
 62
    4
 10
357.32719864487052
 20
131.39985854726888
 11
357.16066740562394
 21
131.35707331101594
  0
LINE
  8
_1-8_小物
  6
CONTINUOUS
 62
    4
 10
357.039853303781
 20
127.15981094702607
 11
357.039853303781
 21
127.15981094702607
  0
LINE
  8
_1-8_小物
  6
CONTINUOUS
 62
    4
 10
357.039853303781
 20
127.15981094702607
 11
357.5994947731449
 21
127.04264060375607
  0
LINE
  8
_1-8_小物
  6
CONTINUOUS
 62
    4
 10
357.5994947731449
 20
127.04264060375607
 11
358.1777625865289
 21
127.00013588225708
  0
LINE
  8
_1-8_小物
  6
CONTINUOUS
 62
    4
 10
358.1777625865289
 20
127.00013588225708
 11
358.75708636904091
 21
127.03358826698343
  0
LINE
  8
_1-8_小物
  6
CONTINUOUS
 62
    4
 10
358.75708636904091
 20
127.03358826698343
 11
359.31986366070134
 21
127.14198132415294
  0
LINE
  8
_1-8_小物
  6
CONTINUOUS
 62
    4
 10
359.31986366070134
 20
127.14198132415294
 11
359.84899475828206
 21
127.32202158557303
  0
LINE
  8
_1-8_小物
  6
CONTINUOUS
 62
    4
 10
359.84899475828206
 20
127.32202158557303
 11
360.32840228113639
 21
127.56823861900523
  0
LINE
  8
_1-8_小物
  6
CONTINUOUS
 62
    4
 10
360.32840228113639
 20
127.56823861900523
 11
360.7435196742743
 21
127.87315124448052
  0
LINE
  8
_1-8_小物
  6
CONTINUOUS
 62
    4
 10
360.7435196742743
 20
127.87315124448052
 11
361.08173380576483
 21
128.2274948461671
  0
LINE
  8
_1-8_小物
  6
CONTINUOUS
 62
    4
 10
361.08173380576483
 20
128.2274948461671
 11
361.33276821036725
 21
128.62050287303421
  0
LINE
  8
_1-8_小物
  6
CONTINUOUS
 62
    4
 10
361.33276821036725
 20
128.62050287303421
 11
361.48899533472729
 21
129.04023397505713
  0
LINE
  8
_1-8_小物
  6
CONTINUOUS
 62
    4
 10
361.48899533472729
 20
129.04023397505713
 11
361.54566829672592
 21
129.47393483509512
  0
LINE
  8
_1-8_小物
  6
CONTINUOUS
 62
    4
 10
361.54566829672592
 20
129.47393483509512
 11
361.50106511709077
 21
129.90842767197915
  0
LINE
  8
_1-8_小物
  6
CONTINUOUS
 62
    4
 10
361.50106511709077
 20
129.90842767197915
 11
361.35654104086478
 21
130.33051064072447
  0
LINE
  8
_1-8_小物
  6
CONTINUOUS
 62
    4
 10
361.35654104086478
 20
130.33051064072447
 11
361.11648735897131
 21
130.72735896391001
  0
LINE
  8
_1-8_小物
  6
CONTINUOUS
 62
    4
 10
361.11648735897131
 20
130.72735896391001
 11
360.78819798106173
 21
131.08691460605075
  0
LINE
  8
_1-8_小物
  6
CONTINUOUS
 62
    4
 10
360.78819798106173
 20
131.08691460605075
 11
360.38164781376133
 21
131.3982526509042
  0
LINE
  8
_1-8_小物
  6
CONTINUOUS
 62
    4
 10
360.38164781376133
 20
131.3982526509042
 11
359.90918967817925
 21
131.6519132495221
  0
LINE
  8
_1-8_小物
  6
CONTINUOUS
 62
    4
 10
359.90918967817925
 20
131.6519132495221
 11
359.38517897568977
 21
131.84018905297393
  0
LINE
  8
_1-8_小物
  6
CONTINUOUS
 62
    4
 10
359.38517897568977
 20
131.84018905297393
 11
358.82553750632587
 21
131.95735939624393
  0
LINE
  8
_1-8_小物
  6
CONTINUOUS
 62
    4
 10
358.82553750632587
 20
131.95735939624393
 11
358.24726969294187
 21
131.99986411774293
  0
LINE
  8
_1-8_小物
  6
CONTINUOUS
 62
    4
 10
358.24726969294187
 20
131.99986411774293
 11
357.66794591042986
 21
131.96641173301657
  0
LINE
  8
_1-8_小物
  6
CONTINUOUS
 62
    4
 10
357.66794591042986
 20
131.96641173301657
 11
357.10516861876948
 21
131.85801867584706
  0
LINE
  8
_1-8_小物
  6
CONTINUOUS
 62
    4
 10
357.10516861876948
 20
131.85801867584706
 11
357.03985321657842
 21
131.84018902839438
  0
ARC
  8
_1-8_小物
  6
CONTINUOUS
 62
    4
 10
349.88841540894515
 20
124.49999999999997
 40
5
 50
74.239834260366322
 51
82.444482010074083
  0
ARC
  8
_1-8_小物
  6
CONTINUOUS
 62
    4
 10
349.82008748449636
 20
123.99999999999997
 40
5
 50
74.258588419678418
 51
81.653895699842849
  0
ARC
  8
_1-8_小物
  6
CONTINUOUS
 62
    4
 10
349.82008748449636
 20
135
 40
5
 50
278.34610430015715
 51
285.7414115803216
  0
ARC
  8
_1-8_小物
  6
CONTINUOUS
 62
    4
 10
349.88841540894515
 20
134.5
 40
5
 50
277.55551798992593
 51
285.76016573963363
  0
INSERT
  2
-003-_3_
  8
_1-8_小物
 10
210
 20
148.5
 41
1
 42
1
 50
0
  0
LINE
  8
_1-8_小物
  6
CONTINUOUS
 62
    4
 10
282.71851239622572
 20
131.84018902839435
 11
288.58179723614467
 21
130.18752043233465
  0
LINE
  8
_1-8_小物
  6
CONTINUOUS
 62
    4
 10
282.59769820718009
 20
131.35707331101597
 11
288.51189415477899
 21
129.68796469593613
  0
LINE
  8
_1-8_小物
  6
CONTINUOUS
 62
    4
 10
282.71851239622572
 20
127.15981097160562
 11
288.58179723614467
 21
128.81247956766532
  0
LINE
  8
_1-8_小物
  6
CONTINUOUS
 62
    4
 10
282.59769820718009
 20
127.64292668898401
 11
288.51189415477899
 21
129.31203530406384
  0
LINE
  8
_1-8_小物
  6
CONTINUOUS
 62
    4
 10
282.5976982071802
 20
131.35707331101594
 11
282.5976982071802
 21
131.35707331101594
  0
LINE
  8
_1-8_小物
  6
CONTINUOUS
 62
    4
 10
282.5976982071802
 20
131.35707331101594
 11
282.12487528339437
 21
131.45779074697211
  0
LINE
  8
_1-8_小物
  6
CONTINUOUS
 62
    4
 10
282.12487528339437
 20
131.45779074697211
 11
281.63445895336304
 21
131.49902170177148
  0
LINE
  8
_1-8_小物
  6
CONTINUOUS
 62
    4
 10
281.63445895336304
 20
131.49902170177148
 11
281.14135026911151
 21
131.47951339371627
  0
LINE
  8
_1-8_小物
  6
CONTINUOUS
 62
    4
 10
281.14135026911151
 20
131.47951339371627
 11
280.6605320884857
 21
131.39985857287513
  0
LINE
  8
_1-8_小物
  6
CONTINUOUS
 62
    4
 10
280.6605320884857
 20
131.39985857287513
 11
280.20661382859828
 21
131.262477510672
  0
LINE
  8
_1-8_小物
  6
CONTINUOUS
 62
    4
 10
280.20661382859828
 20
131.262477510672
 11
279.79338756608217
 21
131.07154446116377
  0
LINE
  8
_1-8_小物
  6
CONTINUOUS
 62
    4
 10
279.79338756608217
 20
131.07154446116377
 11
279.43340897182128
 21
130.8328608284429
  0
LINE
  8
_1-8_小物
  6
CONTINUOUS
 62
    4
 10
279.43340897182128
 20
130.8328608284429
 11
279.13761581324439
 21
130.55367889390996
  0
LINE
  8
_1-8_小物
  6
CONTINUOUS
 62
    4
 10
279.13761581324439
 20
130.55367889390996
 11
278.91499561579622
 21
130.24248145937278
  0
LINE
  8
_1-8_小物
  6
CONTINUOUS
 62
    4
 10
278.91499561579622
 20
130.24248145937278
 11
278.77231258152494
 21
129.90872410140634
  0
LINE
  8
_1-8_小物
  6
CONTINUOUS
 62
    4
 10
278.77231258152494
 20
129.90872410140634
 11
278.71390206222588
 21
129.56254786844303
  0
LINE
  8
_1-8_小物
  6
CONTINUOUS
 62
    4
 10
278.71390206222588
 20
129.56254786844303
 11
278.74153883197073
 21
129.2144711501478
  0
LINE
  8
_1-8_小物
  6
CONTINUOUS
 62
    4
 10
278.74153883197073
 20
129.2144711501478
 11
278.85438316149566
 21
128.8750700814708
  0
LINE
  8
_1-8_小物
  6
CONTINUOUS
 62
    4
 10
278.85438316149566
 20
128.8750700814708
 11
279.04900633295011
 21
128.55465719213848
  0
LINE
  8
_1-8_小物
  6
CONTINUOUS
 62
    4
 10
279.04900633295011
 20
128.55465719213848
 11
279.31949481975346
 21
128.26296806565651
  0
LINE
  8
_1-8_小物
  6
CONTINUOUS
 62
    4
 10
279.31949481975346
 20
128.26296806565651
 11
279.657629966108
 21
128.0088655285312
  0
LINE
  8
_1-8_小物
  6
CONTINUOUS
 62
    4
 10
279.657629966108
 20
128.0088655285312
 11
280.0531377066963
 21
127.80007035777102
  0
LINE
  8
_1-8_小物
  6
CONTINUOUS
 62
    4
 10
280.0531377066963
 20
127.80007035777102
 11
280.49400073895731
 21
127.64292668898406
  0
LINE
  8
_1-8_小物
  6
CONTINUOUS
 62
    4
 10
280.49400073895731
 20
127.64292668898406
 11
280.96682366274314
 21
127.54220925302788
  0
LINE
  8
_1-8_小物
  6
CONTINUOUS
 62
    4
 10
280.96682366274314
 20
127.54220925302788
 11
281.45723999277448
 21
127.50097829822853
  0
LINE
  8
_1-8_小物
  6
CONTINUOUS
 62
    4
 10
281.45723999277448
 20
127.50097829822853
 11
281.950348677026
 21
127.52048660628371
  0
LINE
  8
_1-8_小物
  6
CONTINUOUS
 62
    4
 10
281.950348677026
 20
127.52048660628371
 11
282.43116685765176
 21
127.60014142712487
  0
LINE
  8
_1-8_小物
  6
CONTINUOUS
 62
    4
 10
282.43116685765176
 20
127.60014142712487
 11
282.59769809938194
 21
127.64292665856115
  0
LINE
  8
_1-8_小物
  6
CONTINUOUS
 62
    4
 10
282.71851239622572
 20
131.84018902839438
 11
282.71851239622572
 21
131.84018902839438
  0
LINE
  8
_1-8_小物
  6
CONTINUOUS
 62
    4
 10
282.71851239622572
 20
131.84018902839438
 11
282.15887093122791
 21
131.9573593833947
  0
LINE
  8
_1-8_小物
  6
CONTINUOUS
 62
    4
 10
282.15887093122791
 20
131.9573593833947
 11
281.58060311942779
 21
131.99986411701445
  0
LINE
  8
_1-8_小物
  6
CONTINUOUS
 62
    4
 10
281.58060311942779
 20
131.99986411701445
 11
281.00127933566927
 21
131.96641174443101
  0
LINE
  8
_1-8_小物
  6
CONTINUOUS
 62
    4
 10
281.00127933566927
 20
131.96641174443101
 11
280.43850203996976
 21
131.8580186990576
  0
LINE
  8
_1-8_小物
  6
CONTINUOUS
 62
    4
 10
280.43850203996976
 20
131.8580186990576
 11
279.90937093568022
 21
131.67797844872834
  0
LINE
  8
_1-8_小物
  6
CONTINUOUS
 62
    4
 10
279.90937093568022
 20
131.67797844872834
 11
279.42996340365107
 21
131.43176142534472
  0
LINE
  8
_1-8_小物
  6
CONTINUOUS
 62
    4
 10
279.42996340365107
 20
131.43176142534472
 11
279.01484599915119
 21
131.12684880857049
  0
LINE
  8
_1-8_小物
  6
CONTINUOUS
 62
    4
 10
279.01484599915119
 20
131.12684880857049
 11
278.67663185445673
 21
130.77250521397303
  0
LINE
  8
_1-8_小物
  6
CONTINUOUS
 62
    4
 10
278.67663185445673
 20
130.77250521397303
 11
278.42559743520962
 21
130.37949719236772
  0
LINE
  8
_1-8_小物
  6
CONTINUOUS
 62
    4
 10
278.42559743520962
 20
130.37949719236772
 11
278.26937029520917
 21
129.95976609361938
  0
LINE
  8
_1-8_小物
  6
CONTINUOUS
 62
    4
 10
278.26937029520917
 20
129.95976609361938
 11
278.2126973170495
 21
129.52606523476928
  0
LINE
  8
_1-8_小物
  6
CONTINUOUS
 62
    4
 10
278.2126973170495
 20
129.52606523476928
 11
278.25730048049411
 21
129.09157239695037
  0
LINE
  8
_1-8_小物
  6
CONTINUOUS
 62
    4
 10
278.25730048049411
 20
129.09157239695037
 11
278.40182454099198
 21
128.66948942517575
  0
LINE
  8
_1-8_小物
  6
CONTINUOUS
 62
    4
 10
278.40182454099198
 20
128.66948942517575
 11
278.64187820809769
 21
128.27264109695858
  0
LINE
  8
_1-8_小物
  6
CONTINUOUS
 62
    4
 10
278.64187820809769
 20
128.27264109695858
 11
278.97016757260911
 21
127.91308544793672
  0
LINE
  8
_1-8_小物
  6
CONTINUOUS
 62
    4
 10
278.97016757260911
 20
127.91308544793672
 11
279.37671772830811
 21
127.60174739456181
  0
LINE
  8
_1-8_小物
  6
CONTINUOUS
 62
    4
 10
279.37671772830811
 20
127.60174739456181
 11
279.84917585443804
 21
127.34808678604097
  0
LINE
  8
_1-8_小物
  6
CONTINUOUS
 62
    4
 10
279.84917585443804
 20
127.34808678604097
 11
280.37318654991179
 21
127.15981097160564
  0
LINE
  8
_1-8_小物
  6
CONTINUOUS
 62
    4
 10
280.37318654991179
 20
127.15981097160564
 11
280.93282801490955
 21
127.04264061660528
  0
LINE
  8
_1-8_小物
  6
CONTINUOUS
 62
    4
 10
280.93282801490955
 20
127.04264061660528
 11
281.51109582670972
 21
127.00013588298553
  0
LINE
  8
_1-8_小物
  6
CONTINUOUS
 62
    4
 10
281.51109582670972
 20
127.00013588298553
 11
282.09041961046825
 21
127.03358825556899
  0
LINE
  8
_1-8_小物
  6
CONTINUOUS
 62
    4
 10
282.09041961046825
 20
127.03358825556899
 11
282.65319690616769
 21
127.14198130094242
  0
LINE
  8
_1-8_小物
  6
CONTINUOUS
 62
    4
 10
282.65319690616769
 20
127.14198130094242
 11
282.71851230902314
 21
127.15981094702607
  0
ARC
  8
_1-8_小物
  6
CONTINUOUS
 62
    4
 10
289.86995020385899
 20
124.49999999999997
 40
5
 50
97.555517989925917
 51
105.76016573963432
  0
ARC
  8
_1-8_小物
  6
CONTINUOUS
 62
    4
 10
289.93827812830773
 20
123.99999999999997
 40
5
 50
98.346104300156512
 51
105.74141158032096
  0
ARC
  8
_1-8_小物
  6
CONTINUOUS
 62
    4
 10
289.93827812830773
 20
135
 40
5
 50
254.25858841967909
 51
261.65389569984347
  0
ARC
  8
_1-8_小物
  6
CONTINUOUS
 62
    4
 10
289.86995020385899
 20
134.5
 40
5
 50
254.23983426036577
 51
262.44448201007407
  0
LINE
  8
_1-8_小物
  6
CONTINUOUS
 62
    4
 10
291.87918280640207
 20
129.24999999999997
 11
318.21251613973538
 21
129.24999999999997
  0
LINE
  8
_1-8_小物
  6
CONTINUOUS
 62
    4
 10
291.87918280640207
 20
129.75
 11
318.21251613973538
 21
129.75
  0
LINE
  8
_1-8_小物
  6
CONTINUOUS
 62
    4
 10
347.87918280640207
 20
129.24999999999997
 11
321.54584947306876
 21
129.24999999999997
  0
LINE
  8
_1-8_小物
  6
CONTINUOUS
 62
    4
 10
347.87918280640207
 20
129.75
 11
321.54584947306876
 21
129.75
  0
LINE
  8
_0-0_図面枠
  6
CONTINUOUS
 62
    4
 10
182.14999999999998
 20
56.199999999999989
 11
40
 21
56.199999999999989
  0
LINE
  8
_0-0_図面枠
  6
CONTINUOUS
 62
    4
 10
182.14999999999998
 20
68.199999999999989
 11
40
 21
68.199999999999989
  0
LINE
  8
_0-0_図面枠
  6
CONTINUOUS
 62
    4
 10
182.14999999999998
 20
62.199999999999989
 11
40
 21
62.199999999999989
  0
LINE
  8
_0-0_図面枠
  6
CONTINUOUS
 62
    4
 10
182.14999999999998
 20
74.199999999999989
 11
40
 21
74.199999999999989
  0
LINE
  8
_0-0_図面枠
  6
CONTINUOUS
 62
    4
 10
182.14999999999998
 20
110.20000000000005
 11
40
 21
110.20000000000005
  0
LINE
  8
_0-0_図面枠
  6
CONTINUOUS
 62
    4
 10
182.14999999999998
 20
104.20000000000005
 11
40
 21
104.20000000000005
  0
LINE
  8
_0-0_図面枠
  6
CONTINUOUS
 62
    4
 10
182.14999999999998
 20
98.200000000000045
 11
40
 21
98.200000000000045
  0
LINE
  8
_0-0_図面枠
  6
CONTINUOUS
 62
    4
 10
182.14999999999998
 20
92.200000000000045
 11
40
 21
92.200000000000045
  0
LINE
  8
_0-0_図面枠
  6
CONTINUOUS
 62
    4
 10
182.14999999999998
 20
86.200000000000045
 11
40
 21
86.200000000000045
  0
LINE
  8
_0-0_図面枠
  6
CONTINUOUS
 62
    4
 10
182.14999999999998
 20
80.199999999999989
 11
40
 21
80.199999999999989
  0
LINE
  8
_0-0_図面枠
  6
CONTINUOUS
 62
    4
 10
182.14999999999998
 20
121
 11
40
 21
121
  0
LINE
  8
_0-0_図面枠
  6
CONTINUOUS
 62
    4
 10
182.14999999999998
 20
50.199999999999989
 11
40
 21
50.199999999999989
  0
TEXT
  8
_0-0_図面枠
 62
    4
 10
165.55126400000003
 20
116.20001049999996
 40
3.2000000000000002
 41
1
 50
0
  1
使用
  0
TEXT
  8
_0-0_図面枠
 62
    4
 10
150.50638249999997
 20
116.20001049999996
 40
3.2000000000000002
 41
1
 50
0
  1
定　尺
  0
TEXT
  8
_0-0_図面枠
 62
    4
 10
148.3435475
 20
111.40000399999997
 40
3.2000000000000002
 41
1
 50
0
  1
（ｍｍ）
  0
TEXT
  8
_0-0_図面枠
 62
    4
 10
165.55126400000003
 20
111.40000399999997
 40
3.2000000000000002
 41
1
 50
0
  1
数量
  0
TEXT
  8
_0-0_図面枠
 62
    4
 10
40.497068000000013
 20
105.42754949999994
 40
3.2000000000000002
 41
1
 50
0
  1
　１
  0
TEXT
  8
_0-0_図面枠
 62
    4
 10
149.27047700000003
 20
105.40000399999997
 40
3.2000000000000002
 41
1
 50
0
  1
３０００
  0
TEXT
  8
_0-0_図面枠
 62
    4
 10
177.00512500000002
 20
105.40000399999997
 40
3.2000000000000002
 41
1
 50
0
  1
本
  0
TEXT
  8
_0-0_図面枠
 62
    4
 10
43.586831999999958
 20
99.427549499999941
 40
3.2000000000000002
 41
1
 50
0
  1
２
  0
TEXT
  8
_0-0_図面枠
 62
    4
 10
43.586831999999958
 20
93.427549499999941
 40
3.2000000000000002
 41
1
 50
0
  1
３
  0
TEXT
  8
_0-0_図面枠
 62
    4
 10
43.586831999999958
 20
87.427549499999941
 40
3.2000000000000002
 41
1
 50
0
  1
４
  0
TEXT
  8
_0-0_図面枠
 62
    4
 10
169.36022149999994
 20
87.450002999999924
 40
3.2000000000000002
 41
1
 50
0
  1
１
  0
TEXT
  8
_0-0_図面枠
 62
    4
 10
43.586831999999958
 20
81.427560999999969
 40
3.2000000000000002
 41
1
 50
0
  1
５
  0
TEXT
  8
_0-0_図面枠
 62
    4
 10
177.00512500000002
 20
81.399992499999996
 40
3.2000000000000002
 41
1
 50
0
  1
本
  0
TEXT
  8
_0-0_図面枠
 62
    4
 10
43.586831999999958
 20
75.427560999999969
 40
3.2000000000000002
 41
1
 50
0
  1
６
  0
TEXT
  8
_0-0_図面枠
 62
    4
 10
43.586831999999958
 20
69.427555499999983
 40
3.2000000000000002
 41
1
 50
0
  1
７
  0
TEXT
  8
_0-0_図面枠
 62
    4
 10
43.586831999999958
 20
63.427555499999983
 40
3.2000000000000002
 41
1
 50
0
  1
８
  0
TEXT
  8
_0-0_図面枠
 62
    4
 10
43.586831999999958
 20
57.427555499999983
 40
3.2000000000000002
 41
1
 50
0
  1
９
  0
LINE
  8
_0-0_図面枠
  6
CONTINUOUS
 62
    4
 10
382.15000000000009
 20
110.19999999999999
 11
240
 21
110.19999999999999
  0
LINE
  8
_0-0_図面枠
  6
CONTINUOUS
 62
    4
 10
382.15000000000009
 20
104.19999999999999
 11
240
 21
104.19999999999999
  0
LINE
  8
_0-0_図面枠
  6
CONTINUOUS
 62
    4
 10
382.15000000000009
 20
98.199999999999989
 11
240
 21
98.199999999999989
  0
LINE
  8
_0-0_図面枠
  6
CONTINUOUS
 62
    4
 10
382.15000000000009
 20
92.199999999999989
 11
240
 21
92.199999999999989
  0
LINE
  8
_0-0_図面枠
  6
CONTINUOUS
 62
    4
 10
382.15000000000009
 20
86.199999999999989
 11
240
 21
86.199999999999989
  0
LINE
  8
_0-0_図面枠
  6
CONTINUOUS
 62
    4
 10
382.15000000000009
 20
80.199999999999989
 11
240
 21
80.199999999999989
  0
LINE
  8
_0-0_図面枠
  6
CONTINUOUS
 62
    4
 10
382.15000000000009
 20
74.199999999999989
 11
240
 21
74.199999999999989
  0
LINE
  8
_0-0_図面枠
  6
CONTINUOUS
 62
    4
 10
382.15000000000009
 20
68.199999999999989
 11
240
 21
68.199999999999989
  0
LINE
  8
_0-0_図面枠
  6
CONTINUOUS
 62
    4
 10
382.15000000000009
 20
62.199999999999989
 11
240
 21
62.199999999999989
  0
LINE
  8
_0-0_図面枠
  6
CONTINUOUS
 62
    4
 10
382.15000000000009
 20
56.199999999999989
 11
240
 21
56.199999999999989
  0
LINE
  8
_0-0_図面枠
  6
CONTINUOUS
 62
    4
 10
382.15000000000009
 20
121
 11
240
 21
121
  0
LINE
  8
_0-0_図面枠
  6
CONTINUOUS
 62
    4
 10
382.15000000000009
 20
50.199999999999989
 11
240
 21
50.199999999999989
  0
TEXT
  8
_0-0_図面枠
 62
    4
 10
365.55123000000003
 20
116.20001050000002
 40
3.2000000000000002
 41
1
 50
0
  1
使用
  0
TEXT
  8
_0-0_図面枠
 62
    4
 10
350.50632500000006
 20
116.20002199999999
 40
3.2000000000000002
 41
1
 50
0
  1
定　尺
  0
TEXT
  8
_0-0_図面枠
 62
    4
 10
348.34349000000003
 20
111.400015
 40
3.2000000000000002
 41
1
 50
0
  1
（ｍｍ）
  0
TEXT
  8
_0-0_図面枠
 62
    4
 10
365.55123000000003
 20
111.40000400000002
 40
3.2000000000000002
 41
1
 50
0
  1
数量
  0
TEXT
  8
_0-0_図面枠
 62
    4
 10
240.4970505
 20
105.4275495
 40
3.2000000000000002
 41
1
 50
0
  1
　１
  0
TEXT
  8
_0-0_図面枠
 62
    4
 10
243.5868145
 20
99.427549499999998
 40
3.2000000000000002
 41
1
 50
0
  1
２
  0
TEXT
  8
_0-0_図面枠
 62
    4
 10
243.5868145
 20
93.427549499999998
 40
3.2000000000000002
 41
1
 50
0
  1
３
  0
TEXT
  8
_0-0_図面枠
 62
    4
 10
243.5868145
 20
87.427549499999998
 40
3.2000000000000002
 41
1
 50
0
  1
４
  0
TEXT
  8
_0-0_図面枠
 62
    4
 10
243.5868145
 20
81.427560999999997
 40
3.2000000000000002
 41
1
 50
0
  1
５
  0
TEXT
  8
_0-0_図面枠
 62
    4
 10
243.5868145
 20
75.427560999999997
 40
3.2000000000000002
 41
1
 50
0
  1
６
  0
TEXT
  8
_0-0_図面枠
 62
    4
 10
243.5868145
 20
69.427560999999997
 40
3.2000000000000002
 41
1
 50
0
  1
７
  0
TEXT
  8
_0-0_図面枠
 62
    4
 10
243.5868145
 20
63.427555499999983
 40
3.2000000000000002
 41
1
 50
0
  1
８
  0
TEXT
  8
_0-0_図面枠
 62
    4
 10
243.5868145
 20
57.427555499999983
 40
3.2000000000000002
 41
1
 50
0
  1
９
  0
TEXT
  8
_0-0_図面枠
 62
    4
 10
240.4970505
 20
51.427555499999983
 40
3.2000000000000002
 41
1
 50
0
  1
１０
  0
TEXT
  8
_0-0_図面枠
 62
    4
 10
169.36022149999994
 20
105.44999150000001
 40
3.2000000000000002
 41
1
 50
0
  1
１
  0
TEXT
  8
_0-0_図面枠
 62
    4
 10
48.400007500000015
 20
87.400003999999967
 40
3.2000000000000002
 41
1
 50
0
  1
ＳＳＧばねフレーム
  0
TEXT
  8
_0-0_図面枠
 62
    4
 10
149.27047700000003
 20
87.400003999999967
 40
3.2000000000000002
 41
1
 50
0
  1
３０００
  0
TEXT
  8
_0-0_図面枠
 62
    4
 10
169.36022149999994
 20
93.44999150000001
 40
3.2000000000000002
 41
1
 50
0
  1
６
  0
TEXT
  8
_0-0_図面枠
 62
    4
 10
149.27047700000003
 20
81.400003999999967
 40
3.2000000000000002
 41
1
 50
0
  1
３０００
  0
TEXT
  8
_0-0_図面枠
 62
    4
 10
169.36022149999994
 20
81.450002999999924
 40
3.2000000000000002
 41
1
 50
0
  1
１
  0
TEXT
  8
_0-0_図面枠
 62
    4
 10
177.00512500000002
 20
93.400004000000024
 40
3.2000000000000002
 41
1
 50
0
  1
個
  0
TEXT
  8
_0-0_図面枠
 62
    4
 10
178.54999999999998
 20
118.80000000000001
 40
3.2000000000000002
 41
1
 50
0
  1
単位
  7
TATEGAKI
  0
TEXT
  8
_0-0_図面枠
 62
    4
 10
378.55000000000007
 20
118.80000000000001
 40
3.2000000000000002
 41
1
 50
0
  1
単位
  7
TATEGAKI
  0
TEXT
  8
_0-0_図面枠
 62
    4
 10
40.4970505
 20
51.427555499999983
 40
3.2000000000000002
 41
1
 50
0
  1
１０
  0
TEXT
  8
_0-0_図面枠
 62
    4
 10
349.27047700000014
 20
105.40000399999997
 40
3.2000000000000002
 41
1
 50
0
  1
３０００
  0
TEXT
  8
_0-0_図面枠
 62
    4
 10
377.00512500000013
 20
105.40000399999997
 40
3.2000000000000002
 41
1
 50
0
  1
本
  0
TEXT
  8
_0-0_図面枠
 62
    4
 10
369.36022150000008
 20
87.450002999999924
 40
3.2000000000000002
 41
1
 50
0
  1
１
  0
TEXT
  8
_0-0_図面枠
 62
    4
 10
377.00512500000013
 20
81.399992499999996
 40
3.2000000000000002
 41
1
 50
0
  1
本
  0
TEXT
  8
_0-0_図面枠
 62
    4
 10
369.36022150000008
 20
105.44999150000001
 40
3.2000000000000002
 41
1
 50
0
  1
１
  0
TEXT
  8
_0-0_図面枠
 62
    4
 10
349.27047700000014
 20
87.400003999999967
 40
3.2000000000000002
 41
1
 50
0
  1
３０００
  0
TEXT
  8
_0-0_図面枠
 62
    4
 10
369.36022150000008
 20
93.44999150000001
 40
3.2000000000000002
 41
1
 50
0
  1
６
  0
TEXT
  8
_0-0_図面枠
 62
    4
 10
349.27047700000014
 20
81.400003999999967
 40
3.2000000000000002
 41
1
 50
0
  1
３０００
  0
TEXT
  8
_0-0_図面枠
 62
    4
 10
369.36022150000008
 20
81.450002999999924
 40
3.2000000000000002
 41
1
 50
0
  1
１
  0
TEXT
  8
_0-0_図面枠
 62
    4
 10
377.00512500000013
 20
93.400004000000024
 40
3.2000000000000002
 41
1
 50
0
  1
個
  0
TEXT
  8
_0-0_図面枠
 62
    4
 10
248.4000075000001
 20
87.400003999999967
 40
3.2000000000000002
 41
1
 50
0
  1
ＳＣＧばねフレーム
  0
TEXT
  8
_0-0_図面枠
 62
    4
 10
177.00512500000002
 20
87.400003999999967
 40
3.2000000000000002
 41
1
 50
0
  1
本
  0
TEXT
  8
_0-0_図面枠
 62
    4
 10
67.633333333333383
 20
114.00000000000003
 40
3.2000000000000002
 41
1
 50
0
  1
部材名称
  0
TEXT
  8
_0-0_図面枠
 62
    4
 10
119.10833333333338
 20
114.00000000000001
 40
3.2000000000000002
 41
1
 50
0
  1
規　格
  0
TEXT
  8
_0-0_図面枠
 62
    4
 10
267.63333333333333
 20
114
 40
3.2000000000000002
 41
1
 50
0
  1
部材名称
  0
TEXT
  8
_0-0_図面枠
 62
    4
 10
319.10833333333335
 20
114
 40
3.2000000000000002
 41
1
 50
0
  1
規　格
  0
TEXT
  8
_0-0_図面枠
 62
    4
 10
48.400007500000015
 20
99.400003999999967
 40
3.2000000000000002
 41
1
 50
0
  1
ＳＳＧアーム(Ｄ)
  0
TEXT
  8
_0-0_図面枠
 62
    4
 10
48.400007500000015
 20
93.400003999999967
 40
3.2000000000000002
 41
1
 50
0
  1
ＳＳＧばね(Ｄ)
  0
TEXT
  8
_0-0_図面枠
 62
    4
 10
48.400007500000015
 20
81.400003999999967
 40
3.2000000000000002
 41
1
 50
0
  1
ＳＳＧフレーム(Ｄ)
  0
TEXT
  8
_0-0_図面枠
 62
    4
 10
248.4000075000001
 20
99.400003999999967
 40
3.2000000000000002
 41
1
 50
0
  1
ＳＣＧアーム(Ｄ)
  0
TEXT
  8
_0-0_図面枠
 62
    4
 10
248.4000075000001
 20
93.400003999999967
 40
3.2000000000000002
 41
1
 50
0
  1
ＳＣＧばね(Ｄ)
  0
TEXT
  8
_0-0_図面枠
 62
    4
 10
248.4000075000001
 20
81.400003999999967
 40
3.2000000000000002
 41
1
 50
0
  1
ＳＳＧフレーム(Ｄ)
  0
TEXT
  8
_0-0_図面枠
 62
    4
 10
166.27045749999999
 20
69.450008499999967
 40
3.2000000000000002
 41
1
 50
0
  1
１２
  0
TEXT
  8
_0-0_図面枠
 62
    4
 10
48.400007500000015
 20
69.40000950000001
 40
3.2000000000000002
 41
1
 50
0
  1
ステンタッピンねじ
  0
TEXT
  8
_0-0_図面枠
 62
    4
 10
48.400007500000015
 20
63.40000950000001
 40
3.2000000000000002
 41
1
 50
0
  1
ステンワッシャー
  0
TEXT
  8
_0-0_図面枠
 62
    4
 10
166.27045749999999
 20
63.450008499999967
 40
3.2000000000000002
 41
1
 50
0
  1
１２
  0
TEXT
  8
_0-0_図面枠
 62
    4
 10
177.00512500000002
 20
75.399992499999996
 40
3.2000000000000002
 41
1
 50
0
  1
本
  0
TEXT
  8
_0-0_図面枠
 62
    4
 10
366.27045750000013
 20
69.450008499999967
 40
3.2000000000000002
 41
1
 50
0
  1
１２
  0
TEXT
  8
_0-0_図面枠
 62
    4
 10
248.4000075000001
 20
69.40000950000001
 40
3.2000000000000002
 41
1
 50
0
  1
ステンタッピンねじ
  0
TEXT
  8
_0-0_図面枠
 62
    4
 10
248.4000075000001
 20
63.40000950000001
 40
3.2000000000000002
 41
1
 50
0
  1
ステンワッシャー
  0
TEXT
  8
_0-0_図面枠
 62
    4
 10
366.27045750000013
 20
63.450008499999967
 40
3.2000000000000002
 41
1
 50
0
  1
１２
  0
TEXT
  8
_0-0_図面枠
 62
    4
 10
377.00512500000013
 20
75.399992499999996
 40
3.2000000000000002
 41
1
 50
0
  1
本
  0
TEXT
  8
_0-0_図面枠
 62
    4
 10
377.00512500000013
 20
63.40000950000001
 40
3.2000000000000002
 41
1
 50
0
  1
枚
  0
TEXT
  8
_0-0_図面枠
 62
    4
 10
177.00512500000002
 20
63.40000950000001
 40
3.2000000000000002
 41
1
 50
0
  1
枚
  0
TEXT
  8
_0-0_図面枠
 62
    4
 10
177.00512500000002
 20
69.399992499999996
 40
3.2000000000000002
 41
1
 50
0
  1
本
  0
TEXT
  8
_0-0_図面枠
 62
    4
 10
377.00512500000013
 20
69.399992499999996
 40
3.2000000000000002
 41
1
 50
0
  1
本
  0
TEXT
  8
_0-0_図面枠
 62
    4
 10
102.06669116666677
 20
69.40000950000001
 40
3.2000000000000002
 41
1
 50
0
  1
なべ５×５０
  0
TEXT
  8
_0-0_図面枠
 62
    4
 10
102.06663366666675
 20
63.400003999999996
 40
3.2000000000000002
 41
1
 50
0
  1
１．５×１８×５．５穴
  0
TEXT
  8
_0-0_図面枠
 62
    4
 10
302.06669116666689
 20
69.40000950000001
 40
3.2000000000000002
 41
1
 50
0
  1
なべ５×５０
  0
TEXT
  8
_0-0_図面枠
 62
    4
 10
302.06663366666686
 20
63.400003999999996
 40
3.2000000000000002
 41
1
 50
0
  1
１．５×１８×５．５穴
  0
TEXT
  8
_0-0_図面枠
 62
    4
 10
48.400007500000015
 20
76.000009500000004
 40
3.2000000000000002
 41
1
 50
0
  1
ステンドリリングねじ
  0
TEXT
  8
_0-0_図面枠
 62
    4
 10
248.40000750000002
 20
76.000009500000004
 40
3.2000000000000002
 41
1
 50
0
  1
ステンドリリングねじ
  0
TEXT
  8
_0-0_図面枠
 62
    4
 10
169.36022149999994
 20
99.44999150000001
 40
3.2000000000000002
 41
1
 50
0
  1
６
  0
TEXT
  8
_0-0_図面枠
 62
    4
 10
177.00512500000002
 20
99.400004000000024
 40
3.2000000000000002
 41
1
 50
0
  1
個
  0
TEXT
  8
_0-0_図面枠
 62
    4
 10
369.36022150000008
 20
99.449991499999953
 40
3.2000000000000002
 41
1
 50
0
  1
６
  0
TEXT
  8
_0-0_図面枠
 62
    4
 10
377.00512500000013
 20
99.400003999999967
 40
3.2000000000000002
 41
1
 50
0
  1
個
  0
LINE
  8
_0-0_図面枠
  6
CONTINUOUS
 62
    4
 10
182.14999999999998
 20
38.199999999999989
 11
40
 21
38.199999999999989
  0
LINE
  8
_0-0_図面枠
  6
CONTINUOUS
 62
    4
 10
182.14999999999998
 20
32.199999999999989
 11
40
 21
32.199999999999989
  0
LINE
  8
_0-0_図面枠
  6
CONTINUOUS
 62
    4
 10
182.14999999999998
 20
26.199999999999989
 11
40
 21
26.199999999999989
  0
TEXT
  8
_0-0_図面枠
 62
    4
 10
43.586831999999958
 20
33.427555499999983
 40
3.2000000000000002
 41
1
 50
0
  1
※
  0
TEXT
  8
_0-0_図面枠
 62
    4
 10
43.586831999999958
 20
27.427560999999969
 40
3.2000000000000002
 41
1
 50
0
  1
※
  0
LINE
  8
_0-0_図面枠
  6
CONTINUOUS
 62
    4
 10
382.15000000000009
 20
38.199999999999989
 11
240
 21
38.199999999999989
  0
LINE
  8
_0-0_図面枠
  6
CONTINUOUS
 62
    4
 10
382.15000000000009
 20
26.199999999999989
 11
240
 21
26.199999999999989
  0
LINE
  8
_0-0_図面枠
  6
CONTINUOUS
 62
    4
 10
382.15000000000009
 20
32.199999999999989
 11
240
 21
32.199999999999989
  0
TEXT
  8
_0-0_図面枠
 62
    4
 10
243.5868145
 20
33.427555499999983
 40
3.2000000000000002
 41
1
 50
0
  1
※
  0
TEXT
  8
_0-0_図面枠
 62
    4
 10
243.5868145
 20
27.427555499999983
 40
3.2000000000000002
 41
1
 50
0
  1
※
  0
TEXT
  8
_0-0_図面枠
 62
    4
 10
169.36022149999994
 20
39.450002999999981
 40
3.2000000000000002
 41
1
 50
0
  1
１
  0
TEXT
  8
_0-0_図面枠
 62
    4
 10
369.8602370000001
 20
39.450002999999981
 40
3.2000000000000002
 41
1
 50
0
  1
１
  0
TEXT
  8
_0-0_図面枠
 62
    4
 10
377.00510200000008
 20
39.400003999999996
 40
3.2000000000000002
 41
1
 50
0
  1
個
  0
TEXT
  8
_0-0_図面枠
 62
    4
 10
177.00512500000002
 20
39.400003999999967
 40
3.2000000000000002
 41
1
 50
0
  1
個
  0
TEXT
  8
_0-0_図面枠
 62
    4
 10
149.27047700000003
 20
33.400014999999996
 40
3.2000000000000002
 41
1
 50
0
  1
６０００
  0
TEXT
  8
_0-0_図面枠
 62
    4
 10
169.36022149999994
 20
33.450002999999981
 40
3.2000000000000002
 41
1
 50
0
  1
１
  0
TEXT
  8
_0-0_図面枠
 62
    4
 10
177.00512500000002
 20
33.40000950000001
 40
3.2000000000000002
 41
1
 50
0
  1
巻
  0
TEXT
  8
_0-0_図面枠
 62
    4
 10
48.400007500000015
 20
33.40000950000001
 40
3.2000000000000002
 41
1
 50
0
  1
ブチルテープ
  0
TEXT
  8
_0-0_図面枠
 62
    4
 10
169.36022149999994
 20
27.450002999999981
 40
3.2000000000000002
 41
1
 50
0
  1
２
  0
TEXT
  8
_0-0_図面枠
 62
    4
 10
177.00512500000002
 20
27.40000950000001
 40
3.2000000000000002
 41
1
 50
0
  1
本
  0
TEXT
  8
_0-0_図面枠
 62
    4
 10
349.27041950000012
 20
33.40000950000001
 40
3.2000000000000002
 41
1
 50
0
  1
６０００
  0
TEXT
  8
_0-0_図面枠
 62
    4
 10
369.8602370000001
 20
33.450002999999981
 40
3.2000000000000002
 41
1
 50
0
  1
１
  0
TEXT
  8
_0-0_図面枠
 62
    4
 10
377.00510200000008
 20
33.40000950000001
 40
3.2000000000000002
 41
1
 50
0
  1
巻
  0
TEXT
  8
_0-0_図面枠
 62
    4
 10
248.400013
 20
33.40000950000001
 40
3.2000000000000002
 41
1
 50
0
  1
ブチルテープ
  0
TEXT
  8
_0-0_図面枠
 62
    4
 10
369.8602370000001
 20
27.450002999999981
 40
3.2000000000000002
 41
1
 50
0
  1
２
  0
TEXT
  8
_0-0_図面枠
 62
    4
 10
377.00510200000008
 20
27.400006499999989
 40
3.2000000000000002
 41
1
 50
0
  1
本
  0
TEXT
  8
_0-0_図面枠
 62
    4
 10
102.06669116666677
 20
33.40000950000001
 40
3.2000000000000002
 41
1
 50
0
  1
ｔ１．０×ｗ３０
  0
TEXT
  8
_0-0_図面枠
 62
    4
 10
102.06669116666677
 20
27.400009499999996
 40
3.2000000000000002
 41
1
 50
0
  1
１.５×(１×１９)Ｌ＝６００
  0
TEXT
  8
_0-0_図面枠
 62
    4
 10
302.06663366666669
 20
33.40000950000001
 40
3.2000000000000002
 41
1
 50
0
  1
ｔ１．０×ｗ３０
  0
TEXT
  8
_0-0_図面枠
 62
    4
 10
302.06669116666671
 20
27.400009499999996
 40
3.2000000000000002
 41
1
 50
0
  1
１.５×(１×１９)Ｌ＝６００
  0
TEXT
  8
_0-0_図面枠
 62
    4
 10
243.5868145
 20
39.427558500000004
 40
3.2000000000000002
 41
1
 50
0
  1
※
  0
TEXT
  8
_0-0_図面枠
 62
    4
 10
43.586831999999958
 20
39.427555499999968
 40
3.2000000000000002
 41
1
 50
0
  1
※
  0
TEXT
  8
_0-0_図面枠
 62
    4
 10
48.400007500000015
 20
27.40000950000001
 40
3.2000000000000002
 41
1
 50
0
  1
落下防止ワイヤー
  0
TEXT
  8
_0-0_図面枠
 62
    4
 10
248.40000750000002
 20
27.40000950000001
 40
3.2000000000000002
 41
1
 50
0
  1
落下防止ワイヤー
  0
LINE
  8
_0-0_図面枠
  6
CONTINUOUS
 62
    4
 10
40
 20
26.200000000000017
 11
40
 21
121
  0
LINE
  8
_0-0_図面枠
  6
CONTINUOUS
 62
    4
 10
47.200000000000045
 20
26.200000000000017
 11
47.200000000000045
 21
121
  0
LINE
  8
_0-0_図面枠
  6
CONTINUOUS
 62
    4
 10
162.95000000000002
 20
26.200000000000003
 11
162.95000000000002
 21
121.00000000000001
  0
LINE
  8
_0-0_図面枠
  6
CONTINUOUS
 62
    4
 10
147.95000000000005
 20
26.200000000000003
 11
147.95000000000005
 21
121.00000000000001
  0
LINE
  8
_0-0_図面枠
  6
CONTINUOUS
 62
    4
 10
174.95000000000005
 20
26.200000000000003
 11
174.95000000000005
 21
121.00000000000001
  0
LINE
  8
_0-0_図面枠
  6
CONTINUOUS
 62
    4
 10
146.95000000000005
 20
26.200000000000003
 11
146.95000000000005
 21
121.00000000000001
  0
LINE
  8
_0-0_図面枠
  6
CONTINUOUS
 62
    4
 10
240
 20
26.199999999999989
 11
240
 21
121.00000000000003
  0
LINE
  8
_0-0_図面枠
  6
CONTINUOUS
 62
    4
 10
247.20000000000005
 20
26.199999999999989
 11
247.20000000000005
 21
121.00000000000003
  0
LINE
  8
_0-0_図面枠
  6
CONTINUOUS
 62
    4
 10
346.95000000000005
 20
26.199999999999989
 11
346.95000000000005
 21
121
  0
LINE
  8
_0-0_図面枠
  6
CONTINUOUS
 62
    4
 10
382.15000000000009
 20
26.199999999999989
 11
382.15000000000009
 21
121
  0
LINE
  8
_0-0_図面枠
  6
CONTINUOUS
 62
    4
 10
374.95000000000005
 20
26.199999999999989
 11
374.95000000000005
 21
121
  0
LINE
  8
_0-0_図面枠
  6
CONTINUOUS
 62
    4
 10
362.95000000000005
 20
26.199999999999989
 11
362.95000000000005
 21
121
  0
LINE
  8
_0-0_図面枠
  6
CONTINUOUS
 62
    4
 10
347.95000000000005
 20
26.199999999999989
 11
347.95000000000005
 21
121
  0
LINE
  8
_0-0_図面枠
  6
CONTINUOUS
 62
    4
 10
182.14999999999998
 20
26.200000000000003
 11
182.14999999999998
 21
121.00000000000001
  0
LINE
  8
_0-0_図面枠
  6
CONTINUOUS
 62
    4
 10
100.86666666666673
 20
26.200000000000003
 11
100.86666666666673
 21
121.00000000000001
  0
LINE
  8
_0-0_図面枠
  6
CONTINUOUS
 62
    4
 10
300.86666666666667
 20
26.199999999999989
 11
300.86666666666667
 21
121
  0
LINE
  8
_0-0_図面枠
  6
CONTINUOUS
 62
    4
 10
182.14999999999998
 20
44.199999999999989
 11
40
 21
44.199999999999989
  0
LINE
  8
_0-0_図面枠
  6
CONTINUOUS
 62
    4
 10
382.15000000000009
 20
44.199999999999989
 11
240
 21
44.199999999999989
  0
TEXT
  8
_0-0_図面枠
 62
    4
 10
40.4970505
 20
45.427555499999983
 40
3.2000000000000002
 41
1
 50
0
  1
１１
  0
TEXT
  8
_0-0_図面枠
 62
    4
 10
240.4970505
 20
45.427555499999983
 40
3.2000000000000002
 41
1
 50
0
  1
１１
  0
TEXT
  8
_0-0_図面枠
 62
    4
 10
149.27047700000003
 20
51.40000950000001
 40
3.2000000000000002
 41
1
 50
0
  1
３１００
  0
TEXT
  8
_0-0_図面枠
 62
    4
 10
169.36022149999994
 20
51.449997499999995
 40
3.2000000000000002
 41
1
 50
0
  1
２
  0
TEXT
  8
_0-0_図面枠
 62
    4
 10
177.00512500000002
 20
51.40000950000001
 40
3.2000000000000002
 41
1
 50
0
  1
本
  0
TEXT
  8
_0-0_図面枠
 62
    4
 10
122.30833333333339
 20
51.599999999999994
 40
3.2000000000000002
 41
1
 50
0
  1
―
  0
TEXT
  8
_0-0_図面枠
 62
    4
 10
166.27045749999996
 20
57.450008499999953
 40
3.2000000000000002
 41
1
 50
0
  1
１２
  0
TEXT
  8
_0-0_図面枠
 62
    4
 10
177.00512500000002
 20
57.399992499999982
 40
3.2000000000000002
 41
1
 50
0
  1
本
  0
TEXT
  8
_0-0_図面枠
 62
    4
 10
153.85000000000002
 20
57.599999999999994
 40
3.2000000000000002
 41
1
 50
0
  1
―
  0
TEXT
  8
_0-0_図面枠
 62
    4
 10
102.06669116666673
 20
57.400009499999996
 40
3.2000000000000002
 41
1
 50
0
  1
φ８×４０
  0
TEXT
  8
_0-0_図面枠
 62
    4
 10
48.400007500000015
 20
51.400003999999967
 40
3.2000000000000002
 41
1
 50
0
  1
ガスケットＧＡ２０
  0
TEXT
  8
_0-0_図面枠
 62
    4
 10
153.85000000000002
 20
45.599999999999994
 40
3.2000000000000002
 41
1
 50
0
  1
―
  0
TEXT
  8
_0-0_図面枠
 62
    4
 10
169.36022149999991
 20
45.450002999999924
 40
3.2000000000000002
 41
1
 50
0
  1
６
  0
TEXT
  8
_0-0_図面枠
 62
    4
 10
122.30833333333337
 20
45.599999999999994
 40
3.2000000000000002
 41
1
 50
0
  1
―
  0
TEXT
  8
_0-0_図面枠
 62
    4
 10
48.400007499999987
 20
45.400003999999967
 40
3.2000000000000002
 41
1
 50
0
  1
ＳＳＧクリップ
  0
TEXT
  8
_0-0_図面枠
 62
    4
 10
349.27047700000003
 20
51.40000950000001
 40
3.2000000000000002
 41
1
 50
0
  1
３１００
  0
TEXT
  8
_0-0_図面枠
 62
    4
 10
369.36022149999997
 20
51.449997499999995
 40
3.2000000000000002
 41
1
 50
0
  1
２
  0
TEXT
  8
_0-0_図面枠
 62
    4
 10
377.00512500000002
 20
51.40000950000001
 40
3.2000000000000002
 41
1
 50
0
  1
本
  0
TEXT
  8
_0-0_図面枠
 62
    4
 10
322.30833333333339
 20
51.599999999999994
 40
3.2000000000000002
 41
1
 50
0
  1
―
  0
TEXT
  8
_0-0_図面枠
 62
    4
 10
366.27045749999996
 20
57.450008499999953
 40
3.2000000000000002
 41
1
 50
0
  1
１２
  0
TEXT
  8
_0-0_図面枠
 62
    4
 10
377.00512500000002
 20
57.399992499999982
 40
3.2000000000000002
 41
1
 50
0
  1
本
  0
TEXT
  8
_0-0_図面枠
 62
    4
 10
353.85000000000002
 20
57.599999999999994
 40
3.2000000000000002
 41
1
 50
0
  1
―
  0
TEXT
  8
_0-0_図面枠
 62
    4
 10
302.06669116666671
 20
57.400009499999996
 40
3.2000000000000002
 41
1
 50
0
  1
φ８×４０
  0
TEXT
  8
_0-0_図面枠
 62
    4
 10
353.85000000000002
 20
45.599999999999994
 40
3.2000000000000002
 41
1
 50
0
  1
―
  0
TEXT
  8
_0-0_図面枠
 62
    4
 10
369.36022149999991
 20
45.450002999999924
 40
3.2000000000000002
 41
1
 50
0
  1
６
  0
TEXT
  8
_0-0_図面枠
 62
    4
 10
322.30833333333334
 20
45.599999999999994
 40
3.2000000000000002
 41
1
 50
0
  1
―
  0
TEXT
  8
_0-0_図面枠
 62
    4
 10
248.40000749999999
 20
45.400003999999967
 40
3.2000000000000002
 41
1
 50
0
  1
ＳＳＧクリップ
  0
TEXT
  8
_0-0_図面枠
 62
    4
 10
248.40000750000002
 20
51.400003999999967
 40
3.2000000000000002
 41
1
 50
0
  1
ガスケットＧＡ１５
  0
TEXT
  8
_0-0_図面枠
 62
    4
 10
122.30833333333341
 20
105.60000000000007
 40
3.2000000000000002
 41
1
 50
0
  1
―
  0
TEXT
  8
_0-0_図面枠
 62
    4
 10
122.30833333333341
 20
93.600000000000065
 40
3.2000000000000002
 41
1
 50
0
  1
―
  0
TEXT
  8
_0-0_図面枠
 62
    4
 10
122.30833333333341
 20
87.600000000000065
 40
3.2000000000000002
 41
1
 50
0
  1
―
  0
TEXT
  8
_0-0_図面枠
 62
    4
 10
122.30833333333341
 20
81.600000000000065
 40
3.2000000000000002
 41
1
 50
0
  1
―
  0
TEXT
  8
_0-0_図面枠
 62
    4
 10
322.30833333333322
 20
105.60000000000001
 40
3.2000000000000002
 41
1
 50
0
  1
―
  0
TEXT
  8
_0-0_図面枠
 62
    4
 10
322.30833333333322
 20
93.600000000000009
 40
3.2000000000000002
 41
1
 50
0
  1
―
  0
TEXT
  8
_0-0_図面枠
 62
    4
 10
322.30833333333322
 20
87.600000000000009
 40
3.2000000000000002
 41
1
 50
0
  1
―
  0
TEXT
  8
_0-0_図面枠
 62
    4
 10
322.30833333333322
 20
81.600000000000009
 40
3.2000000000000002
 41
1
 50
0
  1
―
  0
TEXT
  8
_0-0_図面枠
 62
    4
 10
102.06669116666677
 20
99.400004000000024
 40
3.2000000000000002
 41
1
 50
0
  1
Ｌ＝２９０
  0
TEXT
  8
_0-0_図面枠
 62
    4
 10
302.06669116666666
 20
99.400003999999967
 40
3.2000000000000002
 41
1
 50
0
  1
Ｌ＝２２２
  0
TEXT
  8
_0-0_図面枠
 62
    4
 10
166.27045749999999
 20
75.450008499999967
 40
3.2000000000000002
 41
1
 50
0
  1
１２
  0
TEXT
  8
_0-0_図面枠
 62
    4
 10
366.27045750000002
 20
75.450008499999967
 40
3.2000000000000002
 41
1
 50
0
  1
１２
  0
TEXT
  8
_0-0_図面枠
 62
    4
 10
153.85000000000005
 20
99.600000000000051
 40
3.2000000000000002
 41
1
 50
0
  1
―
  0
TEXT
  8
_0-0_図面枠
 62
    4
 10
153.85000000000005
 20
93.600000000000051
 40
3.2000000000000002
 41
1
 50
0
  1
―
  0
TEXT
  8
_0-0_図面枠
 62
    4
 10
153.85000000000005
 20
75.599999999999994
 40
3.2000000000000002
 41
1
 50
0
  1
―
  0
TEXT
  8
_0-0_図面枠
 62
    4
 10
153.85000000000005
 20
69.599999999999994
 40
3.2000000000000002
 41
1
 50
0
  1
―
  0
TEXT
  8
_0-0_図面枠
 62
    4
 10
153.85000000000005
 20
63.599999999999994
 40
3.2000000000000002
 41
1
 50
0
  1
―
  0
TEXT
  8
_0-0_図面枠
 62
    4
 10
153.85000000000005
 20
39.599999999999994
 40
3.2000000000000002
 41
1
 50
0
  1
―
  0
TEXT
  8
_0-0_図面枠
 62
    4
 10
153.85000000000005
 20
27.599999999999994
 40
3.2000000000000002
 41
1
 50
0
  1
―
  0
TEXT
  8
_0-0_図面枠
 62
    4
 10
353.85000000000002
 20
99.599999999999994
 40
3.2000000000000002
 41
1
 50
0
  1
―
  0
TEXT
  8
_0-0_図面枠
 62
    4
 10
353.85000000000002
 20
93.599999999999994
 40
3.2000000000000002
 41
1
 50
0
  1
―
  0
TEXT
  8
_0-0_図面枠
 62
    4
 10
353.85000000000002
 20
75.599999999999994
 40
3.2000000000000002
 41
1
 50
0
  1
―
  0
TEXT
  8
_0-0_図面枠
 62
    4
 10
353.85000000000002
 20
69.599999999999994
 40
3.2000000000000002
 41
1
 50
0
  1
―
  0
TEXT
  8
_0-0_図面枠
 62
    4
 10
353.85000000000002
 20
63.599999999999994
 40
3.2000000000000002
 41
1
 50
0
  1
―
  0
TEXT
  8
_0-0_図面枠
 62
    4
 10
353.85000000000002
 20
39.599999999999994
 40
3.2000000000000002
 41
1
 50
0
  1
―
  0
TEXT
  8
_0-0_図面枠
 62
    4
 10
353.85000000000002
 20
27.599999999999994
 40
3.2000000000000002
 41
1
 50
0
  1
―
  0
TEXT
  8
_0-0_図面枠
 62
    4
 10
102.0666796666667
 20
39.400003999999967
 40
3.2000000000000002
 41
1
 50
0
  1
ＡＬ　ｔ＝１．５
  0
TEXT
  8
_0-0_図面枠
 62
    4
 10
302.06667966666669
 20
39.400003999999967
 40
3.2000000000000002
 41
1
 50
0
  1
ＡＬ　ｔ＝１．５
  0
TEXT
  8
_0-0_図面枠
 62
    4
 10
302.06667966666674
 20
76.000009500000004
 40
3.2000000000000002
 41
1
 50
0
  1
皿(Ｄ６)４×１６
  0
TEXT
  8
_0-0_図面枠
 62
    4
 10
248.400013
 20
39.400003999999996
 40
3.2000000000000002
 41
1
 50
0
  1
ジョイントプレート
  0
TEXT
  8
_0-0_図面枠
 62
    4
 10
48.400007500000015
 20
39.400003999999967
 40
3.2000000000000002
 41
1
 50
0
  1
ジョイントプレート
  0
TEXT
  8
_0-0_図面枠
 62
    4
 10
102.06667966666673
 20
76.000009500000004
 40
3.2000000000000002
 41
1
 50
0
  1
皿(Ｄ６)４×１６
  0
TEXT
  8
_0-0_図面枠
 62
    4
 10
48.400007500000015
 20
105.40000399999997
 40
3.2000000000000002
 41
1
 50
0
  1
ＵＵＧキャップ(Ｄ)Ａ
  0
TEXT
  8
_0-0_図面枠
 62
    4
 10
248.4000075000001
 20
105.40000399999997
 40
3.2000000000000002
 41
1
 50
0
  1
ＵＣＧキャップ(Ｄ)Ａ
  0
TEXT
  8
_0-0_図面枠
 62
    4
 10
177.00512500000002
 20
45.399992499999996
 40
3.2000000000000002
 41
1
 50
0
  1
個
  0
TEXT
  8
_0-0_図面枠
 62
    4
 10
377.00512500000002
 20
45.399992499999996
 40
3.2000000000000002
 41
1
 50
0
  1
個
  0
TEXT
  8
_0-0_図面枠
 62
    4
 10
48.400007499999987
 20
57.400003999999953
 40
3.2000000000000002
 41
1
 50
0
  1
アンカープラグ
  0
TEXT
  8
_0-0_図面枠
 62
    4
 10
248.40000749999999
 20
57.400003999999953
 40
3.2000000000000002
 41
1
 50
0
  1
アンカープラグ
  0
LINE
  8
_1-0_躯体
  6
CENTER2
 62
    4
 10
65.00000007946656
 20
216.57179397977325
 11
65.00000007946656
 21
193.50000000000003
  0
LINE
  8
_1-0_躯体
  6
CENTER2
 62
    4
 10
155.00000007946724
 20
216.57179397977325
 11
155.00000007946724
 21
193.50000000000003
  0
INSERT
  2
-004-_4_
  8
_1-8_小物
 10
210
 20
148.5
 41
1
 42
1
 50
0
  0
INSERT
  2
-005-_5_
  8
_1-8_小物
 10
210
 20
148.5
 41
1
 42
1
 50
0
  0
LINE
  8
_1-0_躯体
  6
CONTINUOUS
 62
    6
 10
53.3333333333334
 20
210.16666666666669
 11
76.666666666666742
 21
210.16666666666669
  0
LINE
  8
_1-0_躯体
  6
CONTINUOUS
 62
    6
 10
166.66666666666674
 20
210.16666666666669
 11
143.3333333333334
 21
210.16666666666669
  0
LINE
  8
_1-f_寸法
  6
CONTINUOUS
 62
    4
 10
143.33333333333144
 20
195.16666666666669
 11
143.33333333333144
 21
188.56666666666672
  0
LINE
  8
_1-f_寸法
  6
CONTINUOUS
 62
    4
 10
154.9999999999981
 20
195.16666666666669
 11
154.9999999999981
 21
188.56666666666672
  0
POINT
  8
_1-f_寸法
 62
    4
 10
154.9999999999981
 20
190.16666666666669
  0
POINT
  8
_1-f_寸法
 62
    4
 10
143.33333333333144
 20
190.16666666666669
  0
LINE
  8
_1-f_寸法
  6
CONTINUOUS
 62
    4
 10
154.9999999999981
 20
190.16666666666669
 11
143.33333333333144
 21
190.16666666666669
  0
TEXT
  8
_1-f_寸法
 62
    4
 10
147.56666666666473
 20
190.16666666666669
 40
3.2000000000000002
 41
1
 50
0
  1
35
  0
CIRCLE
  8
_1-f_寸法
  6
CONTINUOUS
 62
    4
 10
166.66666674613322
 20
215.16666666666669
 40
1.6666666666666665
  0
CIRCLE
  8
_1-f_寸法
  6
CONTINUOUS
 62
    4
 10
166.66666674613322
 20
215.16666666666669
 40
1.6666666666666665
  0
LINE
  8
_1-f_寸法
  6
CONTINUOUS
 62
    4
 10
165.48815544415567
 20
213.98815536468913
 11
163.16666674613322
 21
211.66666666666669
  0
CIRCLE
  8
_1-f_寸法
  6
CONTINUOUS
 62
    4
 10
148.3333334127999
 20
205.16666666666669
 40
1.6666666666666665
  0
CIRCLE
  8
_1-f_寸法
  6
CONTINUOUS
 62
    4
 10
161.66666674613322
 20
198.50000000000003
 40
1.6666666666666665
  0
CIRCLE
  8
_1-f_寸法
  6
CONTINUOUS
 62
    4
 10
161.66666674613322
 20
205.16666666666669
 40
1.6666666666666665
  0
LINE
  8
_1-f_寸法
  6
CONTINUOUS
 62
    4
 10
149.35343998111594
 20
206.48468046289807
 11
153.04166674613322
 21
211.25000000000003
  0
LINE
  8
_1-f_寸法
  6
CONTINUOUS
 62
    4
 10
160.50555769424119
 20
206.36232696432333
 11
155.00000007946656
 21
212.03171404361677
  0
LINE
  8
_1-f_寸法
  6
CONTINUOUS
 62
    4
 10
160.70179688099915
 20
199.85897164103375
 11
155.75000007946642
 21
206.83333333333329
  0
LINE
  8
_1-f_寸法
  6
CONTINUOUS
 62
    4
 10
76.666666666667112
 20
195.16666666666666
 11
76.666666666667112
 21
188.56666666666666
  0
LINE
  8
_1-f_寸法
  6
CONTINUOUS
 62
    4
 10
65.000000000000369
 20
195.16666666666666
 11
65.000000000000369
 21
188.56666666666666
  0
POINT
  8
_1-f_寸法
 62
    4
 10
65.000000000000369
 20
190.16666666666666
  0
POINT
  8
_1-f_寸法
 62
    4
 10
76.666666666667112
 20
190.16666666666666
  0
LINE
  8
_1-f_寸法
  6
CONTINUOUS
 62
    4
 10
65.000000000000369
 20
190.16666666666666
 11
76.666666666667112
 21
190.16666666666666
  0
TEXT
  8
_1-f_寸法
 62
    4
 10
69.233333333333746
 20
190.16666666666666
 40
3.2000000000000002
 41
1
 50
0
  1
35
  0
CIRCLE
  8
_1-f_寸法
  6
CONTINUOUS
 62
    4
 10
53.333333253865305
 20
215.16666666666666
 40
1.6666666666666665
  0
CIRCLE
  8
_1-f_寸法
  6
CONTINUOUS
 62
    4
 10
53.333333253865305
 20
215.16666666666666
 40
1.6666666666666665
  0
LINE
  8
_1-f_寸法
  6
CONTINUOUS
 62
    4
 10
54.511844555842856
 20
213.98815536468911
 11
56.833333253865305
 21
211.66666666666666
  0
CIRCLE
  8
_1-f_寸法
  6
CONTINUOUS
 62
    4
 10
71.666666587198648
 20
205.16666666666666
 40
1.6666666666666665
  0
CIRCLE
  8
_1-f_寸法
  6
CONTINUOUS
 62
    4
 10
58.333333253865305
 20
198.5
 40
1.6666666666666665
  0
CIRCLE
  8
_1-f_寸法
  6
CONTINUOUS
 62
    4
 10
58.333333253865305
 20
205.16666666666666
 40
1.6666666666666665
  0
LINE
  8
_1-f_寸法
  6
CONTINUOUS
 62
    4
 10
70.64656001888261
 20
206.48468046289804
 11
66.958333253865305
 21
211.25
  0
LINE
  8
_1-f_寸法
  6
CONTINUOUS
 62
    4
 10
59.494442305757332
 20
206.3623269643233
 11
64.999999920531934
 21
212.03171404361674
  0
LINE
  8
_1-f_寸法
  6
CONTINUOUS
 62
    4
 10
59.298203118999396
 20
199.85897164103372
 11
64.249999920532133
 21
206.83333333333326
  0
LINE
  8
_1-f_寸法
  6
CONTINUOUS
 62
    4
 10
163.33333333391161
 20
220.16666666666666
 11
163.33333333391161
 21
226.76666666666665
  0
LINE
  8
_1-f_寸法
  6
CONTINUOUS
 62
    4
 10
56.666666666666657
 20
220.16666666666666
 11
56.666666666666657
 21
226.76666666666665
  0
POINT
  8
_1-f_寸法
 62
    4
 10
56.666666666666657
 20
225.16666666666666
  0
POINT
  8
_1-f_寸法
 62
    4
 10
163.33333333391161
 20
225.16666666666666
  0
LINE
  8
_1-f_寸法
  6
CONTINUOUS
 62
    4
 10
56.666666666666657
 20
225.16666666666666
 11
163.33333333391161
 21
225.16666666666666
  0
TEXT
  8
_1-f_寸法
 62
    4
 10
107.60000000028914
 20
225.16666666666666
 40
3.2000000000000002
 41
1
 50
0
  1
320
  0
CIRCLE
  8
_1-f_寸法
  6
CONTINUOUS
 62
    4
 10
68.333333333327062
 20
221.83333333333329
 40
1.6666666666666665
  0
TEXT
  8
_1-f_寸法
 62
    4
 10
67.708333333327062
 20
220.58333333333329
 40
2.5
 41
1
 50
0
  1
3
  0
LINE
  8
_1-f_寸法
  6
CONTINUOUS
 62
    4
 10
69.166666666660404
 20
220.38995766035922
 11
70.844806995853276
 21
217.48333334796683
  0
CIRCLE
  8
_1-f_寸法
  6
CONTINUOUS
 62
    4
 10
81.666666746126907
 20
221.83333333333329
 40
1.6666666666666665
  0
TEXT
  8
_1-f_寸法
 62
    4
 10
81.041666746126907
 20
220.58333333333329
 40
2.5
 41
1
 50
0
  1
4
  0
LINE
  8
_1-f_寸法
  6
CONTINUOUS
 62
    4
 10
80.833333412793564
 20
220.38995766035922
 11
75.268279767036233
 21
210.75100199906117
  0
CIRCLE
  8
_1-f_寸法
  6
CONTINUOUS
 62
    4
 10
76.66666666666049
 20
221.8333333333332
 40
1.6666666666666665
  0
CIRCLE
  8
_1-f_寸法
  6
CONTINUOUS
 62
    4
 10
150.00000000057832
 20
221.8333333333332
 40
1.6666666666666665
  0
CIRCLE
  8
_1-f_寸法
  6
CONTINUOUS
 62
    4
 10
141.66666666724507
 20
221.83333333333329
 40
1.6666666666666665
  0
TEXT
  8
_1-f_寸法
 62
    4
 10
141.04166666724507
 20
220.58333333333329
 40
2.5
 41
1
 50
0
  1
2
  0
CIRCLE
  8
_1-f_寸法
  6
CONTINUOUS
 62
    4
 10
135.00000000057835
 20
221.83333333333329
 40
1.6666666666666665
  0
TEXT
  8
_1-f_寸法
 62
    4
 10
134.37500000057835
 20
220.58333333333329
 40
2.5
 41
1
 50
0
  1
1
  0
LINE
  8
_1-f_寸法
  6
CONTINUOUS
 62
    4
 10
134.16666666724507
 20
220.38995766035922
 11
132.95048253035876
 21
218.28346494391297
  0
LINE
  8
_1-f_寸法
  6
CONTINUOUS
 62
    4
 10
140.83333333391172
 20
220.38995766035922
 11
138.70293386363244
 21
216.69999753741766
  0
CIRCLE
  8
_1-f_寸法
  6
CONTINUOUS
 62
    4
 10
155.00000000057835
 20
221.83333333333337
 40
1.6666666666666665
  0
TEXT
  8
_1-f_寸法
 62
    4
 10
154.37500000057835
 20
220.58333333333337
 40
2.5
 41
1
 50
0
  1
5
  0
LINE
  8
_1-f_寸法
  6
CONTINUOUS
 62
    4
 10
153.86734592127212
 20
220.6106835411162
 11
146.12206810017085
 21
212.25000000000003
  0
LINE
  8
_1-f_寸法
  6
CONTINUOUS
 62
    4
 10
75.542751152161429
 20
220.60264584495681
 11
73.333333333327147
 21
218.18333333333334
  0
LINE
  8
_1-f_寸法
  6
CONTINUOUS
 62
    4
 10
148.87608448597416
 20
220.60264584505285
 11
146.66666666667317
 21
218.18333333333334
  0
TEXT
  8
_1-f_寸法
 62
    4
 10
165.41666674613322
 20
213.91666666666669
 40
2.5
 41
1
 50
0
  1
10
  0
TEXT
  8
_1-f_寸法
 62
    4
 10
71.041666587198648
 20
203.91666666666666
 40
2.5
 41
1
 50
0
  1
8
  0
TEXT
  8
_1-f_寸法
 62
    4
 10
57.708333253865305
 20
203.91666666666666
 40
2.5
 41
1
 50
0
  1
7
  0
TEXT
  8
_1-f_寸法
 62
    4
 10
52.083333253865305
 20
213.91666666666666
 40
2.5
 41
1
 50
0
  1
10
  0
TEXT
  8
_1-f_寸法
 62
    4
 10
57.708333253865305
 20
197.25
 40
2.5
 41
1
 50
0
  1
9
  0
TEXT
  8
_1-f_寸法
 62
    4
 10
161.04166674613322
 20
197.25000000000003
 40
2.5
 41
1
 50
0
  1
9
  0
TEXT
  8
_1-f_寸法
 62
    4
 10
147.7083334127999
 20
203.91666666666669
 40
2.5
 41
1
 50
0
  1
8
  0
TEXT
  8
_1-f_寸法
 62
    4
 10
161.04166674613322
 20
203.91666666666669
 40
2.5
 41
1
 50
0
  1
7
  0
TEXT
  8
_1-f_寸法
 62
    4
 10
149.37500000057832
 20
220.5833333333332
 40
2.5
 41
1
 50
0
  1
6
  0
TEXT
  8
_1-f_寸法
 62
    4
 10
76.04166666666049
 20
220.5833333333332
 40
2.5
 41
1
 50
0
  1
6
  0
INSERT
  2
-006-_6_
  8
_1-4_フレ__ム
 10
210
 20
148.5
 41
1
 42
1
 50
0
  0
INSERT
  2
-007-_7_
  8
_1-8_小物
 10
210
 20
148.5
 41
1
 42
1
 50
0
  0
INSERT
  2
-008-_8_
  8
_1-4_フレ__ム
 10
210
 20
148.5
 41
1
 42
1
 50
0
  0
INSERT
  2
-009-_9_
  8
_1-8_小物
 10
210
 20
148.5
 41
1
 42
1
 50
0
  0
INSERT
  2
-010-_10_
  8
_1-8_小物
 10
210
 20
148.5
 41
1
 42
1
 50
0
  0
INSERT
  2
-011-_11_
  8
_1-5_ア__ム
 10
210
 20
148.5
 41
1
 42
1
 50
0
  0
INSERT
  2
-012-_12_
  8
_1-7_カバ__
 10
210
 20
148.5
 41
1
 42
1
 50
0
  0
INSERT
  2
-013-_13_
  8
_1-7_カバ__
 10
210
 20
148.5
 41
1
 42
1
 50
0
  0
INSERT
  2
-014-_14_
  8
_1-7_カバ__
 10
210
 20
148.5
 41
1
 42
1
 50
0
  0
INSERT
  2
-015-_15_
  8
_1-8_小物
 10
210
 20
148.5
 41
1
 42
1
 50
0
  0
INSERT
  2
-016-_16_
  8
_1-6_ばね
 10
210
 20
148.5
 41
1
 42
1
 50
0
  0
LINE
  8
_1-f_寸法
  6
CONTINUOUS
 62
    4
 10
168.33333333333331
 20
218.1666666666668
 11
174.93333333333328
 21
218.1666666666668
  0
LINE
  8
_1-f_寸法
  6
CONTINUOUS
 62
    4
 10
168.33333333333331
 20
210.16666666666669
 11
174.93333333333328
 21
210.16666666666669
  0
POINT
  8
_1-f_寸法
 62
    4
 10
173.33333333333329
 20
210.16666666666669
  0
POINT
  8
_1-f_寸法
 62
    4
 10
173.33333333333329
 20
218.1666666666668
  0
LINE
  8
_1-f_寸法
  6
CONTINUOUS
 62
    4
 10
173.33333333333329
 20
210.16666666666669
 11
173.33333333333329
 21
218.1666666666668
  0
TEXT
  8
_1-f_寸法
 62
    4
 10
173.33333333333329
 20
212.56666666666678
 40
3.2000000000000002
 41
1
 50
90
  1
24
  0
LINE
  8
_1-f_寸法
  6
CONTINUOUS
 62
    4
 10
143.3333333333334
 20
183.5
 11
143.3333333333334
 21
171.90000000000001
  0
LINE
  8
_1-f_寸法
  6
CONTINUOUS
 62
    4
 10
76.666666666666657
 20
183.5
 11
76.666666666666657
 21
171.90000000000001
  0
POINT
  8
_1-f_寸法
 62
    4
 10
76.666666666666657
 20
173.5
  0
POINT
  8
_1-f_寸法
 62
    4
 10
143.3333333333334
 20
173.5
  0
LINE
  8
_1-f_寸法
  6
CONTINUOUS
 62
    4
 10
76.666666666666657
 20
173.5
 11
143.3333333333334
 21
173.5
  0
TEXT
  8
_1-f_寸法
 62
    4
 10
107.60000000000004
 20
173.5
 40
3.2000000000000002
 41
1
 50
0
  1
200
  0
LINE
  8
_1-0_躯体
  6
CONTINUOUS
 62
    6
 10
76.666666666666742
 20
210.16666666666669
 11
76.666666666666742
 21
186.83333333333331
  0
LINE
  8
_1-0_躯体
  6
CENTER2
 62
    4
 10
110.00000000000014
 20
186.83333333333331
 11
110.00000000000014
 21
223.50000000000003
  0
LINE
  8
_1-0_躯体
  6
CONTINUOUS
 62
    6
 10
143.3333333333334
 20
210.16666666666669
 11
143.3333333333334
 21
186.83333333333331
  0
LINE
  8
_0-0_図面枠
  6
CONTINUOUS
 62
    2
 10
164.99999999999997
 20
246.99999999999989
 11
164.99999999999997
 21
286.99999999999994
  0
INSERT
  2
-017-_17_
  8
_0-0_図面枠
 10
210
 20
148.5
 41
1
 42
1
 50
0
  0
LINE
  8
_0-0_図面枠
  6
CONTINUOUS
 62
    2
 10
178.99460475445099
 20
263.11505807960708
 11
181.15966826391207
 21
261.86505807960708
  0
LINE
  8
_0-0_図面枠
  6
CONTINUOUS
 62
    2
 10
181.15966826391207
 20
261.86505807960708
 11
195.88210012824754
 21
270.36505807960708
  0
LINE
  8
_0-0_図面枠
  6
CONTINUOUS
 62
    2
 10
195.88210012824754
 20
270.36505807960708
 11
193.71703661878644
 21
271.61505807960708
  0
LINE
  8
_0-0_図面枠
  6
CONTINUOUS
 62
    2
 10
181.15966826391207
 20
261.86505807960708
 11
181.15966826391207
 21
251.86505807960708
  0
LINE
  8
_0-0_図面枠
  6
CONTINUOUS
 62
    2
 10
178.99460475445099
 20
263.11505807960708
 11
178.99460475445099
 21
253.11505807960708
  0
TEXT
  8
_0-0_図面枠
 62
    4
 10
172.5976921277059
 20
280.88494192039269
 40
2.5
 41
1
 50
0
  1
-100
  0
TEXT
  8
_0-0_図面枠
 62
    4
 10
195.11354581797701
 20
280.88494192039263
 40
2.5
 41
1
 50
0
  1
+100
  0
TEXT
  8
_0-0_図面枠
 62
    4
 10
195.11354581797698
 20
267.8854077312804
 40
2.5
 41
1
 50
0
  1
+100
  0
TEXT
  8
_0-0_図面枠
 62
    4
 10
172.59728872183658
 20
267.88610650082205
 40
2.5
 41
1
 50
0
  1
-100
  0
LINE
  8
_0-0_図面枠
  6
CONTINUOUS
 62
    2
 10
195.88210012824754
 20
270.36505807960708
 11
195.88210012824754
 21
270.18409224854929
  0
LINE
  8
_0-0_図面枠
  6
CONTINUOUS
 62
    2
 10
195.88210012824754
 20
268.01364867294279
 11
195.88210012824754
 21
260.36505807960708
  0
LINE
  8
_0-0_図面枠
  6
CONTINUOUS
 62
    2
 10
193.71703661878644
 20
271.61505807960708
 11
193.71703661878644
 21
271.52033947808673
  0
LINE
  8
_0-0_図面枠
  6
CONTINUOUS
 62
    2
 10
193.71703661878644
 20
270.73757885370622
 11
193.71703661878644
 21
269.11505807960708
  0
LINE
  8
_0-0_図面枠
  6
CONTINUOUS
 62
    3
 10
184.19075717715762
 20
266.11505807960708
 11
184.19075717715762
 21
263.61505807960708
  0
LINE
  8
_0-0_図面枠
  6
CONTINUOUS
 62
    3
 10
188.52088419607983
 20
268.61505807960708
 11
188.52088419607983
 21
266.11505807960708
  0
LINE
  8
_0-0_図面枠
  6
CONTINUOUS
 62
    3
 10
184.19075717715762
 20
266.11505807960708
 11
178.99460475445099
 21
263.11505807960708
  0
LINE
  8
_0-0_図面枠
  6
CONTINUOUS
 62
    3
 10
188.52088419607983
 20
268.61505807960708
 11
184.19075717715765
 21
271.11505807960708
  0
LINE
  8
_0-0_図面枠
  6
CONTINUOUS
 62
    3
 10
184.19075717715762
 20
266.11505807960708
 11
179.86063015823544
 21
268.61505807960708
  0
LINE
  8
_0-0_図面枠
  6
CONTINUOUS
 62
    3
 10
178.99460475445099
 20
263.11505807960708
 11
175.53050313931323
 21
261.11505807960708
  0
LINE
  8
_0-0_図面枠
  6
CONTINUOUS
 62
    3
 10
193.71703661878644
 20
271.61505807960708
 11
197.1811382339242
 21
273.61505807960708
  0
LINE
  8
_0-0_図面枠
  6
CONTINUOUS
 62
    3
 10
193.71703661878644
 20
271.61505807960708
 11
193.68236424150376
 21
271.59503997324947
  0
LINE
  8
_0-0_図面枠
  6
CONTINUOUS
 62
    3
 10
192.51835025799218
 20
270.92299618652856
 11
188.52088419607983
 21
268.61505807960708
  0
LINE
  8
_0-0_図面枠
  6
CONTINUOUS
 62
    2
 10
164.99999999999997
 20
246.99999999999989
 11
209.99999999999997
 21
246.99999999999989
  0
LINE
  8
_0-0_図面枠
  6
CONTINUOUS
 62
    2
 10
365
 20
247.00000000000006
 11
365
 21
287.00000000000006
  0
INSERT
  2
-018-_18_
  8
_0-0_図面枠
 10
210
 20
148.5
 41
1
 42
1
 50
0
  0
LINE
  8
_0-0_図面枠
  6
CONTINUOUS
 62
    4
 10
392.70254983187715
 20
272.37647457958172
 11
392.66787745459442
 21
272.35645647322411
  0
LINE
  8
_0-0_図面枠
  6
CONTINUOUS
 62
    2
 10
377.98011796754167
 20
263.87647457958172
 11
380.14518147700278
 21
262.62647457958172
  0
LINE
  8
_0-0_図面枠
  6
CONTINUOUS
 62
    2
 10
380.14518147700278
 20
262.62647457958172
 11
380.14518147700278
 21
252.62647457958172
  0
LINE
  8
_0-0_図面枠
  6
CONTINUOUS
 62
    2
 10
377.98011796754167
 20
263.87647457958172
 11
377.98011796754167
 21
253.87647457958172
  0
LINE
  8
_0-0_図面枠
  6
CONTINUOUS
 62
    2
 10
387.50639740917052
 20
266.87647457958167
 11
390.97049902430831
 21
264.87647457958167
  0
LINE
  8
_0-0_図面枠
  6
CONTINUOUS
 62
    2
 10
390.97049902430831
 20
264.87647457958167
 11
393.13556253376942
 21
266.12647457958167
  0
LINE
  8
_0-0_図面枠
  6
CONTINUOUS
 62
    2
 10
380.14518147700278
 20
262.62647457958172
 11
387.50639740917052
 21
266.87647457958172
  0
LINE
  8
_0-0_図面枠
  6
CONTINUOUS
 62
    2
 10
390.97049902430831
 20
264.87647457958167
 11
390.97049902430831
 21
254.87647457958167
  0
LINE
  8
_0-0_図面枠
  6
CONTINUOUS
 62
    2
 10
393.13556253376942
 20
266.12647457958167
 11
393.13556253376942
 21
256.12647457958167
  0
TEXT
  8
_0-0_図面枠
 62
    4
 10
371.58360876835116
 20
281.64635842036733
 40
2.5
 41
1
 50
0
  1
-100
  0
TEXT
  8
_0-0_図面枠
 62
    4
 10
394.09946245862227
 20
281.64635842036728
 40
2.5
 41
1
 50
0
  1
+100
  0
TEXT
  8
_0-0_図面枠
 62
    4
 10
394.09946245862227
 20
268.64682423125504
 40
2.5
 41
1
 50
0
  1
+100
  0
TEXT
  8
_0-0_図面枠
 62
    4
 10
371.58320536248186
 20
268.6475230007967
 40
2.5
 41
1
 50
0
  1
-100
  0
LINE
  8
_0-0_図面枠
  6
CONTINUOUS
 62
    3
 10
377.98011796754167
 20
263.87647457958172
 11
374.51601635240388
 21
261.87647457958172
  0
LINE
  8
_0-0_図面枠
  6
CONTINUOUS
 62
    3
 10
383.17627039024831
 20
266.87647457958172
 11
383.17627039024831
 21
264.37647457958172
  0
LINE
  8
_0-0_図面枠
  6
CONTINUOUS
 62
    3
 10
383.17627039024831
 20
266.87647457958172
 11
377.98011796754167
 21
263.87647457958172
  0
LINE
  8
_0-0_図面枠
  6
CONTINUOUS
 62
    3
 10
396.16665144701494
 20
264.37647457958172
 11
383.17627039024831
 21
271.87647457958172
  0
LINE
  8
_0-0_図面枠
  6
CONTINUOUS
 62
    3
 10
396.16665144701494
 20
264.37647457958172
 11
400.49677846593715
 21
266.87647457958172
  0
LINE
  8
_0-0_図面枠
  6
CONTINUOUS
 62
    3
 10
396.16665144701494
 20
264.37647457958167
 11
396.16665144701494
 21
254.37647457958167
  0
LINE
  8
_0-0_図面枠
  6
CONTINUOUS
 62
    3
 10
383.17627039024831
 20
266.87647457958172
 11
378.84614337132609
 21
269.37647457958172
  0
LINE
  8
_0-0_図面枠
  6
CONTINUOUS
 62
    2
 10
365
 20
247
 11
410
 21
247
  0
LINE
  8
_1-0_躯体
  6
CENTER2
 62
    4
 10
334.66863674955584
 20
216.57179397977325
 11
334.66863674955584
 21
193.50000000000003
  0
INSERT
  2
-019-_19_
  8
_1-8_小物
 10
210
 20
148.5
 41
1
 42
1
 50
0
  0
LINE
  8
_1-0_躯体
  6
CONTINUOUS
 62
    6
 10
346.33530333675537
 20
210.16666666666666
 11
323.001970003422
 21
210.16666666666666
  0
LINE
  8
_1-f_寸法
  6
CONTINUOUS
 62
    4
 10
323.00197000342007
 20
195.16666666666657
 11
323.00197000342007
 21
188.56666666666661
  0
LINE
  8
_1-f_寸法
  6
CONTINUOUS
 62
    4
 10
334.6686366700867
 20
195.16666666666657
 11
334.6686366700867
 21
188.56666666666661
  0
POINT
  8
_1-f_寸法
 62
    4
 10
334.6686366700867
 20
190.16666666666657
  0
POINT
  8
_1-f_寸法
 62
    4
 10
323.00197000342007
 20
190.16666666666657
  0
LINE
  8
_1-f_寸法
  6
CONTINUOUS
 62
    4
 10
334.6686366700867
 20
190.16666666666657
 11
323.00197000342007
 21
190.16666666666657
  0
TEXT
  8
_1-f_寸法
 62
    4
 10
327.2353033367533
 20
190.16666666666657
 40
3.2000000000000002
 41
1
 50
0
  1
35
  0
LINE
  8
_1-f_寸法
  6
CONTINUOUS
 62
    4
 10
239.66863667008914
 20
210.16666674613327
 11
304.6686366700888
 21
210.16666674613327
  0
CIRCLE
  8
_1-f_寸法
  6
CONTINUOUS
 62
    4
 10
346.33530333675537
 20
215.16666666666666
 40
1.6666666666666665
  0
CIRCLE
  8
_1-f_寸法
  6
CONTINUOUS
 62
    4
 10
346.33530333675537
 20
215.16666666666666
 40
1.6666666666666665
  0
LINE
  8
_1-f_寸法
  6
CONTINUOUS
 62
    4
 10
345.15679203477777
 20
213.98815536468902
 11
342.83530333675537
 21
211.66666666666666
  0
CIRCLE
  8
_1-f_寸法
  6
CONTINUOUS
 62
    4
 10
328.001970003422
 20
205.16666666666666
 40
1.6666666666666665
  0
CIRCLE
  8
_1-f_寸法
  6
CONTINUOUS
 62
    4
 10
341.33530333675537
 20
198.5
 40
1.6666666666666665
  0
CIRCLE
  8
_1-f_寸法
  6
CONTINUOUS
 62
    4
 10
341.33530333675537
 20
205.16666666666666
 40
1.6666666666666665
  0
LINE
  8
_1-f_寸法
  6
CONTINUOUS
 62
    4
 10
329.02207657173801
 20
206.48468046289796
 11
332.71030333675537
 21
211.25
  0
LINE
  8
_1-f_寸法
  6
CONTINUOUS
 62
    4
 10
340.17419428486323
 20
206.36232696432322
 11
334.66863667008869
 21
212.03171404361666
  0
LINE
  8
_1-f_寸法
  6
CONTINUOUS
 62
    4
 10
340.37043347162125
 20
199.85897164103363
 11
335.41863667008852
 21
206.83333333333317
  0
CIRCLE
  8
_1-f_寸法
  6
CONTINUOUS
 62
    4
 10
322.16866950123847
 20
221.83333333386037
 40
1.6666666666666665
  0
CIRCLE
  8
_1-f_寸法
  6
CONTINUOUS
 62
    4
 10
339.66863666135572
 20
221.8333333146999
 40
1.6666666666666665
  0
TEXT
  8
_1-f_寸法
 62
    4
 10
339.04363666135572
 20
220.5833333146999
 40
2.5
 41
1
 50
0
  1
2
  0
LINE
  8
_1-f_寸法
  6
CONTINUOUS
 62
    4
 10
336.70490386850105
 20
216.69999753741763
 11
338.83530332802241
 21
220.38995764172583
  0
CIRCLE
  8
_1-f_寸法
  6
CONTINUOUS
 62
    4
 10
333.00197000342212
 20
221.83333333333331
 40
1.6666666666666665
  0
TEXT
  8
_1-f_寸法
 62
    4
 10
332.37697000342212
 20
220.58333333333331
 40
2.5
 41
1
 50
0
  1
5
  0
LINE
  8
_1-f_寸法
  6
CONTINUOUS
 62
    4
 10
332.00064172473969
 20
220.50099724356892
 11
325.79953608617495
 21
212.25000004656673
  0
CIRCLE
  8
_1-f_寸法
  6
CONTINUOUS
 62
    4
 10
268.00197000342177
 20
228.49999990189991
 40
1.6666666666666665
  0
TEXT
  8
_1-f_寸法
 62
    4
 10
267.37697000342177
 20
227.24999990189991
 40
2.5
 41
1
 50
0
  1
3
  0
LINE
  8
_1-f_寸法
  6
CONTINUOUS
 62
    4
 10
267.1686366700884
 20
227.05662422892584
 11
263.12697000342132
 21
220.05625221500105
  0
CIRCLE
  8
_1-f_寸法
  6
CONTINUOUS
 62
    4
 10
268.83533616790487
 20
221.83333325439389
 40
1.6666666666666665
  0
CIRCLE
  8
_1-f_寸法
  6
CONTINUOUS
 62
    4
 10
261.33530333675492
 20
236.83333325386678
 40
1.6666666666666665
  0
CIRCLE
  8
_1-f_寸法
  6
CONTINUOUS
 62
    4
 10
261.33530333675492
 20
236.83333325386678
 40
1.6666666666666665
  0
LINE
  8
_1-f_寸法
  6
CONTINUOUS
 62
    4
 10
260.15679203477737
 20
235.6548219518892
 11
257.83530333675492
 21
233.33333325386678
  0
CIRCLE
  8
_1-f_寸法
  6
CONTINUOUS
 62
    4
 10
309.66863666951718
 20
221.83332698040726
 40
1.6666666666666665
  0
TEXT
  8
_1-f_寸法
 62
    4
 10
309.04363666951718
 20
220.58332698040726
 40
2.5
 41
1
 50
0
  1
1
  0
LINE
  8
_1-f_寸法
  6
CONTINUOUS
 62
    4
 10
311.73747513411337
 20
218.24999364707406
 11
310.50197000285044
 21
220.38995130743319
  0
LINE
  8
_1-f_寸法
  6
CONTINUOUS
 62
    4
 10
270.08900489152933
 20
220.73511082283295
 11
273.001970003422
 21
218.18333333333331
  0
LINE
  8
_1-f_寸法
  6
CONTINUOUS
 62
    4
 10
323.42233821293712
 20
220.73511088868568
 11
326.33530333618353
 21
218.18333333333331
  0
TEXT
  8
_1-f_寸法
 62
    4
 10
268.21033616790487
 20
220.58333325439389
 40
2.5
 41
1
 50
0
  1
6
  0
TEXT
  8
_1-f_寸法
 62
    4
 10
321.54366950123847
 20
220.58333333386037
 40
2.5
 41
1
 50
0
  1
6
  0
TEXT
  8
_1-f_寸法
 62
    4
 10
260.08530333675492
 20
235.58333325386678
 40
2.5
 41
1
 50
0
  1
10
  0
TEXT
  8
_1-f_寸法
 62
    4
 10
345.08530333675537
 20
213.91666666666666
 40
2.5
 41
1
 50
0
  1
10
  0
TEXT
  8
_1-f_寸法
 62
    4
 10
340.71030333675537
 20
203.91666666666666
 40
2.5
 41
1
 50
0
  1
7
  0
TEXT
  8
_1-f_寸法
 62
    4
 10
327.376970003422
 20
203.91666666666666
 40
2.5
 41
1
 50
0
  1
8
  0
TEXT
  8
_1-f_寸法
 62
    4
 10
340.71030333675537
 20
197.25
 40
2.5
 41
1
 50
0
  1
9
  0
INSERT
  2
-020-_20_
  8
_1-4_フレ__ム
 10
210
 20
148.5
 41
1
 42
1
 50
0
  0
INSERT
  2
-021-_21_
  8
_1-8_小物
 10
210
 20
148.5
 41
1
 42
1
 50
0
  0
LINE
  8
_1-f_寸法
  6
CONTINUOUS
 62
    4
 10
264.33530333675481
 20
236.83334603918507
 11
264.33530333675481
 21
243.43334603918504
  0
LINE
  8
_1-f_寸法
  6
CONTINUOUS
 62
    4
 10
256.33530333675537
 20
236.83334603918507
 11
256.33530333675537
 21
243.43334603918504
  0
POINT
  8
_1-f_寸法
 62
    4
 10
256.33530333675537
 20
241.83334603918505
  0
POINT
  8
_1-f_寸法
 62
    4
 10
264.33530333675481
 20
241.83334603918505
  0
LINE
  8
_1-f_寸法
  6
CONTINUOUS
 62
    4
 10
256.33530333675537
 20
241.83334603918505
 11
264.33530333675481
 21
241.83334603918505
  0
TEXT
  8
_1-f_寸法
 62
    4
 10
258.73530333675501
 20
241.83334603918505
 40
3.2000000000000002
 41
1
 50
0
  1
24
  0
LINE
  8
_1-f_寸法
  6
CONTINUOUS
 62
    4
 10
342.66863666951633
 20
236.83334603918507
 11
342.66863666951633
 21
248.43334603918504
  0
LINE
  8
_1-f_寸法
  6
CONTINUOUS
 62
    4
 10
256.33530333675537
 20
236.83334603918507
 11
256.33530333675537
 21
248.43334603918504
  0
POINT
  8
_1-f_寸法
 62
    4
 10
256.33530333675537
 20
246.83334603918505
  0
POINT
  8
_1-f_寸法
 62
    4
 10
342.66863666951633
 20
246.83334603918505
  0
LINE
  8
_1-f_寸法
  6
CONTINUOUS
 62
    4
 10
256.33530333675537
 20
246.83334603918505
 11
342.66863666951633
 21
246.83334603918505
  0
TEXT
  8
_1-f_寸法
 62
    4
 10
297.10197000313582
 20
246.83334603918505
 40
3.2000000000000002
 41
1
 50
0
  1
259
  0
LINE
  8
_1-f_寸法
  6
CONTINUOUS
 62
    4
 10
342.66863666951679
 20
236.83334603918507
 11
342.66863666951679
 21
220.16667937251844
  0
LINE
  8
_1-f_寸法
  6
CONTINUOUS
 62
    4
 10
342.66863666951633
 20
236.83334603918507
 11
342.66863666951633
 21
243.43334603918504
  0
LINE
  8
_1-f_寸法
  6
CONTINUOUS
 62
    4
 10
264.33530333675481
 20
236.83334603918507
 11
264.33530333675481
 21
243.43334603918504
  0
POINT
  8
_1-f_寸法
 62
    4
 10
264.33530333675481
 20
241.83334603918505
  0
POINT
  8
_1-f_寸法
 62
    4
 10
342.66863666951633
 20
241.83334603918505
  0
LINE
  8
_1-f_寸法
  6
CONTINUOUS
 62
    4
 10
264.33530333675481
 20
241.83334603918505
 11
342.66863666951633
 21
241.83334603918505
  0
TEXT
  8
_1-f_寸法
 62
    4
 10
301.10197000313559
 20
241.83334603918505
 40
3.2000000000000002
 41
1
 50
0
  1
235
  0
LINE
  8
_1-0_躯体
  6
CENTER2
 62
    4
 10
259.40709729752894
 20
221.50000000000003
 11
239.66863667008869
 21
221.50000000000003
  0
INSERT
  2
-022-_22_
  8
_1-8_小物
 10
210
 20
148.5
 41
1
 42
1
 50
0
  0
LINE
  8
_1-f_寸法
  6
CONTINUOUS
 62
    4
 10
252.84790794737899
 20
227.46680183369122
 11
256.91863667008795
 21
225.58333325386698
  0
CIRCLE
  8
_1-f_寸法
  6
CONTINUOUS
 62
    4
 10
251.33530333675446
 20
228.16666258390887
 40
1.6666666666666665
  0
TEXT
  8
_1-f_寸法
 62
    4
 10
250.71030333675446
 20
226.91666258390887
 40
2.5
 41
1
 50
0
  1
4
  0
CIRCLE
  8
_1-f_寸法
  6
CONTINUOUS
 62
    4
 10
246.33530333675492
 20
226.4999999205335
 40
1.6666666666666665
  0
CIRCLE
  8
_1-f_寸法
  6
CONTINUOUS
 62
    4
 10
251.33530333675492
 20
216.4999999205335
 40
1.6666666666666665
  0
CIRCLE
  8
_1-f_寸法
  6
CONTINUOUS
 62
    4
 10
244.66863667008829
 20
216.4999999205335
 40
1.6666666666666665
  0
LINE
  8
_1-f_寸法
  6
CONTINUOUS
 62
    4
 10
246.15336242512922
 20
217.25721006976269
 11
253.00197000342155
 21
220.75000000000014
  0
LINE
  8
_1-f_寸法
  6
CONTINUOUS
 62
    4
 10
258.20035071370489
 20
221.4999999205335
 11
252.68252081211131
 21
217.481214908124
  0
LINE
  8
_1-f_寸法
  6
CONTINUOUS
 62
    4
 10
257.41863667008829
 20
223.45833333333331
 11
247.94254382613963
 21
226.05891513609836
  0
LINE
  8
_1-f_寸法
  6
CONTINUOUS
 62
    4
 10
348.00197000342189
 20
233.16666031374081
 11
266.33530333675526
 21
233.16666031374081
  0
TEXT
  8
_1-f_寸法
 62
    4
 10
250.71030333675492
 20
215.2499999205335
 40
2.5
 41
1
 50
0
  1
7
  0
TEXT
  8
_1-f_寸法
 62
    4
 10
245.71030333675492
 20
225.2499999205335
 40
2.5
 41
1
 50
0
  1
8
  0
TEXT
  8
_1-f_寸法
 62
    4
 10
244.04363667008829
 20
215.2499999205335
 40
2.5
 41
1
 50
0
  1
9
  0
INSERT
  2
-023-_23_
  8
_1-4_フレ__ム
 10
210
 20
148.5
 41
1
 42
1
 50
0
  0
INSERT
  2
-024-_24_
  8
_1-8_小物
 10
210
 20
148.5
 41
1
 42
1
 50
0
  0
INSERT
  2
-025-_25_
  8
_1-8_小物
 10
210
 20
148.5
 41
1
 42
1
 50
0
  0
LINE
  8
_1-6_ばね
  6
CENTER2
 62
    4
 10
261.28530333457206
 20
230.66666674613322
 11
261.28530333457206
 21
224.00000007946656
  0
LINE
  8
_1-6_ばね
  6
CENTER2
 62
    4
 10
264.61863666790532
 20
227.3333334127999
 11
257.95197000123869
 21
227.3333334127999
  0
CIRCLE
  8
_1-6_ばね
  6
CONTINUOUS
 62
    4
 10
261.28530333457206
 20
227.3333334127999
 40
1.4166666739834075
  0
ARC
  8
_1-6_ばね
  6
CONTINUOUS
 62
    4
 10
272.43964306665407
 20
215.60000011273337
 40
0.8666666666666667
 50
90
 51
120.49335808176629
  0
ARC
  8
_1-6_ばね
  6
CONTINUOUS
 62
    4
 10
268.73096360685338
 20
216.43333346868332
 40
0.8666666666666667
 50
270
 51
300.49335808175789
  0
LINE
  8
_1-6_ばね
  6
CONTINUOUS
 62
    4
 10
268.73096360685338
 20
214.70000013534997
 11
263.71863667008688
 21
214.70000013534997
  0
LINE
  8
_1-6_ばね
  6
CONTINUOUS
 62
    4
 10
271.99986305358436
 20
216.34679637090258
 11
269.61052363299279
 21
214.93974095234489
  0
ARC
  8
_1-6_ばね
  6
CONTINUOUS
 62
    4
 10
268.73096360685338
 20
216.43333346868332
 40
1.7333333333333334
 50
270
 51
300.49335808175374
  0
ARC
  8
_1-6_ばね
  6
CONTINUOUS
 62
    4
 10
272.43964306665396
 20
215.60000011273328
 40
1.7333333333333334
 50
90
 51
120.49335808175486
  0
ARC
  8
_1-6_ばね
  6
CENTER2
 62
    4
 10
268.73096360685361
 20
216.43333346868326
 40
1.2999999999999998
 50
270
 51
300.49335808175448
  0
ARC
  8
_1-6_ばね
  6
CENTER2
 62
    4
 10
272.43964306665396
 20
215.60000011273328
 40
1.2999999999999998
 50
90
 51
120.49335808175448
  0
ARC
  8
_1-6_ばね
  6
CONTINUOUS
 62
    4
 10
263.71863667008722
 20
216.43333346868332
 40
0.8666666666666667
 50
180
 51
270
  0
ARC
  8
_1-6_ばね
  6
CONTINUOUS
 62
    4
 10
263.71863667008688
 20
216.43333346868332
 40
1.7333333333333334
 50
180
 51
270
  0
ARC
  8
_1-6_ばね
  6
CENTER2
 62
    4
 10
263.71863667008722
 20
216.43333346868326
 40
1.2999999999999998
 50
180
 51
270
  0
LINE
  8
_1-6_ばね
  6
CONTINUOUS
 62
    4
 10
262.85197000342043
 20
222.07950065851165
 11
262.85197000342043
 21
216.43333346868332
  0
ARC
  8
_1-6_ばね
  6
CONTINUOUS
 62
    4
 10
261.11863667008708
 20
222.07950065851165
 40
1.7333333333333334
 50
0
 51
34.999999999999957
  0
LINE
  8
_1-6_ばね
  6
CENTER2
 62
    4
 10
259.76987204664385
 20
226.27221700135388
 11
262.18353432766276
 21
222.82515002576815
  0
LINE
  8
_1-6_ばね
  6
CENTER2
 62
    4
 10
262.41863667008704
 20
222.07950065851179
 11
262.41863667008704
 21
216.43333346868332
  0
ARC
  8
_1-6_ばね
  6
CENTER2
 62
    4
 10
261.11863667008708
 20
222.07950065851179
 40
1.2999999999999998
 50
0
 51
35.000000000000568
  0
ARC
  8
_1-6_ばね
  6
CONTINUOUS
 62
    4
 10
261.11863667008686
 20
222.07950065851202
 40
0.8666666666666667
 50
0
 51
34.999999999998103
  0
LINE
  8
_1-6_ばね
  6
CENTER2
 62
    4
 10
268.73096360685361
 20
215.13333346868322
 11
263.71863667008722
 21
215.13333346868322
  0
LINE
  8
_1-6_ばね
  6
CENTER2
 62
    4
 10
271.77997304704951
 20
216.72019449998703
 11
269.39063362645811
 21
215.31313908142948
  0
LINE
  8
_1-6_ばね
  6
CONTINUOUS
 62
    4
 10
271.56008304051454
 20
217.09359262907174
 11
269.17074361992309
 21
215.68653721051402
  0
LINE
  8
_1-6_ばね
  6
CONTINUOUS
 62
    4
 10
268.73096360685338
 20
215.56666680201661
 11
263.71863667008722
 21
215.56666680201661
  0
ARC
  8
_1-6_ばね
  6
CONTINUOUS
 62
    4
 10
276.78530333675383
 20
215.60000011273337
 40
0.8666666666666667
 50
0
 51
90
  0
LINE
  8
_1-6_ばね
  6
CONTINUOUS
 62
    4
 10
277.6519700034205
 20
214.80000011273341
 11
277.6519700034205
 21
215.60000011273337
  0
LINE
  8
_1-6_ばね
  6
CONTINUOUS
 62
    4
 10
278.51863667008729
 20
214.80000011273341
 11
278.51863667008729
 21
215.60000011273328
  0
ARC
  8
_1-6_ばね
  6
CONTINUOUS
 62
    4
 10
276.78530333675394
 20
215.60000011273328
 40
1.7333333333333334
 50
0
 51
90
  0
ARC
  8
_1-6_ばね
  6
CENTER2
 62
    4
 10
276.78530333675383
 20
215.60000011273328
 40
1.2999999999999998
 50
0
 51
90
  0
LINE
  8
_1-6_ばね
  6
CENTER2
 62
    4
 10
278.0853033367539
 20
214.80000011273341
 11
278.0853033367539
 21
215.60000011273328
  0
LINE
  8
_1-6_ばね
  6
CONTINUOUS
 62
    4
 10
281.25661601956472
 20
213.5232593742017
 11
283.29940120121535
 21
215.23735966669915
  0
LINE
  8
_1-6_ばね
  6
CONTINUOUS
 62
    4
 10
283.29940120121535
 20
215.23735966669915
 11
283.85648379627708
 21
214.5734544826627
  0
LINE
  8
_1-6_ばね
  6
CONTINUOUS
 62
    4
 10
281.81369861462633
 20
212.85935419016528
 11
283.85648379627708
 21
214.5734544826627
  0
LINE
  8
_1-6_ばね
  6
CENTER2
 62
    4
 10
281.53515731709558
 20
213.19130678218349
 11
283.57794249874621
 21
214.90540707468091
  0
ARC
  8
_1-6_ばね
  6
CONTINUOUS
 62
    4
 10
280.18530333675392
 20
214.80000011273333
 40
1.6666666666666665
 50
179.99999999999707
 51
309.99999999999613
  0
ARC
  8
_1-6_ばね
  6
CENTER2
 62
    4
 10
280.18530333675392
 20
214.80000011273333
 40
2.0999999999999996
 50
179.9999999999977
 51
309.99999999999733
  0
ARC
  8
_1-6_ばね
  6
CONTINUOUS
 62
    4
 10
280.18530333675392
 20
214.80000011273333
 40
2.5333333333333328
 50
179.99999999999807
 51
309.99999999999744
  0
LINE
  8
_1-6_ばね
  6
CONTINUOUS
 62
    4
 10
276.78530333675394
 20
217.33333344606663
 11
272.43964306665396
 21
217.33333344606663
  0
LINE
  8
_1-6_ばね
  6
CENTER2
 62
    4
 10
276.78530333675383
 20
216.90000011273324
 11
272.43964306665396
 21
216.90000011273324
  0
LINE
  8
_1-6_ばね
  6
CONTINUOUS
 62
    4
 10
276.78530333675383
 20
216.46666677939999
 11
272.43964306665407
 21
216.46666677939999
  0
LINE
  8
_1-6_ばね
  6
CONTINUOUS
 62
    4
 10
260.12483793250249
 20
226.52076679043921
 11
262.53850021352139
 21
223.07369981485346
  0
ARC
  8
_1-6_ばね
  6
CENTER2
 62
    4
 10
261.28530333457206
 20
227.3333334127999
 40
1.8500000073167409
 50
255.02483380297065
 51
215.00000000000057
  0
ARC
  8
_1-6_ばね
  6
CONTINUOUS
 62
    4
 10
261.28530333457206
 20
227.3333334127999
 40
2.2833333406500742
 50
266.65187649779466
 51
214.99999999999613
  0
LINE
  8
_1-6_ばね
  6
CONTINUOUS
 62
    4
 10
261.98530333675353
 20
222.07950065851202
 11
261.98530333675353
 21
216.43333346868332
  0
LINE
  8
_1-6_ばね
  6
CONTINUOUS
 62
    4
 10
259.41490616078522
 20
226.02366721226841
 11
261.82856844180401
 21
222.57660023668291
  0
INSERT
  2
-026-_26_
  8
_1-5_ア__ム
 10
210
 20
148.5
 41
1
 42
1
 50
0
  0
LINE
  8
_1-6_ばね
  6
CONTINUOUS
 62
    4
 10
263.40178011640603
 20
226.47651535948742
 11
262.21262106091484
 21
223.53910347708734
  0
LINE
  8
_1-6_ばね
  6
CONTINUOUS
 62
    4
 10
261.8250201767039
 20
222.58166768441299
 11
257.88697046194858
 21
212.85405894091608
  0
LINE
  8
_1-6_ばね
  6
CENTER2
 62
    4
 10
257.48530333675626
 20
213.0166667461331
 11
261.52879172109135
 21
223.00472576283633
  0
LINE
  8
_1-6_ばね
  6
CENTER2
 62
    4
 10
261.91639260530235
 20
223.96216155551068
 11
262.4979085428846
 21
225.39859835256618
  0
LINE
  8
_1-6_ばね
  6
CONTINUOUS
 62
    4
 10
261.62016414968986
 20
224.38521963393387
 11
261.92648156696384
 21
225.14187234336896
  0
LINE
  8
_1-6_ばね
  6
CONTINUOUS
 62
    4
 10
257.08363621156383
 20
213.17927455135015
 11
261.23256326547892
 21
223.42778384125953
  0
ARC
  8
_1-6_ばね
  6
CONTINUOUS
 62
    4
 10
257.48530333675626
 20
213.0166667461331
 40
0.4333333333333333
 50
157.96031013033797
 51
337.96031013033172
  0
INSERT
  2
-027-_27_
  8
_1-7_カバ__
 10
210
 20
148.5
 41
1
 42
1
 50
0
  0
INSERT
  2
-028-_28_
  8
_1-8_小物
 10
210
 20
148.5
 41
1
 42
1
 50
0
  0
INSERT
  2
-029-_29_
  8
_1-8_小物
 10
210
 20
148.5
 41
1
 42
1
 50
0
  0
INSERT
  2
-030-_30_
  8
_1-8_小物
 10
210
 20
148.5
 41
1
 42
1
 50
0
  0
INSERT
  2
-031-_31_
  8
_1-8_小物
 10
210
 20
148.5
 41
1
 42
1
 50
0
  0
LINE
  8
_1-f_寸法
  6
CONTINUOUS
 62
    4
 10
239.66863667008914
 20
210.16666674613327
 11
233.06863667008918
 21
210.16666674613327
  0
LINE
  8
_1-f_寸法
  6
CONTINUOUS
 62
    4
 10
239.66863667008914
 20
221.50000000000003
 11
233.06863667008918
 21
221.50000000000003
  0
POINT
  8
_1-f_寸法
 62
    4
 10
234.66863667008914
 20
221.50000000000003
  0
POINT
  8
_1-f_寸法
 62
    4
 10
234.66863667008914
 20
210.16666674613327
  0
LINE
  8
_1-f_寸法
  6
CONTINUOUS
 62
    4
 10
234.66863667008914
 20
221.50000000000003
 11
234.66863667008914
 21
210.16666674613327
  0
TEXT
  8
_1-f_寸法
 62
    4
 10
234.66863667008914
 20
214.23333337306667
 40
3.2000000000000002
 41
1
 50
90
  1
34
  0
LINE
  8
_1-f_寸法
  6
CONTINUOUS
 62
    4
 10
348.00197000342189
 20
218.16666674613327
 11
354.60197000342191
 21
218.16666674613327
  0
LINE
  8
_1-f_寸法
  6
CONTINUOUS
 62
    4
 10
348.00197000342189
 20
210.16666666666666
 11
354.60197000342191
 21
210.16666666666666
  0
POINT
  8
_1-f_寸法
 62
    4
 10
353.00197000342189
 20
210.16666666666666
  0
POINT
  8
_1-f_寸法
 62
    4
 10
353.00197000342189
 20
218.16666674613327
  0
LINE
  8
_1-f_寸法
  6
CONTINUOUS
 62
    4
 10
353.00197000342189
 20
210.16666666666666
 11
353.00197000342189
 21
218.16666674613327
  0
TEXT
  8
_1-f_寸法
 62
    4
 10
353.00197000342189
 20
212.56666670639996
 40
3.2000000000000002
 41
1
 50
90
  1
24
  0
LINE
  8
_1-f_寸法
  6
CONTINUOUS
 62
    4
 10
348.00197000342189
 20
233.16666031374081
 11
354.60197000342191
 21
233.16666031374081
  0
POINT
  8
_1-f_寸法
 62
    4
 10
353.00197000342189
 20
233.16666031374081
  0
LINE
  8
_1-f_寸法
  6
CONTINUOUS
 62
    4
 10
353.00197000342189
 20
218.16666674613327
 11
353.00197000342189
 21
233.16666031374081
  0
TEXT
  8
_1-f_寸法
 62
    4
 10
353.00197000342189
 20
224.06666352993705
 40
3.2000000000000002
 41
1
 50
90
  1
45
  0
LINE
  8
_1-f_寸法
  6
CONTINUOUS
 62
    4
 10
353.00197000342189
 20
233.16666031374081
 11
361.26863667008854
 21
233.16666031374081
  0
LINE
  8
_1-f_寸法
  6
CONTINUOUS
 62
    4
 10
353.00197000342189
 20
210.16666666666666
 11
361.26863667008854
 21
210.16666666666666
  0
POINT
  8
_1-f_寸法
 62
    4
 10
359.66863667008857
 20
210.16666666666666
  0
POINT
  8
_1-f_寸法
 62
    4
 10
359.66863667008857
 20
233.16666031374081
  0
LINE
  8
_1-f_寸法
  6
CONTINUOUS
 62
    4
 10
359.66863667008857
 20
210.16666666666666
 11
359.66863667008857
 21
233.16666031374081
  0
TEXT
  8
_1-f_寸法
 62
    4
 10
359.66863667008857
 20
220.06666349020375
 40
3.2000000000000002
 41
1
 50
90
  1
69
  0
LINE
  8
_1-0_躯体
  6
CENTER2
 62
    4
 10
289.66863667008874
 20
186.82764001349531
 11
289.66863667008874
 21
239.90711865714903
  0
LINE
  8
_1-0_躯体
  6
CONTINUOUS
 62
    6
 10
256.33530333675537
 20
234.80886749755274
 11
256.33530333675537
 21
186.82764001349531
  0
LINE
  8
_1-0_躯体
  6
CONTINUOUS
 62
    6
 10
323.001970003422
 20
210.1666666666668
 11
323.001970003422
 21
186.83333333333331
  0
LINE
  8
_1-f_寸法
  6
CONTINUOUS
 62
    4
 10
323.001970003422
 20
183.5
 11
323.001970003422
 21
171.90000000000001
  0
LINE
  8
_1-f_寸法
  6
CONTINUOUS
 62
    4
 10
256.33530333675526
 20
183.5
 11
256.33530333675526
 21
171.90000000000001
  0
POINT
  8
_1-f_寸法
 62
    4
 10
256.33530333675526
 20
173.5
  0
POINT
  8
_1-f_寸法
 62
    4
 10
323.001970003422
 20
173.5
  0
LINE
  8
_1-f_寸法
  6
CONTINUOUS
 62
    4
 10
256.33530333675526
 20
173.5
 11
323.001970003422
 21
173.5
  0
TEXT
  8
_1-f_寸法
 62
    4
 10
287.26863667008865
 20
173.5
 40
3.2000000000000002
 41
1
 50
0
  1
200
  0
ENDSEC
  0
EOF
