  0
SECTION
  2
HEADER
  9
$ACADVER
  1
AC1009
  9
$INSBASE
 10
0
 20
0
 30
0
  9
$EXTMIN
 10
0
 20
0
  9
$EXTMAX
 10
420
 20
297
  9
$LIMMIN
 10
0
 20
0
  9
$LIMMAX
 10
420
 20
297
  9
$LTSCALE
 40
1
  0
ENDSEC
  0
SECTION
  2
TABLES
  0
TABLE
  2
LTYPE
 70
     9
  0
LTYPE
  2
CONTINUOUS
 70
    64
  3
実線
 72
    65
 73
     0
 40
0.0
  0
LTYPE
  2
DASHED1
 70
    64
  3
--  --  --  --  --  --  --  --  
 72
    65
 73
     2
 40
2.5
 49
1.25
 49
-1.25
  0
LTYPE
  2
DASHED2
 70
    64
  3
----    ----    ----    ----    
 72
    65
 73
     2
 40
5.0
 49
2.5
 49
-2.5
  0
LTYPE
  2
DASHED3
 70
    64
  3
------  ------  ------  ------  
 72
    65
 73
     2
 40
5.0
 49
3.75
 49
-1.25
  0
LTYPE
  2
CENTER1
 70
    64
  3
----- - ----- - ----- - ----- - 
 72
    65
 73
     4
 40
10.0
 49
6.25
 49
-1.25
 49
1.25
 49
-1.25
  0
LTYPE
  2
CENTER2
 70
    64
  3
----------  --  ----------  --  
 72
    65
 73
     4
 40
20.0
 49
12.5
 49
-2.5
 49
2.5
 49
-2.5
  0
LTYPE
  2
PHANTOM1
 70
    64
  3
--- - - --- - - --- - - --- - - 
 72
    65
 73
     6
 40
10.0
 49
3.25
 49
-1.25
 49
1.25
 49
-1.25
 49
1.25
 49
-1.25
  0
LTYPE
  2
PHANTOM2
 70
    64
  3
--------  -  -  --------  -  -  
 72
    65
 73
     6
 40
20.0
 49
10.0
 49
-2.5
 49
1.25
 49
-2.5
 49
1.25
 49
-2.5
  0
LTYPE
  2
DOT
 70
    64
  3
-   -   -   -   -   -   -   -   
 72
    65
 73
     2
 40
2.5
 49
0.625
 49
-1.875
  0
LTYPE
  2
DUMMY
 70
    64
  3
ダミー
 72
    65
 73
     0
 40
0.0
  0
LTYPE
  2
RAND1
 70
    64
  3
ランダム線1
 72
    65
 73
     4
 40
10.0
 49
1.0
 49
-2.0
 49
3.0
 49
-4.0
  0
LTYPE
  2
RAND2
 70
    64
  3
ランダム線2
 72
    65
 73
     4
 40
14.0
 49
2.0
 49
-3.0
 49
4.0
 49
-5.0
  0
LTYPE
  2
RAND3
 70
    64
  3
ランダム線3
 72
    65
 73
     4
 40
18.0
 49
3.0
 49
-4.0
 49
5.0
 49
-6.0
  0
LTYPE
  2
RAND4
 70
    64
  3
ランダム線4
 72
    65
 73
     4
 40
22.0
 49
4.0
 49
-5.0
 49
6.0
 49
-7.0
  0
LTYPE
  2
RAND5
 70
    64
  3
ランダム線5
 72
    65
 73
     4
 40
26.0
 49
5.0
 49
-6.0
 49
7.0
 49
-8.0
  0
LTYPE
  2
LONG1
 70
    64
  3
----------  --  ----------  --  
 72
    65
 73
     4
 40
40.0
 49
32.5
 49
-2.5
 49
2.5
 49
-2.5
  0
LTYPE
  2
LONG2
 70
    64
  3
--------  -  -  --------  -  -  
 72
    65
 73
     6
 40
40.0
 49
30.0
 49
-2.5
 49
1.25
 49
-2.5
 49
1.25
 49
-2.5
  0
LTYPE
  2
LONG3
 70
    64
  3
+++++++++++++++..+++++++++++++++
 72
    65
 73
     2
 40
40.0
 49
37.5
 49
-2.5
  0
LTYPE
  2
LONG4
 70
    64
  3
+++++++++++++++..+++++++++++++++
 72
    65
 73
     2
 40
80.0
 49
75.0
 49
-5.0
  0
LTYPE
  2
LONG5
 70
    64
  3
----------  --  ----------  --  
 72
    65
 73
     4
 40
60.0
 49
37.5
 49
-7.5
 49
7.5
 49
-7.5
  0
LTYPE
  2
dashed
 70
   64
  3
-------   -------------   ------
 72
   65
 73
    2
 40
7.5
 49
6
 49
-1.5
  0
LTYPE
  2
dashed_spaced
 70
   64
  3
----        --------        ----
 72
   65
 73
    2
 40
12
 49
6
 49
-6
  0
LTYPE
  2
long_dashed_dotted
 70
   64
  3
------------- --- --------------
 72
   65
 73
    4
 40
15.25
 49
12
 49
-1.5
 49
0.25
 49
-1.5
  0
LTYPE
  2
long_dashed_double-dotted
 70
   64
  3
----------- --- --- ------------
 72
   65
 73
    6
 40
17
 49
12
 49
-1.5
 49
0.25
 49
-1.5
 49
0.25
 49
-1.5
  0
LTYPE
  2
long_dashed_triplicate-dotted
 70
   64
  3
--------- --- --- --- ----------
 72
   65
 73
    8
 40
18.75
 49
12
 49
-1.5
 49
0.25
 49
-1.5
 49
0.25
 49
-1.5
 49
0.25
 49
-1.5
  0
LTYPE
  2
dotted
 70
   64
  3
   -       -       -       -    
 72
   65
 73
    2
 40
1.75
 49
0.25
 49
-1.5
  0
LTYPE
  2
chain
 70
   64
  3
-------------- -- --------------
 72
   65
 73
    4
 40
18.5
 49
12
 49
-1.5
 49
3.5
 49
-1.5
  0
LTYPE
  2
chain_double_dash
 70
   64
  3
------------ -- -- -------------
 72
   65
 73
    6
 40
23.5
 49
12
 49
-1.5
 49
3.5
 49
-1.5
 49
3.5
 49
-1.5
  0
LTYPE
  2
dashed_dotted
 70
   64
  3
-----------     -     ----------
 72
   65
 73
    4
 40
9.25
 49
6
 49
-1.5
 49
0.25
 49
-1.5
  0
LTYPE
  2
double-dashed_dotted
 70
   64
  3
------   -----------   -   -----
 72
   65
 73
    6
 40
16.75
 49
6
 49
-1.5
 49
6
 49
-1.5
 49
0.25
 49
-1.5
  0
LTYPE
  2
dashed_double-dotted
 70
   64
  3
---------    -    -    ---------
 72
   65
 73
    6
 40
11
 49
6
 49
-1.5
 49
0.25
 49
-1.5
 49
0.25
 49
-1.5
  0
LTYPE
  2
double-dashed_double-dotted
 70
   64
  3
-----   ---------   -   -   ----
 72
   65
 73
    8
 40
18.5
 49
6
 49
-1.5
 49
6
 49
-1.5
 49
0.25
 49
-1.5
 49
0.25
 49
-1.5
  0
LTYPE
  2
dashed_triplicate-dotted
 70
   64
  3
-------    -    -    -    ------
 72
   65
 73
    8
 40
12.75
 49
6
 49
-1.5
 49
0.25
 49
-1.5
 49
0.25
 49
-1.5
 49
0.25
 49
-1.5
  0
LTYPE
  2
double-dashed_triplicate-dotted
 70
   64
  3
-----  ---------  -  -  -  -----
 72
   65
 73
   10
 40
20.25
 49
6
 49
-1.5
 49
6
 49
-1.5
 49
0.25
 49
-1.5
 49
0.25
 49
-1.5
 49
0.25
 49
-1.5
  0
LTYPE
  2
undefined
 70
   64
  3
--------------------------------
 72
   65
 73
    0
 40
0
  0
ENDTAB
  0
TABLE
  2
STYLE
  5
3
100
AcDbSymbolTable
 70
     1
  0
STYLE
  5
10
100
AcDbSymbolTableRecord
100
AcDbTextStyleTableRecord
  2
STANDARD
 70
     0
 40
0.0
 41
1.0
 50
0.0
 71
     0
 42
0.2
  3
txt
  4
bigfont.shx
  0
STYLE
  5
26
100
AcDbSymbolTableRecord
100
AcDbTextStyleTableRecord
  2
TATEGAKI
 70
    68
 40
0.0
 41
1.0
 50
0.0
 71
     0
 42
1.0
  3
txt
  4
bigfont.shx
  0
ENDTAB
  0
TABLE
  2
LAYER
 70
   10
  0
LAYER
  2
_0-0_図面枠
 70
   64
 62
    7
  6
CONTINUOUS
  0
LAYER
  2
_1-0_躯体
 70
   64
 62
    7
  6
CONTINUOUS
  0
LAYER
  2
_1-3_止水補助板
 70
   64
 62
    7
  6
CONTINUOUS
  0
LAYER
  2
_1-4_フレ__ム
 70
   64
 62
    7
  6
CONTINUOUS
  0
LAYER
  2
_1-5_ア__ム
 70
   64
 62
    7
  6
CONTINUOUS
  0
LAYER
  2
_1-6_ばね
 70
   64
 62
    7
  6
CONTINUOUS
  0
LAYER
  2
_1-7_カバ__
 70
   64
 62
    7
  6
CONTINUOUS
  0
LAYER
  2
_1-8_小物
 70
   64
 62
    7
  6
CONTINUOUS
  0
LAYER
  2
_1-f_寸法
 70
   64
 62
    7
  6
CONTINUOUS
  0
LAYER
  2
ADD_LINE
 70
   64
 62
    7
  6
CONTINUOUS
  0
ENDTAB
  0
ENDSEC
  0
SECTION
  2
BLOCKS
  0
BLOCK
  2
-000-
 70
   64
 10
0
 20
0
 30
0
  0
LINE
  8
_1-4_フレ__ム
  6
CONTINUOUS
 62
    4
 10
-75.000000079466929
 20
68.500000019000026
 11
-74.000000098466955
 21
69.499999999999943
  0
LINE
  8
_1-4_フレ__ム
  6
CONTINUOUS
 62
    4
 10
-74.000000098466955
 20
69.499999999999943
 11
-74.707106879653509
 21
69.499999999999943
  0
ARC
  8
_1-4_フレ__ム
  6
CONTINUOUS
 62
    4
 10
-91.166666666666842
 20
68.5
 40
0.5
 50
90
 51
180
  0
LINE
  8
_1-4_フレ__ム
  6
CONTINUOUS
 62
    4
 10
-80.000000000000142
 20
68.900000000000091
 11
-80.099999999999909
 21
69
  0
LINE
  8
_1-4_フレ__ム
  6
CONTINUOUS
 62
    4
 10
-79.899999999999807
 20
69
 11
-80.000000000000142
 21
68.900000000000091
  0
LINE
  8
_1-4_フレ__ム
  6
CONTINUOUS
 62
    4
 10
-91.666666666666799
 20
68.5
 11
-75.000000000000142
 21
68.5
  0
ARC
  8
_1-4_フレ__ム
  6
CONTINUOUS
 62
    4
 10
-86.566666666666478
 20
70.400000000000006
 40
0.2666666666666667
 50
90
 51
180
  0
LINE
  8
_1-4_フレ__ム
  6
CONTINUOUS
 62
    4
 10
-85.099999999999937
 20
70.666666666666686
 11
-86.566666666666478
 21
70.666666666666686
  0
ARC
  8
_1-4_フレ__ム
  6
CONTINUOUS
 62
    4
 10
-85.099999999999937
 20
70.400000000000006
 40
0.2666666666666667
 50
0
 51
90
  0
LINE
  8
_1-4_フレ__ム
  6
CONTINUOUS
 62
    4
 10
-84.833333333333513
 20
70.166666666666657
 11
-84.833333333333513
 21
70.400000000000006
  0
LINE
  8
_1-4_フレ__ム
  6
CONTINUOUS
 62
    4
 10
-86.066666666666748
 20
70.166666666666657
 11
-84.833333333333513
 21
70.166666666666657
  0
ARC
  8
_1-4_フレ__ム
  6
CONTINUOUS
 62
    4
 10
-86.066666666666748
 20
69.900000000000034
 40
0.2666666666666667
 50
90
 51
180
  0
LINE
  8
_1-4_フレ__ム
  6
CONTINUOUS
 62
    4
 10
-86.833333333333201
 20
70.400000000000006
 11
-86.833333333333201
 21
69
  0
LINE
  8
_1-4_フレ__ム
  6
CONTINUOUS
 62
    4
 10
-86.833333333333201
 20
69
 11
-91.166666666666842
 21
69
  0
LINE
  8
_1-4_フレ__ム
  6
CONTINUOUS
 62
    4
 10
-86.333333333333172
 20
69
 11
-86.333333333333172
 21
69.900000000000034
  0
LINE
  8
_1-4_フレ__ム
  6
CONTINUOUS
 62
    4
 10
-80.099999999999909
 20
69
 11
-86.333333333333172
 21
69
  0
LINE
  8
_1-4_フレ__ム
  6
CONTINUOUS
 62
    4
 10
-75.207106879653509
 20
69
 11
-74.707106879653509
 21
69.499999999999943
  0
LINE
  8
_1-4_フレ__ム
  6
CONTINUOUS
 62
    4
 10
-75.207106879653509
 20
69
 11
-79.899999999999807
 21
69
  0
LINE
  8
_1-4_フレ__ム
  6
DASHED1
 62
    4
 10
-77.500000000000142
 20
69
 11
-77.500000000000142
 21
68.499999999999829
  0
LINE
  8
_1-4_フレ__ム
  6
DASHED1
 62
    4
 10
-82.500000000000142
 20
69
 11
-82.500000000000142
 21
68.499999999999829
  0
LINE
  8
ADD_LINE
  6
DOT
 62
    4
 10
-80
 20
70.666666666666657
 11
-80
 21
66.833333333333314
  0
ENDBLK
  0
BLOCK
  2
-001-_1_
 70
   64
 10
0
 20
0
 30
0
  0
LINE
  8
_1-8_小物
  6
CONTINUOUS
 62
    4
 10
-78.197241666666741
 20
56.573391666666595
 11
-78.162351666667121
 21
55.907638333333267
  0
LINE
  8
_1-8_小物
  6
CONTINUOUS
 62
    4
 10
-78.249578333333659
 20
57.572021666666529
 11
-78.897885000000315
 21
57.204254999999904
  0
LINE
  8
_1-8_小物
  6
CONTINUOUS
 62
    4
 10
-78.897885000000315
 20
57.204254999999904
 11
-78.862995000000097
 21
56.538501666666576
  0
LINE
  8
_1-8_小物
  6
CONTINUOUS
 62
    4
 10
-78.862995000000097
 20
56.538501666666576
 11
-78.197241666666741
 21
56.573391666666595
  0
LINE
  8
_1-8_小物
  6
CONTINUOUS
 62
    4
 10
-78.284468333333564
 20
58.237774999999971
 11
-78.249578333333659
 21
57.572021666666529
  0
LINE
  8
_1-8_小物
  6
CONTINUOUS
 62
    4
 10
-78.336805000000197
 20
59.236403333333357
 11
-78.985111666667137
 21
58.86863666666639
  0
LINE
  8
_1-8_小物
  6
CONTINUOUS
 62
    4
 10
-78.985111666667137
 20
58.86863666666639
 11
-78.950221666666948
 21
58.20288333333329
  0
LINE
  8
_1-8_小物
  6
CONTINUOUS
 62
    4
 10
-78.950221666666948
 20
58.20288333333329
 11
-78.284468333333564
 21
58.237774999999971
  0
LINE
  8
_1-8_小物
  6
CONTINUOUS
 62
    4
 10
-78.371695000000415
 20
59.902156666666684
 11
-78.336805000000197
 21
59.236403333333357
  0
LINE
  8
_1-8_小物
  6
CONTINUOUS
 62
    4
 10
-78.424031666666735
 20
60.900786666666392
 11
-79.072338333333391
 21
60.533019999999993
  0
LINE
  8
_1-8_小物
  6
CONTINUOUS
 62
    4
 10
-79.072338333333391
 20
60.533019999999993
 11
-79.037448333333799
 21
59.867266666666666
  0
LINE
  8
_1-8_小物
  6
CONTINUOUS
 62
    4
 10
-79.037448333333799
 20
59.867266666666666
 11
-78.371695000000415
 21
59.902156666666684
  0
LINE
  8
_1-8_小物
  6
CONTINUOUS
 62
    4
 10
-78.458921666666953
 20
61.566539999999947
 11
-78.424031666666735
 21
60.900786666666392
  0
LINE
  8
_1-8_小物
  6
CONTINUOUS
 62
    4
 10
-78.511258333333586
 20
62.565169999999995
 11
-79.159565000000242
 21
62.197401666666593
  0
LINE
  8
_1-8_小物
  6
CONTINUOUS
 62
    4
 10
-79.159565000000242
 20
62.197401666666593
 11
-79.124675000000309
 21
61.531648333333266
  0
LINE
  8
_1-8_小物
  6
CONTINUOUS
 62
    4
 10
-79.124675000000309
 20
61.531648333333266
 11
-78.458921666666953
 21
61.566539999999947
  0
LINE
  8
_1-8_小物
  6
CONTINUOUS
 62
    4
 10
-78.54614833333352
 20
63.230921666666546
 11
-78.511258333333586
 21
62.565169999999995
  0
LINE
  8
_1-8_小物
  6
CONTINUOUS
 62
    4
 10
-79.246791666667065
 20
63.861784999999855
 11
-79.211901666666847
 21
63.196031666666528
  0
LINE
  8
_1-8_小物
  6
CONTINUOUS
 62
    4
 10
-79.211901666666847
 20
63.196031666666528
 11
-78.54614833333352
 21
63.230921666666546
  0
LINE
  8
_1-8_小物
  6
CONTINUOUS
 62
    4
 10
-78.66666666666697
 20
64.166666666666657
 11
-79.246791666667065
 21
63.861784999999855
  0
LINE
  8
_1-8_小物
  6
CONTINUOUS
 62
    4
 10
-81.802758333333571
 20
56.573391666666595
 11
-81.837648333333448
 21
55.907638333333267
  0
LINE
  8
_1-8_小物
  6
CONTINUOUS
 62
    4
 10
-81.750421666666909
 20
57.572021666666529
 11
-81.102115000000282
 21
57.204254999999904
  0
LINE
  8
_1-8_小物
  6
CONTINUOUS
 62
    4
 10
-81.102115000000282
 20
57.204254999999904
 11
-81.137005000000499
 21
56.538501666666576
  0
LINE
  8
_1-8_小物
  6
CONTINUOUS
 62
    4
 10
-81.137005000000499
 20
56.538501666666576
 11
-81.802758333333571
 21
56.573391666666595
  0
LINE
  8
_1-8_小物
  6
CONTINUOUS
 62
    4
 10
-81.71553166666672
 20
58.237774999999971
 11
-81.750421666666909
 21
57.572021666666529
  0
LINE
  8
_1-8_小物
  6
CONTINUOUS
 62
    4
 10
-81.663195000000371
 20
59.236403333333357
 11
-81.014888333333744
 21
58.86863666666639
  0
LINE
  8
_1-8_小物
  6
CONTINUOUS
 62
    4
 10
-81.014888333333744
 20
58.86863666666639
 11
-81.049778333333336
 21
58.20288333333329
  0
LINE
  8
_1-8_小物
  6
CONTINUOUS
 62
    4
 10
-81.049778333333336
 20
58.20288333333329
 11
-81.71553166666672
 21
58.237774999999971
  0
LINE
  8
_1-8_小物
  6
CONTINUOUS
 62
    4
 10
-81.628305000000466
 20
59.902156666666684
 11
-81.663195000000371
 21
59.236403333333357
  0
LINE
  8
_1-8_小物
  6
CONTINUOUS
 62
    4
 10
-81.575968333333833
 20
60.900786666666392
 11
-80.927661666666893
 21
60.533019999999993
  0
LINE
  8
_1-8_小物
  6
CONTINUOUS
 62
    4
 10
-80.927661666666893
 20
60.533019999999993
 11
-80.962551666666826
 21
59.867266666666666
  0
LINE
  8
_1-8_小物
  6
CONTINUOUS
 62
    4
 10
-80.962551666666826
 20
59.867266666666666
 11
-81.628305000000466
 21
59.902156666666684
  0
LINE
  8
_1-8_小物
  6
CONTINUOUS
 62
    4
 10
-81.541078333333644
 20
61.566539999999947
 11
-81.575968333333833
 21
60.900786666666392
  0
LINE
  8
_1-8_小物
  6
CONTINUOUS
 62
    4
 10
-81.488741666666698
 20
62.565169999999995
 11
-80.84043500000007
 21
62.197401666666593
  0
LINE
  8
_1-8_小物
  6
CONTINUOUS
 62
    4
 10
-80.84043500000007
 20
62.197401666666593
 11
-80.875325000000259
 21
61.531648333333266
  0
LINE
  8
_1-8_小物
  6
CONTINUOUS
 62
    4
 10
-80.875325000000259
 20
61.531648333333266
 11
-81.541078333333644
 21
61.566539999999947
  0
LINE
  8
_1-8_小物
  6
CONTINUOUS
 62
    4
 10
-81.453851666667106
 20
63.230921666666546
 11
-81.488741666666698
 21
62.565169999999995
  0
LINE
  8
_1-8_小物
  6
CONTINUOUS
 62
    4
 10
-80.753208333333532
 20
63.861784999999855
 11
-80.788098333333721
 21
63.196031666666528
  0
LINE
  8
_1-8_小物
  6
CONTINUOUS
 62
    4
 10
-80.788098333333721
 20
63.196031666666528
 11
-81.453851666667106
 21
63.230921666666546
  0
LINE
  8
_1-8_小物
  6
CONTINUOUS
 62
    4
 10
-80.019768333333559
 20
56.186434999999875
 11
-79.375201666667039
 21
56.758324999999928
  0
LINE
  8
_1-8_小物
  6
CONTINUOUS
 62
    4
 10
-80.623148333333717
 20
56.789813333333342
 11
-80
 21
56.166666666666544
  0
LINE
  8
_1-8_小物
  6
CONTINUOUS
 62
    4
 10
-81.333333333333314
 20
64.166666666666657
 11
-80.753208333333532
 21
63.861784999999855
  0
LINE
  8
_1-8_小物
  6
CONTINUOUS
 62
    4
 10
-78.458921666666953
 20
61.566539999999947
 11
-77.893800000000454
 21
63.119199999999779
  0
LINE
  8
_1-8_小物
  6
CONTINUOUS
 62
    4
 10
-78.813648333333447
 20
61.566539999999947
 11
-78.207030000000174
 21
63.233206666666575
  0
LINE
  8
_1-8_小物
  6
CONTINUOUS
 62
    4
 10
-81.541078333333644
 20
61.566539999999947
 11
-82.106200000000172
 21
63.119199999999779
  0
LINE
  8
_1-8_小物
  6
CONTINUOUS
 62
    4
 10
-81.186351666667179
 20
61.566539999999947
 11
-81.792970000000423
 21
63.233206666666575
  0
LINE
  8
_1-8_小物
  6
CONTINUOUS
 62
    4
 10
-79.327418333333583
 20
55.846579999999818
 11
-78.162351666667121
 21
55.907638333333267
  0
LINE
  8
_1-8_小物
  6
CONTINUOUS
 62
    4
 10
-78.162351666667121
 20
55.907638333333267
 11
-78.793213333333682
 21
55.206995000000035
  0
LINE
  8
_1-8_小物
  6
CONTINUOUS
 62
    4
 10
-78.793213333333682
 20
55.206995000000035
 11
-79.292528333333394
 21
55.180826666666491
  0
LINE
  8
_1-8_小物
  6
CONTINUOUS
 62
    4
 10
-79.292528333333394
 20
55.180826666666491
 11
-79.833333333333314
 21
65.499999999999801
  0
LINE
  8
_1-8_小物
  6
CONTINUOUS
 62
    4
 10
-78.66666666666697
 20
64.166666666666657
 11
-78.66666666666697
 21
65.499999999999801
  0
LINE
  8
_1-8_小物
  6
CONTINUOUS
 62
    4
 10
-80.672581666666986
 20
55.846579999999818
 11
-81.837648333333448
 21
55.907638333333267
  0
LINE
  8
_1-8_小物
  6
CONTINUOUS
 62
    4
 10
-81.837648333333448
 20
55.907638333333267
 11
-81.206786666666943
 21
55.206995000000035
  0
LINE
  8
_1-8_小物
  6
CONTINUOUS
 62
    4
 10
-81.206786666666943
 20
55.206995000000035
 11
-80.707471666666891
 21
55.180826666666491
  0
LINE
  8
_1-8_小物
  6
CONTINUOUS
 62
    4
 10
-80.707471666666891
 20
55.180826666666491
 11
-80.16666666666697
 21
65.499999999999801
  0
LINE
  8
_1-8_小物
  6
CONTINUOUS
 62
    4
 10
-81.333333333333314
 20
64.166666666666657
 11
-81.333333333333314
 21
65.499999999999801
  0
LINE
  8
_1-8_小物
  6
CONTINUOUS
 62
    4
 10
-82.106200000000172
 20
63.119199999999779
 11
-82.436985000000277
 21
65.387073333333461
  0
ARC
  8
_1-8_小物
  6
CONTINUOUS
 62
    4
 10
-82.305048333333616
 20
65.406318333333303
 40
0.1333333333333333
 50
98.130101999959862
 51
188.29846600002313
  0
LINE
  8
_1-8_小物
  6
CONTINUOUS
 62
    4
 10
-82.32390500000048
 20
65.538311666666601
 11
-82.258296666666865
 21
65.547683333333367
  0
ARC
  8
_1-8_小物
  6
CONTINUOUS
 62
    4
 10
-82.239439999999973
 20
65.415689999999955
 40
0.1333333333333333
 50
8.130102000040166
 51
98.13010200022066
  0
LINE
  8
_1-8_小物
  6
CONTINUOUS
 62
    4
 10
-82.107446666666874
 20
65.434546666666535
 11
-81.792970000000423
 21
63.233206666666575
  0
LINE
  8
_1-8_小物
  6
CONTINUOUS
 62
    4
 10
-77.893800000000454
 20
63.119199999999779
 11
-77.56301500000032
 21
65.387073333333461
  0
ARC
  8
_1-8_小物
  6
CONTINUOUS
 62
    4
 10
-77.694951666666981
 20
65.406318333333303
 40
0.1333333333333333
 50
351.70153399996479
 51
81.869898000046192
  0
LINE
  8
_1-8_小物
  6
CONTINUOUS
 62
    4
 10
-77.676096666667036
 20
65.538311666666601
 11
-77.741703333333732
 21
65.547683333333367
  0
ARC
  8
_1-8_小物
  6
CONTINUOUS
 62
    4
 10
-77.760559999999998
 20
65.415689999999955
 40
0.1333333333333333
 50
81.869898000046192
 51
171.86989799999611
  0
LINE
  8
_1-8_小物
  6
CONTINUOUS
 62
    4
 10
-77.892553333333723
 20
65.434546666666535
 11
-78.207030000000174
 21
63.233206666666575
  0
LINE
  8
_1-8_小物
  6
CONTINUOUS
 62
    4
 10
-77.893800000000454
 20
63.119199999999779
 11
-77.56301500000032
 21
65.387073333333461
  0
ARC
  8
_1-8_小物
  6
CONTINUOUS
 62
    4
 10
-77.694951666666981
 20
65.406318333333303
 40
0.1333333333333333
 50
351.70153399996479
 51
81.869898000046192
  0
LINE
  8
_1-8_小物
  6
CONTINUOUS
 62
    4
 10
-77.676096666667036
 20
65.538311666666601
 11
-77.741703333333732
 21
65.547683333333367
  0
ARC
  8
_1-8_小物
  6
CONTINUOUS
 62
    4
 10
-77.760559999999998
 20
65.415689999999955
 40
0.1333333333333333
 50
81.869898000046192
 51
171.86989799999611
  0
LINE
  8
_1-8_小物
  6
CONTINUOUS
 62
    4
 10
-77.892553333333723
 20
65.434546666666535
 11
-78.207030000000174
 21
63.233206666666575
  0
LINE
  8
_1-8_小物
  6
CONTINUOUS
 62
    4
 10
-78.333333333333314
 20
68.166666666666657
 11
-78.66666666666697
 21
66.500000000000028
  0
LINE
  8
_1-8_小物
  6
CONTINUOUS
 62
    4
 10
-78.66666666666697
 20
68.166666666666657
 11
-78.66666666666697
 21
65.499999999999801
  0
LINE
  8
_1-8_小物
  6
CONTINUOUS
 62
    4
 10
-79.833333333333314
 20
65.499999999999801
 11
-80
 21
65.499999999999801
  0
LINE
  8
_1-8_小物
  6
CONTINUOUS
 62
    4
 10
-80
 20
66.500000000000028
 11
-80
 21
68.166666666666657
  0
LINE
  8
_1-8_小物
  6
CONTINUOUS
 62
    4
 10
-79.66666666666697
 20
68.166666666666657
 11
-80
 21
66.500000000000028
  0
LINE
  8
_1-8_小物
  6
CONTINUOUS
 62
    4
 10
-80.333333333333627
 20
68.166666666666657
 11
-80
 21
66.500000000000028
  0
LINE
  8
_1-8_小物
  6
CONTINUOUS
 62
    4
 10
-81.666666666666657
 20
68.166666666666657
 11
-81.333333333333314
 21
66.500000000000028
  0
LINE
  8
_1-8_小物
  6
CONTINUOUS
 62
    4
 10
-81.333333333333314
 20
68.166666666666657
 11
-81.333333333333314
 21
65.499999999999801
  0
LINE
  8
_1-8_小物
  6
CONTINUOUS
 62
    4
 10
-80.16666666666697
 20
65.499999999999801
 11
-80
 21
65.499999999999801
  0
LINE
  8
_1-8_小物
  6
CONTINUOUS
 62
    4
 10
-78.333333333333314
 20
68.166666666666657
 11
-81.666666666666657
 21
68.166666666666657
  0
ENDBLK
  0
BLOCK
  2
-002-_2_
 70
   64
 10
0
 20
0
 30
0
  0
LINE
  8
_1-8_小物
  6
CONTINUOUS
 62
    4
 10
-118.19724166666674
 20
56.573391666666595
 11
-118.16235166666712
 21
55.907638333333267
  0
LINE
  8
_1-8_小物
  6
CONTINUOUS
 62
    4
 10
-118.24957833333366
 20
57.572021666666529
 11
-118.89788500000031
 21
57.204254999999904
  0
LINE
  8
_1-8_小物
  6
CONTINUOUS
 62
    4
 10
-118.89788500000031
 20
57.204254999999904
 11
-118.8629950000001
 21
56.538501666666576
  0
LINE
  8
_1-8_小物
  6
CONTINUOUS
 62
    4
 10
-118.8629950000001
 20
56.538501666666576
 11
-118.19724166666674
 21
56.573391666666595
  0
LINE
  8
_1-8_小物
  6
CONTINUOUS
 62
    4
 10
-118.28446833333356
 20
58.237774999999971
 11
-118.24957833333366
 21
57.572021666666529
  0
LINE
  8
_1-8_小物
  6
CONTINUOUS
 62
    4
 10
-118.3368050000002
 20
59.236403333333357
 11
-118.98511166666714
 21
58.86863666666639
  0
LINE
  8
_1-8_小物
  6
CONTINUOUS
 62
    4
 10
-118.98511166666714
 20
58.86863666666639
 11
-118.95022166666695
 21
58.20288333333329
  0
LINE
  8
_1-8_小物
  6
CONTINUOUS
 62
    4
 10
-118.95022166666695
 20
58.20288333333329
 11
-118.28446833333356
 21
58.237774999999971
  0
LINE
  8
_1-8_小物
  6
CONTINUOUS
 62
    4
 10
-118.37169500000041
 20
59.902156666666684
 11
-118.3368050000002
 21
59.236403333333357
  0
LINE
  8
_1-8_小物
  6
CONTINUOUS
 62
    4
 10
-118.42403166666674
 20
60.900786666666392
 11
-119.07233833333339
 21
60.533019999999993
  0
LINE
  8
_1-8_小物
  6
CONTINUOUS
 62
    4
 10
-119.07233833333339
 20
60.533019999999993
 11
-119.0374483333338
 21
59.867266666666666
  0
LINE
  8
_1-8_小物
  6
CONTINUOUS
 62
    4
 10
-119.0374483333338
 20
59.867266666666666
 11
-118.37169500000041
 21
59.902156666666684
  0
LINE
  8
_1-8_小物
  6
CONTINUOUS
 62
    4
 10
-118.45892166666695
 20
61.566539999999947
 11
-118.42403166666674
 21
60.900786666666392
  0
LINE
  8
_1-8_小物
  6
CONTINUOUS
 62
    4
 10
-118.51125833333359
 20
62.565169999999995
 11
-119.15956500000024
 21
62.197401666666593
  0
LINE
  8
_1-8_小物
  6
CONTINUOUS
 62
    4
 10
-119.15956500000024
 20
62.197401666666593
 11
-119.12467500000031
 21
61.531648333333266
  0
LINE
  8
_1-8_小物
  6
CONTINUOUS
 62
    4
 10
-119.12467500000031
 20
61.531648333333266
 11
-118.45892166666695
 21
61.566539999999947
  0
LINE
  8
_1-8_小物
  6
CONTINUOUS
 62
    4
 10
-118.54614833333352
 20
63.230921666666546
 11
-118.51125833333359
 21
62.565169999999995
  0
LINE
  8
_1-8_小物
  6
CONTINUOUS
 62
    4
 10
-119.24679166666706
 20
63.861784999999855
 11
-119.21190166666685
 21
63.196031666666528
  0
LINE
  8
_1-8_小物
  6
CONTINUOUS
 62
    4
 10
-119.21190166666685
 20
63.196031666666528
 11
-118.54614833333352
 21
63.230921666666546
  0
LINE
  8
_1-8_小物
  6
CONTINUOUS
 62
    4
 10
-118.66666666666697
 20
64.166666666666657
 11
-119.24679166666706
 21
63.861784999999855
  0
LINE
  8
_1-8_小物
  6
CONTINUOUS
 62
    4
 10
-121.80275833333357
 20
56.573391666666595
 11
-121.83764833333345
 21
55.907638333333267
  0
LINE
  8
_1-8_小物
  6
CONTINUOUS
 62
    4
 10
-121.75042166666691
 20
57.572021666666529
 11
-121.10211500000028
 21
57.204254999999904
  0
LINE
  8
_1-8_小物
  6
CONTINUOUS
 62
    4
 10
-121.10211500000028
 20
57.204254999999904
 11
-121.1370050000005
 21
56.538501666666576
  0
LINE
  8
_1-8_小物
  6
CONTINUOUS
 62
    4
 10
-121.1370050000005
 20
56.538501666666576
 11
-121.80275833333357
 21
56.573391666666595
  0
LINE
  8
_1-8_小物
  6
CONTINUOUS
 62
    4
 10
-121.71553166666672
 20
58.237774999999971
 11
-121.75042166666691
 21
57.572021666666529
  0
LINE
  8
_1-8_小物
  6
CONTINUOUS
 62
    4
 10
-121.66319500000037
 20
59.236403333333357
 11
-121.01488833333374
 21
58.86863666666639
  0
LINE
  8
_1-8_小物
  6
CONTINUOUS
 62
    4
 10
-121.01488833333374
 20
58.86863666666639
 11
-121.04977833333334
 21
58.20288333333329
  0
LINE
  8
_1-8_小物
  6
CONTINUOUS
 62
    4
 10
-121.04977833333334
 20
58.20288333333329
 11
-121.71553166666672
 21
58.237774999999971
  0
LINE
  8
_1-8_小物
  6
CONTINUOUS
 62
    4
 10
-121.62830500000047
 20
59.902156666666684
 11
-121.66319500000037
 21
59.236403333333357
  0
LINE
  8
_1-8_小物
  6
CONTINUOUS
 62
    4
 10
-121.57596833333383
 20
60.900786666666392
 11
-120.92766166666689
 21
60.533019999999993
  0
LINE
  8
_1-8_小物
  6
CONTINUOUS
 62
    4
 10
-120.92766166666689
 20
60.533019999999993
 11
-120.96255166666683
 21
59.867266666666666
  0
LINE
  8
_1-8_小物
  6
CONTINUOUS
 62
    4
 10
-120.96255166666683
 20
59.867266666666666
 11
-121.62830500000047
 21
59.902156666666684
  0
LINE
  8
_1-8_小物
  6
CONTINUOUS
 62
    4
 10
-121.54107833333364
 20
61.566539999999947
 11
-121.57596833333383
 21
60.900786666666392
  0
LINE
  8
_1-8_小物
  6
CONTINUOUS
 62
    4
 10
-121.4887416666667
 20
62.565169999999995
 11
-120.84043500000007
 21
62.197401666666593
  0
LINE
  8
_1-8_小物
  6
CONTINUOUS
 62
    4
 10
-120.84043500000007
 20
62.197401666666593
 11
-120.87532500000026
 21
61.531648333333266
  0
LINE
  8
_1-8_小物
  6
CONTINUOUS
 62
    4
 10
-120.87532500000026
 20
61.531648333333266
 11
-121.54107833333364
 21
61.566539999999947
  0
LINE
  8
_1-8_小物
  6
CONTINUOUS
 62
    4
 10
-121.45385166666711
 20
63.230921666666546
 11
-121.4887416666667
 21
62.565169999999995
  0
LINE
  8
_1-8_小物
  6
CONTINUOUS
 62
    4
 10
-120.75320833333353
 20
63.861784999999855
 11
-120.78809833333372
 21
63.196031666666528
  0
LINE
  8
_1-8_小物
  6
CONTINUOUS
 62
    4
 10
-120.78809833333372
 20
63.196031666666528
 11
-121.45385166666711
 21
63.230921666666546
  0
LINE
  8
_1-8_小物
  6
CONTINUOUS
 62
    4
 10
-120.01976833333356
 20
56.186434999999875
 11
-119.37520166666704
 21
56.758324999999928
  0
LINE
  8
_1-8_小物
  6
CONTINUOUS
 62
    4
 10
-120.62314833333372
 20
56.789813333333342
 11
-120
 21
56.166666666666544
  0
LINE
  8
_1-8_小物
  6
CONTINUOUS
 62
    4
 10
-121.33333333333331
 20
64.166666666666657
 11
-120.75320833333353
 21
63.861784999999855
  0
LINE
  8
_1-8_小物
  6
CONTINUOUS
 62
    4
 10
-118.45892166666695
 20
61.566539999999947
 11
-117.89380000000045
 21
63.119199999999779
  0
LINE
  8
_1-8_小物
  6
CONTINUOUS
 62
    4
 10
-118.81364833333345
 20
61.566539999999947
 11
-118.20703000000017
 21
63.233206666666575
  0
LINE
  8
_1-8_小物
  6
CONTINUOUS
 62
    4
 10
-121.54107833333364
 20
61.566539999999947
 11
-122.10620000000017
 21
63.119199999999779
  0
LINE
  8
_1-8_小物
  6
CONTINUOUS
 62
    4
 10
-121.18635166666718
 20
61.566539999999947
 11
-121.79297000000042
 21
63.233206666666575
  0
LINE
  8
_1-8_小物
  6
CONTINUOUS
 62
    4
 10
-119.32741833333358
 20
55.846579999999818
 11
-118.16235166666712
 21
55.907638333333267
  0
LINE
  8
_1-8_小物
  6
CONTINUOUS
 62
    4
 10
-118.16235166666712
 20
55.907638333333267
 11
-118.79321333333368
 21
55.206995000000035
  0
LINE
  8
_1-8_小物
  6
CONTINUOUS
 62
    4
 10
-118.79321333333368
 20
55.206995000000035
 11
-119.29252833333339
 21
55.180826666666491
  0
LINE
  8
_1-8_小物
  6
CONTINUOUS
 62
    4
 10
-119.29252833333339
 20
55.180826666666491
 11
-119.83333333333331
 21
65.499999999999801
  0
LINE
  8
_1-8_小物
  6
CONTINUOUS
 62
    4
 10
-118.66666666666697
 20
64.166666666666657
 11
-118.66666666666697
 21
65.499999999999801
  0
LINE
  8
_1-8_小物
  6
CONTINUOUS
 62
    4
 10
-120.67258166666699
 20
55.846579999999818
 11
-121.83764833333345
 21
55.907638333333267
  0
LINE
  8
_1-8_小物
  6
CONTINUOUS
 62
    4
 10
-121.83764833333345
 20
55.907638333333267
 11
-121.20678666666694
 21
55.206995000000035
  0
LINE
  8
_1-8_小物
  6
CONTINUOUS
 62
    4
 10
-121.20678666666694
 20
55.206995000000035
 11
-120.70747166666689
 21
55.180826666666491
  0
LINE
  8
_1-8_小物
  6
CONTINUOUS
 62
    4
 10
-120.70747166666689
 20
55.180826666666491
 11
-120.16666666666697
 21
65.499999999999801
  0
LINE
  8
_1-8_小物
  6
CONTINUOUS
 62
    4
 10
-121.33333333333331
 20
64.166666666666657
 11
-121.33333333333331
 21
65.499999999999801
  0
LINE
  8
_1-8_小物
  6
CONTINUOUS
 62
    4
 10
-122.10620000000017
 20
63.119199999999779
 11
-122.43698500000028
 21
65.387073333333461
  0
ARC
  8
_1-8_小物
  6
CONTINUOUS
 62
    4
 10
-122.30504833333362
 20
65.406318333333303
 40
0.1333333333333333
 50
98.130101999959862
 51
188.29846600002313
  0
LINE
  8
_1-8_小物
  6
CONTINUOUS
 62
    4
 10
-122.32390500000048
 20
65.538311666666601
 11
-122.25829666666687
 21
65.547683333333367
  0
ARC
  8
_1-8_小物
  6
CONTINUOUS
 62
    4
 10
-122.23943999999997
 20
65.415689999999955
 40
0.1333333333333333
 50
8.130102000040166
 51
98.13010200022066
  0
LINE
  8
_1-8_小物
  6
CONTINUOUS
 62
    4
 10
-122.10744666666687
 20
65.434546666666535
 11
-121.79297000000042
 21
63.233206666666575
  0
LINE
  8
_1-8_小物
  6
CONTINUOUS
 62
    4
 10
-117.89380000000045
 20
63.119199999999779
 11
-117.56301500000032
 21
65.387073333333461
  0
ARC
  8
_1-8_小物
  6
CONTINUOUS
 62
    4
 10
-117.69495166666698
 20
65.406318333333303
 40
0.1333333333333333
 50
351.70153399996479
 51
81.869898000040166
  0
LINE
  8
_1-8_小物
  6
CONTINUOUS
 62
    4
 10
-117.67609666666704
 20
65.538311666666601
 11
-117.74170333333373
 21
65.547683333333367
  0
ARC
  8
_1-8_小物
  6
CONTINUOUS
 62
    4
 10
-117.76056
 20
65.415689999999955
 40
0.1333333333333333
 50
81.869898000046192
 51
171.86989799999611
  0
LINE
  8
_1-8_小物
  6
CONTINUOUS
 62
    4
 10
-117.89255333333372
 20
65.434546666666535
 11
-118.20703000000017
 21
63.233206666666575
  0
LINE
  8
_1-8_小物
  6
CONTINUOUS
 62
    4
 10
-117.89380000000045
 20
63.119199999999779
 11
-117.56301500000032
 21
65.387073333333461
  0
ARC
  8
_1-8_小物
  6
CONTINUOUS
 62
    4
 10
-117.69495166666698
 20
65.406318333333303
 40
0.1333333333333333
 50
351.70153399996479
 51
81.869898000040166
  0
LINE
  8
_1-8_小物
  6
CONTINUOUS
 62
    4
 10
-117.67609666666704
 20
65.538311666666601
 11
-117.74170333333373
 21
65.547683333333367
  0
ARC
  8
_1-8_小物
  6
CONTINUOUS
 62
    4
 10
-117.76056
 20
65.415689999999955
 40
0.1333333333333333
 50
81.869898000046192
 51
171.86989799999611
  0
LINE
  8
_1-8_小物
  6
CONTINUOUS
 62
    4
 10
-117.89255333333372
 20
65.434546666666535
 11
-118.20703000000017
 21
63.233206666666575
  0
LINE
  8
_1-8_小物
  6
CONTINUOUS
 62
    4
 10
-118.33333333333331
 20
68.166666666666657
 11
-118.66666666666697
 21
66.500000000000028
  0
LINE
  8
_1-8_小物
  6
CONTINUOUS
 62
    4
 10
-118.66666666666697
 20
68.166666666666657
 11
-118.66666666666697
 21
65.499999999999801
  0
LINE
  8
_1-8_小物
  6
CONTINUOUS
 62
    4
 10
-119.83333333333331
 20
65.499999999999801
 11
-120
 21
65.499999999999801
  0
LINE
  8
_1-8_小物
  6
CONTINUOUS
 62
    4
 10
-120
 20
66.500000000000028
 11
-120
 21
68.166666666666657
  0
LINE
  8
_1-8_小物
  6
CONTINUOUS
 62
    4
 10
-119.66666666666697
 20
68.166666666666657
 11
-120
 21
66.500000000000028
  0
LINE
  8
_1-8_小物
  6
CONTINUOUS
 62
    4
 10
-120.33333333333363
 20
68.166666666666657
 11
-120
 21
66.500000000000028
  0
LINE
  8
_1-8_小物
  6
CONTINUOUS
 62
    4
 10
-121.66666666666666
 20
68.166666666666657
 11
-121.33333333333331
 21
66.500000000000028
  0
LINE
  8
_1-8_小物
  6
CONTINUOUS
 62
    4
 10
-121.33333333333331
 20
68.166666666666657
 11
-121.33333333333331
 21
65.499999999999801
  0
LINE
  8
_1-8_小物
  6
CONTINUOUS
 62
    4
 10
-120.16666666666697
 20
65.499999999999801
 11
-120
 21
65.499999999999801
  0
LINE
  8
_1-8_小物
  6
CONTINUOUS
 62
    4
 10
-118.33333333333331
 20
68.166666666666657
 11
-121.66666666666666
 21
68.166666666666657
  0
ENDBLK
  0
BLOCK
  2
-003-_3_
 70
   64
 10
0
 20
0
 30
0
  0
LINE
  8
_1-4_フレ__ム
  6
CONTINUOUS
 62
    4
 10
124.99999992053301
 20
68.500000019000026
 11
125.99999990153299
 21
69.499999999999943
  0
LINE
  8
_1-4_フレ__ム
  6
CONTINUOUS
 62
    4
 10
125.99999990153299
 20
69.499999999999943
 11
125.29289312034649
 21
69.499999999999943
  0
ARC
  8
_1-4_フレ__ム
  6
CONTINUOUS
 62
    4
 10
108.83333333333314
 20
68.5
 40
0.5
 50
90
 51
180
  0
LINE
  8
_1-4_フレ__ム
  6
CONTINUOUS
 62
    4
 10
119.99999999999983
 20
68.900000000000091
 11
119.90000000000009
 21
69
  0
LINE
  8
_1-4_フレ__ム
  6
CONTINUOUS
 62
    4
 10
120.10000000000019
 20
69
 11
119.99999999999983
 21
68.900000000000091
  0
LINE
  8
_1-4_フレ__ム
  6
CONTINUOUS
 62
    4
 10
108.33333333333314
 20
68.5
 11
124.99999999999983
 21
68.5
  0
ARC
  8
_1-4_フレ__ム
  6
CONTINUOUS
 62
    4
 10
113.43333333333351
 20
70.400000000000006
 40
0.2666666666666667
 50
90
 51
180
  0
LINE
  8
_1-4_フレ__ム
  6
CONTINUOUS
 62
    4
 10
114.90000000000009
 20
70.666666666666686
 11
113.43333333333351
 21
70.666666666666686
  0
ARC
  8
_1-4_フレ__ム
  6
CONTINUOUS
 62
    4
 10
114.90000000000009
 20
70.400000000000006
 40
0.2666666666666667
 50
0
 51
90
  0
LINE
  8
_1-4_フレ__ム
  6
CONTINUOUS
 62
    4
 10
115.16666666666652
 20
70.166666666666657
 11
115.16666666666652
 21
70.400000000000006
  0
LINE
  8
_1-4_フレ__ム
  6
CONTINUOUS
 62
    4
 10
113.93333333333322
 20
70.166666666666657
 11
115.16666666666652
 21
70.166666666666657
  0
ARC
  8
_1-4_フレ__ム
  6
CONTINUOUS
 62
    4
 10
113.93333333333322
 20
69.900000000000034
 40
0.2666666666666667
 50
90
 51
180
  0
LINE
  8
_1-4_フレ__ム
  6
CONTINUOUS
 62
    4
 10
113.1666666666668
 20
70.400000000000006
 11
113.1666666666668
 21
69
  0
LINE
  8
_1-4_フレ__ム
  6
CONTINUOUS
 62
    4
 10
113.1666666666668
 20
69
 11
108.83333333333314
 21
69
  0
LINE
  8
_1-4_フレ__ム
  6
CONTINUOUS
 62
    4
 10
113.6666666666668
 20
69
 11
113.6666666666668
 21
69.900000000000034
  0
LINE
  8
_1-4_フレ__ム
  6
CONTINUOUS
 62
    4
 10
119.90000000000009
 20
69
 11
113.6666666666668
 21
69
  0
LINE
  8
_1-4_フレ__ム
  6
CONTINUOUS
 62
    4
 10
124.79289312034649
 20
69
 11
125.29289312034649
 21
69.499999999999943
  0
LINE
  8
_1-4_フレ__ム
  6
CONTINUOUS
 62
    4
 10
124.79289312034649
 20
69
 11
120.10000000000019
 21
69
  0
LINE
  8
_1-4_フレ__ム
  6
DASHED1
 62
    4
 10
122.49999999999983
 20
69
 11
122.49999999999983
 21
68.499999999999829
  0
LINE
  8
_1-4_フレ__ム
  6
DASHED1
 62
    4
 10
117.49999999999983
 20
69
 11
117.49999999999983
 21
68.499999999999829
  0
LINE
  8
ADD_LINE
  6
DOT
 62
    4
 10
120
 20
70.666666666666657
 11
120
 21
66.833333333333314
  0
ENDBLK
  0
BLOCK
  2
-004-_4_
 70
   64
 10
0
 20
0
 30
0
  0
LINE
  8
_1-8_小物
  6
CONTINUOUS
 62
    4
 10
121.80275833333326
 20
56.573391666666595
 11
121.83764833333282
 21
55.907638333333267
  0
LINE
  8
_1-8_小物
  6
CONTINUOUS
 62
    4
 10
121.75042166666628
 20
57.572021666666529
 11
121.10211499999969
 21
57.204254999999904
  0
LINE
  8
_1-8_小物
  6
CONTINUOUS
 62
    4
 10
121.10211499999969
 20
57.204254999999904
 11
121.13700499999987
 21
56.538501666666576
  0
LINE
  8
_1-8_小物
  6
CONTINUOUS
 62
    4
 10
121.13700499999987
 20
56.538501666666576
 11
121.80275833333326
 21
56.573391666666595
  0
LINE
  8
_1-8_小物
  6
CONTINUOUS
 62
    4
 10
121.71553166666638
 20
58.237774999999971
 11
121.75042166666628
 21
57.572021666666529
  0
LINE
  8
_1-8_小物
  6
CONTINUOUS
 62
    4
 10
121.66319499999975
 20
59.236403333333357
 11
121.01488833333281
 21
58.86863666666639
  0
LINE
  8
_1-8_小物
  6
CONTINUOUS
 62
    4
 10
121.01488833333281
 20
58.86863666666639
 11
121.04977833333305
 21
58.20288333333329
  0
LINE
  8
_1-8_小物
  6
CONTINUOUS
 62
    4
 10
121.04977833333305
 20
58.20288333333329
 11
121.71553166666638
 21
58.237774999999971
  0
LINE
  8
_1-8_小物
  6
CONTINUOUS
 62
    4
 10
121.62830499999956
 20
59.902156666666684
 11
121.66319499999975
 21
59.236403333333357
  0
LINE
  8
_1-8_小物
  6
CONTINUOUS
 62
    4
 10
121.57596833333321
 20
60.900786666666392
 11
120.92766166666661
 21
60.533019999999993
  0
LINE
  8
_1-8_小物
  6
CONTINUOUS
 62
    4
 10
120.92766166666661
 20
60.533019999999993
 11
120.96255166666617
 21
59.867266666666666
  0
LINE
  8
_1-8_小物
  6
CONTINUOUS
 62
    4
 10
120.96255166666617
 20
59.867266666666666
 11
121.62830499999956
 21
59.902156666666684
  0
LINE
  8
_1-8_小物
  6
CONTINUOUS
 62
    4
 10
121.54107833333302
 20
61.566539999999947
 11
121.57596833333321
 21
60.900786666666392
  0
LINE
  8
_1-8_小物
  6
CONTINUOUS
 62
    4
 10
121.48874166666639
 20
62.565169999999995
 11
120.84043499999973
 21
62.197401666666593
  0
LINE
  8
_1-8_小物
  6
CONTINUOUS
 62
    4
 10
120.84043499999973
 20
62.197401666666593
 11
120.87532499999963
 21
61.531648333333266
  0
LINE
  8
_1-8_小物
  6
CONTINUOUS
 62
    4
 10
120.87532499999963
 20
61.531648333333266
 11
121.54107833333302
 21
61.566539999999947
  0
LINE
  8
_1-8_小物
  6
CONTINUOUS
 62
    4
 10
121.45385166666648
 20
63.230921666666546
 11
121.48874166666639
 21
62.565169999999995
  0
LINE
  8
_1-8_小物
  6
CONTINUOUS
 62
    4
 10
120.75320833333291
 20
63.861784999999855
 11
120.7880983333331
 21
63.196031666666528
  0
LINE
  8
_1-8_小物
  6
CONTINUOUS
 62
    4
 10
120.7880983333331
 20
63.196031666666528
 11
121.45385166666648
 21
63.230921666666546
  0
LINE
  8
_1-8_小物
  6
CONTINUOUS
 62
    4
 10
121.33333333333303
 20
64.166666666666657
 11
120.75320833333291
 21
63.861784999999855
  0
LINE
  8
_1-8_小物
  6
CONTINUOUS
 62
    4
 10
118.1972416666664
 20
56.573391666666595
 11
118.1623516666665
 21
55.907638333333267
  0
LINE
  8
_1-8_小物
  6
CONTINUOUS
 62
    4
 10
118.24957833333303
 20
57.572021666666529
 11
118.89788499999969
 21
57.204254999999904
  0
LINE
  8
_1-8_小物
  6
CONTINUOUS
 62
    4
 10
118.89788499999969
 20
57.204254999999904
 11
118.8629949999995
 21
56.538501666666576
  0
LINE
  8
_1-8_小物
  6
CONTINUOUS
 62
    4
 10
118.8629949999995
 20
56.538501666666576
 11
118.1972416666664
 21
56.573391666666595
  0
LINE
  8
_1-8_小物
  6
CONTINUOUS
 62
    4
 10
118.28446833333328
 20
58.237774999999971
 11
118.24957833333303
 21
57.572021666666529
  0
LINE
  8
_1-8_小物
  6
CONTINUOUS
 62
    4
 10
118.33680499999957
 20
59.236403333333357
 11
118.98511166666623
 21
58.86863666666639
  0
LINE
  8
_1-8_小物
  6
CONTINUOUS
 62
    4
 10
118.98511166666623
 20
58.86863666666639
 11
118.95022166666661
 21
58.20288333333329
  0
LINE
  8
_1-8_小物
  6
CONTINUOUS
 62
    4
 10
118.95022166666661
 20
58.20288333333329
 11
118.28446833333328
 21
58.237774999999971
  0
LINE
  8
_1-8_小物
  6
CONTINUOUS
 62
    4
 10
118.37169499999948
 20
59.902156666666684
 11
118.33680499999957
 21
59.236403333333357
  0
LINE
  8
_1-8_小物
  6
CONTINUOUS
 62
    4
 10
118.42403166666611
 20
60.900786666666392
 11
119.07233833333305
 21
60.533019999999993
  0
LINE
  8
_1-8_小物
  6
CONTINUOUS
 62
    4
 10
119.07233833333305
 20
60.533019999999993
 11
119.03744833333315
 21
59.867266666666666
  0
LINE
  8
_1-8_小物
  6
CONTINUOUS
 62
    4
 10
119.03744833333315
 20
59.867266666666666
 11
118.37169499999948
 21
59.902156666666684
  0
LINE
  8
_1-8_小物
  6
CONTINUOUS
 62
    4
 10
118.45892166666636
 20
61.566539999999947
 11
118.42403166666611
 21
60.900786666666392
  0
LINE
  8
_1-8_小物
  6
CONTINUOUS
 62
    4
 10
118.51125833333327
 20
62.565169999999995
 11
119.15956499999993
 21
62.197401666666593
  0
LINE
  8
_1-8_小物
  6
CONTINUOUS
 62
    4
 10
119.15956499999993
 20
62.197401666666593
 11
119.12467499999968
 21
61.531648333333266
  0
LINE
  8
_1-8_小物
  6
CONTINUOUS
 62
    4
 10
119.12467499999968
 20
61.531648333333266
 11
118.45892166666636
 21
61.566539999999947
  0
LINE
  8
_1-8_小物
  6
CONTINUOUS
 62
    4
 10
118.54614833333289
 20
63.230921666666546
 11
118.51125833333327
 21
62.565169999999995
  0
LINE
  8
_1-8_小物
  6
CONTINUOUS
 62
    4
 10
119.24679166666647
 20
63.861784999999855
 11
119.21190166666622
 21
63.196031666666528
  0
LINE
  8
_1-8_小物
  6
CONTINUOUS
 62
    4
 10
119.21190166666622
 20
63.196031666666528
 11
118.54614833333289
 21
63.230921666666546
  0
LINE
  8
_1-8_小物
  6
CONTINUOUS
 62
    4
 10
119.98023166666644
 20
56.186434999999875
 11
120.62479833333293
 21
56.758324999999928
  0
LINE
  8
_1-8_小物
  6
CONTINUOUS
 62
    4
 10
119.37685166666625
 20
56.789813333333342
 11
120
 21
56.166666666666544
  0
LINE
  8
_1-8_小物
  6
CONTINUOUS
 62
    4
 10
118.66666666666663
 20
64.166666666666657
 11
119.24679166666647
 21
63.861784999999855
  0
LINE
  8
_1-8_小物
  6
CONTINUOUS
 62
    4
 10
121.54107833333302
 20
61.566539999999947
 11
122.10619999999955
 21
63.119199999999779
  0
LINE
  8
_1-8_小物
  6
CONTINUOUS
 62
    4
 10
121.18635166666655
 20
61.566539999999947
 11
121.7929699999998
 21
63.233206666666575
  0
LINE
  8
_1-8_小物
  6
CONTINUOUS
 62
    4
 10
118.45892166666636
 20
61.566539999999947
 11
117.89379999999983
 21
63.119199999999779
  0
LINE
  8
_1-8_小物
  6
CONTINUOUS
 62
    4
 10
118.81364833333282
 20
61.566539999999947
 11
118.20702999999958
 21
63.233206666666575
  0
LINE
  8
_1-8_小物
  6
CONTINUOUS
 62
    4
 10
120.67258166666636
 20
55.846579999999818
 11
121.83764833333282
 21
55.907638333333267
  0
LINE
  8
_1-8_小物
  6
CONTINUOUS
 62
    4
 10
121.83764833333282
 20
55.907638333333267
 11
121.20678666666629
 21
55.206995000000035
  0
LINE
  8
_1-8_小物
  6
CONTINUOUS
 62
    4
 10
121.20678666666629
 20
55.206995000000035
 11
120.70747166666661
 21
55.180826666666491
  0
LINE
  8
_1-8_小物
  6
CONTINUOUS
 62
    4
 10
120.70747166666661
 20
55.180826666666491
 11
120.16666666666663
 21
65.499999999999801
  0
LINE
  8
_1-8_小物
  6
CONTINUOUS
 62
    4
 10
121.33333333333303
 20
64.166666666666657
 11
121.33333333333303
 21
65.499999999999801
  0
LINE
  8
_1-8_小物
  6
CONTINUOUS
 62
    4
 10
119.32741833333296
 20
55.846579999999818
 11
118.1623516666665
 21
55.907638333333267
  0
LINE
  8
_1-8_小物
  6
CONTINUOUS
 62
    4
 10
118.1623516666665
 20
55.907638333333267
 11
118.79321333333303
 21
55.206995000000035
  0
LINE
  8
_1-8_小物
  6
CONTINUOUS
 62
    4
 10
118.79321333333303
 20
55.206995000000035
 11
119.29252833333305
 21
55.180826666666491
  0
LINE
  8
_1-8_小物
  6
CONTINUOUS
 62
    4
 10
119.29252833333305
 20
55.180826666666491
 11
119.83333333333303
 21
65.499999999999801
  0
LINE
  8
_1-8_小物
  6
CONTINUOUS
 62
    4
 10
118.66666666666663
 20
64.166666666666657
 11
118.66666666666663
 21
65.499999999999801
  0
LINE
  8
_1-8_小物
  6
CONTINUOUS
 62
    4
 10
117.89379999999983
 20
63.119199999999779
 11
117.56301499999972
 21
65.387073333333461
  0
ARC
  8
_1-8_小物
  6
CONTINUOUS
 62
    4
 10
117.69495166666638
 20
65.406318333333303
 40
0.1333333333333333
 50
98.130101999965902
 51
188.29846600002136
  0
LINE
  8
_1-8_小物
  6
CONTINUOUS
 62
    4
 10
117.67609499999946
 20
65.538311666666601
 11
117.74170333333313
 21
65.547683333333367
  0
ARC
  8
_1-8_小物
  6
CONTINUOUS
 62
    4
 10
117.76056
 20
65.415689999999955
 40
0.1333333333333333
 50
8.130102000040166
 51
98.13010200021462
  0
LINE
  8
_1-8_小物
  6
CONTINUOUS
 62
    4
 10
117.89255333333313
 20
65.434546666666535
 11
118.20702999999958
 21
63.233206666666575
  0
LINE
  8
_1-8_小物
  6
CONTINUOUS
 62
    4
 10
122.10619999999955
 20
63.119199999999779
 11
122.43698499999965
 21
65.387073333333461
  0
ARC
  8
_1-8_小物
  6
CONTINUOUS
 62
    4
 10
122.30504833333299
 20
65.406318333333303
 40
0.1333333333333333
 50
351.70153399996303
 51
81.869898000034084
  0
LINE
  8
_1-8_小物
  6
CONTINUOUS
 62
    4
 10
122.32390333333296
 20
65.538311666666601
 11
122.25829666666624
 21
65.547683333333367
  0
ARC
  8
_1-8_小物
  6
CONTINUOUS
 62
    4
 10
122.23943999999995
 20
65.415689999999955
 40
0.1333333333333333
 50
81.869898000058299
 51
171.86989799999611
  0
LINE
  8
_1-8_小物
  6
CONTINUOUS
 62
    4
 10
122.10744666666625
 20
65.434546666666535
 11
121.7929699999998
 21
63.233206666666575
  0
LINE
  8
_1-8_小物
  6
CONTINUOUS
 62
    4
 10
122.10619999999955
 20
63.119199999999779
 11
122.43698499999965
 21
65.387073333333461
  0
ARC
  8
_1-8_小物
  6
CONTINUOUS
 62
    4
 10
122.30504833333299
 20
65.406318333333303
 40
0.1333333333333333
 50
351.70153399996303
 51
81.869898000034084
  0
LINE
  8
_1-8_小物
  6
CONTINUOUS
 62
    4
 10
122.32390333333296
 20
65.538311666666601
 11
122.25829666666624
 21
65.547683333333367
  0
ARC
  8
_1-8_小物
  6
CONTINUOUS
 62
    4
 10
122.23943999999995
 20
65.415689999999955
 40
0.1333333333333333
 50
81.869898000058299
 51
171.86989799999611
  0
LINE
  8
_1-8_小物
  6
CONTINUOUS
 62
    4
 10
122.10744666666625
 20
65.434546666666535
 11
121.7929699999998
 21
63.233206666666575
  0
LINE
  8
_1-8_小物
  6
CONTINUOUS
 62
    4
 10
121.66666666666663
 20
68.166666666666657
 11
121.33333333333303
 21
66.500000000000028
  0
LINE
  8
_1-8_小物
  6
CONTINUOUS
 62
    4
 10
121.33333333333303
 20
68.166666666666657
 11
121.33333333333303
 21
65.499999999999801
  0
LINE
  8
_1-8_小物
  6
CONTINUOUS
 62
    4
 10
120.16666666666663
 20
65.499999999999801
 11
120
 21
65.499999999999801
  0
LINE
  8
_1-8_小物
  6
CONTINUOUS
 62
    4
 10
120
 20
66.500000000000028
 11
120
 21
68.166666666666657
  0
LINE
  8
_1-8_小物
  6
CONTINUOUS
 62
    4
 10
120.33333333333303
 20
68.166666666666657
 11
120
 21
66.500000000000028
  0
LINE
  8
_1-8_小物
  6
CONTINUOUS
 62
    4
 10
119.66666666666634
 20
68.166666666666657
 11
120
 21
66.500000000000028
  0
LINE
  8
_1-8_小物
  6
CONTINUOUS
 62
    4
 10
118.33333333333331
 20
68.166666666666657
 11
118.66666666666663
 21
66.500000000000028
  0
LINE
  8
_1-8_小物
  6
CONTINUOUS
 62
    4
 10
118.66666666666663
 20
68.166666666666657
 11
118.66666666666663
 21
65.499999999999801
  0
LINE
  8
_1-8_小物
  6
CONTINUOUS
 62
    4
 10
119.83333333333303
 20
65.499999999999801
 11
120
 21
65.499999999999801
  0
LINE
  8
_1-8_小物
  6
CONTINUOUS
 62
    4
 10
121.66666666666663
 20
68.166666666666657
 11
118.33333333333331
 21
68.166666666666657
  0
ENDBLK
  0
BLOCK
  2
-005-_5_
 70
   64
 10
0
 20
0
 30
0
  0
LINE
  8
_1-8_小物
  6
CONTINUOUS
 62
    4
 10
80.073391666666112
 20
78.030579003291592
 11
79.407638333332784
 21
77.995689003292028
  0
LINE
  8
_1-8_小物
  6
CONTINUOUS
 62
    4
 10
81.072021666666046
 20
78.082915669958567
 11
80.704254999999421
 21
78.731222336625166
  0
LINE
  8
_1-8_小物
  6
CONTINUOUS
 62
    4
 10
80.704254999999421
 20
78.731222336625166
 11
80.038501666666093
 21
78.696332336624948
  0
LINE
  8
_1-8_小物
  6
CONTINUOUS
 62
    4
 10
80.038501666666093
 20
78.696332336624948
 11
80.073391666666112
 21
78.030579003291592
  0
LINE
  8
_1-8_小物
  6
CONTINUOUS
 62
    4
 10
81.737774999999488
 20
78.117805669958472
 11
81.072021666666046
 21
78.082915669958567
  0
LINE
  8
_1-8_小物
  6
CONTINUOUS
 62
    4
 10
82.736403333332873
 20
78.170142336625105
 11
82.368636666665907
 21
78.818449003292045
  0
LINE
  8
_1-8_小物
  6
CONTINUOUS
 62
    4
 10
82.368636666665907
 20
78.818449003292045
 11
81.702883333332807
 21
78.783559003291799
  0
LINE
  8
_1-8_小物
  6
CONTINUOUS
 62
    4
 10
81.702883333332807
 20
78.783559003291799
 11
81.737774999999488
 21
78.117805669958472
  0
LINE
  8
_1-8_小物
  6
CONTINUOUS
 62
    4
 10
83.402156666666201
 20
78.205032336625266
 11
82.736403333332873
 21
78.170142336625105
  0
LINE
  8
_1-8_小物
  6
CONTINUOUS
 62
    4
 10
84.400786666665908
 20
78.257369003291643
 11
84.03301999999951
 21
78.905675669958242
  0
LINE
  8
_1-8_小物
  6
CONTINUOUS
 62
    4
 10
84.03301999999951
 20
78.905675669958242
 11
83.367266666666183
 21
78.870785669958678
  0
LINE
  8
_1-8_小物
  6
CONTINUOUS
 62
    4
 10
83.367266666666183
 20
78.870785669958678
 11
83.402156666666201
 21
78.205032336625266
  0
LINE
  8
_1-8_小物
  6
CONTINUOUS
 62
    4
 10
85.066539999999463
 20
78.292259003291804
 11
84.400786666665908
 21
78.257369003291643
  0
LINE
  8
_1-8_小物
  6
CONTINUOUS
 62
    4
 10
86.065169999999512
 20
78.344595669958437
 11
85.69740166666611
 21
78.992902336625122
  0
LINE
  8
_1-8_小物
  6
CONTINUOUS
 62
    4
 10
85.69740166666611
 20
78.992902336625122
 11
85.031648333332782
 21
78.958012336625217
  0
LINE
  8
_1-8_小物
  6
CONTINUOUS
 62
    4
 10
85.031648333332782
 20
78.958012336625217
 11
85.066539999999463
 21
78.292259003291804
  0
LINE
  8
_1-8_小物
  6
CONTINUOUS
 62
    4
 10
86.730921666666063
 20
78.379485669958342
 11
86.065169999999512
 21
78.344595669958437
  0
LINE
  8
_1-8_小物
  6
CONTINUOUS
 62
    4
 10
87.361784999999372
 20
79.080129003291916
 11
86.696031666666045
 21
79.045239003291755
  0
LINE
  8
_1-8_小物
  6
CONTINUOUS
 62
    4
 10
86.696031666666045
 20
79.045239003291755
 11
86.730921666666063
 21
78.379485669958342
  0
LINE
  8
_1-8_小物
  6
CONTINUOUS
 62
    4
 10
87.666666666666174
 20
78.500004003291821
 11
87.361784999999372
 21
79.080129003291916
  0
LINE
  8
_1-8_小物
  6
CONTINUOUS
 62
    4
 10
80.073391666666112
 20
81.636095669958451
 11
79.407638333332784
 21
81.670985669958355
  0
LINE
  8
_1-8_小物
  6
CONTINUOUS
 62
    4
 10
81.072021666666046
 20
81.583759003291817
 11
80.704254999999421
 21
80.935452336625133
  0
LINE
  8
_1-8_小物
  6
CONTINUOUS
 62
    4
 10
80.704254999999421
 20
80.935452336625133
 11
80.038501666666093
 21
80.97034233662535
  0
LINE
  8
_1-8_小物
  6
CONTINUOUS
 62
    4
 10
80.038501666666093
 20
80.97034233662535
 11
80.073391666666112
 21
81.636095669958451
  0
LINE
  8
_1-8_小物
  6
CONTINUOUS
 62
    4
 10
81.737774999999488
 20
81.548869003291571
 11
81.072021666666046
 21
81.583759003291817
  0
LINE
  8
_1-8_小物
  6
CONTINUOUS
 62
    4
 10
82.736403333332873
 20
81.496532336625279
 11
82.368636666665907
 21
80.848225669958595
  0
LINE
  8
_1-8_小物
  6
CONTINUOUS
 62
    4
 10
82.368636666665907
 20
80.848225669958595
 11
81.702883333332807
 21
80.883115669958244
  0
LINE
  8
_1-8_小物
  6
CONTINUOUS
 62
    4
 10
81.702883333332807
 20
80.883115669958244
 11
81.737774999999488
 21
81.548869003291571
  0
LINE
  8
_1-8_小物
  6
CONTINUOUS
 62
    4
 10
83.402156666666201
 20
81.461642336625374
 11
82.736403333332873
 21
81.496532336625279
  0
LINE
  8
_1-8_小物
  6
CONTINUOUS
 62
    4
 10
84.400786666665908
 20
81.409305669958741
 11
84.03301999999951
 21
80.760999003291801
  0
LINE
  8
_1-8_小物
  6
CONTINUOUS
 62
    4
 10
84.03301999999951
 20
80.760999003291801
 11
83.367266666666183
 21
80.795889003291705
  0
LINE
  8
_1-8_小物
  6
CONTINUOUS
 62
    4
 10
83.367266666666183
 20
80.795889003291705
 11
83.402156666666201
 21
81.461642336625374
  0
LINE
  8
_1-8_小物
  6
CONTINUOUS
 62
    4
 10
85.066539999999463
 20
81.374415669958495
 11
84.400786666665908
 21
81.409305669958741
  0
LINE
  8
_1-8_小物
  6
CONTINUOUS
 62
    4
 10
86.065169999999512
 20
81.322079003291549
 11
85.69740166666611
 21
80.673772336624921
  0
LINE
  8
_1-8_小物
  6
CONTINUOUS
 62
    4
 10
85.69740166666611
 20
80.673772336624921
 11
85.031648333332782
 21
80.708662336625167
  0
LINE
  8
_1-8_小物
  6
CONTINUOUS
 62
    4
 10
85.031648333332782
 20
80.708662336625167
 11
85.066539999999463
 21
81.374415669958495
  0
LINE
  8
_1-8_小物
  6
CONTINUOUS
 62
    4
 10
86.730921666666063
 20
81.287189003291957
 11
86.065169999999512
 21
81.322079003291549
  0
LINE
  8
_1-8_小物
  6
CONTINUOUS
 62
    4
 10
87.361784999999372
 20
80.586545669958383
 11
86.696031666666045
 21
80.621435669958629
  0
LINE
  8
_1-8_小物
  6
CONTINUOUS
 62
    4
 10
86.696031666666045
 20
80.621435669958629
 11
86.730921666666063
 21
81.287189003291957
  0
LINE
  8
_1-8_小物
  6
CONTINUOUS
 62
    4
 10
79.686434999999392
 20
79.85310566995841
 11
80.258324999999445
 21
79.208539003291918
  0
LINE
  8
_1-8_小物
  6
CONTINUOUS
 62
    4
 10
80.289813333332859
 20
80.456485669958568
 11
79.66666666666606
 21
79.833337336624851
  0
LINE
  8
_1-8_小物
  6
CONTINUOUS
 62
    4
 10
87.666666666666174
 20
81.166670669958222
 11
87.361784999999372
 21
80.586545669958383
  0
LINE
  8
_1-8_小物
  6
CONTINUOUS
 62
    4
 10
85.066539999999463
 20
78.292259003291804
 11
86.619199999999296
 21
77.727137336625276
  0
LINE
  8
_1-8_小物
  6
CONTINUOUS
 62
    4
 10
85.066539999999463
 20
78.646985669958269
 11
86.733206666666092
 21
78.040367336625025
  0
LINE
  8
_1-8_小物
  6
CONTINUOUS
 62
    4
 10
85.066539999999463
 20
81.374415669958495
 11
86.619199999999296
 21
81.939537336625023
  0
LINE
  8
_1-8_小物
  6
CONTINUOUS
 62
    4
 10
85.066539999999463
 20
81.019689003292029
 11
86.733206666666092
 21
81.626307336625274
  0
LINE
  8
_1-8_小物
  6
CONTINUOUS
 62
    4
 10
79.346579999999335
 20
79.16075566995849
 11
79.407638333332784
 21
77.995689003292028
  0
LINE
  8
_1-8_小物
  6
CONTINUOUS
 62
    4
 10
79.407638333332784
 20
77.995689003292028
 11
78.706994999999552
 21
78.626550669958561
  0
LINE
  8
_1-8_小物
  6
CONTINUOUS
 62
    4
 10
78.706994999999552
 20
78.626550669958561
 11
78.680826666666007
 21
79.125865669958245
  0
LINE
  8
_1-8_小物
  6
CONTINUOUS
 62
    4
 10
78.680826666666007
 20
79.125865669958245
 11
88.999999999999318
 21
79.666670669958222
  0
LINE
  8
_1-8_小物
  6
CONTINUOUS
 62
    4
 10
87.666666666666174
 20
78.500004003291821
 11
88.999999999999318
 21
78.500004003291821
  0
LINE
  8
_1-8_小物
  6
CONTINUOUS
 62
    4
 10
79.346579999999335
 20
80.505919003291893
 11
79.407638333332784
 21
81.670985669958355
  0
LINE
  8
_1-8_小物
  6
CONTINUOUS
 62
    4
 10
79.407638333332784
 20
81.670985669958355
 11
78.706994999999552
 21
81.040124003291822
  0
LINE
  8
_1-8_小物
  6
CONTINUOUS
 62
    4
 10
78.706994999999552
 20
81.040124003291822
 11
78.680826666666007
 21
80.540809003291798
  0
LINE
  8
_1-8_小物
  6
CONTINUOUS
 62
    4
 10
78.680826666666007
 20
80.540809003291798
 11
88.999999999999318
 21
80.000004003291821
  0
LINE
  8
_1-8_小物
  6
CONTINUOUS
 62
    4
 10
87.666666666666174
 20
81.166670669958222
 11
88.999999999999318
 21
81.166670669958222
  0
LINE
  8
_1-8_小物
  6
CONTINUOUS
 62
    4
 10
86.619199999999296
 20
81.939537336625023
 11
88.887073333332978
 21
82.270322336625128
  0
ARC
  8
_1-8_小物
  6
CONTINUOUS
 62
    4
 10
88.90631833333282
 20
82.138385669958467
 40
0.1333333333333333
 50
8.1301019999555333
 51
98.298466000035219
  0
LINE
  8
_1-8_小物
  6
CONTINUOUS
 62
    4
 10
89.038311666666118
 20
82.157242336625387
 11
89.047683333332884
 21
82.091634003291716
  0
ARC
  8
_1-8_小物
  6
CONTINUOUS
 62
    4
 10
88.915689999999472
 20
82.072777336624824
 40
0.1333333333333333
 50
278.13010200004015
 51
8.130102000228419
  0
LINE
  8
_1-8_小物
  6
CONTINUOUS
 62
    4
 10
88.934546666666051
 20
81.940784003291725
 11
86.733206666666092
 21
81.626307336625274
  0
LINE
  8
_1-8_小物
  6
CONTINUOUS
 62
    4
 10
86.619199999999296
 20
77.727137336625276
 11
88.887073333332978
 21
77.396352336625171
  0
ARC
  8
_1-8_小物
  6
CONTINUOUS
 62
    4
 10
88.90631833333282
 20
77.528289003291832
 40
0.1333333333333333
 50
261.70153399996303
 51
351.86989800004449
  0
LINE
  8
_1-8_小物
  6
CONTINUOUS
 62
    4
 10
89.038311666666118
 20
77.509434003291886
 11
89.047683333332884
 21
77.575040669958582
  0
ARC
  8
_1-8_小物
  6
CONTINUOUS
 62
    4
 10
88.915689999999472
 20
77.593897336624906
 40
0.1333333333333333
 50
351.86989800004449
 51
81.86989800000822
  0
LINE
  8
_1-8_小物
  6
CONTINUOUS
 62
    4
 10
88.934546666666051
 20
77.725890669958574
 11
86.733206666666092
 21
78.040367336625025
  0
LINE
  8
_1-8_小物
  6
CONTINUOUS
 62
    4
 10
86.619199999999296
 20
77.727137336625276
 11
88.887073333332978
 21
77.396352336625171
  0
ARC
  8
_1-8_小物
  6
CONTINUOUS
 62
    4
 10
88.90631833333282
 20
77.528289003291832
 40
0.1333333333333333
 50
261.70153399996303
 51
351.86989800004449
  0
LINE
  8
_1-8_小物
  6
CONTINUOUS
 62
    4
 10
89.038311666666118
 20
77.509434003291886
 11
89.047683333332884
 21
77.575040669958582
  0
ARC
  8
_1-8_小物
  6
CONTINUOUS
 62
    4
 10
88.915689999999472
 20
77.593897336624906
 40
0.1333333333333333
 50
351.86989800004449
 51
81.86989800000822
  0
LINE
  8
_1-8_小物
  6
CONTINUOUS
 62
    4
 10
88.934546666666051
 20
77.725890669958574
 11
86.733206666666092
 21
78.040367336625025
  0
LINE
  8
_1-8_小物
  6
CONTINUOUS
 62
    4
 10
91.666666666666174
 20
78.166670669958222
 11
89.999999999999545
 21
78.500004003291821
  0
LINE
  8
_1-8_小物
  6
CONTINUOUS
 62
    4
 10
91.666666666666174
 20
78.500004003291821
 11
88.999999999999318
 21
78.500004003291821
  0
LINE
  8
_1-8_小物
  6
CONTINUOUS
 62
    4
 10
88.999999999999318
 20
79.666670669958222
 11
88.999999999999318
 21
79.833337336624851
  0
LINE
  8
_1-8_小物
  6
CONTINUOUS
 62
    4
 10
89.999999999999545
 20
79.833337336624851
 11
91.666666666666174
 21
79.833337336624851
  0
LINE
  8
_1-8_小物
  6
CONTINUOUS
 62
    4
 10
91.666666666666174
 20
79.500004003291821
 11
89.999999999999545
 21
79.833337336624851
  0
LINE
  8
_1-8_小物
  6
CONTINUOUS
 62
    4
 10
91.666666666666174
 20
80.166670669958478
 11
89.999999999999545
 21
79.833337336624851
  0
LINE
  8
_1-8_小物
  6
CONTINUOUS
 62
    4
 10
91.666666666666174
 20
81.500004003291508
 11
89.999999999999545
 21
81.166670669958222
  0
LINE
  8
_1-8_小物
  6
CONTINUOUS
 62
    4
 10
91.666666666666174
 20
81.166670669958222
 11
88.999999999999318
 21
81.166670669958222
  0
LINE
  8
_1-8_小物
  6
CONTINUOUS
 62
    4
 10
88.999999999999318
 20
80.000004003291821
 11
88.999999999999318
 21
79.833337336624851
  0
LINE
  8
_1-8_小物
  6
CONTINUOUS
 62
    4
 10
91.666666666666174
 20
78.166670669958222
 11
91.666666666666174
 21
81.500004003291508
  0
ENDBLK
  0
BLOCK
  2
-006-_6_
 70
   64
 10
0
 20
0
 30
0
  0
LINE
  8
_1-8_小物
  6
CONTINUOUS
 62
    4
 10
-61.787483860264587
 20
-19
 11
-59.787483860264587
 21
-19
  0
LINE
  8
_1-8_小物
  6
CONTINUOUS
 62
    4
 10
-62.120817193597929
 20
-19.707106781186582
 11
-62.120817193597929
 21
-18.292893218813447
  0
LINE
  8
_1-8_小物
  6
CONTINUOUS
 62
    4
 10
-62.120817193597929
 20
-18.292893218813447
 11
-59.454150526931244
 21
-18.292893218813447
  0
LINE
  8
_1-8_小物
  6
CONTINUOUS
 62
    4
 10
-59.454150526931244
 20
-19.707106781186582
 11
-59.454150526931244
 21
-18.292893218813447
  0
LINE
  8
_1-8_小物
  6
CONTINUOUS
 62
    4
 10
-62.120817193597929
 20
-19.707106781186582
 11
-59.454150526931244
 21
-19.707106781186582
  0
ENDBLK
  0
BLOCK
  2
-007-_7_
 70
   64
 10
0
 20
0
 30
0
  0
LINE
  8
_1-8_小物
  6
CONTINUOUS
 62
    4
 10
-118.45415052693124
 20
-19
 11
-120.45415052693124
 21
-19
  0
LINE
  8
_1-8_小物
  6
CONTINUOUS
 62
    4
 10
-118.12081719359792
 20
-19.707106781186582
 11
-118.12081719359792
 21
-18.292893218813447
  0
LINE
  8
_1-8_小物
  6
CONTINUOUS
 62
    4
 10
-118.12081719359792
 20
-18.292893218813447
 11
-120.78748386026459
 21
-18.292893218813447
  0
LINE
  8
_1-8_小物
  6
CONTINUOUS
 62
    4
 10
-120.78748386026459
 20
-19.707106781186582
 11
-120.78748386026459
 21
-18.292893218813447
  0
LINE
  8
_1-8_小物
  6
CONTINUOUS
 62
    4
 10
-118.12081719359792
 20
-19.707106781186582
 11
-120.78748386026459
 21
-19.707106781186582
  0
ENDBLK
  0
BLOCK
  2
-008-_8_
 70
   64
 10
0
 20
0
 30
0
  0
LINE
  8
_1-8_小物
  6
CONTINUOUS
 62
    4
 10
138.21251613973538
 20
-19
 11
140.21251613973538
 21
-19
  0
LINE
  8
_1-8_小物
  6
CONTINUOUS
 62
    4
 10
137.87918280640207
 20
-19.707106781186582
 11
137.87918280640207
 21
-18.292893218813447
  0
LINE
  8
_1-8_小物
  6
CONTINUOUS
 62
    4
 10
137.87918280640207
 20
-18.292893218813447
 11
140.54584947306876
 21
-18.292893218813447
  0
LINE
  8
_1-8_小物
  6
CONTINUOUS
 62
    4
 10
140.54584947306876
 20
-19.707106781186582
 11
140.54584947306876
 21
-18.292893218813447
  0
LINE
  8
_1-8_小物
  6
CONTINUOUS
 62
    4
 10
137.87918280640207
 20
-19.707106781186582
 11
140.54584947306876
 21
-19.707106781186582
  0
ENDBLK
  0
BLOCK
  2
-009-_9_
 70
   64
 10
0
 20
0
 30
0
  0
LINE
  8
_1-8_小物
  6
CONTINUOUS
 62
    4
 10
81.545849473068756
 20
-19
 11
79.545849473068756
 21
-19
  0
LINE
  8
_1-8_小物
  6
CONTINUOUS
 62
    4
 10
81.879182806402071
 20
-19.707106781186582
 11
81.879182806402071
 21
-18.292893218813447
  0
LINE
  8
_1-8_小物
  6
CONTINUOUS
 62
    4
 10
81.879182806402071
 20
-18.292893218813447
 11
79.212516139735385
 21
-18.292893218813447
  0
LINE
  8
_1-8_小物
  6
CONTINUOUS
 62
    4
 10
79.212516139735385
 20
-19.707106781186582
 11
79.212516139735385
 21
-18.292893218813447
  0
LINE
  8
_1-8_小物
  6
CONTINUOUS
 62
    4
 10
81.879182806402071
 20
-19.707106781186582
 11
79.212516139735385
 21
-19.707106781186582
  0
ENDBLK
  0
BLOCK
  2
-010-_10_
 70
   64
 10
0
 20
0
 30
0
  0
LINE
  8
ADD_LINE
  6
DOT
 62
    4
 10
-117.5
 20
69.500000000000114
 11
-117.5
 21
68.5
  0
LINE
  8
ADD_LINE
  6
DOT
 62
    4
 10
-122.5
 20
69.500000000000114
 11
-122.5
 21
68.5
  0
LINE
  8
_1-4_フレ__ム
  6
CENTER2
 62
    4
 10
-120
 20
66.833333333333314
 11
-120
 21
70.666666666666799
  0
LINE
  8
_1-4_フレ__ム
  6
CONTINUOUS
 62
    4
 10
-120
 20
69.400000000000091
 11
-120.09999999999977
 21
69.500000000000114
  0
LINE
  8
_1-4_フレ__ム
  6
CONTINUOUS
 62
    4
 10
-119.89999999999964
 20
69.500000000000114
 11
-120
 21
69.400000000000091
  0
LINE
  8
_1-4_フレ__ム
  6
CONTINUOUS
 62
    4
 10
-115.33333349226604
 20
69.500000000000114
 11
-119.89999999999964
 21
69.500000000000114
  0
LINE
  8
_1-4_フレ__ム
  6
CONTINUOUS
 62
    4
 10
-115.33333349226604
 20
70.333333333333371
 11
-115.33333349226604
 21
69.500000000000114
  0
LINE
  8
_1-4_フレ__ム
  6
CONTINUOUS
 62
    4
 10
-115.33333349226604
 20
70.333333333333371
 11
-114.33333349226602
 21
70.333333333333371
  0
LINE
  8
_1-4_フレ__ム
  6
CONTINUOUS
 62
    4
 10
-120.09999999999977
 20
69.500000000000114
 11
-125.99999990153341
 21
69.500000000000114
  0
ARC
  8
_1-4_フレ__ム
  6
CONTINUOUS
 62
    4
 10
-106.09999990153301
 20
68.766666666666993
 40
0.2666666666666667
 50
270
 51
0
  0
ARC
  8
_1-4_フレ__ム
  6
CONTINUOUS
 62
    4
 10
-106.19999990153308
 20
68.666666666666799
 40
0.1666666666666666
 50
180
 51
270
  0
LINE
  8
_1-4_フレ__ム
  6
CONTINUOUS
 62
    4
 10
-106.19999990153308
 20
68.5
 11
-106.09999990153301
 21
68.5
  0
ARC
  8
_1-4_フレ__ム
  6
CONTINUOUS
 62
    4
 10
-108.33333323486659
 20
69.500000000000114
 40
0.1666666666666666
 50
270
 51
0
  0
LINE
  8
_1-4_フレ__ム
  6
CONTINUOUS
 62
    4
 10
-105.83333323486659
 20
68.766666666666993
 11
-105.83333323486659
 21
69.766666666666708
  0
ARC
  8
_1-4_フレ__ム
  6
CONTINUOUS
 62
    4
 10
-106.46666656819991
 20
69.766666666666708
 40
0.6333333333333333
 50
0
 51
90
  0
LINE
  8
_1-4_フレ__ム
  6
CONTINUOUS
 62
    4
 10
-114.33333349226602
 20
70.333333333333371
 11
-114.33333349226602
 21
69.333333333333485
  0
LINE
  8
_1-4_フレ__ム
  6
CONTINUOUS
 62
    4
 10
-108.33333323486659
 20
69.333333333333485
 11
-114.33333349226602
 21
69.333333333333485
  0
LINE
  8
_1-4_フレ__ム
  6
CONTINUOUS
 62
    4
 10
-124.9999999015331
 20
68.5
 11
-125.99999990153341
 21
69.500000000000114
  0
LINE
  8
_1-4_フレ__ム
  6
CONTINUOUS
 62
    4
 10
-124.9999999015331
 20
68.5
 11
-107.33333341279983
 21
68.5
  0
LINE
  8
ADD_LINE
  6
DOT
 62
    4
 10
-108.83333323486659
 20
69.333333333333485
 11
-108.83333323486659
 21
68.5
  0
LINE
  8
_1-4_フレ__ム
  6
CENTER2
 62
    4
 10
-106.84999990153301
 20
69.316666666666833
 11
-106.84999990153301
 21
70.149999999999864
  0
LINE
  8
_1-4_フレ__ム
  6
CENTER2
 62
    4
 10
-106.84999990153301
 20
69.316666666666833
 11
-107.68333323486665
 21
69.316666666666833
  0
LINE
  8
_1-4_フレ__ム
  6
CENTER2
 62
    4
 10
-106.84999990153301
 20
69.316666666666833
 11
-106.84999990153301
 21
68.483333333333235
  0
LINE
  8
_1-4_フレ__ム
  6
CENTER2
 62
    4
 10
-106.84999990153301
 20
69.316666666666833
 11
-106.01666656819968
 21
69.316666666666833
  0
ARC
  8
_1-4_フレ__ム
  6
CONTINUOUS
 62
    4
 10
-106.84999990153301
 20
69.316666666666833
 40
0.4833333333332726
 50
0
 51
180
  0
LINE
  8
_1-4_フレ__ム
  6
CONTINUOUS
 62
    4
 10
-107.33333323486659
 20
68.5
 11
-107.33333323486659
 21
69.316666666666833
  0
LINE
  8
_1-4_フレ__ム
  6
CONTINUOUS
 62
    4
 10
-106.36666656820005
 20
69.316666666666833
 11
-106.36666656820005
 21
68.666666666666799
  0
LINE
  8
_1-4_フレ__ム
  6
CONTINUOUS
 62
    4
 10
-108.16666656819993
 20
70.300000000000068
 11
-108.16666656819993
 21
69.500000000000114
  0
LINE
  8
_1-4_フレ__ム
  6
CONTINUOUS
 62
    4
 10
-106.46666656819991
 20
70.400000000000091
 11
-108.06666656819991
 21
70.400000000000091
  0
ARC
  8
_1-4_フレ__ム
  6
CONTINUOUS
 62
    4
 10
-108.06666656819991
 20
70.300000000000068
 40
0.0999999999999999
 50
90
 51
180
  0
ENDBLK
  0
BLOCK
  2
-011-_11_
 70
   64
 10
0
 20
0
 30
0
  0
LINE
  8
_1-4_フレ__ム
  6
CONTINUOUS
 62
    4
 10
92.999999999999432
 20
79.933337336624845
 11
92.899999999999977
 21
79.833337336624936
  0
LINE
  8
_1-4_フレ__ム
  6
CONTINUOUS
 62
    4
 10
92.899999999999977
 20
79.833337336624936
 11
92.999999999999829
 21
79.733337336624629
  0
LINE
  8
_1-4_フレ__ム
  6
CONTINUOUS
 62
    4
 10
92.999999999999829
 20
75.166670669958478
 11
92.999999999999829
 21
79.733337336624629
  0
LINE
  8
_1-4_フレ__ム
  6
CONTINUOUS
 62
    4
 10
92.999999999999432
 20
85.166670669958194
 11
92.999999999999432
 21
79.933337336624845
  0
ARC
  8
_1-4_フレ__ム
  6
CONTINUOUS
 62
    4
 10
94.766666662300452
 20
86.833337336624709
 40
0.1666666666666666
 50
270
 51
90
  0
LINE
  8
_1-4_フレ__ム
  6
CONTINUOUS
 62
    4
 10
94.666666662300486
 20
86.666670669958023
 11
94.666666662300486
 21
83.500004003291508
  0
LINE
  8
_1-4_フレ__ム
  6
CONTINUOUS
 62
    4
 10
94.166666662300486
 20
87.000004003291366
 11
94.766666662300452
 21
87.000004003291366
  0
LINE
  8
_1-4_フレ__ム
  6
CONTINUOUS
 62
    4
 10
94.166666662300486
 20
83.500004003291508
 11
94.666666662300486
 21
83.500004003291508
  0
LINE
  8
_1-4_フレ__ム
  6
CONTINUOUS
 62
    4
 10
94.166666662300486
 20
85.166670669958194
 11
92.999999999999432
 21
85.166670669958194
  0
LINE
  8
_1-4_フレ__ム
  6
CONTINUOUS
 62
    4
 10
94.166666662300486
 20
85.166670669958194
 11
94.166666662300486
 21
83.500004003291508
  0
LINE
  8
_1-4_フレ__ム
  6
CONTINUOUS
 62
    4
 10
94.166666662300486
 20
87.000004003291366
 11
94.166666662300486
 21
86.166670669958194
  0
ARC
  8
_1-4_フレ__ム
  6
CONTINUOUS
 62
    4
 10
93.333333333333314
 20
72.833337336624851
 40
0.1666666666666666
 50
180
 51
270
  0
ARC
  8
_1-4_フレ__ム
  6
CONTINUOUS
 62
    4
 10
93.150000000000318
 20
71.350004003291502
 40
0.4833333333332726
 50
270
 51
90
  0
ARC
  8
_1-4_フレ__ム
  6
CONTINUOUS
 62
    4
 10
93.633333333333439
 20
70.933337336624987
 40
0.5999999999999999
 50
270
 51
0
  0
LINE
  8
_1-4_フレ__ム
  6
CONTINUOUS
 62
    4
 10
92.33333333333286
 20
70.700004003291497
 11
92.33333333333286
 21
70.600004003291588
  0
LINE
  8
_1-4_フレ__ム
  6
CONTINUOUS
 62
    4
 10
93.150000000000318
 20
70.866670669958239
 11
92.499999999999773
 21
70.866670669958154
  0
ARC
  8
_1-4_フレ__ム
  6
CONTINUOUS
 62
    4
 10
92.499999999999773
 20
70.700004003291497
 40
0.1666666666666666
 50
90
 51
180
  0
ARC
  8
_1-4_フレ__ム
  6
CONTINUOUS
 62
    4
 10
92.599999999999966
 20
70.600004003291588
 40
0.2666666666666667
 50
180
 51
270
  0
LINE
  8
_1-4_フレ__ム
  6
CONTINUOUS
 62
    4
 10
92.599999999999966
 20
70.333337336624879
 11
93.633333333333439
 21
70.333337336624936
  0
LINE
  8
_1-4_フレ__ム
  6
CONTINUOUS
 62
    4
 10
91.999999999999432
 20
71.833337336624936
 11
93.150000000000318
 21
71.833337336624936
  0
LINE
  8
_1-4_フレ__ム
  6
CONTINUOUS
 62
    4
 10
94.166666662300486
 20
86.166670669958194
 11
91.999999999999432
 21
86.166670669958194
  0
LINE
  8
_1-4_フレ__ム
  6
CONTINUOUS
 62
    4
 10
91.999999999999432
 20
71.833337336624936
 11
91.999999999999432
 21
86.166670669958194
  0
LINE
  8
_1-4_フレ__ム
  6
CONTINUOUS
 62
    4
 10
92.999999999999829
 20
75.166670669958478
 11
93.166666666666629
 21
75.166670669958478
  0
LINE
  8
_1-4_フレ__ム
  6
CONTINUOUS
 62
    4
 10
93.166666666666629
 20
72.833337336624851
 11
93.166666666666629
 21
75.166670669958478
  0
LINE
  8
_1-4_フレ__ム
  6
CONTINUOUS
 62
    4
 10
94.666666662300486
 20
86.666670669958023
 11
94.766666662300452
 21
86.666670669958023
  0
LINE
  8
_1-4_フレ__ム
  6
CENTER2
 62
    4
 10
94.166666666666174
 20
79.833337336624936
 11
90.333333333332803
 21
79.833337336624936
  0
LINE
  8
_1-4_フレ__ム
  6
CENTER2
 62
    4
 10
93.150000000000318
 20
71.350004003291502
 11
93.983333333333462
 21
71.350004003291502
  0
LINE
  8
_1-4_フレ__ム
  6
CENTER2
 62
    4
 10
93.150000000000318
 20
71.350004003291502
 11
93.150000000000318
 21
72.183337336624987
  0
LINE
  8
_1-4_フレ__ム
  6
CENTER2
 62
    4
 10
93.150000000000318
 20
71.350004003291502
 11
92.316666666666833
 21
71.350004003291502
  0
LINE
  8
_1-4_フレ__ム
  6
CENTER2
 62
    4
 10
93.150000000000318
 20
71.350004003291502
 11
93.150000000000318
 21
70.516670669958103
  0
LINE
  8
_1-4_フレ__ム
  6
DASHED1
 62
    4
 10
92.999999999999829
 20
82.33333733662522
 11
91.999999999999432
 21
82.33333733662522
  0
LINE
  8
_1-4_フレ__ム
  6
DASHED1
 62
    4
 10
92.999999999999829
 20
77.33333733662522
 11
91.999999999999432
 21
77.33333733662522
  0
LINE
  8
_1-4_フレ__ム
  6
DASHED1
 62
    4
 10
93.166666666666401
 20
73.666670669958251
 11
91.999999999999432
 21
73.666670669958251
  0
LINE
  8
_1-4_フレ__ム
  6
CONTINUOUS
 62
    4
 10
94.133333333333326
 20
72.666670669958336
 11
93.333333333333314
 21
72.666670669958336
  0
LINE
  8
_1-4_フレ__ム
  6
CONTINUOUS
 62
    4
 10
94.233333333333348
 20
70.933337336624987
 11
94.233333333333348
 21
72.566670669958313
  0
ARC
  8
_1-4_フレ__ム
  6
CONTINUOUS
 62
    4
 10
94.133333333333326
 20
72.566670669958313
 40
0.0999999999999999
 50
0
 51
90
  0
ENDBLK
  0
BLOCK
  2
-012-_12_
 70
   64
 10
0
 20
0
 30
0
  0
LINE
  8
_1-8_小物
  6
CONTINUOUS
 62
    4
 10
-108.96111101591629
 20
69.563646888524261
 11
-109.04814805296101
 21
69.462640294876735
  0
ARC
  8
_1-8_小物
  6
CONTINUOUS
 62
    4
 10
-105.96666656819963
 20
70.266666666666708
 40
0.1333333333333333
 50
0
 51
89.999998490725531
  0
ARC
  8
_1-8_小物
  6
CONTINUOUS
 62
    4
 10
-105.96666656819963
 20
70.266666666666708
 40
0.2666666666666666
 50
0
 51
89.999998490725531
  0
ARC
  8
_1-8_小物
  6
CONTINUOUS
 62
    4
 10
-105.96666656819963
 20
68.633333333333354
 40
0.2666666666666666
 50
270
 51
0
  0
ARC
  8
_1-8_小物
  6
CONTINUOUS
 62
    4
 10
-106.69999990153298
 20
68.127322003766665
 40
0.5
 50
53.031405798552463
 51
131.81031489580505
  0
ARC
  8
_1-8_小物
  6
CONTINUOUS
 62
    4
 10
-106.3191276848663
 20
68.633333333333354
 40
0.1333333333333333
 50
233.03140197499982
 51
269.99999849072555
  0
LINE
  8
_1-8_小物
  6
CONTINUOUS
 62
    4
 10
-106.32275840503301
 20
68.366666666666703
 11
-105.96666656819963
 21
68.366666666666703
  0
ARC
  8
_1-8_小物
  6
CONTINUOUS
 62
    4
 10
-105.96666656819963
 20
68.633333333333354
 40
0.1333333333333333
 50
270
 51
0
  0
ARC
  8
_1-8_小物
  6
CONTINUOUS
 62
    4
 10
-106.69999990153298
 20
68.083666800100048
 40
0.3999999999999999
 50
55.537811429944142
 51
127.63786311680289
  0
LINE
  8
_1-8_小物
  6
CONTINUOUS
 62
    4
 10
-106.31912768836634
 20
68.500000000000028
 11
-105.96666656819963
 21
68.500000000000028
  0
ARC
  8
_1-8_小物
  6
CONTINUOUS
 62
    4
 10
-106.32275840503301
 20
68.633333333333354
 40
0.2666666666666666
 50
235.5378114299065
 51
270
  0
LINE
  8
_1-8_小物
  6
CONTINUOUS
 62
    4
 10
-107.03333323486632
 20
68.500000000000028
 11
-106.94426734323298
 21
68.400421305900011
  0
LINE
  8
_1-8_小物
  6
CONTINUOUS
 62
    4
 10
-105.69999990153298
 20
68.633333333333354
 11
-105.69999990153298
 21
70.266666666666708
  0
LINE
  8
_1-8_小物
  6
CONTINUOUS
 62
    4
 10
-105.83333323486634
 20
68.633333333333354
 11
-105.83333323486634
 21
70.266666666666708
  0
ARC
  8
_1-8_小物
  6
CONTINUOUS
 62
    4
 10
-108.69999990153298
 20
69.866666666666703
 40
0.5333333333333333
 50
180
 51
0.0000086701116401
  0
ARC
  8
_1-8_小物
  6
CONTINUOUS
 62
    4
 10
-108.69999990153298
 20
69.866666666666703
 40
0.3999999999999999
 50
180.00000000009771
 51
0.000001882395793
  0
LINE
  8
_1-8_小物
  6
CONTINUOUS
 62
    4
 10
-109.099999901533
 20
69.866666666666703
 11
-109.23333323486632
 21
69.866666666666703
  0
LINE
  8
_1-8_小物
  6
CONTINUOUS
 62
    4
 10
-110.16666656819967
 20
69.333333333333314
 11
-110.16666656819967
 21
69.46666666666664
  0
LINE
  8
_1-8_小物
  6
DASHED1
 62
    4
 10
-107.58333322779336
 20
70.53333333333336
 11
-107.58333322779336
 21
70.400000000000034
  0
LINE
  8
_1-8_小物
  6
CONTINUOUS
 62
    4
 10
-109.66666656819967
 20
69.46666666666664
 11
-109.66666656819967
 21
69.333333333333314
  0
LINE
  8
_1-8_小物
  6
CONTINUOUS
 62
    4
 10
-110.16666656819967
 20
69.46666666666664
 11
-109.05276674300822
 21
69.46666666666664
  0
LINE
  8
_1-8_小物
  6
CONTINUOUS
 62
    4
 10
-110.16666656819967
 20
69.333333333333314
 11
-108.33333323486659
 21
69.333333333333314
  0
LINE
  8
_1-8_小物
  6
CONTINUOUS
 62
    4
 10
-108.34723306005775
 20
69.46666666666664
 11
-108.17003391868109
 21
69.46666666666664
  0
ARC
  8
_1-8_小物
  6
CONTINUOUS
 62
    4
 10
-107.26977142654988
 20
69.03333333333336
 40
0.1333333333333333
 50
241.52902134410616
 51
270
  0
LINE
  8
_1-8_小物
  6
CONTINUOUS
 62
    4
 10
-107.33333323486659
 20
68.766666666666708
 11
-106.36666656820005
 21
68.766666666666708
  0
LINE
  8
_1-8_小物
  6
CONTINUOUS
 62
    4
 10
-107.26977142654988
 20
68.900000000000006
 11
-106.36666656820005
 21
68.900000000000006
  0
LINE
  8
_1-8_小物
  6
CONTINUOUS
 62
    4
 10
-105.96666656469966
 20
70.400000000000034
 11
-108.06666656819968
 21
70.400000000000034
  0
LINE
  8
_1-8_小物
  6
CONTINUOUS
 62
    4
 10
-108.16666656819967
 20
69.866666666666703
 11
-108.16666656819967
 21
70.300000000000068
  0
ARC
  8
_1-8_小物
  6
CONTINUOUS
 62
    4
 10
-108.06666656819968
 20
70.300000000000068
 40
0.0999999999999999
 50
90
 51
180
  0
LINE
  8
_1-8_小物
  6
CONTINUOUS
 62
    4
 10
-105.96666656119963
 20
70.53333333333336
 11
-108.06666656819964
 21
70.53333333333336
  0
LINE
  8
_1-8_小物
  6
CONTINUOUS
 62
    4
 10
-108.29999990153297
 20
69.866666666666703
 11
-108.29999990153297
 21
70.300000000000011
  0
ARC
  8
_1-8_小物
  6
CONTINUOUS
 62
    4
 10
-108.06666656819964
 20
70.300000000000011
 40
0.2333333333333333
 50
90
 51
180
  0
ENDBLK
  0
BLOCK
  2
-013-_13_
 70
   64
 10
0
 20
0
 30
0
  0
LINE
  8
_1-8_小物
  6
CONTINUOUS
 62
    4
 10
93.396980221857632
 20
73.461115117674922
 11
93.295973628210106
 21
73.548152154719617
  0
ARC
  8
_1-8_小物
  6
CONTINUOUS
 62
    4
 10
94.10000000000008
 20
70.466670669958262
 40
0.1333333333333333
 50
270
 51
359.99999849072555
  0
ARC
  8
_1-8_小物
  6
CONTINUOUS
 62
    4
 10
94.10000000000008
 20
70.466670669958262
 40
0.2666666666666666
 50
270
 51
359.99999849072555
  0
ARC
  8
_1-8_小物
  6
CONTINUOUS
 62
    4
 10
92.466666666666697
 20
70.466670669958262
 40
0.2666666666666666
 50
180
 51
270
  0
ARC
  8
_1-8_小物
  6
CONTINUOUS
 62
    4
 10
91.960655337100036
 20
71.20000400329161
 40
0.5
 50
323.03140579854858
 51
41.810314895802605
  0
ARC
  8
_1-8_小物
  6
CONTINUOUS
 62
    4
 10
92.466666666666697
 20
70.819131786624922
 40
0.1333333333333333
 50
143.03140197500721
 51
179.99999849072555
  0
LINE
  8
_1-8_小物
  6
CONTINUOUS
 62
    4
 10
92.200000000000045
 20
70.822762506791634
 11
92.200000000000045
 21
70.466670669958262
  0
ARC
  8
_1-8_小物
  6
CONTINUOUS
 62
    4
 10
92.466666666666697
 20
70.466670669958262
 40
0.1333333333333333
 50
180
 51
270
  0
ARC
  8
_1-8_小物
  6
CONTINUOUS
 62
    4
 10
91.917000133433419
 20
71.20000400329161
 40
0.3999999999999999
 50
325.5378114299408
 51
37.637863116799679
  0
LINE
  8
_1-8_小物
  6
CONTINUOUS
 62
    4
 10
92.333333333333371
 20
70.81913179012497
 11
92.333333333333371
 21
70.466670669958262
  0
ARC
  8
_1-8_小物
  6
CONTINUOUS
 62
    4
 10
92.466666666666697
 20
70.822762506791634
 40
0.2666666666666666
 50
145.53781142990746
 51
180
  0
LINE
  8
_1-8_小物
  6
CONTINUOUS
 62
    4
 10
92.333333333333371
 20
71.533337336624925
 11
92.233754639233382
 21
71.444271444991614
  0
LINE
  8
_1-8_小物
  6
CONTINUOUS
 62
    4
 10
92.466666666666697
 20
70.20000400329161
 11
94.10000000000008
 21
70.20000400329161
  0
LINE
  8
_1-8_小物
  6
CONTINUOUS
 62
    4
 10
92.466666666666697
 20
70.333337336624965
 11
94.10000000000008
 21
70.333337336624965
  0
ARC
  8
_1-8_小物
  6
CONTINUOUS
 62
    4
 10
93.700000000000045
 20
73.20000400329161
 40
0.5333333333333333
 50
90
 51
270.00000867010863
  0
ARC
  8
_1-8_小物
  6
CONTINUOUS
 62
    4
 10
93.700000000000045
 20
73.20000400329161
 40
0.3999999999999999
 50
90.0000000000977
 51
270.0000018823917
  0
LINE
  8
_1-8_小物
  6
CONTINUOUS
 62
    4
 10
93.700000000000045
 20
73.600004003291616
 11
93.700000000000045
 21
73.733337336624942
  0
LINE
  8
_1-8_小物
  6
CONTINUOUS
 62
    4
 10
93.166666666666686
 20
74.666670669958307
 11
93.300000000000011
 21
74.666670669958307
  0
LINE
  8
_1-8_小物
  6
DASHED1
 62
    4
 10
94.366666666666731
 20
72.083337329551966
 11
94.233333333333405
 21
72.083337329551966
  0
LINE
  8
_1-8_小物
  6
CONTINUOUS
 62
    4
 10
93.300000000000011
 20
74.166670669958307
 11
93.166666666666686
 21
74.166670669958307
  0
LINE
  8
_1-8_小物
  6
CONTINUOUS
 62
    4
 10
93.300000000000011
 20
74.666670669958307
 11
93.300000000000011
 21
73.552770844766826
  0
LINE
  8
_1-8_小物
  6
CONTINUOUS
 62
    4
 10
93.300000000000011
 20
72.847237161816366
 11
93.300000000000011
 21
72.670038020439307
  0
LINE
  8
_1-8_小物
  6
CONTINUOUS
 62
    4
 10
93.166666666666686
 20
74.666670669958307
 11
93.166666666666686
 21
72.833337336624851
  0
ARC
  8
_1-8_小物
  6
CONTINUOUS
 62
    4
 10
92.866666666666731
 20
71.769775528308514
 40
0.1333333333333333
 50
151.52902134424266
 51
180
  0
LINE
  8
_1-8_小物
  6
CONTINUOUS
 62
    4
 10
92.733333333333348
 20
71.769775528308514
 11
92.733333333333348
 21
70.866670669958239
  0
LINE
  8
_1-8_小物
  6
CONTINUOUS
 62
    4
 10
92.60000000000008
 20
71.833337336624936
 11
92.60000000000008
 21
70.866670669958239
  0
LINE
  8
_1-8_小物
  6
CONTINUOUS
 62
    4
 10
93.700000000000045
 20
72.800004003291576
 11
94.133333333333383
 21
72.800004003291576
  0
LINE
  8
_1-8_小物
  6
CONTINUOUS
 62
    4
 10
94.366666666666731
 20
70.466670662958251
 11
94.366666666666731
 21
72.566670669958228
  0
ARC
  8
_1-8_小物
  6
CONTINUOUS
 62
    4
 10
94.133333333333383
 20
72.566670669958228
 40
0.2333333333333333
 50
0
 51
90
  0
LINE
  8
_1-8_小物
  6
CONTINUOUS
 62
    4
 10
93.700000000000045
 20
72.666670669958307
 11
94.133333333333439
 21
72.666670669958307
  0
LINE
  8
_1-8_小物
  6
CONTINUOUS
 62
    4
 10
94.233333333333405
 20
70.466670666458299
 11
94.233333333333405
 21
72.566670669958313
  0
ARC
  8
_1-8_小物
  6
CONTINUOUS
 62
    4
 10
94.133333333333439
 20
72.566670669958313
 40
0.0999999999999999
 50
0
 51
90
  0
ENDBLK
  0
BLOCK
  2
-014-_14_
 70
   64
 10
0
 20
0
 30
0
  0
LINE
  8
_1-7_カバ__
  6
CENTER2
 62
    4
 10
-100
 20
78.000000000000057
 11
-100
 21
74.166666666666799
  0
ARC
  8
_1-7_カバ__
  6
CONTINUOUS
 62
    4
 10
-127.83333333333334
 20
75.833333333333428
 40
0.1666666666666666
 50
90
 51
180
  0
LINE
  8
_1-7_カバ__
  6
CONTINUOUS
 62
    4
 10
-128
 20
75.833333333333428
 11
-128
 21
72.166666666666771
  0
ARC
  8
_1-7_カバ__
  6
CONTINUOUS
 62
    4
 10
-127.83333333333334
 20
72.166666666666771
 40
0.1666666666666666
 50
180
 51
270
  0
ARC
  8
_1-7_カバ__
  6
CONTINUOUS
 62
    4
 10
-127.83333333333334
 20
75.833333333333428
 40
0.5
 50
90
 51
180
  0
LINE
  8
_1-7_カバ__
  6
CONTINUOUS
 62
    4
 10
-128.33333333333334
 20
75.833333333333428
 11
-128.33333333333334
 21
72.166666666666771
  0
ARC
  8
_1-7_カバ__
  6
CONTINUOUS
 62
    4
 10
-127.83333333333334
 20
72.166666666666771
 40
0.5
 50
180
 51
270
  0
ARC
  8
_1-7_カバ__
  6
CONTINUOUS
 62
    4
 10
-72.166666666666686
 20
75.833333333333428
 40
0.1666666666666666
 50
0
 51
90
  0
LINE
  8
_1-7_カバ__
  6
CONTINUOUS
 62
    4
 10
-72.000000000000028
 20
75.833333333333428
 11
-72.000000000000028
 21
72.166666666666771
  0
ARC
  8
_1-7_カバ__
  6
CONTINUOUS
 62
    4
 10
-72.166666666666686
 20
72.166666666666771
 40
0.1666666666666666
 50
270
 51
0
  0
ARC
  8
_1-7_カバ__
  6
CONTINUOUS
 62
    4
 10
-72.166666666666686
 20
75.833333333333428
 40
0.5
 50
0
 51
90
  0
LINE
  8
_1-7_カバ__
  6
CONTINUOUS
 62
    4
 10
-71.666666666666686
 20
75.833333333333428
 11
-71.666666666666686
 21
72.166666666666771
  0
ARC
  8
_1-7_カバ__
  6
CONTINUOUS
 62
    4
 10
-72.166666666666686
 20
72.166666666666771
 40
0.5
 50
270
 51
0
  0
LINE
  8
_1-7_カバ__
  6
CONTINUOUS
 62
    4
 10
-127.83333333333334
 20
76.000000000000057
 11
-100
 21
76.000000000000057
  0
LINE
  8
_1-7_カバ__
  6
CONTINUOUS
 62
    4
 10
-127.83333333333334
 20
76.333333333333428
 11
-100
 21
76.333333333333428
  0
LINE
  8
_1-7_カバ__
  6
CONTINUOUS
 62
    4
 10
-72.166666666666686
 20
76.000000000000057
 11
-100
 21
76.000000000000057
  0
LINE
  8
_1-7_カバ__
  6
CONTINUOUS
 62
    4
 10
-72.166666666666686
 20
76.333333333333428
 11
-100
 21
76.333333333333428
  0
LINE
  8
_1-7_カバ__
  6
CONTINUOUS
 62
    4
 10
-125
 20
72.000000000000114
 11
-125
 21
71.666666666666771
  0
LINE
  8
_1-7_カバ__
  6
CONTINUOUS
 62
    4
 10
-127.83333333333334
 20
72.000000000000114
 11
-125
 21
72.000000000000114
  0
LINE
  8
_1-7_カバ__
  6
CONTINUOUS
 62
    4
 10
-127.83333333333334
 20
71.666666666666771
 11
-125
 21
71.666666666666771
  0
LINE
  8
_1-7_カバ__
  6
CONTINUOUS
 62
    4
 10
-75.000000000000028
 20
72.000000000000114
 11
-75.000000000000028
 21
71.666666666666771
  0
LINE
  8
_1-7_カバ__
  6
CONTINUOUS
 62
    4
 10
-72.166666666666686
 20
72.000000000000114
 11
-75.000000000000028
 21
72.000000000000114
  0
LINE
  8
_1-7_カバ__
  6
CONTINUOUS
 62
    4
 10
-72.166666666666686
 20
71.666666666666771
 11
-75.000000000000028
 21
71.666666666666771
  0
LINE
  8
_1-7_カバ__
  6
DASHED1
 62
    4
 10
-100.91666666666667
 20
76.333333333333428
 11
-100.91666666666667
 21
76.000000000000057
  0
LINE
  8
_1-7_カバ__
  6
DASHED1
 62
    4
 10
-99.083333333333343
 20
76.333333333333428
 11
-99.083333333333343
 21
76.000000000000057
  0
ENDBLK
  0
BLOCK
  2
-015-_15_
 70
   64
 10
0
 20
0
 30
0
  0
LINE
  8
_1-8_小物
  6
CONTINUOUS
 62
    4
 10
-100
 20
71.833333333333428
 11
-100.53333300000001
 21
72.141253333333509
  0
LINE
  8
_1-8_小物
  6
CONTINUOUS
 62
    4
 10
-100
 20
71.833333333333428
 11
-99.466666666666555
 21
72.141253333333509
  0
ARC
  8
_1-8_小物
  6
CONTINUOUS
 62
    4
 10
-100
 20
76.13888900000012
 40
2.0277776666666663
 50
53.83135799999846
 51
126.16864200000187
  0
ARC
  8
_1-8_小物
  6
CONTINUOUS
 62
    4
 10
-99
 20
77.50678566666673
 40
0.3333333333333333
 50
0
 51
53.831357999945155
  0
ARC
  8
_1-8_小物
  6
CONTINUOUS
 62
    4
 10
-101
 20
77.50678566666673
 40
0.3333333333333333
 50
126.16864199999917
 51
180
  0
LINE
  8
_1-8_小物
  6
CONTINUOUS
 62
    4
 10
-102
 20
76.916666666666686
 11
-102
 21
76.666666666666799
  0
ARC
  8
_1-8_小物
  6
CONTINUOUS
 62
    4
 10
-101.43275999999969
 20
76.500002666666916
 40
0.6666666666666666
 50
90
 51
124.99999999998157
  0
LINE
  8
_1-8_小物
  6
CONTINUOUS
 62
    4
 10
-102
 20
76.916666666666686
 11
-101.815144333333
 21
77.046104000000298
  0
LINE
  8
_1-8_小物
  6
CONTINUOUS
 62
    4
 10
-102
 20
76.916666666666686
 11
-98
 21
76.916666666666686
  0
LINE
  8
_1-8_小物
  6
CONTINUOUS
 62
    4
 10
-102
 20
76.666666666666799
 11
-98
 21
76.666666666666799
  0
LINE
  8
_1-8_小物
  6
CONTINUOUS
 62
    4
 10
-98
 20
76.916666666666686
 11
-98
 21
76.666666666666799
  0
LINE
  8
_1-8_小物
  6
CONTINUOUS
 62
    4
 10
-101.66666666666667
 20
76.666666666666799
 11
-101.66666666666667
 21
76.333333333333428
  0
LINE
  8
_1-8_小物
  6
CONTINUOUS
 62
    4
 10
-98.333333333333343
 20
76.666666666666799
 11
-98.333333333333343
 21
76.333333333333428
  0
LINE
  8
_1-8_小物
  6
CONTINUOUS
 62
    4
 10
-100
 20
73.866277333333471
 11
-99.466666666666555
 21
73.881937333333354
  0
LINE
  8
_1-8_小物
  6
CONTINUOUS
 62
    4
 10
-100
 20
73.866277333333471
 11
-99.466666666666555
 21
74.164197666666752
  0
LINE
  8
_1-8_小物
  6
CONTINUOUS
 62
    4
 10
-100.53333333333316
 20
74.822678000000138
 11
-100.53333333333316
 21
74.477777666666668
  0
LINE
  8
_1-8_小物
  6
CONTINUOUS
 62
    4
 10
-100.53333333333316
 20
74.195517666666802
 11
-100.53333333333316
 21
72.141253333333509
  0
LINE
  8
_1-8_小物
  6
CONTINUOUS
 62
    4
 10
-99.466666666666555
 20
75.136258333333387
 11
-99.466666666666555
 21
74.791358000000088
  0
LINE
  8
_1-8_小物
  6
CONTINUOUS
 62
    4
 10
-99.466666666666555
 20
74.509098000000023
 11
-99.466666666666555
 21
74.164197666666752
  0
LINE
  8
_1-8_小物
  6
CONTINUOUS
 62
    4
 10
-99.466666666666555
 20
73.881937333333354
 11
-99.466666666666555
 21
72.141253333333509
  0
LINE
  8
_1-8_小物
  6
CONTINUOUS
 62
    4
 10
-100.53333333333316
 20
74.822678000000138
 11
-99.466666666666555
 21
75.136258333333387
  0
LINE
  8
_1-8_小物
  6
CONTINUOUS
 62
    4
 10
-100.77777766666654
 20
74.963808333333361
 11
-100.53333333333316
 21
74.822678000000138
  0
LINE
  8
_1-8_小物
  6
CONTINUOUS
 62
    4
 10
-100.77777766666654
 20
74.963808333333361
 11
-100.53333333333316
 21
75.104938333333337
  0
LINE
  8
_1-8_小物
  6
CONTINUOUS
 62
    4
 10
-101.33333333333334
 20
77.50678566666673
 11
-101.33333333333334
 21
77.166666666666771
  0
ARC
  8
_1-8_小物
  6
CONTINUOUS
 62
    4
 10
-98.567305666666783
 20
76.500048666666657
 40
0.6666666666666666
 50
54.999999999989633
 51
90
  0
LINE
  8
_1-8_小物
  6
CONTINUOUS
 62
    4
 10
-101.43275999999969
 20
77.166669333333346
 11
-98.567305666666783
 21
77.1667153333334
  0
LINE
  8
_1-8_小物
  6
CONTINUOUS
 62
    4
 10
-98.666666666666671
 20
77.50678566666673
 11
-98.666666666666671
 21
77.166666666666771
  0
LINE
  8
_1-8_小物
  6
CONTINUOUS
 62
    4
 10
-100
 20
72.512080333333301
 11
-100
 21
71.833333333333428
  0
LINE
  8
_1-8_小物
  6
CONTINUOUS
 62
    4
 10
-99.466666666666555
 20
73.700000000000102
 11
-100.53332833333297
 21
73.700000000000102
  0
ARC
  8
_1-8_小物
  6
CONTINUOUS
 62
    4
 10
-99.991647333332978
 20
71.91177666666681
 40
0.5882826666666666
 50
90.813543000037654
 51
157.04087500001089
  0
ARC
  8
_1-8_小物
  6
CONTINUOUS
 62
    4
 10
-97.989195999999851
 20
72.324828000000082
 40
2.0184196666666665
 50
137.05379999998883
 51
175.02122199999758
  0
LINE
  8
_1-8_小物
  6
CONTINUOUS
 62
    4
 10
-100.53333333333316
 20
74.195517666666802
 11
-99.466666666666555
 21
74.509098000000023
  0
LINE
  8
_1-8_小物
  6
CONTINUOUS
 62
    4
 10
-100.53333333333316
 20
74.477777666666668
 11
-99.466666666666555
 21
74.791358000000088
  0
LINE
  8
_1-8_小物
  6
CONTINUOUS
 62
    4
 10
-100.77777766666654
 20
74.336647666666778
 11
-99.222222333333178
 21
74.650228000000112
  0
LINE
  8
_1-8_小物
  6
CONTINUOUS
 62
    4
 10
-100.77777766666654
 20
74.336647666666778
 11
-100.53333333333316
 21
74.195517666666802
  0
LINE
  8
_1-8_小物
  6
CONTINUOUS
 62
    4
 10
-100.77777766666654
 20
74.336647666666778
 11
-100.53333333333316
 21
74.477777666666668
  0
LINE
  8
_1-8_小物
  6
CONTINUOUS
 62
    4
 10
-99.222222333333178
 20
74.650228000000112
 11
-99.466666666666555
 21
74.509098000000023
  0
LINE
  8
_1-8_小物
  6
CONTINUOUS
 62
    4
 10
-99.466666666666555
 20
74.791358000000088
 11
-99.222222333333178
 21
74.650228000000112
  0
LINE
  8
_1-8_小物
  6
CONTINUOUS
 62
    4
 10
-100
 20
73.866277333333471
 11
-99.222222333333178
 21
74.023067333333529
  0
LINE
  8
_1-8_小物
  6
CONTINUOUS
 62
    4
 10
-99.222222333333178
 20
74.023067333333529
 11
-99.466666666666555
 21
73.881937333333354
  0
LINE
  8
_1-8_小物
  6
CONTINUOUS
 62
    4
 10
-99.466666666666555
 20
74.164197666666752
 11
-99.222222333333178
 21
74.023067333333529
  0
LINE
  8
_1-8_小物
  6
CONTINUOUS
 62
    4
 10
-98
 20
76.916666666666686
 11
-98.184921333332881
 21
77.046150000000068
  0
LINE
  8
_1-8_小物
  6
CONTINUOUS
 62
    4
 10
-100.53333333333316
 20
75.166666666666771
 11
-100.53333333333316
 21
75.104938333333337
  0
LINE
  8
_1-8_小物
  6
CONTINUOUS
 62
    4
 10
-100.53333333333316
 20
75.104938333333337
 11
-100.3233598478931
 21
75.166666666666771
  0
LINE
  8
_1-8_小物
  6
CONTINUOUS
 62
    4
 10
-100.77777766666654
 20
74.963808333333361
 11
-99.771471899947457
 21
75.166666666666771
  0
LINE
  8
_1-8_小物
  6
CONTINUOUS
 62
    4
 10
-99.413997887743193
 20
75.166666666666771
 11
-99.466666666666555
 21
75.136258333333387
  0
LINE
  8
_1-8_小物
  6
CONTINUOUS
 62
    4
 10
-99.466666666666555
 20
75.418518666666785
 11
-99.466666666666555
 21
75.763419000000141
  0
LINE
  8
_1-8_小物
  6
CONTINUOUS
 62
    4
 10
-99.466666666666555
 20
75.418518666666785
 11
-99.222222333333178
 21
75.277388333333363
  0
LINE
  8
_1-8_小物
  6
CONTINUOUS
 62
    4
 10
-100.53333333333316
 20
76.076999000000058
 11
-100.53333333333316
 21
75.732098666666786
  0
LINE
  8
_1-8_小物
  6
CONTINUOUS
 62
    4
 10
-99.466666666666555
 20
76.333333333333428
 11
-99.466666666666555
 21
76.045679000000121
  0
LINE
  8
_1-8_小物
  6
CONTINUOUS
 62
    4
 10
-100.53333333333316
 20
75.449838666666608
 11
-99.466666666666555
 21
75.763419000000141
  0
LINE
  8
_1-8_小物
  6
CONTINUOUS
 62
    4
 10
-100.53333333333316
 20
75.732098666666786
 11
-99.466666666666555
 21
76.045679000000121
  0
LINE
  8
_1-8_小物
  6
CONTINUOUS
 62
    4
 10
-100.77777766666654
 20
75.590968666666811
 11
-99.222222333333178
 21
75.904549000000031
  0
LINE
  8
_1-8_小物
  6
CONTINUOUS
 62
    4
 10
-100.77777766666654
 20
75.590968666666811
 11
-100.53333333333316
 21
75.449838666666608
  0
LINE
  8
_1-8_小物
  6
CONTINUOUS
 62
    4
 10
-100.77777766666654
 20
75.590968666666811
 11
-100.53333333333316
 21
75.732098666666786
  0
LINE
  8
_1-8_小物
  6
CONTINUOUS
 62
    4
 10
-99.222222333333178
 20
75.904549000000031
 11
-99.466666666666555
 21
75.763419000000141
  0
LINE
  8
_1-8_小物
  6
CONTINUOUS
 62
    4
 10
-99.466666666666555
 20
76.045679000000121
 11
-99.222222333333178
 21
75.904549000000031
  0
LINE
  8
_1-8_小物
  6
CONTINUOUS
 62
    4
 10
-99.661393333333166
 20
76.333333333333428
 11
-100.53333333333316
 21
76.076999000000058
  0
LINE
  8
_1-8_小物
  6
CONTINUOUS
 62
    4
 10
-100.20629266666644
 20
76.333333333333428
 11
-100.77777766666654
 21
76.218129333333565
  0
LINE
  8
_1-8_小物
  6
CONTINUOUS
 62
    4
 10
-100.77777766666654
 20
76.218129333333565
 11
-100.53333333333316
 21
76.076999000000058
  0
LINE
  8
_1-8_小物
  6
CONTINUOUS
 62
    4
 10
-100.57823833333291
 20
76.333333333333428
 11
-100.77777766666654
 21
76.218129333333565
  0
LINE
  8
_1-8_小物
  6
CONTINUOUS
 62
    4
 10
-100.53333333333316
 20
75.449838666666608
 11
-100.53333333333316
 21
75.166666666666771
  0
LINE
  8
_1-8_小物
  6
CONTINUOUS
 62
    4
 10
-100.3233598478931
 20
75.166666666666771
 11
-99.466666666666555
 21
75.418518666666785
  0
LINE
  8
_1-8_小物
  6
CONTINUOUS
 62
    4
 10
-99.771471899947457
 20
75.166666666666771
 11
-99.222222333333178
 21
75.277388333333363
  0
LINE
  8
_1-8_小物
  6
CONTINUOUS
 62
    4
 10
-99.222222333333178
 20
75.277388333333363
 11
-99.413997887743193
 21
75.166666666666771
  0
LINE
  8
_1-8_小物
  6
CONTINUOUS
 62
    4
 10
-101.66666666666667
 20
76.333333333333428
 11
-98.333333333333343
 21
76.333333333333428
  0
ENDBLK
  0
BLOCK
  2
-016-_16_
 70
   64
 10
0
 20
0
 30
0
  0
LINE
  8
_1-8_小物
  6
CONTINUOUS
 62
    4
 10
114.16666666884987
 20
71.833333333333371
 11
113.63333366884984
 21
72.141253333333452
  0
LINE
  8
_1-8_小物
  6
CONTINUOUS
 62
    4
 10
114.16666666884987
 20
71.833333333333371
 11
114.70000000218329
 21
72.141253333333452
  0
ARC
  8
_1-8_小物
  6
CONTINUOUS
 62
    4
 10
114.16666666884987
 20
76.138889000000063
 40
2.0277776666666663
 50
53.831357999998311
 51
126.1686420000017
  0
ARC
  8
_1-8_小物
  6
CONTINUOUS
 62
    4
 10
115.16666666884987
 20
77.506785666666644
 40
0.3333333333333333
 50
0
 51
53.831357999950008
  0
ARC
  8
_1-8_小物
  6
CONTINUOUS
 62
    4
 10
113.16666666884987
 20
77.506785666666644
 40
0.3333333333333333
 50
126.16864200000116
 51
180
  0
LINE
  8
_1-8_小物
  6
CONTINUOUS
 62
    4
 10
112.16666666884987
 20
76.916666666666629
 11
112.16666666884987
 21
76.666666666666742
  0
ARC
  8
_1-8_小物
  6
CONTINUOUS
 62
    4
 10
112.73390666885018
 20
76.50000266666683
 40
0.6666666666666666
 50
90
 51
124.99999999998016
  0
LINE
  8
_1-8_小物
  6
CONTINUOUS
 62
    4
 10
112.16666666884987
 20
76.916666666666629
 11
112.35152233551685
 21
77.046104000000241
  0
LINE
  8
_1-8_小物
  6
CONTINUOUS
 62
    4
 10
112.16666666884987
 20
76.916666666666629
 11
116.16666666884987
 21
76.916666666666629
  0
LINE
  8
_1-8_小物
  6
CONTINUOUS
 62
    4
 10
112.16666666884987
 20
76.666666666666742
 11
116.16666666884987
 21
76.666666666666742
  0
LINE
  8
_1-8_小物
  6
CONTINUOUS
 62
    4
 10
116.16666666884987
 20
76.916666666666629
 11
116.16666666884987
 21
76.666666666666742
  0
LINE
  8
_1-8_小物
  6
CONTINUOUS
 62
    4
 10
112.50000000218319
 20
76.666666666666742
 11
112.50000000218319
 21
76.333333333333371
  0
LINE
  8
_1-8_小物
  6
CONTINUOUS
 62
    4
 10
115.8333333355165
 20
76.666666666666742
 11
115.8333333355165
 21
76.333333333333371
  0
LINE
  8
_1-8_小物
  6
CONTINUOUS
 62
    4
 10
114.16666666884987
 20
73.866277333333414
 11
114.70000000218329
 21
73.881937333333269
  0
LINE
  8
_1-8_小物
  6
CONTINUOUS
 62
    4
 10
114.16666666884987
 20
73.866277333333414
 11
114.70000000218329
 21
74.164197666666666
  0
LINE
  8
_1-8_小物
  6
CONTINUOUS
 62
    4
 10
113.63333333551668
 20
74.822678000000053
 11
113.63333333551668
 21
74.477777666666611
  0
LINE
  8
_1-8_小物
  6
CONTINUOUS
 62
    4
 10
113.63333333551668
 20
74.195517666666717
 11
113.63333333551668
 21
72.141253333333452
  0
LINE
  8
_1-8_小物
  6
CONTINUOUS
 62
    4
 10
114.70000000218329
 20
75.13625833333333
 11
114.70000000218329
 21
74.791358000000002
  0
LINE
  8
_1-8_小物
  6
CONTINUOUS
 62
    4
 10
114.70000000218329
 20
74.509097999999938
 11
114.70000000218329
 21
74.164197666666666
  0
LINE
  8
_1-8_小物
  6
CONTINUOUS
 62
    4
 10
114.70000000218329
 20
73.881937333333269
 11
114.70000000218329
 21
72.141253333333452
  0
LINE
  8
_1-8_小物
  6
CONTINUOUS
 62
    4
 10
113.63333333551668
 20
74.822678000000053
 11
114.70000000218329
 21
75.13625833333333
  0
LINE
  8
_1-8_小物
  6
CONTINUOUS
 62
    4
 10
113.3888890021833
 20
74.963808333333304
 11
113.63333333551668
 21
74.822678000000053
  0
LINE
  8
_1-8_小物
  6
CONTINUOUS
 62
    4
 10
113.3888890021833
 20
74.963808333333304
 11
113.63333333551668
 21
75.10493833333328
  0
LINE
  8
_1-8_小物
  6
CONTINUOUS
 62
    4
 10
112.8333333355165
 20
77.506785666666644
 11
112.8333333355165
 21
77.166666666666686
  0
ARC
  8
_1-8_小物
  6
CONTINUOUS
 62
    4
 10
115.59936100218306
 20
76.500048666666572
 40
0.6666666666666666
 50
54.999999999994039
 51
90
  0
LINE
  8
_1-8_小物
  6
CONTINUOUS
 62
    4
 10
112.73390666885018
 20
77.166669333333289
 11
115.59936100218306
 21
77.166715333333315
  0
LINE
  8
_1-8_小物
  6
CONTINUOUS
 62
    4
 10
115.50000000218319
 20
77.506785666666644
 11
115.50000000218319
 21
77.166666666666686
  0
LINE
  8
_1-8_小物
  6
CONTINUOUS
 62
    4
 10
114.16666666884987
 20
72.512080333333216
 11
114.16666666884987
 21
71.833333333333371
  0
LINE
  8
_1-8_小物
  6
CONTINUOUS
 62
    4
 10
114.70000000218329
 20
73.700000000000045
 11
113.6333383355169
 21
73.700000000000045
  0
ARC
  8
_1-8_小物
  6
CONTINUOUS
 62
    4
 10
114.17501933551688
 20
71.911776666666725
 40
0.5882826666666666
 50
90.813543000039033
 51
157.04087500001251
  0
ARC
  8
_1-8_小物
  6
CONTINUOUS
 62
    4
 10
116.17747066884999
 20
72.324828000000025
 40
2.0184196666666665
 50
137.05379999998939
 51
175.02122199999769
  0
LINE
  8
_1-8_小物
  6
CONTINUOUS
 62
    4
 10
113.63333333551668
 20
74.195517666666717
 11
114.70000000218329
 21
74.509097999999938
  0
LINE
  8
_1-8_小物
  6
CONTINUOUS
 62
    4
 10
113.63333333551668
 20
74.477777666666611
 11
114.70000000218329
 21
74.791358000000002
  0
LINE
  8
_1-8_小物
  6
CONTINUOUS
 62
    4
 10
113.3888890021833
 20
74.336647666666693
 11
114.94444433551666
 21
74.650228000000027
  0
LINE
  8
_1-8_小物
  6
CONTINUOUS
 62
    4
 10
113.3888890021833
 20
74.336647666666693
 11
113.63333333551668
 21
74.195517666666717
  0
LINE
  8
_1-8_小物
  6
CONTINUOUS
 62
    4
 10
113.3888890021833
 20
74.336647666666693
 11
113.63333333551668
 21
74.477777666666611
  0
LINE
  8
_1-8_小物
  6
CONTINUOUS
 62
    4
 10
114.94444433551666
 20
74.650228000000027
 11
114.70000000218329
 21
74.509097999999938
  0
LINE
  8
_1-8_小物
  6
CONTINUOUS
 62
    4
 10
114.70000000218329
 20
74.791358000000002
 11
114.94444433551666
 21
74.650228000000027
  0
LINE
  8
_1-8_小物
  6
CONTINUOUS
 62
    4
 10
114.16666666884987
 20
73.866277333333414
 11
114.94444433551666
 21
74.023067333333444
  0
LINE
  8
_1-8_小物
  6
CONTINUOUS
 62
    4
 10
114.94444433551666
 20
74.023067333333444
 11
114.70000000218329
 21
73.881937333333269
  0
LINE
  8
_1-8_小物
  6
CONTINUOUS
 62
    4
 10
114.70000000218329
 20
74.164197666666666
 11
114.94444433551666
 21
74.023067333333444
  0
LINE
  8
_1-8_小物
  6
CONTINUOUS
 62
    4
 10
116.16666666884987
 20
76.916666666666629
 11
115.98174533551696
 21
77.046150000000011
  0
LINE
  8
_1-8_小物
  6
CONTINUOUS
 62
    4
 10
113.63333333551668
 20
75.166666666666686
 11
113.63333333551668
 21
75.10493833333328
  0
LINE
  8
_1-8_小物
  6
CONTINUOUS
 62
    4
 10
113.63333333551668
 20
75.10493833333328
 11
113.84330682095674
 21
75.166666666666686
  0
LINE
  8
_1-8_小物
  6
CONTINUOUS
 62
    4
 10
113.3888890021833
 20
74.963808333333304
 11
114.3951947689024
 21
75.166666666666686
  0
LINE
  8
_1-8_小物
  6
CONTINUOUS
 62
    4
 10
114.75266878110665
 20
75.166666666666686
 11
114.70000000218329
 21
75.13625833333333
  0
LINE
  8
_1-8_小物
  6
CONTINUOUS
 62
    4
 10
114.70000000218329
 20
75.418518666666728
 11
114.70000000218329
 21
75.763419000000056
  0
LINE
  8
_1-8_小物
  6
CONTINUOUS
 62
    4
 10
114.70000000218329
 20
75.418518666666728
 11
114.94444433551666
 21
75.277388333333306
  0
LINE
  8
_1-8_小物
  6
CONTINUOUS
 62
    4
 10
113.63333333551668
 20
76.076999000000001
 11
113.63333333551668
 21
75.73209866666673
  0
LINE
  8
_1-8_小物
  6
CONTINUOUS
 62
    4
 10
114.70000000218329
 20
76.333333333333371
 11
114.70000000218329
 21
76.045679000000064
  0
LINE
  8
_1-8_小物
  6
CONTINUOUS
 62
    4
 10
113.63333333551668
 20
75.449838666666551
 11
114.70000000218329
 21
75.763419000000056
  0
LINE
  8
_1-8_小物
  6
CONTINUOUS
 62
    4
 10
113.63333333551668
 20
75.73209866666673
 11
114.70000000218329
 21
76.045679000000064
  0
LINE
  8
_1-8_小物
  6
CONTINUOUS
 62
    4
 10
113.3888890021833
 20
75.590968666666754
 11
114.94444433551666
 21
75.904548999999975
  0
LINE
  8
_1-8_小物
  6
CONTINUOUS
 62
    4
 10
113.3888890021833
 20
75.590968666666754
 11
113.63333333551668
 21
75.449838666666551
  0
LINE
  8
_1-8_小物
  6
CONTINUOUS
 62
    4
 10
113.3888890021833
 20
75.590968666666754
 11
113.63333333551668
 21
75.73209866666673
  0
LINE
  8
_1-8_小物
  6
CONTINUOUS
 62
    4
 10
114.94444433551666
 20
75.904548999999975
 11
114.70000000218329
 21
75.763419000000056
  0
LINE
  8
_1-8_小物
  6
CONTINUOUS
 62
    4
 10
114.70000000218329
 20
76.045679000000064
 11
114.94444433551666
 21
75.904548999999975
  0
LINE
  8
_1-8_小物
  6
CONTINUOUS
 62
    4
 10
114.50527333551668
 20
76.333333333333371
 11
113.63333333551668
 21
76.076999000000001
  0
LINE
  8
_1-8_小物
  6
CONTINUOUS
 62
    4
 10
113.96037400218341
 20
76.333333333333371
 11
113.3888890021833
 21
76.218129333333479
  0
LINE
  8
_1-8_小物
  6
CONTINUOUS
 62
    4
 10
113.3888890021833
 20
76.218129333333479
 11
113.63333333551668
 21
76.076999000000001
  0
LINE
  8
_1-8_小物
  6
CONTINUOUS
 62
    4
 10
113.58842833551694
 20
76.333333333333371
 11
113.3888890021833
 21
76.218129333333479
  0
LINE
  8
_1-8_小物
  6
CONTINUOUS
 62
    4
 10
113.63333333551668
 20
75.449838666666551
 11
113.63333333551668
 21
75.166666666666686
  0
LINE
  8
_1-8_小物
  6
CONTINUOUS
 62
    4
 10
113.84330682095674
 20
75.166666666666686
 11
114.70000000218329
 21
75.418518666666728
  0
LINE
  8
_1-8_小物
  6
CONTINUOUS
 62
    4
 10
114.3951947689024
 20
75.166666666666686
 11
114.94444433551666
 21
75.277388333333306
  0
LINE
  8
_1-8_小物
  6
CONTINUOUS
 62
    4
 10
114.94444433551666
 20
75.277388333333306
 11
114.75266878110665
 21
75.166666666666686
  0
LINE
  8
_1-8_小物
  6
CONTINUOUS
 62
    4
 10
112.50000000218319
 20
76.333333333333371
 11
115.8333333355165
 21
76.333333333333371
  0
ENDBLK
  0
BLOCK
  2
-017-_17_
 70
   64
 10
0
 20
0
 30
0
  0
LINE
  8
_1-6_ばね
  6
CENTER2
 62
    4
 10
-121.01666666666642
 20
68.583333340650142
 11
-121.01666666666642
 21
75.2500000073168
  0
LINE
  8
_1-6_ばね
  6
CENTER2
 62
    4
 10
-117.6833333333331
 20
71.916666673983457
 11
-124.34999999999977
 21
71.916666673983457
  0
CIRCLE
  8
_1-6_ばね
  6
CONTINUOUS
 62
    4
 10
-121.01666666666642
 20
71.916666673983457
 40
1.5500000073166575
  0
LINE
  8
_1-6_ばね
  6
CONTINUOUS
 62
    4
 10
-119.3078252736253
 20
70.207825280942302
 11
-114.70282466290584
 21
74.812825891661788
  0
ARC
  8
_1-6_ばね
  6
CONTINUOUS
 62
    4
 10
-114.08999878587747
 20
74.200000014633474
 40
0.8666666666666667
 50
90
 51
135.00000000000267
  0
LINE
  8
_1-6_ばね
  6
CONTINUOUS
 62
    4
 10
-119.92065115065361
 20
70.820651157970644
 11
-115.3156505399342
 21
75.425651768690102
  0
ARC
  8
_1-6_ばね
  6
CONTINUOUS
 62
    4
 10
-114.08999878587751
 20
74.200000014633417
 40
1.7333333333333334
 50
90
 51
135
  0
LINE
  8
_1-6_ばね
  6
CENTER2
 62
    4
 10
-119.61423821213945
 20
70.514238219456445
 11
-115.00923760141995
 21
75.119238830175988
  0
ARC
  8
_1-6_ばね
  6
CENTER2
 62
    4
 10
-114.08999878587744
 20
74.200000014633474
 40
1.2999999999999998
 50
90
 51
134.99999999999957
  0
ARC
  8
_1-6_ばね
  6
CONTINUOUS
 62
    4
 10
-105.24999999999976
 20
74.200000014633417
 40
1.7333333333333334
 50
0
 51
90
  0
ARC
  8
_1-6_ばね
  6
CONTINUOUS
 62
    4
 10
-105.2499999999998
 20
74.200000014633474
 40
0.8666666666666667
 50
0
 51
90
  0
ARC
  8
_1-6_ばね
  6
CENTER2
 62
    4
 10
-105.24999999999976
 20
74.200000014633474
 40
1.2999999999999998
 50
0
 51
90
  0
LINE
  8
_1-6_ばね
  6
CONTINUOUS
 62
    4
 10
-104.36666666666643
 20
71.933333347966766
 11
-103.5333333333331
 21
71.933333347966766
  0
LINE
  8
_1-6_ばね
  6
CONTINUOUS
 62
    4
 10
-104.38333333333308
 20
71.933333347966766
 11
-104.38333333333308
 21
74.200000014633474
  0
LINE
  8
_1-6_ばね
  6
CENTER2
 62
    4
 10
-103.94999999999976
 20
71.933333347966766
 11
-103.94999999999976
 21
74.200000014633474
  0
LINE
  8
_1-6_ばね
  6
CONTINUOUS
 62
    4
 10
-103.51666666666645
 20
71.933333347966766
 11
-103.51666666666645
 21
74.200000014633417
  0
LINE
  8
_1-6_ばね
  6
CONTINUOUS
 62
    4
 10
-114.08999878587751
 20
75.933333347966766
 11
-105.24999999999976
 21
75.933333347966766
  0
LINE
  8
_1-6_ばね
  6
CENTER2
 62
    4
 10
-114.08999878587744
 20
75.500000014633457
 11
-105.24999999999976
 21
75.500000014633457
  0
LINE
  8
_1-6_ばね
  6
CONTINUOUS
 62
    4
 10
-114.08999878587747
 20
75.066666681300148
 11
-105.24999999999976
 21
75.066666681300148
  0
ARC
  8
_1-6_ばね
  6
CONTINUOUS
 62
    4
 10
-121.01666666666642
 20
71.916666673983457
 40
2.416666673983324
 50
5.1052516629139824
 51
315.00000000000045
  0
ARC
  8
_1-6_ばね
  6
CENTER2
 62
    4
 10
-121.01666666666642
 20
71.916666673983457
 40
1.9833333406499909
 50
353.60072244347879
 51
315.00000000000034
  0
LINE
  8
_1-6_ばね
  6
CONTINUOUS
 62
    4
 10
-106.46605367860859
 20
69.517254406194354
 11
-107.69577113477713
 21
71.872100086018577
  0
LINE
  8
_1-6_ばね
  6
CENTER2
 62
    4
 10
-106.85016668018665
 20
69.316667816920642
 11
-108.07988413635522
 21
71.671513496744808
  0
ARC
  8
_1-6_ばね
  6
CONTINUOUS
 62
    4
 10
-109.23222314108946
 20
71.069753728923757
 40
1.7333333333333334
 50
27.573889345971995
 51
82.573889345971807
  0
ARC
  8
_1-6_ばね
  6
CONTINUOUS
 62
    4
 10
-109.23222314108942
 20
71.069753728923757
 40
0.8666666666666667
 50
27.573889345973267
 51
82.573889345969945
  0
ARC
  8
_1-6_ばね
  6
CENTER2
 62
    4
 10
-109.23222314108943
 20
71.069753728923672
 40
1.2999999999999998
 50
27.573889345975775
 51
82.57388934597212
  0
LINE
  8
_1-6_ばね
  6
CONTINUOUS
 62
    4
 10
-107.23427968176472
 20
69.116081227646987
 11
-108.46399713793326
 21
71.470926907471181
  0
LINE
  8
_1-6_ばね
  6
CENTER2
 62
    4
 10
-117.30795538368731
 20
73.433346924936984
 11
-119.39104415042911
 21
73.704858287833559
  0
LINE
  8
_1-6_ばね
  6
CENTER2
 62
    4
 10
-109.06420138526721
 20
72.358849803531967
 11
-116.22363479409958
 21
73.292015760468018
  0
LINE
  8
_1-6_ばね
  6
CONTINUOUS
 62
    4
 10
-109.00819413332647
 20
72.788548495068085
 11
-115.83702684684326
 21
73.67862370772437
  0
LINE
  8
_1-6_ばね
  6
CONTINUOUS
 62
    4
 10
-116.92134743643101
 20
73.819954872193307
 11
-120.70432276556693
 21
74.313030733297552
  0
LINE
  8
_1-6_ばね
  6
CONTINUOUS
 62
    4
 10
-117.69456333094365
 20
73.046738977680661
 11
-118.97773728828869
 21
73.213988840266694
  0
LINE
  8
_1-6_ばね
  6
CONTINUOUS
 62
    4
 10
-109.12020863720794
 20
71.929151111995964
 11
-116.6102427413559
 21
72.905407813211696
  0
ARC
  8
_1-6_ばね
  6
CONTINUOUS
 62
    4
 10
-106.85016668415317
 20
69.316666666666833
 40
0.4333333333333333
 50
207.57375477576991
 51
27.574023915840939
  0
ENDBLK
  0
BLOCK
  2
-018-_18_
 70
   64
 10
0
 20
0
 30
0
  0
LINE
  8
_1-6_ばね
  6
CENTER2
 62
    4
 10
97.083333331150072
 20
89.000004003291508
 11
97.083333331150072
 21
82.333337336624851
  0
LINE
  8
_1-6_ばね
  6
CENTER2
 62
    4
 10
100.41666666448333
 20
85.666670669958194
 11
93.749999997816701
 21
85.666670669958194
  0
CIRCLE
  8
_1-6_ばね
  6
CONTINUOUS
 62
    4
 10
97.083333331150072
 20
85.666670669958194
 40
1.5500000021829385
  0
ARC
  8
_1-6_ばね
  6
CONTINUOUS
 62
    4
 10
108.37100639656597
 20
74.200000033266889
 40
0.8666666666666667
 50
90
 51
120.49335808176116
  0
ARC
  8
_1-6_ばね
  6
CONTINUOUS
 62
    4
 10
104.6623269367654
 20
75.033333389216864
 40
0.8666666666666667
 50
270
 51
300.49335808176113
  0
LINE
  8
_1-6_ばね
  6
CONTINUOUS
 62
    4
 10
104.6623269367654
 20
73.300000055883515
 11
99.649999999998784
 21
73.300000055883515
  0
LINE
  8
_1-6_ばね
  6
CONTINUOUS
 62
    4
 10
107.93122638349627
 20
74.946796291436158
 11
105.5418869629047
 21
73.539740872878411
  0
ARC
  8
_1-6_ばね
  6
CONTINUOUS
 62
    4
 10
104.6623269367654
 20
75.033333389216864
 40
1.7333333333333334
 50
270
 51
300.49335808175488
  0
ARC
  8
_1-6_ばね
  6
CONTINUOUS
 62
    4
 10
108.37100639656586
 20
74.200000033266861
 40
1.7333333333333334
 50
90
 51
120.49335808175535
  0
ARC
  8
_1-6_ばね
  6
CENTER2
 62
    4
 10
104.66232693676551
 20
75.033333389216779
 40
1.2999999999999998
 50
270
 51
300.49335808175232
  0
ARC
  8
_1-6_ばね
  6
CENTER2
 62
    4
 10
108.37100639656586
 20
74.200000033266804
 40
1.2999999999999998
 50
90
 51
120.49335808175448
  0
ARC
  8
_1-6_ばね
  6
CONTINUOUS
 62
    4
 10
99.649999999999125
 20
75.033333389216864
 40
0.8666666666666667
 50
180
 51
270
  0
ARC
  8
_1-6_ばね
  6
CONTINUOUS
 62
    4
 10
99.649999999998784
 20
75.033333389216864
 40
1.7333333333333334
 50
180
 51
270
  0
ARC
  8
_1-6_ばね
  6
CENTER2
 62
    4
 10
99.649999999999125
 20
75.033333389216779
 40
1.2999999999999998
 50
180
 51
270
  0
ARC
  8
_1-6_ばね
  6
CONTINUOUS
 62
    4
 10
112.71666666666573
 20
74.200000033266889
 40
0.8666666666666667
 50
0
 51
90
  0
LINE
  8
_1-6_ばね
  6
CONTINUOUS
 62
    4
 10
113.58333333333235
 20
73.400000033266963
 11
113.58333333333235
 21
74.200000033266917
  0
LINE
  8
_1-6_ばね
  6
CONTINUOUS
 62
    4
 10
114.44999999999914
 20
73.400000033266963
 11
114.44999999999914
 21
74.200000033266861
  0
ARC
  8
_1-6_ばね
  6
CONTINUOUS
 62
    4
 10
112.71666666666584
 20
74.200000033266861
 40
1.7333333333333334
 50
0
 51
90
  0
ARC
  8
_1-6_ばね
  6
CENTER2
 62
    4
 10
112.71666666666573
 20
74.200000033266804
 40
1.2999999999999998
 50
0
 51
90
  0
LINE
  8
_1-6_ばね
  6
CENTER2
 62
    4
 10
114.01666666666574
 20
73.400000033266963
 11
114.01666666666574
 21
74.200000033266804
  0
LINE
  8
_1-6_ばね
  6
CONTINUOUS
 62
    4
 10
117.18797934947656
 20
72.123259294735277
 11
119.23076453112719
 21
73.837359587232697
  0
LINE
  8
_1-6_ばね
  6
CONTINUOUS
 62
    4
 10
119.23076453112719
 20
73.837359587232697
 11
119.78784712618892
 21
73.173454403196217
  0
LINE
  8
_1-6_ばね
  6
CONTINUOUS
 62
    4
 10
117.74506194453824
 20
71.459354110698825
 11
119.78784712618892
 21
73.173454403196217
  0
LINE
  8
_1-6_ばね
  6
CENTER2
 62
    4
 10
117.46652064700743
 20
71.791306702717065
 11
119.50930582865806
 21
73.505406995214457
  0
ARC
  8
_1-6_ばね
  6
CONTINUOUS
 62
    4
 10
116.11666666666582
 20
73.400000033266906
 40
1.6666666666666665
 50
179.99999999999804
 51
309.99999999999829
  0
ARC
  8
_1-6_ばね
  6
CENTER2
 62
    4
 10
116.11666666666582
 20
73.400000033266906
 40
2.0999999999999996
 50
179.99999999999844
 51
309.99999999999733
  0
ARC
  8
_1-6_ばね
  6
CONTINUOUS
 62
    4
 10
116.11666666666582
 20
73.400000033266906
 40
2.5333333333333328
 50
179.99999999999872
 51
309.99999999999665
  0
LINE
  8
_1-6_ばね
  6
CONTINUOUS
 62
    4
 10
112.71666666666573
 20
75.066666699933563
 11
108.37100639656597
 21
75.066666699933563
  0
LINE
  8
_1-6_ばね
  6
CONTINUOUS
 62
    4
 10
112.71666666666584
 20
75.933333366600209
 11
108.37100639656586
 21
75.933333366600209
  0
LINE
  8
_1-6_ばね
  6
CENTER2
 62
    4
 10
104.66232693676551
 20
73.733333389216796
 11
99.649999999999125
 21
73.733333389216796
  0
LINE
  8
_1-6_ばね
  6
CONTINUOUS
 62
    4
 10
107.49144637042656
 20
75.693592549605256
 11
105.1021069498351
 21
74.286537131047567
  0
LINE
  8
_1-6_ばね
  6
CONTINUOUS
 62
    4
 10
104.6623269367654
 20
74.16666672255019
 11
99.649999999999125
 21
74.16666672255019
  0
LINE
  8
_1-6_ばね
  6
CENTER2
 62
    4
 10
112.71666666666573
 20
75.500000033266815
 11
108.37100639656586
 21
75.500000033266815
  0
LINE
  8
_1-6_ばね
  6
CENTER2
 62
    4
 10
107.76586593291444
 20
75.352306269726341
 11
105.32199695637001
 21
73.913139001962975
  0
LINE
  8
_1-6_ばね
  6
CONTINUOUS
 62
    4
 10
95.10371588899676
 20
84.280527614191016
 11
97.759931771716026
 21
80.4870581958088
  0
LINE
  8
_1-6_ばね
  6
CONTINUOUS
 62
    4
 10
97.916666666665549
 20
79.989958617637853
 11
97.916666666665549
 21
75.033333389216864
  0
LINE
  8
_1-6_ばね
  6
CONTINUOUS
 62
    4
 10
95.813647660713798
 20
84.777627192361962
 11
98.469863543433405
 21
80.984157773979319
  0
LINE
  8
_1-6_ばね
  6
CONTINUOUS
 62
    4
 10
98.78333333333245
 20
79.989958617637512
 11
98.78333333333245
 21
75.033333389216864
  0
LINE
  8
_1-6_ばね
  6
CENTER2
 62
    4
 10
95.458681774855279
 20
84.529077403276489
 11
98.114897657574772
 21
80.735607984893988
  0
LINE
  8
_1-6_ばね
  6
CENTER2
 62
    4
 10
98.349999999999056
 20
79.989958617637626
 11
98.349999999999056
 21
75.033333389216779
  0
ARC
  8
_1-6_ばね
  6
CONTINUOUS
 62
    4
 10
97.049999999998875
 20
79.989958617637853
 40
0.8666666666666667
 50
0
 51
34.999999999998103
  0
ARC
  8
_1-6_ばね
  6
CONTINUOUS
 62
    4
 10
97.049999999999159
 20
79.989958617637512
 40
1.7333333333333334
 50
0
 51
35.00000000000103
  0
ARC
  8
_1-6_ばね
  6
CENTER2
 62
    4
 10
97.049999999999102
 20
79.989958617637626
 40
1.2999999999999998
 50
0
 51
35.000000000000568
  0
LINE
  8
_1-6_ばね
  6
CONTINUOUS
 62
    4
 10
97.602377766422364
 20
80.71206863442319
 11
93.548770065994574
 21
71.180415642120522
  0
LINE
  8
_1-6_ばね
  6
CONTINUOUS
 62
    4
 10
92.751229934005892
 20
71.519592364462397
 11
97.016457816024854
 21
81.548849043693735
  0
LINE
  8
_1-6_ばね
  6
CONTINUOUS
 62
    4
 10
99.307243316588824
 20
84.720889424112016
 11
98.002157643648957
 21
81.652111022498048
  0
ARC
  8
_1-6_ばね
  6
CONTINUOUS
 62
    4
 10
97.083333331150072
 20
85.666670669958194
 40
2.4166666688496052
 50
336.96099060802413
 51
214.99999999999864
  0
ARC
  8
_1-6_ばね
  6
CENTER2
 62
    4
 10
97.083333331150072
 20
85.666670669958194
 40
1.9833333355162719
 50
336.9609906080226
 51
215.00000000000171
  0
ARC
  8
_1-6_ばね
  6
CONTINUOUS
 62
    4
 10
97.083333331150072
 20
85.666670669958194
 40
2.4166666688496052
 50
265.10525171980134
 51
336.96099060802413
  0
ARC
  8
_1-6_ばね
  6
CENTER2
 62
    4
 10
97.083333331150072
 20
85.666670669958194
 40
1.9833333355162719
 50
253.60072249540849
 51
336.9609906080226
  0
LINE
  8
_1-6_ばね
  6
CENTER2
 62
    4
 10
97.709197668450145
 20
82.070501227133377
 11
98.368078236948008
 21
83.619792970789319
  0
LINE
  8
_1-6_ばね
  6
CONTINUOUS
 62
    4
 10
97.416237693251446
 20
82.488891431768621
 11
97.784077167247915
 21
83.35382915690559
  0
LINE
  8
_1-6_ばね
  6
CENTER2
 62
    4
 10
93.150000000000318
 20
71.350004003291417
 11
97.309417791223609
 21
81.130458839058463
  0
ARC
  8
_1-6_ばね
  6
CONTINUOUS
 62
    4
 10
93.150000000000318
 20
71.350004003291417
 40
0.4333333333333333
 50
156.96099060802416
 51
336.96099060802464
  0
ENDBLK
  0
BLOCK
  2
-019-_19_
 70
   64
 10
0
 20
0
 30
0
  0
LINE
  8
_1-8_小物
  6
CONTINUOUS
 62
    4
 10
123.00000000000028
 20
69.5
 11
117
 21
69.5
  0
LINE
  8
_1-8_小物
  6
CONTINUOUS
 62
    4
 10
123.00000000000028
 20
69
 11
117
 21
69
  0
LINE
  8
_1-8_小物
  6
CONTINUOUS
 62
    4
 10
123.00000000000028
 20
69.5
 11
123.00000000000028
 21
69
  0
LINE
  8
_1-8_小物
  6
CONTINUOUS
 62
    4
 10
117
 20
69.5
 11
117
 21
69
  0
LINE
  8
_1-8_小物
  6
CONTINUOUS
 62
    4
 10
121.50000000000028
 20
69.5
 11
121.46369573873346
 21
69.914959605000035
  0
LINE
  8
_1-8_小物
  6
CONTINUOUS
 62
    4
 10
118.53630426123345
 20
69.914959605000035
 11
118.50000000000028
 21
69.5
  0
ARC
  8
_1-8_小物
  6
CONTINUOUS
 62
    4
 10
118.86504851163318
 20
69.886198209899931
 40
0.3299999999999999
 50
127.36755803205445
 51
175.00000000120406
  0
ARC
  8
_1-8_小物
  6
CONTINUOUS
 62
    4
 10
121.13495148836682
 20
69.886198209899931
 40
0.3299999999999999
 50
4.9999999987967998
 51
52.632441967953397
  0
ARC
  8
_1-8_小物
  6
CONTINUOUS
 62
    4
 10
120
 20
68.399999999999977
 40
2.1999999999999997
 50
52.632441967705518
 51
68.266383543398845
  0
ARC
  8
_1-8_小物
  6
CONTINUOUS
 62
    4
 10
120
 20
68.399999999999977
 40
2.1999999999999997
 50
111.74840859090426
 51
127.36755803230515
  0
LINE
  8
_1-8_小物
  6
CONTINUOUS
 62
    4
 10
120.10500000000013
 20
70.586375709866729
 11
120.10500000000013
 21
70.441104079866591
  0
LINE
  8
_1-8_小物
  6
CONTINUOUS
 62
    4
 10
120.22076289396711
 20
70.586375709866729
 11
120.10500000000013
 21
70.586375709866729
  0
LINE
  8
_1-8_小物
  6
CONTINUOUS
 62
    4
 10
120.81416775616674
 20
70.441104079866591
 11
120.22076289396711
 21
70.586375709866729
  0
LINE
  8
_1-8_小物
  6
CONTINUOUS
 62
    4
 10
119.7792371060001
 20
70.586375709866729
 11
119.34593368343332
 21
70.497897102733418
  0
LINE
  8
_1-8_小物
  6
CONTINUOUS
 62
    4
 10
119.34593368343332
 20
70.497897102733418
 11
119.18583224380046
 21
70.441104079866591
  0
LINE
  8
_1-8_小物
  6
CONTINUOUS
 62
    4
 10
119.8950000000001
 20
70.586375709866729
 11
119.7792371060001
 21
70.586375709866729
  0
LINE
  8
_1-8_小物
  6
CONTINUOUS
 62
    4
 10
119.8950000000001
 20
70.441104079866591
 11
119.8950000000001
 21
70.586375709866729
  0
LINE
  8
_1-8_小物
  6
CONTINUOUS
 62
    4
 10
120.10500000000013
 20
70.441104079866591
 11
120
 21
70.442805804666705
  0
LINE
  8
_1-8_小物
  6
CONTINUOUS
 62
    4
 10
120
 20
70.442805804666705
 11
119.8950000000001
 21
70.441104079866591
  0
LINE
  8
_1-8_小物
  6
CONTINUOUS
 62
    4
 10
121.46369573873346
 20
69.914959605000035
 11
118.53630426123345
 21
69.914959605000035
  0
LINE
  8
_1-8_小物
  6
CONTINUOUS
 62
    4
 10
120
 20
70.148468482233397
 11
118.66476295483335
 21
70.148468482233397
  0
LINE
  8
_1-8_小物
  6
CONTINUOUS
 62
    4
 10
121.33523704513357
 20
70.148468482233397
 11
120
 21
70.148468482233397
  0
ENDBLK
  0
BLOCK
  2
-020-_20_
 70
   64
 10
0
 20
0
 30
0
  0
LINE
  8
_1-8_小物
  6
CONTINUOUS
 62
    4
 10
93.499999999999602
 20
76.833337336624538
 11
93.499999999999602
 21
82.833337336624879
  0
LINE
  8
_1-8_小物
  6
CONTINUOUS
 62
    4
 10
92.999999999999602
 20
76.833337336624538
 11
92.999999999999602
 21
82.833337336624879
  0
LINE
  8
_1-8_小物
  6
CONTINUOUS
 62
    4
 10
93.499999999999602
 20
76.833337336624538
 11
92.999999999999602
 21
76.833337336624538
  0
LINE
  8
_1-8_小物
  6
CONTINUOUS
 62
    4
 10
93.499999999999602
 20
82.833337336624879
 11
92.999999999999602
 21
82.833337336624879
  0
LINE
  8
_1-8_小物
  6
CONTINUOUS
 62
    4
 10
93.499999999999602
 20
78.333337336624538
 11
93.914959604999638
 21
78.369641597891416
  0
LINE
  8
_1-8_小物
  6
CONTINUOUS
 62
    4
 10
93.914959604999638
 20
81.297033075391425
 11
93.499999999999602
 21
81.333337336624538
  0
ARC
  8
_1-8_小物
  6
CONTINUOUS
 62
    4
 10
93.886198209899533
 20
80.968288824991703
 40
0.3299999999999999
 50
37.367558032054447
 51
85.000000001204057
  0
ARC
  8
_1-8_小物
  6
CONTINUOUS
 62
    4
 10
93.886198209899533
 20
78.698385848258056
 40
0.3299999999999999
 50
274.9999999987964
 51
322.63244196794949
  0
ARC
  8
_1-8_小物
  6
CONTINUOUS
 62
    4
 10
92.399999999999579
 20
79.833337336624879
 40
2.1999999999999997
 50
322.63244196770495
 51
338.26638354339843
  0
ARC
  8
_1-8_小物
  6
CONTINUOUS
 62
    4
 10
92.399999999999579
 20
79.833337336624879
 40
2.1999999999999997
 50
21.748408590903569
 51
37.367558032305141
  0
LINE
  8
_1-8_小物
  6
CONTINUOUS
 62
    4
 10
94.586375709866331
 20
79.728337336624747
 11
94.441104079866193
 21
79.728337336624747
  0
LINE
  8
_1-8_小物
  6
CONTINUOUS
 62
    4
 10
94.586375709866331
 20
79.612574442657717
 11
94.586375709866331
 21
79.728337336624747
  0
LINE
  8
_1-8_小物
  6
CONTINUOUS
 62
    4
 10
94.441104079866193
 20
79.01916958045814
 11
94.586375709866331
 21
79.612574442657717
  0
LINE
  8
_1-8_小物
  6
CONTINUOUS
 62
    4
 10
94.586375709866331
 20
80.054100230624783
 11
94.49789710273302
 21
80.487403653191507
  0
LINE
  8
_1-8_小物
  6
CONTINUOUS
 62
    4
 10
94.49789710273302
 20
80.487403653191507
 11
94.441104079866193
 21
80.64750509282436
  0
LINE
  8
_1-8_小物
  6
CONTINUOUS
 62
    4
 10
94.586375709866331
 20
79.938337336624784
 11
94.586375709866331
 21
80.054100230624783
  0
LINE
  8
_1-8_小物
  6
CONTINUOUS
 62
    4
 10
94.441104079866193
 20
79.938337336624784
 11
94.586375709866331
 21
79.938337336624784
  0
LINE
  8
_1-8_小物
  6
CONTINUOUS
 62
    4
 10
94.441104079866193
 20
79.728337336624747
 11
94.442805804666307
 21
79.833337336624879
  0
LINE
  8
_1-8_小物
  6
CONTINUOUS
 62
    4
 10
94.442805804666307
 20
79.833337336624879
 11
94.441104079866193
 21
79.938337336624784
  0
LINE
  8
_1-8_小物
  6
CONTINUOUS
 62
    4
 10
93.914959604999638
 20
78.369641597891416
 11
93.914959604999638
 21
81.297033075391425
  0
LINE
  8
_1-8_小物
  6
CONTINUOUS
 62
    4
 10
94.148468482233
 20
79.833337336624879
 11
94.148468482233
 21
81.16857438179153
  0
LINE
  8
_1-8_小物
  6
CONTINUOUS
 62
    4
 10
94.148468482233
 20
78.498100291491312
 11
94.148468482233
 21
79.833337336624879
  0
ENDBLK
  0
BLOCK
  2
-021-_21_
 70
   64
 10
0
 20
0
 30
0
  0
LINE
  8
_1-8_小物
  6
CONTINUOUS
 62
    4
 10
-76.999999999999659
 20
69.5
 11
-82.999999999999972
 21
69.5
  0
LINE
  8
_1-8_小物
  6
CONTINUOUS
 62
    4
 10
-76.999999999999659
 20
69
 11
-82.999999999999972
 21
69
  0
LINE
  8
_1-8_小物
  6
CONTINUOUS
 62
    4
 10
-76.999999999999659
 20
69.5
 11
-76.999999999999659
 21
69
  0
LINE
  8
_1-8_小物
  6
CONTINUOUS
 62
    4
 10
-82.999999999999972
 20
69.5
 11
-82.999999999999972
 21
69
  0
LINE
  8
_1-8_小物
  6
CONTINUOUS
 62
    4
 10
-78.499999999999659
 20
69.5
 11
-78.536304261266508
 21
69.914959605000035
  0
LINE
  8
_1-8_小物
  6
CONTINUOUS
 62
    4
 10
-81.463695738766518
 20
69.914959605000035
 11
-81.499999999999659
 21
69.5
  0
ARC
  8
_1-8_小物
  6
CONTINUOUS
 62
    4
 10
-81.134951488366795
 20
69.886198209899931
 40
0.3299999999999999
 50
127.36755803205052
 51
175.00000000120363
  0
ARC
  8
_1-8_小物
  6
CONTINUOUS
 62
    4
 10
-78.865048511633148
 20
69.886198209899931
 40
0.3299999999999999
 50
4.9999999987963699
 51
52.632441967949475
  0
ARC
  8
_1-8_小物
  6
CONTINUOUS
 62
    4
 10
-79.999999999999972
 20
68.399999999999977
 40
2.1999999999999997
 50
52.632441967704935
 51
68.266383543398163
  0
ARC
  8
_1-8_小物
  6
CONTINUOUS
 62
    4
 10
-79.999999999999972
 20
68.399999999999977
 40
2.1999999999999997
 50
111.74840859090358
 51
127.36755803230515
  0
LINE
  8
_1-8_小物
  6
CONTINUOUS
 62
    4
 10
-79.89499999999984
 20
70.586375709866729
 11
-79.89499999999984
 21
70.441104079866591
  0
LINE
  8
_1-8_小物
  6
CONTINUOUS
 62
    4
 10
-79.779237106032838
 20
70.586375709866729
 11
-79.89499999999984
 21
70.586375709866729
  0
LINE
  8
_1-8_小物
  6
CONTINUOUS
 62
    4
 10
-79.185832243833232
 20
70.441104079866591
 11
-79.779237106032838
 21
70.586375709866729
  0
LINE
  8
_1-8_小物
  6
CONTINUOUS
 62
    4
 10
-80.220762893999876
 20
70.586375709866729
 11
-80.654066316566627
 21
70.497897102733418
  0
LINE
  8
_1-8_小物
  6
CONTINUOUS
 62
    4
 10
-80.654066316566627
 20
70.497897102733418
 11
-80.814167756199481
 21
70.441104079866591
  0
LINE
  8
_1-8_小物
  6
CONTINUOUS
 62
    4
 10
-80.104999999999876
 20
70.586375709866729
 11
-80.220762893999876
 21
70.586375709866729
  0
LINE
  8
_1-8_小物
  6
CONTINUOUS
 62
    4
 10
-80.104999999999876
 20
70.441104079866591
 11
-80.104999999999876
 21
70.586375709866729
  0
LINE
  8
_1-8_小物
  6
CONTINUOUS
 62
    4
 10
-79.89499999999984
 20
70.441104079866591
 11
-79.999999999999972
 21
70.442805804666705
  0
LINE
  8
_1-8_小物
  6
CONTINUOUS
 62
    4
 10
-79.999999999999972
 20
70.442805804666705
 11
-80.104999999999876
 21
70.441104079866591
  0
LINE
  8
_1-8_小物
  6
CONTINUOUS
 62
    4
 10
-78.536304261266508
 20
69.914959605000035
 11
-81.463695738766518
 21
69.914959605000035
  0
LINE
  8
_1-8_小物
  6
CONTINUOUS
 62
    4
 10
-79.999999999999972
 20
70.148468482233397
 11
-81.335237045166622
 21
70.148468482233397
  0
LINE
  8
_1-8_小物
  6
CONTINUOUS
 62
    4
 10
-78.664762954866404
 20
70.148468482233397
 11
-79.999999999999972
 21
70.148468482233397
  0
ENDBLK
  0
BLOCK
  2
-022-_22_
 70
   64
 10
0
 20
0
 30
0
  0
LINE
  8
_1-8_小物
  6
CONTINUOUS
 62
    4
 10
-116.99999999999952
 20
70.000000000000114
 11
-122.99999999999982
 21
70.000000000000114
  0
LINE
  8
_1-8_小物
  6
CONTINUOUS
 62
    4
 10
-116.99999999999952
 20
69.500000000000114
 11
-122.99999999999982
 21
69.500000000000114
  0
LINE
  8
_1-8_小物
  6
CONTINUOUS
 62
    4
 10
-116.99999999999952
 20
70.000000000000114
 11
-116.99999999999952
 21
69.500000000000114
  0
LINE
  8
_1-8_小物
  6
CONTINUOUS
 62
    4
 10
-122.99999999999982
 20
70.000000000000114
 11
-122.99999999999982
 21
69.500000000000114
  0
LINE
  8
_1-8_小物
  6
CONTINUOUS
 62
    4
 10
-118.49999999999952
 20
70.000000000000114
 11
-118.53630426126635
 21
70.414959605000149
  0
LINE
  8
_1-8_小物
  6
CONTINUOUS
 62
    4
 10
-121.46369573876636
 20
70.414959605000149
 11
-121.49999999999952
 21
70.000000000000114
  0
ARC
  8
_1-8_小物
  6
CONTINUOUS
 62
    4
 10
-121.13495148836664
 20
70.386198209900044
 40
0.3299999999999999
 50
127.36755803205249
 51
175.00000000120386
  0
ARC
  8
_1-8_小物
  6
CONTINUOUS
 62
    4
 10
-118.86504851163299
 20
70.386198209900044
 40
0.3299999999999999
 50
4.9999999987961541
 51
52.632441967947514
  0
ARC
  8
_1-8_小物
  6
CONTINUOUS
 62
    4
 10
-119.99999999999982
 20
68.900000000000091
 40
2.1999999999999997
 50
52.632441967704636
 51
68.266383543397822
  0
ARC
  8
_1-8_小物
  6
CONTINUOUS
 62
    4
 10
-119.99999999999982
 20
68.900000000000091
 40
2.1999999999999997
 50
111.74840859090322
 51
127.36755803230515
  0
LINE
  8
_1-8_小物
  6
CONTINUOUS
 62
    4
 10
-119.89499999999968
 20
71.086375709866843
 11
-119.89499999999968
 21
70.941104079866705
  0
LINE
  8
_1-8_小物
  6
CONTINUOUS
 62
    4
 10
-119.7792371060327
 20
71.086375709866843
 11
-119.89499999999968
 21
71.086375709866843
  0
LINE
  8
_1-8_小物
  6
CONTINUOUS
 62
    4
 10
-119.18583224383308
 20
70.941104079866705
 11
-119.7792371060327
 21
71.086375709866843
  0
LINE
  8
_1-8_小物
  6
CONTINUOUS
 62
    4
 10
-120.22076289399972
 20
71.086375709866843
 11
-120.65406631656649
 21
70.997897102733532
  0
LINE
  8
_1-8_小物
  6
CONTINUOUS
 62
    4
 10
-120.65406631656649
 20
70.997897102733532
 11
-120.81416775619934
 21
70.941104079866705
  0
LINE
  8
_1-8_小物
  6
CONTINUOUS
 62
    4
 10
-120.10499999999972
 20
71.086375709866843
 11
-120.22076289399972
 21
71.086375709866843
  0
LINE
  8
_1-8_小物
  6
CONTINUOUS
 62
    4
 10
-120.10499999999972
 20
70.941104079866705
 11
-120.10499999999972
 21
71.086375709866843
  0
LINE
  8
_1-8_小物
  6
CONTINUOUS
 62
    4
 10
-119.89499999999968
 20
70.941104079866705
 11
-119.99999999999982
 21
70.942805804666818
  0
LINE
  8
_1-8_小物
  6
CONTINUOUS
 62
    4
 10
-119.99999999999982
 20
70.942805804666818
 11
-120.10499999999972
 21
70.941104079866705
  0
LINE
  8
_1-8_小物
  6
CONTINUOUS
 62
    4
 10
-118.53630426126635
 20
70.414959605000149
 11
-121.46369573876636
 21
70.414959605000149
  0
LINE
  8
_1-8_小物
  6
CONTINUOUS
 62
    4
 10
-119.99999999999982
 20
70.648468482233511
 11
-121.33523704516647
 21
70.648468482233511
  0
LINE
  8
_1-8_小物
  6
CONTINUOUS
 62
    4
 10
-118.66476295486625
 20
70.648468482233511
 11
-119.99999999999982
 21
70.648468482233511
  0
ENDBLK
  0
BLOCK
  2
-023-_23_
 70
   64
 10
0
 20
0
 30
0
  0
LINE
  8
_1-5_ア__ム
  6
CONTINUOUS
 62
    4
 10
-123.33333333333334
 20
75.999999962733227
 11
-123.33333333333334
 21
72.333333407833436
  0
ARC
  8
_1-5_ア__ム
  6
CONTINUOUS
 62
    4
 10
-121.66666666666667
 20
72.333333407833436
 40
1.6666666666666665
 50
180
 51
270
  0
LINE
  8
_1-5_ア__ム
  6
CONTINUOUS
 62
    4
 10
-76.666666666666686
 20
75.999999981366642
 11
-76.666666666666686
 21
72.333333407833436
  0
ARC
  8
_1-5_ア__ム
  6
CONTINUOUS
 62
    4
 10
-78.333333333333343
 20
72.333333407833436
 40
1.6666666666666665
 50
270
 51
0
  0
LINE
  8
_1-5_ア__ム
  6
CONTINUOUS
 62
    4
 10
-123.33333333333334
 20
75.999999981366642
 11
-76.666666666666686
 21
75.999999981366642
  0
LINE
  8
_1-5_ア__ム
  6
DASHED1
 62
    4
 10
-123.33333333333334
 20
75.066666662666705
 11
-76.666666666666686
 21
75.066666662666705
  0
LINE
  8
_1-5_ア__ム
  6
CONTINUOUS
 62
    4
 10
-121.66666666666667
 20
70.666666741166779
 11
-78.333333333333343
 21
70.666666741166779
  0
LINE
  8
_1-5_ア__ム
  6
DASHED1
 62
    4
 10
-123.33333333333334
 20
74.333333329333357
 11
-76.666666666666686
 21
74.333333329333357
  0
LINE
  8
_1-5_ア__ム
  6
DASHED1
 62
    4
 10
-119.33333333333334
 20
75.066666662666705
 11
-119.33333333333334
 21
74.333333329333357
  0
LINE
  8
_1-5_ア__ム
  6
DASHED1
 62
    4
 10
-113.9999999999997
 20
75.066666662666705
 11
-113.9999999999997
 21
74.333333329333357
  0
LINE
  8
_1-5_ア__ム
  6
DASHED1
 62
    4
 10
-105.00000000000016
 20
75.066666662666705
 11
-105.00000000000016
 21
74.333333329333357
  0
LINE
  8
_1-5_ア__ム
  6
DASHED1
 62
    4
 10
-102.99999999999986
 20
75.066666662666705
 11
-102.99999999999986
 21
74.333333329333357
  0
LINE
  8
_1-5_ア__ム
  6
DASHED1
 62
    4
 10
-117
 20
75.066666662666705
 11
-117
 21
74.333333329333357
  0
LINE
  8
_1-5_ア__ム
  6
DASHED1
 62
    4
 10
-108.66666666666667
 20
75.066666662666705
 11
-108.66666666666667
 21
74.333333329333357
  0
LINE
  8
_1-5_ア__ム
  6
DASHED1
 62
    4
 10
-104.33333333333334
 20
75.066666662666705
 11
-104.33333333333334
 21
74.333333329333357
  0
ENDBLK
  0
BLOCK
  2
-024-_24_
 70
   64
 10
0
 20
0
 30
0
  0
LINE
  8
_1-5_ア__ム
  6
CONTINUOUS
 62
    4
 10
99.499999999999659
 20
75.999999981366642
 11
99.499999999999659
 21
72.333333426466879
  0
ARC
  8
_1-5_ア__ム
  6
CONTINUOUS
 62
    4
 10
101.16666666666629
 20
72.333333426466879
 40
1.6666666666666665
 50
180
 51
270
  0
LINE
  8
_1-5_ア__ム
  6
DASHED1
 62
    4
 10
103.49999999999955
 20
75.066666681300148
 11
103.49999999999955
 21
74.333328393535282
  0
LINE
  8
_1-5_ア__ム
  6
DASHED1
 62
    4
 10
108.83333333333326
 20
75.066666681300148
 11
108.83333333333326
 21
74.333328393535282
  0
LINE
  8
_1-5_ア__ム
  6
CONTINUOUS
 62
    4
 10
123.49999999999966
 20
76.000000000000057
 11
123.49999999999966
 21
72.333333426466879
  0
ARC
  8
_1-5_ア__ム
  6
CONTINUOUS
 62
    4
 10
121.83333333333292
 20
72.333333426466879
 40
1.6666666666666665
 50
270
 51
0
  0
LINE
  8
_1-5_ア__ム
  6
CONTINUOUS
 62
    4
 10
99.499999999999659
 20
76.000000000000057
 11
123.49999999999966
 21
76.000000000000057
  0
LINE
  8
_1-5_ア__ム
  6
DASHED1
 62
    4
 10
99.499999999999659
 20
75.066666681300148
 11
123.49999999999966
 21
75.066666681300148
  0
LINE
  8
_1-5_ア__ム
  6
DASHED1
 62
    4
 10
99.499999999999659
 20
74.333328393535282
 11
123.49999999999966
 21
74.333328393535282
  0
LINE
  8
_1-5_ア__ム
  6
CONTINUOUS
 62
    4
 10
101.16666666666629
 20
70.666666759800194
 11
121.83333333333292
 21
70.666666759800194
  0
LINE
  8
_1-5_ア__ム
  6
DASHED1
 62
    4
 10
112.73333333333255
 20
75.066666681300148
 11
112.73333333333255
 21
74.333328393535282
  0
LINE
  8
_1-5_ア__ム
  6
DASHED1
 62
    4
 10
115.53333333333251
 20
75.066666681300148
 11
115.53333333333251
 21
74.333328393535282
  0
LINE
  8
_1-5_ア__ム
  6
DASHED1
 62
    4
 10
114.19999999999914
 20
75.066666681300148
 11
114.19999999999914
 21
74.333328393535282
  0
LINE
  8
_1-5_ア__ム
  6
DASHED1
 62
    4
 10
121.3999999999993
 20
74.333328393535282
 11
121.3999999999993
 21
75.066666681300148
  0
ENDBLK
  0
BLOCK
  2
-025-_25_
 70
   64
 10
0
 20
0
 30
0
  0
ARC
  8
_1-7_カバ__
  6
CONTINUOUS
 62
    4
 10
99.999999999999659
 20
76.500000000000057
 40
0.1666666666666666
 50
180
 51
270
  0
ARC
  8
_1-7_カバ__
  6
CONTINUOUS
 62
    4
 10
99.999999999999659
 20
76.500000000000057
 40
0.5
 50
180
 51
270
  0
ARC
  8
_1-7_カバ__
  6
CONTINUOUS
 62
    4
 10
127.8333333376994
 20
75.8333333333334
 40
0.1666666666666666
 50
0
 51
90
  0
LINE
  8
_1-7_カバ__
  6
CONTINUOUS
 62
    4
 10
128.00000000436609
 20
75.8333333333334
 11
128.00000000436609
 21
72.166666666666742
  0
ARC
  8
_1-7_カバ__
  6
CONTINUOUS
 62
    4
 10
127.8333333376994
 20
72.166666666666742
 40
0.1666666666666666
 50
270
 51
0
  0
ARC
  8
_1-7_カバ__
  6
CONTINUOUS
 62
    4
 10
127.8333333376994
 20
72.166666666666742
 40
0.5
 50
270
 51
0
  0
LINE
  8
_1-7_カバ__
  6
CONTINUOUS
 62
    4
 10
128.3333333376994
 20
75.8333333333334
 11
128.3333333376994
 21
72.166666666666742
  0
ARC
  8
_1-7_カバ__
  6
CONTINUOUS
 62
    4
 10
127.8333333376994
 20
75.8333333333334
 40
0.5
 50
0
 51
90
  0
LINE
  8
_1-7_カバ__
  6
CONTINUOUS
 62
    4
 10
125.00000000436609
 20
72.000000000000057
 11
125.00000000436609
 21
71.666666666666742
  0
LINE
  8
_1-7_カバ__
  6
CONTINUOUS
 62
    4
 10
127.8333333376994
 20
72.000000000000057
 11
125.00000000436609
 21
72.000000000000057
  0
LINE
  8
_1-7_カバ__
  6
CONTINUOUS
 62
    4
 10
127.8333333376994
 20
71.666666666666742
 11
125.00000000436609
 21
71.666666666666742
  0
LINE
  8
_1-7_カバ__
  6
CONTINUOUS
 62
    4
 10
99.999999999999659
 20
76.3333333333334
 11
127.8333333376994
 21
76.3333333333334
  0
LINE
  8
_1-7_カバ__
  6
CONTINUOUS
 62
    4
 10
99.999999999999659
 20
76.000000000000057
 11
127.8333333376994
 21
76.000000000000057
  0
LINE
  8
_1-7_カバ__
  6
CENTER2
 62
    4
 10
114.16666666884953
 20
78.000000000000057
 11
114.16666666884953
 21
74.166666666666799
  0
LINE
  8
_1-7_カバ__
  6
DASHED1
 62
    4
 10
115.08333333551616
 20
76.3333333333334
 11
115.08333333551616
 21
76.000000000000057
  0
LINE
  8
_1-7_カバ__
  6
DASHED1
 62
    4
 10
113.2500000021829
 20
76.3333333333334
 11
113.2500000021829
 21
76.000000000000057
  0
ARC
  8
_1-7_カバ__
  6
CONTINUOUS
 62
    4
 10
95.666666666665947
 20
91.000000000000057
 40
0.1666666666666666
 50
90
 51
180
  0
LINE
  8
_1-7_カバ__
  6
CONTINUOUS
 62
    4
 10
99.333333333332916
 20
91.166666666666742
 11
95.666666666665947
 21
91.166666666666742
  0
ARC
  8
_1-7_カバ__
  6
CONTINUOUS
 62
    4
 10
99.333333333332916
 20
91.000000000000057
 40
0.1666666666666666
 50
0
 51
90
  0
ARC
  8
_1-7_カバ__
  6
CONTINUOUS
 62
    4
 10
99.333333333332916
 20
91.000000000000057
 40
0.5
 50
0
 51
90
  0
LINE
  8
_1-7_カバ__
  6
CONTINUOUS
 62
    4
 10
99.333333333332916
 20
91.500000000000057
 11
95.666666666665947
 21
91.500000000000057
  0
ARC
  8
_1-7_カバ__
  6
CONTINUOUS
 62
    4
 10
95.666666666665947
 20
91.000000000000057
 40
0.5
 50
90
 51
180
  0
LINE
  8
_1-7_カバ__
  6
CONTINUOUS
 62
    4
 10
95.499999999999318
 20
88.166666666666885
 11
95.166666666665947
 21
88.166666666666885
  0
LINE
  8
_1-7_カバ__
  6
CONTINUOUS
 62
    4
 10
95.499999999999318
 20
91.000000000000057
 11
95.499999999999318
 21
88.166666666666885
  0
LINE
  8
_1-7_カバ__
  6
CONTINUOUS
 62
    4
 10
95.166666666665947
 20
91.000000000000057
 11
95.166666666665947
 21
88.166666666666885
  0
LINE
  8
_1-7_カバ__
  6
CONTINUOUS
 62
    4
 10
99.499999999999659
 20
76.500006352925908
 11
99.499999999999659
 21
91.000000000000057
  0
LINE
  8
_1-7_カバ__
  6
CONTINUOUS
 62
    4
 10
99.833333333332916
 20
76.500006352925908
 11
99.833333333332916
 21
91.000000000000057
  0
ENDBLK
  0
BLOCK
  2
-026-_26_
 70
   64
 10
0
 20
0
 30
0
  0
LINE
  8
_0-0_図面枠
  6
CONTINUOUS
 62
    7
 10
-17.103643301208507
 20
124.78846734235105
 11
-17.633973387058489
 21
124.48231430040107
  0
LINE
  8
_0-0_図面枠
  6
CONTINUOUS
 62
    7
 10
-16.197776643308515
 20
122.83680745630102
 11
-17.103643301208507
 21
124.78846734235105
  0
LINE
  8
_0-0_図面枠
  6
CONTINUOUS
 62
    7
 10
-19.578517035358487
 20
123.35975314665103
 11
-16.197776643308515
 21
122.83680745630102
  0
LINE
  8
_0-0_図面枠
  6
CONTINUOUS
 62
    7
 10
-19.048186949458483
 20
123.66590618860107
 11
-19.578517035358487
 21
123.35975314665103
  0
LINE
  8
_0-0_図面枠
  6
CONTINUOUS
 62
    7
 10
-23.64438102715846
 20
126.31923255200104
 11
-19.048186949458483
 21
123.66590618860107
  0
LINE
  8
_0-0_図面枠
  6
CONTINUOUS
 62
    7
 10
-28.240575104858493
 20
123.66590618860107
 11
-23.64438102715846
 21
126.31923255200104
  0
LINE
  8
_0-0_図面枠
  6
CONTINUOUS
 62
    7
 10
-27.710245019008511
 20
123.35975314665103
 11
-28.240575104858493
 21
123.66590618860107
  0
LINE
  8
_0-0_図面枠
  6
CONTINUOUS
 62
    7
 10
-31.090985411008518
 20
122.83680745630102
 11
-27.710245019008511
 21
123.35975314665103
  0
LINE
  8
_0-0_図面枠
  6
CONTINUOUS
 62
    7
 10
-30.185118753158491
 20
124.78846734235105
 11
-31.090985411008518
 21
122.83680745630102
  0
LINE
  8
_0-0_図面枠
  6
CONTINUOUS
 62
    7
 10
-29.654788667258487
 20
124.48231430040107
 11
-30.185118753158491
 21
124.78846734235105
  0
LINE
  8
_0-0_図面枠
  6
CONTINUOUS
 62
    7
 10
-25.05859458955851
 20
127.13564066385106
 11
-29.654788667258487
 21
124.48231430040107
  0
LINE
  8
_0-0_図面枠
  6
CONTINUOUS
 62
    7
 10
-29.654788667258487
 20
129.78896702725103
 11
-25.05859458955851
 21
127.13564066385106
  0
LINE
  8
_0-0_図面枠
  6
CONTINUOUS
 62
    7
 10
-30.185118753158491
 20
129.48281398535107
 11
-29.654788667258487
 21
129.78896702725103
  0
LINE
  8
_0-0_図面枠
  6
CONTINUOUS
 62
    7
 10
-31.090985411008518
 20
131.43447387140105
 11
-30.185118753158491
 21
129.48281398535107
  0
LINE
  8
_0-0_図面枠
  6
CONTINUOUS
 62
    7
 10
-27.710245019008511
 20
130.91152818105104
 11
-31.090985411008518
 21
131.43447387140105
  0
LINE
  8
_0-0_図面枠
  6
CONTINUOUS
 62
    7
 10
-28.240575104858493
 20
130.60537513910106
 11
-27.710245019008511
 21
130.91152818105104
  0
LINE
  8
_0-0_図面枠
  6
CONTINUOUS
 62
    7
 10
-23.64438102715846
 20
127.95204877565106
 11
-28.240575104858493
 21
130.60537513910106
  0
LINE
  8
_0-0_図面枠
  6
CONTINUOUS
 62
    7
 10
-19.048186949458483
 20
130.60537513910106
 11
-23.64438102715846
 21
127.95204877565106
  0
LINE
  8
_0-0_図面枠
  6
CONTINUOUS
 62
    7
 10
-19.578517035358487
 20
130.91152818105104
 11
-19.048186949458483
 21
130.60537513910106
  0
LINE
  8
_0-0_図面枠
  6
CONTINUOUS
 62
    7
 10
-16.197776643308515
 20
131.43447387140105
 11
-19.578517035358487
 21
130.91152818105104
  0
LINE
  8
_0-0_図面枠
  6
CONTINUOUS
 62
    7
 10
-17.103643301208507
 20
129.48281398535107
 11
-16.197776643308515
 21
131.43447387140105
  0
LINE
  8
_0-0_図面枠
  6
CONTINUOUS
 62
    7
 10
-17.633973387058489
 20
129.78896702725103
 11
-17.103643301208507
 21
129.48281398535107
  0
LINE
  8
_0-0_図面枠
  6
CONTINUOUS
 62
    7
 10
-22.230167464808488
 20
127.13564066385106
 11
-17.633973387058489
 21
129.78896702725103
  0
LINE
  8
_0-0_図面枠
  6
CONTINUOUS
 62
    7
 10
-17.633973387058489
 20
124.48231430040107
 11
-22.230167464808488
 21
127.13564066385106
  0
LINE
  8
_0-0_図面枠
  6
CONTINUOUS
 62
    7
 10
-31.090985411008518
 20
122.83680745630102
 11
-31.090985411008518
 21
122.22440184740105
  0
LINE
  8
_0-0_図面枠
  6
CONTINUOUS
 62
    7
 10
-27.710245019008511
 20
123.35975314665103
 11
-27.710245019008511
 21
122.74734753775107
  0
LINE
  8
_0-0_図面枠
  6
CONTINUOUS
 62
    7
 10
-31.090985411008518
 20
122.22440184740105
 11
-27.710245019008511
 21
122.74734753775107
  0
LINE
  8
_0-0_図面枠
  6
CONTINUOUS
 62
    7
 10
-19.578517035358487
 20
123.35975314665103
 11
-19.578517035358487
 21
122.74734753775107
  0
LINE
  8
_0-0_図面枠
  6
CONTINUOUS
 62
    7
 10
-16.197776643308515
 20
122.83680745630102
 11
-16.197776643308515
 21
122.22440184740105
  0
LINE
  8
_0-0_図面枠
  6
CONTINUOUS
 62
    7
 10
-19.578517035358487
 20
122.74734753775107
 11
-16.197776643308515
 21
122.22440184740105
  0
LINE
  8
_0-0_図面枠
  6
CONTINUOUS
 62
    7
 10
-23.64438102715846
 20
126.31923255200104
 11
-23.64438102715846
 21
125.70682694310108
  0
LINE
  8
_0-0_図面枠
  6
CONTINUOUS
 62
    7
 10
-27.710245019008511
 20
123.35965362160107
 11
-23.64438102715846
 21
125.70682694310108
  0
LINE
  8
_0-0_図面枠
  6
CONTINUOUS
 62
    7
 10
-23.64438102715846
 20
125.70682694310108
 11
-19.578517035358487
 21
123.35965362160107
  0
LINE
  8
_0-0_図面枠
  6
CONTINUOUS
 62
    7
 10
-29.654788667258487
 20
129.78896702725103
 11
-29.654788667258487
 21
129.17656141835107
  0
LINE
  8
_0-0_図面枠
  6
CONTINUOUS
 62
    7
 10
-29.654788667258487
 20
129.17656141835107
 11
-25.589010876008473
 21
126.82943785940108
  0
LINE
  8
_0-0_図面枠
  6
CONTINUOUS
 62
    7
 10
-17.633973387058489
 20
129.78896702725103
 11
-17.633973387058489
 21
129.17656141835107
  0
LINE
  8
_0-0_図面枠
  6
CONTINUOUS
 62
    7
 10
-21.699751178358468
 20
126.82943785940108
 11
-17.633973387058489
 21
129.17656141835107
  0
LINE
  8
_0-0_図面枠
  6
CONTINUOUS
 62
    7
 10
-17.103643301208507
 20
129.48281398535107
 11
-17.103643301208507
 21
128.87040837640103
  0
LINE
  8
_0-0_図面枠
  6
CONTINUOUS
 62
    7
 10
-17.633973387058489
 20
129.17656141835107
 11
-17.103643301208507
 21
128.87040837640103
  0
LINE
  8
_0-0_図面枠
  6
CONTINUOUS
 62
    7
 10
-16.197776643308515
 20
131.43447387140105
 11
-16.197776643308515
 21
130.82206826250103
  0
LINE
  8
_0-0_図面枠
  6
CONTINUOUS
 62
    7
 10
-17.103643301208507
 20
128.87040837640103
 11
-16.197776643308515
 21
130.82206826250103
  0
LINE
  8
_0-0_図面枠
  6
CONTINUOUS
 62
    7
 10
-30.185118753158491
 20
129.48281398535107
 11
-30.185118753158491
 21
128.87040837640103
  0
LINE
  8
_0-0_図面枠
  6
CONTINUOUS
 62
    7
 10
-30.185118753158491
 20
128.87040837640103
 11
-29.654788667258487
 21
129.17656141835107
  0
LINE
  8
_0-0_図面枠
  6
CONTINUOUS
 62
    7
 10
-31.090985411008518
 20
131.43447387140105
 11
-31.090985411008518
 21
130.82206826250103
  0
LINE
  8
_0-0_図面枠
  6
CONTINUOUS
 62
    7
 10
-31.090985411008518
 20
130.82206826250103
 11
-30.185118753158491
 21
128.87040837640103
  0
LINE
  8
_0-0_図面枠
  6
CONTINUOUS
 62
    7
 10
-19.578517035358487
 20
130.91152818105104
 11
-19.578517035358487
 21
130.29922209715107
  0
LINE
  8
_0-0_図面枠
  6
CONTINUOUS
 62
    7
 10
-27.710245019008511
 20
130.91152818105104
 11
-27.710245019008511
 21
130.29922209715107
  0
LINE
  8
ADD_LINE
  6
DOT
 62
    4
 10
-31.090985411008518
 20
131.43447387140105
 11
-16.198180070863003
 21
122.83610869927935
  0
LINE
  8
ADD_LINE
  6
DOT
 62
    4
 10
-16.197776643308515
 20
131.43447387140105
 11
-31.090581983453916
 21
122.83610869927935
  0
ENDBLK
  0
BLOCK
  2
-027-_27_
 70
   64
 10
0
 20
0
 30
0
  0
LINE
  8
_0-0_図面枠
  6
CONTINUOUS
 62
    7
 10
181.88186991188218
 20
125.54988384232558
 11
181.35153982603214
 21
125.2437308003756
  0
LINE
  8
_0-0_図面枠
  6
CONTINUOUS
 62
    7
 10
182.78773656978217
 20
123.59822395627555
 11
181.88186991188218
 21
125.54988384232558
  0
LINE
  8
_0-0_図面枠
  6
CONTINUOUS
 62
    7
 10
179.4069961777322
 20
124.12116964662556
 11
182.78773656978217
 21
123.59822395627555
  0
LINE
  8
_0-0_図面枠
  6
CONTINUOUS
 62
    7
 10
179.9373262636322
 20
124.4273226885756
 11
179.4069961777322
 21
124.12116964662556
  0
LINE
  8
_0-0_図面枠
  6
CONTINUOUS
 62
    7
 10
175.34113218593217
 20
127.08064905197557
 11
179.9373262636322
 21
124.4273226885756
  0
LINE
  8
_0-0_図面枠
  6
CONTINUOUS
 62
    7
 10
170.74493810823213
 20
124.4273226885756
 11
175.34113218593217
 21
127.08064905197557
  0
LINE
  8
_0-0_図面枠
  6
CONTINUOUS
 62
    7
 10
171.27526819408217
 20
124.12116964662556
 11
170.74493810823213
 21
124.4273226885756
  0
LINE
  8
_0-0_図面枠
  6
CONTINUOUS
 62
    7
 10
167.89452780208217
 20
123.59822395627555
 11
171.27526819408217
 21
124.12116964662556
  0
LINE
  8
_0-0_図面枠
  6
CONTINUOUS
 62
    7
 10
168.80039445993219
 20
125.54988384232558
 11
167.89452780208217
 21
123.59822395627555
  0
LINE
  8
_0-0_図面枠
  6
CONTINUOUS
 62
    7
 10
169.3307245458322
 20
125.2437308003756
 11
168.80039445993219
 21
125.54988384232558
  0
LINE
  8
_0-0_図面枠
  6
CONTINUOUS
 62
    7
 10
173.92691862353217
 20
127.89705716382559
 11
169.3307245458322
 21
125.2437308003756
  0
LINE
  8
_0-0_図面枠
  6
CONTINUOUS
 62
    7
 10
169.3307245458322
 20
130.55038352722556
 11
173.92691862353217
 21
127.89705716382559
  0
LINE
  8
_0-0_図面枠
  6
CONTINUOUS
 62
    7
 10
168.80039445993219
 20
130.2442304853256
 11
169.3307245458322
 21
130.55038352722556
  0
LINE
  8
_0-0_図面枠
  6
CONTINUOUS
 62
    7
 10
167.89452780208217
 20
132.19589037137558
 11
168.80039445993219
 21
130.2442304853256
  0
LINE
  8
_0-0_図面枠
  6
CONTINUOUS
 62
    7
 10
171.27526819408217
 20
131.67294468102557
 11
167.89452780208217
 21
132.19589037137558
  0
LINE
  8
_0-0_図面枠
  6
CONTINUOUS
 62
    7
 10
170.74493810823213
 20
131.36679163907559
 11
171.27526819408217
 21
131.67294468102557
  0
LINE
  8
_0-0_図面枠
  6
CONTINUOUS
 62
    7
 10
175.34113218593217
 20
128.71346527562559
 11
170.74493810823213
 21
131.36679163907559
  0
LINE
  8
_0-0_図面枠
  6
CONTINUOUS
 62
    7
 10
179.9373262636322
 20
131.36679163907559
 11
175.34113218593217
 21
128.71346527562559
  0
LINE
  8
_0-0_図面枠
  6
CONTINUOUS
 62
    7
 10
179.4069961777322
 20
131.67294468102557
 11
179.9373262636322
 21
131.36679163907559
  0
LINE
  8
_0-0_図面枠
  6
CONTINUOUS
 62
    7
 10
182.78773656978217
 20
132.19589037137558
 11
179.4069961777322
 21
131.67294468102557
  0
LINE
  8
_0-0_図面枠
  6
CONTINUOUS
 62
    7
 10
181.88186991188218
 20
130.2442304853256
 11
182.78773656978217
 21
132.19589037137558
  0
LINE
  8
_0-0_図面枠
  6
CONTINUOUS
 62
    7
 10
181.35153982603214
 20
130.55038352722556
 11
181.88186991188218
 21
130.2442304853256
  0
LINE
  8
_0-0_図面枠
  6
CONTINUOUS
 62
    7
 10
176.7553457482822
 20
127.89705716382559
 11
181.35153982603214
 21
130.55038352722556
  0
LINE
  8
_0-0_図面枠
  6
CONTINUOUS
 62
    7
 10
181.35153982603214
 20
125.2437308003756
 11
176.7553457482822
 21
127.89705716382559
  0
LINE
  8
_0-0_図面枠
  6
CONTINUOUS
 62
    7
 10
167.89452780208217
 20
123.59822395627555
 11
167.89452780208217
 21
122.98581834737558
  0
LINE
  8
_0-0_図面枠
  6
CONTINUOUS
 62
    7
 10
171.27526819408217
 20
124.12116964662556
 11
171.27526819408217
 21
123.5087640377256
  0
LINE
  8
_0-0_図面枠
  6
CONTINUOUS
 62
    7
 10
167.89452780208217
 20
122.98581834737558
 11
171.27526819408217
 21
123.5087640377256
  0
LINE
  8
_0-0_図面枠
  6
CONTINUOUS
 62
    7
 10
179.4069961777322
 20
124.12116964662556
 11
179.4069961777322
 21
123.5087640377256
  0
LINE
  8
_0-0_図面枠
  6
CONTINUOUS
 62
    7
 10
182.78773656978217
 20
123.59822395627555
 11
182.78773656978217
 21
122.98581834737558
  0
LINE
  8
_0-0_図面枠
  6
CONTINUOUS
 62
    7
 10
179.4069961777322
 20
123.5087640377256
 11
182.78773656978217
 21
122.98581834737558
  0
LINE
  8
_0-0_図面枠
  6
CONTINUOUS
 62
    7
 10
175.34113218593217
 20
127.08064905197557
 11
175.34113218593217
 21
126.46824344307561
  0
LINE
  8
_0-0_図面枠
  6
CONTINUOUS
 62
    7
 10
171.27526819408217
 20
124.1210701215756
 11
175.34113218593217
 21
126.46824344307561
  0
LINE
  8
_0-0_図面枠
  6
CONTINUOUS
 62
    7
 10
175.34113218593217
 20
126.46824344307561
 11
179.4069961777322
 21
124.1210701215756
  0
LINE
  8
_0-0_図面枠
  6
CONTINUOUS
 62
    7
 10
169.3307245458322
 20
130.55038352722556
 11
169.3307245458322
 21
129.9379779183256
  0
LINE
  8
_0-0_図面枠
  6
CONTINUOUS
 62
    7
 10
169.3307245458322
 20
129.9379779183256
 11
173.39650233708215
 21
127.59085435937561
  0
LINE
  8
_0-0_図面枠
  6
CONTINUOUS
 62
    7
 10
181.35153982603214
 20
130.55038352722556
 11
181.35153982603214
 21
129.9379779183256
  0
LINE
  8
_0-0_図面枠
  6
CONTINUOUS
 62
    7
 10
177.28576203473216
 20
127.59085435937561
 11
181.35153982603214
 21
129.9379779183256
  0
LINE
  8
_0-0_図面枠
  6
CONTINUOUS
 62
    7
 10
181.88186991188218
 20
130.2442304853256
 11
181.88186991188218
 21
129.63182487637556
  0
LINE
  8
_0-0_図面枠
  6
CONTINUOUS
 62
    7
 10
181.35153982603214
 20
129.9379779183256
 11
181.88186991188218
 21
129.63182487637556
  0
LINE
  8
_0-0_図面枠
  6
CONTINUOUS
 62
    7
 10
182.78773656978217
 20
132.19589037137558
 11
182.78773656978217
 21
131.58348476247556
  0
LINE
  8
_0-0_図面枠
  6
CONTINUOUS
 62
    7
 10
181.88186991188218
 20
129.63182487637556
 11
182.78773656978217
 21
131.58348476247556
  0
LINE
  8
_0-0_図面枠
  6
CONTINUOUS
 62
    7
 10
168.80039445993219
 20
130.2442304853256
 11
168.80039445993219
 21
129.63182487637556
  0
LINE
  8
_0-0_図面枠
  6
CONTINUOUS
 62
    7
 10
168.80039445993219
 20
129.63182487637556
 11
169.3307245458322
 21
129.9379779183256
  0
LINE
  8
_0-0_図面枠
  6
CONTINUOUS
 62
    7
 10
167.89452780208217
 20
132.19589037137558
 11
167.89452780208217
 21
131.58348476247556
  0
LINE
  8
_0-0_図面枠
  6
CONTINUOUS
 62
    7
 10
167.89452780208217
 20
131.58348476247556
 11
168.80039445993219
 21
129.63182487637556
  0
LINE
  8
_0-0_図面枠
  6
CONTINUOUS
 62
    7
 10
179.4069961777322
 20
131.67294468102557
 11
179.4069961777322
 21
131.0606385971256
  0
LINE
  8
_0-0_図面枠
  6
CONTINUOUS
 62
    7
 10
171.27526819408217
 20
131.67294468102557
 11
171.27526819408217
 21
131.0606385971256
  0
LINE
  8
ADD_LINE
  6
DOT
 62
    4
 10
167.89452780208217
 20
132.19589037137558
 11
182.78733314222762
 21
123.59752519925388
  0
LINE
  8
ADD_LINE
  6
DOT
 62
    4
 10
182.78773656978217
 20
132.19589037137558
 11
167.89493122963671
 21
123.59752519925388
  0
ENDBLK
  0
BLOCK
  2
-028-_28_
 70
   64
 10
0
 20
0
 30
0
  0
ARC
  8
_1-8_小物
  6
CONTINUOUS
 62
    4
 10
-75.000000000000028
 20
71.766666666666794
 40
0.0999999999999999
 50
180
 51
270
  0
ARC
  8
_1-8_小物
  6
CONTINUOUS
 62
    4
 10
-72.333333333333371
 20
71.000000000000114
 40
0.1666666666666666
 50
0
 51
90
  0
LINE
  8
_1-8_小物
  6
CONTINUOUS
 62
    4
 10
-75.100000000000051
 20
72.333333333333428
 11
-75.100000000000051
 21
71.766666666666794
  0
LINE
  8
_1-8_小物
  6
CONTINUOUS
 62
    4
 10
-71.666666666666714
 20
70.666666666666771
 11
-71.928133894909678
 21
67.678082572391531
  0
ARC
  8
_1-8_小物
  6
CONTINUOUS
 62
    4
 10
-72.260198794273578
 20
67.70713448664074
 40
0.3333333333333333
 50
116.53346871300016
 51
355.00000000000205
  0
ARC
  8
_1-8_小物
  6
CONTINUOUS
 62
    4
 10
-72.558012463094173
 20
68.303583531495434
 40
0.3333333333333333
 50
296.53346871300016
 51
358.57633437499754
  0
LINE
  8
_1-8_小物
  6
CONTINUOUS
 62
    4
 10
-72.166666666666714
 20
70.633687633488137
 11
-72.224782025439964
 21
68.295301832883752
  0
LINE
  8
_1-8_小物
  6
CONTINUOUS
 62
    4
 10
-72.166666666666714
 20
71.000000000000114
 11
-72.166666666666714
 21
70.633687633488137
  0
LINE
  8
_1-8_小物
  6
CONTINUOUS
 62
    4
 10
-75.000000000000028
 20
71.166666666666771
 11
-72.333333333333371
 21
71.166666666666771
  0
ARC
  8
_1-8_小物
  6
CONTINUOUS
 62
    4
 10
-75.000000000000028
 20
71.766666666666794
 40
0.5999999999999999
 50
180
 51
270
  0
LINE
  8
_1-8_小物
  6
CONTINUOUS
 62
    4
 10
-75.000000000000028
 20
71.666666666666771
 11
-72.000000000000028
 21
71.666666666666771
  0
LINE
  8
_1-8_小物
  6
CONTINUOUS
 62
    4
 10
-71.666666666666714
 20
70.666666666666771
 11
-71.666666666666714
 21
71.333333333333428
  0
ARC
  8
_1-8_小物
  6
CONTINUOUS
 62
    4
 10
-72.000000000000028
 20
71.333333333333428
 40
0.3333333333333333
 50
0
 51
90
  0
LINE
  8
_1-8_小物
  6
CONTINUOUS
 62
    4
 10
-75.600000000000051
 20
72.333333333333428
 11
-75.600000000000051
 21
71.766666666666794
  0
ARC
  8
_1-8_小物
  6
CONTINUOUS
 62
    4
 10
-75.000000000000028
 20
72.333333333333428
 40
0.5999999999999999
 50
74.999999999999744
 51
180
  0
LINE
  8
_1-8_小物
  6
CONTINUOUS
 62
    4
 10
-74.64277770039763
 20
72.250649156423862
 11
-73.863383592174216
 21
72.07024731589388
  0
ARC
  8
_1-8_小物
  6
CONTINUOUS
 62
    4
 10
-72.650019680266382
 20
72.518356063614647
 40
0.1666666666666662
 50
326.96758300231824
 51
146.96758300232642
  0
LINE
  8
_1-8_小物
  6
CONTINUOUS
 62
    4
 10
-72.782849359421505
 20
72.008322678321747
 11
-72.51029263259403
 21
72.427503821338803
  0
LINE
  8
_1-8_小物
  6
CONTINUOUS
 62
    4
 10
-73.863383592174216
 20
72.07024731589388
 11
-73.19509664359947
 21
72.001099335058825
  0
LINE
  8
_1-8_小物
  6
CONTINUOUS
 62
    4
 10
-73.19509664359947
 20
72.001099335058825
 11
-72.782849359421505
 21
72.008322678321747
  0
LINE
  8
_1-8_小物
  6
CONTINUOUS
 62
    4
 10
-72.886731136551873
 20
72.460050236190682
 11
-72.789746727938734
 21
72.609208305890462
  0
LINE
  8
_1-8_小物
  6
CONTINUOUS
 62
    4
 10
-74.864698619602535
 20
72.917878914501017
 11
-72.886731136551873
 21
72.460050236190682
  0
LINE
  8
_1-8_小物
  6
CONTINUOUS
 62
    4
 10
-74.6202274703314
 20
72.348073419951788
 11
-74.64277770039763
 21
72.250649156423862
  0
ARC
  8
_1-8_小物
  6
CONTINUOUS
 62
    4
 10
-75.000000000000028
 20
72.333333333333428
 40
0.0999999999999999
 50
76.967583002316431
 51
180
  0
LINE
  8
_1-8_小物
  6
CONTINUOUS
 62
    4
 10
-74.977449769933799
 20
72.430757596861355
 11
-74.6202274703314
 21
72.348073419951788
  0
ENDBLK
  0
BLOCK
  2
-029-_29_
 70
   64
 10
0
 20
0
 30
0
  0
ARC
  8
_1-8_小物
  6
CONTINUOUS
 62
    4
 10
-124.99999999999999
 20
71.766666666666794
 40
0.0999999999999999
 50
270
 51
0
  0
ARC
  8
_1-8_小物
  6
CONTINUOUS
 62
    4
 10
-127.66666666666663
 20
71.000000000000114
 40
0.1666666666666666
 50
90
 51
180
  0
LINE
  8
_1-8_小物
  6
CONTINUOUS
 62
    4
 10
-124.89999999999996
 20
72.333333333333428
 11
-124.89999999999996
 21
71.766666666666794
  0
LINE
  8
_1-8_小物
  6
CONTINUOUS
 62
    4
 10
-128.33333333333331
 20
70.666666666666771
 11
-128.07186610509035
 21
67.678082572391531
  0
ARC
  8
_1-8_小物
  6
CONTINUOUS
 62
    4
 10
-127.73980120572644
 20
67.70713448664074
 40
0.3333333333333333
 50
184.99999999999818
 51
63.466531286997679
  0
ARC
  8
_1-8_小物
  6
CONTINUOUS
 62
    4
 10
-127.44198753690584
 20
68.303583531495434
 40
0.3333333333333333
 50
181.42366562500246
 51
243.46653128699765
  0
LINE
  8
_1-8_小物
  6
CONTINUOUS
 62
    4
 10
-127.8333333333333
 20
70.633687633488137
 11
-127.77521797456005
 21
68.295301832883752
  0
LINE
  8
_1-8_小物
  6
CONTINUOUS
 62
    4
 10
-127.8333333333333
 20
71.000000000000114
 11
-127.8333333333333
 21
70.633687633488137
  0
LINE
  8
_1-8_小物
  6
CONTINUOUS
 62
    4
 10
-124.99999999999999
 20
71.166666666666771
 11
-127.66666666666663
 21
71.166666666666771
  0
ARC
  8
_1-8_小物
  6
CONTINUOUS
 62
    4
 10
-124.99999999999999
 20
71.766666666666794
 40
0.5999999999999999
 50
270
 51
0
  0
LINE
  8
_1-8_小物
  6
CONTINUOUS
 62
    4
 10
-124.99999999999999
 20
71.666666666666771
 11
-127.99999999999999
 21
71.666666666666771
  0
LINE
  8
_1-8_小物
  6
CONTINUOUS
 62
    4
 10
-128.33333333333331
 20
70.666666666666771
 11
-128.33333333333331
 21
71.333333333333428
  0
ARC
  8
_1-8_小物
  6
CONTINUOUS
 62
    4
 10
-127.99999999999999
 20
71.333333333333428
 40
0.3333333333333333
 50
90
 51
180
  0
LINE
  8
_1-8_小物
  6
CONTINUOUS
 62
    4
 10
-124.39999999999996
 20
72.333333333333428
 11
-124.39999999999996
 21
71.766666666666794
  0
ARC
  8
_1-8_小物
  6
CONTINUOUS
 62
    4
 10
-124.99999999999999
 20
72.333333333333428
 40
0.5999999999999999
 50
0
 51
105.00000000000026
  0
LINE
  8
_1-8_小物
  6
CONTINUOUS
 62
    4
 10
-125.35722229960237
 20
72.250649156423862
 11
-126.13661640782578
 21
72.07024731589388
  0
ARC
  8
_1-8_小物
  6
CONTINUOUS
 62
    4
 10
-127.34998031973362
 20
72.518356063614647
 40
0.1666666666666662
 50
33.032416997673543
 51
213.03241699768174
  0
LINE
  8
_1-8_小物
  6
CONTINUOUS
 62
    4
 10
-127.2171506405785
 20
72.008322678321747
 11
-127.48970736740597
 21
72.427503821338803
  0
LINE
  8
_1-8_小物
  6
CONTINUOUS
 62
    4
 10
-126.13661640782578
 20
72.07024731589388
 11
-126.80490335640053
 21
72.001099335058825
  0
LINE
  8
_1-8_小物
  6
CONTINUOUS
 62
    4
 10
-126.80490335640053
 20
72.001099335058825
 11
-127.2171506405785
 21
72.008322678321747
  0
LINE
  8
_1-8_小物
  6
CONTINUOUS
 62
    4
 10
-127.11326886344813
 20
72.460050236190682
 11
-127.21025327206127
 21
72.609208305890462
  0
LINE
  8
_1-8_小物
  6
CONTINUOUS
 62
    4
 10
-125.13530138039748
 20
72.917878914501017
 11
-127.11326886344813
 21
72.460050236190682
  0
LINE
  8
_1-8_小物
  6
CONTINUOUS
 62
    4
 10
-125.37977252966861
 20
72.348073419951788
 11
-125.35722229960237
 21
72.250649156423862
  0
ARC
  8
_1-8_小物
  6
CONTINUOUS
 62
    4
 10
-124.99999999999999
 20
72.333333333333428
 40
0.0999999999999999
 50
0
 51
103.03241699768358
  0
LINE
  8
_1-8_小物
  6
CONTINUOUS
 62
    4
 10
-125.0225502300662
 20
72.430757596861355
 11
-125.37977252966861
 21
72.348073419951788
  0
ENDBLK
  0
BLOCK
  2
-030-_30_
 70
   64
 10
0
 20
0
 30
0
  0
ARC
  8
_1-8_小物
  6
CONTINUOUS
 62
    4
 10
125.00000000436609
 20
71.766666666666765
 40
0.0999999999999999
 50
180
 51
270
  0
ARC
  8
_1-8_小物
  6
CONTINUOUS
 62
    4
 10
127.66666667103277
 20
71.000000000000057
 40
0.1666666666666666
 50
0
 51
90
  0
LINE
  8
_1-8_小物
  6
CONTINUOUS
 62
    4
 10
124.90000000436606
 20
72.3333333333334
 11
124.90000000436606
 21
71.766666666666765
  0
LINE
  8
_1-8_小物
  6
CONTINUOUS
 62
    4
 10
128.3333333376994
 20
70.666666666666742
 11
128.07186610945644
 21
67.678082572391475
  0
ARC
  8
_1-8_小物
  6
CONTINUOUS
 62
    4
 10
127.73980121009254
 20
67.707134486640712
 40
0.3333333333333333
 50
116.53346871300454
 51
354.99999999999676
  0
ARC
  8
_1-8_小物
  6
CONTINUOUS
 62
    4
 10
127.44198754127194
 20
68.303583531495406
 40
0.3333333333333333
 50
296.53346871300232
 51
358.57633437499288
  0
LINE
  8
_1-8_小物
  6
CONTINUOUS
 62
    4
 10
127.8333333376994
 20
70.633687633488108
 11
127.77521797892615
 21
68.295301832883695
  0
LINE
  8
_1-8_小物
  6
CONTINUOUS
 62
    4
 10
127.8333333376994
 20
71.000000000000057
 11
127.8333333376994
 21
70.633687633488108
  0
LINE
  8
_1-8_小物
  6
CONTINUOUS
 62
    4
 10
125.00000000436609
 20
71.166666666666742
 11
127.66666667103277
 21
71.166666666666742
  0
ARC
  8
_1-8_小物
  6
CONTINUOUS
 62
    4
 10
125.00000000436609
 20
71.766666666666765
 40
0.5999999999999999
 50
180
 51
270
  0
LINE
  8
_1-8_小物
  6
CONTINUOUS
 62
    4
 10
125.00000000436609
 20
71.666666666666742
 11
128.00000000436609
 21
71.666666666666742
  0
LINE
  8
_1-8_小物
  6
CONTINUOUS
 62
    4
 10
128.3333333376994
 20
70.666666666666742
 11
128.3333333376994
 21
71.3333333333334
  0
ARC
  8
_1-8_小物
  6
CONTINUOUS
 62
    4
 10
128.00000000436609
 20
71.3333333333334
 40
0.3333333333333333
 50
0
 51
90
  0
LINE
  8
_1-8_小物
  6
CONTINUOUS
 62
    4
 10
124.40000000436606
 20
72.3333333333334
 11
124.40000000436606
 21
71.766666666666765
  0
ARC
  8
_1-8_小物
  6
CONTINUOUS
 62
    4
 10
125.00000000436609
 20
72.3333333333334
 40
0.5999999999999999
 50
74.999999999999744
 51
180
  0
LINE
  8
_1-8_小物
  6
CONTINUOUS
 62
    4
 10
125.35722230396846
 20
72.250649156423833
 11
126.13661641219187
 21
72.070247315893823
  0
ARC
  8
_1-8_小物
  6
CONTINUOUS
 62
    4
 10
127.34998032409976
 20
72.51835606361459
 40
0.1666666666666662
 50
326.96758300231579
 51
146.96758300232898
  0
LINE
  8
_1-8_小物
  6
CONTINUOUS
 62
    4
 10
127.21715064494458
 20
72.00832267832169
 11
127.48970737177206
 21
72.427503821338775
  0
LINE
  8
_1-8_小物
  6
CONTINUOUS
 62
    4
 10
126.13661641219187
 20
72.070247315893823
 11
126.80490336076662
 21
72.001099335058768
  0
LINE
  8
_1-8_小物
  6
CONTINUOUS
 62
    4
 10
126.80490336076662
 20
72.001099335058768
 11
127.21715064494458
 21
72.00832267832169
  0
LINE
  8
_1-8_小物
  6
CONTINUOUS
 62
    4
 10
127.11326886781421
 20
72.460050236190625
 11
127.21025327642735
 21
72.609208305890434
  0
LINE
  8
_1-8_小物
  6
CONTINUOUS
 62
    4
 10
125.13530138476358
 20
72.917878914500989
 11
127.11326886781421
 21
72.460050236190625
  0
LINE
  8
_1-8_小物
  6
CONTINUOUS
 62
    4
 10
125.37977253403471
 20
72.348073419951731
 11
125.35722230396846
 21
72.250649156423833
  0
ARC
  8
_1-8_小物
  6
CONTINUOUS
 62
    4
 10
125.00000000436609
 20
72.3333333333334
 40
0.0999999999999999
 50
76.967583002316431
 51
180
  0
LINE
  8
_1-8_小物
  6
CONTINUOUS
 62
    4
 10
125.02255023443229
 20
72.430757596861326
 11
125.37977253403471
 21
72.348073419951731
  0
ENDBLK
  0
BLOCK
  2
-031-_31_
 70
   64
 10
0
 20
0
 30
0
  0
ARC
  8
_1-8_小物
  6
CONTINUOUS
 62
    4
 10
95.266666666665856
 20
88.166666666666885
 40
0.0999999999999999
 50
180
 51
270
  0
ARC
  8
_1-8_小物
  6
CONTINUOUS
 62
    4
 10
94.499999999999204
 20
90.833333333333542
 40
0.1666666666666666
 50
0
 51
90
  0
LINE
  8
_1-8_小物
  6
CONTINUOUS
 62
    4
 10
95.833333333332575
 20
88.066666666666862
 11
95.266666666665856
 21
88.066666666666862
  0
LINE
  8
_1-8_小物
  6
CONTINUOUS
 62
    4
 10
94.166666666665833
 20
91.500000000000171
 11
91.178082572390622
 21
91.238532771757207
  0
ARC
  8
_1-8_小物
  6
CONTINUOUS
 62
    4
 10
91.207134486639802
 20
90.906467872393307
 40
0.3333333333333333
 50
94.999999999993548
 51
333.466531287002
  0
ARC
  8
_1-8_小物
  6
CONTINUOUS
 62
    4
 10
91.803583531494496
 20
90.608654203572712
 40
0.3333333333333333
 50
91.423665624997454
 51
153.4665312869933
  0
LINE
  8
_1-8_小物
  6
CONTINUOUS
 62
    4
 10
94.133687633487284
 20
91.000000000000171
 11
91.795301832882842
 21
90.941884641226949
  0
LINE
  8
_1-8_小物
  6
CONTINUOUS
 62
    4
 10
94.499999999999204
 20
91.000000000000171
 11
94.133687633487284
 21
91.000000000000171
  0
LINE
  8
_1-8_小物
  6
CONTINUOUS
 62
    4
 10
94.666666666665833
 20
88.166666666666885
 11
94.666666666665833
 21
90.833333333333542
  0
ARC
  8
_1-8_小物
  6
CONTINUOUS
 62
    4
 10
95.266666666665856
 20
88.166666666666885
 40
0.5999999999999999
 50
180
 51
270
  0
LINE
  8
_1-8_小物
  6
CONTINUOUS
 62
    4
 10
95.166666666665833
 20
88.166666666666885
 11
95.166666666665833
 21
91.166666666666885
  0
LINE
  8
_1-8_小物
  6
CONTINUOUS
 62
    4
 10
94.166666666665833
 20
91.500000000000171
 11
94.833333333332575
 21
91.500000000000171
  0
ARC
  8
_1-8_小物
  6
CONTINUOUS
 62
    4
 10
94.833333333332575
 20
91.166666666666885
 40
0.3333333333333333
 50
0
 51
90
  0
LINE
  8
_1-8_小物
  6
CONTINUOUS
 62
    4
 10
95.833333333332575
 20
87.566666666666862
 11
95.266666666665856
 21
87.566666666666862
  0
ARC
  8
_1-8_小物
  6
CONTINUOUS
 62
    4
 10
95.833333333332575
 20
88.166666666666885
 40
0.5999999999999999
 50
270
 51
15.000000000002899
  0
LINE
  8
_1-8_小物
  6
CONTINUOUS
 62
    4
 10
95.750649156422924
 20
88.523888966269226
 11
95.570247315892971
 21
89.30328307449264
  0
ARC
  8
_1-8_小物
  6
CONTINUOUS
 62
    4
 10
96.018356063613737
 20
90.516646986400531
 40
0.1666666666666662
 50
303.03241699768171
 51
123.03241699766539
  0
LINE
  8
_1-8_小物
  6
CONTINUOUS
 62
    4
 10
95.508322678320837
 20
90.383817307245351
 11
95.92750382133795
 21
90.656374034072826
  0
LINE
  8
_1-8_小物
  6
CONTINUOUS
 62
    4
 10
95.570247315892971
 20
89.30328307449264
 11
95.501099335057916
 21
89.971570023067386
  0
LINE
  8
_1-8_小物
  6
CONTINUOUS
 62
    4
 10
95.501099335057916
 20
89.971570023067386
 11
95.508322678320837
 21
90.383817307245351
  0
LINE
  8
_1-8_小物
  6
CONTINUOUS
 62
    4
 10
95.960050236189772
 20
90.279935530114983
 11
96.109208305889524
 21
90.376919938728122
  0
LINE
  8
_1-8_小物
  6
CONTINUOUS
 62
    4
 10
96.417878914500079
 20
88.301968047064349
 11
95.960050236189772
 21
90.279935530114983
  0
LINE
  8
_1-8_小物
  6
CONTINUOUS
 62
    4
 10
95.848073419950879
 20
88.546439196335484
 11
95.750649156422924
 21
88.523888966269226
  0
ARC
  8
_1-8_小物
  6
CONTINUOUS
 62
    4
 10
95.833333333332575
 20
88.166666666666885
 40
0.0999999999999999
 50
270
 51
13.032416997687221
  0
LINE
  8
_1-8_小物
  6
CONTINUOUS
 62
    4
 10
95.930757596860417
 20
88.189216896733058
 11
95.848073419950879
 21
88.546439196335484
  0
ENDBLK
  0
ENDSEC
  0
SECTION
  2
ENTITIES
  0
LINE
  8
_0-0_図面枠
  6
CONTINUOUS
 62
    6
 10
410.00000000000006
 20
287
 11
10
 21
287.00000000000006
  0
LINE
  8
_0-0_図面枠
  6
CONTINUOUS
 62
    6
 10
410
 20
9.9999999999998863
 11
410.00000000000006
 21
287
  0
LINE
  8
_0-0_図面枠
  6
CONTINUOUS
 62
    6
 10
9.9999999999999147
 20
10
 11
410
 21
9.9999999999998863
  0
LINE
  8
_0-0_図面枠
  6
CONTINUOUS
 62
    6
 10
10
 20
287.00000000000006
 11
9.9999999999999147
 21
10
  0
LINE
  8
ADD_LINE
  6
DOT
 62
    4
 10
0
 20
148.5
 11
420
 21
148.5
  0
LINE
  8
_0-0_図面枠
  6
CONTINUOUS
 62
    6
 10
210
 20
287
 11
210.00000000000003
 21
9.9999999999999432
  0
LINE
  8
_1-0_躯体
  6
CONTINUOUS
 62
    6
 10
118.33333333333333
 20
216.66666666666666
 11
141.66666666666663
 21
216.66666666666666
  0
LINE
  8
_1-0_躯体
  6
CONTINUOUS
 62
    6
 10
78.333333333333314
 20
216.66666666666666
 11
101.66666666666666
 21
216.66666666666666
  0
LINE
  8
_1-0_躯体
  6
CONTINUOUS
 62
    6
 10
101.66666666666666
 20
216.66666666666666
 11
101.66666666666666
 21
193.33333333333331
  0
LINE
  8
_1-0_躯体
  6
CONTINUOUS
 62
    6
 10
118.33333333333333
 20
216.66666666666666
 11
118.33333333333333
 21
193.33333333333331
  0
LINE
  8
_1-0_躯体
  6
CONTINUOUS
 62
    6
 10
318.33333333333326
 20
216.66666666666666
 11
341.66666666666663
 21
216.66666666666666
  0
LINE
  8
_1-0_躯体
  6
CONTINUOUS
 62
    6
 10
318.33333333333326
 20
216.66666666666666
 11
318.33333333333326
 21
193.33333333333329
  0
LINE
  8
_1-0_躯体
  6
CONTINUOUS
 62
    6
 10
301.66666666666663
 20
241.66666666666666
 11
301.66666666666663
 21
193.33333333333329
  0
LINE
  8
_1-0_躯体
  6
CENTER2
 62
    4
 10
304.73846062743996
 20
228.33333733662494
 11
285
 21
228.33333733662494
  0
LINE
  8
_1-3_止水補助板
  6
CONTINUOUS
 62
    4
 10
135
 20
216.66666666666666
 11
135
 21
217
  0
LINE
  8
_1-3_止水補助板
  6
CONTINUOUS
 62
    4
 10
85
 20
216.66666666666666
 11
85
 21
217
  0
ARC
  8
_1-3_止水補助板
  6
CONTINUOUS
 62
    4
 10
110
 20
205.95862434846651
 40
5.2779365980282797
 50
195.00000000000014
 51
344.99999999999989
  0
ARC
  8
_1-3_止水補助板
  6
CONTINUOUS
 62
    4
 10
110
 20
205.95862434846651
 40
4.9446032646949467
 50
195.00000000000003
 51
344.99999999999994
  0
LINE
  8
_1-3_止水補助板
  6
CONTINUOUS
 62
    4
 10
118.33333333333333
 20
216.66666666666666
 11
135
 21
216.66666666666666
  0
LINE
  8
_1-3_止水補助板
  6
CONTINUOUS
 62
    4
 10
118.33333333333333
 20
216.66666666666666
 11
115.09809526955178
 21
204.59259383805318
  0
LINE
  8
_1-3_止水補助板
  6
CONTINUOUS
 62
    4
 10
118.07755767067374
 20
217
 11
135
 21
217
  0
LINE
  8
_1-3_止水補助板
  6
CONTINUOUS
 62
    4
 10
118.07755767067374
 20
217
 11
114.77611999412207
 21
204.6788668530873
  0
LINE
  8
_1-3_止水補助板
  6
CONTINUOUS
 62
    4
 10
101.66666666666666
 20
216.66666666666666
 11
85
 21
216.66666666666666
  0
LINE
  8
_1-3_止水補助板
  6
CONTINUOUS
 62
    4
 10
101.66666666666666
 20
216.66666666666666
 11
104.90190473044822
 21
204.59259383805318
  0
LINE
  8
_1-3_止水補助板
  6
CONTINUOUS
 62
    4
 10
101.92244232932626
 20
217
 11
85
 21
217
  0
LINE
  8
_1-3_止水補助板
  6
CONTINUOUS
 62
    4
 10
101.92244232932626
 20
217
 11
105.22388000587792
 21
204.6788668530873
  0
INSERT
  2
-000-
  8
_1-4_フレ__ム
 10
210
 20
148.5
 41
1
 42
1
 50
0
  0
INSERT
  2
-001-_1_
  8
_1-8_小物
 10
210
 20
148.5
 41
1
 42
1
 50
0
  0
INSERT
  2
-002-_2_
  8
_1-8_小物
 10
210
 20
148.5
 41
1
 42
1
 50
0
  0
INSERT
  2
-003-_3_
  8
_1-4_フレ__ム
 10
210
 20
148.5
 41
1
 42
1
 50
0
  0
INSERT
  2
-004-_4_
  8
_1-8_小物
 10
210
 20
148.5
 41
1
 42
1
 50
0
  0
INSERT
  2
-005-_5_
  8
_1-8_小物
 10
210
 20
148.5
 41
1
 42
1
 50
0
  0
LINE
  8
_1-0_躯体
  6
CENTER2
 62
    4
 10
90
 20
219.79724203365018
 11
90
 21
200
  0
LINE
  8
_1-0_躯体
  6
CENTER2
 62
    4
 10
130
 20
219.79724203365026
 11
130
 21
200
  0
LINE
  8
_1-0_躯体
  6
CENTER2
 62
    4
 10
330
 20
219.79724203365018
 11
330
 21
200
  0
LINE
  8
_1-3_止水補助板
  6
CONTINUOUS
 62
    4
 10
334.99999999999989
 20
216.66666666666666
 11
334.99999999999989
 21
217
  0
LINE
  8
_1-3_止水補助板
  6
CONTINUOUS
 62
    4
 10
301.66666666666612
 20
232.80000000000138
 11
301.99999999999943
 21
232.80000000000138
  0
LINE
  8
_1-3_止水補助板
  6
CONTINUOUS
 62
    4
 10
301.66666666666612
 20
216.66666666666666
 11
301.66666666666612
 21
232.80000000000138
  0
LINE
  8
_1-3_止水補助板
  6
CONTINUOUS
 62
    4
 10
318.33333333333326
 20
216.66666666666666
 11
334.99999999999989
 21
216.66666666666666
  0
LINE
  8
_1-3_止水補助板
  6
CONTINUOUS
 62
    4
 10
318.33333333333326
 20
216.66666666666666
 11
315.09809526955166
 21
204.59259383805329
  0
LINE
  8
_1-3_止水補助板
  6
CONTINUOUS
 62
    4
 10
318.07755767067363
 20
217
 11
334.99999999999989
 21
217
  0
LINE
  8
_1-3_止水補助板
  6
CONTINUOUS
 62
    4
 10
318.07755767067363
 20
217
 11
314.77611999412198
 21
204.67886685308741
  0
LINE
  8
_1-3_止水補助板
  6
CONTINUOUS
 62
    4
 10
301.66666666666657
 20
216.66666666666666
 11
304.90190473044811
 21
204.59259383805329
  0
ARC
  8
_1-3_止水補助板
  6
CONTINUOUS
 62
    4
 10
309.99999999999989
 20
205.95862434846654
 40
5.2779365980282797
 50
194.99999999999923
 51
345.0000000000008
  0
ARC
  8
_1-3_止水補助板
  6
CONTINUOUS
 62
    4
 10
309.99999999999989
 20
205.95862434846654
 40
4.9446032646949467
 50
194.99999999999955
 51
345.00000000000028
  0
LINE
  8
_1-3_止水補助板
  6
CONTINUOUS
 62
    4
 10
301.99999999999943
 20
216.7105508325306
 11
301.99999999999943
 21
232.80000000000138
  0
LINE
  8
_1-3_止水補助板
  6
CONTINUOUS
 62
    4
 10
301.99999999999943
 20
216.7105508325306
 11
305.22388000587785
 21
204.67886685308741
  0
ARC
  8
_1-8_小物
  6
CONTINUOUS
 62
    4
 10
81.092399991938834
 20
218.7898147630971
 40
3.0129628785275182
 50
315.19701498034175
 51
344.8029850196645
  0
ARC
  8
_1-8_小物
  6
CONTINUOUS
 62
    4
 10
138.90760000806117
 20
218.7898147630971
 40
3.0129628785275182
 50
195.19701498033552
 51
224.80298501965825
  0
ARC
  8
_1-8_小物
  6
CONTINUOUS
 62
    4
 10
338.90760000806108
 20
218.7898147630971
 40
3.0129628785275182
 50
195.19701498033552
 51
224.80298501965748
  0
LINE
  8
_1-f_寸法
  6
CONTINUOUS
 62
    4
 10
285
 20
216.66666666666666
 11
278.39999999999998
 21
216.66666666666666
  0
LINE
  8
_1-f_寸法
  6
CONTINUOUS
 62
    4
 10
285
 20
228.33333733662494
 11
278.39999999999998
 21
228.33333733662494
  0
POINT
  8
_1-f_寸法
 62
    4
 10
280
 20
228.33333733662494
  0
POINT
  8
_1-f_寸法
 62
    4
 10
280
 20
216.66666666666666
  0
LINE
  8
_1-f_寸法
  6
CONTINUOUS
 62
    4
 10
280
 20
228.33333733662494
 11
280
 21
216.66666666666666
  0
TEXT
  8
_1-f_寸法
 62
    4
 10
280
 20
220.90000200164582
 40
3.2000000000000002
 41
1
 50
90
  1
35
  0
LINE
  8
_1-f_寸法
  6
CONTINUOUS
 62
    4
 10
285
 20
216.66666666666666
 11
317.5
 21
216.66666666666666
  0
LINE
  8
_1-f_寸法
  6
CONTINUOUS
 62
    4
 10
343.33333333333331
 20
239.99999364707415
 11
311.66666666666663
 21
239.99999364707415
  0
LINE
  8
_1-f_寸法
  6
CONTINUOUS
 62
    4
 10
138.33333333333331
 20
226.66666666666666
 11
138.33333333333331
 21
233.26666666666665
  0
LINE
  8
_1-f_寸法
  6
CONTINUOUS
 62
    4
 10
81.666666666666657
 20
226.66666666666666
 11
81.666666666666657
 21
233.26666666666665
  0
POINT
  8
_1-f_寸法
 62
    4
 10
81.666666666666657
 20
231.66666666666666
  0
POINT
  8
_1-f_寸法
 62
    4
 10
138.33333333333331
 20
231.66666666666666
  0
LINE
  8
_1-f_寸法
  6
CONTINUOUS
 62
    4
 10
81.666666666666657
 20
231.66666666666666
 11
138.33333333333331
 21
231.66666666666666
  0
TEXT
  8
_1-f_寸法
 62
    4
 10
107.59999999999998
 20
231.66666666666666
 40
3.2000000000000002
 41
1
 50
0
  1
170
  0
CIRCLE
  8
_1-f_寸法
  6
CONTINUOUS
 62
    4
 10
103.33333333333333
 20
228.33333333333331
 40
1.6666666666666665
  0
TEXT
  8
_1-f_寸法
 62
    4
 10
102.70833333333333
 20
227.08333333333331
 40
2.5
 41
1
 50
0
  1
4
  0
CIRCLE
  8
_1-f_寸法
  6
CONTINUOUS
 62
    4
 10
93.333333333333329
 20
228.33333333333331
 40
1.6666666666666665
  0
TEXT
  8
_1-f_寸法
 62
    4
 10
92.708333333333329
 20
227.08333333333331
 40
2.5
 41
1
 50
0
  1
3
  0
CIRCLE
  8
_1-f_寸法
  6
CONTINUOUS
 62
    4
 10
130
 20
228.33333333333331
 40
1.6666666666666665
  0
TEXT
  8
_1-f_寸法
 62
    4
 10
129.375
 20
227.08333333333331
 40
2.5
 41
1
 50
0
  1
5
  0
CIRCLE
  8
_1-f_寸法
  6
CONTINUOUS
 62
    4
 10
125
 20
228.33333333333331
 40
1.6666666666666665
  0
TEXT
  8
_1-f_寸法
 62
    4
 10
124.375
 20
227.08333333333331
 40
2.5
 41
1
 50
0
  1
2
  0
CIRCLE
  8
_1-f_寸法
  6
CONTINUOUS
 62
    4
 10
118.33333333333333
 20
228.33333333333331
 40
1.6666666666666665
  0
TEXT
  8
_1-f_寸法
 62
    4
 10
117.70833333333333
 20
227.08333333333331
 40
2.5
 41
1
 50
0
  1
1
  0
CIRCLE
  8
_1-f_寸法
  6
CONTINUOUS
 62
    4
 10
113.33333333333333
 20
228.33333333333331
 40
1.6666666666666665
  0
TEXT
  8
_1-f_寸法
 62
    4
 10
112.70833333333333
 20
227.08333333333331
 40
2.5
 41
1
 50
0
  1
7
  0
LINE
  8
_1-f_寸法
  6
CONTINUOUS
 62
    4
 10
94.166666666666657
 20
226.88995766035924
 11
95.844806995859543
 21
223.98333334796681
  0
LINE
  8
_1-f_寸法
  6
CONTINUOUS
 62
    4
 10
102.5
 20
226.88995766035924
 11
96.934946354242655
 21
217.25100199906115
  0
LINE
  8
_1-f_寸法
  6
CONTINUOUS
 62
    4
 10
112
 20
227.333345101232
 11
110.66666666666666
 21
226.33335686913065
  0
LINE
  8
_1-f_寸法
  6
CONTINUOUS
 62
    4
 10
117.5
 20
226.88995766035924
 11
116.28381586311373
 21
224.78346494391295
  0
LINE
  8
_1-f_寸法
  6
CONTINUOUS
 62
    4
 10
129.1369469312846
 20
226.90752928706377
 11
124.30000000000001
 21
218.91666666666666
  0
LINE
  8
_1-f_寸法
  6
CONTINUOUS
 62
    4
 10
124.16666666666666
 20
226.88995766035924
 11
122.03626719638737
 21
223.19999753741769
  0
CIRCLE
  8
_1-f_寸法
  6
CONTINUOUS
 62
    4
 10
141.66666666666666
 20
221.66666666666666
 40
1.6666666666666665
  0
CIRCLE
  8
_1-f_寸法
  6
CONTINUOUS
 62
    4
 10
141.66666666666666
 20
221.66666666666666
 40
1.6666666666666665
  0
LINE
  8
_1-f_寸法
  6
CONTINUOUS
 62
    4
 10
140.48815536468908
 20
220.48815536468908
 11
138.16666666666666
 21
218.16666666666666
  0
TEXT
  8
_1-f_寸法
 62
    4
 10
140.41666666666666
 20
220.41666666666666
 40
2.5
 41
1
 50
0
  1
11
  0
CIRCLE
  8
_1-f_寸法
  6
CONTINUOUS
 62
    4
 10
123.33333333333333
 20
211.66666666666666
 40
1.6666666666666665
  0
CIRCLE
  8
_1-f_寸法
  6
CONTINUOUS
 62
    4
 10
136.66666666666666
 20
205
 40
1.6666666666666665
  0
CIRCLE
  8
_1-f_寸法
  6
CONTINUOUS
 62
    4
 10
136.66666666666666
 20
211.66666666666666
 40
1.6666666666666665
  0
TEXT
  8
_1-f_寸法
 62
    4
 10
136.04166666666666
 20
210.41666666666666
 40
2.5
 41
1
 50
0
  1
8
  0
TEXT
  8
_1-f_寸法
 62
    4
 10
122.70833333333333
 20
210.41666666666666
 40
2.5
 41
1
 50
0
  1
9
  0
TEXT
  8
_1-f_寸法
 62
    4
 10
135.41666666666666
 20
203.75
 40
2.5
 41
1
 50
0
  1
10
  0
LINE
  8
_1-f_寸法
  6
CONTINUOUS
 62
    4
 10
124.35343990164939
 20
212.98468046289804
 11
128.04166666666669
 21
217.75
  0
LINE
  8
_1-f_寸法
  6
CONTINUOUS
 62
    4
 10
135.50555761477466
 20
212.86232696432324
 11
130
 21
218.53171404361672
  0
LINE
  8
_1-f_寸法
  6
CONTINUOUS
 62
    4
 10
135.70179680153262
 20
206.35897164103375
 11
130.74999999999983
 21
213.33333333333326
  0
LINE
  8
_1-f_寸法
  6
CONTINUOUS
 62
    4
 10
101.66666666666666
 20
201.66666666666666
 11
101.66666666666666
 21
195.06666666666666
  0
LINE
  8
_1-f_寸法
  6
CONTINUOUS
 62
    4
 10
90
 20
201.66666666666666
 11
90
 21
195.06666666666666
  0
POINT
  8
_1-f_寸法
 62
    4
 10
90
 20
196.66666666666666
  0
POINT
  8
_1-f_寸法
 62
    4
 10
101.66666666666666
 20
196.66666666666666
  0
LINE
  8
_1-f_寸法
  6
CONTINUOUS
 62
    4
 10
90
 20
196.66666666666666
 11
101.66666666666666
 21
196.66666666666666
  0
TEXT
  8
_1-f_寸法
 62
    4
 10
94.23333333333332
 20
196.66666666666666
 40
3.2000000000000002
 41
1
 50
0
  1
35
  0
LINE
  8
_1-f_寸法
  6
CONTINUOUS
 62
    4
 10
118.33333333333333
 20
201.66666666666666
 11
118.33333333333333
 21
195.06666666666666
  0
LINE
  8
_1-f_寸法
  6
CONTINUOUS
 62
    4
 10
130
 20
201.66666666666666
 11
130
 21
195.06666666666666
  0
POINT
  8
_1-f_寸法
 62
    4
 10
130
 20
196.66666666666666
  0
POINT
  8
_1-f_寸法
 62
    4
 10
118.33333333333333
 20
196.66666666666666
  0
LINE
  8
_1-f_寸法
  6
CONTINUOUS
 62
    4
 10
130
 20
196.66666666666666
 11
118.33333333333333
 21
196.66666666666666
  0
TEXT
  8
_1-f_寸法
 62
    4
 10
122.56666666666666
 20
196.66666666666666
 40
3.2000000000000002
 41
1
 50
0
  1
35
  0
LINE
  8
_1-f_寸法
  6
CONTINUOUS
 62
    4
 10
318.33333333333326
 20
201.66666666666666
 11
318.33333333333326
 21
195.06666666666666
  0
LINE
  8
_1-f_寸法
  6
CONTINUOUS
 62
    4
 10
329.99999999999989
 20
201.66666666666666
 11
329.99999999999989
 21
195.06666666666666
  0
POINT
  8
_1-f_寸法
 62
    4
 10
329.99999999999989
 20
196.66666666666666
  0
POINT
  8
_1-f_寸法
 62
    4
 10
318.33333333333326
 20
196.66666666666666
  0
LINE
  8
_1-f_寸法
  6
CONTINUOUS
 62
    4
 10
329.99999999999989
 20
196.66666666666666
 11
318.33333333333326
 21
196.66666666666666
  0
TEXT
  8
_1-f_寸法
 62
    4
 10
322.56666666666661
 20
196.66666666666666
 40
3.2000000000000002
 41
1
 50
0
  1
35
  0
LINE
  8
_1-f_寸法
  6
CONTINUOUS
 62
    4
 10
338.3333333376998
 20
248.33333333333331
 11
338.3333333376998
 21
254.93333333333331
  0
LINE
  8
_1-f_寸法
  6
CONTINUOUS
 62
    4
 10
301.66666666666663
 20
248.33333333333331
 11
301.66666666666663
 21
254.93333333333331
  0
POINT
  8
_1-f_寸法
 62
    4
 10
301.66666666666663
 20
253.33333333333331
  0
POINT
  8
_1-f_寸法
 62
    4
 10
338.3333333376998
 20
253.33333333333331
  0
LINE
  8
_1-f_寸法
  6
CONTINUOUS
 62
    4
 10
301.66666666666663
 20
253.33333333333331
 11
338.3333333376998
 21
253.33333333333331
  0
TEXT
  8
_1-f_寸法
 62
    4
 10
317.60000000218321
 20
253.33333333333331
 40
3.2000000000000002
 41
1
 50
0
  1
110
  0
CIRCLE
  8
_1-f_寸法
  6
CONTINUOUS
 62
    4
 10
313.33333333333331
 20
235
 40
1.6666666666666665
  0
TEXT
  8
_1-f_寸法
 62
    4
 10
312.70833333333331
 20
233.75
 40
2.5
 41
1
 50
0
  1
3
  0
CIRCLE
  8
_1-f_寸法
  6
CONTINUOUS
 62
    4
 10
330
 20
228.33333333333331
 40
1.6666666666666665
  0
TEXT
  8
_1-f_寸法
 62
    4
 10
329.375
 20
227.08333333333331
 40
2.5
 41
1
 50
0
  1
5
  0
CIRCLE
  8
_1-f_寸法
  6
CONTINUOUS
 62
    4
 10
323.33333333333331
 20
211.66666666666666
 40
1.6666666666666665
  0
CIRCLE
  8
_1-f_寸法
  6
CONTINUOUS
 62
    4
 10
336.66666666666663
 20
205
 40
1.6666666666666665
  0
CIRCLE
  8
_1-f_寸法
  6
CONTINUOUS
 62
    4
 10
315
 20
228.33333333333331
 40
1.6666666666666665
  0
TEXT
  8
_1-f_寸法
 62
    4
 10
314.375
 20
227.08333333333331
 40
2.5
 41
1
 50
0
  1
1
  0
CIRCLE
  8
_1-f_寸法
  6
CONTINUOUS
 62
    4
 10
320
 20
228.33333333333331
 40
1.6666666666666665
  0
CIRCLE
  8
_1-f_寸法
  6
CONTINUOUS
 62
    4
 10
336.66666666666663
 20
211.66666666666666
 40
1.6666666666666665
  0
CIRCLE
  8
_1-f_寸法
  6
CONTINUOUS
 62
    4
 10
341.66666667103311
 20
221.66666666666663
 40
1.6666666666666665
  0
CIRCLE
  8
_1-f_寸法
  6
CONTINUOUS
 62
    4
 10
341.66666667103311
 20
221.66666666666663
 40
1.6666666666666665
  0
TEXT
  8
_1-f_寸法
 62
    4
 10
340.41666667103311
 20
220.41666666666663
 40
2.5
 41
1
 50
0
  1
11
  0
TEXT
  8
_1-f_寸法
 62
    4
 10
319.375
 20
227.08333333333331
 40
2.5
 41
1
 50
0
  1
7
  0
TEXT
  8
_1-f_寸法
 62
    4
 10
336.04166666666663
 20
210.41666666666666
 40
2.5
 41
1
 50
0
  1
8
  0
TEXT
  8
_1-f_寸法
 62
    4
 10
322.70833333333331
 20
210.41666666666666
 40
2.5
 41
1
 50
0
  1
9
  0
TEXT
  8
_1-f_寸法
 62
    4
 10
335.41666666666663
 20
203.75
 40
2.5
 41
1
 50
0
  1
10
  0
LINE
  8
_1-f_寸法
  6
CONTINUOUS
 62
    4
 10
324.22649734036804
 20
218.9166667225501
 11
329.12884417077061
 21
226.9124655354797
  0
LINE
  8
_1-f_寸法
  6
CONTINUOUS
 62
    4
 10
335.5055576147746
 20
212.86232696432324
 11
330
 21
218.53171404361672
  0
LINE
  8
_1-f_寸法
  6
CONTINUOUS
 62
    4
 10
330.74999999999983
 20
213.33333333333326
 11
335.70179680153257
 21
206.35897164103375
  0
LINE
  8
_1-f_寸法
  6
CONTINUOUS
 62
    4
 10
328.04166666666663
 20
217.75
 11
324.35343990164938
 21
212.98468046289804
  0
LINE
  8
_1-f_寸法
  6
CONTINUOUS
 62
    4
 10
323.49998358551653
 20
226.00340566666665
 11
321.38737124543786
 21
227.40976481659516
  0
LINE
  8
_1-f_寸法
  6
CONTINUOUS
 62
    4
 10
338.3333333376998
 20
243.33333333333331
 11
338.3333333376998
 21
226.66666666666666
  0
LINE
  8
_1-0_躯体
  6
CENTER2
 62
    4
 10
310
 20
241.66666666666666
 11
310
 21
193.33333333333331
  0
LINE
  8
_1-0_躯体
  6
CENTER2
 62
    4
 10
110
 20
226.83333333333337
 11
110
 21
193.33333333333331
  0
LINE
  8
_1-f_寸法
  6
CONTINUOUS
 62
    4
 10
118.33333333333333
 20
191.66666666666666
 11
118.33333333333333
 21
185.06666666666666
  0
LINE
  8
_1-f_寸法
  6
CONTINUOUS
 62
    4
 10
101.66666666666666
 20
191.66666666666666
 11
101.66666666666666
 21
185.06666666666666
  0
POINT
  8
_1-f_寸法
 62
    4
 10
101.66666666666666
 20
186.66666666666666
  0
POINT
  8
_1-f_寸法
 62
    4
 10
118.33333333333333
 20
186.66666666666666
  0
LINE
  8
_1-f_寸法
  6
CONTINUOUS
 62
    4
 10
101.66666666666666
 20
186.66666666666666
 11
118.33333333333333
 21
186.66666666666666
  0
TEXT
  8
_1-f_寸法
 62
    4
 10
108.39999999999999
 20
186.66666666666666
 40
3.2000000000000002
 41
1
 50
0
  1
50
  0
LINE
  8
_1-f_寸法
  6
CONTINUOUS
 62
    4
 10
318.33333333333331
 20
191.66666666666666
 11
318.33333333333331
 21
185.06666666666666
  0
LINE
  8
_1-f_寸法
  6
CONTINUOUS
 62
    4
 10
301.66666666666663
 20
191.66666666666666
 11
301.66666666666663
 21
185.06666666666666
  0
POINT
  8
_1-f_寸法
 62
    4
 10
301.66666666666663
 20
186.66666666666666
  0
POINT
  8
_1-f_寸法
 62
    4
 10
318.33333333333331
 20
186.66666666666666
  0
LINE
  8
_1-f_寸法
  6
CONTINUOUS
 62
    4
 10
301.66666666666663
 20
186.66666666666666
 11
318.33333333333331
 21
186.66666666666666
  0
TEXT
  8
_1-f_寸法
 62
    4
 10
308.39999999999998
 20
186.66666666666666
 40
3.2000000000000002
 41
1
 50
0
  1
50
  0
LINE
  8
_1-f_寸法
  6
CONTINUOUS
 62
    4
 10
317.0688384592172
 20
224.75000000931678
 11
315.83333333333337
 21
226.88995766035924
  0
LINE
  8
_1-f_寸法
  6
CONTINUOUS
 62
    4
 10
312.5
 20
233.55662432702593
 11
308.45833333333292
 21
226.55625231310114
  0
CIRCLE
  8
_1-f_寸法
  6
CONTINUOUS
 62
    4
 10
335
 20
228.33333333333331
 40
1.6666666666666665
  0
TEXT
  8
_1-f_寸法
 62
    4
 10
334.375
 20
227.08333333333331
 40
2.5
 41
1
 50
0
  1
2
  0
LINE
  8
_1-f_寸法
  6
CONTINUOUS
 62
    4
 10
332.03626720714533
 20
223.19999755605107
 11
334.16666666666663
 21
226.88995766035924
  0
CIRCLE
  8
_1-f_寸法
  6
CONTINUOUS
 62
    4
 10
296.66666666666595
 20
235.00000000000003
 40
1.6666666666666665
  0
TEXT
  8
_1-f_寸法
 62
    4
 10
296.04166666666595
 20
233.75000000000003
 40
2.5
 41
1
 50
0
  1
4
  0
LINE
  8
_1-f_寸法
  6
CONTINUOUS
 62
    4
 10
298.17927127729047
 20
234.30013924978246
 11
302.24999999999943
 21
232.41667066995819
  0
CIRCLE
  8
_1-f_寸法
  6
CONTINUOUS
 62
    4
 10
306.66666666666663
 20
243.33333333333331
 40
1.6666666666666665
  0
CIRCLE
  8
_1-f_寸法
  6
CONTINUOUS
 62
    4
 10
306.66666666666663
 20
243.33333333333331
 40
1.6666666666666665
  0
TEXT
  8
_1-f_寸法
 62
    4
 10
305.41666666666663
 20
242.08333333333331
 40
2.5
 41
1
 50
0
  1
11
  0
CIRCLE
  8
_1-f_寸法
  6
CONTINUOUS
 62
    4
 10
78.333333333333314
 20
221.66666666666666
 40
1.6666666666666665
  0
CIRCLE
  8
_1-f_寸法
  6
CONTINUOUS
 62
    4
 10
78.333333333333314
 20
221.66666666666666
 40
1.6666666666666665
  0
LINE
  8
_1-f_寸法
  6
CONTINUOUS
 62
    4
 10
79.511844635310922
 20
220.48815536468908
 11
81.833333333333314
 21
218.16666666666666
  0
TEXT
  8
_1-f_寸法
 62
    4
 10
77.083333333333314
 20
220.41666666666666
 40
2.5
 41
1
 50
0
  1
11
  0
CIRCLE
  8
_1-f_寸法
  6
CONTINUOUS
 62
    4
 10
291.66666666666629
 20
233.33333333333329
 40
1.6666666666666665
  0
TEXT
  8
_1-f_寸法
 62
    4
 10
291.04166666666629
 20
232.08333333333329
 40
2.5
 41
1
 50
0
  1
9
  0
CIRCLE
  8
_1-f_寸法
  6
CONTINUOUS
 62
    4
 10
296.66666666666629
 20
223.33333333333329
 40
1.6666666666666665
  0
TEXT
  8
_1-f_寸法
 62
    4
 10
296.04166666666629
 20
222.08333333333329
 40
2.5
 41
1
 50
0
  1
8
  0
CIRCLE
  8
_1-f_寸法
  6
CONTINUOUS
 62
    4
 10
289.99999999999966
 20
223.33333333333329
 40
1.6666666666666665
  0
TEXT
  8
_1-f_寸法
 62
    4
 10
288.74999999999966
 20
222.08333333333329
 40
2.5
 41
1
 50
0
  1
10
  0
LINE
  8
_1-f_寸法
  6
CONTINUOUS
 62
    4
 10
291.48472575504059
 20
224.09054348256251
 11
298.33333333333292
 21
227.58333341279996
  0
CIRCLE
  8
_1-f_寸法
  6
CONTINUOUS
 62
    4
 10
96.666666666666657
 20
211.66666666666666
 40
1.6666666666666665
  0
CIRCLE
  8
_1-f_寸法
  6
CONTINUOUS
 62
    4
 10
83.333333333333329
 20
205
 40
1.6666666666666665
  0
CIRCLE
  8
_1-f_寸法
  6
CONTINUOUS
 62
    4
 10
83.333333333333329
 20
211.66666666666666
 40
1.6666666666666665
  0
TEXT
  8
_1-f_寸法
 62
    4
 10
82.708333333333329
 20
210.41666666666666
 40
2.5
 41
1
 50
0
  1
8
  0
TEXT
  8
_1-f_寸法
 62
    4
 10
96.041666666666657
 20
210.41666666666666
 40
2.5
 41
1
 50
0
  1
9
  0
TEXT
  8
_1-f_寸法
 62
    4
 10
82.083333333333329
 20
203.75
 40
2.5
 41
1
 50
0
  1
10
  0
LINE
  8
_1-f_寸法
  6
CONTINUOUS
 62
    4
 10
84.298203198467377
 20
206.35897164103375
 11
89.250000000000171
 21
213.33333333333326
  0
LINE
  8
_1-f_寸法
  6
CONTINUOUS
 62
    4
 10
91.958333333333627
 20
218.25000000000014
 11
95.697124894164347
 21
213.02230914503286
  0
LINE
  8
_1-f_寸法
  6
CONTINUOUS
 62
    4
 10
84.456851333684668
 20
212.89771706395521
 11
90
 21
218.97140290233349
  0
ARC
  8
_1-f_寸法
  6
CONTINUOUS
 62
    4
 10
305.9749999832361
 20
241.96866238968607
 40
6.7166666375130486
 50
230.10077861169503
 51
254.38150176464103
  0
LINE
  8
_1-f_寸法
  6
CONTINUOUS
 62
    4
 10
293.27868280643702
 20
232.91003468828879
 11
303.24999999999943
 21
230.29167066995819
  0
LINE
  8
_1-f_寸法
  6
CONTINUOUS
 62
    4
 10
298.04559343214078
 20
224.26946300022553
 11
304.03171404361626
 21
228.33333733663312
  0
ARC
  8
_1-8_小物
  6
CONTINUOUS
 62
    4
 10
-27831.304135548249
 20
-7707.4322929765003
 40
5
 50
285.76016573964608
 51
105.74141158034985
  0
LINE
  8
_0-0_図面枠
  6
CONTINUOUS
 62
    4
 10
182.14999999999998
 20
56.199999999999974
 11
40
 21
56.199999999999974
  0
LINE
  8
_0-0_図面枠
  6
CONTINUOUS
 62
    4
 10
182.14999999999998
 20
68.199999999999974
 11
40
 21
68.199999999999974
  0
LINE
  8
_0-0_図面枠
  6
CONTINUOUS
 62
    4
 10
182.14999999999998
 20
62.199999999999974
 11
40
 21
62.199999999999974
  0
LINE
  8
_0-0_図面枠
  6
CONTINUOUS
 62
    4
 10
182.14999999999998
 20
74.199999999999974
 11
40
 21
74.199999999999974
  0
LINE
  8
_0-0_図面枠
  6
CONTINUOUS
 62
    4
 10
182.14999999999998
 20
110.20000000000003
 11
40
 21
110.20000000000003
  0
LINE
  8
_0-0_図面枠
  6
CONTINUOUS
 62
    4
 10
182.14999999999998
 20
104.20000000000003
 11
40
 21
104.20000000000003
  0
LINE
  8
_0-0_図面枠
  6
CONTINUOUS
 62
    4
 10
182.14999999999998
 20
98.200000000000031
 11
40
 21
98.200000000000031
  0
LINE
  8
_0-0_図面枠
  6
CONTINUOUS
 62
    4
 10
182.14999999999998
 20
92.200000000000031
 11
40
 21
92.200000000000031
  0
LINE
  8
_0-0_図面枠
  6
CONTINUOUS
 62
    4
 10
182.14999999999998
 20
86.200000000000031
 11
40
 21
86.200000000000031
  0
LINE
  8
_0-0_図面枠
  6
CONTINUOUS
 62
    4
 10
182.14999999999998
 20
80.199999999999974
 11
40
 21
80.199999999999974
  0
LINE
  8
_0-0_図面枠
  6
CONTINUOUS
 62
    4
 10
182.14999999999998
 20
120.99999999999999
 11
40
 21
120.99999999999999
  0
LINE
  8
_0-0_図面枠
  6
CONTINUOUS
 62
    4
 10
182.14999999999998
 20
50.199999999999974
 11
40
 21
50.199999999999974
  0
LINE
  8
_0-0_図面枠
  6
CONTINUOUS
 62
    4
 10
182.14999999999998
 20
44.199999999999974
 11
40
 21
44.199999999999974
  0
TEXT
  8
_0-0_図面枠
 62
    4
 10
165.551264
 20
116.20001049999995
 40
3.2000000000000002
 41
1
 50
0
  1
使用
  0
TEXT
  8
_0-0_図面枠
 62
    4
 10
150.50638249999994
 20
116.20001049999995
 40
3.2000000000000002
 41
1
 50
0
  1
定　尺
  0
TEXT
  8
_0-0_図面枠
 62
    4
 10
148.34354749999997
 20
111.40000399999995
 40
3.2000000000000002
 41
1
 50
0
  1
（ｍｍ）
  0
TEXT
  8
_0-0_図面枠
 62
    4
 10
165.551264
 20
111.40000399999995
 40
3.2000000000000002
 41
1
 50
0
  1
数量
  0
TEXT
  8
_0-0_図面枠
 62
    4
 10
40.497067999999985
 20
105.42754949999993
 40
3.2000000000000002
 41
1
 50
0
  1
　１
  0
TEXT
  8
_0-0_図面枠
 62
    4
 10
149.270477
 20
105.40000399999995
 40
3.2000000000000002
 41
1
 50
0
  1
３０００
  0
TEXT
  8
_0-0_図面枠
 62
    4
 10
177.00512500000002
 20
105.40000399999995
 40
3.2000000000000002
 41
1
 50
0
  1
本
  0
TEXT
  8
_0-0_図面枠
 62
    4
 10
43.586831999999987
 20
99.427549499999927
 40
3.2000000000000002
 41
1
 50
0
  1
２
  0
TEXT
  8
_0-0_図面枠
 62
    4
 10
43.586831999999987
 20
93.427549499999927
 40
3.2000000000000002
 41
1
 50
0
  1
３
  0
TEXT
  8
_0-0_図面枠
 62
    4
 10
43.586831999999987
 20
87.427549499999927
 40
3.2000000000000002
 41
1
 50
0
  1
４
  0
TEXT
  8
_0-0_図面枠
 62
    4
 10
169.36022149999991
 20
87.45000299999991
 40
3.2000000000000002
 41
1
 50
0
  1
１
  0
TEXT
  8
_0-0_図面枠
 62
    4
 10
43.586831999999987
 20
81.427560999999955
 40
3.2000000000000002
 41
1
 50
0
  1
５
  0
TEXT
  8
_0-0_図面枠
 62
    4
 10
177.00512500000002
 20
81.399992499999982
 40
3.2000000000000002
 41
1
 50
0
  1
本
  0
TEXT
  8
_0-0_図面枠
 62
    4
 10
43.586831999999987
 20
75.427560999999955
 40
3.2000000000000002
 41
1
 50
0
  1
６
  0
TEXT
  8
_0-0_図面枠
 62
    4
 10
43.586831999999987
 20
69.427555499999968
 40
3.2000000000000002
 41
1
 50
0
  1
７
  0
TEXT
  8
_0-0_図面枠
 62
    4
 10
48.400007499999987
 20
69.400009499999996
 40
3.2000000000000002
 41
1
 50
0
  1
ステンセットシルタップ
  0
TEXT
  8
_0-0_図面枠
 62
    4
 10
43.586831999999987
 20
63.427555499999968
 40
3.2000000000000002
 41
1
 50
0
  1
８
  0
TEXT
  8
_0-0_図面枠
 62
    4
 10
166.27045749999996
 20
63.450008499999953
 40
3.2000000000000002
 41
1
 50
0
  1
１２
  0
TEXT
  8
_0-0_図面枠
 62
    4
 10
43.586831999999987
 20
57.427555499999968
 40
3.2000000000000002
 41
1
 50
0
  1
９
  0
LINE
  8
_0-0_図面枠
  6
CONTINUOUS
 62
    4
 10
382.15000000000009
 20
110.19999999999997
 11
240
 21
110.19999999999997
  0
LINE
  8
_0-0_図面枠
  6
CONTINUOUS
 62
    4
 10
382.15000000000009
 20
104.19999999999997
 11
240
 21
104.19999999999997
  0
LINE
  8
_0-0_図面枠
  6
CONTINUOUS
 62
    4
 10
382.15000000000009
 20
98.199999999999974
 11
240
 21
98.199999999999974
  0
LINE
  8
_0-0_図面枠
  6
CONTINUOUS
 62
    4
 10
382.15000000000009
 20
92.199999999999974
 11
240
 21
92.199999999999974
  0
LINE
  8
_0-0_図面枠
  6
CONTINUOUS
 62
    4
 10
382.15000000000009
 20
86.199999999999974
 11
240
 21
86.199999999999974
  0
LINE
  8
_0-0_図面枠
  6
CONTINUOUS
 62
    4
 10
382.15000000000009
 20
80.199999999999974
 11
240
 21
80.199999999999974
  0
LINE
  8
_0-0_図面枠
  6
CONTINUOUS
 62
    4
 10
382.15000000000009
 20
74.199999999999974
 11
240
 21
74.199999999999974
  0
LINE
  8
_0-0_図面枠
  6
CONTINUOUS
 62
    4
 10
382.15000000000009
 20
68.199999999999974
 11
240
 21
68.199999999999974
  0
LINE
  8
_0-0_図面枠
  6
CONTINUOUS
 62
    4
 10
382.15000000000009
 20
62.199999999999974
 11
240
 21
62.199999999999974
  0
LINE
  8
_0-0_図面枠
  6
CONTINUOUS
 62
    4
 10
382.15000000000009
 20
56.199999999999974
 11
240
 21
56.199999999999974
  0
LINE
  8
_0-0_図面枠
  6
CONTINUOUS
 62
    4
 10
382.15000000000009
 20
44.199999999999974
 11
240
 21
44.199999999999974
  0
LINE
  8
_0-0_図面枠
  6
CONTINUOUS
 62
    4
 10
382.15000000000009
 20
120.99999999999999
 11
240
 21
120.99999999999999
  0
LINE
  8
_0-0_図面枠
  6
CONTINUOUS
 62
    4
 10
382.15000000000009
 20
50.199999999999974
 11
240
 21
50.199999999999974
  0
TEXT
  8
_0-0_図面枠
 62
    4
 10
365.55123000000003
 20
116.2000105
 40
3.2000000000000002
 41
1
 50
0
  1
使用
  0
TEXT
  8
_0-0_図面枠
 62
    4
 10
350.50632500000006
 20
116.20002199999998
 40
3.2000000000000002
 41
1
 50
0
  1
定　尺
  0
TEXT
  8
_0-0_図面枠
 62
    4
 10
348.34349000000003
 20
111.40001499999998
 40
3.2000000000000002
 41
1
 50
0
  1
（ｍｍ）
  0
TEXT
  8
_0-0_図面枠
 62
    4
 10
365.55123000000003
 20
111.40000400000001
 40
3.2000000000000002
 41
1
 50
0
  1
数量
  0
TEXT
  8
_0-0_図面枠
 62
    4
 10
240.4970505
 20
105.42754949999998
 40
3.2000000000000002
 41
1
 50
0
  1
　１
  0
TEXT
  8
_0-0_図面枠
 62
    4
 10
243.5868145
 20
99.427549499999984
 40
3.2000000000000002
 41
1
 50
0
  1
２
  0
TEXT
  8
_0-0_図面枠
 62
    4
 10
243.5868145
 20
93.427549499999984
 40
3.2000000000000002
 41
1
 50
0
  1
３
  0
TEXT
  8
_0-0_図面枠
 62
    4
 10
243.5868145
 20
87.427549499999984
 40
3.2000000000000002
 41
1
 50
0
  1
４
  0
TEXT
  8
_0-0_図面枠
 62
    4
 10
243.5868145
 20
81.427560999999983
 40
3.2000000000000002
 41
1
 50
0
  1
５
  0
TEXT
  8
_0-0_図面枠
 62
    4
 10
243.5868145
 20
75.427560999999983
 40
3.2000000000000002
 41
1
 50
0
  1
６
  0
TEXT
  8
_0-0_図面枠
 62
    4
 10
243.5868145
 20
69.427560999999983
 40
3.2000000000000002
 41
1
 50
0
  1
７
  0
TEXT
  8
_0-0_図面枠
 62
    4
 10
243.5868145
 20
63.427555499999968
 40
3.2000000000000002
 41
1
 50
0
  1
８
  0
TEXT
  8
_0-0_図面枠
 62
    4
 10
243.5868145
 20
57.427555499999968
 40
3.2000000000000002
 41
1
 50
0
  1
９
  0
TEXT
  8
_0-0_図面枠
 62
    4
 10
240.4970505
 20
51.427555499999968
 40
3.2000000000000002
 41
1
 50
0
  1
１０
  0
TEXT
  8
_0-0_図面枠
 62
    4
 10
240.4970505
 20
45.427555499999968
 40
3.2000000000000002
 41
1
 50
0
  1
１１
  0
TEXT
  8
_0-0_図面枠
 62
    4
 10
169.36022149999991
 20
105.4499915
 40
3.2000000000000002
 41
1
 50
0
  1
１
  0
TEXT
  8
_0-0_図面枠
 62
    4
 10
48.400007499999987
 20
99.400003999999953
 40
3.2000000000000002
 41
1
 50
0
  1
ＳＳＧアーム(Ａ)
  0
TEXT
  8
_0-0_図面枠
 62
    4
 10
48.400007499999987
 20
93.400003999999953
 40
3.2000000000000002
 41
1
 50
0
  1
ＳＳＧばね(Ａ)
  0
TEXT
  8
_0-0_図面枠
 62
    4
 10
48.400007499999987
 20
87.400003999999953
 40
3.2000000000000002
 41
1
 50
0
  1
ＳＳＧばねフレーム
  0
TEXT
  8
_0-0_図面枠
 62
    4
 10
149.270477
 20
87.400003999999953
 40
3.2000000000000002
 41
1
 50
0
  1
３０００
  0
TEXT
  8
_0-0_図面枠
 62
    4
 10
169.36022149999991
 20
93.449991499999996
 40
3.2000000000000002
 41
1
 50
0
  1
６
  0
TEXT
  8
_0-0_図面枠
 62
    4
 10
48.400007499999987
 20
81.400003999999953
 40
3.2000000000000002
 41
1
 50
0
  1
ＳＳＧフレーム(Ａ)
  0
TEXT
  8
_0-0_図面枠
 62
    4
 10
149.270477
 20
81.400003999999953
 40
3.2000000000000002
 41
1
 50
0
  1
３０００
  0
TEXT
  8
_0-0_図面枠
 62
    4
 10
169.36022149999991
 20
81.45000299999991
 40
3.2000000000000002
 41
1
 50
0
  1
１
  0
TEXT
  8
_0-0_図面枠
 62
    4
 10
48.400007499999987
 20
75.400003999999953
 40
3.2000000000000002
 41
1
 50
0
  1
止水補助板
  0
TEXT
  8
_0-0_図面枠
 62
    4
 10
177.00512500000002
 20
93.40000400000001
 40
3.2000000000000002
 41
1
 50
0
  1
個
  0
TEXT
  8
_0-0_図面枠
 62
    4
 10
378.55000000000007
 20
118.8
 40
3.2000000000000002
 41
1
 50
0
  1
単位
  7
TATEGAKI
  0
TEXT
  8
_0-0_図面枠
 62
    4
 10
169.36022149999991
 20
69.45000299999991
 40
3.2000000000000002
 41
1
 50
0
  1
６
  0
TEXT
  8
_0-0_図面枠
 62
    4
 10
48.400007499999987
 20
63.400009499999996
 40
3.2000000000000002
 41
1
 50
0
  1
ステンタッピンねじ
  0
TEXT
  8
_0-0_図面枠
 62
    4
 10
48.400007499999987
 20
57.400009499999996
 40
3.2000000000000002
 41
1
 50
0
  1
ステンワッシャー
  0
TEXT
  8
_0-0_図面枠
 62
    4
 10
169.36022149999991
 20
45.449997499999981
 40
3.2000000000000002
 41
1
 50
0
  1
２
  0
TEXT
  8
_0-0_図面枠
 62
    4
 10
177.00512500000002
 20
45.400009499999996
 40
3.2000000000000002
 41
1
 50
0
  1
本
  0
TEXT
  8
_0-0_図面枠
 62
    4
 10
166.27045749999996
 20
57.450008499999953
 40
3.2000000000000002
 41
1
 50
0
  1
１２
  0
TEXT
  8
_0-0_図面枠
 62
    4
 10
166.27045749999996
 20
51.450008499999953
 40
3.2000000000000002
 41
1
 50
0
  1
１２
  0
TEXT
  8
_0-0_図面枠
 62
    4
 10
177.00512500000002
 20
69.399992499999982
 40
3.2000000000000002
 41
1
 50
0
  1
本
  0
TEXT
  8
_0-0_図面枠
 62
    4
 10
177.00512500000002
 20
51.399992499999982
 40
3.2000000000000002
 41
1
 50
0
  1
本
  0
TEXT
  8
_0-0_図面枠
 62
    4
 10
40.497050499999972
 20
51.427555499999968
 40
3.2000000000000002
 41
1
 50
0
  1
１０
  0
TEXT
  8
_0-0_図面枠
 62
    4
 10
40.497050499999972
 20
45.427555499999968
 40
3.2000000000000002
 41
1
 50
0
  1
１１
  0
TEXT
  8
_0-0_図面枠
 62
    4
 10
349.27047700000014
 20
105.40000399999995
 40
3.2000000000000002
 41
1
 50
0
  1
３０００
  0
TEXT
  8
_0-0_図面枠
 62
    4
 10
377.00512500000013
 20
105.40000399999995
 40
3.2000000000000002
 41
1
 50
0
  1
本
  0
TEXT
  8
_0-0_図面枠
 62
    4
 10
369.36022150000008
 20
87.45000299999991
 40
3.2000000000000002
 41
1
 50
0
  1
１
  0
TEXT
  8
_0-0_図面枠
 62
    4
 10
377.00512500000013
 20
81.399992499999982
 40
3.2000000000000002
 41
1
 50
0
  1
本
  0
TEXT
  8
_0-0_図面枠
 62
    4
 10
248.40000750000007
 20
69.400009499999996
 40
3.2000000000000002
 41
1
 50
0
  1
ステンセットシルタップ
  0
TEXT
  8
_0-0_図面枠
 62
    4
 10
366.27045750000013
 20
63.450008499999953
 40
3.2000000000000002
 41
1
 50
0
  1
１２
  0
TEXT
  8
_0-0_図面枠
 62
    4
 10
369.36022150000008
 20
105.4499915
 40
3.2000000000000002
 41
1
 50
0
  1
１
  0
TEXT
  8
_0-0_図面枠
 62
    4
 10
349.27047700000014
 20
87.400003999999953
 40
3.2000000000000002
 41
1
 50
0
  1
３０００
  0
TEXT
  8
_0-0_図面枠
 62
    4
 10
369.36022150000008
 20
93.449991499999996
 40
3.2000000000000002
 41
1
 50
0
  1
６
  0
TEXT
  8
_0-0_図面枠
 62
    4
 10
248.40000750000007
 20
81.400003999999953
 40
3.2000000000000002
 41
1
 50
0
  1
ＳＳＧフレーム(Ａ)
  0
TEXT
  8
_0-0_図面枠
 62
    4
 10
349.27047700000014
 20
81.400003999999953
 40
3.2000000000000002
 41
1
 50
0
  1
３０００
  0
TEXT
  8
_0-0_図面枠
 62
    4
 10
369.36022150000008
 20
81.45000299999991
 40
3.2000000000000002
 41
1
 50
0
  1
１
  0
TEXT
  8
_0-0_図面枠
 62
    4
 10
248.40000750000007
 20
75.400003999999953
 40
3.2000000000000002
 41
1
 50
0
  1
止水補助板
  0
TEXT
  8
_0-0_図面枠
 62
    4
 10
377.00512500000013
 20
93.40000400000001
 40
3.2000000000000002
 41
1
 50
0
  1
個
  0
TEXT
  8
_0-0_図面枠
 62
    4
 10
369.36022150000008
 20
69.45000299999991
 40
3.2000000000000002
 41
1
 50
0
  1
６
  0
TEXT
  8
_0-0_図面枠
 62
    4
 10
248.40000750000007
 20
63.400009499999996
 40
3.2000000000000002
 41
1
 50
0
  1
ステンタッピンねじ
  0
TEXT
  8
_0-0_図面枠
 62
    4
 10
248.40000750000007
 20
57.400009499999996
 40
3.2000000000000002
 41
1
 50
0
  1
ステンワッシャー
  0
TEXT
  8
_0-0_図面枠
 62
    4
 10
369.36022150000008
 20
45.449997499999981
 40
3.2000000000000002
 41
1
 50
0
  1
２
  0
TEXT
  8
_0-0_図面枠
 62
    4
 10
377.00512500000013
 20
45.400009499999996
 40
3.2000000000000002
 41
1
 50
0
  1
本
  0
TEXT
  8
_0-0_図面枠
 62
    4
 10
366.27045750000013
 20
57.450008499999953
 40
3.2000000000000002
 41
1
 50
0
  1
１２
  0
TEXT
  8
_0-0_図面枠
 62
    4
 10
377.00512500000013
 20
69.399992499999982
 40
3.2000000000000002
 41
1
 50
0
  1
本
  0
TEXT
  8
_0-0_図面枠
 62
    4
 10
248.40000750000007
 20
99.400003999999953
 40
3.2000000000000002
 41
1
 50
0
  1
ＳＣＧアーム(Ａ)
  0
TEXT
  8
_0-0_図面枠
 62
    4
 10
248.40000750000007
 20
93.400003999999953
 40
3.2000000000000002
 41
1
 50
0
  1
ＳＣＧばね(Ａ)
  0
TEXT
  8
_0-0_図面枠
 62
    4
 10
248.40000750000007
 20
87.400003999999953
 40
3.2000000000000002
 41
1
 50
0
  1
ＳＣＧばねフレーム
  0
TEXT
  8
_0-0_図面枠
 62
    4
 10
377.00512500000013
 20
57.400009499999996
 40
3.2000000000000002
 41
1
 50
0
  1
枚
  0
TEXT
  8
_0-0_図面枠
 62
    4
 10
177.00512500000002
 20
87.400003999999953
 40
3.2000000000000002
 41
1
 50
0
  1
本
  0
TEXT
  8
_0-0_図面枠
 62
    4
 10
177.00512500000002
 20
57.400009499999996
 40
3.2000000000000002
 41
1
 50
0
  1
枚
  0
TEXT
  8
_0-0_図面枠
 62
    4
 10
177.00512500000002
 20
63.399992499999982
 40
3.2000000000000002
 41
1
 50
0
  1
本
  0
TEXT
  8
_0-0_図面枠
 62
    4
 10
377.00512500000013
 20
63.399992499999982
 40
3.2000000000000002
 41
1
 50
0
  1
本
  0
TEXT
  8
_0-0_図面枠
 62
    4
 10
69.300000000000011
 20
114.00000000000001
 40
3.2000000000000002
 41
1
 50
0
  1
部材名称
  0
TEXT
  8
_0-0_図面枠
 62
    4
 10
178.54999999999995
 20
118.80000000000001
 40
3.2000000000000002
 41
1
 50
0
  1
単位
  7
TATEGAKI
  0
TEXT
  8
_0-0_図面枠
 62
    4
 10
102.06669116666673
 20
75.400003999999953
 40
3.2000000000000002
 41
1
 50
0
  1
ＦＳ２５０
  0
TEXT
  8
_0-0_図面枠
 62
    4
 10
102.06669116666673
 20
63.400009499999996
 40
3.2000000000000002
 41
1
 50
0
  1
なべ５×５０
  0
TEXT
  8
_0-0_図面枠
 62
    4
 10
102.0666336666667
 20
57.400003999999981
 40
3.2000000000000002
 41
1
 50
0
  1
１．５×１８×５．５穴
  0
TEXT
  8
_0-0_図面枠
 62
    4
 10
102.0666796666667
 20
69.400009499999996
 40
3.2000000000000002
 41
1
 50
0
  1
４×１９
  0
TEXT
  8
_0-0_図面枠
 62
    4
 10
302.06669116666689
 20
75.400003999999953
 40
3.2000000000000002
 41
1
 50
0
  1
ＦＳ２５０
  0
TEXT
  8
_0-0_図面枠
 62
    4
 10
302.06669116666689
 20
63.400009499999996
 40
3.2000000000000002
 41
1
 50
0
  1
なべ５×５０
  0
TEXT
  8
_0-0_図面枠
 62
    4
 10
302.06663366666686
 20
57.400003999999981
 40
3.2000000000000002
 41
1
 50
0
  1
１．５×１８×５．５穴
  0
TEXT
  8
_0-0_図面枠
 62
    4
 10
302.06667966666686
 20
69.400009499999996
 40
3.2000000000000002
 41
1
 50
0
  1
４×１９
  0
TEXT
  8
_0-0_図面枠
 62
    4
 10
267.63333333333333
 20
113.99999999999999
 40
3.2000000000000002
 41
1
 50
0
  1
部材名称
  0
TEXT
  8
_0-0_図面枠
 62
    4
 10
319.10833333333335
 20
113.99999999999999
 40
3.2000000000000002
 41
1
 50
0
  1
規　格
  0
TEXT
  8
_0-0_図面枠
 62
    4
 10
169.36022149999991
 20
99.45000299999991
 40
3.2000000000000002
 41
1
 50
0
  1
６
  0
TEXT
  8
_0-0_図面枠
 62
    4
 10
177.00512500000002
 20
99.400003999999953
 40
3.2000000000000002
 41
1
 50
0
  1
個
  0
TEXT
  8
_0-0_図面枠
 62
    4
 10
369.36022150000008
 20
99.45000299999991
 40
3.2000000000000002
 41
1
 50
0
  1
６
  0
TEXT
  8
_0-0_図面枠
 62
    4
 10
377.00512500000013
 20
99.400003999999953
 40
3.2000000000000002
 41
1
 50
0
  1
個
  0
TEXT
  8
_0-0_図面枠
 62
    4
 10
119.10833333333336
 20
114
 40
3.2000000000000002
 41
1
 50
0
  1
規　格
  0
TEXT
  8
_0-0_図面枠
 62
    4
 10
102.06669116666673
 20
99.40000400000001
 40
3.2000000000000002
 41
1
 50
0
  1
Ｌ＝１４０
  0
TEXT
  8
_0-0_図面枠
 62
    4
 10
122.30833333333337
 20
105.60000000000005
 40
3.2000000000000002
 41
1
 50
0
  1
―
  0
TEXT
  8
_0-0_図面枠
 62
    4
 10
122.30833333333337
 20
93.600000000000051
 40
3.2000000000000002
 41
1
 50
0
  1
―
  0
TEXT
  8
_0-0_図面枠
 62
    4
 10
122.30833333333337
 20
87.600000000000051
 40
3.2000000000000002
 41
1
 50
0
  1
―
  0
TEXT
  8
_0-0_図面枠
 62
    4
 10
122.30833333333337
 20
81.600000000000051
 40
3.2000000000000002
 41
1
 50
0
  1
―
  0
TEXT
  8
_0-0_図面枠
 62
    4
 10
122.30833333333337
 20
45.599999999999994
 40
3.2000000000000002
 41
1
 50
0
  1
―
  0
TEXT
  8
_0-0_図面枠
 62
    4
 10
322.30833333333328
 20
105.59999999999999
 40
3.2000000000000002
 41
1
 50
0
  1
―
  0
TEXT
  8
_0-0_図面枠
 62
    4
 10
322.30833333333328
 20
93.599999999999994
 40
3.2000000000000002
 41
1
 50
0
  1
―
  0
TEXT
  8
_0-0_図面枠
 62
    4
 10
322.30833333333328
 20
87.599999999999994
 40
3.2000000000000002
 41
1
 50
0
  1
―
  0
TEXT
  8
_0-0_図面枠
 62
    4
 10
322.30833333333328
 20
81.599999999999994
 40
3.2000000000000002
 41
1
 50
0
  1
―
  0
TEXT
  8
_0-0_図面枠
 62
    4
 10
322.30833333333328
 20
45.599999999999994
 40
3.2000000000000002
 41
1
 50
0
  1
―
  0
TEXT
  8
_0-0_図面枠
 62
    4
 10
353.85000000000002
 20
93.599999999999994
 40
3.2000000000000002
 41
1
 50
0
  1
―
  0
TEXT
  8
_0-0_図面枠
 62
    4
 10
353.85000000000002
 20
69.59999999999998
 40
3.2000000000000002
 41
1
 50
0
  1
―
  0
TEXT
  8
_0-0_図面枠
 62
    4
 10
353.85000000000002
 20
63.599999999999994
 40
3.2000000000000002
 41
1
 50
0
  1
―
  0
TEXT
  8
_0-0_図面枠
 62
    4
 10
353.85000000000002
 20
57.599999999999994
 40
3.2000000000000002
 41
1
 50
0
  1
―
  0
TEXT
  8
_0-0_図面枠
 62
    4
 10
153.85000000000002
 20
93.600000000000051
 40
3.2000000000000002
 41
1
 50
0
  1
―
  0
TEXT
  8
_0-0_図面枠
 62
    4
 10
153.85000000000002
 20
69.59999999999998
 40
3.2000000000000002
 41
1
 50
0
  1
―
  0
TEXT
  8
_0-0_図面枠
 62
    4
 10
153.85000000000002
 20
63.599999999999994
 40
3.2000000000000002
 41
1
 50
0
  1
―
  0
TEXT
  8
_0-0_図面枠
 62
    4
 10
153.85000000000002
 20
57.599999999999994
 40
3.2000000000000002
 41
1
 50
0
  1
―
  0
TEXT
  8
_0-0_図面枠
 62
    4
 10
153.85000000000002
 20
51.599999999999994
 40
3.2000000000000002
 41
1
 50
0
  1
―
  0
TEXT
  8
_0-0_図面枠
 62
    4
 10
149.270477
 20
75.400009499999982
 40
3.2000000000000002
 41
1
 50
0
  1
３１００
  0
TEXT
  8
_0-0_図面枠
 62
    4
 10
349.27047700000003
 20
75.400009499999982
 40
3.2000000000000002
 41
1
 50
0
  1
３１００
  0
TEXT
  8
_0-0_図面枠
 62
    4
 10
153.85000000000002
 20
99.600000000000051
 40
3.2000000000000002
 41
1
 50
0
  1
―
  0
TEXT
  8
_0-0_図面枠
 62
    4
 10
169.36022149999991
 20
75.45000299999991
 40
3.2000000000000002
 41
1
 50
0
  1
１
  0
TEXT
  8
_0-0_図面枠
 62
    4
 10
177.00512500000002
 20
75.399992499999982
 40
3.2000000000000002
 41
1
 50
0
  1
枚
  0
TEXT
  8
_0-0_図面枠
 62
    4
 10
102.06669116666673
 20
51.400009499999996
 40
3.2000000000000002
 41
1
 50
0
  1
φ８×４０
  0
TEXT
  8
_0-0_図面枠
 62
    4
 10
377.00512500000013
 20
87.399992499999982
 40
3.2000000000000002
 41
1
 50
0
  1
本
  0
TEXT
  8
_0-0_図面枠
 62
    4
 10
302.06669116666671
 20
99.400003999999953
 40
3.2000000000000002
 41
1
 50
0
  1
Ｌ＝７２
  0
TEXT
  8
_0-0_図面枠
 62
    4
 10
353.85000000000002
 20
99.599999999999994
 40
3.2000000000000002
 41
1
 50
0
  1
―
  0
TEXT
  8
_0-0_図面枠
 62
    4
 10
366.27045750000008
 20
51.450008499999953
 40
3.2000000000000002
 41
1
 50
0
  1
１２
  0
TEXT
  8
_0-0_図面枠
 62
    4
 10
377.00512500000013
 20
51.399992499999982
 40
3.2000000000000002
 41
1
 50
0
  1
本
  0
TEXT
  8
_0-0_図面枠
 62
    4
 10
353.85000000000014
 20
51.599999999999994
 40
3.2000000000000002
 41
1
 50
0
  1
―
  0
TEXT
  8
_0-0_図面枠
 62
    4
 10
302.06669116666683
 20
51.400009499999996
 40
3.2000000000000002
 41
1
 50
0
  1
φ８×４０
  0
TEXT
  8
_0-0_図面枠
 62
    4
 10
41.666666666666686
 20
128
 40
3
 41
1
 50
0
  1
（落下防止ワイヤー）
  0
INSERT
  2
-006-_6_
  8
_1-8_小物
 10
210
 20
148.5
 41
1
 42
1
 50
0
  0
LINE
  8
_1-8_小物
  6
CONTINUOUS
 62
    4
 10
157.03985321657842
 20
131.84018902839435
 11
151.17656837665947
 21
130.18752043233465
  0
LINE
  8
_1-8_小物
  6
CONTINUOUS
 62
    4
 10
157.16066740562403
 20
131.35707331101597
 11
151.24647145802518
 21
129.68796469593613
  0
LINE
  8
_1-8_小物
  6
CONTINUOUS
 62
    4
 10
157.03985321657842
 20
127.15981097160562
 11
151.17656837665947
 21
128.81247956766532
  0
LINE
  8
_1-8_小物
  6
CONTINUOUS
 62
    4
 10
157.16066740562403
 20
127.64292668898401
 11
151.24647145802518
 21
129.31203530406384
  0
LINE
  8
_1-8_小物
  6
CONTINUOUS
 62
    4
 10
157.1606675134222
 20
127.64292665856117
 11
157.1606675134222
 21
127.64292665856117
  0
LINE
  8
_1-8_小物
  6
CONTINUOUS
 62
    4
 10
157.1606675134222
 20
127.64292665856117
 11
157.6334904430544
 21
127.54220923628057
  0
LINE
  8
_1-8_小物
  6
CONTINUOUS
 62
    4
 10
157.6334904430544
 20
127.54220923628057
 11
158.1239067754791
 21
127.50097829566566
  0
LINE
  8
_1-8_小物
  6
CONTINUOUS
 62
    4
 10
158.1239067754791
 20
127.50097829566566
 11
158.61701545859825
 21
127.52048661798315
  0
LINE
  8
_1-8_小物
  6
CONTINUOUS
 62
    4
 10
158.61701545859825
 20
127.52048661798315
 11
159.09783363460025
 21
127.60014145273114
  0
LINE
  8
_1-8_小物
  6
CONTINUOUS
 62
    4
 10
159.09783363460025
 20
127.60014145273114
 11
159.55175188651307
 21
127.73752252806307
  0
LINE
  8
_1-8_小物
  6
CONTINUOUS
 62
    4
 10
159.55175188651307
 20
127.73752252806307
 11
159.96497813794605
 21
127.92845558952315
  0
LINE
  8
_1-8_小物
  6
CONTINUOUS
 62
    4
 10
159.96497813794605
 20
127.92845558952315
 11
160.32495671835193
 21
128.16713923265576
  0
LINE
  8
_1-8_小物
  6
CONTINUOUS
 62
    4
 10
160.32495671835193
 20
128.16713923265576
 11
160.62074986072309
 21
128.446321175744
  0
LINE
  8
_1-8_小物
  6
CONTINUOUS
 62
    4
 10
160.62074986072309
 20
128.446321175744
 11
160.84337004010709
 21
128.75751861672009
  0
LINE
  8
_1-8_小物
  6
CONTINUOUS
 62
    4
 10
160.84337004010709
 20
128.75751861672009
 11
160.98605305500459
 21
129.0912759788134
  0
LINE
  8
_1-8_小物
  6
CONTINUOUS
 62
    4
 10
160.98605305500459
 20
129.0912759788134
 11
161.04446355420905
 21
129.43745221346614
  0
LINE
  8
_1-8_小物
  6
CONTINUOUS
 62
    4
 10
161.04446355420905
 20
129.43745221346614
 11
161.01682676425926
 21
129.78552893096199
  0
LINE
  8
_1-8_小物
  6
CONTINUOUS
 62
    4
 10
161.01682676425926
 20
129.78552893096199
 11
160.90398241503294
 21
130.12492999637519
  0
LINE
  8
_1-8_小物
  6
CONTINUOUS
 62
    4
 10
160.90398241503294
 20
130.12492999637519
 11
160.70935922497938
 21
130.44534288007836
  0
LINE
  8
_1-8_小物
  6
CONTINUOUS
 62
    4
 10
160.70935922497938
 20
130.44534288007836
 11
160.43887072124426
 21
130.73703199873694
  0
LINE
  8
_1-8_小物
  6
CONTINUOUS
 62
    4
 10
160.43887072124426
 20
130.73703199873694
 11
160.10073556013975
 21
130.99113452608228
  0
LINE
  8
_1-8_小物
  6
CONTINUOUS
 62
    4
 10
160.10073556013975
 20
130.99113452608228
 11
159.70522780743138
 21
131.19992968540308
  0
LINE
  8
_1-8_小物
  6
CONTINUOUS
 62
    4
 10
159.70522780743138
 20
131.19992968540308
 11
159.26436476604863
 21
131.35707334143885
  0
LINE
  8
_1-8_小物
  6
CONTINUOUS
 62
    4
 10
159.26436476604863
 20
131.35707334143885
 11
158.79154183641643
 21
131.45779076371943
  0
LINE
  8
_1-8_小物
  6
CONTINUOUS
 62
    4
 10
158.79154183641643
 20
131.45779076371943
 11
158.30112550399173
 21
131.49902170433435
  0
LINE
  8
_1-8_小物
  6
CONTINUOUS
 62
    4
 10
158.30112550399173
 20
131.49902170433435
 11
157.80801682087258
 21
131.47951338201685
  0
LINE
  8
_1-8_小物
  6
CONTINUOUS
 62
    4
 10
157.80801682087258
 20
131.47951338201685
 11
157.32719864487058
 21
131.39985854726888
  0
LINE
  8
_1-8_小物
  6
CONTINUOUS
 62
    4
 10
157.32719864487058
 20
131.39985854726888
 11
157.160667405624
 21
131.35707331101594
  0
LINE
  8
_1-8_小物
  6
CONTINUOUS
 62
    4
 10
157.039853303781
 20
127.15981094702609
 11
157.039853303781
 21
127.15981094702609
  0
LINE
  8
_1-8_小物
  6
CONTINUOUS
 62
    4
 10
157.039853303781
 20
127.15981094702609
 11
157.5994947731449
 21
127.04264060375607
  0
LINE
  8
_1-8_小物
  6
CONTINUOUS
 62
    4
 10
157.5994947731449
 20
127.04264060375607
 11
158.1777625865289
 21
127.00013588225708
  0
LINE
  8
_1-8_小物
  6
CONTINUOUS
 62
    4
 10
158.1777625865289
 20
127.00013588225708
 11
158.75708636904091
 21
127.03358826698343
  0
LINE
  8
_1-8_小物
  6
CONTINUOUS
 62
    4
 10
158.75708636904091
 20
127.03358826698343
 11
159.31986366070132
 21
127.14198132415292
  0
LINE
  8
_1-8_小物
  6
CONTINUOUS
 62
    4
 10
159.31986366070132
 20
127.14198132415292
 11
159.84899475828206
 21
127.32202158557301
  0
LINE
  8
_1-8_小物
  6
CONTINUOUS
 62
    4
 10
159.84899475828206
 20
127.32202158557301
 11
160.32840228113639
 21
127.56823861900521
  0
LINE
  8
_1-8_小物
  6
CONTINUOUS
 62
    4
 10
160.32840228113639
 20
127.56823861900521
 11
160.74351967427432
 21
127.87315124448051
  0
LINE
  8
_1-8_小物
  6
CONTINUOUS
 62
    4
 10
160.74351967427432
 20
127.87315124448051
 11
161.08173380576486
 21
128.22749484616708
  0
LINE
  8
_1-8_小物
  6
CONTINUOUS
 62
    4
 10
161.08173380576486
 20
128.22749484616708
 11
161.33276821036728
 21
128.62050287303418
  0
LINE
  8
_1-8_小物
  6
CONTINUOUS
 62
    4
 10
161.33276821036728
 20
128.62050287303418
 11
161.48899533472729
 21
129.04023397505711
  0
LINE
  8
_1-8_小物
  6
CONTINUOUS
 62
    4
 10
161.48899533472729
 20
129.04023397505711
 11
161.54566829672595
 21
129.47393483509512
  0
LINE
  8
_1-8_小物
  6
CONTINUOUS
 62
    4
 10
161.54566829672595
 20
129.47393483509512
 11
161.5010651170908
 21
129.90842767197913
  0
LINE
  8
_1-8_小物
  6
CONTINUOUS
 62
    4
 10
161.5010651170908
 20
129.90842767197913
 11
161.35654104086481
 21
130.33051064072444
  0
LINE
  8
_1-8_小物
  6
CONTINUOUS
 62
    4
 10
161.35654104086481
 20
130.33051064072444
 11
161.11648735897137
 21
130.72735896391001
  0
LINE
  8
_1-8_小物
  6
CONTINUOUS
 62
    4
 10
161.11648735897137
 20
130.72735896391001
 11
160.78819798106178
 21
131.08691460605075
  0
LINE
  8
_1-8_小物
  6
CONTINUOUS
 62
    4
 10
160.78819798106178
 20
131.08691460605075
 11
160.38164781376139
 21
131.3982526509042
  0
LINE
  8
_1-8_小物
  6
CONTINUOUS
 62
    4
 10
160.38164781376139
 20
131.3982526509042
 11
159.9091896781793
 21
131.6519132495221
  0
LINE
  8
_1-8_小物
  6
CONTINUOUS
 62
    4
 10
159.9091896781793
 20
131.6519132495221
 11
159.38517897568983
 21
131.84018905297393
  0
LINE
  8
_1-8_小物
  6
CONTINUOUS
 62
    4
 10
159.38517897568983
 20
131.84018905297393
 11
158.82553750632593
 21
131.95735939624393
  0
LINE
  8
_1-8_小物
  6
CONTINUOUS
 62
    4
 10
158.82553750632593
 20
131.95735939624393
 11
158.24726969294193
 21
131.99986411774293
  0
LINE
  8
_1-8_小物
  6
CONTINUOUS
 62
    4
 10
158.24726969294193
 20
131.99986411774293
 11
157.66794591042992
 21
131.96641173301657
  0
LINE
  8
_1-8_小物
  6
CONTINUOUS
 62
    4
 10
157.66794591042992
 20
131.96641173301657
 11
157.10516861876951
 21
131.85801867584706
  0
LINE
  8
_1-8_小物
  6
CONTINUOUS
 62
    4
 10
157.10516861876951
 20
131.85801867584706
 11
157.03985321657842
 21
131.84018902839435
  0
ARC
  8
_1-8_小物
  6
CONTINUOUS
 62
    4
 10
149.88841540894515
 20
124.49999999999997
 40
5
 50
74.23983426036601
 51
82.444482010074083
  0
ARC
  8
_1-8_小物
  6
CONTINUOUS
 62
    4
 10
149.82008748449641
 20
123.99999999999997
 40
5
 50
74.258588419679057
 51
81.653895699843488
  0
ARC
  8
_1-8_小物
  6
CONTINUOUS
 62
    4
 10
149.82008748449641
 20
135
 40
5
 50
278.34610430015653
 51
285.74141158032086
  0
ARC
  8
_1-8_小物
  6
CONTINUOUS
 62
    4
 10
149.88841540894515
 20
134.5
 40
5
 50
277.55551798992593
 51
285.76016573963392
  0
INSERT
  2
-007-_7_
  8
_1-8_小物
 10
210
 20
148.5
 41
1
 42
1
 50
0
  0
LINE
  8
_1-8_小物
  6
CONTINUOUS
 62
    4
 10
82.718512396225748
 20
131.84018902839435
 11
88.581797236144695
 21
130.18752043233465
  0
LINE
  8
_1-8_小物
  6
CONTINUOUS
 62
    4
 10
82.597698207180116
 20
131.35707331101597
 11
88.511894154779
 21
129.68796469593613
  0
LINE
  8
_1-8_小物
  6
CONTINUOUS
 62
    4
 10
82.718512396225748
 20
127.15981097160562
 11
88.581797236144695
 21
128.81247956766532
  0
LINE
  8
_1-8_小物
  6
CONTINUOUS
 62
    4
 10
82.597698207180116
 20
127.64292668898401
 11
88.511894154779
 21
129.31203530406384
  0
LINE
  8
_1-8_小物
  6
CONTINUOUS
 62
    4
 10
82.597698207180201
 20
131.35707331101594
 11
82.597698207180201
 21
131.35707331101594
  0
LINE
  8
_1-8_小物
  6
CONTINUOUS
 62
    4
 10
82.597698207180201
 20
131.35707331101594
 11
82.124875283394388
 21
131.45779074697211
  0
LINE
  8
_1-8_小物
  6
CONTINUOUS
 62
    4
 10
82.124875283394388
 20
131.45779074697211
 11
81.634458953363037
 21
131.49902170177148
  0
LINE
  8
_1-8_小物
  6
CONTINUOUS
 62
    4
 10
81.634458953363037
 20
131.49902170177148
 11
81.141350269111499
 21
131.47951339371627
  0
LINE
  8
_1-8_小物
  6
CONTINUOUS
 62
    4
 10
81.141350269111499
 20
131.47951339371627
 11
80.660532088485724
 21
131.39985857287513
  0
LINE
  8
_1-8_小物
  6
CONTINUOUS
 62
    4
 10
80.660532088485724
 20
131.39985857287513
 11
80.206613828598293
 21
131.262477510672
  0
LINE
  8
_1-8_小物
  6
CONTINUOUS
 62
    4
 10
80.206613828598293
 20
131.262477510672
 11
79.79338756608216
 21
131.07154446116377
  0
LINE
  8
_1-8_小物
  6
CONTINUOUS
 62
    4
 10
79.79338756608216
 20
131.07154446116377
 11
79.433408971821308
 21
130.8328608284429
  0
LINE
  8
_1-8_小物
  6
CONTINUOUS
 62
    4
 10
79.433408971821308
 20
130.8328608284429
 11
79.137615813244381
 21
130.55367889390996
  0
LINE
  8
_1-8_小物
  6
CONTINUOUS
 62
    4
 10
79.137615813244381
 20
130.55367889390996
 11
78.914995615796187
 21
130.24248145937278
  0
LINE
  8
_1-8_小物
  6
CONTINUOUS
 62
    4
 10
78.914995615796187
 20
130.24248145937278
 11
78.772312581524943
 21
129.90872410140634
  0
LINE
  8
_1-8_小物
  6
CONTINUOUS
 62
    4
 10
78.772312581524943
 20
129.90872410140634
 11
78.71390206222587
 21
129.56254786844303
  0
LINE
  8
_1-8_小物
  6
CONTINUOUS
 62
    4
 10
78.71390206222587
 20
129.56254786844303
 11
78.741538831970715
 21
129.2144711501478
  0
LINE
  8
_1-8_小物
  6
CONTINUOUS
 62
    4
 10
78.741538831970715
 20
129.2144711501478
 11
78.854383161495676
 21
128.8750700814708
  0
LINE
  8
_1-8_小物
  6
CONTINUOUS
 62
    4
 10
78.854383161495676
 20
128.8750700814708
 11
79.0490063329501
 21
128.55465719213848
  0
LINE
  8
_1-8_小物
  6
CONTINUOUS
 62
    4
 10
79.0490063329501
 20
128.55465719213848
 11
79.319494819753459
 21
128.26296806565651
  0
LINE
  8
_1-8_小物
  6
CONTINUOUS
 62
    4
 10
79.319494819753459
 20
128.26296806565651
 11
79.657629966107976
 21
128.0088655285312
  0
LINE
  8
_1-8_小物
  6
CONTINUOUS
 62
    4
 10
79.657629966107976
 20
128.0088655285312
 11
80.053137706696333
 21
127.80007035777102
  0
LINE
  8
_1-8_小物
  6
CONTINUOUS
 62
    4
 10
80.053137706696333
 20
127.80007035777102
 11
80.494000738957297
 21
127.64292668898406
  0
LINE
  8
_1-8_小物
  6
CONTINUOUS
 62
    4
 10
80.494000738957297
 20
127.64292668898406
 11
80.96682366274311
 21
127.54220925302788
  0
LINE
  8
_1-8_小物
  6
CONTINUOUS
 62
    4
 10
80.96682366274311
 20
127.54220925302788
 11
81.457239992774475
 21
127.50097829822853
  0
LINE
  8
_1-8_小物
  6
CONTINUOUS
 62
    4
 10
81.457239992774475
 20
127.50097829822853
 11
81.950348677026014
 21
127.52048660628371
  0
LINE
  8
_1-8_小物
  6
CONTINUOUS
 62
    4
 10
81.950348677026014
 20
127.52048660628371
 11
82.431166857651789
 21
127.60014142712487
  0
LINE
  8
_1-8_小物
  6
CONTINUOUS
 62
    4
 10
82.431166857651789
 20
127.60014142712487
 11
82.597698099381958
 21
127.64292665856115
  0
LINE
  8
_1-8_小物
  6
CONTINUOUS
 62
    4
 10
82.718512396225748
 20
131.84018902839435
 11
82.718512396225748
 21
131.84018902839435
  0
LINE
  8
_1-8_小物
  6
CONTINUOUS
 62
    4
 10
82.718512396225748
 20
131.84018902839435
 11
82.158870931227966
 21
131.9573593833947
  0
LINE
  8
_1-8_小物
  6
CONTINUOUS
 62
    4
 10
82.158870931227966
 20
131.9573593833947
 11
81.580603119427835
 21
131.99986411701445
  0
LINE
  8
_1-8_小物
  6
CONTINUOUS
 62
    4
 10
81.580603119427835
 20
131.99986411701445
 11
81.001279335669281
 21
131.96641174443101
  0
LINE
  8
_1-8_小物
  6
CONTINUOUS
 62
    4
 10
81.001279335669281
 20
131.96641174443101
 11
80.438502039969819
 21
131.8580186990576
  0
LINE
  8
_1-8_小物
  6
CONTINUOUS
 62
    4
 10
80.438502039969819
 20
131.8580186990576
 11
79.909370935680229
 21
131.67797844872834
  0
LINE
  8
_1-8_小物
  6
CONTINUOUS
 62
    4
 10
79.909370935680229
 20
131.67797844872834
 11
79.429963403651087
 21
131.43176142534475
  0
LINE
  8
_1-8_小物
  6
CONTINUOUS
 62
    4
 10
79.429963403651087
 20
131.43176142534475
 11
79.014845999151206
 21
131.12684880857049
  0
LINE
  8
_1-8_小物
  6
CONTINUOUS
 62
    4
 10
79.014845999151206
 20
131.12684880857049
 11
78.676631854456744
 21
130.77250521397306
  0
LINE
  8
_1-8_小物
  6
CONTINUOUS
 62
    4
 10
78.676631854456744
 20
130.77250521397306
 11
78.425597435209639
 21
130.37949719236775
  0
LINE
  8
_1-8_小物
  6
CONTINUOUS
 62
    4
 10
78.425597435209639
 20
130.37949719236775
 11
78.269370295209171
 21
129.95976609361941
  0
LINE
  8
_1-8_小物
  6
CONTINUOUS
 62
    4
 10
78.269370295209171
 20
129.95976609361941
 11
78.212697317049489
 21
129.52606523476931
  0
LINE
  8
_1-8_小物
  6
CONTINUOUS
 62
    4
 10
78.212697317049489
 20
129.52606523476931
 11
78.257300480494095
 21
129.0915723969504
  0
LINE
  8
_1-8_小物
  6
CONTINUOUS
 62
    4
 10
78.257300480494095
 20
129.0915723969504
 11
78.401824540991996
 21
128.66948942517578
  0
LINE
  8
_1-8_小物
  6
CONTINUOUS
 62
    4
 10
78.401824540991996
 20
128.66948942517578
 11
78.641878208097665
 21
128.27264109695858
  0
LINE
  8
_1-8_小物
  6
CONTINUOUS
 62
    4
 10
78.641878208097665
 20
128.27264109695858
 11
78.970167572609114
 21
127.91308544793674
  0
LINE
  8
_1-8_小物
  6
CONTINUOUS
 62
    4
 10
78.970167572609114
 20
127.91308544793674
 11
79.376717728308108
 21
127.60174739456183
  0
LINE
  8
_1-8_小物
  6
CONTINUOUS
 62
    4
 10
79.376717728308108
 20
127.60174739456183
 11
79.849175854438016
 21
127.34808678604097
  0
LINE
  8
_1-8_小物
  6
CONTINUOUS
 62
    4
 10
79.849175854438016
 20
127.34808678604097
 11
80.37318654991175
 21
127.15981097160564
  0
LINE
  8
_1-8_小物
  6
CONTINUOUS
 62
    4
 10
80.37318654991175
 20
127.15981097160564
 11
80.932828014909546
 21
127.04264061660528
  0
LINE
  8
_1-8_小物
  6
CONTINUOUS
 62
    4
 10
80.932828014909546
 20
127.04264061660528
 11
81.511095826709678
 21
127.00013588298553
  0
LINE
  8
_1-8_小物
  6
CONTINUOUS
 62
    4
 10
81.511095826709678
 20
127.00013588298553
 11
82.090419610468231
 21
127.03358825556899
  0
LINE
  8
_1-8_小物
  6
CONTINUOUS
 62
    4
 10
82.090419610468231
 20
127.03358825556899
 11
82.653196906167693
 21
127.1419813009424
  0
LINE
  8
_1-8_小物
  6
CONTINUOUS
 62
    4
 10
82.653196906167693
 20
127.1419813009424
 11
82.718512309023168
 21
127.15981094702607
  0
ARC
  8
_1-8_小物
  6
CONTINUOUS
 62
    4
 10
89.869950203859005
 20
124.49999999999997
 40
5
 50
97.555517989925761
 51
105.76016573963415
  0
ARC
  8
_1-8_小物
  6
CONTINUOUS
 62
    4
 10
89.938278128307758
 20
123.99999999999997
 40
5
 50
98.346104300156512
 51
105.74141158032096
  0
ARC
  8
_1-8_小物
  6
CONTINUOUS
 62
    4
 10
89.938278128307758
 20
135
 40
5
 50
254.25858841967909
 51
261.65389569984347
  0
ARC
  8
_1-8_小物
  6
CONTINUOUS
 62
    4
 10
89.869950203859005
 20
134.5
 40
5
 50
254.23983426036591
 51
262.44448201007424
  0
LINE
  8
_1-8_小物
  6
CONTINUOUS
 62
    4
 10
91.879182806402085
 20
129.24999999999997
 11
118.21251613973541
 21
129.24999999999997
  0
LINE
  8
_1-8_小物
  6
CONTINUOUS
 62
    4
 10
91.879182806402085
 20
129.75
 11
118.21251613973541
 21
129.75
  0
LINE
  8
_1-8_小物
  6
CONTINUOUS
 62
    4
 10
147.87918280640207
 20
129.24999999999997
 11
121.54584947306876
 21
129.24999999999997
  0
LINE
  8
_1-8_小物
  6
CONTINUOUS
 62
    4
 10
147.87918280640207
 20
129.75
 11
121.54584947306876
 21
129.75
  0
TEXT
  8
_0-0_図面枠
 62
    4
 10
241.66666666666663
 20
128
 40
3
 41
1
 50
0
  1
（落下防止ワイヤー）
  0
INSERT
  2
-008-_8_
  8
_1-8_小物
 10
210
 20
148.5
 41
1
 42
1
 50
0
  0
LINE
  8
_1-8_小物
  6
CONTINUOUS
 62
    4
 10
357.03985321657842
 20
131.84018902839435
 11
351.17656837665947
 21
130.18752043233465
  0
LINE
  8
_1-8_小物
  6
CONTINUOUS
 62
    4
 10
357.16066740562405
 20
131.35707331101597
 11
351.24647145802516
 21
129.68796469593613
  0
LINE
  8
_1-8_小物
  6
CONTINUOUS
 62
    4
 10
357.03985321657842
 20
127.15981097160562
 11
351.17656837665947
 21
128.81247956766532
  0
LINE
  8
_1-8_小物
  6
CONTINUOUS
 62
    4
 10
357.16066740562405
 20
127.64292668898401
 11
351.24647145802516
 21
129.31203530406384
  0
LINE
  8
_1-8_小物
  6
CONTINUOUS
 62
    4
 10
357.1606675134222
 20
127.64292665856115
 11
357.1606675134222
 21
127.64292665856115
  0
LINE
  8
_1-8_小物
  6
CONTINUOUS
 62
    4
 10
357.1606675134222
 20
127.64292665856115
 11
357.63349044305437
 21
127.54220923628056
  0
LINE
  8
_1-8_小物
  6
CONTINUOUS
 62
    4
 10
357.63349044305437
 20
127.54220923628056
 11
358.1239067754791
 21
127.50097829566566
  0
LINE
  8
_1-8_小物
  6
CONTINUOUS
 62
    4
 10
358.1239067754791
 20
127.50097829566566
 11
358.61701545859825
 21
127.52048661798315
  0
LINE
  8
_1-8_小物
  6
CONTINUOUS
 62
    4
 10
358.61701545859825
 20
127.52048661798315
 11
359.09783363460025
 21
127.60014145273114
  0
LINE
  8
_1-8_小物
  6
CONTINUOUS
 62
    4
 10
359.09783363460025
 20
127.60014145273114
 11
359.55175188651305
 21
127.73752252806307
  0
LINE
  8
_1-8_小物
  6
CONTINUOUS
 62
    4
 10
359.55175188651305
 20
127.73752252806307
 11
359.96497813794605
 21
127.92845558952317
  0
LINE
  8
_1-8_小物
  6
CONTINUOUS
 62
    4
 10
359.96497813794605
 20
127.92845558952317
 11
360.32495671835193
 21
128.16713923265576
  0
LINE
  8
_1-8_小物
  6
CONTINUOUS
 62
    4
 10
360.32495671835193
 20
128.16713923265576
 11
360.62074986072309
 21
128.44632117574403
  0
LINE
  8
_1-8_小物
  6
CONTINUOUS
 62
    4
 10
360.62074986072309
 20
128.44632117574403
 11
360.84337004010706
 21
128.75751861672009
  0
LINE
  8
_1-8_小物
  6
CONTINUOUS
 62
    4
 10
360.84337004010706
 20
128.75751861672009
 11
360.98605305500456
 21
129.09127597881343
  0
LINE
  8
_1-8_小物
  6
CONTINUOUS
 62
    4
 10
360.98605305500456
 20
129.09127597881343
 11
361.04446355420902
 21
129.43745221346614
  0
LINE
  8
_1-8_小物
  6
CONTINUOUS
 62
    4
 10
361.04446355420902
 20
129.43745221346614
 11
361.01682676425924
 21
129.78552893096202
  0
LINE
  8
_1-8_小物
  6
CONTINUOUS
 62
    4
 10
361.01682676425924
 20
129.78552893096202
 11
360.90398241503294
 21
130.12492999637522
  0
LINE
  8
_1-8_小物
  6
CONTINUOUS
 62
    4
 10
360.90398241503294
 20
130.12492999637522
 11
360.70935922497932
 21
130.44534288007839
  0
LINE
  8
_1-8_小物
  6
CONTINUOUS
 62
    4
 10
360.70935922497932
 20
130.44534288007839
 11
360.4388707212442
 21
130.73703199873694
  0
LINE
  8
_1-8_小物
  6
CONTINUOUS
 62
    4
 10
360.4388707212442
 20
130.73703199873694
 11
360.1007355601397
 21
130.99113452608228
  0
LINE
  8
_1-8_小物
  6
CONTINUOUS
 62
    4
 10
360.1007355601397
 20
130.99113452608228
 11
359.70522780743136
 21
131.19992968540308
  0
LINE
  8
_1-8_小物
  6
CONTINUOUS
 62
    4
 10
359.70522780743136
 20
131.19992968540308
 11
359.26436476604857
 21
131.35707334143885
  0
LINE
  8
_1-8_小物
  6
CONTINUOUS
 62
    4
 10
359.26436476604857
 20
131.35707334143885
 11
358.7915418364164
 21
131.45779076371943
  0
LINE
  8
_1-8_小物
  6
CONTINUOUS
 62
    4
 10
358.7915418364164
 20
131.45779076371943
 11
358.30112550399167
 21
131.49902170433435
  0
LINE
  8
_1-8_小物
  6
CONTINUOUS
 62
    4
 10
358.30112550399167
 20
131.49902170433435
 11
357.80801682087252
 21
131.47951338201685
  0
LINE
  8
_1-8_小物
  6
CONTINUOUS
 62
    4
 10
357.80801682087252
 20
131.47951338201685
 11
357.32719864487052
 21
131.39985854726888
  0
LINE
  8
_1-8_小物
  6
CONTINUOUS
 62
    4
 10
357.32719864487052
 20
131.39985854726888
 11
357.16066740562394
 21
131.35707331101594
  0
LINE
  8
_1-8_小物
  6
CONTINUOUS
 62
    4
 10
357.039853303781
 20
127.15981094702607
 11
357.039853303781
 21
127.15981094702607
  0
LINE
  8
_1-8_小物
  6
CONTINUOUS
 62
    4
 10
357.039853303781
 20
127.15981094702607
 11
357.5994947731449
 21
127.04264060375607
  0
LINE
  8
_1-8_小物
  6
CONTINUOUS
 62
    4
 10
357.5994947731449
 20
127.04264060375607
 11
358.1777625865289
 21
127.00013588225708
  0
LINE
  8
_1-8_小物
  6
CONTINUOUS
 62
    4
 10
358.1777625865289
 20
127.00013588225708
 11
358.75708636904091
 21
127.03358826698343
  0
LINE
  8
_1-8_小物
  6
CONTINUOUS
 62
    4
 10
358.75708636904091
 20
127.03358826698343
 11
359.31986366070134
 21
127.14198132415294
  0
LINE
  8
_1-8_小物
  6
CONTINUOUS
 62
    4
 10
359.31986366070134
 20
127.14198132415294
 11
359.84899475828206
 21
127.32202158557303
  0
LINE
  8
_1-8_小物
  6
CONTINUOUS
 62
    4
 10
359.84899475828206
 20
127.32202158557303
 11
360.32840228113639
 21
127.56823861900523
  0
LINE
  8
_1-8_小物
  6
CONTINUOUS
 62
    4
 10
360.32840228113639
 20
127.56823861900523
 11
360.7435196742743
 21
127.87315124448052
  0
LINE
  8
_1-8_小物
  6
CONTINUOUS
 62
    4
 10
360.7435196742743
 20
127.87315124448052
 11
361.08173380576483
 21
128.2274948461671
  0
LINE
  8
_1-8_小物
  6
CONTINUOUS
 62
    4
 10
361.08173380576483
 20
128.2274948461671
 11
361.33276821036725
 21
128.62050287303421
  0
LINE
  8
_1-8_小物
  6
CONTINUOUS
 62
    4
 10
361.33276821036725
 20
128.62050287303421
 11
361.48899533472729
 21
129.04023397505713
  0
LINE
  8
_1-8_小物
  6
CONTINUOUS
 62
    4
 10
361.48899533472729
 20
129.04023397505713
 11
361.54566829672592
 21
129.47393483509512
  0
LINE
  8
_1-8_小物
  6
CONTINUOUS
 62
    4
 10
361.54566829672592
 20
129.47393483509512
 11
361.50106511709077
 21
129.90842767197915
  0
LINE
  8
_1-8_小物
  6
CONTINUOUS
 62
    4
 10
361.50106511709077
 20
129.90842767197915
 11
361.35654104086478
 21
130.33051064072447
  0
LINE
  8
_1-8_小物
  6
CONTINUOUS
 62
    4
 10
361.35654104086478
 20
130.33051064072447
 11
361.11648735897131
 21
130.72735896391001
  0
LINE
  8
_1-8_小物
  6
CONTINUOUS
 62
    4
 10
361.11648735897131
 20
130.72735896391001
 11
360.78819798106173
 21
131.08691460605075
  0
LINE
  8
_1-8_小物
  6
CONTINUOUS
 62
    4
 10
360.78819798106173
 20
131.08691460605075
 11
360.38164781376133
 21
131.3982526509042
  0
LINE
  8
_1-8_小物
  6
CONTINUOUS
 62
    4
 10
360.38164781376133
 20
131.3982526509042
 11
359.90918967817925
 21
131.6519132495221
  0
LINE
  8
_1-8_小物
  6
CONTINUOUS
 62
    4
 10
359.90918967817925
 20
131.6519132495221
 11
359.38517897568977
 21
131.84018905297393
  0
LINE
  8
_1-8_小物
  6
CONTINUOUS
 62
    4
 10
359.38517897568977
 20
131.84018905297393
 11
358.82553750632587
 21
131.95735939624393
  0
LINE
  8
_1-8_小物
  6
CONTINUOUS
 62
    4
 10
358.82553750632587
 20
131.95735939624393
 11
358.24726969294187
 21
131.99986411774293
  0
LINE
  8
_1-8_小物
  6
CONTINUOUS
 62
    4
 10
358.24726969294187
 20
131.99986411774293
 11
357.66794591042986
 21
131.96641173301657
  0
LINE
  8
_1-8_小物
  6
CONTINUOUS
 62
    4
 10
357.66794591042986
 20
131.96641173301657
 11
357.10516861876948
 21
131.85801867584706
  0
LINE
  8
_1-8_小物
  6
CONTINUOUS
 62
    4
 10
357.10516861876948
 20
131.85801867584706
 11
357.03985321657842
 21
131.84018902839438
  0
ARC
  8
_1-8_小物
  6
CONTINUOUS
 62
    4
 10
349.88841540894515
 20
124.49999999999997
 40
5
 50
74.239834260366322
 51
82.444482010074083
  0
ARC
  8
_1-8_小物
  6
CONTINUOUS
 62
    4
 10
349.82008748449636
 20
123.99999999999997
 40
5
 50
74.258588419678418
 51
81.653895699842849
  0
ARC
  8
_1-8_小物
  6
CONTINUOUS
 62
    4
 10
349.82008748449636
 20
135
 40
5
 50
278.34610430015715
 51
285.7414115803216
  0
ARC
  8
_1-8_小物
  6
CONTINUOUS
 62
    4
 10
349.88841540894515
 20
134.5
 40
5
 50
277.55551798992593
 51
285.76016573963363
  0
INSERT
  2
-009-_9_
  8
_1-8_小物
 10
210
 20
148.5
 41
1
 42
1
 50
0
  0
LINE
  8
_1-8_小物
  6
CONTINUOUS
 62
    4
 10
282.71851239622572
 20
131.84018902839435
 11
288.58179723614467
 21
130.18752043233465
  0
LINE
  8
_1-8_小物
  6
CONTINUOUS
 62
    4
 10
282.59769820718009
 20
131.35707331101597
 11
288.51189415477899
 21
129.68796469593613
  0
LINE
  8
_1-8_小物
  6
CONTINUOUS
 62
    4
 10
282.71851239622572
 20
127.15981097160562
 11
288.58179723614467
 21
128.81247956766532
  0
LINE
  8
_1-8_小物
  6
CONTINUOUS
 62
    4
 10
282.59769820718009
 20
127.64292668898401
 11
288.51189415477899
 21
129.31203530406384
  0
LINE
  8
_1-8_小物
  6
CONTINUOUS
 62
    4
 10
282.5976982071802
 20
131.35707331101594
 11
282.5976982071802
 21
131.35707331101594
  0
LINE
  8
_1-8_小物
  6
CONTINUOUS
 62
    4
 10
282.5976982071802
 20
131.35707331101594
 11
282.12487528339437
 21
131.45779074697211
  0
LINE
  8
_1-8_小物
  6
CONTINUOUS
 62
    4
 10
282.12487528339437
 20
131.45779074697211
 11
281.63445895336304
 21
131.49902170177148
  0
LINE
  8
_1-8_小物
  6
CONTINUOUS
 62
    4
 10
281.63445895336304
 20
131.49902170177148
 11
281.14135026911151
 21
131.47951339371627
  0
LINE
  8
_1-8_小物
  6
CONTINUOUS
 62
    4
 10
281.14135026911151
 20
131.47951339371627
 11
280.6605320884857
 21
131.39985857287513
  0
LINE
  8
_1-8_小物
  6
CONTINUOUS
 62
    4
 10
280.6605320884857
 20
131.39985857287513
 11
280.20661382859828
 21
131.262477510672
  0
LINE
  8
_1-8_小物
  6
CONTINUOUS
 62
    4
 10
280.20661382859828
 20
131.262477510672
 11
279.79338756608217
 21
131.07154446116377
  0
LINE
  8
_1-8_小物
  6
CONTINUOUS
 62
    4
 10
279.79338756608217
 20
131.07154446116377
 11
279.43340897182128
 21
130.8328608284429
  0
LINE
  8
_1-8_小物
  6
CONTINUOUS
 62
    4
 10
279.43340897182128
 20
130.8328608284429
 11
279.13761581324439
 21
130.55367889390996
  0
LINE
  8
_1-8_小物
  6
CONTINUOUS
 62
    4
 10
279.13761581324439
 20
130.55367889390996
 11
278.91499561579622
 21
130.24248145937278
  0
LINE
  8
_1-8_小物
  6
CONTINUOUS
 62
    4
 10
278.91499561579622
 20
130.24248145937278
 11
278.77231258152494
 21
129.90872410140634
  0
LINE
  8
_1-8_小物
  6
CONTINUOUS
 62
    4
 10
278.77231258152494
 20
129.90872410140634
 11
278.71390206222588
 21
129.56254786844303
  0
LINE
  8
_1-8_小物
  6
CONTINUOUS
 62
    4
 10
278.71390206222588
 20
129.56254786844303
 11
278.74153883197073
 21
129.2144711501478
  0
LINE
  8
_1-8_小物
  6
CONTINUOUS
 62
    4
 10
278.74153883197073
 20
129.2144711501478
 11
278.85438316149566
 21
128.8750700814708
  0
LINE
  8
_1-8_小物
  6
CONTINUOUS
 62
    4
 10
278.85438316149566
 20
128.8750700814708
 11
279.04900633295011
 21
128.55465719213848
  0
LINE
  8
_1-8_小物
  6
CONTINUOUS
 62
    4
 10
279.04900633295011
 20
128.55465719213848
 11
279.31949481975346
 21
128.26296806565651
  0
LINE
  8
_1-8_小物
  6
CONTINUOUS
 62
    4
 10
279.31949481975346
 20
128.26296806565651
 11
279.657629966108
 21
128.0088655285312
  0
LINE
  8
_1-8_小物
  6
CONTINUOUS
 62
    4
 10
279.657629966108
 20
128.0088655285312
 11
280.0531377066963
 21
127.80007035777102
  0
LINE
  8
_1-8_小物
  6
CONTINUOUS
 62
    4
 10
280.0531377066963
 20
127.80007035777102
 11
280.49400073895731
 21
127.64292668898406
  0
LINE
  8
_1-8_小物
  6
CONTINUOUS
 62
    4
 10
280.49400073895731
 20
127.64292668898406
 11
280.96682366274314
 21
127.54220925302788
  0
LINE
  8
_1-8_小物
  6
CONTINUOUS
 62
    4
 10
280.96682366274314
 20
127.54220925302788
 11
281.45723999277448
 21
127.50097829822853
  0
LINE
  8
_1-8_小物
  6
CONTINUOUS
 62
    4
 10
281.45723999277448
 20
127.50097829822853
 11
281.950348677026
 21
127.52048660628371
  0
LINE
  8
_1-8_小物
  6
CONTINUOUS
 62
    4
 10
281.950348677026
 20
127.52048660628371
 11
282.43116685765176
 21
127.60014142712487
  0
LINE
  8
_1-8_小物
  6
CONTINUOUS
 62
    4
 10
282.43116685765176
 20
127.60014142712487
 11
282.59769809938194
 21
127.64292665856115
  0
LINE
  8
_1-8_小物
  6
CONTINUOUS
 62
    4
 10
282.71851239622572
 20
131.84018902839438
 11
282.71851239622572
 21
131.84018902839438
  0
LINE
  8
_1-8_小物
  6
CONTINUOUS
 62
    4
 10
282.71851239622572
 20
131.84018902839438
 11
282.15887093122791
 21
131.9573593833947
  0
LINE
  8
_1-8_小物
  6
CONTINUOUS
 62
    4
 10
282.15887093122791
 20
131.9573593833947
 11
281.58060311942779
 21
131.99986411701445
  0
LINE
  8
_1-8_小物
  6
CONTINUOUS
 62
    4
 10
281.58060311942779
 20
131.99986411701445
 11
281.00127933566927
 21
131.96641174443101
  0
LINE
  8
_1-8_小物
  6
CONTINUOUS
 62
    4
 10
281.00127933566927
 20
131.96641174443101
 11
280.43850203996976
 21
131.8580186990576
  0
LINE
  8
_1-8_小物
  6
CONTINUOUS
 62
    4
 10
280.43850203996976
 20
131.8580186990576
 11
279.90937093568022
 21
131.67797844872834
  0
LINE
  8
_1-8_小物
  6
CONTINUOUS
 62
    4
 10
279.90937093568022
 20
131.67797844872834
 11
279.42996340365107
 21
131.43176142534472
  0
LINE
  8
_1-8_小物
  6
CONTINUOUS
 62
    4
 10
279.42996340365107
 20
131.43176142534472
 11
279.01484599915119
 21
131.12684880857049
  0
LINE
  8
_1-8_小物
  6
CONTINUOUS
 62
    4
 10
279.01484599915119
 20
131.12684880857049
 11
278.67663185445673
 21
130.77250521397303
  0
LINE
  8
_1-8_小物
  6
CONTINUOUS
 62
    4
 10
278.67663185445673
 20
130.77250521397303
 11
278.42559743520962
 21
130.37949719236772
  0
LINE
  8
_1-8_小物
  6
CONTINUOUS
 62
    4
 10
278.42559743520962
 20
130.37949719236772
 11
278.26937029520917
 21
129.95976609361938
  0
LINE
  8
_1-8_小物
  6
CONTINUOUS
 62
    4
 10
278.26937029520917
 20
129.95976609361938
 11
278.2126973170495
 21
129.52606523476928
  0
LINE
  8
_1-8_小物
  6
CONTINUOUS
 62
    4
 10
278.2126973170495
 20
129.52606523476928
 11
278.25730048049411
 21
129.09157239695037
  0
LINE
  8
_1-8_小物
  6
CONTINUOUS
 62
    4
 10
278.25730048049411
 20
129.09157239695037
 11
278.40182454099198
 21
128.66948942517575
  0
LINE
  8
_1-8_小物
  6
CONTINUOUS
 62
    4
 10
278.40182454099198
 20
128.66948942517575
 11
278.64187820809769
 21
128.27264109695858
  0
LINE
  8
_1-8_小物
  6
CONTINUOUS
 62
    4
 10
278.64187820809769
 20
128.27264109695858
 11
278.97016757260911
 21
127.91308544793672
  0
LINE
  8
_1-8_小物
  6
CONTINUOUS
 62
    4
 10
278.97016757260911
 20
127.91308544793672
 11
279.37671772830811
 21
127.60174739456181
  0
LINE
  8
_1-8_小物
  6
CONTINUOUS
 62
    4
 10
279.37671772830811
 20
127.60174739456181
 11
279.84917585443804
 21
127.34808678604097
  0
LINE
  8
_1-8_小物
  6
CONTINUOUS
 62
    4
 10
279.84917585443804
 20
127.34808678604097
 11
280.37318654991179
 21
127.15981097160564
  0
LINE
  8
_1-8_小物
  6
CONTINUOUS
 62
    4
 10
280.37318654991179
 20
127.15981097160564
 11
280.93282801490955
 21
127.04264061660528
  0
LINE
  8
_1-8_小物
  6
CONTINUOUS
 62
    4
 10
280.93282801490955
 20
127.04264061660528
 11
281.51109582670972
 21
127.00013588298553
  0
LINE
  8
_1-8_小物
  6
CONTINUOUS
 62
    4
 10
281.51109582670972
 20
127.00013588298553
 11
282.09041961046825
 21
127.03358825556899
  0
LINE
  8
_1-8_小物
  6
CONTINUOUS
 62
    4
 10
282.09041961046825
 20
127.03358825556899
 11
282.65319690616769
 21
127.14198130094242
  0
LINE
  8
_1-8_小物
  6
CONTINUOUS
 62
    4
 10
282.65319690616769
 20
127.14198130094242
 11
282.71851230902314
 21
127.15981094702607
  0
ARC
  8
_1-8_小物
  6
CONTINUOUS
 62
    4
 10
289.86995020385899
 20
124.49999999999997
 40
5
 50
97.555517989925917
 51
105.76016573963432
  0
ARC
  8
_1-8_小物
  6
CONTINUOUS
 62
    4
 10
289.93827812830773
 20
123.99999999999997
 40
5
 50
98.346104300156512
 51
105.74141158032096
  0
ARC
  8
_1-8_小物
  6
CONTINUOUS
 62
    4
 10
289.93827812830773
 20
135
 40
5
 50
254.25858841967909
 51
261.65389569984347
  0
ARC
  8
_1-8_小物
  6
CONTINUOUS
 62
    4
 10
289.86995020385899
 20
134.5
 40
5
 50
254.23983426036577
 51
262.44448201007407
  0
LINE
  8
_1-8_小物
  6
CONTINUOUS
 62
    4
 10
291.87918280640207
 20
129.24999999999997
 11
318.21251613973538
 21
129.24999999999997
  0
LINE
  8
_1-8_小物
  6
CONTINUOUS
 62
    4
 10
291.87918280640207
 20
129.75
 11
318.21251613973538
 21
129.75
  0
LINE
  8
_1-8_小物
  6
CONTINUOUS
 62
    4
 10
347.87918280640207
 20
129.24999999999997
 11
321.54584947306876
 21
129.24999999999997
  0
LINE
  8
_1-8_小物
  6
CONTINUOUS
 62
    4
 10
347.87918280640207
 20
129.75
 11
321.54584947306876
 21
129.75
  0
LINE
  8
_0-0_図面枠
  6
CONTINUOUS
 62
    4
 10
182.14999999999998
 20
32.199999999999974
 11
40
 21
32.199999999999974
  0
LINE
  8
_0-0_図面枠
  6
CONTINUOUS
 62
    4
 10
182.14999999999998
 20
26.199999999999974
 11
40
 21
26.199999999999974
  0
TEXT
  8
_0-0_図面枠
 62
    4
 10
43.586831999999987
 20
33.427555499999968
 40
3.2000000000000002
 41
1
 50
0
  1
※
  0
TEXT
  8
_0-0_図面枠
 62
    4
 10
169.36022149999991
 20
33.450002999999967
 40
3.2000000000000002
 41
1
 50
0
  1
１
  0
TEXT
  8
_0-0_図面枠
 62
    4
 10
43.586831999999987
 20
27.427560999999955
 40
3.2000000000000002
 41
1
 50
0
  1
※
  0
LINE
  8
_0-0_図面枠
  6
CONTINUOUS
 62
    4
 10
382.15000000000009
 20
26.199999999999974
 11
240
 21
26.199999999999974
  0
LINE
  8
_0-0_図面枠
  6
CONTINUOUS
 62
    4
 10
382.15000000000009
 20
20.199999999999989
 11
240
 21
20.199999999999989
  0
LINE
  8
_0-0_図面枠
  6
CONTINUOUS
 62
    4
 10
382.15000000000009
 20
32.199999999999974
 11
240
 21
32.199999999999974
  0
TEXT
  8
_0-0_図面枠
 62
    4
 10
243.5868145
 20
33.427555499999968
 40
3.2000000000000002
 41
1
 50
0
  1
※
  0
TEXT
  8
_0-0_図面枠
 62
    4
 10
243.5868145
 20
27.427555499999968
 40
3.2000000000000002
 41
1
 50
0
  1
※
  0
TEXT
  8
_0-0_図面枠
 62
    4
 10
243.5868145
 20
21.427558499999989
 40
3.2000000000000002
 41
1
 50
0
  1
※
  0
LINE
  8
_0-0_図面枠
  6
CONTINUOUS
 62
    4
 10
182.14999999999998
 20
20.199999999999989
 11
40
 21
20.199999999999989
  0
TEXT
  8
_0-0_図面枠
 62
    4
 10
43.586831999999987
 20
21.427555499999968
 40
3.2000000000000002
 41
1
 50
0
  1
※
  0
TEXT
  8
_0-0_図面枠
 62
    4
 10
177.00512500000002
 20
33.400003999999953
 40
3.2000000000000002
 41
1
 50
0
  1
個
  0
TEXT
  8
_0-0_図面枠
 62
    4
 10
149.270477
 20
27.400014999999982
 40
3.2000000000000002
 41
1
 50
0
  1
６０００
  0
TEXT
  8
_0-0_図面枠
 62
    4
 10
169.36022149999991
 20
27.450002999999967
 40
3.2000000000000002
 41
1
 50
0
  1
１
  0
TEXT
  8
_0-0_図面枠
 62
    4
 10
177.00512500000002
 20
27.400009499999996
 40
3.2000000000000002
 41
1
 50
0
  1
巻
  0
TEXT
  8
_0-0_図面枠
 62
    4
 10
48.400007499999987
 20
27.400009499999996
 40
3.2000000000000002
 41
1
 50
0
  1
ブチルテープ
  0
TEXT
  8
_0-0_図面枠
 62
    4
 10
169.36022149999991
 20
21.450002999999967
 40
3.2000000000000002
 41
1
 50
0
  1
２
  0
TEXT
  8
_0-0_図面枠
 62
    4
 10
177.00512500000002
 20
21.400009499999996
 40
3.2000000000000002
 41
1
 50
0
  1
本
  0
TEXT
  8
_0-0_図面枠
 62
    4
 10
349.27041950000012
 20
27.400009499999996
 40
3.2000000000000002
 41
1
 50
0
  1
６０００
  0
TEXT
  8
_0-0_図面枠
 62
    4
 10
369.8602370000001
 20
27.450002999999967
 40
3.2000000000000002
 41
1
 50
0
  1
１
  0
TEXT
  8
_0-0_図面枠
 62
    4
 10
377.00510200000008
 20
27.400009499999996
 40
3.2000000000000002
 41
1
 50
0
  1
巻
  0
TEXT
  8
_0-0_図面枠
 62
    4
 10
248.400013
 20
27.400009499999996
 40
3.2000000000000002
 41
1
 50
0
  1
ブチルテープ
  0
TEXT
  8
_0-0_図面枠
 62
    4
 10
369.8602370000001
 20
21.450002999999967
 40
3.2000000000000002
 41
1
 50
0
  1
２
  0
TEXT
  8
_0-0_図面枠
 62
    4
 10
377.00510200000008
 20
21.400006499999975
 40
3.2000000000000002
 41
1
 50
0
  1
本
  0
TEXT
  8
_0-0_図面枠
 62
    4
 10
102.06669116666671
 20
27.400009499999996
 40
3.2000000000000002
 41
1
 50
0
  1
ｔ１．０×ｗ３０
  0
TEXT
  8
_0-0_図面枠
 62
    4
 10
102.06669116666671
 20
21.400009499999982
 40
3.2000000000000002
 41
1
 50
0
  1
１.５×(１×１９)Ｌ＝６００
  0
TEXT
  8
_0-0_図面枠
 62
    4
 10
302.06663366666669
 20
27.400009499999996
 40
3.2000000000000002
 41
1
 50
0
  1
ｔ１．０×ｗ３０
  0
TEXT
  8
_0-0_図面枠
 62
    4
 10
302.06669116666671
 20
21.400009499999982
 40
3.2000000000000002
 41
1
 50
0
  1
１.５×(１×１９)Ｌ＝６００
  0
TEXT
  8
_0-0_図面枠
 62
    4
 10
48.400007500000015
 20
21.400009499999996
 40
3.2000000000000002
 41
1
 50
0
  1
落下防止ワイヤー
  0
TEXT
  8
_0-0_図面枠
 62
    4
 10
248.40000750000002
 20
21.400009499999996
 40
3.2000000000000002
 41
1
 50
0
  1
落下防止ワイヤー
  0
TEXT
  8
_0-0_図面枠
 62
    4
 10
353.85000000000002
 20
21.599999999999966
 40
3.2000000000000002
 41
1
 50
0
  1
―
  0
TEXT
  8
_0-0_図面枠
 62
    4
 10
153.85000000000002
 20
33.59999999999998
 40
3.2000000000000002
 41
1
 50
0
  1
―
  0
TEXT
  8
_0-0_図面枠
 62
    4
 10
153.85000000000002
 20
21.599999999999966
 40
3.2000000000000002
 41
1
 50
0
  1
―
  0
TEXT
  8
_0-0_図面枠
 62
    4
 10
369.36022149999991
 20
33.450002999999981
 40
3.2000000000000002
 41
1
 50
0
  1
１
  0
TEXT
  8
_0-0_図面枠
 62
    4
 10
377.00512500000002
 20
33.400003999999967
 40
3.2000000000000002
 41
1
 50
0
  1
個
  0
TEXT
  8
_0-0_図面枠
 62
    4
 10
353.85000000000002
 20
33.599999999999994
 40
3.2000000000000002
 41
1
 50
0
  1
―
  0
LINE
  8
_0-0_図面枠
  6
CONTINUOUS
 62
    4
 10
182.14999999999998
 20
38.199999999999989
 11
40
 21
38.199999999999989
  0
LINE
  8
_0-0_図面枠
  6
CONTINUOUS
 62
    4
 10
382.15000000000009
 20
38.199999999999989
 11
240
 21
38.199999999999989
  0
TEXT
  8
_0-0_図面枠
 62
    4
 10
153.85000000000002
 20
39.599999999999994
 40
3.2000000000000002
 41
1
 50
0
  1
―
  0
TEXT
  8
_0-0_図面枠
 62
    4
 10
169.36022149999991
 20
39.45000299999991
 40
3.2000000000000002
 41
1
 50
0
  1
６
  0
TEXT
  8
_0-0_図面枠
 62
    4
 10
122.30833333333337
 20
39.599999999999994
 40
3.2000000000000002
 41
1
 50
0
  1
―
  0
TEXT
  8
_0-0_図面枠
 62
    4
 10
40.497050499999972
 20
39.427555499999968
 40
3.2000000000000002
 41
1
 50
0
  1
１２
  0
TEXT
  8
_0-0_図面枠
 62
    4
 10
48.400007499999987
 20
39.400003999999953
 40
3.2000000000000002
 41
1
 50
0
  1
ＳＳＧクリップ
  0
TEXT
  8
_0-0_図面枠
 62
    4
 10
353.85000000000002
 20
39.599999999999994
 40
3.2000000000000002
 41
1
 50
0
  1
―
  0
TEXT
  8
_0-0_図面枠
 62
    4
 10
369.36022149999991
 20
39.45000299999991
 40
3.2000000000000002
 41
1
 50
0
  1
６
  0
TEXT
  8
_0-0_図面枠
 62
    4
 10
322.30833333333334
 20
39.599999999999994
 40
3.2000000000000002
 41
1
 50
0
  1
―
  0
TEXT
  8
_0-0_図面枠
 62
    4
 10
240.49705049999997
 20
39.427555499999968
 40
3.2000000000000002
 41
1
 50
0
  1
１２
  0
TEXT
  8
_0-0_図面枠
 62
    4
 10
248.40000749999999
 20
39.400003999999953
 40
3.2000000000000002
 41
1
 50
0
  1
ＳＳＧクリップ
  0
LINE
  8
_0-0_図面枠
  6
CONTINUOUS
 62
    4
 10
40
 20
20.199999999999989
 11
40
 21
121.00000000000001
  0
LINE
  8
_0-0_図面枠
  6
CONTINUOUS
 62
    4
 10
47.200000000000017
 20
20.199999999999989
 11
47.200000000000017
 21
121.00000000000001
  0
LINE
  8
_0-0_図面枠
  6
CONTINUOUS
 62
    4
 10
182.14999999999998
 20
20.199999999999989
 11
182.14999999999998
 21
121
  0
LINE
  8
_0-0_図面枠
  6
CONTINUOUS
 62
    4
 10
162.94999999999999
 20
20.199999999999989
 11
162.94999999999999
 21
121
  0
LINE
  8
_0-0_図面枠
  6
CONTINUOUS
 62
    4
 10
147.95000000000002
 20
20.199999999999989
 11
147.95000000000002
 21
121
  0
LINE
  8
_0-0_図面枠
  6
CONTINUOUS
 62
    4
 10
174.95000000000005
 20
20.199999999999989
 11
174.95000000000005
 21
121
  0
LINE
  8
_0-0_図面枠
  6
CONTINUOUS
 62
    4
 10
146.95000000000002
 20
20.199999999999989
 11
146.95000000000002
 21
121
  0
LINE
  8
_0-0_図面枠
  6
CONTINUOUS
 62
    4
 10
100.86666666666667
 20
20.199999999999989
 11
100.86666666666667
 21
121
  0
LINE
  8
_0-0_図面枠
  6
CONTINUOUS
 62
    4
 10
240
 20
20.199999999999989
 11
240
 21
121.00000000000001
  0
LINE
  8
_0-0_図面枠
  6
CONTINUOUS
 62
    4
 10
247.20000000000005
 20
20.199999999999989
 11
247.20000000000005
 21
121.00000000000001
  0
LINE
  8
_0-0_図面枠
  6
CONTINUOUS
 62
    4
 10
346.95000000000005
 20
20.199999999999989
 11
346.95000000000005
 21
121
  0
LINE
  8
_0-0_図面枠
  6
CONTINUOUS
 62
    4
 10
382.15000000000009
 20
20.199999999999989
 11
382.15000000000009
 21
121
  0
LINE
  8
_0-0_図面枠
  6
CONTINUOUS
 62
    4
 10
374.95000000000005
 20
20.199999999999989
 11
374.95000000000005
 21
121
  0
LINE
  8
_0-0_図面枠
  6
CONTINUOUS
 62
    4
 10
362.95000000000005
 20
20.199999999999989
 11
362.95000000000005
 21
121
  0
LINE
  8
_0-0_図面枠
  6
CONTINUOUS
 62
    4
 10
347.95000000000005
 20
20.199999999999989
 11
347.95000000000005
 21
121
  0
LINE
  8
_0-0_図面枠
  6
CONTINUOUS
 62
    4
 10
300.86666666666667
 20
20.199999999999989
 11
300.86666666666667
 21
121
  0
CIRCLE
  8
_1-f_寸法
  6
CONTINUOUS
 62
    4
 10
106.66666666666666
 20
215
 40
1.6666666666666665
  0
CIRCLE
  8
_1-f_寸法
  6
CONTINUOUS
 62
    4
 10
106.66666666666666
 20
210
 40
1.6666666666666665
  0
TEXT
  8
_1-f_寸法
 62
    4
 10
106.04166666666664
 20
208.75
 40
2.5
 41
1
 50
0
  1
6
  0
LINE
  8
_1-f_寸法
  6
CONTINUOUS
 62
    4
 10
103.85528751338367
 20
216.8666666666667
 11
105.27818939901525
 21
215.92190490561285
  0
TEXT
  8
_1-f_寸法
 62
    4
 10
105.41666666666664
 20
213.75
 40
2.5
 41
1
 50
0
  1
12
  0
LINE
  8
_1-f_寸法
  6
CONTINUOUS
 62
    4
 10
104.28451779686441
 20
207.5406637929764
 11
105.50709161740011
 21
208.80285193777198
  0
CIRCLE
  8
_1-f_寸法
  6
CONTINUOUS
 62
    4
 10
306.66666666666663
 20
210
 40
1.6666666666666665
  0
TEXT
  8
_1-f_寸法
 62
    4
 10
306.04166666666657
 20
208.75
 40
2.5
 41
1
 50
0
  1
6
  0
LINE
  8
_1-f_寸法
  6
CONTINUOUS
 62
    4
 10
304.29006465724467
 20
207.55027123697761
 11
305.50614492975109
 21
208.80376963927327
  0
CIRCLE
  8
_1-f_寸法
  6
CONTINUOUS
 62
    4
 10
306.66666666666663
 20
215
 40
1.6666666666666665
  0
TEXT
  8
_1-f_寸法
 62
    4
 10
305.41666666666663
 20
213.75
 40
2.5
 41
1
 50
0
  1
12
  0
LINE
  8
_1-f_寸法
  6
CONTINUOUS
 62
    4
 10
305.5419657772473
 20
216.22996979114004
 11
303.28333333333336
 21
218.70000400329161
  0
INSERT
  2
-010-_10_
  8
_1-4_フレ__ム
 10
210
 20
148.5
 41
1
 42
1
 50
0
  0
INSERT
  2
-011-_11_
  8
_1-4_フレ__ム
 10
210
 20
148.5
 41
1
 42
1
 50
0
  0
INSERT
  2
-012-_12_
  8
_1-8_小物
 10
210
 20
148.5
 41
1
 42
1
 50
0
  0
INSERT
  2
-013-_13_
  8
_1-8_小物
 10
210
 20
148.5
 41
1
 42
1
 50
0
  0
INSERT
  2
-014-_14_
  8
_1-7_カバ__
 10
210
 20
148.5
 41
1
 42
1
 50
0
  0
INSERT
  2
-015-_15_
  8
_1-8_小物
 10
210
 20
148.5
 41
1
 42
1
 50
0
  0
TEXT
  8
_0-0_図面枠
 62
    4
 10
48.400007499999987
 20
105.40000399999995
 40
3.2000000000000002
 41
1
 50
0
  1
ＳＳＧキャップ(Ａ)Ｓ
  0
TEXT
  8
_0-0_図面枠
 62
    4
 10
248.40000750000007
 20
105.40000399999995
 40
3.2000000000000002
 41
1
 50
0
  1
ＳＣＧキャップ(Ａ)Ｓ
  0
INSERT
  2
-016-_16_
  8
_1-8_小物
 10
210
 20
148.5
 41
1
 42
1
 50
0
  0
TEXT
  8
_0-0_図面枠
 62
    4
 10
20
 20
280
 40
3.2000000000000002
 41
1
 50
0
  1
（ステンレス５０タイプ）
  0
TEXT
  8
_0-0_図面枠
 62
    4
 10
220
 20
280
 40
3.2000000000000002
 41
1
 50
0
  1
（ステンレス５０タイプ）
  0
TEXT
  8
_0-0_図面枠
 62
    4
 10
30
 20
270
 40
3.2000000000000002
 41
1
 50
0
  1
◇外壁＋外壁（５０ＳＳＧ－Ｓ）　Ｓ＝１／３
  0
TEXT
  8
_0-0_図面枠
 62
    4
 10
230
 20
270
 40
3.2000000000000002
 41
1
 50
0
  1
◇外壁＋外壁コーナー（５０ＳＣＧ－Ｓ）　Ｓ＝１／３
  0
LINE
  8
_1-f_寸法
  6
CONTINUOUS
 62
    4
 10
309.83333333333297
 20
243.33333333333331
 11
309.83333333333297
 21
249.93333333333331
  0
LINE
  8
_1-f_寸法
  6
CONTINUOUS
 62
    4
 10
301.66666666666663
 20
243.33333333333331
 11
301.66666666666663
 21
249.93333333333331
  0
POINT
  8
_1-f_寸法
 62
    4
 10
301.66666666666663
 20
248.33333333333331
  0
POINT
  8
_1-f_寸法
 62
    4
 10
309.83333333333297
 20
248.33333333333331
  0
LINE
  8
_1-f_寸法
  6
CONTINUOUS
 62
    4
 10
301.66666666666663
 20
248.33333333333331
 11
309.83333333333297
 21
248.33333333333331
  0
TEXT
  8
_1-f_寸法
 62
    4
 10
302.54999999999978
 20
248.33333333333331
 40
3.2000000000000002
 41
1
 50
0
  1
24.5
  0
LINE
  8
_1-f_寸法
  6
CONTINUOUS
 62
    4
 10
338.3333333376998
 20
243.33333333333331
 11
338.3333333376998
 21
249.93333333333331
  0
POINT
  8
_1-f_寸法
 62
    4
 10
338.3333333376998
 20
248.33333333333331
  0
LINE
  8
_1-f_寸法
  6
CONTINUOUS
 62
    4
 10
309.83333333333297
 20
248.33333333333331
 11
338.3333333376998
 21
248.33333333333331
  0
TEXT
  8
_1-f_寸法
 62
    4
 10
320.8833333355164
 20
248.33333333333331
 40
3.2000000000000002
 41
1
 50
0
  1
85.5
  0
LINE
  8
_1-f_寸法
  6
CONTINUOUS
 62
    4
 10
343.33333333333331
 20
224.83333333333337
 11
349.93333333333328
 21
224.83333333333337
  0
LINE
  8
_1-f_寸法
  6
CONTINUOUS
 62
    4
 10
343.33333333333331
 20
216.66666666666666
 11
349.93333333333328
 21
216.66666666666666
  0
POINT
  8
_1-f_寸法
 62
    4
 10
348.33333333333331
 20
216.66666666666666
  0
POINT
  8
_1-f_寸法
 62
    4
 10
348.33333333333331
 20
224.83333333333337
  0
LINE
  8
_1-f_寸法
  6
CONTINUOUS
 62
    4
 10
348.33333333333331
 20
216.66666666666666
 11
348.33333333333331
 21
224.83333333333337
  0
TEXT
  8
_1-f_寸法
 62
    4
 10
348.33333333333331
 20
217.55000000000001
 40
3.2000000000000002
 41
1
 50
90
  1
24.5
  0
INSERT
  2
-017-_17_
  8
_1-6_ばね
 10
210
 20
148.5
 41
1
 42
1
 50
0
  0
INSERT
  2
-018-_18_
  8
_1-6_ばね
 10
210
 20
148.5
 41
1
 42
1
 50
0
  0
INSERT
  2
-019-_19_
  8
_1-8_小物
 10
210
 20
148.5
 41
1
 42
1
 50
0
  0
INSERT
  2
-020-_20_
  8
_1-8_小物
 10
210
 20
148.5
 41
1
 42
1
 50
0
  0
INSERT
  2
-021-_21_
  8
_1-8_小物
 10
210
 20
148.5
 41
1
 42
1
 50
0
  0
INSERT
  2
-022-_22_
  8
_1-8_小物
 10
210
 20
148.5
 41
1
 42
1
 50
0
  0
INSERT
  2
-023-_23_
  8
_1-5_ア__ム
 10
210
 20
148.5
 41
1
 42
1
 50
0
  0
INSERT
  2
-024-_24_
  8
_1-5_ア__ム
 10
210
 20
148.5
 41
1
 42
1
 50
0
  0
LINE
  8
_1-5_ア__ム
  6
CONTINUOUS
 62
    4
 10
143.33333333333331
 20
224.83333333333343
 11
149.93333333333331
 21
224.83333333333343
  0
LINE
  8
_1-5_ア__ム
  6
CONTINUOUS
 62
    4
 10
143.33333333333331
 20
216.66666666666666
 11
149.93333333333331
 21
216.66666666666666
  0
POINT
  8
_1-5_ア__ム
 62
    4
 10
148.33333333333331
 20
216.66666666666666
  0
POINT
  8
_1-5_ア__ム
 62
    4
 10
148.33333333333331
 20
224.83333333333343
  0
LINE
  8
_1-5_ア__ム
  6
CONTINUOUS
 62
    4
 10
148.33333333333331
 20
216.66666666666666
 11
148.33333333333331
 21
224.83333333333343
  0
TEXT
  8
_1-5_ア__ム
 62
    4
 10
148.33333333333331
 20
217.55000000000007
 40
3.2000000000000002
 41
1
 50
90
  1
24.5
  0
INSERT
  2
-025-_25_
  8
_1-7_カバ__
 10
210
 20
148.5
 41
1
 42
1
 50
0
  0
LINE
  8
_1-f_寸法
  6
CONTINUOUS
 62
    4
 10
343.33333333333331
 20
240.00000000000006
 11
349.93333333333328
 21
240.00000000000006
  0
LINE
  8
_1-f_寸法
  6
CONTINUOUS
 62
    4
 10
343.33333333333331
 20
224.8333333333334
 11
349.93333333333328
 21
224.8333333333334
  0
POINT
  8
_1-f_寸法
 62
    4
 10
348.33333333333331
 20
224.8333333333334
  0
POINT
  8
_1-f_寸法
 62
    4
 10
348.33333333333331
 20
240.00000000000006
  0
LINE
  8
_1-f_寸法
  6
CONTINUOUS
 62
    4
 10
348.33333333333331
 20
224.8333333333334
 11
348.33333333333331
 21
240.00000000000006
  0
TEXT
  8
_1-f_寸法
 62
    4
 10
348.33333333333331
 20
229.21666666666675
 40
3.2000000000000002
 41
1
 50
90
  1
45.5
  0
LINE
  8
_1-f_寸法
  6
CONTINUOUS
 62
    4
 10
348.33333333333331
 20
240.00000000000006
 11
356.59999999999997
 21
240.00000000000006
  0
LINE
  8
_1-f_寸法
  6
CONTINUOUS
 62
    4
 10
348.33333333333331
 20
216.66666666666666
 11
356.59999999999997
 21
216.66666666666666
  0
POINT
  8
_1-f_寸法
 62
    4
 10
355
 20
216.66666666666666
  0
POINT
  8
_1-f_寸法
 62
    4
 10
355
 20
240.00000000000006
  0
LINE
  8
_1-f_寸法
  6
CONTINUOUS
 62
    4
 10
355
 20
216.66666666666666
 11
355
 21
240.00000000000006
  0
TEXT
  8
_1-f_寸法
 62
    4
 10
355
 20
226.73333333333338
 40
3.2000000000000002
 41
1
 50
90
  1
70
  0
LINE
  8
_1-f_寸法
  6
CONTINUOUS
 62
    4
 10
305.48815536468902
 20
242.15482203135574
 11
302.89837287806597
 21
239.56503954473274
  0
LINE
  8
_1-f_寸法
  6
CONTINUOUS
 62
    4
 10
340.48815536905556
 20
220.48815536468902
 11
337.89837288243166
 21
217.8983728780652
  0
TEXT
  8
_0-0_図面枠
 62
    4
 10
369.36022150000002
 20
75.45000299999991
 40
3.2000000000000002
 41
1
 50
0
  1
１
  0
TEXT
  8
_0-0_図面枠
 62
    4
 10
377.00512500000013
 20
75.399992499999982
 40
3.2000000000000002
 41
1
 50
0
  1
枚
  0
TEXT
  8
_0-0_図面枠
 62
    4
 10
177.00512500000002
 20
39.399992499999982
 40
3.2000000000000002
 41
1
 50
0
  1
個
  0
TEXT
  8
_0-0_図面枠
 62
    4
 10
377.00512500000002
 20
39.399992499999982
 40
3.2000000000000002
 41
1
 50
0
  1
個
  0
TEXT
  8
_0-0_図面枠
 62
    4
 10
48.400007499999987
 20
51.400003999999953
 40
3.2000000000000002
 41
1
 50
0
  1
アンカープラグ
  0
TEXT
  8
_0-0_図面枠
 62
    4
 10
248.4000075000001
 20
51.400003999999953
 40
3.2000000000000002
 41
1
 50
0
  1
アンカープラグ
  0
LINE
  8
_0-0_図面枠
  6
CONTINUOUS
 62
    2
 10
165.00000000000003
 20
246.99999999999994
 11
210.00000000000003
 21
246.99999999999994
  0
LINE
  8
_0-0_図面枠
  6
CONTINUOUS
 62
    2
 10
165.00000000000003
 20
246.99999999999994
 11
165.00000000000003
 21
287
  0
INSERT
  2
-026-_26_
  8
_0-0_図面枠
 10
210
 20
148.5
 41
1
 42
1
 50
0
  0
LINE
  8
_0-0_図面枠
  6
CONTINUOUS
 62
    2
 10
178.99460475445105
 20
263.11505807960714
 11
181.1596682639121
 21
261.86505807960714
  0
LINE
  8
_0-0_図面枠
  6
CONTINUOUS
 62
    2
 10
181.1596682639121
 20
261.86505807960714
 11
195.88210012824757
 21
270.36505807960714
  0
LINE
  8
_0-0_図面枠
  6
CONTINUOUS
 62
    2
 10
195.88210012824757
 20
270.36505807960714
 11
193.71703661878647
 21
271.61505807960714
  0
LINE
  8
_0-0_図面枠
  6
CONTINUOUS
 62
    2
 10
181.1596682639121
 20
261.86505807960714
 11
181.1596682639121
 21
251.86505807960714
  0
LINE
  8
_0-0_図面枠
  6
CONTINUOUS
 62
    2
 10
178.99460475445105
 20
263.11505807960714
 11
178.99460475445105
 21
253.11505807960714
  0
LINE
  8
_0-0_図面枠
  6
CONTINUOUS
 62
    2
 10
195.88210012824757
 20
270.36505807960714
 11
195.88210012824757
 21
270.18409224854935
  0
LINE
  8
_0-0_図面枠
  6
CONTINUOUS
 62
    2
 10
195.88210012824757
 20
268.01364867294285
 11
195.88210012824757
 21
260.36505807960714
  0
LINE
  8
_0-0_図面枠
  6
CONTINUOUS
 62
    2
 10
193.71703661878647
 20
271.61505807960714
 11
193.71703661878647
 21
271.52033947808678
  0
LINE
  8
_0-0_図面枠
  6
CONTINUOUS
 62
    2
 10
193.71703661878647
 20
270.73757885370628
 11
193.71703661878647
 21
269.11505807960714
  0
LINE
  8
_0-0_図面枠
  6
CONTINUOUS
 62
    3
 10
184.19075717715768
 20
266.11505807960714
 11
184.19075717715768
 21
263.61505807960714
  0
LINE
  8
_0-0_図面枠
  6
CONTINUOUS
 62
    3
 10
188.52088419607989
 20
268.61505807960714
 11
188.52088419607989
 21
266.11505807960714
  0
LINE
  8
_0-0_図面枠
  6
CONTINUOUS
 62
    3
 10
184.19075717715768
 20
266.11505807960714
 11
178.99460475445105
 21
263.11505807960714
  0
LINE
  8
_0-0_図面枠
  6
CONTINUOUS
 62
    3
 10
188.52088419607989
 20
268.61505807960714
 11
184.19075717715774
 21
271.11505807960714
  0
LINE
  8
_0-0_図面枠
  6
CONTINUOUS
 62
    3
 10
184.19075717715768
 20
266.11505807960714
 11
179.86063015823552
 21
268.61505807960714
  0
LINE
  8
_0-0_図面枠
  6
CONTINUOUS
 62
    3
 10
178.99460475445105
 20
263.11505807960714
 11
175.53050313931331
 21
261.11505807960714
  0
LINE
  8
_0-0_図面枠
  6
CONTINUOUS
 62
    3
 10
193.71703661878647
 20
271.61505807960714
 11
197.18113823392426
 21
273.61505807960714
  0
LINE
  8
_0-0_図面枠
  6
CONTINUOUS
 62
    3
 10
193.71703661878647
 20
271.61505807960714
 11
193.68236424150385
 21
271.59503997324953
  0
LINE
  8
_0-0_図面枠
  6
CONTINUOUS
 62
    3
 10
192.51835025799224
 20
270.92299618652862
 11
188.52088419607989
 21
268.61505807960714
  0
TEXT
  8
_0-0_図面枠
 62
    4
 10
195.7385458179771
 20
280.88494192039275
 40
2.5
 41
1
 50
0
  1
+25
  0
TEXT
  8
_0-0_図面枠
 62
    4
 10
173.22228872183663
 20
267.88610650082211
 40
2.5
 41
1
 50
0
  1
-25
  0
TEXT
  8
_0-0_図面枠
 62
    4
 10
173.22269212770598
 20
280.88494192039275
 40
2.5
 41
1
 50
0
  1
-25
  0
TEXT
  8
_0-0_図面枠
 62
    4
 10
195.73854581797704
 20
267.88540773128045
 40
2.5
 41
1
 50
0
  1
+25
  0
LINE
  8
_0-0_図面枠
  6
CONTINUOUS
 62
    2
 10
365.00000000000006
 20
246.99999999999994
 11
410.00000000000006
 21
246.99999999999994
  0
LINE
  8
_0-0_図面枠
  6
CONTINUOUS
 62
    2
 10
365.00000000000006
 20
247
 11
365.00000000000006
 21
287
  0
INSERT
  2
-027-_27_
  8
_0-0_図面枠
 10
210
 20
148.5
 41
1
 42
1
 50
0
  0
LINE
  8
_0-0_図面枠
  6
CONTINUOUS
 62
    4
 10
392.70254983187715
 20
272.37647457958167
 11
392.66787745459447
 21
272.35645647322406
  0
LINE
  8
_0-0_図面枠
  6
CONTINUOUS
 62
    2
 10
377.98011796754173
 20
263.87647457958167
 11
380.14518147700278
 21
262.62647457958167
  0
LINE
  8
_0-0_図面枠
  6
CONTINUOUS
 62
    2
 10
380.14518147700278
 20
262.62647457958167
 11
380.14518147700278
 21
252.62647457958167
  0
LINE
  8
_0-0_図面枠
  6
CONTINUOUS
 62
    2
 10
377.98011796754173
 20
263.87647457958167
 11
377.98011796754173
 21
253.87647457958167
  0
LINE
  8
_0-0_図面枠
  6
CONTINUOUS
 62
    2
 10
387.50639740917057
 20
266.87647457958161
 11
390.97049902430831
 21
264.87647457958161
  0
LINE
  8
_0-0_図面枠
  6
CONTINUOUS
 62
    2
 10
390.97049902430831
 20
264.87647457958161
 11
393.13556253376942
 21
266.12647457958161
  0
LINE
  8
_0-0_図面枠
  6
CONTINUOUS
 62
    2
 10
380.14518147700278
 20
262.62647457958167
 11
387.50639740917046
 21
266.87647457958167
  0
LINE
  8
_0-0_図面枠
  6
CONTINUOUS
 62
    2
 10
390.97049902430831
 20
264.87647457958161
 11
390.97049902430831
 21
254.87647457958161
  0
LINE
  8
_0-0_図面枠
  6
CONTINUOUS
 62
    2
 10
393.13556253376942
 20
266.12647457958161
 11
393.13556253376942
 21
256.12647457958161
  0
LINE
  8
_0-0_図面枠
  6
CONTINUOUS
 62
    3
 10
377.98011796754173
 20
263.87647457958167
 11
374.51601635240394
 21
261.87647457958167
  0
LINE
  8
_0-0_図面枠
  6
CONTINUOUS
 62
    3
 10
383.17627039024836
 20
266.87647457958167
 11
383.17627039024836
 21
264.37647457958167
  0
LINE
  8
_0-0_図面枠
  6
CONTINUOUS
 62
    3
 10
383.17627039024836
 20
266.87647457958167
 11
377.98011796754173
 21
263.87647457958167
  0
LINE
  8
_0-0_図面枠
  6
CONTINUOUS
 62
    3
 10
396.16665144701494
 20
264.37647457958167
 11
383.17627039024836
 21
271.87647457958167
  0
LINE
  8
_0-0_図面枠
  6
CONTINUOUS
 62
    3
 10
396.16665144701494
 20
264.37647457958167
 11
400.4967784659371
 21
266.87647457958167
  0
LINE
  8
_0-0_図面枠
  6
CONTINUOUS
 62
    3
 10
396.16665144701494
 20
264.37647457958161
 11
396.16665144701494
 21
254.37647457958161
  0
LINE
  8
_0-0_図面枠
  6
CONTINUOUS
 62
    3
 10
383.17627039024836
 20
266.87647457958167
 11
378.84614337132615
 21
269.37647457958167
  0
TEXT
  8
_0-0_図面枠
 62
    4
 10
372.20860876835116
 20
281.64635842036728
 40
2.5
 41
1
 50
0
  1
-25
  0
TEXT
  8
_0-0_図面枠
 62
    4
 10
394.72446245862221
 20
268.64682423125498
 40
2.5
 41
1
 50
0
  1
+25
  0
TEXT
  8
_0-0_図面枠
 62
    4
 10
394.72446245862227
 20
281.64635842036728
 40
2.5
 41
1
 50
0
  1
+25
  0
TEXT
  8
_0-0_図面枠
 62
    4
 10
372.20820536248181
 20
268.64752300079664
 40
2.5
 41
1
 50
0
  1
-25
  0
INSERT
  2
-028-_28_
  8
_1-8_小物
 10
210
 20
148.5
 41
1
 42
1
 50
0
  0
INSERT
  2
-029-_29_
  8
_1-8_小物
 10
210
 20
148.5
 41
1
 42
1
 50
0
  0
INSERT
  2
-030-_30_
  8
_1-8_小物
 10
210
 20
148.5
 41
1
 42
1
 50
0
  0
INSERT
  2
-031-_31_
  8
_1-8_小物
 10
210
 20
148.5
 41
1
 42
1
 50
0
  0
TEXT
  8
_0-0_図面枠
 62
    4
 10
48.400007499999987
 20
45.400003999999953
 40
3.2000000000000002
 41
1
 50
0
  1
ガスケットＧＮ
  0
TEXT
  8
_0-0_図面枠
 62
    4
 10
149.270477
 20
45.400009499999996
 40
3.2000000000000002
 41
1
 50
0
  1
３０１０
  0
TEXT
  8
_0-0_図面枠
 62
    4
 10
248.40000750000007
 20
45.400003999999953
 40
3.2000000000000002
 41
1
 50
0
  1
ガスケットＧＮ
  0
TEXT
  8
_0-0_図面枠
 62
    4
 10
349.27047700000014
 20
45.400009499999996
 40
3.2000000000000002
 41
1
 50
0
  1
３０１０
  0
LINE
  8
_0-0_図面枠
  6
CONTINUOUS
 62
    4
 10
387.50639740917046
 20
266.87647457958161
 11
387.50639740917046
 21
256.87647457958161
  0
TEXT
  8
_0-0_図面枠
 62
    4
 10
47.200000000000017
 20
35.199999999999989
 40
2.5
 41
1
 50
0
  1
 ジョイントプレート
  0
TEXT
  8
_0-0_図面枠
 62
    4
 10
247.20000000000005
 20
35.199999999999989
 40
2.5
 41
1
 50
0
  1
 ジョイントプレート
  0
TEXT
  8
_0-0_図面枠
 62
    4
 10
47.200000000000017
 20
32.199999999999989
 40
2.5
 41
1
 50
0
  1
（５０ＳＳＧＪＰ-Ｓ）
  0
TEXT
  8
_0-0_図面枠
 62
    4
 10
102.06667966666669
 20
33.400003999999953
 40
3.2000000000000002
 41
1
 50
0
  1
ＳＵＳ　ｔ＝０．８
  0
TEXT
  8
_0-0_図面枠
 62
    4
 10
302.06667966666669
 20
33.400003999999953
 40
3.2000000000000002
 41
1
 50
0
  1
ＳＵＳ　ｔ＝０．８
  0
TEXT
  8
_0-0_図面枠
 62
    4
 10
247.20000000000005
 20
32.199999999999989
 40
2.5
 41
1
 50
0
  1
（５０ＳＣＧＪＰ-Ｓ）
  0
ENDSEC
  0
EOF
