  0
SECTION
  2
HEADER
  9
$ACADVER
  1
AC1009
  9
$INSBASE
 10
0
 20
0
 30
0
  9
$EXTMIN
 10
0
 20
0
  9
$EXTMAX
 10
420
 20
297
  9
$LIMMIN
 10
0
 20
0
  9
$LIMMAX
 10
420
 20
297
  9
$LTSCALE
 40
1
  0
ENDSEC
  0
SECTION
  2
TABLES
  0
TABLE
  2
LTYPE
 70
     9
  0
LTYPE
  2
CONTINUOUS
 70
    64
  3
実線
 72
    65
 73
     0
 40
0.0
  0
LTYPE
  2
DASHED1
 70
    64
  3
--  --  --  --  --  --  --  --  
 72
    65
 73
     2
 40
2.5
 49
1.25
 49
-1.25
  0
LTYPE
  2
DASHED2
 70
    64
  3
----    ----    ----    ----    
 72
    65
 73
     2
 40
5.0
 49
2.5
 49
-2.5
  0
LTYPE
  2
DASHED3
 70
    64
  3
------  ------  ------  ------  
 72
    65
 73
     2
 40
5.0
 49
3.75
 49
-1.25
  0
LTYPE
  2
CENTER1
 70
    64
  3
----- - ----- - ----- - ----- - 
 72
    65
 73
     4
 40
10.0
 49
6.25
 49
-1.25
 49
1.25
 49
-1.25
  0
LTYPE
  2
CENTER2
 70
    64
  3
----------  --  ----------  --  
 72
    65
 73
     4
 40
20.0
 49
12.5
 49
-2.5
 49
2.5
 49
-2.5
  0
LTYPE
  2
PHANTOM1
 70
    64
  3
--- - - --- - - --- - - --- - - 
 72
    65
 73
     6
 40
10.0
 49
3.25
 49
-1.25
 49
1.25
 49
-1.25
 49
1.25
 49
-1.25
  0
LTYPE
  2
PHANTOM2
 70
    64
  3
--------  -  -  --------  -  -  
 72
    65
 73
     6
 40
20.0
 49
10.0
 49
-2.5
 49
1.25
 49
-2.5
 49
1.25
 49
-2.5
  0
LTYPE
  2
DOT
 70
    64
  3
-   -   -   -   -   -   -   -   
 72
    65
 73
     2
 40
2.5
 49
0.625
 49
-1.875
  0
LTYPE
  2
DUMMY
 70
    64
  3
ダミー
 72
    65
 73
     0
 40
0.0
  0
LTYPE
  2
RAND1
 70
    64
  3
ランダム線1
 72
    65
 73
     4
 40
10.0
 49
1.0
 49
-2.0
 49
3.0
 49
-4.0
  0
LTYPE
  2
RAND2
 70
    64
  3
ランダム線2
 72
    65
 73
     4
 40
14.0
 49
2.0
 49
-3.0
 49
4.0
 49
-5.0
  0
LTYPE
  2
RAND3
 70
    64
  3
ランダム線3
 72
    65
 73
     4
 40
18.0
 49
3.0
 49
-4.0
 49
5.0
 49
-6.0
  0
LTYPE
  2
RAND4
 70
    64
  3
ランダム線4
 72
    65
 73
     4
 40
22.0
 49
4.0
 49
-5.0
 49
6.0
 49
-7.0
  0
LTYPE
  2
RAND5
 70
    64
  3
ランダム線5
 72
    65
 73
     4
 40
26.0
 49
5.0
 49
-6.0
 49
7.0
 49
-8.0
  0
LTYPE
  2
LONG1
 70
    64
  3
----------  --  ----------  --  
 72
    65
 73
     4
 40
40.0
 49
32.5
 49
-2.5
 49
2.5
 49
-2.5
  0
LTYPE
  2
LONG2
 70
    64
  3
--------  -  -  --------  -  -  
 72
    65
 73
     6
 40
40.0
 49
30.0
 49
-2.5
 49
1.25
 49
-2.5
 49
1.25
 49
-2.5
  0
LTYPE
  2
LONG3
 70
    64
  3
+++++++++++++++..+++++++++++++++
 72
    65
 73
     2
 40
40.0
 49
37.5
 49
-2.5
  0
LTYPE
  2
LONG4
 70
    64
  3
+++++++++++++++..+++++++++++++++
 72
    65
 73
     2
 40
80.0
 49
75.0
 49
-5.0
  0
LTYPE
  2
LONG5
 70
    64
  3
----------  --  ----------  --  
 72
    65
 73
     4
 40
60.0
 49
37.5
 49
-7.5
 49
7.5
 49
-7.5
  0
LTYPE
  2
dashed
 70
   64
  3
-------   -------------   ------
 72
   65
 73
    2
 40
7.5
 49
6
 49
-1.5
  0
LTYPE
  2
dashed_spaced
 70
   64
  3
----        --------        ----
 72
   65
 73
    2
 40
12
 49
6
 49
-6
  0
LTYPE
  2
long_dashed_dotted
 70
   64
  3
------------- --- --------------
 72
   65
 73
    4
 40
15.25
 49
12
 49
-1.5
 49
0.25
 49
-1.5
  0
LTYPE
  2
long_dashed_double-dotted
 70
   64
  3
----------- --- --- ------------
 72
   65
 73
    6
 40
17
 49
12
 49
-1.5
 49
0.25
 49
-1.5
 49
0.25
 49
-1.5
  0
LTYPE
  2
long_dashed_triplicate-dotted
 70
   64
  3
--------- --- --- --- ----------
 72
   65
 73
    8
 40
18.75
 49
12
 49
-1.5
 49
0.25
 49
-1.5
 49
0.25
 49
-1.5
 49
0.25
 49
-1.5
  0
LTYPE
  2
dotted
 70
   64
  3
   -       -       -       -    
 72
   65
 73
    2
 40
1.75
 49
0.25
 49
-1.5
  0
LTYPE
  2
chain
 70
   64
  3
-------------- -- --------------
 72
   65
 73
    4
 40
18.5
 49
12
 49
-1.5
 49
3.5
 49
-1.5
  0
LTYPE
  2
chain_double_dash
 70
   64
  3
------------ -- -- -------------
 72
   65
 73
    6
 40
23.5
 49
12
 49
-1.5
 49
3.5
 49
-1.5
 49
3.5
 49
-1.5
  0
LTYPE
  2
dashed_dotted
 70
   64
  3
-----------     -     ----------
 72
   65
 73
    4
 40
9.25
 49
6
 49
-1.5
 49
0.25
 49
-1.5
  0
LTYPE
  2
double-dashed_dotted
 70
   64
  3
------   -----------   -   -----
 72
   65
 73
    6
 40
16.75
 49
6
 49
-1.5
 49
6
 49
-1.5
 49
0.25
 49
-1.5
  0
LTYPE
  2
dashed_double-dotted
 70
   64
  3
---------    -    -    ---------
 72
   65
 73
    6
 40
11
 49
6
 49
-1.5
 49
0.25
 49
-1.5
 49
0.25
 49
-1.5
  0
LTYPE
  2
double-dashed_double-dotted
 70
   64
  3
-----   ---------   -   -   ----
 72
   65
 73
    8
 40
18.5
 49
6
 49
-1.5
 49
6
 49
-1.5
 49
0.25
 49
-1.5
 49
0.25
 49
-1.5
  0
LTYPE
  2
dashed_triplicate-dotted
 70
   64
  3
-------    -    -    -    ------
 72
   65
 73
    8
 40
12.75
 49
6
 49
-1.5
 49
0.25
 49
-1.5
 49
0.25
 49
-1.5
 49
0.25
 49
-1.5
  0
LTYPE
  2
double-dashed_triplicate-dotted
 70
   64
  3
-----  ---------  -  -  -  -----
 72
   65
 73
   10
 40
20.25
 49
6
 49
-1.5
 49
6
 49
-1.5
 49
0.25
 49
-1.5
 49
0.25
 49
-1.5
 49
0.25
 49
-1.5
  0
LTYPE
  2
undefined
 70
   64
  3
--------------------------------
 72
   65
 73
    0
 40
0
  0
ENDTAB
  0
TABLE
  2
STYLE
  5
3
100
AcDbSymbolTable
 70
     1
  0
STYLE
  5
10
100
AcDbSymbolTableRecord
100
AcDbTextStyleTableRecord
  2
STANDARD
 70
     0
 40
0.0
 41
1.0
 50
0.0
 71
     0
 42
0.2
  3
txt
  4
bigfont.shx
  0
STYLE
  5
26
100
AcDbSymbolTableRecord
100
AcDbTextStyleTableRecord
  2
TATEGAKI
 70
    68
 40
0.0
 41
1.0
 50
0.0
 71
     0
 42
1.0
  3
txt
  4
bigfont.shx
  0
ENDTAB
  0
TABLE
  2
LAYER
 70
   10
  0
LAYER
  2
_0-0_図面枠
 70
   64
 62
    7
  6
CONTINUOUS
  0
LAYER
  2
_1-0_躯体
 70
   64
 62
    7
  6
CONTINUOUS
  0
LAYER
  2
_1-3_止水補助板
 70
   64
 62
    7
  6
CONTINUOUS
  0
LAYER
  2
_1-4_フレ__ム
 70
   64
 62
    7
  6
CONTINUOUS
  0
LAYER
  2
_1-5_ア__ム
 70
   64
 62
    7
  6
CONTINUOUS
  0
LAYER
  2
_1-6_ばね
 70
   64
 62
    7
  6
CONTINUOUS
  0
LAYER
  2
_1-7_カバ__
 70
   64
 62
    7
  6
CONTINUOUS
  0
LAYER
  2
_1-8_小物
 70
   64
 62
    7
  6
CONTINUOUS
  0
LAYER
  2
_1-f_寸法
 70
   64
 62
    7
  6
CONTINUOUS
  0
LAYER
  2
ADD_LINE
 70
   64
 62
    7
  6
CONTINUOUS
  0
ENDTAB
  0
ENDSEC
  0
SECTION
  2
BLOCKS
  0
BLOCK
  2
-000-
 70
   64
 10
0
 20
0
 30
0
  0
ARC
  8
_1-4_フレ__ム
  6
CONTINUOUS
 62
    4
 10
-84.833333253866542
 20
78.499999999999943
 40
0.5
 50
90
 51
180
  0
LINE
  8
_1-4_フレ__ム
  6
CONTINUOUS
 62
    4
 10
-54.999999920533213
 20
78.899999999999892
 11
-55.09999992053298
 21
78.999999999999943
  0
LINE
  8
_1-4_フレ__ム
  6
CONTINUOUS
 62
    4
 10
-54.899999920532537
 20
78.999999999999943
 11
-54.999999920533213
 21
78.899999999999892
  0
LINE
  8
_1-4_フレ__ム
  6
CONTINUOUS
 62
    4
 10
-85.333333253866243
 20
78.499999999999943
 11
-49.999999920533213
 21
78.499999999999943
  0
LINE
  8
_1-4_フレ__ム
  6
CONTINUOUS
 62
    4
 10
-50
 20
78.50000001899997
 11
-49.00000001899997
 21
79.499999999999915
  0
LINE
  8
_1-4_フレ__ム
  6
CONTINUOUS
 62
    4
 10
-49.00000001899997
 20
79.499999999999915
 11
-49.707106800186551
 21
79.499999999999915
  0
LINE
  8
_1-4_フレ__ム
  6
CONTINUOUS
 62
    4
 10
-50.207106800186551
 20
78.999999999999943
 11
-49.707106800186551
 21
79.499999999999915
  0
LINE
  8
_1-4_フレ__ム
  6
CONTINUOUS
 62
    4
 10
-50.207106800186551
 20
78.999999999999943
 11
-54.899999920532537
 21
78.999999999999943
  0
LINE
  8
_1-4_フレ__ム
  6
CONTINUOUS
 62
    4
 10
-63.238095158628539
 20
80.233333333333235
 11
-63.238095158628539
 21
80.399999999999892
  0
ARC
  8
_1-4_フレ__ム
  6
CONTINUOUS
 62
    4
 10
-63.571428491961882
 20
80.233333333333235
 40
0.3333333333333333
 50
270
 51
0
  0
LINE
  8
_1-4_フレ__ム
  6
CONTINUOUS
 62
    4
 10
-63.571428491961882
 20
79.899999999999892
 11
-64.401932695700168
 21
79.899999999999892
  0
ARC
  8
_1-4_フレ__ム
  6
CONTINUOUS
 62
    4
 10
-64.401932695700168
 20
79.733333333333235
 40
0.1666666666666666
 50
90
 51
150.94539590094277
  0
LINE
  8
_1-4_フレ__ム
  6
CONTINUOUS
 62
    4
 10
-55.09999992053298
 20
78.999999999999943
 11
-64.716747510514949
 21
78.999999999999943
  0
ARC
  8
_1-4_フレ__ム
  6
CONTINUOUS
 62
    4
 10
-64.716747510514949
 20
79.166666666666629
 40
0.1666666666666666
 50
150.94539590094277
 51
270
  0
LINE
  8
_1-4_フレ__ム
  6
CONTINUOUS
 62
    4
 10
-63.238095158628539
 20
80.399999999999892
 11
-64.598067145366343
 21
80.399999999999892
  0
ARC
  8
_1-4_フレ__ム
  6
CONTINUOUS
 62
    4
 10
-64.598067145366343
 20
80.066666666666549
 40
0.3333333333333333
 50
90
 51
150.94539590092143
  0
LINE
  8
_1-4_フレ__ム
  6
CONTINUOUS
 62
    4
 10
-65.476728063769286
 20
79.171452356273733
 11
-64.889452904073494
 21
80.228547643726102
  0
LINE
  8
_1-4_フレ__ム
  6
CONTINUOUS
 62
    4
 10
-65.768113822476465
 20
78.999999999999943
 11
-84.833333253866542
 21
78.999999999999943
  0
ARC
  8
_1-4_フレ__ム
  6
CONTINUOUS
 62
    4
 10
-65.768113822476465
 20
79.333333333333286
 40
0.3333333333333333
 50
270
 51
330.94539590092143
  0
LINE
  8
_1-4_フレ__ム
  6
CONTINUOUS
 62
    4
 10
-64.86244038986851
 20
79.24760715519642
 11
-64.547625575053729
 21
79.814273821863026
  0
LINE
  8
_1-4_フレ__ム
  6
CENTER2
 62
    4
 10
-54.999999920532758
 20
80.666666666666629
 11
-54.999999920532758
 21
76.833333333333286
  0
LINE
  8
_1-4_フレ__ム
  6
DASHED1
 62
    4
 10
-52.499999920532758
 20
78.999999999999943
 11
-52.499999920532758
 21
78.499999999999943
  0
LINE
  8
_1-4_フレ__ム
  6
DASHED1
 62
    4
 10
-57.499999920532758
 20
78.999999999999943
 11
-57.499999920532758
 21
78.499999999999943
  0
ENDBLK
  0
BLOCK
  2
-001-_1_
 70
   64
 10
0
 20
0
 30
0
  0
LINE
  8
_1-8_小物
  6
CONTINUOUS
 62
    4
 10
-53.197241746133159
 20
66.573391666666566
 11
-53.162351746133595
 21
65.907638333333267
  0
LINE
  8
_1-8_小物
  6
CONTINUOUS
 62
    4
 10
-53.249578412800133
 20
67.572021666666529
 11
-53.897885079466732
 21
67.204254999999876
  0
LINE
  8
_1-8_小物
  6
CONTINUOUS
 62
    4
 10
-53.897885079466732
 20
67.204254999999876
 11
-53.862995079466543
 21
66.538501666666576
  0
LINE
  8
_1-8_小物
  6
CONTINUOUS
 62
    4
 10
-53.862995079466543
 20
66.538501666666576
 11
-53.197241746133159
 21
66.573391666666566
  0
LINE
  8
_1-8_小物
  6
CONTINUOUS
 62
    4
 10
-53.284468412800038
 20
68.237774999999971
 11
-53.249578412800133
 21
67.572021666666529
  0
LINE
  8
_1-8_小物
  6
CONTINUOUS
 62
    4
 10
-53.336805079466671
 20
69.236403333333328
 11
-53.985111746133612
 21
68.868636666666362
  0
LINE
  8
_1-8_小物
  6
CONTINUOUS
 62
    4
 10
-53.985111746133612
 20
68.868636666666362
 11
-53.950221746133366
 21
68.20288333333329
  0
LINE
  8
_1-8_小物
  6
CONTINUOUS
 62
    4
 10
-53.950221746133366
 20
68.20288333333329
 11
-53.284468412800038
 21
68.237774999999971
  0
LINE
  8
_1-8_小物
  6
CONTINUOUS
 62
    4
 10
-53.371695079466861
 20
69.902156666666684
 11
-53.336805079466671
 21
69.236403333333328
  0
LINE
  8
_1-8_小物
  6
CONTINUOUS
 62
    4
 10
-53.42403174613321
 20
70.900786666666363
 11
-54.072338412799809
 21
70.533019999999993
  0
LINE
  8
_1-8_小物
  6
CONTINUOUS
 62
    4
 10
-54.072338412799809
 20
70.533019999999993
 11
-54.037448412800245
 21
69.867266666666637
  0
LINE
  8
_1-8_小物
  6
CONTINUOUS
 62
    4
 10
-54.037448412800245
 20
69.867266666666637
 11
-53.371695079466861
 21
69.902156666666684
  0
LINE
  8
_1-8_小物
  6
CONTINUOUS
 62
    4
 10
-53.458921746133399
 20
71.566539999999947
 11
-53.42403174613321
 21
70.900786666666363
  0
LINE
  8
_1-8_小物
  6
CONTINUOUS
 62
    4
 10
-53.511258412800032
 20
72.565169999999995
 11
-54.159565079466688
 21
72.197401666666565
  0
LINE
  8
_1-8_小物
  6
CONTINUOUS
 62
    4
 10
-54.159565079466688
 20
72.197401666666565
 11
-54.124675079466783
 21
71.531648333333266
  0
LINE
  8
_1-8_小物
  6
CONTINUOUS
 62
    4
 10
-54.124675079466783
 20
71.531648333333266
 11
-53.458921746133399
 21
71.566539999999947
  0
LINE
  8
_1-8_小物
  6
CONTINUOUS
 62
    4
 10
-53.546148412799937
 20
73.230921666666518
 11
-53.511258412800032
 21
72.565169999999995
  0
LINE
  8
_1-8_小物
  6
CONTINUOUS
 62
    4
 10
-54.246791746133511
 20
73.861784999999827
 11
-54.211901746133321
 21
73.196031666666528
  0
LINE
  8
_1-8_小物
  6
CONTINUOUS
 62
    4
 10
-54.211901746133321
 20
73.196031666666528
 11
-53.546148412799937
 21
73.230921666666518
  0
LINE
  8
_1-8_小物
  6
CONTINUOUS
 62
    4
 10
-53.666666746133387
 20
74.166666666666657
 11
-54.246791746133511
 21
73.861784999999827
  0
LINE
  8
_1-8_小物
  6
CONTINUOUS
 62
    4
 10
-56.802758412800017
 20
66.573391666666566
 11
-56.837648412799922
 21
65.907638333333267
  0
LINE
  8
_1-8_小物
  6
CONTINUOUS
 62
    4
 10
-56.750421746133384
 20
67.572021666666529
 11
-56.102115079466728
 21
67.204254999999876
  0
LINE
  8
_1-8_小物
  6
CONTINUOUS
 62
    4
 10
-56.102115079466728
 20
67.204254999999876
 11
-56.137005079466917
 21
66.538501666666576
  0
LINE
  8
_1-8_小物
  6
CONTINUOUS
 62
    4
 10
-56.137005079466917
 20
66.538501666666576
 11
-56.802758412800017
 21
66.573391666666566
  0
LINE
  8
_1-8_小物
  6
CONTINUOUS
 62
    4
 10
-56.715531746133138
 20
68.237774999999971
 11
-56.750421746133384
 21
67.572021666666529
  0
LINE
  8
_1-8_小物
  6
CONTINUOUS
 62
    4
 10
-56.663195079466846
 20
69.236403333333328
 11
-56.01488841280019
 21
68.868636666666362
  0
LINE
  8
_1-8_小物
  6
CONTINUOUS
 62
    4
 10
-56.01488841280019
 20
68.868636666666362
 11
-56.04977841279981
 21
68.20288333333329
  0
LINE
  8
_1-8_小物
  6
CONTINUOUS
 62
    4
 10
-56.04977841279981
 20
68.20288333333329
 11
-56.715531746133138
 21
68.237774999999971
  0
LINE
  8
_1-8_小物
  6
CONTINUOUS
 62
    4
 10
-56.628305079466941
 20
69.902156666666684
 11
-56.663195079466846
 21
69.236403333333328
  0
LINE
  8
_1-8_小物
  6
CONTINUOUS
 62
    4
 10
-56.575968412800307
 20
70.900786666666363
 11
-55.927661746133367
 21
70.533019999999993
  0
LINE
  8
_1-8_小物
  6
CONTINUOUS
 62
    4
 10
-55.927661746133367
 20
70.533019999999993
 11
-55.962551746133272
 21
69.867266666666637
  0
LINE
  8
_1-8_小物
  6
CONTINUOUS
 62
    4
 10
-55.962551746133272
 20
69.867266666666637
 11
-56.628305079466941
 21
69.902156666666684
  0
LINE
  8
_1-8_小物
  6
CONTINUOUS
 62
    4
 10
-56.541078412800061
 20
71.566539999999947
 11
-56.575968412800307
 21
70.900786666666363
  0
LINE
  8
_1-8_小物
  6
CONTINUOUS
 62
    4
 10
-56.488741746133144
 20
72.565169999999995
 11
-55.840435079466488
 21
72.197401666666565
  0
LINE
  8
_1-8_小物
  6
CONTINUOUS
 62
    4
 10
-55.840435079466488
 20
72.197401666666565
 11
-55.875325079466734
 21
71.531648333333266
  0
LINE
  8
_1-8_小物
  6
CONTINUOUS
 62
    4
 10
-55.875325079466734
 20
71.531648333333266
 11
-56.541078412800061
 21
71.566539999999947
  0
LINE
  8
_1-8_小物
  6
CONTINUOUS
 62
    4
 10
-56.453851746133523
 20
73.230921666666518
 11
-56.488741746133144
 21
72.565169999999995
  0
LINE
  8
_1-8_小物
  6
CONTINUOUS
 62
    4
 10
-55.75320841279995
 20
73.861784999999827
 11
-55.788098412800196
 21
73.196031666666528
  0
LINE
  8
_1-8_小物
  6
CONTINUOUS
 62
    4
 10
-55.788098412800196
 20
73.196031666666528
 11
-56.453851746133523
 21
73.230921666666518
  0
LINE
  8
_1-8_小物
  6
CONTINUOUS
 62
    4
 10
-55.019768412799976
 20
66.186434999999847
 11
-54.375201746133484
 21
66.758324999999928
  0
LINE
  8
_1-8_小物
  6
CONTINUOUS
 62
    4
 10
-55.623148412800163
 20
66.789813333333313
 11
-55.000000079466417
 21
66.166666666666515
  0
LINE
  8
_1-8_小物
  6
CONTINUOUS
 62
    4
 10
-56.333333412799789
 20
74.166666666666657
 11
-55.75320841279995
 21
73.861784999999827
  0
LINE
  8
_1-8_小物
  6
CONTINUOUS
 62
    4
 10
-53.458921746133399
 20
71.566539999999947
 11
-52.893800079466871
 21
73.119199999999779
  0
LINE
  8
_1-8_小物
  6
CONTINUOUS
 62
    4
 10
-53.813648412799864
 20
71.566539999999947
 11
-53.20703007946662
 21
73.233206666666547
  0
LINE
  8
_1-8_小物
  6
CONTINUOUS
 62
    4
 10
-56.541078412800061
 20
71.566539999999947
 11
-57.106200079466589
 21
73.119199999999779
  0
LINE
  8
_1-8_小物
  6
CONTINUOUS
 62
    4
 10
-56.186351746133596
 20
71.566539999999947
 11
-56.792970079466841
 21
73.233206666666547
  0
LINE
  8
_1-8_小物
  6
CONTINUOUS
 62
    4
 10
-54.327418412800057
 20
65.846579999999818
 11
-53.162351746133595
 21
65.907638333333267
  0
LINE
  8
_1-8_小物
  6
CONTINUOUS
 62
    4
 10
-53.162351746133595
 20
65.907638333333267
 11
-53.793213412800128
 21
65.206995000000006
  0
LINE
  8
_1-8_小物
  6
CONTINUOUS
 62
    4
 10
-53.793213412800128
 20
65.206995000000006
 11
-54.292528412799811
 21
65.180826666666462
  0
LINE
  8
_1-8_小物
  6
CONTINUOUS
 62
    4
 10
-54.292528412799811
 20
65.180826666666462
 11
-54.833333412799789
 21
75.499999999999773
  0
LINE
  8
_1-8_小物
  6
CONTINUOUS
 62
    4
 10
-53.666666746133387
 20
74.166666666666657
 11
-53.666666746133387
 21
75.499999999999773
  0
LINE
  8
_1-8_小物
  6
CONTINUOUS
 62
    4
 10
-55.67258174613346
 20
65.846579999999818
 11
-56.837648412799922
 21
65.907638333333267
  0
LINE
  8
_1-8_小物
  6
CONTINUOUS
 62
    4
 10
-56.837648412799922
 20
65.907638333333267
 11
-56.206786746133389
 21
65.206995000000006
  0
LINE
  8
_1-8_小物
  6
CONTINUOUS
 62
    4
 10
-56.206786746133389
 20
65.206995000000006
 11
-55.707471746133365
 21
65.180826666666462
  0
LINE
  8
_1-8_小物
  6
CONTINUOUS
 62
    4
 10
-55.707471746133365
 20
65.180826666666462
 11
-55.166666746133387
 21
75.499999999999773
  0
LINE
  8
_1-8_小物
  6
CONTINUOUS
 62
    4
 10
-56.333333412799789
 20
74.166666666666657
 11
-56.333333412799789
 21
75.499999999999773
  0
LINE
  8
_1-8_小物
  6
CONTINUOUS
 62
    4
 10
-57.106200079466589
 20
73.119199999999779
 11
-57.436985079466695
 21
75.387073333333461
  0
ARC
  8
_1-8_小物
  6
CONTINUOUS
 62
    4
 10
-57.305048412800033
 20
75.406318333333274
 40
0.1333333333333333
 50
98.130101999965902
 51
188.29846600001105
  0
LINE
  8
_1-8_小物
  6
CONTINUOUS
 62
    4
 10
-57.323905079466954
 20
75.538311666666601
 11
-57.258296746133283
 21
75.547683333333367
  0
ARC
  8
_1-8_小物
  6
CONTINUOUS
 62
    4
 10
-57.239440079466419
 20
75.415689999999955
 40
0.1333333333333333
 50
8.1301020000280779
 51
98.13010200021462
  0
LINE
  8
_1-8_小物
  6
CONTINUOUS
 62
    4
 10
-57.107446746133292
 20
75.434546666666535
 11
-56.792970079466841
 21
73.233206666666547
  0
LINE
  8
_1-8_小物
  6
CONTINUOUS
 62
    4
 10
-52.893800079466871
 20
73.119199999999779
 11
-52.563015079466766
 21
75.387073333333461
  0
ARC
  8
_1-8_小物
  6
CONTINUOUS
 62
    4
 10
-52.694951746133427
 20
75.406318333333274
 40
0.1333333333333333
 50
351.70153399996479
 51
81.869898000034084
  0
LINE
  8
_1-8_小物
  6
CONTINUOUS
 62
    4
 10
-52.676096746133453
 20
75.538311666666601
 11
-52.741703412800177
 21
75.547683333333367
  0
ARC
  8
_1-8_小物
  6
CONTINUOUS
 62
    4
 10
-52.760560079466472
 20
75.415689999999955
 40
0.1333333333333333
 50
81.869898000046192
 51
171.86989799997193
  0
LINE
  8
_1-8_小物
  6
CONTINUOUS
 62
    4
 10
-52.892553412800169
 20
75.434546666666535
 11
-53.20703007946662
 21
73.233206666666547
  0
LINE
  8
_1-8_小物
  6
CONTINUOUS
 62
    4
 10
-52.893800079466871
 20
73.119199999999779
 11
-52.563015079466766
 21
75.387073333333461
  0
ARC
  8
_1-8_小物
  6
CONTINUOUS
 62
    4
 10
-52.694951746133427
 20
75.406318333333274
 40
0.1333333333333333
 50
351.70153399996479
 51
81.869898000034084
  0
LINE
  8
_1-8_小物
  6
CONTINUOUS
 62
    4
 10
-52.676096746133453
 20
75.538311666666601
 11
-52.741703412800177
 21
75.547683333333367
  0
ARC
  8
_1-8_小物
  6
CONTINUOUS
 62
    4
 10
-52.760560079466472
 20
75.415689999999955
 40
0.1333333333333333
 50
81.869898000046192
 51
171.86989799997193
  0
LINE
  8
_1-8_小物
  6
CONTINUOUS
 62
    4
 10
-52.892553412800169
 20
75.434546666666535
 11
-53.20703007946662
 21
73.233206666666547
  0
LINE
  8
_1-8_小物
  6
CONTINUOUS
 62
    4
 10
-53.333333412799789
 20
78.166666666666657
 11
-53.666666746133387
 21
76.5
  0
LINE
  8
_1-8_小物
  6
CONTINUOUS
 62
    4
 10
-53.666666746133387
 20
78.166666666666657
 11
-53.666666746133387
 21
75.499999999999773
  0
LINE
  8
_1-8_小物
  6
CONTINUOUS
 62
    4
 10
-54.833333412799789
 20
75.499999999999773
 11
-55.000000079466417
 21
75.499999999999773
  0
LINE
  8
_1-8_小物
  6
CONTINUOUS
 62
    4
 10
-55.000000079466417
 20
76.5
 11
-55.000000079466417
 21
78.166666666666657
  0
LINE
  8
_1-8_小物
  6
CONTINUOUS
 62
    4
 10
-54.666666746133387
 20
78.166666666666657
 11
-55.000000079466417
 21
76.5
  0
LINE
  8
_1-8_小物
  6
CONTINUOUS
 62
    4
 10
-55.333333412800073
 20
78.166666666666657
 11
-55.000000079466417
 21
76.5
  0
LINE
  8
_1-8_小物
  6
CONTINUOUS
 62
    4
 10
-56.666666746133103
 20
78.166666666666657
 11
-56.333333412799789
 21
76.5
  0
LINE
  8
_1-8_小物
  6
CONTINUOUS
 62
    4
 10
-56.333333412799789
 20
78.166666666666657
 11
-56.333333412799789
 21
75.499999999999773
  0
LINE
  8
_1-8_小物
  6
CONTINUOUS
 62
    4
 10
-55.166666746133387
 20
75.499999999999773
 11
-55.000000079466417
 21
75.499999999999773
  0
LINE
  8
_1-8_小物
  6
CONTINUOUS
 62
    4
 10
-53.333333412799789
 20
78.166666666666657
 11
-56.666666746133103
 21
78.166666666666657
  0
ENDBLK
  0
BLOCK
  2
-002-_2_
 70
   64
 10
0
 20
0
 30
0
  0
LINE
  8
_1-8_小物
  6
CONTINUOUS
 62
    4
 10
-143.19724174613316
 20
66.573391666666566
 11
-143.16235174613357
 21
65.907638333333267
  0
LINE
  8
_1-8_小物
  6
CONTINUOUS
 62
    4
 10
-143.2495784128001
 20
67.572021666666529
 11
-143.89788507946673
 21
67.204254999999876
  0
LINE
  8
_1-8_小物
  6
CONTINUOUS
 62
    4
 10
-143.89788507946673
 20
67.204254999999876
 11
-143.86299507946654
 21
66.538501666666576
  0
LINE
  8
_1-8_小物
  6
CONTINUOUS
 62
    4
 10
-143.86299507946654
 20
66.538501666666576
 11
-143.19724174613316
 21
66.573391666666566
  0
LINE
  8
_1-8_小物
  6
CONTINUOUS
 62
    4
 10
-143.28446841280001
 20
68.237774999999971
 11
-143.2495784128001
 21
67.572021666666529
  0
LINE
  8
_1-8_小物
  6
CONTINUOUS
 62
    4
 10
-143.33680507946664
 20
69.236403333333328
 11
-143.98511174613358
 21
68.868636666666362
  0
LINE
  8
_1-8_小物
  6
CONTINUOUS
 62
    4
 10
-143.98511174613358
 20
68.868636666666362
 11
-143.95022174613337
 21
68.20288333333329
  0
LINE
  8
_1-8_小物
  6
CONTINUOUS
 62
    4
 10
-143.95022174613337
 20
68.20288333333329
 11
-143.28446841280001
 21
68.237774999999971
  0
LINE
  8
_1-8_小物
  6
CONTINUOUS
 62
    4
 10
-143.37169507946686
 20
69.902156666666684
 11
-143.33680507946664
 21
69.236403333333328
  0
LINE
  8
_1-8_小物
  6
CONTINUOUS
 62
    4
 10
-143.42403174613318
 20
70.900786666666363
 11
-144.07233841279981
 21
70.533019999999993
  0
LINE
  8
_1-8_小物
  6
CONTINUOUS
 62
    4
 10
-144.07233841279981
 20
70.533019999999993
 11
-144.03744841280022
 21
69.867266666666637
  0
LINE
  8
_1-8_小物
  6
CONTINUOUS
 62
    4
 10
-144.03744841280022
 20
69.867266666666637
 11
-143.37169507946686
 21
69.902156666666684
  0
LINE
  8
_1-8_小物
  6
CONTINUOUS
 62
    4
 10
-143.4589217461334
 20
71.566539999999947
 11
-143.42403174613318
 21
70.900786666666363
  0
LINE
  8
_1-8_小物
  6
CONTINUOUS
 62
    4
 10
-143.51125841280003
 20
72.565169999999995
 11
-144.15956507946666
 21
72.197401666666565
  0
LINE
  8
_1-8_小物
  6
CONTINUOUS
 62
    4
 10
-144.15956507946666
 20
72.197401666666565
 11
-144.12467507946675
 21
71.531648333333266
  0
LINE
  8
_1-8_小物
  6
CONTINUOUS
 62
    4
 10
-144.12467507946675
 20
71.531648333333266
 11
-143.4589217461334
 21
71.566539999999947
  0
LINE
  8
_1-8_小物
  6
CONTINUOUS
 62
    4
 10
-143.54614841279994
 20
73.230921666666518
 11
-143.51125841280003
 21
72.565169999999995
  0
LINE
  8
_1-8_小物
  6
CONTINUOUS
 62
    4
 10
-144.24679174613351
 20
73.861784999999827
 11
-144.21190174613329
 21
73.196031666666528
  0
LINE
  8
_1-8_小物
  6
CONTINUOUS
 62
    4
 10
-144.21190174613329
 20
73.196031666666528
 11
-143.54614841279994
 21
73.230921666666518
  0
LINE
  8
_1-8_小物
  6
CONTINUOUS
 62
    4
 10
-143.66666674613339
 20
74.166666666666657
 11
-144.24679174613351
 21
73.861784999999827
  0
LINE
  8
_1-8_小物
  6
CONTINUOUS
 62
    4
 10
-146.80275841279999
 20
66.573391666666566
 11
-146.83764841279989
 21
65.907638333333267
  0
LINE
  8
_1-8_小物
  6
CONTINUOUS
 62
    4
 10
-146.75042174613336
 20
67.572021666666529
 11
-146.10211507946673
 21
67.204254999999876
  0
LINE
  8
_1-8_小物
  6
CONTINUOUS
 62
    4
 10
-146.10211507946673
 20
67.204254999999876
 11
-146.13700507946692
 21
66.538501666666576
  0
LINE
  8
_1-8_小物
  6
CONTINUOUS
 62
    4
 10
-146.13700507946692
 20
66.538501666666576
 11
-146.80275841279999
 21
66.573391666666566
  0
LINE
  8
_1-8_小物
  6
CONTINUOUS
 62
    4
 10
-146.71553174613314
 20
68.237774999999971
 11
-146.75042174613336
 21
67.572021666666529
  0
LINE
  8
_1-8_小物
  6
CONTINUOUS
 62
    4
 10
-146.66319507946682
 20
69.236403333333328
 11
-146.01488841280019
 21
68.868636666666362
  0
LINE
  8
_1-8_小物
  6
CONTINUOUS
 62
    4
 10
-146.01488841280019
 20
68.868636666666362
 11
-146.04977841279978
 21
68.20288333333329
  0
LINE
  8
_1-8_小物
  6
CONTINUOUS
 62
    4
 10
-146.04977841279978
 20
68.20288333333329
 11
-146.71553174613314
 21
68.237774999999971
  0
LINE
  8
_1-8_小物
  6
CONTINUOUS
 62
    4
 10
-146.62830507946691
 20
69.902156666666684
 11
-146.66319507946682
 21
69.236403333333328
  0
LINE
  8
_1-8_小物
  6
CONTINUOUS
 62
    4
 10
-146.57596841280028
 20
70.900786666666363
 11
-145.92766174613334
 21
70.533019999999993
  0
LINE
  8
_1-8_小物
  6
CONTINUOUS
 62
    4
 10
-145.92766174613334
 20
70.533019999999993
 11
-145.96255174613324
 21
69.867266666666637
  0
LINE
  8
_1-8_小物
  6
CONTINUOUS
 62
    4
 10
-145.96255174613324
 20
69.867266666666637
 11
-146.62830507946691
 21
69.902156666666684
  0
LINE
  8
_1-8_小物
  6
CONTINUOUS
 62
    4
 10
-146.54107841280006
 20
71.566539999999947
 11
-146.57596841280028
 21
70.900786666666363
  0
LINE
  8
_1-8_小物
  6
CONTINUOUS
 62
    4
 10
-146.48874174613314
 20
72.565169999999995
 11
-145.84043507946649
 21
72.197401666666565
  0
LINE
  8
_1-8_小物
  6
CONTINUOUS
 62
    4
 10
-145.84043507946649
 20
72.197401666666565
 11
-145.87532507946671
 21
71.531648333333266
  0
LINE
  8
_1-8_小物
  6
CONTINUOUS
 62
    4
 10
-145.87532507946671
 20
71.531648333333266
 11
-146.54107841280006
 21
71.566539999999947
  0
LINE
  8
_1-8_小物
  6
CONTINUOUS
 62
    4
 10
-146.45385174613352
 20
73.230921666666518
 11
-146.48874174613314
 21
72.565169999999995
  0
LINE
  8
_1-8_小物
  6
CONTINUOUS
 62
    4
 10
-145.75320841279995
 20
73.861784999999827
 11
-145.78809841280017
 21
73.196031666666528
  0
LINE
  8
_1-8_小物
  6
CONTINUOUS
 62
    4
 10
-145.78809841280017
 20
73.196031666666528
 11
-146.45385174613352
 21
73.230921666666518
  0
LINE
  8
_1-8_小物
  6
CONTINUOUS
 62
    4
 10
-145.01976841279998
 20
66.186434999999847
 11
-144.37520174613346
 21
66.758324999999928
  0
LINE
  8
_1-8_小物
  6
CONTINUOUS
 62
    4
 10
-145.62314841280016
 20
66.789813333333313
 11
-145.00000007946642
 21
66.166666666666515
  0
LINE
  8
_1-8_小物
  6
CONTINUOUS
 62
    4
 10
-146.33333341279976
 20
74.166666666666657
 11
-145.75320841279995
 21
73.861784999999827
  0
LINE
  8
_1-8_小物
  6
CONTINUOUS
 62
    4
 10
-143.4589217461334
 20
71.566539999999947
 11
-142.89380007946687
 21
73.119199999999779
  0
LINE
  8
_1-8_小物
  6
CONTINUOUS
 62
    4
 10
-143.81364841279986
 20
71.566539999999947
 11
-143.20703007946662
 21
73.233206666666547
  0
LINE
  8
_1-8_小物
  6
CONTINUOUS
 62
    4
 10
-146.54107841280006
 20
71.566539999999947
 11
-147.10620007946659
 21
73.119199999999779
  0
LINE
  8
_1-8_小物
  6
CONTINUOUS
 62
    4
 10
-146.1863517461336
 20
71.566539999999947
 11
-146.79297007946684
 21
73.233206666666547
  0
LINE
  8
_1-8_小物
  6
CONTINUOUS
 62
    4
 10
-144.32741841280003
 20
65.846579999999818
 11
-143.16235174613357
 21
65.907638333333267
  0
LINE
  8
_1-8_小物
  6
CONTINUOUS
 62
    4
 10
-143.16235174613357
 20
65.907638333333267
 11
-143.7932134128001
 21
65.206995000000006
  0
LINE
  8
_1-8_小物
  6
CONTINUOUS
 62
    4
 10
-143.7932134128001
 20
65.206995000000006
 11
-144.29252841279981
 21
65.180826666666462
  0
LINE
  8
_1-8_小物
  6
CONTINUOUS
 62
    4
 10
-144.29252841279981
 20
65.180826666666462
 11
-144.83333341279976
 21
75.499999999999773
  0
LINE
  8
_1-8_小物
  6
CONTINUOUS
 62
    4
 10
-143.66666674613339
 20
74.166666666666657
 11
-143.66666674613339
 21
75.499999999999773
  0
LINE
  8
_1-8_小物
  6
CONTINUOUS
 62
    4
 10
-145.67258174613343
 20
65.846579999999818
 11
-146.83764841279989
 21
65.907638333333267
  0
LINE
  8
_1-8_小物
  6
CONTINUOUS
 62
    4
 10
-146.83764841279989
 20
65.907638333333267
 11
-146.20678674613336
 21
65.206995000000006
  0
LINE
  8
_1-8_小物
  6
CONTINUOUS
 62
    4
 10
-146.20678674613336
 20
65.206995000000006
 11
-145.70747174613334
 21
65.180826666666462
  0
LINE
  8
_1-8_小物
  6
CONTINUOUS
 62
    4
 10
-145.70747174613334
 20
65.180826666666462
 11
-145.16666674613339
 21
75.499999999999773
  0
LINE
  8
_1-8_小物
  6
CONTINUOUS
 62
    4
 10
-146.33333341279976
 20
74.166666666666657
 11
-146.33333341279976
 21
75.499999999999773
  0
LINE
  8
_1-8_小物
  6
CONTINUOUS
 62
    4
 10
-147.10620007946659
 20
73.119199999999779
 11
-147.43698507946669
 21
75.387073333333461
  0
ARC
  8
_1-8_小物
  6
CONTINUOUS
 62
    4
 10
-147.30504841280003
 20
75.406318333333274
 40
0.1333333333333333
 50
98.130101999965902
 51
188.29846600001105
  0
LINE
  8
_1-8_小物
  6
CONTINUOUS
 62
    4
 10
-147.32390507946693
 20
75.538311666666601
 11
-147.25829674613328
 21
75.547683333333367
  0
ARC
  8
_1-8_小物
  6
CONTINUOUS
 62
    4
 10
-147.23944007946642
 20
75.415689999999955
 40
0.1333333333333333
 50
8.1301020000280779
 51
98.13010200021462
  0
LINE
  8
_1-8_小物
  6
CONTINUOUS
 62
    4
 10
-147.10744674613329
 20
75.434546666666535
 11
-146.79297007946684
 21
73.233206666666547
  0
LINE
  8
_1-8_小物
  6
CONTINUOUS
 62
    4
 10
-142.89380007946687
 20
73.119199999999779
 11
-142.56301507946677
 21
75.387073333333461
  0
ARC
  8
_1-8_小物
  6
CONTINUOUS
 62
    4
 10
-142.69495174613343
 20
75.406318333333274
 40
0.1333333333333333
 50
351.70153399996479
 51
81.869898000034084
  0
LINE
  8
_1-8_小物
  6
CONTINUOUS
 62
    4
 10
-142.67609674613345
 20
75.538311666666601
 11
-142.74170341280018
 21
75.547683333333367
  0
ARC
  8
_1-8_小物
  6
CONTINUOUS
 62
    4
 10
-142.76056007946644
 20
75.415689999999955
 40
0.1333333333333333
 50
81.869898000046192
 51
171.86989799997193
  0
LINE
  8
_1-8_小物
  6
CONTINUOUS
 62
    4
 10
-142.89255341280017
 20
75.434546666666535
 11
-143.20703007946662
 21
73.233206666666547
  0
LINE
  8
_1-8_小物
  6
CONTINUOUS
 62
    4
 10
-142.89380007946687
 20
73.119199999999779
 11
-142.56301507946677
 21
75.387073333333461
  0
ARC
  8
_1-8_小物
  6
CONTINUOUS
 62
    4
 10
-142.69495174613343
 20
75.406318333333274
 40
0.1333333333333333
 50
351.70153399996479
 51
81.869898000034084
  0
LINE
  8
_1-8_小物
  6
CONTINUOUS
 62
    4
 10
-142.67609674613345
 20
75.538311666666601
 11
-142.74170341280018
 21
75.547683333333367
  0
ARC
  8
_1-8_小物
  6
CONTINUOUS
 62
    4
 10
-142.76056007946644
 20
75.415689999999955
 40
0.1333333333333333
 50
81.869898000046192
 51
171.86989799997193
  0
LINE
  8
_1-8_小物
  6
CONTINUOUS
 62
    4
 10
-142.89255341280017
 20
75.434546666666535
 11
-143.20703007946662
 21
73.233206666666547
  0
LINE
  8
_1-8_小物
  6
CONTINUOUS
 62
    4
 10
-143.33333341279976
 20
78.166666666666657
 11
-143.66666674613339
 21
76.5
  0
LINE
  8
_1-8_小物
  6
CONTINUOUS
 62
    4
 10
-143.66666674613339
 20
78.166666666666657
 11
-143.66666674613339
 21
75.499999999999773
  0
LINE
  8
_1-8_小物
  6
CONTINUOUS
 62
    4
 10
-144.83333341279976
 20
75.499999999999773
 11
-145.00000007946642
 21
75.499999999999773
  0
LINE
  8
_1-8_小物
  6
CONTINUOUS
 62
    4
 10
-145.00000007946642
 20
76.5
 11
-145.00000007946642
 21
78.166666666666657
  0
LINE
  8
_1-8_小物
  6
CONTINUOUS
 62
    4
 10
-144.66666674613339
 20
78.166666666666657
 11
-145.00000007946642
 21
76.5
  0
LINE
  8
_1-8_小物
  6
CONTINUOUS
 62
    4
 10
-145.33333341280007
 20
78.166666666666657
 11
-145.00000007946642
 21
76.5
  0
LINE
  8
_1-8_小物
  6
CONTINUOUS
 62
    4
 10
-146.6666667461331
 20
78.166666666666657
 11
-146.33333341279976
 21
76.5
  0
LINE
  8
_1-8_小物
  6
CONTINUOUS
 62
    4
 10
-146.33333341279976
 20
78.166666666666657
 11
-146.33333341279976
 21
75.499999999999773
  0
LINE
  8
_1-8_小物
  6
CONTINUOUS
 62
    4
 10
-145.16666674613339
 20
75.499999999999773
 11
-145.00000007946642
 21
75.499999999999773
  0
LINE
  8
_1-8_小物
  6
CONTINUOUS
 62
    4
 10
-143.33333341279976
 20
78.166666666666657
 11
-146.6666667461331
 21
78.166666666666657
  0
ENDBLK
  0
BLOCK
  2
-003-_3_
 70
   64
 10
0
 20
0
 30
0
  0
LINE
  8
_1-8_小物
  6
CONTINUOUS
 62
    4
 10
-63.333333333326891
 20
82
 11
-63.866666333326918
 21
82.307919999999967
  0
LINE
  8
_1-8_小物
  6
CONTINUOUS
 62
    4
 10
-63.333333333326891
 20
82
 11
-62.799999999993474
 21
82.307919999999967
  0
ARC
  8
_1-8_小物
  6
CONTINUOUS
 62
    4
 10
-63.333333333326891
 20
86.305555666666578
 40
2.0277776666666663
 50
53.831357999997664
 51
126.16864200000009
  0
ARC
  8
_1-8_小物
  6
CONTINUOUS
 62
    4
 10
-62.333333333326891
 20
87.673452333333216
 40
0.3333333333333333
 50
0
 51
53.831357999953951
  0
ARC
  8
_1-8_小物
  6
CONTINUOUS
 62
    4
 10
-64.333333333326891
 20
87.673452333333216
 40
0.3333333333333333
 50
126.16864200000116
 51
180
  0
LINE
  8
_1-8_小物
  6
CONTINUOUS
 62
    4
 10
-65.333333333326891
 20
87.083333333333258
 11
-65.333333333326891
 21
86.833333333333258
  0
ARC
  8
_1-8_小物
  6
CONTINUOUS
 62
    4
 10
-64.76609333332658
 20
86.666669333333402
 40
0.6666666666666666
 50
90
 51
124.99999999997614
  0
LINE
  8
_1-8_小物
  6
CONTINUOUS
 62
    4
 10
-65.333333333326891
 20
87.083333333333258
 11
-65.148477666659915
 21
87.212770666666756
  0
LINE
  8
_1-8_小物
  6
CONTINUOUS
 62
    4
 10
-65.333333333326891
 20
87.083333333333258
 11
-61.333333333326891
 21
87.083333333333258
  0
LINE
  8
_1-8_小物
  6
CONTINUOUS
 62
    4
 10
-65.333333333326891
 20
86.833333333333258
 11
-61.333333333326891
 21
86.833333333333258
  0
LINE
  8
_1-8_小物
  6
CONTINUOUS
 62
    4
 10
-61.333333333326891
 20
87.083333333333258
 11
-61.333333333326891
 21
86.833333333333258
  0
LINE
  8
_1-8_小物
  6
CONTINUOUS
 62
    4
 10
-64.999999999993577
 20
86.833333333333258
 11
-64.999999999993577
 21
86.5
  0
LINE
  8
_1-8_小物
  6
CONTINUOUS
 62
    4
 10
-61.666666666660262
 20
86.833333333333258
 11
-61.666666666660262
 21
86.5
  0
LINE
  8
_1-8_小物
  6
CONTINUOUS
 62
    4
 10
-63.333333333326891
 20
84.032944000000043
 11
-62.799999999993474
 21
84.048603999999841
  0
LINE
  8
_1-8_小物
  6
CONTINUOUS
 62
    4
 10
-63.333333333326891
 20
84.032944000000043
 11
-62.799999999993474
 21
84.330864333333238
  0
LINE
  8
_1-8_小物
  6
CONTINUOUS
 62
    4
 10
-63.86666666666008
 20
84.989344666666653
 11
-63.86666666666008
 21
84.64444433333324
  0
LINE
  8
_1-8_小物
  6
CONTINUOUS
 62
    4
 10
-63.86666666666008
 20
84.362184333333289
 11
-63.86666666666008
 21
82.307919999999967
  0
LINE
  8
_1-8_小物
  6
CONTINUOUS
 62
    4
 10
-62.799999999993474
 20
85.302924999999959
 11
-62.799999999993474
 21
84.958024666666603
  0
LINE
  8
_1-8_小物
  6
CONTINUOUS
 62
    4
 10
-62.799999999993474
 20
84.67576466666651
 11
-62.799999999993474
 21
84.330864333333238
  0
LINE
  8
_1-8_小物
  6
CONTINUOUS
 62
    4
 10
-62.799999999993474
 20
84.048603999999841
 11
-62.799999999993474
 21
82.307919999999967
  0
LINE
  8
_1-8_小物
  6
CONTINUOUS
 62
    4
 10
-63.86666666666008
 20
84.989344666666653
 11
-62.799999999993474
 21
85.302924999999959
  0
LINE
  8
_1-8_小物
  6
CONTINUOUS
 62
    4
 10
-64.111110999993457
 20
85.130474999999933
 11
-63.86666666666008
 21
84.989344666666653
  0
LINE
  8
_1-8_小物
  6
CONTINUOUS
 62
    4
 10
-64.111110999993457
 20
85.130474999999933
 11
-63.86666666666008
 21
85.271604999999909
  0
LINE
  8
_1-8_小物
  6
CONTINUOUS
 62
    4
 10
-64.666666666660262
 20
87.673452333333216
 11
-64.666666666660262
 21
87.333333333333258
  0
ARC
  8
_1-8_小物
  6
CONTINUOUS
 62
    4
 10
-61.900638999993703
 20
86.666715333333201
 40
0.6666666666666666
 50
54.999999999992028
 51
90
  0
LINE
  8
_1-8_小物
  6
CONTINUOUS
 62
    4
 10
-64.76609333332658
 20
87.333335999999917
 11
-61.900638999993703
 21
87.333381999999943
  0
LINE
  8
_1-8_小物
  6
CONTINUOUS
 62
    4
 10
-61.999999999993577
 20
87.673452333333216
 11
-61.999999999993577
 21
87.333333333333258
  0
LINE
  8
_1-8_小物
  6
CONTINUOUS
 62
    4
 10
-63.333333333326891
 20
82.678746999999845
 11
-63.333333333326891
 21
82
  0
LINE
  8
_1-8_小物
  6
CONTINUOUS
 62
    4
 10
-62.799999999993474
 20
83.866666666666561
 11
-63.866661666659866
 21
83.866666666666561
  0
ARC
  8
_1-8_小物
  6
CONTINUOUS
 62
    4
 10
-63.324980666659883
 20
82.078443333333325
 40
0.5882826666666666
 50
90.813543000036276
 51
157.0408750000027
  0
ARC
  8
_1-8_小物
  6
CONTINUOUS
 62
    4
 10
-61.32252933332677
 20
82.49149466666654
 40
2.0184196666666665
 50
137.05379999998826
 51
175.02122199999761
  0
LINE
  8
_1-8_小物
  6
CONTINUOUS
 62
    4
 10
-63.86666666666008
 20
84.362184333333289
 11
-62.799999999993474
 21
84.67576466666651
  0
LINE
  8
_1-8_小物
  6
CONTINUOUS
 62
    4
 10
-63.86666666666008
 20
84.64444433333324
 11
-62.799999999993474
 21
84.958024666666603
  0
LINE
  8
_1-8_小物
  6
CONTINUOUS
 62
    4
 10
-64.111110999993457
 20
84.503314333333265
 11
-62.555555666660098
 21
84.816894666666627
  0
LINE
  8
_1-8_小物
  6
CONTINUOUS
 62
    4
 10
-64.111110999993457
 20
84.503314333333265
 11
-63.86666666666008
 21
84.362184333333289
  0
LINE
  8
_1-8_小物
  6
CONTINUOUS
 62
    4
 10
-64.111110999993457
 20
84.503314333333265
 11
-63.86666666666008
 21
84.64444433333324
  0
LINE
  8
_1-8_小物
  6
CONTINUOUS
 62
    4
 10
-62.555555666660098
 20
84.816894666666627
 11
-62.799999999993474
 21
84.67576466666651
  0
LINE
  8
_1-8_小物
  6
CONTINUOUS
 62
    4
 10
-62.799999999993474
 20
84.958024666666603
 11
-62.555555666660098
 21
84.816894666666627
  0
LINE
  8
_1-8_小物
  6
CONTINUOUS
 62
    4
 10
-63.333333333326891
 20
84.032944000000043
 11
-62.555555666660098
 21
84.189734000000044
  0
LINE
  8
_1-8_小物
  6
CONTINUOUS
 62
    4
 10
-62.555555666660098
 20
84.189734000000044
 11
-62.799999999993474
 21
84.048603999999841
  0
LINE
  8
_1-8_小物
  6
CONTINUOUS
 62
    4
 10
-62.799999999993474
 20
84.330864333333238
 11
-62.555555666660098
 21
84.189734000000044
  0
LINE
  8
_1-8_小物
  6
CONTINUOUS
 62
    4
 10
-61.333333333326891
 20
87.083333333333258
 11
-61.5182546666598
 21
87.21281666666664
  0
LINE
  8
_1-8_小物
  6
CONTINUOUS
 62
    4
 10
-63.86666666666008
 20
85.333333333333258
 11
-63.86666666666008
 21
85.271604999999909
  0
LINE
  8
_1-8_小物
  6
CONTINUOUS
 62
    4
 10
-63.86666666666008
 20
85.271604999999909
 11
-63.656693181220021
 21
85.333333333333258
  0
LINE
  8
_1-8_小物
  6
CONTINUOUS
 62
    4
 10
-64.111110999993457
 20
85.130474999999933
 11
-63.104805233274362
 21
85.333333333333258
  0
LINE
  8
_1-8_小物
  6
CONTINUOUS
 62
    4
 10
-62.747331221070112
 20
85.333333333333258
 11
-62.799999999993474
 21
85.302924999999959
  0
LINE
  8
_1-8_小物
  6
CONTINUOUS
 62
    4
 10
-62.799999999993474
 20
85.585185333333357
 11
-62.799999999993474
 21
85.930085666666628
  0
LINE
  8
_1-8_小物
  6
CONTINUOUS
 62
    4
 10
-62.799999999993474
 20
85.585185333333357
 11
-62.555555666660098
 21
85.444054999999935
  0
LINE
  8
_1-8_小物
  6
CONTINUOUS
 62
    4
 10
-63.86666666666008
 20
86.243665666666629
 11
-63.86666666666008
 21
85.898765333333358
  0
LINE
  8
_1-8_小物
  6
CONTINUOUS
 62
    4
 10
-62.799999999993474
 20
86.5
 11
-62.799999999993474
 21
86.212345666666579
  0
LINE
  8
_1-8_小物
  6
CONTINUOUS
 62
    4
 10
-63.86666666666008
 20
85.61650533333318
 11
-62.799999999993474
 21
85.930085666666628
  0
LINE
  8
_1-8_小物
  6
CONTINUOUS
 62
    4
 10
-63.86666666666008
 20
85.898765333333358
 11
-62.799999999993474
 21
86.212345666666579
  0
LINE
  8
_1-8_小物
  6
CONTINUOUS
 62
    4
 10
-64.111110999993457
 20
85.757635333333383
 11
-62.555555666660098
 21
86.071215666666603
  0
LINE
  8
_1-8_小物
  6
CONTINUOUS
 62
    4
 10
-64.111110999993457
 20
85.757635333333383
 11
-63.86666666666008
 21
85.61650533333318
  0
LINE
  8
_1-8_小物
  6
CONTINUOUS
 62
    4
 10
-64.111110999993457
 20
85.757635333333383
 11
-63.86666666666008
 21
85.898765333333358
  0
LINE
  8
_1-8_小物
  6
CONTINUOUS
 62
    4
 10
-62.555555666660098
 20
86.071215666666603
 11
-62.799999999993474
 21
85.930085666666628
  0
LINE
  8
_1-8_小物
  6
CONTINUOUS
 62
    4
 10
-62.799999999993474
 20
86.212345666666579
 11
-62.555555666660098
 21
86.071215666666603
  0
LINE
  8
_1-8_小物
  6
CONTINUOUS
 62
    4
 10
-62.994726666660085
 20
86.5
 11
-63.86666666666008
 21
86.243665666666629
  0
LINE
  8
_1-8_小物
  6
CONTINUOUS
 62
    4
 10
-63.539625999993348
 20
86.5
 11
-64.111110999993457
 21
86.384796000000051
  0
LINE
  8
_1-8_小物
  6
CONTINUOUS
 62
    4
 10
-64.111110999993457
 20
86.384796000000051
 11
-63.86666666666008
 21
86.243665666666629
  0
LINE
  8
_1-8_小物
  6
CONTINUOUS
 62
    4
 10
-63.911571666659825
 20
86.5
 11
-64.111110999993457
 21
86.384796000000051
  0
LINE
  8
_1-8_小物
  6
CONTINUOUS
 62
    4
 10
-63.86666666666008
 20
85.61650533333318
 11
-63.86666666666008
 21
85.333333333333258
  0
LINE
  8
_1-8_小物
  6
CONTINUOUS
 62
    4
 10
-63.656693181220021
 20
85.333333333333258
 11
-62.799999999993474
 21
85.585185333333357
  0
LINE
  8
_1-8_小物
  6
CONTINUOUS
 62
    4
 10
-63.104805233274362
 20
85.333333333333258
 11
-62.555555666660098
 21
85.444054999999935
  0
LINE
  8
_1-8_小物
  6
CONTINUOUS
 62
    4
 10
-62.555555666660098
 20
85.444054999999935
 11
-62.747331221070112
 21
85.333333333333258
  0
LINE
  8
_1-8_小物
  6
CONTINUOUS
 62
    4
 10
-64.999999999993577
 20
86.5
 11
-61.666666666660262
 21
86.5
  0
ENDBLK
  0
BLOCK
  2
-004-_4_
 70
   64
 10
0
 20
0
 30
0
  0
LINE
  8
_1-8_小物
  6
CONTINUOUS
 62
    4
 10
-136.66666666667297
 20
82
 11
-137.19999966667294
 21
82.307919999999967
  0
LINE
  8
_1-8_小物
  6
CONTINUOUS
 62
    4
 10
-136.66666666667297
 20
82
 11
-136.13333333333946
 21
82.307919999999967
  0
ARC
  8
_1-8_小物
  6
CONTINUOUS
 62
    4
 10
-136.66666666667297
 20
86.305555666666578
 40
2.0277776666666663
 50
53.831357999997664
 51
126.16864200000009
  0
ARC
  8
_1-8_小物
  6
CONTINUOUS
 62
    4
 10
-135.66666666667297
 20
87.673452333333216
 40
0.3333333333333333
 50
0
 51
53.831357999953951
  0
ARC
  8
_1-8_小物
  6
CONTINUOUS
 62
    4
 10
-137.66666666667297
 20
87.673452333333216
 40
0.3333333333333333
 50
126.16864199999722
 51
180
  0
LINE
  8
_1-8_小物
  6
CONTINUOUS
 62
    4
 10
-138.66666666667297
 20
87.083333333333258
 11
-138.66666666667297
 21
86.833333333333258
  0
ARC
  8
_1-8_小物
  6
CONTINUOUS
 62
    4
 10
-138.09942666667266
 20
86.666669333333402
 40
0.6666666666666666
 50
90
 51
124.99999999997416
  0
LINE
  8
_1-8_小物
  6
CONTINUOUS
 62
    4
 10
-138.66666666667297
 20
87.083333333333258
 11
-138.48181100000591
 21
87.212770666666756
  0
LINE
  8
_1-8_小物
  6
CONTINUOUS
 62
    4
 10
-138.66666666667297
 20
87.083333333333258
 11
-134.66666666667297
 21
87.083333333333258
  0
LINE
  8
_1-8_小物
  6
CONTINUOUS
 62
    4
 10
-138.66666666667297
 20
86.833333333333258
 11
-134.66666666667297
 21
86.833333333333258
  0
LINE
  8
_1-8_小物
  6
CONTINUOUS
 62
    4
 10
-134.66666666667297
 20
87.083333333333258
 11
-134.66666666667297
 21
86.833333333333258
  0
LINE
  8
_1-8_小物
  6
CONTINUOUS
 62
    4
 10
-138.3333333333396
 20
86.833333333333258
 11
-138.3333333333396
 21
86.5
  0
LINE
  8
_1-8_小物
  6
CONTINUOUS
 62
    4
 10
-135.00000000000625
 20
86.833333333333258
 11
-135.00000000000625
 21
86.5
  0
LINE
  8
_1-8_小物
  6
CONTINUOUS
 62
    4
 10
-136.66666666667297
 20
84.032944000000043
 11
-136.13333333333946
 21
84.048603999999841
  0
LINE
  8
_1-8_小物
  6
CONTINUOUS
 62
    4
 10
-136.66666666667297
 20
84.032944000000043
 11
-136.13333333333946
 21
84.330864333333238
  0
LINE
  8
_1-8_小物
  6
CONTINUOUS
 62
    4
 10
-137.20000000000607
 20
84.989344666666653
 11
-137.20000000000607
 21
84.64444433333324
  0
LINE
  8
_1-8_小物
  6
CONTINUOUS
 62
    4
 10
-137.20000000000607
 20
84.362184333333289
 11
-137.20000000000607
 21
82.307919999999967
  0
LINE
  8
_1-8_小物
  6
CONTINUOUS
 62
    4
 10
-136.13333333333946
 20
85.302924999999959
 11
-136.13333333333946
 21
84.958024666666603
  0
LINE
  8
_1-8_小物
  6
CONTINUOUS
 62
    4
 10
-136.13333333333946
 20
84.67576466666651
 11
-136.13333333333946
 21
84.330864333333238
  0
LINE
  8
_1-8_小物
  6
CONTINUOUS
 62
    4
 10
-136.13333333333946
 20
84.048603999999841
 11
-136.13333333333946
 21
82.307919999999967
  0
LINE
  8
_1-8_小物
  6
CONTINUOUS
 62
    4
 10
-137.20000000000607
 20
84.989344666666653
 11
-136.13333333333946
 21
85.302924999999959
  0
LINE
  8
_1-8_小物
  6
CONTINUOUS
 62
    4
 10
-137.44444433333945
 20
85.130474999999933
 11
-137.20000000000607
 21
84.989344666666653
  0
LINE
  8
_1-8_小物
  6
CONTINUOUS
 62
    4
 10
-137.44444433333945
 20
85.130474999999933
 11
-137.20000000000607
 21
85.271604999999909
  0
LINE
  8
_1-8_小物
  6
CONTINUOUS
 62
    4
 10
-138.00000000000625
 20
87.673452333333216
 11
-138.00000000000625
 21
87.333333333333258
  0
ARC
  8
_1-8_小物
  6
CONTINUOUS
 62
    4
 10
-135.23397233333969
 20
86.666715333333201
 40
0.6666666666666666
 50
54.999999999992028
 51
90
  0
LINE
  8
_1-8_小物
  6
CONTINUOUS
 62
    4
 10
-138.09942666667266
 20
87.333335999999917
 11
-135.23397233333969
 21
87.333381999999943
  0
LINE
  8
_1-8_小物
  6
CONTINUOUS
 62
    4
 10
-135.3333333333396
 20
87.673452333333216
 11
-135.3333333333396
 21
87.333333333333258
  0
LINE
  8
_1-8_小物
  6
CONTINUOUS
 62
    4
 10
-136.66666666667297
 20
82.678746999999845
 11
-136.66666666667297
 21
82
  0
LINE
  8
_1-8_小物
  6
CONTINUOUS
 62
    4
 10
-136.13333333333946
 20
83.866666666666561
 11
-137.19999500000594
 21
83.866666666666561
  0
ARC
  8
_1-8_小物
  6
CONTINUOUS
 62
    4
 10
-136.6583140000059
 20
82.078443333333325
 40
0.5882826666666666
 50
90.813543000036276
 51
157.04087500000162
  0
ARC
  8
_1-8_小物
  6
CONTINUOUS
 62
    4
 10
-134.65586266667276
 20
82.49149466666654
 40
2.0184196666666665
 50
137.05379999998826
 51
175.02122199999761
  0
LINE
  8
_1-8_小物
  6
CONTINUOUS
 62
    4
 10
-137.20000000000607
 20
84.362184333333289
 11
-136.13333333333946
 21
84.67576466666651
  0
LINE
  8
_1-8_小物
  6
CONTINUOUS
 62
    4
 10
-137.20000000000607
 20
84.64444433333324
 11
-136.13333333333946
 21
84.958024666666603
  0
LINE
  8
_1-8_小物
  6
CONTINUOUS
 62
    4
 10
-137.44444433333945
 20
84.503314333333265
 11
-135.88888900000609
 21
84.816894666666627
  0
LINE
  8
_1-8_小物
  6
CONTINUOUS
 62
    4
 10
-137.44444433333945
 20
84.503314333333265
 11
-137.20000000000607
 21
84.362184333333289
  0
LINE
  8
_1-8_小物
  6
CONTINUOUS
 62
    4
 10
-137.44444433333945
 20
84.503314333333265
 11
-137.20000000000607
 21
84.64444433333324
  0
LINE
  8
_1-8_小物
  6
CONTINUOUS
 62
    4
 10
-135.88888900000609
 20
84.816894666666627
 11
-136.13333333333946
 21
84.67576466666651
  0
LINE
  8
_1-8_小物
  6
CONTINUOUS
 62
    4
 10
-136.13333333333946
 20
84.958024666666603
 11
-135.88888900000609
 21
84.816894666666627
  0
LINE
  8
_1-8_小物
  6
CONTINUOUS
 62
    4
 10
-136.66666666667297
 20
84.032944000000043
 11
-135.88888900000609
 21
84.189734000000044
  0
LINE
  8
_1-8_小物
  6
CONTINUOUS
 62
    4
 10
-135.88888900000609
 20
84.189734000000044
 11
-136.13333333333946
 21
84.048603999999841
  0
LINE
  8
_1-8_小物
  6
CONTINUOUS
 62
    4
 10
-136.13333333333946
 20
84.330864333333238
 11
-135.88888900000609
 21
84.189734000000044
  0
LINE
  8
_1-8_小物
  6
CONTINUOUS
 62
    4
 10
-134.66666666667297
 20
87.083333333333258
 11
-134.85158800000579
 21
87.21281666666664
  0
LINE
  8
_1-8_小物
  6
CONTINUOUS
 62
    4
 10
-137.20000000000607
 20
85.333333333333258
 11
-137.20000000000607
 21
85.271604999999909
  0
LINE
  8
_1-8_小物
  6
CONTINUOUS
 62
    4
 10
-137.20000000000607
 20
85.271604999999909
 11
-136.99002651456601
 21
85.333333333333258
  0
LINE
  8
_1-8_小物
  6
CONTINUOUS
 62
    4
 10
-137.44444433333945
 20
85.130474999999933
 11
-136.43813856662038
 21
85.333333333333258
  0
LINE
  8
_1-8_小物
  6
CONTINUOUS
 62
    4
 10
-136.0806645544161
 20
85.333333333333258
 11
-136.13333333333946
 21
85.302924999999959
  0
LINE
  8
_1-8_小物
  6
CONTINUOUS
 62
    4
 10
-136.13333333333946
 20
85.585185333333357
 11
-136.13333333333946
 21
85.930085666666628
  0
LINE
  8
_1-8_小物
  6
CONTINUOUS
 62
    4
 10
-136.13333333333946
 20
85.585185333333357
 11
-135.88888900000609
 21
85.444054999999935
  0
LINE
  8
_1-8_小物
  6
CONTINUOUS
 62
    4
 10
-137.20000000000607
 20
86.243665666666629
 11
-137.20000000000607
 21
85.898765333333358
  0
LINE
  8
_1-8_小物
  6
CONTINUOUS
 62
    4
 10
-136.13333333333946
 20
86.5
 11
-136.13333333333946
 21
86.212345666666579
  0
LINE
  8
_1-8_小物
  6
CONTINUOUS
 62
    4
 10
-137.20000000000607
 20
85.61650533333318
 11
-136.13333333333946
 21
85.930085666666628
  0
LINE
  8
_1-8_小物
  6
CONTINUOUS
 62
    4
 10
-137.20000000000607
 20
85.898765333333358
 11
-136.13333333333946
 21
86.212345666666579
  0
LINE
  8
_1-8_小物
  6
CONTINUOUS
 62
    4
 10
-137.44444433333945
 20
85.757635333333383
 11
-135.88888900000609
 21
86.071215666666603
  0
LINE
  8
_1-8_小物
  6
CONTINUOUS
 62
    4
 10
-137.44444433333945
 20
85.757635333333383
 11
-137.20000000000607
 21
85.61650533333318
  0
LINE
  8
_1-8_小物
  6
CONTINUOUS
 62
    4
 10
-137.44444433333945
 20
85.757635333333383
 11
-137.20000000000607
 21
85.898765333333358
  0
LINE
  8
_1-8_小物
  6
CONTINUOUS
 62
    4
 10
-135.88888900000609
 20
86.071215666666603
 11
-136.13333333333946
 21
85.930085666666628
  0
LINE
  8
_1-8_小物
  6
CONTINUOUS
 62
    4
 10
-136.13333333333946
 20
86.212345666666579
 11
-135.88888900000609
 21
86.071215666666603
  0
LINE
  8
_1-8_小物
  6
CONTINUOUS
 62
    4
 10
-136.32806000000608
 20
86.5
 11
-137.20000000000607
 21
86.243665666666629
  0
LINE
  8
_1-8_小物
  6
CONTINUOUS
 62
    4
 10
-136.87295933333937
 20
86.5
 11
-137.44444433333945
 21
86.384796000000051
  0
LINE
  8
_1-8_小物
  6
CONTINUOUS
 62
    4
 10
-137.44444433333945
 20
86.384796000000051
 11
-137.20000000000607
 21
86.243665666666629
  0
LINE
  8
_1-8_小物
  6
CONTINUOUS
 62
    4
 10
-137.24490500000582
 20
86.5
 11
-137.44444433333945
 21
86.384796000000051
  0
LINE
  8
_1-8_小物
  6
CONTINUOUS
 62
    4
 10
-137.20000000000607
 20
85.61650533333318
 11
-137.20000000000607
 21
85.333333333333258
  0
LINE
  8
_1-8_小物
  6
CONTINUOUS
 62
    4
 10
-136.99002651456601
 20
85.333333333333258
 11
-136.13333333333946
 21
85.585185333333357
  0
LINE
  8
_1-8_小物
  6
CONTINUOUS
 62
    4
 10
-136.43813856662038
 20
85.333333333333258
 11
-135.88888900000609
 21
85.444054999999935
  0
LINE
  8
_1-8_小物
  6
CONTINUOUS
 62
    4
 10
-135.88888900000609
 20
85.444054999999935
 11
-136.0806645544161
 21
85.333333333333258
  0
LINE
  8
_1-8_小物
  6
CONTINUOUS
 62
    4
 10
-138.3333333333396
 20
86.5
 11
-135.00000000000625
 21
86.5
  0
ENDBLK
  0
BLOCK
  2
-005-_5_
 70
   64
 10
0
 20
0
 30
0
  0
LINE
  8
_1-8_小物
  6
CONTINUOUS
 62
    4
 10
-61.787483860264587
 20
-19
 11
-59.787483860264587
 21
-19
  0
LINE
  8
_1-8_小物
  6
CONTINUOUS
 62
    4
 10
-62.120817193597929
 20
-19.707106781186553
 11
-62.120817193597929
 21
-18.292893218813447
  0
LINE
  8
_1-8_小物
  6
CONTINUOUS
 62
    4
 10
-62.120817193597929
 20
-18.292893218813447
 11
-59.454150526931244
 21
-18.292893218813447
  0
LINE
  8
_1-8_小物
  6
CONTINUOUS
 62
    4
 10
-59.454150526931244
 20
-19.707106781186553
 11
-59.454150526931244
 21
-18.292893218813447
  0
LINE
  8
_1-8_小物
  6
CONTINUOUS
 62
    4
 10
-62.120817193597929
 20
-19.707106781186553
 11
-59.454150526931244
 21
-19.707106781186553
  0
ENDBLK
  0
BLOCK
  2
-006-_6_
 70
   64
 10
0
 20
0
 30
0
  0
LINE
  8
_1-8_小物
  6
CONTINUOUS
 62
    4
 10
-118.45415052693124
 20
-19
 11
-120.45415052693124
 21
-19
  0
LINE
  8
_1-8_小物
  6
CONTINUOUS
 62
    4
 10
-118.12081719359792
 20
-19.707106781186553
 11
-118.12081719359792
 21
-18.292893218813447
  0
LINE
  8
_1-8_小物
  6
CONTINUOUS
 62
    4
 10
-118.12081719359792
 20
-18.292893218813447
 11
-120.78748386026459
 21
-18.292893218813447
  0
LINE
  8
_1-8_小物
  6
CONTINUOUS
 62
    4
 10
-120.78748386026459
 20
-19.707106781186553
 11
-120.78748386026459
 21
-18.292893218813447
  0
LINE
  8
_1-8_小物
  6
CONTINUOUS
 62
    4
 10
-118.12081719359792
 20
-19.707106781186553
 11
-120.78748386026459
 21
-19.707106781186553
  0
ENDBLK
  0
BLOCK
  2
-007-_7_
 70
   64
 10
0
 20
0
 30
0
  0
LINE
  8
_1-8_小物
  6
CONTINUOUS
 62
    4
 10
138.21251613973538
 20
-19
 11
140.21251613973538
 21
-19
  0
LINE
  8
_1-8_小物
  6
CONTINUOUS
 62
    4
 10
137.87918280640207
 20
-19.707106781186553
 11
137.87918280640207
 21
-18.292893218813447
  0
LINE
  8
_1-8_小物
  6
CONTINUOUS
 62
    4
 10
137.87918280640207
 20
-18.292893218813447
 11
140.54584947306876
 21
-18.292893218813447
  0
LINE
  8
_1-8_小物
  6
CONTINUOUS
 62
    4
 10
140.54584947306876
 20
-19.707106781186553
 11
140.54584947306876
 21
-18.292893218813447
  0
LINE
  8
_1-8_小物
  6
CONTINUOUS
 62
    4
 10
137.87918280640207
 20
-19.707106781186553
 11
140.54584947306876
 21
-19.707106781186553
  0
ENDBLK
  0
BLOCK
  2
-008-_8_
 70
   64
 10
0
 20
0
 30
0
  0
LINE
  8
_1-8_小物
  6
CONTINUOUS
 62
    4
 10
81.545849473068756
 20
-19
 11
79.545849473068756
 21
-19
  0
LINE
  8
_1-8_小物
  6
CONTINUOUS
 62
    4
 10
81.879182806402071
 20
-19.707106781186553
 11
81.879182806402071
 21
-18.292893218813447
  0
LINE
  8
_1-8_小物
  6
CONTINUOUS
 62
    4
 10
81.879182806402071
 20
-18.292893218813447
 11
79.212516139735385
 21
-18.292893218813447
  0
LINE
  8
_1-8_小物
  6
CONTINUOUS
 62
    4
 10
79.212516139735385
 20
-19.707106781186553
 11
79.212516139735385
 21
-18.292893218813447
  0
LINE
  8
_1-8_小物
  6
CONTINUOUS
 62
    4
 10
81.879182806402071
 20
-19.707106781186553
 11
79.212516139735385
 21
-19.707106781186553
  0
ENDBLK
  0
BLOCK
  2
-009-_9_
 70
   64
 10
0
 20
0
 30
0
  0
LINE
  8
ADD_LINE
  6
DOT
 62
    4
 10
-142.49999992053344
 20
79.500000000000057
 11
-142.49999992053344
 21
78.499999999999943
  0
LINE
  8
ADD_LINE
  6
DOT
 62
    4
 10
-147.49999992053344
 20
79.500000000000057
 11
-147.49999992053344
 21
78.499999999999943
  0
LINE
  8
_1-4_フレ__ム
  6
CENTER2
 62
    4
 10
-144.99999992053344
 20
76.833333333333286
 11
-144.99999992053344
 21
80.666666666666771
  0
LINE
  8
_1-4_フレ__ム
  6
CONTINUOUS
 62
    4
 10
-144.99999992053344
 20
79.400000000000034
 11
-145.09999992053321
 21
79.500000000000057
  0
LINE
  8
_1-4_フレ__ム
  6
CONTINUOUS
 62
    4
 10
-144.89999992053308
 20
79.500000000000057
 11
-144.99999992053344
 21
79.400000000000034
  0
LINE
  8
_1-4_フレ__ム
  6
CONTINUOUS
 62
    4
 10
-140.33333341279948
 20
79.500000000000057
 11
-144.89999992053308
 21
79.500000000000057
  0
LINE
  8
_1-4_フレ__ム
  6
CONTINUOUS
 62
    4
 10
-140.33333341279948
 20
80.333333333333314
 11
-140.33333341279948
 21
79.500000000000057
  0
LINE
  8
_1-4_フレ__ム
  6
CONTINUOUS
 62
    4
 10
-140.33333341279948
 20
80.333333333333314
 11
-139.33333341279945
 21
80.333333333333314
  0
LINE
  8
_1-4_フレ__ム
  6
CONTINUOUS
 62
    4
 10
-145.09999992053321
 20
79.500000000000057
 11
-150.99999982206685
 21
79.500000000000057
  0
ARC
  8
_1-4_フレ__ム
  6
CONTINUOUS
 62
    4
 10
-131.09999982206645
 20
78.766666666666936
 40
0.2666666666666667
 50
270
 51
0
  0
ARC
  8
_1-4_フレ__ム
  6
CONTINUOUS
 62
    4
 10
-131.1999998220665
 20
78.666666666666771
 40
0.1666666666666666
 50
180
 51
270
  0
LINE
  8
_1-4_フレ__ム
  6
CONTINUOUS
 62
    4
 10
-131.1999998220665
 20
78.499999999999943
 11
-131.09999982206645
 21
78.499999999999943
  0
ARC
  8
_1-4_フレ__ム
  6
CONTINUOUS
 62
    4
 10
-133.33333315540003
 20
79.500000000000057
 40
0.1666666666666666
 50
270
 51
0
  0
LINE
  8
_1-4_フレ__ム
  6
CONTINUOUS
 62
    4
 10
-130.83333315540003
 20
78.766666666666936
 11
-130.83333315540003
 21
79.76666666666668
  0
ARC
  8
_1-4_フレ__ム
  6
CONTINUOUS
 62
    4
 10
-131.46666648873338
 20
79.76666666666668
 40
0.6333333333333333
 50
0
 51
90
  0
LINE
  8
_1-4_フレ__ム
  6
CONTINUOUS
 62
    4
 10
-139.33333341279945
 20
80.333333333333314
 11
-139.33333341279945
 21
79.333333333333428
  0
LINE
  8
_1-4_フレ__ム
  6
CONTINUOUS
 62
    4
 10
-133.33333315540003
 20
79.333333333333428
 11
-139.33333341279945
 21
79.333333333333428
  0
LINE
  8
_1-4_フレ__ム
  6
CONTINUOUS
 62
    4
 10
-149.99999982206654
 20
78.499999999999943
 11
-150.99999982206685
 21
79.500000000000057
  0
LINE
  8
_1-4_フレ__ム
  6
CONTINUOUS
 62
    4
 10
-149.99999982206654
 20
78.499999999999943
 11
-132.33333333333326
 21
78.499999999999943
  0
LINE
  8
ADD_LINE
  6
DOT
 62
    4
 10
-133.83333315540003
 20
79.333333333333428
 11
-133.83333315540003
 21
78.499999999999943
  0
LINE
  8
_1-4_フレ__ム
  6
CENTER2
 62
    4
 10
-131.84999982206645
 20
79.316666666666777
 11
-131.84999982206645
 21
80.149999999999807
  0
LINE
  8
_1-4_フレ__ム
  6
CENTER2
 62
    4
 10
-131.84999982206645
 20
79.316666666666777
 11
-132.68333315540008
 21
79.316666666666777
  0
LINE
  8
_1-4_フレ__ム
  6
CENTER2
 62
    4
 10
-131.84999982206645
 20
79.316666666666777
 11
-131.84999982206645
 21
78.483333333333178
  0
LINE
  8
_1-4_フレ__ム
  6
CENTER2
 62
    4
 10
-131.84999982206645
 20
79.316666666666777
 11
-131.01666648873311
 21
79.316666666666777
  0
ARC
  8
_1-4_フレ__ム
  6
CONTINUOUS
 62
    4
 10
-131.84999982206645
 20
79.316666666666777
 40
0.4833333333332726
 50
0
 51
180
  0
LINE
  8
_1-4_フレ__ム
  6
CONTINUOUS
 62
    4
 10
-132.33333315540003
 20
78.499999999999943
 11
-132.33333315540003
 21
79.316666666666777
  0
LINE
  8
_1-4_フレ__ム
  6
CONTINUOUS
 62
    4
 10
-131.36666648873347
 20
79.316666666666777
 11
-131.36666648873347
 21
78.666666666666771
  0
LINE
  8
_1-4_フレ__ム
  6
CONTINUOUS
 62
    4
 10
-133.16666648873337
 20
80.300000000000011
 11
-133.16666648873337
 21
79.500000000000057
  0
LINE
  8
_1-4_フレ__ム
  6
CONTINUOUS
 62
    4
 10
-131.46666648873338
 20
80.400000000000034
 11
-133.06666648873335
 21
80.400000000000034
  0
ARC
  8
_1-4_フレ__ム
  6
CONTINUOUS
 62
    4
 10
-133.06666648873335
 20
80.300000000000011
 40
0.0999999999999999
 50
90
 51
180
  0
ENDBLK
  0
BLOCK
  2
-010-_10_
 70
   64
 10
0
 20
0
 30
0
  0
LINE
  8
_1-8_小物
  6
CONTINUOUS
 62
    4
 10
-133.96111093644973
 20
79.563646888524232
 11
-134.04814797349445
 21
79.462640294876707
  0
ARC
  8
_1-8_小物
  6
CONTINUOUS
 62
    4
 10
-130.96666648873307
 20
80.26666666666668
 40
0.1333333333333333
 50
0
 51
89.999998490725531
  0
ARC
  8
_1-8_小物
  6
CONTINUOUS
 62
    4
 10
-130.96666648873307
 20
80.26666666666668
 40
0.2666666666666666
 50
0
 51
89.999998490725531
  0
ARC
  8
_1-8_小物
  6
CONTINUOUS
 62
    4
 10
-130.96666648873307
 20
78.633333333333326
 40
0.2666666666666666
 50
270
 51
0
  0
ARC
  8
_1-8_小物
  6
CONTINUOUS
 62
    4
 10
-131.69999982206642
 20
78.127322003766636
 40
0.5
 50
53.031405798549194
 51
131.81031489580724
  0
ARC
  8
_1-8_小物
  6
CONTINUOUS
 62
    4
 10
-131.31912760539973
 20
78.633333333333326
 40
0.1333333333333333
 50
233.03140197499982
 51
269.99999849072555
  0
LINE
  8
_1-8_小物
  6
CONTINUOUS
 62
    4
 10
-131.32275832556644
 20
78.366666666666674
 11
-130.96666648873307
 21
78.366666666666674
  0
ARC
  8
_1-8_小物
  6
CONTINUOUS
 62
    4
 10
-130.96666648873307
 20
78.633333333333326
 40
0.1333333333333333
 50
270
 51
0
  0
ARC
  8
_1-8_小物
  6
CONTINUOUS
 62
    4
 10
-131.69999982206642
 20
78.083666800100019
 40
0.3999999999999999
 50
55.537811429941833
 51
127.63786311680289
  0
LINE
  8
_1-8_小物
  6
CONTINUOUS
 62
    4
 10
-131.31912760889978
 20
78.5
 11
-130.96666648873307
 21
78.5
  0
ARC
  8
_1-8_小物
  6
CONTINUOUS
 62
    4
 10
-131.32275832556644
 20
78.633333333333326
 40
0.2666666666666666
 50
235.53781142990243
 51
270
  0
LINE
  8
_1-8_小物
  6
CONTINUOUS
 62
    4
 10
-132.03333315539976
 20
78.5
 11
-131.94426726376642
 21
78.400421305899982
  0
LINE
  8
_1-8_小物
  6
CONTINUOUS
 62
    4
 10
-130.69999982206642
 20
78.633333333333326
 11
-130.69999982206642
 21
80.26666666666668
  0
LINE
  8
_1-8_小物
  6
CONTINUOUS
 62
    4
 10
-130.83333315539977
 20
78.633333333333326
 11
-130.83333315539977
 21
80.26666666666668
  0
ARC
  8
_1-8_小物
  6
CONTINUOUS
 62
    4
 10
-133.69999982206642
 20
79.866666666666674
 40
0.5333333333333333
 50
180
 51
0.0000086701116401
  0
ARC
  8
_1-8_小物
  6
CONTINUOUS
 62
    4
 10
-133.69999982206642
 20
79.866666666666674
 40
0.3999999999999999
 50
180.00000000009771
 51
0.0000018823917002
  0
LINE
  8
_1-8_小物
  6
CONTINUOUS
 62
    4
 10
-134.09999982206642
 20
79.866666666666674
 11
-134.23333315539975
 21
79.866666666666674
  0
LINE
  8
_1-8_小物
  6
CONTINUOUS
 62
    4
 10
-135.16666648873311
 20
79.333333333333286
 11
-135.16666648873311
 21
79.466666666666612
  0
LINE
  8
_1-8_小物
  6
DASHED1
 62
    4
 10
-132.5833331483268
 20
80.533333333333331
 11
-132.5833331483268
 21
80.400000000000006
  0
LINE
  8
_1-8_小物
  6
CONTINUOUS
 62
    4
 10
-134.66666648873311
 20
79.466666666666612
 11
-134.66666648873311
 21
79.333333333333286
  0
LINE
  8
_1-8_小物
  6
CONTINUOUS
 62
    4
 10
-135.16666648873311
 20
79.466666666666612
 11
-134.05276666354166
 21
79.466666666666612
  0
LINE
  8
_1-8_小物
  6
CONTINUOUS
 62
    4
 10
-135.16666648873311
 20
79.333333333333286
 11
-133.33333315540003
 21
79.333333333333286
  0
LINE
  8
_1-8_小物
  6
CONTINUOUS
 62
    4
 10
-133.34723298059117
 20
79.466666666666612
 11
-133.17003383921451
 21
79.466666666666612
  0
ARC
  8
_1-8_小物
  6
CONTINUOUS
 62
    4
 10
-132.26977134708332
 20
79.033333333333331
 40
0.1333333333333333
 50
241.52902134410616
 51
270
  0
LINE
  8
_1-8_小物
  6
CONTINUOUS
 62
    4
 10
-132.33333315540003
 20
78.76666666666668
 11
-131.36666648873347
 21
78.76666666666668
  0
LINE
  8
_1-8_小物
  6
CONTINUOUS
 62
    4
 10
-132.26977134708332
 20
78.899999999999977
 11
-131.36666648873347
 21
78.899999999999977
  0
LINE
  8
_1-8_小物
  6
CONTINUOUS
 62
    4
 10
-130.96666648523311
 20
80.400000000000006
 11
-133.06666648873312
 21
80.400000000000006
  0
LINE
  8
_1-8_小物
  6
CONTINUOUS
 62
    4
 10
-133.16666648873311
 20
79.866666666666674
 11
-133.16666648873311
 21
80.300000000000011
  0
ARC
  8
_1-8_小物
  6
CONTINUOUS
 62
    4
 10
-133.06666648873312
 20
80.300000000000011
 40
0.0999999999999999
 50
90
 51
180
  0
LINE
  8
_1-8_小物
  6
CONTINUOUS
 62
    4
 10
-130.96666648173306
 20
80.533333333333331
 11
-133.06666648873306
 21
80.533333333333331
  0
LINE
  8
_1-8_小物
  6
CONTINUOUS
 62
    4
 10
-133.29999982206641
 20
79.866666666666674
 11
-133.29999982206641
 21
80.299999999999983
  0
ARC
  8
_1-8_小物
  6
CONTINUOUS
 62
    4
 10
-133.06666648873306
 20
80.299999999999983
 40
0.2333333333333333
 50
90
 51
180
  0
ENDBLK
  0
BLOCK
  2
-011-_11_
 70
   64
 10
0
 20
0
 30
0
  0
LINE
  8
_1-5_ア__ム
  6
CONTINUOUS
 62
    4
 10
-148.33333333333314
 20
85.733333314699962
 11
-148.33333333333314
 21
82.066666759800228
  0
ARC
  8
_1-5_ア__ム
  6
CONTINUOUS
 62
    4
 10
-146.66666666666646
 20
82.066666759800228
 40
1.6666666666666665
 50
180
 51
270
  0
LINE
  8
_1-5_ア__ム
  6
CONTINUOUS
 62
    4
 10
-51.666666666666572
 20
85.733333333333348
 11
-51.666666666666572
 21
82.066666759800228
  0
ARC
  8
_1-5_ア__ム
  6
CONTINUOUS
 62
    4
 10
-53.333333333333201
 20
82.066666759800228
 40
1.6666666666666665
 50
270
 51
0
  0
LINE
  8
_1-5_ア__ム
  6
CONTINUOUS
 62
    4
 10
-148.33333333333314
 20
85.733333333333348
 11
-51.666666666666572
 21
85.733333333333348
  0
LINE
  8
_1-5_ア__ム
  6
DASHED1
 62
    4
 10
-148.33333333333314
 20
84.800000014633497
 11
-51.666666666666572
 21
84.800000014633497
  0
LINE
  8
_1-5_ア__ム
  6
CONTINUOUS
 62
    4
 10
-146.66666666666646
 20
80.400000093133485
 11
-53.333333333333201
 21
80.400000093133485
  0
LINE
  8
_1-5_ア__ム
  6
DASHED1
 62
    4
 10
-148.33333333333314
 20
84.066666681300148
 11
-51.666666666666572
 21
84.066666681300148
  0
LINE
  8
_1-5_ア__ム
  6
DASHED1
 62
    4
 10
-129.99999999999997
 20
84.800000014633412
 11
-129.99999999999997
 21
84.066666681300148
  0
LINE
  8
_1-5_ア__ム
  6
DASHED1
 62
    4
 10
-127.99999999999966
 20
84.800000014633412
 11
-127.99999999999966
 21
84.066666681300148
  0
LINE
  8
_1-5_ア__ム
  6
DASHED1
 62
    4
 10
-144.33333333333314
 20
84.800000014633412
 11
-144.33333333333314
 21
84.066666681300148
  0
LINE
  8
_1-5_ア__ム
  6
DASHED1
 62
    4
 10
-138.99999999999952
 20
84.800000014633412
 11
-138.99999999999952
 21
84.066666681300262
  0
ENDBLK
  0
BLOCK
  2
-012-_12_
 70
   64
 10
0
 20
0
 30
0
  0
LINE
  8
_1-8_小物
  6
CONTINUOUS
 62
    4
 10
-141.99999992053296
 20
80.000000000000057
 11
-147.99999992053327
 21
80.000000000000057
  0
LINE
  8
_1-8_小物
  6
CONTINUOUS
 62
    4
 10
-141.99999992053296
 20
79.500000000000057
 11
-147.99999992053327
 21
79.500000000000057
  0
LINE
  8
_1-8_小物
  6
CONTINUOUS
 62
    4
 10
-141.99999992053296
 20
80.000000000000057
 11
-141.99999992053296
 21
79.500000000000057
  0
LINE
  8
_1-8_小物
  6
CONTINUOUS
 62
    4
 10
-147.99999992053327
 20
80.000000000000057
 11
-147.99999992053327
 21
79.500000000000057
  0
LINE
  8
_1-8_小物
  6
CONTINUOUS
 62
    4
 10
-143.49999992053296
 20
80.000000000000057
 11
-143.53630418179981
 21
80.414959605000092
  0
LINE
  8
_1-8_小物
  6
CONTINUOUS
 62
    4
 10
-146.46369565929982
 20
80.414959605000092
 11
-146.49999992053296
 21
80.000000000000057
  0
ARC
  8
_1-8_小物
  6
CONTINUOUS
 62
    4
 10
-146.13495140890009
 20
80.386198209899987
 40
0.3299999999999999
 50
127.36755803205445
 51
175.00000000119871
  0
ARC
  8
_1-8_小物
  6
CONTINUOUS
 62
    4
 10
-143.86504843216645
 20
80.386198209899987
 40
0.3299999999999999
 50
4.999999998801286
 51
52.632441967949475
  0
ARC
  8
_1-8_小物
  6
CONTINUOUS
 62
    4
 10
-144.99999992053327
 20
78.900000000000034
 40
2.1999999999999997
 50
52.632441967704935
 51
68.266383543398447
  0
ARC
  8
_1-8_小物
  6
CONTINUOUS
 62
    4
 10
-144.99999992053327
 20
78.900000000000034
 40
2.1999999999999997
 50
111.74840859090331
 51
127.36755803230515
  0
LINE
  8
_1-8_小物
  6
CONTINUOUS
 62
    4
 10
-144.89499992053314
 20
81.086375709866786
 11
-144.89499992053314
 21
80.941104079866648
  0
LINE
  8
_1-8_小物
  6
CONTINUOUS
 62
    4
 10
-144.77923702656614
 20
81.086375709866786
 11
-144.89499992053314
 21
81.086375709866786
  0
LINE
  8
_1-8_小物
  6
CONTINUOUS
 62
    4
 10
-144.18583216436653
 20
80.941104079866648
 11
-144.77923702656614
 21
81.086375709866786
  0
LINE
  8
_1-8_小物
  6
CONTINUOUS
 62
    4
 10
-145.22076281453317
 20
81.086375709866786
 11
-145.65406623709993
 21
80.997897102733475
  0
LINE
  8
_1-8_小物
  6
CONTINUOUS
 62
    4
 10
-145.65406623709993
 20
80.997897102733475
 11
-145.81416767673278
 21
80.941104079866648
  0
LINE
  8
_1-8_小物
  6
CONTINUOUS
 62
    4
 10
-145.10499992053317
 20
81.086375709866786
 11
-145.22076281453317
 21
81.086375709866786
  0
LINE
  8
_1-8_小物
  6
CONTINUOUS
 62
    4
 10
-145.10499992053317
 20
80.941104079866648
 11
-145.10499992053317
 21
81.086375709866786
  0
LINE
  8
_1-8_小物
  6
CONTINUOUS
 62
    4
 10
-144.89499992053314
 20
80.941104079866648
 11
-144.99999992053327
 21
80.942805804666762
  0
LINE
  8
_1-8_小物
  6
CONTINUOUS
 62
    4
 10
-144.99999992053327
 20
80.942805804666762
 11
-145.10499992053317
 21
80.941104079866648
  0
LINE
  8
_1-8_小物
  6
CONTINUOUS
 62
    4
 10
-143.53630418179981
 20
80.414959605000092
 11
-146.46369565929982
 21
80.414959605000092
  0
LINE
  8
_1-8_小物
  6
CONTINUOUS
 62
    4
 10
-144.99999992053327
 20
80.648468482233454
 11
-146.33523696569992
 21
80.648468482233454
  0
LINE
  8
_1-8_小物
  6
CONTINUOUS
 62
    4
 10
-143.6647628753997
 20
80.648468482233454
 11
-144.99999992053327
 21
80.648468482233454
  0
ENDBLK
  0
BLOCK
  2
-013-_13_
 70
   64
 10
0
 20
0
 30
0
  0
LINE
  8
_1-8_小物
  6
CONTINUOUS
 62
    4
 10
-51.999999920532559
 20
79.499999999999943
 11
-57.999999920532872
 21
79.499999999999943
  0
LINE
  8
_1-8_小物
  6
CONTINUOUS
 62
    4
 10
-51.999999920532559
 20
78.999999999999943
 11
-57.999999920532872
 21
78.999999999999943
  0
LINE
  8
_1-8_小物
  6
CONTINUOUS
 62
    4
 10
-51.999999920532559
 20
79.499999999999943
 11
-51.999999920532559
 21
78.999999999999943
  0
LINE
  8
_1-8_小物
  6
CONTINUOUS
 62
    4
 10
-57.999999920532872
 20
79.499999999999943
 11
-57.999999920532872
 21
78.999999999999943
  0
LINE
  8
_1-8_小物
  6
CONTINUOUS
 62
    4
 10
-53.499999920532559
 20
79.499999999999943
 11
-53.536304181799409
 21
79.914959604999979
  0
LINE
  8
_1-8_小物
  6
CONTINUOUS
 62
    4
 10
-56.463695659299418
 20
79.914959604999979
 11
-56.499999920532559
 21
79.499999999999943
  0
ARC
  8
_1-8_小物
  6
CONTINUOUS
 62
    4
 10
-56.134951408899695
 20
79.886198209899874
 40
0.3299999999999999
 50
127.36755803205052
 51
175.00000000119871
  0
ARC
  8
_1-8_小物
  6
CONTINUOUS
 62
    4
 10
-53.865048432166049
 20
79.886198209899874
 40
0.3299999999999999
 50
4.999999998801286
 51
52.632441967949475
  0
ARC
  8
_1-8_小物
  6
CONTINUOUS
 62
    4
 10
-54.999999920532872
 20
78.39999999999992
 40
2.1999999999999997
 50
52.632441967704935
 51
68.266383543398447
  0
ARC
  8
_1-8_小物
  6
CONTINUOUS
 62
    4
 10
-54.999999920532872
 20
78.39999999999992
 40
2.1999999999999997
 50
111.74840859090331
 51
127.36755803230515
  0
LINE
  8
_1-8_小物
  6
CONTINUOUS
 62
    4
 10
-54.89499992053274
 20
80.586375709866672
 11
-54.89499992053274
 21
80.441104079866534
  0
LINE
  8
_1-8_小物
  6
CONTINUOUS
 62
    4
 10
-54.779237026565738
 20
80.586375709866672
 11
-54.89499992053274
 21
80.586375709866672
  0
LINE
  8
_1-8_小物
  6
CONTINUOUS
 62
    4
 10
-54.185832164366133
 20
80.441104079866534
 11
-54.779237026565738
 21
80.586375709866672
  0
LINE
  8
_1-8_小物
  6
CONTINUOUS
 62
    4
 10
-55.220762814532776
 20
80.586375709866672
 11
-55.654066237099528
 21
80.497897102733361
  0
LINE
  8
_1-8_小物
  6
CONTINUOUS
 62
    4
 10
-55.654066237099528
 20
80.497897102733361
 11
-55.814167676732382
 21
80.441104079866534
  0
LINE
  8
_1-8_小物
  6
CONTINUOUS
 62
    4
 10
-55.104999920532777
 20
80.586375709866672
 11
-55.220762814532776
 21
80.586375709866672
  0
LINE
  8
_1-8_小物
  6
CONTINUOUS
 62
    4
 10
-55.104999920532777
 20
80.441104079866534
 11
-55.104999920532777
 21
80.586375709866672
  0
LINE
  8
_1-8_小物
  6
CONTINUOUS
 62
    4
 10
-54.89499992053274
 20
80.441104079866534
 11
-54.999999920532872
 21
80.442805804666648
  0
LINE
  8
_1-8_小物
  6
CONTINUOUS
 62
    4
 10
-54.999999920532872
 20
80.442805804666648
 11
-55.104999920532777
 21
80.441104079866534
  0
LINE
  8
_1-8_小物
  6
CONTINUOUS
 62
    4
 10
-53.536304181799409
 20
79.914959604999979
 11
-56.463695659299418
 21
79.914959604999979
  0
LINE
  8
_1-8_小物
  6
CONTINUOUS
 62
    4
 10
-54.999999920532872
 20
80.148468482233341
 11
-56.335236965699522
 21
80.148468482233341
  0
LINE
  8
_1-8_小物
  6
CONTINUOUS
 62
    4
 10
-53.664762875399305
 20
80.148468482233341
 11
-54.999999920532872
 21
80.148468482233341
  0
ENDBLK
  0
BLOCK
  2
-014-_14_
 70
   64
 10
0
 20
0
 30
0
  0
LINE
  8
_0-0_図面枠
  6
CONTINUOUS
 62
    7
 10
-17.103643301208479
 20
124.78846734235105
 11
-17.633973387058489
 21
124.48231430040107
  0
LINE
  8
_0-0_図面枠
  6
CONTINUOUS
 62
    7
 10
-16.197776643308487
 20
122.83680745630102
 11
-17.103643301208479
 21
124.78846734235105
  0
LINE
  8
_0-0_図面枠
  6
CONTINUOUS
 62
    7
 10
-19.578517035358487
 20
123.35975314665103
 11
-16.197776643308487
 21
122.83680745630102
  0
LINE
  8
_0-0_図面枠
  6
CONTINUOUS
 62
    7
 10
-19.048186949458483
 20
123.66590618860107
 11
-19.578517035358487
 21
123.35975314665103
  0
LINE
  8
_0-0_図面枠
  6
CONTINUOUS
 62
    7
 10
-23.644381027158488
 20
126.31923255200104
 11
-19.048186949458483
 21
123.66590618860107
  0
LINE
  8
_0-0_図面枠
  6
CONTINUOUS
 62
    7
 10
-28.240575104858493
 20
123.66590618860107
 11
-23.644381027158488
 21
126.31923255200104
  0
LINE
  8
_0-0_図面枠
  6
CONTINUOUS
 62
    7
 10
-27.710245019008482
 20
123.35975314665103
 11
-28.240575104858493
 21
123.66590618860107
  0
LINE
  8
_0-0_図面枠
  6
CONTINUOUS
 62
    7
 10
-31.090985411008489
 20
122.83680745630102
 11
-27.710245019008482
 21
123.35975314665103
  0
LINE
  8
_0-0_図面枠
  6
CONTINUOUS
 62
    7
 10
-30.185118753158491
 20
124.78846734235105
 11
-31.090985411008489
 21
122.83680745630102
  0
LINE
  8
_0-0_図面枠
  6
CONTINUOUS
 62
    7
 10
-29.654788667258487
 20
124.48231430040107
 11
-30.185118753158491
 21
124.78846734235105
  0
LINE
  8
_0-0_図面枠
  6
CONTINUOUS
 62
    7
 10
-25.058594589558481
 20
127.13564066385106
 11
-29.654788667258487
 21
124.48231430040107
  0
LINE
  8
_0-0_図面枠
  6
CONTINUOUS
 62
    7
 10
-29.654788667258487
 20
129.78896702725103
 11
-25.058594589558481
 21
127.13564066385106
  0
LINE
  8
_0-0_図面枠
  6
CONTINUOUS
 62
    7
 10
-30.185118753158491
 20
129.48281398535107
 11
-29.654788667258487
 21
129.78896702725103
  0
LINE
  8
_0-0_図面枠
  6
CONTINUOUS
 62
    7
 10
-31.090985411008489
 20
131.43447387140105
 11
-30.185118753158491
 21
129.48281398535107
  0
LINE
  8
_0-0_図面枠
  6
CONTINUOUS
 62
    7
 10
-27.710245019008482
 20
130.91152818105104
 11
-31.090985411008489
 21
131.43447387140105
  0
LINE
  8
_0-0_図面枠
  6
CONTINUOUS
 62
    7
 10
-28.240575104858493
 20
130.60537513910106
 11
-27.710245019008482
 21
130.91152818105104
  0
LINE
  8
_0-0_図面枠
  6
CONTINUOUS
 62
    7
 10
-23.644381027158488
 20
127.95204877565106
 11
-28.240575104858493
 21
130.60537513910106
  0
LINE
  8
_0-0_図面枠
  6
CONTINUOUS
 62
    7
 10
-19.048186949458483
 20
130.60537513910106
 11
-23.644381027158488
 21
127.95204877565106
  0
LINE
  8
_0-0_図面枠
  6
CONTINUOUS
 62
    7
 10
-19.578517035358487
 20
130.91152818105104
 11
-19.048186949458483
 21
130.60537513910106
  0
LINE
  8
_0-0_図面枠
  6
CONTINUOUS
 62
    7
 10
-16.197776643308487
 20
131.43447387140105
 11
-19.578517035358487
 21
130.91152818105104
  0
LINE
  8
_0-0_図面枠
  6
CONTINUOUS
 62
    7
 10
-17.103643301208479
 20
129.48281398535107
 11
-16.197776643308487
 21
131.43447387140105
  0
LINE
  8
_0-0_図面枠
  6
CONTINUOUS
 62
    7
 10
-17.633973387058489
 20
129.78896702725103
 11
-17.103643301208479
 21
129.48281398535107
  0
LINE
  8
_0-0_図面枠
  6
CONTINUOUS
 62
    7
 10
-22.230167464808488
 20
127.13564066385106
 11
-17.633973387058489
 21
129.78896702725103
  0
LINE
  8
_0-0_図面枠
  6
CONTINUOUS
 62
    7
 10
-17.633973387058489
 20
124.48231430040107
 11
-22.230167464808488
 21
127.13564066385106
  0
LINE
  8
_0-0_図面枠
  6
CONTINUOUS
 62
    7
 10
-31.090985411008489
 20
122.83680745630102
 11
-31.090985411008489
 21
122.22440184740105
  0
LINE
  8
_0-0_図面枠
  6
CONTINUOUS
 62
    7
 10
-27.710245019008482
 20
123.35975314665103
 11
-27.710245019008482
 21
122.74734753775107
  0
LINE
  8
_0-0_図面枠
  6
CONTINUOUS
 62
    7
 10
-31.090985411008489
 20
122.22440184740105
 11
-27.710245019008482
 21
122.74734753775107
  0
LINE
  8
_0-0_図面枠
  6
CONTINUOUS
 62
    7
 10
-19.578517035358487
 20
123.35975314665103
 11
-19.578517035358487
 21
122.74734753775107
  0
LINE
  8
_0-0_図面枠
  6
CONTINUOUS
 62
    7
 10
-16.197776643308487
 20
122.83680745630102
 11
-16.197776643308487
 21
122.22440184740105
  0
LINE
  8
_0-0_図面枠
  6
CONTINUOUS
 62
    7
 10
-19.578517035358487
 20
122.74734753775107
 11
-16.197776643308487
 21
122.22440184740105
  0
LINE
  8
_0-0_図面枠
  6
CONTINUOUS
 62
    7
 10
-23.644381027158488
 20
126.31923255200104
 11
-23.644381027158488
 21
125.70682694310108
  0
LINE
  8
_0-0_図面枠
  6
CONTINUOUS
 62
    7
 10
-27.710245019008482
 20
123.35965362160107
 11
-23.644381027158488
 21
125.70682694310108
  0
LINE
  8
_0-0_図面枠
  6
CONTINUOUS
 62
    7
 10
-23.644381027158488
 20
125.70682694310108
 11
-19.578517035358487
 21
123.35965362160107
  0
LINE
  8
_0-0_図面枠
  6
CONTINUOUS
 62
    7
 10
-29.654788667258487
 20
129.78896702725103
 11
-29.654788667258487
 21
129.17656141835107
  0
LINE
  8
_0-0_図面枠
  6
CONTINUOUS
 62
    7
 10
-29.654788667258487
 20
129.17656141835107
 11
-25.589010876008501
 21
126.82943785940108
  0
LINE
  8
_0-0_図面枠
  6
CONTINUOUS
 62
    7
 10
-17.633973387058489
 20
129.78896702725103
 11
-17.633973387058489
 21
129.17656141835107
  0
LINE
  8
_0-0_図面枠
  6
CONTINUOUS
 62
    7
 10
-21.699751178358497
 20
126.82943785940108
 11
-17.633973387058489
 21
129.17656141835107
  0
LINE
  8
_0-0_図面枠
  6
CONTINUOUS
 62
    7
 10
-17.103643301208479
 20
129.48281398535107
 11
-17.103643301208479
 21
128.87040837640103
  0
LINE
  8
_0-0_図面枠
  6
CONTINUOUS
 62
    7
 10
-17.633973387058489
 20
129.17656141835107
 11
-17.103643301208479
 21
128.87040837640103
  0
LINE
  8
_0-0_図面枠
  6
CONTINUOUS
 62
    7
 10
-16.197776643308487
 20
131.43447387140105
 11
-16.197776643308487
 21
130.82206826250103
  0
LINE
  8
_0-0_図面枠
  6
CONTINUOUS
 62
    7
 10
-17.103643301208479
 20
128.87040837640103
 11
-16.197776643308487
 21
130.82206826250103
  0
LINE
  8
_0-0_図面枠
  6
CONTINUOUS
 62
    7
 10
-30.185118753158491
 20
129.48281398535107
 11
-30.185118753158491
 21
128.87040837640103
  0
LINE
  8
_0-0_図面枠
  6
CONTINUOUS
 62
    7
 10
-30.185118753158491
 20
128.87040837640103
 11
-29.654788667258487
 21
129.17656141835107
  0
LINE
  8
_0-0_図面枠
  6
CONTINUOUS
 62
    7
 10
-31.090985411008489
 20
131.43447387140105
 11
-31.090985411008489
 21
130.82206826250103
  0
LINE
  8
_0-0_図面枠
  6
CONTINUOUS
 62
    7
 10
-31.090985411008489
 20
130.82206826250103
 11
-30.185118753158491
 21
128.87040837640103
  0
LINE
  8
_0-0_図面枠
  6
CONTINUOUS
 62
    7
 10
-19.578517035358487
 20
130.91152818105104
 11
-19.578517035358487
 21
130.29922209715107
  0
LINE
  8
_0-0_図面枠
  6
CONTINUOUS
 62
    7
 10
-27.710245019008482
 20
130.91152818105104
 11
-27.710245019008482
 21
130.29922209715107
  0
LINE
  8
ADD_LINE
  6
DOT
 62
    4
 10
-31.090985411008489
 20
131.43447387140105
 11
-16.198180070863032
 21
122.83610869927935
  0
LINE
  8
ADD_LINE
  6
DOT
 62
    4
 10
-16.197776643308487
 20
131.43447387140105
 11
-31.090581983453944
 21
122.83610869927935
  0
ENDBLK
  0
BLOCK
  2
-015-_15_
 70
   64
 10
0
 20
0
 30
0
  0
LINE
  8
_0-0_図面枠
  6
CONTINUOUS
 62
    7
 10
181.88186991188218
 20
125.54988384232558
 11
181.35153982603219
 21
125.2437308003756
  0
LINE
  8
_0-0_図面枠
  6
CONTINUOUS
 62
    7
 10
182.78773656978217
 20
123.59822395627555
 11
181.88186991188218
 21
125.54988384232558
  0
LINE
  8
_0-0_図面枠
  6
CONTINUOUS
 62
    7
 10
179.40699617773214
 20
124.12116964662556
 11
182.78773656978217
 21
123.59822395627555
  0
LINE
  8
_0-0_図面枠
  6
CONTINUOUS
 62
    7
 10
179.93732626363214
 20
124.4273226885756
 11
179.40699617773214
 21
124.12116964662556
  0
LINE
  8
_0-0_図面枠
  6
CONTINUOUS
 62
    7
 10
175.34113218593217
 20
127.08064905197557
 11
179.93732626363214
 21
124.4273226885756
  0
LINE
  8
_0-0_図面枠
  6
CONTINUOUS
 62
    7
 10
170.74493810823219
 20
124.4273226885756
 11
175.34113218593217
 21
127.08064905197557
  0
LINE
  8
_0-0_図面枠
  6
CONTINUOUS
 62
    7
 10
171.27526819408217
 20
124.12116964662556
 11
170.74493810823219
 21
124.4273226885756
  0
LINE
  8
_0-0_図面枠
  6
CONTINUOUS
 62
    7
 10
167.89452780208217
 20
123.59822395627555
 11
171.27526819408217
 21
124.12116964662556
  0
LINE
  8
_0-0_図面枠
  6
CONTINUOUS
 62
    7
 10
168.80039445993214
 20
125.54988384232558
 11
167.89452780208217
 21
123.59822395627555
  0
LINE
  8
_0-0_図面枠
  6
CONTINUOUS
 62
    7
 10
169.33072454583214
 20
125.2437308003756
 11
168.80039445993214
 21
125.54988384232558
  0
LINE
  8
_0-0_図面枠
  6
CONTINUOUS
 62
    7
 10
173.92691862353217
 20
127.89705716382559
 11
169.33072454583214
 21
125.2437308003756
  0
LINE
  8
_0-0_図面枠
  6
CONTINUOUS
 62
    7
 10
169.33072454583214
 20
130.55038352722556
 11
173.92691862353217
 21
127.89705716382559
  0
LINE
  8
_0-0_図面枠
  6
CONTINUOUS
 62
    7
 10
168.80039445993214
 20
130.2442304853256
 11
169.33072454583214
 21
130.55038352722556
  0
LINE
  8
_0-0_図面枠
  6
CONTINUOUS
 62
    7
 10
167.89452780208217
 20
132.19589037137558
 11
168.80039445993214
 21
130.2442304853256
  0
LINE
  8
_0-0_図面枠
  6
CONTINUOUS
 62
    7
 10
171.27526819408217
 20
131.67294468102557
 11
167.89452780208217
 21
132.19589037137558
  0
LINE
  8
_0-0_図面枠
  6
CONTINUOUS
 62
    7
 10
170.74493810823219
 20
131.36679163907559
 11
171.27526819408217
 21
131.67294468102557
  0
LINE
  8
_0-0_図面枠
  6
CONTINUOUS
 62
    7
 10
175.34113218593217
 20
128.71346527562559
 11
170.74493810823219
 21
131.36679163907559
  0
LINE
  8
_0-0_図面枠
  6
CONTINUOUS
 62
    7
 10
179.93732626363214
 20
131.36679163907559
 11
175.34113218593217
 21
128.71346527562559
  0
LINE
  8
_0-0_図面枠
  6
CONTINUOUS
 62
    7
 10
179.40699617773214
 20
131.67294468102557
 11
179.93732626363214
 21
131.36679163907559
  0
LINE
  8
_0-0_図面枠
  6
CONTINUOUS
 62
    7
 10
182.78773656978217
 20
132.19589037137558
 11
179.40699617773214
 21
131.67294468102557
  0
LINE
  8
_0-0_図面枠
  6
CONTINUOUS
 62
    7
 10
181.88186991188218
 20
130.2442304853256
 11
182.78773656978217
 21
132.19589037137558
  0
LINE
  8
_0-0_図面枠
  6
CONTINUOUS
 62
    7
 10
181.35153982603219
 20
130.55038352722556
 11
181.88186991188218
 21
130.2442304853256
  0
LINE
  8
_0-0_図面枠
  6
CONTINUOUS
 62
    7
 10
176.75534574828214
 20
127.89705716382559
 11
181.35153982603219
 21
130.55038352722556
  0
LINE
  8
_0-0_図面枠
  6
CONTINUOUS
 62
    7
 10
181.35153982603219
 20
125.2437308003756
 11
176.75534574828214
 21
127.89705716382559
  0
LINE
  8
_0-0_図面枠
  6
CONTINUOUS
 62
    7
 10
167.89452780208217
 20
123.59822395627555
 11
167.89452780208217
 21
122.98581834737558
  0
LINE
  8
_0-0_図面枠
  6
CONTINUOUS
 62
    7
 10
171.27526819408217
 20
124.12116964662556
 11
171.27526819408217
 21
123.5087640377256
  0
LINE
  8
_0-0_図面枠
  6
CONTINUOUS
 62
    7
 10
167.89452780208217
 20
122.98581834737558
 11
171.27526819408217
 21
123.5087640377256
  0
LINE
  8
_0-0_図面枠
  6
CONTINUOUS
 62
    7
 10
179.40699617773214
 20
124.12116964662556
 11
179.40699617773214
 21
123.5087640377256
  0
LINE
  8
_0-0_図面枠
  6
CONTINUOUS
 62
    7
 10
182.78773656978217
 20
123.59822395627555
 11
182.78773656978217
 21
122.98581834737558
  0
LINE
  8
_0-0_図面枠
  6
CONTINUOUS
 62
    7
 10
179.40699617773214
 20
123.5087640377256
 11
182.78773656978217
 21
122.98581834737558
  0
LINE
  8
_0-0_図面枠
  6
CONTINUOUS
 62
    7
 10
175.34113218593217
 20
127.08064905197557
 11
175.34113218593217
 21
126.46824344307561
  0
LINE
  8
_0-0_図面枠
  6
CONTINUOUS
 62
    7
 10
171.27526819408217
 20
124.1210701215756
 11
175.34113218593217
 21
126.46824344307561
  0
LINE
  8
_0-0_図面枠
  6
CONTINUOUS
 62
    7
 10
175.34113218593217
 20
126.46824344307561
 11
179.40699617773214
 21
124.1210701215756
  0
LINE
  8
_0-0_図面枠
  6
CONTINUOUS
 62
    7
 10
169.33072454583214
 20
130.55038352722556
 11
169.33072454583214
 21
129.9379779183256
  0
LINE
  8
_0-0_図面枠
  6
CONTINUOUS
 62
    7
 10
169.33072454583214
 20
129.9379779183256
 11
173.39650233708215
 21
127.59085435937561
  0
LINE
  8
_0-0_図面枠
  6
CONTINUOUS
 62
    7
 10
181.35153982603219
 20
130.55038352722556
 11
181.35153982603219
 21
129.9379779183256
  0
LINE
  8
_0-0_図面枠
  6
CONTINUOUS
 62
    7
 10
177.28576203473216
 20
127.59085435937561
 11
181.35153982603219
 21
129.9379779183256
  0
LINE
  8
_0-0_図面枠
  6
CONTINUOUS
 62
    7
 10
181.88186991188218
 20
130.2442304853256
 11
181.88186991188218
 21
129.63182487637556
  0
LINE
  8
_0-0_図面枠
  6
CONTINUOUS
 62
    7
 10
181.35153982603219
 20
129.9379779183256
 11
181.88186991188218
 21
129.63182487637556
  0
LINE
  8
_0-0_図面枠
  6
CONTINUOUS
 62
    7
 10
182.78773656978217
 20
132.19589037137558
 11
182.78773656978217
 21
131.58348476247556
  0
LINE
  8
_0-0_図面枠
  6
CONTINUOUS
 62
    7
 10
181.88186991188218
 20
129.63182487637556
 11
182.78773656978217
 21
131.58348476247556
  0
LINE
  8
_0-0_図面枠
  6
CONTINUOUS
 62
    7
 10
168.80039445993214
 20
130.2442304853256
 11
168.80039445993214
 21
129.63182487637556
  0
LINE
  8
_0-0_図面枠
  6
CONTINUOUS
 62
    7
 10
168.80039445993214
 20
129.63182487637556
 11
169.33072454583214
 21
129.9379779183256
  0
LINE
  8
_0-0_図面枠
  6
CONTINUOUS
 62
    7
 10
167.89452780208217
 20
132.19589037137558
 11
167.89452780208217
 21
131.58348476247556
  0
LINE
  8
_0-0_図面枠
  6
CONTINUOUS
 62
    7
 10
167.89452780208217
 20
131.58348476247556
 11
168.80039445993214
 21
129.63182487637556
  0
LINE
  8
_0-0_図面枠
  6
CONTINUOUS
 62
    7
 10
179.40699617773214
 20
131.67294468102557
 11
179.40699617773214
 21
131.0606385971256
  0
LINE
  8
_0-0_図面枠
  6
CONTINUOUS
 62
    7
 10
171.27526819408217
 20
131.67294468102557
 11
171.27526819408217
 21
131.0606385971256
  0
LINE
  8
ADD_LINE
  6
DOT
 62
    4
 10
167.89452780208217
 20
132.19589037137558
 11
182.78733314222762
 21
123.59752519925388
  0
LINE
  8
ADD_LINE
  6
DOT
 62
    4
 10
182.78773656978217
 20
132.19589037137558
 11
167.89493122963671
 21
123.59752519925388
  0
ENDBLK
  0
BLOCK
  2
-016-_16_
 70
   64
 10
0
 20
0
 30
0
  0
ARC
  8
_1-4_フレ__ム
  6
CONTINUOUS
 62
    4
 10
94.835303416222132
 20
78.500000000000114
 40
0.5
 50
90
 51
180
  0
LINE
  8
_1-4_フレ__ム
  6
CONTINUOUS
 62
    4
 10
124.6686367495555
 20
78.900000000000034
 11
124.56863674955571
 21
79.000000000000114
  0
LINE
  8
_1-4_フレ__ム
  6
CONTINUOUS
 62
    4
 10
124.76863674955621
 20
79.000000000000114
 11
124.6686367495555
 21
78.900000000000034
  0
LINE
  8
_1-4_フレ__ム
  6
CONTINUOUS
 62
    4
 10
94.335303416222473
 20
78.500000000000114
 11
129.6686367495555
 21
78.500000000000114
  0
LINE
  8
_1-4_フレ__ム
  6
CONTINUOUS
 62
    4
 10
129.66863667008874
 20
78.50000001900014
 11
130.66863665108872
 21
79.500000000000057
  0
LINE
  8
_1-4_フレ__ム
  6
CONTINUOUS
 62
    4
 10
130.66863665108872
 20
79.500000000000057
 11
129.96152986990217
 21
79.500000000000057
  0
LINE
  8
_1-4_フレ__ム
  6
CONTINUOUS
 62
    4
 10
129.46152986990217
 20
79.000000000000114
 11
129.96152986990217
 21
79.500000000000057
  0
LINE
  8
_1-4_フレ__ム
  6
CONTINUOUS
 62
    4
 10
129.46152986990217
 20
79.000000000000114
 11
124.76863674955621
 21
79.000000000000114
  0
LINE
  8
_1-4_フレ__ム
  6
CONTINUOUS
 62
    4
 10
116.43054151146021
 20
80.233333333333377
 11
116.43054151146021
 21
80.400000000000034
  0
ARC
  8
_1-4_フレ__ム
  6
CONTINUOUS
 62
    4
 10
116.09720817812683
 20
80.233333333333377
 40
0.3333333333333333
 50
270
 51
0
  0
LINE
  8
_1-4_フレ__ム
  6
CONTINUOUS
 62
    4
 10
116.09720817812683
 20
79.900000000000034
 11
115.26670397438852
 21
79.900000000000034
  0
ARC
  8
_1-4_フレ__ム
  6
CONTINUOUS
 62
    4
 10
115.26670397438852
 20
79.733333333333377
 40
0.1666666666666666
 50
90
 51
150.94539590092572
  0
LINE
  8
_1-4_フレ__ム
  6
CONTINUOUS
 62
    4
 10
124.56863674955571
 20
79.000000000000114
 11
114.95188915957374
 21
79.000000000000114
  0
ARC
  8
_1-4_フレ__ム
  6
CONTINUOUS
 62
    4
 10
114.95188915957374
 20
79.166666666666771
 40
0.1666666666666666
 50
150.94539590092572
 51
270
  0
LINE
  8
_1-4_フレ__ム
  6
CONTINUOUS
 62
    4
 10
116.43054151146021
 20
80.400000000000034
 11
115.07056952472249
 21
80.400000000000034
  0
ARC
  8
_1-4_フレ__ム
  6
CONTINUOUS
 62
    4
 10
115.07056952472249
 20
80.06666666666672
 40
0.3333333333333333
 50
90
 51
150.94539590092572
  0
LINE
  8
_1-4_フレ__ム
  6
CONTINUOUS
 62
    4
 10
114.19190860631943
 20
79.171452356273903
 11
114.77918376601519
 21
80.228547643726245
  0
LINE
  8
_1-4_フレ__ム
  6
CONTINUOUS
 62
    4
 10
113.90052284761225
 20
79.000000000000114
 11
94.835303416222132
 21
79.000000000000114
  0
ARC
  8
_1-4_フレ__ム
  6
CONTINUOUS
 62
    4
 10
113.90052284761225
 20
79.333333333333428
 40
0.3333333333333333
 50
270
 51
330.94539590092569
  0
LINE
  8
_1-4_フレ__ム
  6
CONTINUOUS
 62
    4
 10
114.80619628022021
 20
79.247607155196562
 11
115.12101109503499
 21
79.814273821863168
  0
LINE
  8
_1-4_フレ__ム
  6
CENTER2
 62
    4
 10
124.66863674955596
 20
80.666666666666771
 11
124.66863674955596
 21
76.833333333333428
  0
LINE
  8
_1-4_フレ__ム
  6
DASHED1
 62
    4
 10
127.16863674955596
 20
79.000000000000114
 11
127.16863674955596
 21
78.500000000000114
  0
LINE
  8
_1-4_フレ__ム
  6
DASHED1
 62
    4
 10
122.16863674955596
 20
79.000000000000114
 11
122.16863674955596
 21
78.500000000000114
  0
ENDBLK
  0
BLOCK
  2
-017-_17_
 70
   64
 10
0
 20
0
 30
0
  0
LINE
  8
_1-8_小物
  6
CONTINUOUS
 62
    4
 10
126.47139500342269
 20
66.57339166666651
 11
126.50628500342236
 21
65.907638333333239
  0
LINE
  8
_1-8_小物
  6
CONTINUOUS
 62
    4
 10
126.41905833675582
 20
67.572021666666501
 11
125.77075167008911
 21
67.204254999999819
  0
LINE
  8
_1-8_小物
  6
CONTINUOUS
 62
    4
 10
125.77075167008911
 20
67.204254999999819
 11
125.80564167008936
 21
66.538501666666548
  0
LINE
  8
_1-8_小物
  6
CONTINUOUS
 62
    4
 10
125.80564167008936
 20
66.538501666666548
 11
126.47139500342269
 21
66.57339166666651
  0
LINE
  8
_1-8_小物
  6
CONTINUOUS
 62
    4
 10
126.38416833675592
 20
68.237774999999942
 11
126.41905833675582
 21
67.572021666666501
  0
LINE
  8
_1-8_小物
  6
CONTINUOUS
 62
    4
 10
126.33183167008929
 20
69.236403333333271
 11
125.68352500342235
 21
68.868636666666305
  0
LINE
  8
_1-8_小物
  6
CONTINUOUS
 62
    4
 10
125.68352500342235
 20
68.868636666666305
 11
125.71841500342248
 21
68.202883333333261
  0
LINE
  8
_1-8_小物
  6
CONTINUOUS
 62
    4
 10
125.71841500342248
 20
68.202883333333261
 11
126.38416833675592
 21
68.237774999999942
  0
LINE
  8
_1-8_小物
  6
CONTINUOUS
 62
    4
 10
126.29694167008904
 20
69.902156666666656
 11
126.33183167008929
 21
69.236403333333271
  0
LINE
  8
_1-8_小物
  6
CONTINUOUS
 62
    4
 10
126.24460500342275
 20
70.900786666666306
 11
125.59629833675604
 21
70.533019999999965
  0
LINE
  8
_1-8_小物
  6
CONTINUOUS
 62
    4
 10
125.59629833675604
 20
70.533019999999965
 11
125.63118833675571
 21
69.86726666666658
  0
LINE
  8
_1-8_小物
  6
CONTINUOUS
 62
    4
 10
125.63118833675571
 20
69.86726666666658
 11
126.29694167008904
 21
69.902156666666656
  0
LINE
  8
_1-8_小物
  6
CONTINUOUS
 62
    4
 10
126.2097150034225
 20
71.566539999999918
 11
126.24460500342275
 21
70.900786666666306
  0
LINE
  8
_1-8_小物
  6
CONTINUOUS
 62
    4
 10
126.15737833675587
 20
72.565169999999966
 11
125.50907167008927
 21
72.197401666666508
  0
LINE
  8
_1-8_小物
  6
CONTINUOUS
 62
    4
 10
125.50907167008927
 20
72.197401666666508
 11
125.54396167008917
 21
71.531648333333237
  0
LINE
  8
_1-8_小物
  6
CONTINUOUS
 62
    4
 10
125.54396167008917
 20
71.531648333333237
 11
126.2097150034225
 21
71.566539999999918
  0
LINE
  8
_1-8_小物
  6
CONTINUOUS
 62
    4
 10
126.12248833675596
 20
73.230921666666461
 11
126.15737833675587
 21
72.565169999999966
  0
LINE
  8
_1-8_小物
  6
CONTINUOUS
 62
    4
 10
125.42184500342239
 20
73.86178499999977
 11
125.45673500342264
 21
73.196031666666499
  0
LINE
  8
_1-8_小物
  6
CONTINUOUS
 62
    4
 10
125.45673500342264
 20
73.196031666666499
 11
126.12248833675596
 21
73.230921666666461
  0
LINE
  8
_1-8_小物
  6
CONTINUOUS
 62
    4
 10
126.00197000342246
 20
74.166666666666629
 11
125.42184500342239
 21
73.86178499999977
  0
LINE
  8
_1-8_小物
  6
CONTINUOUS
 62
    4
 10
122.86587833675594
 20
66.57339166666651
 11
122.83098833675604
 21
65.907638333333239
  0
LINE
  8
_1-8_小物
  6
CONTINUOUS
 62
    4
 10
122.91821500342257
 20
67.572021666666501
 11
123.56652167008917
 21
67.204254999999819
  0
LINE
  8
_1-8_小物
  6
CONTINUOUS
 62
    4
 10
123.56652167008917
 20
67.204254999999819
 11
123.53163167008893
 21
66.538501666666548
  0
LINE
  8
_1-8_小物
  6
CONTINUOUS
 62
    4
 10
123.53163167008893
 20
66.538501666666548
 11
122.86587833675594
 21
66.57339166666651
  0
LINE
  8
_1-8_小物
  6
CONTINUOUS
 62
    4
 10
122.95310500342271
 20
68.237774999999942
 11
122.91821500342257
 21
67.572021666666501
  0
LINE
  8
_1-8_小物
  6
CONTINUOUS
 62
    4
 10
123.00544167008911
 20
69.236403333333271
 11
123.65374833675571
 21
68.868636666666305
  0
LINE
  8
_1-8_小物
  6
CONTINUOUS
 62
    4
 10
123.65374833675571
 20
68.868636666666305
 11
123.61885833675615
 21
68.202883333333261
  0
LINE
  8
_1-8_小物
  6
CONTINUOUS
 62
    4
 10
123.61885833675615
 20
68.202883333333261
 11
122.95310500342271
 21
68.237774999999942
  0
LINE
  8
_1-8_小物
  6
CONTINUOUS
 62
    4
 10
123.04033167008902
 20
69.902156666666656
 11
123.00544167008911
 21
69.236403333333271
  0
LINE
  8
_1-8_小物
  6
CONTINUOUS
 62
    4
 10
123.09266833675565
 20
70.900786666666306
 11
123.74097500342259
 21
70.533019999999965
  0
LINE
  8
_1-8_小物
  6
CONTINUOUS
 62
    4
 10
123.74097500342259
 20
70.533019999999965
 11
123.70608500342269
 21
69.86726666666658
  0
LINE
  8
_1-8_小物
  6
CONTINUOUS
 62
    4
 10
123.70608500342269
 20
69.86726666666658
 11
123.04033167008902
 21
69.902156666666656
  0
LINE
  8
_1-8_小物
  6
CONTINUOUS
 62
    4
 10
123.12755833675578
 20
71.566539999999918
 11
123.09266833675565
 21
70.900786666666306
  0
LINE
  8
_1-8_小物
  6
CONTINUOUS
 62
    4
 10
123.17989500342276
 20
72.565169999999966
 11
123.82820167008936
 21
72.197401666666508
  0
LINE
  8
_1-8_小物
  6
CONTINUOUS
 62
    4
 10
123.82820167008936
 20
72.197401666666508
 11
123.79331167008922
 21
71.531648333333237
  0
LINE
  8
_1-8_小物
  6
CONTINUOUS
 62
    4
 10
123.79331167008922
 20
71.531648333333237
 11
123.12755833675578
 21
71.566539999999918
  0
LINE
  8
_1-8_小物
  6
CONTINUOUS
 62
    4
 10
123.21478500342232
 20
73.230921666666461
 11
123.17989500342276
 21
72.565169999999966
  0
LINE
  8
_1-8_小物
  6
CONTINUOUS
 62
    4
 10
123.91542833675589
 20
73.86178499999977
 11
123.88053833675576
 21
73.196031666666499
  0
LINE
  8
_1-8_小物
  6
CONTINUOUS
 62
    4
 10
123.88053833675576
 20
73.196031666666499
 11
123.21478500342232
 21
73.230921666666461
  0
LINE
  8
_1-8_小物
  6
CONTINUOUS
 62
    4
 10
124.64886833675587
 20
66.18643499999979
 11
125.29343500342247
 21
66.7583249999999
  0
LINE
  8
_1-8_小物
  6
CONTINUOUS
 62
    4
 10
124.04548833675574
 20
66.789813333333257
 11
124.66863667008943
 21
66.166666666666458
  0
LINE
  8
_1-8_小物
  6
CONTINUOUS
 62
    4
 10
123.33530333675617
 20
74.166666666666629
 11
123.91542833675589
 21
73.86178499999977
  0
LINE
  8
_1-8_小物
  6
CONTINUOUS
 62
    4
 10
126.2097150034225
 20
71.566539999999918
 11
126.77483667008903
 21
73.119199999999751
  0
LINE
  8
_1-8_小物
  6
CONTINUOUS
 62
    4
 10
125.85498833675604
 20
71.566539999999918
 11
126.46160667008928
 21
73.23320666666649
  0
LINE
  8
_1-8_小物
  6
CONTINUOUS
 62
    4
 10
123.12755833675578
 20
71.566539999999918
 11
122.56243667008926
 21
73.119199999999751
  0
LINE
  8
_1-8_小物
  6
CONTINUOUS
 62
    4
 10
123.48228500342225
 20
71.566539999999918
 11
122.875666670089
 21
73.23320666666649
  0
LINE
  8
_1-8_小物
  6
CONTINUOUS
 62
    4
 10
125.3412183367559
 20
65.84657999999979
 11
126.50628500342236
 21
65.907638333333239
  0
LINE
  8
_1-8_小物
  6
CONTINUOUS
 62
    4
 10
126.50628500342236
 20
65.907638333333239
 11
125.87542333675583
 21
65.206994999999949
  0
LINE
  8
_1-8_小物
  6
CONTINUOUS
 62
    4
 10
125.87542333675583
 20
65.206994999999949
 11
125.37610833675603
 21
65.180826666666405
  0
LINE
  8
_1-8_小物
  6
CONTINUOUS
 62
    4
 10
125.37610833675603
 20
65.180826666666405
 11
124.83530333675617
 21
75.499999999999716
  0
LINE
  8
_1-8_小物
  6
CONTINUOUS
 62
    4
 10
126.00197000342246
 20
74.166666666666629
 11
126.00197000342246
 21
75.499999999999716
  0
LINE
  8
_1-8_小物
  6
CONTINUOUS
 62
    4
 10
123.9960550034225
 20
65.84657999999979
 11
122.83098833675604
 21
65.907638333333239
  0
LINE
  8
_1-8_小物
  6
CONTINUOUS
 62
    4
 10
122.83098833675604
 20
65.907638333333239
 11
123.46185000342257
 21
65.206994999999949
  0
LINE
  8
_1-8_小物
  6
CONTINUOUS
 62
    4
 10
123.46185000342257
 20
65.206994999999949
 11
123.96116500342259
 21
65.180826666666405
  0
LINE
  8
_1-8_小物
  6
CONTINUOUS
 62
    4
 10
123.96116500342259
 20
65.180826666666405
 11
124.50197000342246
 21
75.499999999999716
  0
LINE
  8
_1-8_小物
  6
CONTINUOUS
 62
    4
 10
123.33530333675617
 20
74.166666666666629
 11
123.33530333675617
 21
75.499999999999716
  0
LINE
  8
_1-8_小物
  6
CONTINUOUS
 62
    4
 10
122.56243667008926
 20
73.119199999999751
 11
122.23165167008915
 21
75.387073333333433
  0
ARC
  8
_1-8_小物
  6
CONTINUOUS
 62
    4
 10
122.36358833675581
 20
75.406318333333218
 40
0.1333333333333333
 50
98.130101999939981
 51
188.29846600000073
  0
LINE
  8
_1-8_小物
  6
CONTINUOUS
 62
    4
 10
122.344731670089
 20
75.538311666666573
 11
122.41034000342256
 21
75.547683333333339
  0
ARC
  8
_1-8_小物
  6
CONTINUOUS
 62
    4
 10
122.42919667008948
 20
75.415689999999927
 40
0.1333333333333333
 50
8.1301020000159863
 51
98.13010200021462
  0
LINE
  8
_1-8_小物
  6
CONTINUOUS
 62
    4
 10
122.56119000342255
 20
75.434546666666506
 11
122.875666670089
 21
73.23320666666649
  0
LINE
  8
_1-8_小物
  6
CONTINUOUS
 62
    4
 10
126.77483667008903
 20
73.119199999999751
 11
127.10562167008914
 21
75.387073333333433
  0
ARC
  8
_1-8_小物
  6
CONTINUOUS
 62
    4
 10
126.97368500342247
 20
75.406318333333218
 40
0.1333333333333333
 50
351.70153399996656
 51
81.869898000035846
  0
LINE
  8
_1-8_小物
  6
CONTINUOUS
 62
    4
 10
126.99254000342239
 20
75.538311666666573
 11
126.92693333675572
 21
75.547683333333339
  0
ARC
  8
_1-8_小物
  6
CONTINUOUS
 62
    4
 10
126.90807667008949
 20
75.415689999999927
 40
0.1333333333333333
 50
81.869898000058299
 51
171.86989799998403
  0
LINE
  8
_1-8_小物
  6
CONTINUOUS
 62
    4
 10
126.77608333675573
 20
75.434546666666506
 11
126.46160667008928
 21
73.23320666666649
  0
LINE
  8
_1-8_小物
  6
CONTINUOUS
 62
    4
 10
126.77483667008903
 20
73.119199999999751
 11
127.10562167008914
 21
75.387073333333433
  0
ARC
  8
_1-8_小物
  6
CONTINUOUS
 62
    4
 10
126.97368500342247
 20
75.406318333333218
 40
0.1333333333333333
 50
351.70153399996656
 51
81.869898000035846
  0
LINE
  8
_1-8_小物
  6
CONTINUOUS
 62
    4
 10
126.99254000342239
 20
75.538311666666573
 11
126.92693333675572
 21
75.547683333333339
  0
ARC
  8
_1-8_小物
  6
CONTINUOUS
 62
    4
 10
126.90807667008949
 20
75.415689999999927
 40
0.1333333333333333
 50
81.869898000058299
 51
171.86989799998403
  0
LINE
  8
_1-8_小物
  6
CONTINUOUS
 62
    4
 10
126.77608333675573
 20
75.434546666666506
 11
126.46160667008928
 21
73.23320666666649
  0
LINE
  8
_1-8_小物
  6
CONTINUOUS
 62
    4
 10
126.33530333675617
 20
78.166666666666629
 11
126.00197000342246
 21
76.499999999999943
  0
LINE
  8
_1-8_小物
  6
CONTINUOUS
 62
    4
 10
126.00197000342246
 20
78.166666666666629
 11
126.00197000342246
 21
75.499999999999716
  0
LINE
  8
_1-8_小物
  6
CONTINUOUS
 62
    4
 10
124.83530333675617
 20
75.499999999999716
 11
124.66863667008943
 21
75.499999999999716
  0
LINE
  8
_1-8_小物
  6
CONTINUOUS
 62
    4
 10
124.66863667008943
 20
76.499999999999943
 11
124.66863667008943
 21
78.166666666666629
  0
LINE
  8
_1-8_小物
  6
CONTINUOUS
 62
    4
 10
125.00197000342246
 20
78.166666666666629
 11
124.66863667008943
 21
76.499999999999943
  0
LINE
  8
_1-8_小物
  6
CONTINUOUS
 62
    4
 10
124.33530333675583
 20
78.166666666666629
 11
124.66863667008943
 21
76.499999999999943
  0
LINE
  8
_1-8_小物
  6
CONTINUOUS
 62
    4
 10
123.0019700034228
 20
78.166666666666629
 11
123.33530333675617
 21
76.499999999999943
  0
LINE
  8
_1-8_小物
  6
CONTINUOUS
 62
    4
 10
123.33530333675617
 20
78.166666666666629
 11
123.33530333675617
 21
75.499999999999716
  0
LINE
  8
_1-8_小物
  6
CONTINUOUS
 62
    4
 10
124.50197000342246
 20
75.499999999999716
 11
124.66863667008943
 21
75.499999999999716
  0
LINE
  8
_1-8_小物
  6
CONTINUOUS
 62
    4
 10
126.33530333675617
 20
78.166666666666629
 11
123.0019700034228
 21
78.166666666666629
  0
ENDBLK
  0
BLOCK
  2
-018-_18_
 70
   64
 10
0
 20
0
 30
0
  0
LINE
  8
_1-8_小物
  6
CONTINUOUS
 62
    4
 10
34.742028336755425
 20
88.030575079466558
 11
34.076275003422154
 21
87.995685079466966
  0
LINE
  8
_1-8_小物
  6
CONTINUOUS
 62
    4
 10
35.740658336755416
 20
88.082911746133504
 11
35.372891670088734
 21
88.731218412800132
  0
LINE
  8
_1-8_小物
  6
CONTINUOUS
 62
    4
 10
35.372891670088734
 20
88.731218412800132
 11
34.707138336755463
 21
88.696328412799915
  0
LINE
  8
_1-8_小物
  6
CONTINUOUS
 62
    4
 10
34.707138336755463
 20
88.696328412799915
 11
34.742028336755425
 21
88.030575079466558
  0
LINE
  8
_1-8_小物
  6
CONTINUOUS
 62
    4
 10
36.406411670088858
 20
88.117801746133409
 11
35.740658336755416
 21
88.082911746133504
  0
LINE
  8
_1-8_小物
  6
CONTINUOUS
 62
    4
 10
37.405040003422187
 20
88.170138412800043
 11
37.03727333675522
 21
88.818445079466983
  0
LINE
  8
_1-8_小物
  6
CONTINUOUS
 62
    4
 10
37.03727333675522
 20
88.818445079466983
 11
36.371520003422177
 21
88.783555079466765
  0
LINE
  8
_1-8_小物
  6
CONTINUOUS
 62
    4
 10
36.371520003422177
 20
88.783555079466765
 11
36.406411670088858
 21
88.117801746133409
  0
LINE
  8
_1-8_小物
  6
CONTINUOUS
 62
    4
 10
38.070793336755571
 20
88.205028412800232
 11
37.405040003422187
 21
88.170138412800043
  0
LINE
  8
_1-8_小物
  6
CONTINUOUS
 62
    4
 10
39.069423336755221
 20
88.257365079466581
 11
38.70165667008888
 21
88.905671746133208
  0
LINE
  8
_1-8_小物
  6
CONTINUOUS
 62
    4
 10
38.70165667008888
 20
88.905671746133208
 11
38.035903336755496
 21
88.870781746133616
  0
LINE
  8
_1-8_小物
  6
CONTINUOUS
 62
    4
 10
38.035903336755496
 20
88.870781746133616
 11
38.070793336755571
 21
88.205028412800232
  0
LINE
  8
_1-8_小物
  6
CONTINUOUS
 62
    4
 10
39.735176670088833
 20
88.29225507946677
 11
39.069423336755221
 21
88.257365079466581
  0
LINE
  8
_1-8_小物
  6
CONTINUOUS
 62
    4
 10
40.733806670088882
 20
88.344591746133403
 11
40.366038336755423
 21
88.992898412800059
  0
LINE
  8
_1-8_小物
  6
CONTINUOUS
 62
    4
 10
40.366038336755423
 20
88.992898412800059
 11
39.700285003422152
 21
88.958008412800154
  0
LINE
  8
_1-8_小物
  6
CONTINUOUS
 62
    4
 10
39.700285003422152
 20
88.958008412800154
 11
39.735176670088833
 21
88.29225507946677
  0
LINE
  8
_1-8_小物
  6
CONTINUOUS
 62
    4
 10
41.399558336755376
 20
88.379481746133308
 11
40.733806670088882
 21
88.344591746133403
  0
LINE
  8
_1-8_小物
  6
CONTINUOUS
 62
    4
 10
42.030421670088685
 20
89.080125079466882
 11
41.364668336755415
 21
89.045235079466693
  0
LINE
  8
_1-8_小物
  6
CONTINUOUS
 62
    4
 10
41.364668336755415
 20
89.045235079466693
 11
41.399558336755376
 21
88.379481746133308
  0
LINE
  8
_1-8_小物
  6
CONTINUOUS
 62
    4
 10
42.335303336755544
 20
88.500000079466787
 11
42.030421670088685
 21
89.080125079466882
  0
LINE
  8
_1-8_小物
  6
CONTINUOUS
 62
    4
 10
34.742028336755425
 20
91.636091746133388
 11
34.076275003422154
 21
91.670981746133293
  0
LINE
  8
_1-8_小物
  6
CONTINUOUS
 62
    4
 10
35.740658336755416
 20
91.583755079466755
 11
35.372891670088734
 21
90.935448412800099
  0
LINE
  8
_1-8_小物
  6
CONTINUOUS
 62
    4
 10
35.372891670088734
 20
90.935448412800099
 11
34.707138336755463
 21
90.970338412800317
  0
LINE
  8
_1-8_小物
  6
CONTINUOUS
 62
    4
 10
34.707138336755463
 20
90.970338412800317
 11
34.742028336755425
 21
91.636091746133388
  0
LINE
  8
_1-8_小物
  6
CONTINUOUS
 62
    4
 10
36.406411670088858
 20
91.548865079466538
 11
35.740658336755416
 21
91.583755079466755
  0
LINE
  8
_1-8_小物
  6
CONTINUOUS
 62
    4
 10
37.405040003422187
 20
91.496528412800217
 11
37.03727333675522
 21
90.848221746133561
  0
LINE
  8
_1-8_小物
  6
CONTINUOUS
 62
    4
 10
37.03727333675522
 20
90.848221746133561
 11
36.371520003422177
 21
90.883111746133181
  0
LINE
  8
_1-8_小物
  6
CONTINUOUS
 62
    4
 10
36.371520003422177
 20
90.883111746133181
 11
36.406411670088858
 21
91.548865079466538
  0
LINE
  8
_1-8_小物
  6
CONTINUOUS
 62
    4
 10
38.070793336755571
 20
91.461638412800312
 11
37.405040003422187
 21
91.496528412800217
  0
LINE
  8
_1-8_小物
  6
CONTINUOUS
 62
    4
 10
39.069423336755221
 20
91.409301746133679
 11
38.70165667008888
 21
90.760995079466738
  0
LINE
  8
_1-8_小物
  6
CONTINUOUS
 62
    4
 10
38.70165667008888
 20
90.760995079466738
 11
38.035903336755496
 21
90.795885079466643
  0
LINE
  8
_1-8_小物
  6
CONTINUOUS
 62
    4
 10
38.035903336755496
 20
90.795885079466643
 11
38.070793336755571
 21
91.461638412800312
  0
LINE
  8
_1-8_小物
  6
CONTINUOUS
 62
    4
 10
39.735176670088833
 20
91.374411746133461
 11
39.069423336755221
 21
91.409301746133679
  0
LINE
  8
_1-8_小物
  6
CONTINUOUS
 62
    4
 10
40.733806670088882
 20
91.322075079466515
 11
40.366038336755423
 21
90.673768412799888
  0
LINE
  8
_1-8_小物
  6
CONTINUOUS
 62
    4
 10
40.366038336755423
 20
90.673768412799888
 11
39.700285003422152
 21
90.708658412800105
  0
LINE
  8
_1-8_小物
  6
CONTINUOUS
 62
    4
 10
39.700285003422152
 20
90.708658412800105
 11
39.735176670088833
 21
91.374411746133461
  0
LINE
  8
_1-8_小物
  6
CONTINUOUS
 62
    4
 10
41.399558336755376
 20
91.287185079466923
 11
40.733806670088882
 21
91.322075079466515
  0
LINE
  8
_1-8_小物
  6
CONTINUOUS
 62
    4
 10
42.030421670088685
 20
90.586541746133349
 11
41.364668336755415
 21
90.621431746133567
  0
LINE
  8
_1-8_小物
  6
CONTINUOUS
 62
    4
 10
41.364668336755415
 20
90.621431746133567
 11
41.399558336755376
 21
91.287185079466923
  0
LINE
  8
_1-8_小物
  6
CONTINUOUS
 62
    4
 10
34.355071670088705
 20
89.853101746133376
 11
34.926961670088815
 21
89.208535079466856
  0
LINE
  8
_1-8_小物
  6
CONTINUOUS
 62
    4
 10
34.958450003422172
 20
90.456481746133534
 11
34.335303336755373
 21
89.833333412799817
  0
LINE
  8
_1-8_小物
  6
CONTINUOUS
 62
    4
 10
42.335303336755544
 20
91.16666674613316
 11
42.030421670088685
 21
90.586541746133349
  0
LINE
  8
_1-8_小物
  6
CONTINUOUS
 62
    4
 10
39.735176670088833
 20
88.29225507946677
 11
41.287836670088666
 21
87.727133412800242
  0
LINE
  8
_1-8_小物
  6
CONTINUOUS
 62
    4
 10
39.735176670088833
 20
88.646981746133235
 11
41.401843336755405
 21
88.040363412799991
  0
LINE
  8
_1-8_小物
  6
CONTINUOUS
 62
    4
 10
39.735176670088833
 20
91.374411746133461
 11
41.287836670088666
 21
91.939533412799989
  0
LINE
  8
_1-8_小物
  6
CONTINUOUS
 62
    4
 10
39.735176670088833
 20
91.019685079466996
 11
41.401843336755405
 21
91.62630341280024
  0
LINE
  8
_1-8_小物
  6
CONTINUOUS
 62
    4
 10
34.015216670088705
 20
89.160751746133428
 11
34.076275003422154
 21
87.995685079466966
  0
LINE
  8
_1-8_小物
  6
CONTINUOUS
 62
    4
 10
34.076275003422154
 20
87.995685079466966
 11
33.375631670088865
 21
88.626546746133499
  0
LINE
  8
_1-8_小物
  6
CONTINUOUS
 62
    4
 10
33.375631670088865
 20
88.626546746133499
 11
33.349463336755321
 21
89.125861746133211
  0
LINE
  8
_1-8_小物
  6
CONTINUOUS
 62
    4
 10
33.349463336755321
 20
89.125861746133211
 11
43.668636670088631
 21
89.66666674613316
  0
LINE
  8
_1-8_小物
  6
CONTINUOUS
 62
    4
 10
42.335303336755544
 20
88.500000079466787
 11
43.668636670088631
 21
88.500000079466787
  0
LINE
  8
_1-8_小物
  6
CONTINUOUS
 62
    4
 10
34.015216670088705
 20
90.505915079466831
 11
34.076275003422154
 21
91.670981746133293
  0
LINE
  8
_1-8_小物
  6
CONTINUOUS
 62
    4
 10
34.076275003422154
 20
91.670981746133293
 11
33.375631670088865
 21
91.04012007946676
  0
LINE
  8
_1-8_小物
  6
CONTINUOUS
 62
    4
 10
33.375631670088865
 20
91.04012007946676
 11
33.349463336755321
 21
90.540805079466736
  0
LINE
  8
_1-8_小物
  6
CONTINUOUS
 62
    4
 10
33.349463336755321
 20
90.540805079466736
 11
43.668636670088631
 21
90.000000079466787
  0
LINE
  8
_1-8_小物
  6
CONTINUOUS
 62
    4
 10
42.335303336755544
 20
91.16666674613316
 11
43.668636670088631
 21
91.16666674613316
  0
LINE
  8
_1-8_小物
  6
CONTINUOUS
 62
    4
 10
41.287836670088666
 20
91.939533412799989
 11
43.555710003422348
 21
92.270318412800094
  0
ARC
  8
_1-8_小物
  6
CONTINUOUS
 62
    4
 10
43.574955003422133
 20
92.138381746133433
 40
0.1333333333333333
 50
8.1301019999538067
 51
98.298466000011047
  0
LINE
  8
_1-8_小物
  6
CONTINUOUS
 62
    4
 10
43.706948336755488
 20
92.157238412800325
 11
43.716320003422254
 21
92.091630079466682
  0
ARC
  8
_1-8_小物
  6
CONTINUOUS
 62
    4
 10
43.584326670088842
 20
92.072773412799791
 40
0.1333333333333333
 50
278.1301020000281
 51
8.1301020002249516
  0
LINE
  8
_1-8_小物
  6
CONTINUOUS
 62
    4
 10
43.603183336755421
 20
91.940780079466691
 11
41.401843336755405
 21
91.62630341280024
  0
LINE
  8
_1-8_小物
  6
CONTINUOUS
 62
    4
 10
41.287836670088666
 20
87.727133412800242
 11
43.555710003422348
 21
87.396348412800137
  0
ARC
  8
_1-8_小物
  6
CONTINUOUS
 62
    4
 10
43.574955003422133
 20
87.528285079466798
 40
0.1333333333333333
 50
261.70153399996303
 51
351.86989800004619
  0
LINE
  8
_1-8_小物
  6
CONTINUOUS
 62
    4
 10
43.706948336755488
 20
87.509430079466853
 11
43.716320003422254
 21
87.575036746133549
  0
ARC
  8
_1-8_小物
  6
CONTINUOUS
 62
    4
 10
43.584326670088842
 20
87.593893412799844
 40
0.1333333333333333
 50
351.86989800003585
 51
81.869897999971897
  0
LINE
  8
_1-8_小物
  6
CONTINUOUS
 62
    4
 10
43.603183336755421
 20
87.72588674613354
 11
41.401843336755405
 21
88.040363412799991
  0
LINE
  8
_1-8_小物
  6
CONTINUOUS
 62
    4
 10
41.287836670088666
 20
87.727133412800242
 11
43.555710003422348
 21
87.396348412800137
  0
ARC
  8
_1-8_小物
  6
CONTINUOUS
 62
    4
 10
43.574955003422133
 20
87.528285079466798
 40
0.1333333333333333
 50
261.70153399996303
 51
351.86989800004619
  0
LINE
  8
_1-8_小物
  6
CONTINUOUS
 62
    4
 10
43.706948336755488
 20
87.509430079466853
 11
43.716320003422254
 21
87.575036746133549
  0
ARC
  8
_1-8_小物
  6
CONTINUOUS
 62
    4
 10
43.584326670088842
 20
87.593893412799844
 40
0.1333333333333333
 50
351.86989800003585
 51
81.869897999971897
  0
LINE
  8
_1-8_小物
  6
CONTINUOUS
 62
    4
 10
43.603183336755421
 20
87.72588674613354
 11
41.401843336755405
 21
88.040363412799991
  0
LINE
  8
_1-8_小物
  6
CONTINUOUS
 62
    4
 10
46.335303336755544
 20
88.16666674613316
 11
44.668636670088858
 21
88.500000079466787
  0
LINE
  8
_1-8_小物
  6
CONTINUOUS
 62
    4
 10
46.335303336755544
 20
88.500000079466787
 11
43.668636670088631
 21
88.500000079466787
  0
LINE
  8
_1-8_小物
  6
CONTINUOUS
 62
    4
 10
43.668636670088631
 20
89.66666674613316
 11
43.668636670088631
 21
89.833333412799817
  0
LINE
  8
_1-8_小物
  6
CONTINUOUS
 62
    4
 10
44.668636670088858
 20
89.833333412799817
 11
46.335303336755544
 21
89.833333412799817
  0
LINE
  8
_1-8_小物
  6
CONTINUOUS
 62
    4
 10
46.335303336755544
 20
89.500000079466787
 11
44.668636670088858
 21
89.833333412799817
  0
LINE
  8
_1-8_小物
  6
CONTINUOUS
 62
    4
 10
46.335303336755544
 20
90.166666746133444
 11
44.668636670088858
 21
89.833333412799817
  0
LINE
  8
_1-8_小物
  6
CONTINUOUS
 62
    4
 10
46.335303336755544
 20
91.500000079466474
 11
44.668636670088858
 21
91.16666674613316
  0
LINE
  8
_1-8_小物
  6
CONTINUOUS
 62
    4
 10
46.335303336755544
 20
91.16666674613316
 11
43.668636670088631
 21
91.16666674613316
  0
LINE
  8
_1-8_小物
  6
CONTINUOUS
 62
    4
 10
43.668636670088631
 20
90.000000079466787
 11
43.668636670088631
 21
89.833333412799817
  0
LINE
  8
_1-8_小物
  6
CONTINUOUS
 62
    4
 10
46.335303336755544
 20
88.16666674613316
 11
46.335303336755544
 21
91.500000079466474
  0
ENDBLK
  0
BLOCK
  2
-019-_19_
 70
   64
 10
0
 20
0
 30
0
  0
LINE
  8
_1-8_小物
  6
CONTINUOUS
 62
    4
 10
116.33530333618353
 20
81.999999999999943
 11
115.80197033618356
 21
82.30791999999991
  0
LINE
  8
_1-8_小物
  6
CONTINUOUS
 62
    4
 10
116.33530333618353
 20
81.999999999999943
 11
116.86863666951695
 21
82.30791999999991
  0
ARC
  8
_1-8_小物
  6
CONTINUOUS
 62
    4
 10
116.33530333618353
 20
86.305555666666521
 40
2.0277776666666663
 50
53.831357999997486
 51
126.16864199999945
  0
ARC
  8
_1-8_小物
  6
CONTINUOUS
 62
    4
 10
117.33530333618353
 20
87.673452333333159
 40
0.3333333333333333
 50
0
 51
53.831357999952886
  0
ARC
  8
_1-8_小物
  6
CONTINUOUS
 62
    4
 10
115.33530333618353
 20
87.673452333333159
 40
0.3333333333333333
 50
126.16864199999327
 51
180
  0
LINE
  8
_1-8_小物
  6
CONTINUOUS
 62
    4
 10
114.33530333618353
 20
87.083333333333201
 11
114.33530333618353
 21
86.833333333333201
  0
ARC
  8
_1-8_小物
  6
CONTINUOUS
 62
    4
 10
114.90254333618384
 20
86.666669333333346
 40
0.6666666666666666
 50
90
 51
124.99999999997075
  0
LINE
  8
_1-8_小物
  6
CONTINUOUS
 62
    4
 10
114.33530333618353
 20
87.083333333333201
 11
114.52015900285051
 21
87.2127706666667
  0
LINE
  8
_1-8_小物
  6
CONTINUOUS
 62
    4
 10
114.33530333618353
 20
87.083333333333201
 11
118.33530333618353
 21
87.083333333333201
  0
LINE
  8
_1-8_小物
  6
CONTINUOUS
 62
    4
 10
114.33530333618353
 20
86.833333333333201
 11
118.33530333618353
 21
86.833333333333201
  0
LINE
  8
_1-8_小物
  6
CONTINUOUS
 62
    4
 10
118.33530333618353
 20
87.083333333333201
 11
118.33530333618353
 21
86.833333333333201
  0
LINE
  8
_1-8_小物
  6
CONTINUOUS
 62
    4
 10
114.6686366695169
 20
86.833333333333201
 11
114.6686366695169
 21
86.499999999999943
  0
LINE
  8
_1-8_小物
  6
CONTINUOUS
 62
    4
 10
118.00197000285016
 20
86.833333333333201
 11
118.00197000285016
 21
86.499999999999943
  0
LINE
  8
_1-8_小物
  6
CONTINUOUS
 62
    4
 10
116.33530333618353
 20
84.032943999999986
 11
116.86863666951695
 21
84.048603999999784
  0
LINE
  8
_1-8_小物
  6
CONTINUOUS
 62
    4
 10
116.33530333618353
 20
84.032943999999986
 11
116.86863666951695
 21
84.330864333333182
  0
LINE
  8
_1-8_小物
  6
CONTINUOUS
 62
    4
 10
115.80197000285034
 20
84.989344666666625
 11
115.80197000285034
 21
84.644444333333183
  0
LINE
  8
_1-8_小物
  6
CONTINUOUS
 62
    4
 10
115.80197000285034
 20
84.362184333333232
 11
115.80197000285034
 21
82.30791999999991
  0
LINE
  8
_1-8_小物
  6
CONTINUOUS
 62
    4
 10
116.86863666951695
 20
85.302924999999902
 11
116.86863666951695
 21
84.958024666666574
  0
LINE
  8
_1-8_小物
  6
CONTINUOUS
 62
    4
 10
116.86863666951695
 20
84.675764666666453
 11
116.86863666951695
 21
84.330864333333182
  0
LINE
  8
_1-8_小物
  6
CONTINUOUS
 62
    4
 10
116.86863666951695
 20
84.048603999999784
 11
116.86863666951695
 21
82.30791999999991
  0
LINE
  8
_1-8_小物
  6
CONTINUOUS
 62
    4
 10
115.80197000285034
 20
84.989344666666625
 11
116.86863666951695
 21
85.302924999999902
  0
LINE
  8
_1-8_小物
  6
CONTINUOUS
 62
    4
 10
115.55752566951696
 20
85.130474999999876
 11
115.80197000285034
 21
84.989344666666625
  0
LINE
  8
_1-8_小物
  6
CONTINUOUS
 62
    4
 10
115.55752566951696
 20
85.130474999999876
 11
115.80197000285034
 21
85.271604999999852
  0
LINE
  8
_1-8_小物
  6
CONTINUOUS
 62
    4
 10
115.00197000285016
 20
87.673452333333159
 11
115.00197000285016
 21
87.333333333333201
  0
ARC
  8
_1-8_小物
  6
CONTINUOUS
 62
    4
 10
117.76799766951672
 20
86.666715333333173
 40
0.6666666666666666
 50
54.999999999984624
 51
90
  0
LINE
  8
_1-8_小物
  6
CONTINUOUS
 62
    4
 10
114.90254333618384
 20
87.333335999999861
 11
117.76799766951672
 21
87.333381999999915
  0
LINE
  8
_1-8_小物
  6
CONTINUOUS
 62
    4
 10
117.6686366695169
 20
87.673452333333159
 11
117.6686366695169
 21
87.333333333333201
  0
LINE
  8
_1-8_小物
  6
CONTINUOUS
 62
    4
 10
116.33530333618353
 20
82.678746999999817
 11
116.33530333618353
 21
81.999999999999943
  0
LINE
  8
_1-8_小物
  6
CONTINUOUS
 62
    4
 10
116.86863666951695
 20
83.866666666666504
 11
115.80197500285055
 21
83.866666666666504
  0
ARC
  8
_1-8_小物
  6
CONTINUOUS
 62
    4
 10
116.34365600285059
 20
82.078443333333269
 40
0.5882826666666666
 50
90.81354300003899
 51
157.0408750000027
  0
ARC
  8
_1-8_小物
  6
CONTINUOUS
 62
    4
 10
118.34610733618365
 20
82.491494666666483
 40
2.0184196666666665
 50
137.0537999999882
 51
175.02122199999752
  0
LINE
  8
_1-8_小物
  6
CONTINUOUS
 62
    4
 10
115.80197000285034
 20
84.362184333333232
 11
116.86863666951695
 21
84.675764666666453
  0
LINE
  8
_1-8_小物
  6
CONTINUOUS
 62
    4
 10
115.80197000285034
 20
84.644444333333183
 11
116.86863666951695
 21
84.958024666666574
  0
LINE
  8
_1-8_小物
  6
CONTINUOUS
 62
    4
 10
115.55752566951696
 20
84.503314333333208
 11
117.11308100285032
 21
84.816894666666599
  0
LINE
  8
_1-8_小物
  6
CONTINUOUS
 62
    4
 10
115.55752566951696
 20
84.503314333333208
 11
115.80197000285034
 21
84.362184333333232
  0
LINE
  8
_1-8_小物
  6
CONTINUOUS
 62
    4
 10
115.55752566951696
 20
84.503314333333208
 11
115.80197000285034
 21
84.644444333333183
  0
LINE
  8
_1-8_小物
  6
CONTINUOUS
 62
    4
 10
117.11308100285032
 20
84.816894666666599
 11
116.86863666951695
 21
84.675764666666453
  0
LINE
  8
_1-8_小物
  6
CONTINUOUS
 62
    4
 10
116.86863666951695
 20
84.958024666666574
 11
117.11308100285032
 21
84.816894666666599
  0
LINE
  8
_1-8_小物
  6
CONTINUOUS
 62
    4
 10
116.33530333618353
 20
84.032943999999986
 11
117.11308100285032
 21
84.189733999999987
  0
LINE
  8
_1-8_小物
  6
CONTINUOUS
 62
    4
 10
117.11308100285032
 20
84.189733999999987
 11
116.86863666951695
 21
84.048603999999784
  0
LINE
  8
_1-8_小物
  6
CONTINUOUS
 62
    4
 10
116.86863666951695
 20
84.330864333333182
 11
117.11308100285032
 21
84.189733999999987
  0
LINE
  8
_1-8_小物
  6
CONTINUOUS
 62
    4
 10
118.33530333618353
 20
87.083333333333201
 11
118.15038200285062
 21
87.212816666666583
  0
LINE
  8
_1-8_小物
  6
CONTINUOUS
 62
    4
 10
115.80197000285034
 20
85.333333333333201
 11
115.80197000285034
 21
85.271604999999852
  0
LINE
  8
_1-8_小物
  6
CONTINUOUS
 62
    4
 10
115.80197000285034
 20
85.271604999999852
 11
116.0119434882904
 21
85.333333333333201
  0
LINE
  8
_1-8_小物
  6
CONTINUOUS
 62
    4
 10
115.55752566951696
 20
85.130474999999876
 11
116.56383143623611
 21
85.333333333333201
  0
LINE
  8
_1-8_小物
  6
CONTINUOUS
 62
    4
 10
116.92130544844031
 20
85.333333333333201
 11
116.86863666951695
 21
85.302924999999902
  0
LINE
  8
_1-8_小物
  6
CONTINUOUS
 62
    4
 10
116.86863666951695
 20
85.5851853333333
 11
116.86863666951695
 21
85.930085666666571
  0
LINE
  8
_1-8_小物
  6
CONTINUOUS
 62
    4
 10
116.86863666951695
 20
85.5851853333333
 11
117.11308100285032
 21
85.444054999999878
  0
LINE
  8
_1-8_小物
  6
CONTINUOUS
 62
    4
 10
115.80197000285034
 20
86.243665666666573
 11
115.80197000285034
 21
85.898765333333301
  0
LINE
  8
_1-8_小物
  6
CONTINUOUS
 62
    4
 10
116.86863666951695
 20
86.499999999999943
 11
116.86863666951695
 21
86.212345666666522
  0
LINE
  8
_1-8_小物
  6
CONTINUOUS
 62
    4
 10
115.80197000285034
 20
85.616505333333123
 11
116.86863666951695
 21
85.930085666666571
  0
LINE
  8
_1-8_小物
  6
CONTINUOUS
 62
    4
 10
115.80197000285034
 20
85.898765333333301
 11
116.86863666951695
 21
86.212345666666522
  0
LINE
  8
_1-8_小物
  6
CONTINUOUS
 62
    4
 10
115.55752566951696
 20
85.757635333333326
 11
117.11308100285032
 21
86.071215666666546
  0
LINE
  8
_1-8_小物
  6
CONTINUOUS
 62
    4
 10
115.55752566951696
 20
85.757635333333326
 11
115.80197000285034
 21
85.616505333333123
  0
LINE
  8
_1-8_小物
  6
CONTINUOUS
 62
    4
 10
115.55752566951696
 20
85.757635333333326
 11
115.80197000285034
 21
85.898765333333301
  0
LINE
  8
_1-8_小物
  6
CONTINUOUS
 62
    4
 10
117.11308100285032
 20
86.071215666666546
 11
116.86863666951695
 21
85.930085666666571
  0
LINE
  8
_1-8_小物
  6
CONTINUOUS
 62
    4
 10
116.86863666951695
 20
86.212345666666522
 11
117.11308100285032
 21
86.071215666666546
  0
LINE
  8
_1-8_小物
  6
CONTINUOUS
 62
    4
 10
116.67391000285033
 20
86.499999999999943
 11
115.80197000285034
 21
86.243665666666573
  0
LINE
  8
_1-8_小物
  6
CONTINUOUS
 62
    4
 10
116.12901066951713
 20
86.499999999999943
 11
115.55752566951696
 21
86.384795999999994
  0
LINE
  8
_1-8_小物
  6
CONTINUOUS
 62
    4
 10
115.55752566951696
 20
86.384795999999994
 11
115.80197000285034
 21
86.243665666666573
  0
LINE
  8
_1-8_小物
  6
CONTINUOUS
 62
    4
 10
115.7570650028506
 20
86.499999999999943
 11
115.55752566951696
 21
86.384795999999994
  0
LINE
  8
_1-8_小物
  6
CONTINUOUS
 62
    4
 10
115.80197000285034
 20
85.616505333333123
 11
115.80197000285034
 21
85.333333333333201
  0
LINE
  8
_1-8_小物
  6
CONTINUOUS
 62
    4
 10
116.0119434882904
 20
85.333333333333201
 11
116.86863666951695
 21
85.5851853333333
  0
LINE
  8
_1-8_小物
  6
CONTINUOUS
 62
    4
 10
116.56383143623611
 20
85.333333333333201
 11
117.11308100285032
 21
85.444054999999878
  0
LINE
  8
_1-8_小物
  6
CONTINUOUS
 62
    4
 10
117.11308100285032
 20
85.444054999999878
 11
116.92130544844031
 21
85.333333333333201
  0
LINE
  8
_1-8_小物
  6
CONTINUOUS
 62
    4
 10
114.6686366695169
 20
86.499999999999943
 11
118.00197000285016
 21
86.499999999999943
  0
ENDBLK
  0
BLOCK
  2
-020-_20_
 70
   64
 10
0
 20
0
 30
0
  0
LINE
  8
_1-8_小物
  6
CONTINUOUS
 62
    4
 10
63.001970003422002
 20
81.999999999999943
 11
62.468637003422032
 21
82.30791999999991
  0
LINE
  8
_1-8_小物
  6
CONTINUOUS
 62
    4
 10
63.001970003422002
 20
81.999999999999943
 11
63.535303336755419
 21
82.30791999999991
  0
ARC
  8
_1-8_小物
  6
CONTINUOUS
 62
    4
 10
63.001970003422002
 20
86.305555666666521
 40
2.0277776666666663
 50
53.831357999998787
 51
126.16864200000074
  0
ARC
  8
_1-8_小物
  6
CONTINUOUS
 62
    4
 10
64.001970003422002
 20
87.673452333333159
 40
0.3333333333333333
 50
0
 51
53.831357999960773
  0
ARC
  8
_1-8_小物
  6
CONTINUOUS
 62
    4
 10
62.001970003422002
 20
87.673452333333159
 40
0.3333333333333333
 50
126.16864200000116
 51
180
  0
LINE
  8
_1-8_小物
  6
CONTINUOUS
 62
    4
 10
61.001970003422002
 20
87.083333333333201
 11
61.001970003422002
 21
86.833333333333201
  0
ARC
  8
_1-8_小物
  6
CONTINUOUS
 62
    4
 10
61.569210003422313
 20
86.666669333333346
 40
0.6666666666666666
 50
90
 51
124.99999999997475
  0
LINE
  8
_1-8_小物
  6
CONTINUOUS
 62
    4
 10
61.001970003422002
 20
87.083333333333201
 11
61.186825670088979
 21
87.2127706666667
  0
LINE
  8
_1-8_小物
  6
CONTINUOUS
 62
    4
 10
61.001970003422002
 20
87.083333333333201
 11
65.001970003422002
 21
87.083333333333201
  0
LINE
  8
_1-8_小物
  6
CONTINUOUS
 62
    4
 10
61.001970003422002
 20
86.833333333333201
 11
65.001970003422002
 21
86.833333333333201
  0
LINE
  8
_1-8_小物
  6
CONTINUOUS
 62
    4
 10
65.001970003422002
 20
87.083333333333201
 11
65.001970003422002
 21
86.833333333333201
  0
LINE
  8
_1-8_小物
  6
CONTINUOUS
 62
    4
 10
61.335303336755373
 20
86.833333333333201
 11
61.335303336755373
 21
86.499999999999943
  0
LINE
  8
_1-8_小物
  6
CONTINUOUS
 62
    4
 10
64.668636670088631
 20
86.833333333333201
 11
64.668636670088631
 21
86.499999999999943
  0
LINE
  8
_1-8_小物
  6
CONTINUOUS
 62
    4
 10
63.001970003422002
 20
84.032943999999986
 11
63.535303336755419
 21
84.048603999999784
  0
LINE
  8
_1-8_小物
  6
CONTINUOUS
 62
    4
 10
63.001970003422002
 20
84.032943999999986
 11
63.535303336755419
 21
84.330864333333182
  0
LINE
  8
_1-8_小物
  6
CONTINUOUS
 62
    4
 10
62.468636670088813
 20
84.989344666666625
 11
62.468636670088813
 21
84.644444333333183
  0
LINE
  8
_1-8_小物
  6
CONTINUOUS
 62
    4
 10
62.468636670088813
 20
84.362184333333232
 11
62.468636670088813
 21
82.30791999999991
  0
LINE
  8
_1-8_小物
  6
CONTINUOUS
 62
    4
 10
63.535303336755419
 20
85.302924999999902
 11
63.535303336755419
 21
84.958024666666574
  0
LINE
  8
_1-8_小物
  6
CONTINUOUS
 62
    4
 10
63.535303336755419
 20
84.675764666666453
 11
63.535303336755419
 21
84.330864333333182
  0
LINE
  8
_1-8_小物
  6
CONTINUOUS
 62
    4
 10
63.535303336755419
 20
84.048603999999784
 11
63.535303336755419
 21
82.30791999999991
  0
LINE
  8
_1-8_小物
  6
CONTINUOUS
 62
    4
 10
62.468636670088813
 20
84.989344666666625
 11
63.535303336755419
 21
85.302924999999902
  0
LINE
  8
_1-8_小物
  6
CONTINUOUS
 62
    4
 10
62.224192336755436
 20
85.130474999999876
 11
62.468636670088813
 21
84.989344666666625
  0
LINE
  8
_1-8_小物
  6
CONTINUOUS
 62
    4
 10
62.224192336755436
 20
85.130474999999876
 11
62.468636670088813
 21
85.271604999999852
  0
LINE
  8
_1-8_小物
  6
CONTINUOUS
 62
    4
 10
61.668636670088631
 20
87.673452333333159
 11
61.668636670088631
 21
87.333333333333201
  0
ARC
  8
_1-8_小物
  6
CONTINUOUS
 62
    4
 10
64.434664336755191
 20
86.666715333333173
 40
0.6666666666666666
 50
54.999999999984624
 51
90
  0
LINE
  8
_1-8_小物
  6
CONTINUOUS
 62
    4
 10
61.569210003422313
 20
87.333335999999861
 11
64.434664336755191
 21
87.333381999999915
  0
LINE
  8
_1-8_小物
  6
CONTINUOUS
 62
    4
 10
64.335303336755373
 20
87.673452333333159
 11
64.335303336755373
 21
87.333333333333201
  0
LINE
  8
_1-8_小物
  6
CONTINUOUS
 62
    4
 10
63.001970003422002
 20
82.678746999999817
 11
63.001970003422002
 21
81.999999999999943
  0
LINE
  8
_1-8_小物
  6
CONTINUOUS
 62
    4
 10
63.535303336755419
 20
83.866666666666504
 11
62.468641670089028
 21
83.866666666666504
  0
ARC
  8
_1-8_小物
  6
CONTINUOUS
 62
    4
 10
63.010322670089067
 20
82.078443333333269
 40
0.5882826666666666
 50
90.81354300003899
 51
157.0408750000027
  0
ARC
  8
_1-8_小物
  6
CONTINUOUS
 62
    4
 10
65.012774003422123
 20
82.491494666666483
 40
2.0184196666666665
 50
137.0537999999882
 51
175.02122199999752
  0
LINE
  8
_1-8_小物
  6
CONTINUOUS
 62
    4
 10
62.468636670088813
 20
84.362184333333232
 11
63.535303336755419
 21
84.675764666666453
  0
LINE
  8
_1-8_小物
  6
CONTINUOUS
 62
    4
 10
62.468636670088813
 20
84.644444333333183
 11
63.535303336755419
 21
84.958024666666574
  0
LINE
  8
_1-8_小物
  6
CONTINUOUS
 62
    4
 10
62.224192336755436
 20
84.503314333333208
 11
63.779747670088796
 21
84.816894666666599
  0
LINE
  8
_1-8_小物
  6
CONTINUOUS
 62
    4
 10
62.224192336755436
 20
84.503314333333208
 11
62.468636670088813
 21
84.362184333333232
  0
LINE
  8
_1-8_小物
  6
CONTINUOUS
 62
    4
 10
62.224192336755436
 20
84.503314333333208
 11
62.468636670088813
 21
84.644444333333183
  0
LINE
  8
_1-8_小物
  6
CONTINUOUS
 62
    4
 10
63.779747670088796
 20
84.816894666666599
 11
63.535303336755419
 21
84.675764666666453
  0
LINE
  8
_1-8_小物
  6
CONTINUOUS
 62
    4
 10
63.535303336755419
 20
84.958024666666574
 11
63.779747670088796
 21
84.816894666666599
  0
LINE
  8
_1-8_小物
  6
CONTINUOUS
 62
    4
 10
63.001970003422002
 20
84.032943999999986
 11
63.779747670088796
 21
84.189733999999987
  0
LINE
  8
_1-8_小物
  6
CONTINUOUS
 62
    4
 10
63.779747670088796
 20
84.189733999999987
 11
63.535303336755419
 21
84.048603999999784
  0
LINE
  8
_1-8_小物
  6
CONTINUOUS
 62
    4
 10
63.535303336755419
 20
84.330864333333182
 11
63.779747670088796
 21
84.189733999999987
  0
LINE
  8
_1-8_小物
  6
CONTINUOUS
 62
    4
 10
65.001970003422002
 20
87.083333333333201
 11
64.817048670089093
 21
87.212816666666583
  0
LINE
  8
_1-8_小物
  6
CONTINUOUS
 62
    4
 10
62.468636670088813
 20
85.333333333333201
 11
62.468636670088813
 21
85.271604999999852
  0
LINE
  8
_1-8_小物
  6
CONTINUOUS
 62
    4
 10
62.468636670088813
 20
85.271604999999852
 11
62.678610155528872
 21
85.333333333333201
  0
LINE
  8
_1-8_小物
  6
CONTINUOUS
 62
    4
 10
62.224192336755436
 20
85.130474999999876
 11
63.230498103474588
 21
85.333333333333201
  0
LINE
  8
_1-8_小物
  6
CONTINUOUS
 62
    4
 10
63.587972115678781
 20
85.333333333333201
 11
63.535303336755419
 21
85.302924999999902
  0
LINE
  8
_1-8_小物
  6
CONTINUOUS
 62
    4
 10
63.535303336755419
 20
85.5851853333333
 11
63.535303336755419
 21
85.930085666666571
  0
LINE
  8
_1-8_小物
  6
CONTINUOUS
 62
    4
 10
63.535303336755419
 20
85.5851853333333
 11
63.779747670088796
 21
85.444054999999878
  0
LINE
  8
_1-8_小物
  6
CONTINUOUS
 62
    4
 10
62.468636670088813
 20
86.243665666666573
 11
62.468636670088813
 21
85.898765333333301
  0
LINE
  8
_1-8_小物
  6
CONTINUOUS
 62
    4
 10
63.535303336755419
 20
86.499999999999943
 11
63.535303336755419
 21
86.212345666666522
  0
LINE
  8
_1-8_小物
  6
CONTINUOUS
 62
    4
 10
62.468636670088813
 20
85.616505333333123
 11
63.535303336755419
 21
85.930085666666571
  0
LINE
  8
_1-8_小物
  6
CONTINUOUS
 62
    4
 10
62.468636670088813
 20
85.898765333333301
 11
63.535303336755419
 21
86.212345666666522
  0
LINE
  8
_1-8_小物
  6
CONTINUOUS
 62
    4
 10
62.224192336755436
 20
85.757635333333326
 11
63.779747670088796
 21
86.071215666666546
  0
LINE
  8
_1-8_小物
  6
CONTINUOUS
 62
    4
 10
62.224192336755436
 20
85.757635333333326
 11
62.468636670088813
 21
85.616505333333123
  0
LINE
  8
_1-8_小物
  6
CONTINUOUS
 62
    4
 10
62.224192336755436
 20
85.757635333333326
 11
62.468636670088813
 21
85.898765333333301
  0
LINE
  8
_1-8_小物
  6
CONTINUOUS
 62
    4
 10
63.779747670088796
 20
86.071215666666546
 11
63.535303336755419
 21
85.930085666666571
  0
LINE
  8
_1-8_小物
  6
CONTINUOUS
 62
    4
 10
63.535303336755419
 20
86.212345666666522
 11
63.779747670088796
 21
86.071215666666546
  0
LINE
  8
_1-8_小物
  6
CONTINUOUS
 62
    4
 10
63.340576670088808
 20
86.499999999999943
 11
62.468636670088813
 21
86.243665666666573
  0
LINE
  8
_1-8_小物
  6
CONTINUOUS
 62
    4
 10
62.795677336755602
 20
86.499999999999943
 11
62.224192336755436
 21
86.384795999999994
  0
LINE
  8
_1-8_小物
  6
CONTINUOUS
 62
    4
 10
62.224192336755436
 20
86.384795999999994
 11
62.468636670088813
 21
86.243665666666573
  0
LINE
  8
_1-8_小物
  6
CONTINUOUS
 62
    4
 10
62.423731670089069
 20
86.499999999999943
 11
62.224192336755436
 21
86.384795999999994
  0
LINE
  8
_1-8_小物
  6
CONTINUOUS
 62
    4
 10
62.468636670088813
 20
85.616505333333123
 11
62.468636670088813
 21
85.333333333333201
  0
LINE
  8
_1-8_小物
  6
CONTINUOUS
 62
    4
 10
62.678610155528872
 20
85.333333333333201
 11
63.535303336755419
 21
85.5851853333333
  0
LINE
  8
_1-8_小物
  6
CONTINUOUS
 62
    4
 10
63.230498103474588
 20
85.333333333333201
 11
63.779747670088796
 21
85.444054999999878
  0
LINE
  8
_1-8_小物
  6
CONTINUOUS
 62
    4
 10
63.779747670088796
 20
85.444054999999878
 11
63.587972115678781
 21
85.333333333333201
  0
LINE
  8
_1-8_小物
  6
CONTINUOUS
 62
    4
 10
61.335303336755373
 20
86.499999999999943
 11
64.668636670088631
 21
86.499999999999943
  0
ENDBLK
  0
BLOCK
  2
-021-_21_
 70
   64
 10
0
 20
0
 30
0
  0
LINE
  8
_1-7_カバ__
  6
CONTINUOUS
 62
    4
 10
133.00197000285038
 20
81.833333333333286
 11
133.00197000285038
 21
86.499999999999943
  0
LINE
  8
_1-7_カバ__
  6
CONTINUOUS
 62
    4
 10
50.001970003421889
 20
101.49998729414818
 11
54.668636670088745
 21
101.49998729414818
  0
LINE
  8
_1-7_カバ__
  6
CONTINUOUS
 62
    4
 10
54.668636670088745
 20
101.49998729414818
 11
54.668636670088745
 21
86.499999999999943
  0
LINE
  8
_1-7_カバ__
  6
CONTINUOUS
 62
    4
 10
116.33530333618364
 20
86.429289321881299
 11
116.40601401430229
 21
86.499999999999943
  0
LINE
  8
_1-7_カバ__
  6
CONTINUOUS
 62
    4
 10
116.33530333618364
 20
86.429289321881299
 11
116.264592658065
 21
86.499999999999943
  0
LINE
  8
_1-7_カバ__
  6
CONTINUOUS
 62
    4
 10
63.001970003422116
 20
86.429289321881299
 11
63.07268068154076
 21
86.499999999999943
  0
LINE
  8
_1-7_カバ__
  6
CONTINUOUS
 62
    4
 10
63.001970003422116
 20
86.429289321881299
 11
62.931259325303472
 21
86.499999999999943
  0
LINE
  8
_1-7_カバ__
  6
CONTINUOUS
 62
    4
 10
54.668636670088745
 20
86.499999999999943
 11
62.931259325303472
 21
86.499999999999943
  0
LINE
  8
_1-7_カバ__
  6
CONTINUOUS
 62
    4
 10
116.40601401430229
 20
86.499999999999943
 11
133.00197000285038
 21
86.499999999999943
  0
LINE
  8
_1-7_カバ__
  6
CONTINUOUS
 62
    4
 10
63.07268068154076
 20
86.499999999999943
 11
116.264592658065
 21
86.499999999999943
  0
LINE
  8
_1-7_カバ__
  6
CONTINUOUS
 62
    4
 10
53.901970003421752
 20
85.733333333333292
 11
132.23530333618311
 21
85.733333333333292
  0
LINE
  8
_1-7_カバ__
  6
CONTINUOUS
 62
    4
 10
50.001970003421889
 20
101.49998729414818
 11
50.001970003421889
 21
98.16665396081487
  0
LINE
  8
_1-7_カバ__
  6
CONTINUOUS
 62
    4
 10
133.00197000285038
 20
81.833333333333286
 11
129.66863666951713
 21
81.833333333333286
  0
LINE
  8
_1-7_カバ__
  6
CONTINUOUS
 62
    4
 10
53.901970003421752
 20
100.7333206274815
 11
53.901970003421752
 21
85.733333333333292
  0
LINE
  8
_1-7_カバ__
  6
CENTER2
 62
    4
 10
63.001970003422116
 20
89.166666666666657
 11
63.001970003422116
 21
84.066666666666634
  0
LINE
  8
_1-7_カバ__
  6
CENTER2
 62
    4
 10
116.33530333618364
 20
89.166666666666657
 11
116.33530333618364
 21
84.066666666666634
  0
LINE
  8
_1-7_カバ__
  6
DASHED1
 62
    4
 10
63.918636670088745
 20
86.499999999999943
 11
63.918636670088745
 21
85.733333333333292
  0
LINE
  8
_1-7_カバ__
  6
DASHED1
 62
    4
 10
62.085303336755373
 20
86.499999999999943
 11
62.085303336755373
 21
85.733333333333292
  0
LINE
  8
_1-7_カバ__
  6
DASHED1
 62
    4
 10
117.25197000285038
 20
86.499999999999943
 11
117.25197000285038
 21
85.733333333333292
  0
LINE
  8
_1-7_カバ__
  6
DASHED1
 62
    4
 10
115.41863666951701
 20
86.499999999999943
 11
115.41863666951701
 21
85.733333333333292
  0
LINE
  8
_1-7_カバ__
  6
CONTINUOUS
 62
    4
 10
50.001970003421889
 20
98.16665396081487
 11
50.501970003422116
 21
98.16665396081487
  0
LINE
  8
_1-7_カバ__
  6
CONTINUOUS
 62
    4
 10
50.501970003422116
 20
100.7333206274815
 11
50.501970003422116
 21
98.16665396081487
  0
LINE
  8
_1-7_カバ__
  6
CONTINUOUS
 62
    4
 10
50.501970003422116
 20
100.7333206274815
 11
53.901970003421752
 21
100.7333206274815
  0
LINE
  8
_1-7_カバ__
  6
CONTINUOUS
 62
    4
 10
129.66863666951713
 20
81.833333333333286
 11
129.66863666951713
 21
82.333333333333286
  0
LINE
  8
_1-7_カバ__
  6
CONTINUOUS
 62
    4
 10
132.23530333618311
 20
82.333333333333286
 11
129.66863666951713
 21
82.333333333333286
  0
LINE
  8
_1-7_カバ__
  6
CONTINUOUS
 62
    4
 10
132.23530333618311
 20
82.333333333333286
 11
132.23530333618311
 21
85.733333333333292
  0
ENDBLK
  0
BLOCK
  2
-022-_22_
 70
   64
 10
0
 20
0
 30
0
  0
ARC
  8
_1-8_小物
  6
CONTINUOUS
 62
    4
 10
50.101970003421911
 20
98.166653960814926
 40
0.0999999999999999
 50
180
 51
270
  0
ARC
  8
_1-8_小物
  6
CONTINUOUS
 62
    4
 10
49.33530333675526
 20
100.83332062748156
 40
0.1666666666666666
 50
0
 51
90
  0
ARC
  8
_1-8_小物
  6
CONTINUOUS
 62
    4
 10
49.33530333675526
 20
100.83332062748156
 40
0.6666666666666666
 50
0
 51
90
  0
ARC
  8
_1-8_小物
  6
CONTINUOUS
 62
    4
 10
50.001970003421889
 20
98.233320627481618
 40
0.5
 50
180
 51
270
  0
ARC
  8
_1-8_小物
  6
CONTINUOUS
 62
    4
 10
50.668624231791682
 20
100.18641493509838
 40
0.3333333333333333
 50
94.524257773784925
 51
184.52425777378002
  0
LINE
  8
_1-8_小物
  6
CONTINUOUS
 62
    4
 10
50.393755506551884
 20
98.066653960814875
 11
50.101970003421911
 21
98.066653960814875
  0
ARC
  8
_1-8_小物
  6
CONTINUOUS
 62
    4
 10
50.393755506551884
 20
98.166653960814926
 40
0.0999999999999999
 50
270
 51
4.5242577737902252
  0
LINE
  8
_1-8_小物
  6
CONTINUOUS
 62
    4
 10
50.001970003421889
 20
100.83332062748156
 11
50.001970003421889
 21
98.166653960814926
  0
LINE
  8
_1-8_小物
  6
CONTINUOUS
 62
    4
 10
50.33632955628201
 20
100.1601212145743
 11
50.493443909204814
 21
98.174542076972131
  0
ARC
  8
_1-8_小物
  6
CONTINUOUS
 62
    4
 10
50.919636109015357
 20
99.972214266608319
 40
0.1666666666666666
 50
94.524257773784925
 51
184.52425777376544
  0
LINE
  8
_1-8_小物
  6
CONTINUOUS
 62
    4
 10
50.753488771260436
 20
99.959067406346378
 11
50.901150573058544
 21
98.092947681338899
  0
LINE
  8
_1-8_小物
  6
CONTINUOUS
 62
    4
 10
50.568855897548815
 20
97.733320627481618
 11
50.001970003421889
 21
97.733320627481618
  0
ARC
  8
_1-8_小物
  6
CONTINUOUS
 62
    4
 10
50.568855897548815
 20
98.066653960814875
 40
0.3333333333333333
 50
270
 51
4.5242577737898273
  0
LINE
  8
_1-8_小物
  6
CONTINUOUS
 62
    4
 10
50.642330511267687
 20
100.51870961060811
 11
50.941395719226477
 21
100.54237395907973
  0
LINE
  8
_1-8_小物
  6
CONTINUOUS
 62
    4
 10
50.90648924875336
 20
100.13836160436318
 11
50.972948183855237
 21
100.143620348468
  0
ARC
  8
_1-8_小物
  6
CONTINUOUS
 62
    4
 10
50.957171951540886
 20
100.34299715377395
 40
0.1999999999999963
 50
274.52425777378829
 51
94.524257773788293
  0
LINE
  8
_1-8_小物
  6
CONTINUOUS
 62
    4
 10
49.33530333675526
 20
98.733320627481618
 11
49.501970003421889
 21
98.566653960814875
  0
LINE
  8
_1-8_小物
  6
CONTINUOUS
 62
    4
 10
49.33530333675526
 20
98.733320627481618
 11
49.501970003421889
 21
98.899987294148161
  0
LINE
  8
_1-8_小物
  6
CONTINUOUS
 62
    4
 10
49.501970003421889
 20
100.83332062748156
 11
49.501970003421889
 21
98.899987294148161
  0
LINE
  8
_1-8_小物
  6
CONTINUOUS
 62
    4
 10
49.501970003421889
 20
98.566653960814875
 11
49.501970003421889
 21
98.233320627481618
  0
ARC
  8
_1-8_小物
  6
CONTINUOUS
 62
    4
 10
45.876632930211429
 20
100.58796481833684
 40
0.4999999999999946
 50
99.360190801914598
 51
259.36019080191159
  0
LINE
  8
_1-8_小物
  6
CONTINUOUS
 62
    4
 10
48.376235950133605
 20
100.99998729414827
 11
46.063158629726502
 21
100.61871081276246
  0
ARC
  8
_1-8_小物
  6
CONTINUOUS
 62
    4
 10
46.06857997809243
 20
100.5858212993424
 40
0.0333333333333333
 50
99.360190801991195
 51
259.36019080182814
  0
ARC
  8
_1-8_小物
  6
CONTINUOUS
 62
    4
 10
47.058983495183156
 20
100.11147017879628
 40
0.25
 50
259.36019080191221
 51
79.360190801912211
  0
LINE
  8
_1-8_小物
  6
CONTINUOUS
 62
    4
 10
47.012824932385797
 20
99.865768353242458
 11
45.78431580461671
 21
100.09656116722925
  0
LINE
  8
_1-8_小物
  6
CONTINUOUS
 62
    4
 10
48.33530333675526
 20
101.49998729414827
 11
45.795312704722335
 21
101.08130751963728
  0
LINE
  8
_1-8_小物
  6
CONTINUOUS
 62
    4
 10
47.105142057980515
 20
100.35717200435013
 11
46.062425503052793
 21
100.55306105593519
  0
LINE
  8
_1-8_小物
  6
CONTINUOUS
 62
    4
 10
49.33530333675526
 20
100.99998729414827
 11
48.376235950133605
 21
100.99998729414827
  0
LINE
  8
_1-8_小物
  6
CONTINUOUS
 62
    4
 10
49.33530333675526
 20
101.49998729414827
 11
48.33530333675526
 21
101.49998729414827
  0
ENDBLK
  0
BLOCK
  2
-023-_23_
 70
   64
 10
0
 20
0
 30
0
  0
LINE
  8
_1-4_フレ__ム
  6
CONTINUOUS
 62
    4
 10
47.668636670089313
 20
89.933333333333223
 11
47.568636670089859
 21
89.833333333333314
  0
LINE
  8
_1-4_フレ__ム
  6
CONTINUOUS
 62
    4
 10
47.568636670089859
 20
89.833333333333314
 11
47.668636670089711
 21
89.733333333333036
  0
LINE
  8
_1-4_フレ__ム
  6
CONTINUOUS
 62
    4
 10
47.668636670089711
 20
85.166666666666885
 11
47.668636670089711
 21
89.733333333333036
  0
LINE
  8
_1-4_フレ__ム
  6
CONTINUOUS
 62
    4
 10
47.668636670089313
 20
95.166666666666572
 11
47.668636670089313
 21
89.933333333333223
  0
ARC
  8
_1-4_フレ__ム
  6
CONTINUOUS
 62
    4
 10
49.435303332390333
 20
96.833333333333087
 40
0.1666666666666666
 50
270
 51
90
  0
LINE
  8
_1-4_フレ__ム
  6
CONTINUOUS
 62
    4
 10
49.335303332390367
 20
96.66666666666643
 11
49.335303332390367
 21
93.499999999999915
  0
LINE
  8
_1-4_フレ__ム
  6
CONTINUOUS
 62
    4
 10
48.835303332390367
 20
96.999999999999773
 11
49.435303332390333
 21
96.999999999999773
  0
LINE
  8
_1-4_フレ__ム
  6
CONTINUOUS
 62
    4
 10
48.835303332390367
 20
93.499999999999915
 11
49.335303332390367
 21
93.499999999999915
  0
LINE
  8
_1-4_フレ__ム
  6
CONTINUOUS
 62
    4
 10
48.835303332390367
 20
95.166666666666572
 11
47.668636670089313
 21
95.166666666666572
  0
LINE
  8
_1-4_フレ__ム
  6
CONTINUOUS
 62
    4
 10
48.835303332390367
 20
95.166666666666572
 11
48.835303332390367
 21
93.499999999999915
  0
LINE
  8
_1-4_フレ__ム
  6
CONTINUOUS
 62
    4
 10
48.835303332390367
 20
96.999999999999773
 11
48.835303332390367
 21
96.166666666666572
  0
ARC
  8
_1-4_フレ__ム
  6
CONTINUOUS
 62
    4
 10
48.001970003423196
 20
82.833333333333258
 40
0.1666666666666666
 50
180
 51
270
  0
ARC
  8
_1-4_フレ__ム
  6
CONTINUOUS
 62
    4
 10
47.8186366700902
 20
81.349999999999909
 40
0.4833333333332726
 50
270
 51
90
  0
ARC
  8
_1-4_フレ__ム
  6
CONTINUOUS
 62
    4
 10
48.301970003423321
 20
80.933333333333394
 40
0.5999999999999999
 50
270
 51
0
  0
LINE
  8
_1-4_フレ__ム
  6
CONTINUOUS
 62
    4
 10
47.001970003422741
 20
80.699999999999875
 11
47.001970003422741
 21
80.599999999999966
  0
LINE
  8
_1-4_フレ__ム
  6
CONTINUOUS
 62
    4
 10
47.8186366700902
 20
80.866666666666617
 11
47.168636670089654
 21
80.866666666666561
  0
ARC
  8
_1-4_フレ__ム
  6
CONTINUOUS
 62
    4
 10
47.168636670089654
 20
80.699999999999875
 40
0.1666666666666666
 50
90
 51
180
  0
ARC
  8
_1-4_フレ__ム
  6
CONTINUOUS
 62
    4
 10
47.268636670089847
 20
80.599999999999966
 40
0.2666666666666667
 50
180
 51
270
  0
LINE
  8
_1-4_フレ__ム
  6
CONTINUOUS
 62
    4
 10
47.268636670089847
 20
80.333333333333286
 11
48.301970003423321
 21
80.333333333333314
  0
LINE
  8
_1-4_フレ__ム
  6
CONTINUOUS
 62
    4
 10
46.668636670089313
 20
81.833333333333314
 11
47.8186366700902
 21
81.833333333333314
  0
LINE
  8
_1-4_フレ__ム
  6
CONTINUOUS
 62
    4
 10
48.835303332390367
 20
96.166666666666572
 11
46.668636670089313
 21
96.166666666666572
  0
LINE
  8
_1-4_フレ__ム
  6
CONTINUOUS
 62
    4
 10
46.668636670089313
 20
81.833333333333314
 11
46.668636670089313
 21
96.166666666666572
  0
LINE
  8
_1-4_フレ__ム
  6
CONTINUOUS
 62
    4
 10
47.668636670089711
 20
85.166666666666885
 11
47.83530333675651
 21
85.166666666666885
  0
LINE
  8
_1-4_フレ__ム
  6
CONTINUOUS
 62
    4
 10
47.83530333675651
 20
82.833333333333258
 11
47.83530333675651
 21
85.166666666666885
  0
LINE
  8
_1-4_フレ__ム
  6
CONTINUOUS
 62
    4
 10
49.335303332390367
 20
96.66666666666643
 11
49.435303332390333
 21
96.66666666666643
  0
LINE
  8
_1-4_フレ__ム
  6
CENTER2
 62
    4
 10
48.835303336756056
 20
89.833333333333314
 11
45.001970003422684
 21
89.833333333333314
  0
LINE
  8
_1-4_フレ__ム
  6
CENTER2
 62
    4
 10
47.8186366700902
 20
81.349999999999909
 11
48.651970003423344
 21
81.349999999999909
  0
LINE
  8
_1-4_フレ__ム
  6
CENTER2
 62
    4
 10
47.8186366700902
 20
81.349999999999909
 11
47.8186366700902
 21
82.183333333333394
  0
LINE
  8
_1-4_フレ__ム
  6
CENTER2
 62
    4
 10
47.8186366700902
 20
81.349999999999909
 11
46.985303336756715
 21
81.349999999999909
  0
LINE
  8
_1-4_フレ__ム
  6
CENTER2
 62
    4
 10
47.8186366700902
 20
81.349999999999909
 11
47.8186366700902
 21
80.516666666666481
  0
LINE
  8
_1-4_フレ__ム
  6
DASHED1
 62
    4
 10
47.668636670089711
 20
92.333333333333627
 11
46.668636670089313
 21
92.333333333333627
  0
LINE
  8
_1-4_フレ__ム
  6
DASHED1
 62
    4
 10
47.668636670089711
 20
87.333333333333627
 11
46.668636670089313
 21
87.333333333333627
  0
LINE
  8
_1-4_フレ__ム
  6
DASHED1
 62
    4
 10
47.835303336756283
 20
83.666666666666657
 11
46.668636670089313
 21
83.666666666666657
  0
LINE
  8
_1-4_フレ__ム
  6
CONTINUOUS
 62
    4
 10
48.801970003423207
 20
82.666666666666742
 11
48.001970003423196
 21
82.666666666666742
  0
LINE
  8
_1-4_フレ__ム
  6
CONTINUOUS
 62
    4
 10
48.90197000342323
 20
80.933333333333394
 11
48.90197000342323
 21
82.56666666666672
  0
ARC
  8
_1-4_フレ__ム
  6
CONTINUOUS
 62
    4
 10
48.801970003423207
 20
82.56666666666672
 40
0.0999999999999999
 50
0
 51
90
  0
ENDBLK
  0
BLOCK
  2
-024-_24_
 70
   64
 10
0
 20
0
 30
0
  0
LINE
  8
_1-8_小物
  6
CONTINUOUS
 62
    4
 10
48.065616891947514
 20
83.4611111143833
 11
47.964610298299988
 21
83.548148151428023
  0
ARC
  8
_1-8_小物
  6
CONTINUOUS
 62
    4
 10
48.768636670089961
 20
80.46666666666664
 40
0.1333333333333333
 50
270
 51
359.99999849072555
  0
ARC
  8
_1-8_小物
  6
CONTINUOUS
 62
    4
 10
48.768636670089961
 20
80.46666666666664
 40
0.2666666666666666
 50
270
 51
359.99999849072555
  0
ARC
  8
_1-8_小物
  6
CONTINUOUS
 62
    4
 10
47.135303336756579
 20
80.46666666666664
 40
0.2666666666666666
 50
180
 51
270
  0
ARC
  8
_1-8_小物
  6
CONTINUOUS
 62
    4
 10
46.629292007189918
 20
81.199999999999989
 40
0.5
 50
323.03140579855119
 51
41.810314895802605
  0
ARC
  8
_1-8_小物
  6
CONTINUOUS
 62
    4
 10
47.135303336756579
 20
80.819127783333329
 40
0.1333333333333333
 50
143.03140197500721
 51
179.99999849072555
  0
LINE
  8
_1-8_小物
  6
CONTINUOUS
 62
    4
 10
46.868636670089927
 20
80.82275850350004
 11
46.868636670089927
 21
80.46666666666664
  0
ARC
  8
_1-8_小物
  6
CONTINUOUS
 62
    4
 10
47.135303336756579
 20
80.46666666666664
 40
0.1333333333333333
 50
180
 51
270
  0
ARC
  8
_1-8_小物
  6
CONTINUOUS
 62
    4
 10
46.5856368035233
 20
81.199999999999989
 40
0.3999999999999999
 50
325.53781142994416
 51
37.637863116802919
  0
LINE
  8
_1-8_小物
  6
CONTINUOUS
 62
    4
 10
47.001970003423253
 20
80.819127786833349
 11
47.001970003423253
 21
80.46666666666664
  0
ARC
  8
_1-8_小物
  6
CONTINUOUS
 62
    4
 10
47.135303336756579
 20
80.82275850350004
 40
0.2666666666666666
 50
145.53781142991247
 51
180
  0
LINE
  8
_1-8_小物
  6
CONTINUOUS
 62
    4
 10
47.001970003423253
 20
81.533333333333331
 11
46.902391309323264
 21
81.444267441699992
  0
LINE
  8
_1-8_小物
  6
CONTINUOUS
 62
    4
 10
47.135303336756579
 20
80.199999999999989
 11
48.768636670089961
 21
80.199999999999989
  0
LINE
  8
_1-8_小物
  6
CONTINUOUS
 62
    4
 10
47.135303336756579
 20
80.333333333333371
 11
48.768636670089961
 21
80.333333333333371
  0
ARC
  8
_1-8_小物
  6
CONTINUOUS
 62
    4
 10
48.368636670089927
 20
83.199999999999989
 40
0.5333333333333333
 50
90
 51
270.00000867010863
  0
ARC
  8
_1-8_小物
  6
CONTINUOUS
 62
    4
 10
48.368636670089927
 20
83.199999999999989
 40
0.3999999999999999
 50
90.0000000000977
 51
270.0000018823917
  0
LINE
  8
_1-8_小物
  6
CONTINUOUS
 62
    4
 10
48.368636670089927
 20
83.600000000000023
 11
48.368636670089927
 21
83.733333333333348
  0
LINE
  8
_1-8_小物
  6
CONTINUOUS
 62
    4
 10
47.835303336756567
 20
84.666666666666686
 11
47.968636670089893
 21
84.666666666666686
  0
LINE
  8
_1-8_小物
  6
DASHED1
 62
    4
 10
49.035303336756613
 20
82.083333326260373
 11
48.901970003423287
 21
82.083333326260373
  0
LINE
  8
_1-8_小物
  6
CONTINUOUS
 62
    4
 10
47.968636670089893
 20
84.166666666666686
 11
47.835303336756567
 21
84.166666666666686
  0
LINE
  8
_1-8_小物
  6
CONTINUOUS
 62
    4
 10
47.968636670089893
 20
84.666666666666686
 11
47.968636670089893
 21
83.552766841475233
  0
LINE
  8
_1-8_小物
  6
CONTINUOUS
 62
    4
 10
47.968636670089893
 20
82.847233158524773
 11
47.968636670089893
 21
82.670034017147714
  0
LINE
  8
_1-8_小物
  6
CONTINUOUS
 62
    4
 10
47.835303336756567
 20
84.666666666666686
 11
47.835303336756567
 21
82.833333333333258
  0
ARC
  8
_1-8_小物
  6
CONTINUOUS
 62
    4
 10
47.535303336756613
 20
81.769771525016893
 40
0.1333333333333333
 50
151.52902134424266
 51
180
  0
LINE
  8
_1-8_小物
  6
CONTINUOUS
 62
    4
 10
47.40197000342323
 20
81.769771525016893
 11
47.40197000342323
 21
80.866666666666617
  0
LINE
  8
_1-8_小物
  6
CONTINUOUS
 62
    4
 10
47.268636670089961
 20
81.833333333333314
 11
47.268636670089961
 21
80.866666666666617
  0
LINE
  8
_1-8_小物
  6
CONTINUOUS
 62
    4
 10
48.368636670089927
 20
82.799999999999983
 11
48.801970003423264
 21
82.799999999999983
  0
LINE
  8
_1-8_小物
  6
CONTINUOUS
 62
    4
 10
49.035303336756613
 20
80.466666659666657
 11
49.035303336756613
 21
82.566666666666634
  0
ARC
  8
_1-8_小物
  6
CONTINUOUS
 62
    4
 10
48.801970003423264
 20
82.566666666666634
 40
0.2333333333333333
 50
0
 51
90
  0
LINE
  8
_1-8_小物
  6
CONTINUOUS
 62
    4
 10
48.368636670089927
 20
82.666666666666686
 11
48.801970003423321
 21
82.666666666666686
  0
LINE
  8
_1-8_小物
  6
CONTINUOUS
 62
    4
 10
48.901970003423287
 20
80.466666663166677
 11
48.901970003423287
 21
82.56666666666672
  0
ARC
  8
_1-8_小物
  6
CONTINUOUS
 62
    4
 10
48.801970003423321
 20
82.56666666666672
 40
0.0999999999999999
 50
0
 51
90
  0
ENDBLK
  0
BLOCK
  2
-025-_25_
 70
   64
 10
0
 20
0
 30
0
  0
LINE
  8
_1-5_ア__ム
  6
CONTINUOUS
 62
    4
 10
53.901970003421752
 20
85.733333314699792
 11
53.901970003421752
 21
82.066666759800171
  0
ARC
  8
_1-5_ア__ム
  6
CONTINUOUS
 62
    4
 10
55.568636670088381
 20
82.066666759800171
 40
1.6666666666666665
 50
180
 51
270
  0
LINE
  8
_1-5_ア__ム
  6
DASHED1
 62
    4
 10
72.235303336754896
 20
84.800000014633383
 11
72.235303336754896
 21
84.066666681300092
  0
LINE
  8
_1-5_ア__ム
  6
DASHED1
 62
    4
 10
74.235303336755237
 20
84.800000014633383
 11
74.235303336755237
 21
84.066666681300092
  0
LINE
  8
_1-5_ア__ム
  6
DASHED1
 62
    4
 10
57.901970003421752
 20
84.800000014633383
 11
57.901970003421752
 21
84.066666681300092
  0
LINE
  8
_1-5_ア__ム
  6
DASHED1
 62
    4
 10
63.235303336755351
 20
84.800000014633383
 11
63.235303336755351
 21
84.066666681300092
  0
LINE
  8
_1-5_ア__ム
  6
CONTINUOUS
 62
    4
 10
127.90197000342164
 20
85.733333333333292
 11
127.90197000342164
 21
82.066666759800171
  0
ARC
  8
_1-5_ア__ム
  6
CONTINUOUS
 62
    4
 10
126.23530333675501
 20
82.066666759800171
 40
1.6666666666666665
 50
270
 51
0
  0
LINE
  8
_1-5_ア__ム
  6
CONTINUOUS
 62
    4
 10
53.901970003421752
 20
85.733333333333292
 11
127.90197000342164
 21
85.733333333333292
  0
LINE
  8
_1-5_ア__ム
  6
DASHED1
 62
    4
 10
53.901970003421752
 20
84.80000001463344
 11
127.90197000342164
 21
84.80000001463344
  0
LINE
  8
_1-5_ア__ム
  6
DASHED1
 62
    4
 10
53.901970003421752
 20
84.066666681300092
 11
127.90197000342164
 21
84.066666681300092
  0
LINE
  8
_1-5_ア__ム
  6
CONTINUOUS
 62
    4
 10
55.568636670088381
 20
80.400000093133428
 11
126.23530333675501
 21
80.400000093133428
  0
ENDBLK
  0
BLOCK
  2
-026-_26_
 70
   64
 10
0
 20
0
 30
0
  0
LINE
  8
_1-8_小物
  6
CONTINUOUS
 62
    4
 10
127.66863674955607
 20
79.500000000000114
 11
121.66863674955584
 21
79.500000000000114
  0
LINE
  8
_1-8_小物
  6
CONTINUOUS
 62
    4
 10
127.66863674955607
 20
79.000000000000114
 11
121.66863674955584
 21
79.000000000000114
  0
LINE
  8
_1-8_小物
  6
CONTINUOUS
 62
    4
 10
127.66863674955607
 20
79.500000000000114
 11
127.66863674955607
 21
79.000000000000114
  0
LINE
  8
_1-8_小物
  6
CONTINUOUS
 62
    4
 10
121.66863674955584
 20
79.500000000000114
 11
121.66863674955584
 21
79.000000000000114
  0
LINE
  8
_1-8_小物
  6
CONTINUOUS
 62
    4
 10
126.16863674955607
 20
79.500000000000114
 11
126.13233248828931
 21
79.914959605000149
  0
LINE
  8
_1-8_小物
  6
CONTINUOUS
 62
    4
 10
123.2049410107893
 20
79.914959605000149
 11
123.16863674955607
 21
79.500000000000114
  0
ARC
  8
_1-8_小物
  6
CONTINUOUS
 62
    4
 10
123.53368526118902
 20
79.886198209900044
 40
0.3299999999999999
 50
127.36755803205445
 51
175.00000000120406
  0
ARC
  8
_1-8_小物
  6
CONTINUOUS
 62
    4
 10
125.80358823792267
 20
79.886198209900044
 40
0.3299999999999999
 50
4.9999999987967998
 51
52.632441967931719
  0
ARC
  8
_1-8_小物
  6
CONTINUOUS
 62
    4
 10
124.66863674955584
 20
78.400000000000091
 40
2.1999999999999997
 50
52.632441967705518
 51
68.266383543398845
  0
ARC
  8
_1-8_小物
  6
CONTINUOUS
 62
    4
 10
124.66863674955584
 20
78.400000000000091
 40
2.1999999999999997
 50
111.74840859090097
 51
127.36755803230352
  0
LINE
  8
_1-8_小物
  6
CONTINUOUS
 62
    4
 10
124.77363674955598
 20
80.586375709866843
 11
124.77363674955598
 21
80.441104079866705
  0
LINE
  8
_1-8_小物
  6
CONTINUOUS
 62
    4
 10
124.88939964352289
 20
80.586375709866843
 11
124.77363674955598
 21
80.586375709866843
  0
LINE
  8
_1-8_小物
  6
CONTINUOUS
 62
    4
 10
125.48280450572258
 20
80.441104079866705
 11
124.88939964352289
 21
80.586375709866843
  0
LINE
  8
_1-8_小物
  6
CONTINUOUS
 62
    4
 10
124.44787385555594
 20
80.586375709866843
 11
124.0145704329891
 21
80.497897102733532
  0
LINE
  8
_1-8_小物
  6
CONTINUOUS
 62
    4
 10
124.0145704329891
 20
80.497897102733532
 11
123.85446899335625
 21
80.441104079866705
  0
LINE
  8
_1-8_小物
  6
CONTINUOUS
 62
    4
 10
124.56363674955594
 20
80.586375709866843
 11
124.44787385555594
 21
80.586375709866843
  0
LINE
  8
_1-8_小物
  6
CONTINUOUS
 62
    4
 10
124.56363674955594
 20
80.441104079866705
 11
124.56363674955594
 21
80.586375709866843
  0
LINE
  8
_1-8_小物
  6
CONTINUOUS
 62
    4
 10
124.77363674955598
 20
80.441104079866705
 11
124.66863674955584
 21
80.442805804666818
  0
LINE
  8
_1-8_小物
  6
CONTINUOUS
 62
    4
 10
124.66863674955584
 20
80.442805804666818
 11
124.56363674955594
 21
80.441104079866705
  0
LINE
  8
_1-8_小物
  6
CONTINUOUS
 62
    4
 10
126.13233248828931
 20
79.914959605000149
 11
123.2049410107893
 21
79.914959605000149
  0
LINE
  8
_1-8_小物
  6
CONTINUOUS
 62
    4
 10
124.66863674955584
 20
80.148468482233511
 11
123.33339970438919
 21
80.148468482233511
  0
LINE
  8
_1-8_小物
  6
CONTINUOUS
 62
    4
 10
126.00387379468941
 20
80.148468482233511
 11
124.66863674955584
 21
80.148468482233511
  0
ENDBLK
  0
BLOCK
  2
-027-_27_
 70
   64
 10
0
 20
0
 30
0
  0
LINE
  8
_1-8_小物
  6
CONTINUOUS
 62
    4
 10
48.168636670089484
 20
86.833333333332945
 11
48.168636670089484
 21
92.833333333333258
  0
LINE
  8
_1-8_小物
  6
CONTINUOUS
 62
    4
 10
47.668636670089484
 20
86.833333333332945
 11
47.668636670089484
 21
92.833333333333258
  0
LINE
  8
_1-8_小物
  6
CONTINUOUS
 62
    4
 10
48.168636670089484
 20
86.833333333332945
 11
47.668636670089484
 21
86.833333333332945
  0
LINE
  8
_1-8_小物
  6
CONTINUOUS
 62
    4
 10
48.168636670089484
 20
92.833333333333258
 11
47.668636670089484
 21
92.833333333333258
  0
LINE
  8
_1-8_小物
  6
CONTINUOUS
 62
    4
 10
48.168636670089484
 20
88.333333333332945
 11
48.583596275089519
 21
88.369637594599794
  0
LINE
  8
_1-8_小物
  6
CONTINUOUS
 62
    4
 10
48.583596275089519
 20
91.297029072099804
 11
48.168636670089484
 21
91.333333333332945
  0
ARC
  8
_1-8_小物
  6
CONTINUOUS
 62
    4
 10
48.554834879989414
 20
90.968284821700081
 40
0.3299999999999999
 50
37.367558032050525
 51
85.000000001203631
  0
ARC
  8
_1-8_小物
  6
CONTINUOUS
 62
    4
 10
48.554834879989414
 20
88.698381844966434
 40
0.3299999999999999
 50
274.99999999879594
 51
322.63244196794557
  0
ARC
  8
_1-8_小物
  6
CONTINUOUS
 62
    4
 10
47.068636670089461
 20
89.833333333333258
 40
2.1999999999999997
 50
322.63244196770438
 51
338.26638354339775
  0
ARC
  8
_1-8_小物
  6
CONTINUOUS
 62
    4
 10
47.068636670089461
 20
89.833333333333258
 40
2.1999999999999997
 50
21.74840859090288
 51
37.367558032305141
  0
LINE
  8
_1-8_小物
  6
CONTINUOUS
 62
    4
 10
49.255012379956213
 20
89.728333333333126
 11
49.109740749956075
 21
89.728333333333126
  0
LINE
  8
_1-8_小物
  6
CONTINUOUS
 62
    4
 10
49.255012379956213
 20
89.612570439366124
 11
49.255012379956213
 21
89.728333333333126
  0
LINE
  8
_1-8_小物
  6
CONTINUOUS
 62
    4
 10
49.109740749956075
 20
89.019165577166518
 11
49.255012379956213
 21
89.612570439366124
  0
LINE
  8
_1-8_小物
  6
CONTINUOUS
 62
    4
 10
49.255012379956213
 20
90.054096227333162
 11
49.166533772822902
 21
90.487399649899913
  0
LINE
  8
_1-8_小物
  6
CONTINUOUS
 62
    4
 10
49.166533772822902
 20
90.487399649899913
 11
49.109740749956075
 21
90.647501089532767
  0
LINE
  8
_1-8_小物
  6
CONTINUOUS
 62
    4
 10
49.255012379956213
 20
89.938333333333162
 11
49.255012379956213
 21
90.054096227333162
  0
LINE
  8
_1-8_小物
  6
CONTINUOUS
 62
    4
 10
49.109740749956075
 20
89.938333333333162
 11
49.255012379956213
 21
89.938333333333162
  0
LINE
  8
_1-8_小物
  6
CONTINUOUS
 62
    4
 10
49.109740749956075
 20
89.728333333333126
 11
49.111442474756188
 21
89.833333333333258
  0
LINE
  8
_1-8_小物
  6
CONTINUOUS
 62
    4
 10
49.111442474756188
 20
89.833333333333258
 11
49.109740749956075
 21
89.938333333333162
  0
LINE
  8
_1-8_小物
  6
CONTINUOUS
 62
    4
 10
48.583596275089519
 20
88.369637594599794
 11
48.583596275089519
 21
91.297029072099804
  0
LINE
  8
_1-8_小物
  6
CONTINUOUS
 62
    4
 10
48.817105152322881
 20
89.833333333333258
 11
48.817105152322881
 21
91.168570378499908
  0
LINE
  8
_1-8_小物
  6
CONTINUOUS
 62
    4
 10
48.817105152322881
 20
88.49809628819969
 11
48.817105152322881
 21
89.833333333333258
  0
ENDBLK
  0
BLOCK
  2
-028-_28_
 70
   64
 10
0
 20
0
 30
0
  0
ARC
  8
_1-8_小物
  6
CONTINUOUS
 62
    4
 10
-49.999999999993349
 20
81.933333333333422
 40
0.0999999999999999
 50
179.99999999998371
 51
270
  0
ARC
  8
_1-8_小物
  6
CONTINUOUS
 62
    4
 10
-47.333333333326692
 20
81.166666666666771
 40
0.1666666666666666
 50
0
 51
90
  0
LINE
  8
_1-8_小物
  6
CONTINUOUS
 62
    4
 10
-50.099999999993372
 20
82.500000000000114
 11
-50.099999999993372
 21
81.933333333333422
  0
LINE
  8
_1-8_小物
  6
CONTINUOUS
 62
    4
 10
-46.666666666660035
 20
80.833333333333428
 11
-46.928133894902999
 21
77.844749239058217
  0
ARC
  8
_1-8_小物
  6
CONTINUOUS
 62
    4
 10
-47.260198794266898
 20
77.873801153307454
 40
0.3333333333333333
 50
116.53346871300454
 51
354.99999999999676
  0
ARC
  8
_1-8_小物
  6
CONTINUOUS
 62
    4
 10
-47.558012463087493
 20
78.470250198162091
 40
0.3333333333333333
 50
296.53346871300454
 51
358.57633437500238
  0
LINE
  8
_1-8_小物
  6
CONTINUOUS
 62
    4
 10
-47.166666666660035
 20
80.800354300154822
 11
-47.224782025433285
 21
78.461968499550437
  0
LINE
  8
_1-8_小物
  6
CONTINUOUS
 62
    4
 10
-47.166666666660035
 20
81.166666666666771
 11
-47.166666666660035
 21
80.800354300154822
  0
LINE
  8
_1-8_小物
  6
CONTINUOUS
 62
    4
 10
-49.999999999993349
 20
81.333333333333428
 11
-47.333333333326692
 21
81.333333333333428
  0
ARC
  8
_1-8_小物
  6
CONTINUOUS
 62
    4
 10
-49.999999999993349
 20
81.933333333333422
 40
0.5999999999999999
 50
179.9999999999973
 51
270
  0
LINE
  8
_1-8_小物
  6
CONTINUOUS
 62
    4
 10
-49.999999999993349
 20
81.833333333333428
 11
-46.999999999993349
 21
81.833333333333428
  0
LINE
  8
_1-8_小物
  6
CONTINUOUS
 62
    4
 10
-46.666666666660035
 20
80.833333333333428
 11
-46.666666666660035
 21
81.500000000000114
  0
ARC
  8
_1-8_小物
  6
CONTINUOUS
 62
    4
 10
-46.999999999993349
 20
81.500000000000114
 40
0.3333333333333333
 50
0
 51
90
  0
LINE
  8
_1-8_小物
  6
CONTINUOUS
 62
    4
 10
-50.599999999993372
 20
82.500000000000114
 11
-50.599999999993372
 21
81.933333333333422
  0
LINE
  8
_1-8_小物
  6
CONTINUOUS
 62
    4
 10
-49.633333333326703
 20
82.500000000000114
 11
-48.833333333326692
 21
82.500000000000114
  0
ARC
  8
_1-8_小物
  6
CONTINUOUS
 62
    4
 10
-47.75227203179486
 20
83.210183000947382
 40
0.1666666666666662
 50
339.99999999999216
 51
160.00000000001387
  0
LINE
  8
_1-8_小物
  6
CONTINUOUS
 62
    4
 10
-47.766666666660029
 20
82.683333333333451
 11
-47.595656594997195
 21
83.153179643726418
  0
LINE
  8
_1-8_小物
  6
CONTINUOUS
 62
    4
 10
-48.833333333326692
 20
82.500000000000114
 11
-48.166666666660035
 21
82.583333333333485
  0
LINE
  8
_1-8_小物
  6
CONTINUOUS
 62
    4
 10
-48.166666666660035
 20
82.583333333333485
 11
-47.766666666660029
 21
82.683333333333451
  0
LINE
  8
_1-8_小物
  6
CONTINUOUS
 62
    4
 10
-47.969738326541091
 20
83.100000000000136
 11
-47.908887468592496
 21
83.267186358168317
  0
LINE
  8
_1-8_小物
  6
CONTINUOUS
 62
    4
 10
-49.999999999993349
 20
83.10000000000008
 11
-47.969738326541091
 21
83.100000000000136
  0
ARC
  8
_1-8_小物
  6
CONTINUOUS
 62
    4
 10
-49.999999999993349
 20
82.500000000000114
 40
0.5999999999999999
 50
90
 51
180
  0
LINE
  8
_1-8_小物
  6
CONTINUOUS
 62
    4
 10
-49.999999999993349
 20
82.60000000000008
 11
-49.633333333326703
 21
82.60000000000008
  0
LINE
  8
_1-8_小物
  6
CONTINUOUS
 62
    4
 10
-49.633333333326703
 20
82.60000000000008
 11
-49.633333333326703
 21
82.500000000000114
  0
ARC
  8
_1-8_小物
  6
CONTINUOUS
 62
    4
 10
-49.999999999993349
 20
82.500000000000114
 40
0.0999999999999999
 50
90
 51
180
  0
ENDBLK
  0
BLOCK
  2
-029-_29_
 70
   64
 10
0
 20
0
 30
0
  0
ARC
  8
_1-8_小物
  6
CONTINUOUS
 62
    4
 10
-150.00000000000634
 20
81.933333333333422
 40
0.0999999999999999
 50
270
 51
0
  0
ARC
  8
_1-8_小物
  6
CONTINUOUS
 62
    4
 10
-152.666666666673
 20
81.166666666666771
 40
0.1666666666666666
 50
90
 51
180
  0
LINE
  8
_1-8_小物
  6
CONTINUOUS
 62
    4
 10
-149.90000000000632
 20
82.500000000000114
 11
-149.90000000000632
 21
81.933333333333422
  0
LINE
  8
_1-8_小物
  6
CONTINUOUS
 62
    4
 10
-153.33333333333965
 20
80.833333333333428
 11
-153.07186610509669
 21
77.844749239058217
  0
ARC
  8
_1-8_小物
  6
CONTINUOUS
 62
    4
 10
-152.73980120573279
 20
77.873801153307454
 40
0.3333333333333333
 50
185.00000000000284
 51
63.466531286995462
  0
ARC
  8
_1-8_小物
  6
CONTINUOUS
 62
    4
 10
-152.44198753691219
 20
78.470250198162091
 40
0.3333333333333333
 50
181.42366562499757
 51
243.46653128699108
  0
LINE
  8
_1-8_小物
  6
CONTINUOUS
 62
    4
 10
-152.83333333333965
 20
80.800354300154822
 11
-152.7752179745664
 21
78.461968499550437
  0
LINE
  8
_1-8_小物
  6
CONTINUOUS
 62
    4
 10
-152.83333333333965
 20
81.166666666666771
 11
-152.83333333333965
 21
80.800354300154822
  0
LINE
  8
_1-8_小物
  6
CONTINUOUS
 62
    4
 10
-150.00000000000634
 20
81.333333333333428
 11
-152.666666666673
 21
81.333333333333428
  0
ARC
  8
_1-8_小物
  6
CONTINUOUS
 62
    4
 10
-150.00000000000634
 20
81.933333333333422
 40
0.5999999999999999
 50
270
 51
0
  0
LINE
  8
_1-8_小物
  6
CONTINUOUS
 62
    4
 10
-150.00000000000634
 20
81.833333333333428
 11
-153.00000000000634
 21
81.833333333333428
  0
LINE
  8
_1-8_小物
  6
CONTINUOUS
 62
    4
 10
-153.33333333333965
 20
80.833333333333428
 11
-153.33333333333965
 21
81.500000000000114
  0
ARC
  8
_1-8_小物
  6
CONTINUOUS
 62
    4
 10
-153.00000000000634
 20
81.500000000000114
 40
0.3333333333333333
 50
90
 51
180
  0
LINE
  8
_1-8_小物
  6
CONTINUOUS
 62
    4
 10
-149.40000000000632
 20
82.500000000000114
 11
-149.40000000000632
 21
81.933333333333422
  0
LINE
  8
_1-8_小物
  6
CONTINUOUS
 62
    4
 10
-150.36666666667298
 20
82.500000000000114
 11
-151.166666666673
 21
82.500000000000114
  0
ARC
  8
_1-8_小物
  6
CONTINUOUS
 62
    4
 10
-152.24772796820483
 20
83.210183000947382
 40
0.1666666666666662
 50
19.99999999998618
 51
200.00000000000787
  0
LINE
  8
_1-8_小物
  6
CONTINUOUS
 62
    4
 10
-152.23333333333966
 20
82.683333333333451
 11
-152.40434340500249
 21
83.153179643726418
  0
LINE
  8
_1-8_小物
  6
CONTINUOUS
 62
    4
 10
-151.166666666673
 20
82.500000000000114
 11
-151.83333333333965
 21
82.583333333333485
  0
LINE
  8
_1-8_小物
  6
CONTINUOUS
 62
    4
 10
-151.83333333333965
 20
82.583333333333485
 11
-152.23333333333966
 21
82.683333333333451
  0
LINE
  8
_1-8_小物
  6
CONTINUOUS
 62
    4
 10
-152.0302616734586
 20
83.100000000000136
 11
-152.09111253140719
 21
83.267186358168317
  0
LINE
  8
_1-8_小物
  6
CONTINUOUS
 62
    4
 10
-150.00000000000634
 20
83.10000000000008
 11
-152.0302616734586
 21
83.100000000000136
  0
ARC
  8
_1-8_小物
  6
CONTINUOUS
 62
    4
 10
-150.00000000000634
 20
82.500000000000114
 40
0.5999999999999999
 50
0
 51
90
  0
LINE
  8
_1-8_小物
  6
CONTINUOUS
 62
    4
 10
-150.00000000000634
 20
82.60000000000008
 11
-150.36666666667298
 21
82.60000000000008
  0
LINE
  8
_1-8_小物
  6
CONTINUOUS
 62
    4
 10
-150.36666666667298
 20
82.60000000000008
 11
-150.36666666667298
 21
82.500000000000114
  0
ARC
  8
_1-8_小物
  6
CONTINUOUS
 62
    4
 10
-150.00000000000634
 20
82.500000000000114
 40
0.0999999999999999
 50
0
 51
90
  0
ENDBLK
  0
BLOCK
  2
-030-_30_
 70
   64
 10
0
 20
0
 30
0
  0
ARC
  8
_1-8_小物
  6
CONTINUOUS
 62
    4
 10
129.66863666951713
 20
81.933333333333309
 40
0.0999999999999999
 50
180
 51
270
  0
ARC
  8
_1-8_小物
  6
CONTINUOUS
 62
    4
 10
132.33530333618376
 20
81.166666666666629
 40
0.1666666666666666
 50
0
 51
90
  0
LINE
  8
_1-8_小物
  6
CONTINUOUS
 62
    4
 10
129.5686366695171
 20
82.499999999999943
 11
129.5686366695171
 21
81.933333333333309
  0
LINE
  8
_1-8_小物
  6
CONTINUOUS
 62
    4
 10
133.00197000285044
 20
80.833333333333286
 11
132.74050277460748
 21
77.844749239058046
  0
ARC
  8
_1-8_小物
  6
CONTINUOUS
 62
    4
 10
132.40843787524352
 20
77.873801153307255
 40
0.3333333333333333
 50
116.53346871299578
 51
355.00000000000244
  0
ARC
  8
_1-8_小物
  6
CONTINUOUS
 62
    4
 10
132.11062420642298
 20
78.470250198161949
 40
0.3333333333333333
 50
296.53346871300454
 51
358.57633437499754
  0
LINE
  8
_1-8_小物
  6
CONTINUOUS
 62
    4
 10
132.50197000285044
 20
80.800354300154652
 11
132.44385464407719
 21
78.461968499550267
  0
LINE
  8
_1-8_小物
  6
CONTINUOUS
 62
    4
 10
132.50197000285044
 20
81.166666666666629
 11
132.50197000285044
 21
80.800354300154652
  0
LINE
  8
_1-8_小物
  6
CONTINUOUS
 62
    4
 10
129.66863666951713
 20
81.333333333333286
 11
132.33530333618376
 21
81.333333333333286
  0
ARC
  8
_1-8_小物
  6
CONTINUOUS
 62
    4
 10
129.66863666951713
 20
81.933333333333309
 40
0.5999999999999999
 50
180
 51
270
  0
LINE
  8
_1-8_小物
  6
CONTINUOUS
 62
    4
 10
129.66863666951713
 20
81.833333333333286
 11
132.66863666951713
 21
81.833333333333286
  0
LINE
  8
_1-8_小物
  6
CONTINUOUS
 62
    4
 10
133.00197000285044
 20
80.833333333333286
 11
133.00197000285044
 21
81.499999999999943
  0
ARC
  8
_1-8_小物
  6
CONTINUOUS
 62
    4
 10
132.66863666951713
 20
81.499999999999943
 40
0.3333333333333333
 50
0
 51
90
  0
LINE
  8
_1-8_小物
  6
CONTINUOUS
 62
    4
 10
129.0686366695171
 20
82.499999999999943
 11
129.0686366695171
 21
81.933333333333309
  0
LINE
  8
_1-8_小物
  6
CONTINUOUS
 62
    4
 10
130.03178661040965
 20
82.449338724116075
 11
130.82411375417519
 21
82.33880503127844
  0
ARC
  8
_1-8_小物
  6
CONTINUOUS
 62
    4
 10
131.99293045787942
 20
82.89280949483998
 40
0.1666666666666662
 50
332.05820099376865
 51
152.05820099375944
  0
LINE
  8
_1-8_小物
  6
CONTINUOUS
 62
    4
 10
131.90588058380456
 20
82.373001744607933
 11
132.14016779554152
 21
82.814713757594319
  0
LINE
  8
_1-8_小物
  6
CONTINUOUS
 62
    4
 10
130.82411375417519
 20
82.33880503127844
 11
131.49590030031709
 21
82.32922769805603
  0
LINE
  8
_1-8_小物
  6
CONTINUOUS
 62
    4
 10
131.49590030031709
 20
82.32922769805603
 11
131.90588058380456
 21
82.373001744607933
  0
LINE
  8
_1-8_小物
  6
CONTINUOUS
 62
    4
 10
131.76232623017415
 20
82.813729957582439
 11
131.84569312021733
 21
82.97090523208567
  0
ARC
  8
_1-8_小物
  6
CONTINUOUS
 62
    4
 10
129.66863666951713
 20
82.499999999999943
 40
0.5999999999999999
 50
82.058200993765752
 51
180
  0
LINE
  8
_1-8_小物
  6
CONTINUOUS
 62
    4
 10
129.7515369391453
 20
83.094245357824121
 11
131.76232623017415
 21
82.813729957582439
  0
ARC
  8
_1-8_小物
  6
CONTINUOUS
 62
    4
 10
129.66863666951713
 20
82.499999999999943
 40
0.0999999999999999
 50
82.058200993759996
 51
180
  0
LINE
  8
_1-8_小物
  6
CONTINUOUS
 62
    4
 10
129.68245338112183
 20
82.599040892970635
 11
130.04560332201436
 21
82.548379617086766
  0
LINE
  8
_1-8_小物
  6
CONTINUOUS
 62
    4
 10
130.04560332201436
 20
82.548379617086766
 11
130.03178661040965
 21
82.449338724116075
  0
ENDBLK
  0
ENDSEC
  0
SECTION
  2
ENTITIES
  0
LINE
  8
_0-0_図面枠
  6
CONTINUOUS
 62
    6
 10
410.00000000000006
 20
287
 11
10
 21
287.00000000000006
  0
LINE
  8
_0-0_図面枠
  6
CONTINUOUS
 62
    6
 10
410
 20
9.9999999999998863
 11
410.00000000000006
 21
287
  0
LINE
  8
_0-0_図面枠
  6
CONTINUOUS
 62
    6
 10
9.9999999999999147
 20
10
 11
410
 21
9.9999999999998863
  0
LINE
  8
_0-0_図面枠
  6
CONTINUOUS
 62
    6
 10
10
 20
287.00000000000006
 11
9.9999999999999147
 21
10
  0
LINE
  8
ADD_LINE
  6
DOT
 62
    4
 10
0
 20
148.5
 11
420
 21
148.5
  0
LINE
  8
_0-0_図面枠
  6
CONTINUOUS
 62
    6
 10
210
 20
287
 11
210.00000000000003
 21
9.9999999999999432
  0
TEXT
  8
_0-0_図面枠
 62
    4
 10
20
 20
280
 40
3.2000000000000002
 41
1
 50
0
  1
（アルミ２００タイプ）
  0
TEXT
  8
_0-0_図面枠
 62
    4
 10
30
 20
270
 40
3.2000000000000002
 41
1
 50
0
  1
◇外壁＋外壁（２００ＳＳＧ－Ａ）　Ｓ＝１／３
  0
TEXT
  8
_0-0_図面枠
 62
    4
 10
230
 20
270
 40
3.2000000000000002
 41
1
 50
0
  1
◇外壁＋外壁コーナー（２００ＳＣＧ－Ａ）　Ｓ＝１／３
  0
TEXT
  8
_0-0_図面枠
 62
    4
 10
220
 20
280
 40
3.2000000000000002
 41
1
 50
0
  1
（アルミ２００タイプ）
  0
LINE
  8
_1-0_躯体
  6
CENTER2
 62
    4
 10
65.00000007946656
 20
233.07179397977319
 11
65.00000007946656
 21
210
  0
LINE
  8
_1-0_躯体
  6
CENTER2
 62
    4
 10
155.00000007946724
 20
233.07179397977319
 11
155.00000007946724
 21
210
  0
LINE
  8
_1-3_止水補助板
  6
CONTINUOUS
 62
    4
 10
160.00000000000037
 20
226.66666666666666
 11
160.00000000000037
 21
226.99999999999994
  0
LINE
  8
_1-3_止水補助板
  6
CONTINUOUS
 62
    4
 10
60.000000000000369
 20
226.66666666666666
 11
60.000000000000369
 21
226.99999999999994
  0
ARC
  8
_1-3_止水補助板
  6
CONTINUOUS
 62
    4
 10
110.00000000000075
 20
183.83449739386845
 40
21.111746392113268
 50
195.00000000000026
 51
345.00000000000011
  0
ARC
  8
_1-3_止水補助板
  6
CONTINUOUS
 62
    4
 10
110.00000000000075
 20
183.83449739386845
 40
20.778413058779936
 50
195.00000000000023
 51
345.00000000000017
  0
LINE
  8
_1-3_止水補助板
  6
CONTINUOUS
 62
    4
 10
143.3333333333334
 20
226.66666666666666
 11
160.00000000000037
 21
226.66666666666666
  0
LINE
  8
_1-3_止水補助板
  6
CONTINUOUS
 62
    4
 10
143.3333333333334
 20
226.66666666666666
 11
130.39238107820793
 21
178.37037535221509
  0
LINE
  8
_1-3_止水補助板
  6
CONTINUOUS
 62
    4
 10
143.0775576706738
 20
226.99999999999994
 11
160.00000000000037
 21
226.99999999999994
  0
LINE
  8
_1-3_止水補助板
  6
CONTINUOUS
 62
    4
 10
143.0775576706738
 20
226.99999999999994
 11
130.07040580277823
 21
178.45664836724927
  0
LINE
  8
_1-3_止水補助板
  6
CONTINUOUS
 62
    4
 10
76.666666666667936
 20
226.66666666666666
 11
60.000000000000369
 21
226.66666666666666
  0
LINE
  8
_1-3_止水補助板
  6
CONTINUOUS
 62
    4
 10
76.666666666667936
 20
226.66666666666666
 11
89.607618921793417
 21
178.37037535221509
  0
LINE
  8
_1-3_止水補助板
  6
CONTINUOUS
 62
    4
 10
76.92244232932768
 20
226.99999999999994
 11
60.000000000000369
 21
226.99999999999994
  0
LINE
  8
_1-3_止水補助板
  6
CONTINUOUS
 62
    4
 10
76.92244232932768
 20
226.99999999999994
 11
89.929594197223111
 21
178.45664836724927
  0
INSERT
  2
-000-
  8
_1-4_フレ__ム
 10
210
 20
148.5
 41
1
 42
1
 50
0
  0
INSERT
  2
-001-_1_
  8
_1-8_小物
 10
210
 20
148.5
 41
1
 42
1
 50
0
  0
INSERT
  2
-002-_2_
  8
_1-8_小物
 10
210
 20
148.5
 41
1
 42
1
 50
0
  0
INSERT
  2
-003-_3_
  8
_1-8_小物
 10
210
 20
148.5
 41
1
 42
1
 50
0
  0
INSERT
  2
-004-_4_
  8
_1-8_小物
 10
210
 20
148.5
 41
1
 42
1
 50
0
  0
LINE
  8
_1-0_躯体
  6
CENTER2
 62
    4
 10
110.00000000000014
 20
153.33333333333329
 11
110.00000000000014
 21
240
  0
LINE
  8
_1-0_躯体
  6
CONTINUOUS
 62
    6
 10
53.3333333333334
 20
226.66666666666666
 11
76.666666666666742
 21
226.66666666666666
  0
LINE
  8
_1-0_躯体
  6
CONTINUOUS
 62
    6
 10
166.66666666666674
 20
226.66666666666666
 11
143.3333333333334
 21
226.66666666666666
  0
LINE
  8
_1-0_躯体
  6
CONTINUOUS
 62
    6
 10
76.666666666666742
 20
226.66666666666666
 11
76.666666666666742
 21
153.33333333333329
  0
LINE
  8
_1-0_躯体
  6
CONTINUOUS
 62
    6
 10
143.3333333333334
 20
226.66666666666666
 11
143.3333333333334
 21
153.33333333333329
  0
LINE
  8
_1-f_寸法
  6
CONTINUOUS
 62
    4
 10
143.3333333333334
 20
149.99999999999994
 11
143.3333333333334
 21
138.39999999999995
  0
LINE
  8
_1-f_寸法
  6
CONTINUOUS
 62
    4
 10
76.666666666666657
 20
149.99999999999994
 11
76.666666666666657
 21
138.39999999999995
  0
POINT
  8
_1-f_寸法
 62
    4
 10
76.666666666666657
 20
139.99999999999994
  0
POINT
  8
_1-f_寸法
 62
    4
 10
143.3333333333334
 20
139.99999999999994
  0
LINE
  8
_1-f_寸法
  6
CONTINUOUS
 62
    4
 10
76.666666666666657
 20
139.99999999999994
 11
143.3333333333334
 21
139.99999999999994
  0
TEXT
  8
_1-f_寸法
 62
    4
 10
107.60000000000004
 20
139.99999999999994
 40
3.2000000000000002
 41
1
 50
0
  1
200
  0
LINE
  8
_1-f_寸法
  6
CONTINUOUS
 62
    4
 10
143.33333333333144
 20
211.66666666666666
 11
143.33333333333144
 21
205.06666666666666
  0
LINE
  8
_1-f_寸法
  6
CONTINUOUS
 62
    4
 10
154.9999999999981
 20
211.66666666666666
 11
154.9999999999981
 21
205.06666666666666
  0
POINT
  8
_1-f_寸法
 62
    4
 10
154.9999999999981
 20
206.66666666666666
  0
POINT
  8
_1-f_寸法
 62
    4
 10
143.33333333333144
 20
206.66666666666666
  0
LINE
  8
_1-f_寸法
  6
CONTINUOUS
 62
    4
 10
154.9999999999981
 20
206.66666666666666
 11
143.33333333333144
 21
206.66666666666666
  0
TEXT
  8
_1-f_寸法
 62
    4
 10
147.56666666666476
 20
206.66666666666666
 40
3.2000000000000002
 41
1
 50
0
  1
35
  0
LINE
  8
_1-f_寸法
  6
CONTINUOUS
 62
    4
 10
168.33333333333331
 20
226.66666666666666
 11
174.93333333333328
 21
226.66666666666666
  0
LINE
  8
_1-f_寸法
  6
CONTINUOUS
 62
    4
 10
168.33333333333331
 20
235
 11
174.93333333333328
 21
235
  0
POINT
  8
_1-f_寸法
 62
    4
 10
173.33333333333329
 20
235
  0
POINT
  8
_1-f_寸法
 62
    4
 10
173.33333333333329
 20
226.66666666666666
  0
LINE
  8
_1-f_寸法
  6
CONTINUOUS
 62
    4
 10
173.33333333333329
 20
235
 11
173.33333333333329
 21
226.66666666666666
  0
TEXT
  8
_1-f_寸法
 62
    4
 10
173.33333333333329
 20
229.23333333333335
 40
3.2000000000000002
 41
1
 50
90
  1
25
  0
CIRCLE
  8
_1-f_寸法
  6
CONTINUOUS
 62
    4
 10
166.66666674613322
 20
231.66666666666666
 40
1.6666666666666665
  0
CIRCLE
  8
_1-f_寸法
  6
CONTINUOUS
 62
    4
 10
166.66666674613322
 20
231.66666666666666
 40
1.6666666666666665
  0
LINE
  8
_1-f_寸法
  6
CONTINUOUS
 62
    4
 10
165.48815544415567
 20
230.48815536468911
 11
163.16666674613322
 21
228.16666666666666
  0
TEXT
  8
_1-f_寸法
 62
    4
 10
165.41666674613322
 20
230.41666666666666
 40
2.5
 41
1
 50
0
  1
11
  0
CIRCLE
  8
_1-f_寸法
  6
CONTINUOUS
 62
    4
 10
148.3333334127999
 20
221.66666666666666
 40
1.6666666666666665
  0
CIRCLE
  8
_1-f_寸法
  6
CONTINUOUS
 62
    4
 10
161.66666674613322
 20
215
 40
1.6666666666666665
  0
CIRCLE
  8
_1-f_寸法
  6
CONTINUOUS
 62
    4
 10
161.66666674613322
 20
221.66666666666666
 40
1.6666666666666665
  0
TEXT
  8
_1-f_寸法
 62
    4
 10
161.04166674613322
 20
220.41666666666666
 40
2.5
 41
1
 50
0
  1
8
  0
TEXT
  8
_1-f_寸法
 62
    4
 10
147.7083334127999
 20
220.41666666666666
 40
2.5
 41
1
 50
0
  1
9
  0
TEXT
  8
_1-f_寸法
 62
    4
 10
160.41666674613322
 20
213.75
 40
2.5
 41
1
 50
0
  1
10
  0
LINE
  8
_1-f_寸法
  6
CONTINUOUS
 62
    4
 10
149.35343998111594
 20
222.98468046289804
 11
153.04166674613322
 21
227.75
  0
LINE
  8
_1-f_寸法
  6
CONTINUOUS
 62
    4
 10
160.50555769424119
 20
222.8623269643233
 11
155.00000007946656
 21
228.53171404361674
  0
LINE
  8
_1-f_寸法
  6
CONTINUOUS
 62
    4
 10
160.70179688099915
 20
216.35897164103372
 11
155.75000007946642
 21
223.33333333333326
  0
LINE
  8
_1-f_寸法
  6
CONTINUOUS
 62
    4
 10
76.666666666667112
 20
211.66666666666663
 11
76.666666666667112
 21
205.06666666666663
  0
LINE
  8
_1-f_寸法
  6
CONTINUOUS
 62
    4
 10
65.000000000000369
 20
211.66666666666663
 11
65.000000000000369
 21
205.06666666666663
  0
POINT
  8
_1-f_寸法
 62
    4
 10
65.000000000000369
 20
206.66666666666663
  0
POINT
  8
_1-f_寸法
 62
    4
 10
76.666666666667112
 20
206.66666666666663
  0
LINE
  8
_1-f_寸法
  6
CONTINUOUS
 62
    4
 10
65.000000000000369
 20
206.66666666666663
 11
76.666666666667112
 21
206.66666666666663
  0
TEXT
  8
_1-f_寸法
 62
    4
 10
69.233333333333746
 20
206.66666666666663
 40
3.2000000000000002
 41
1
 50
0
  1
35
  0
CIRCLE
  8
_1-f_寸法
  6
CONTINUOUS
 62
    4
 10
53.333333253865305
 20
231.66666666666663
 40
1.6666666666666665
  0
CIRCLE
  8
_1-f_寸法
  6
CONTINUOUS
 62
    4
 10
53.333333253865305
 20
231.66666666666663
 40
1.6666666666666665
  0
LINE
  8
_1-f_寸法
  6
CONTINUOUS
 62
    4
 10
54.511844555842856
 20
230.48815536468908
 11
56.833333253865305
 21
228.16666666666663
  0
TEXT
  8
_1-f_寸法
 62
    4
 10
52.083333253865305
 20
230.41666666666663
 40
2.5
 41
1
 50
0
  1
11
  0
CIRCLE
  8
_1-f_寸法
  6
CONTINUOUS
 62
    4
 10
71.666666587198648
 20
221.66666666666663
 40
1.6666666666666665
  0
CIRCLE
  8
_1-f_寸法
  6
CONTINUOUS
 62
    4
 10
58.333333253865305
 20
214.99999999999994
 40
1.6666666666666665
  0
CIRCLE
  8
_1-f_寸法
  6
CONTINUOUS
 62
    4
 10
58.333333253865305
 20
221.66666666666663
 40
1.6666666666666665
  0
TEXT
  8
_1-f_寸法
 62
    4
 10
57.708333253865305
 20
220.41666666666663
 40
2.5
 41
1
 50
0
  1
8
  0
TEXT
  8
_1-f_寸法
 62
    4
 10
71.041666587198648
 20
220.41666666666663
 40
2.5
 41
1
 50
0
  1
9
  0
TEXT
  8
_1-f_寸法
 62
    4
 10
57.083333253865305
 20
213.74999999999994
 40
2.5
 41
1
 50
0
  1
10
  0
LINE
  8
_1-f_寸法
  6
CONTINUOUS
 62
    4
 10
59.298203118999396
 20
216.35897164103369
 11
64.249999920532133
 21
223.3333333333332
  0
ARC
  8
_1-8_小物
  6
CONTINUOUS
 62
    4
 10
56.092400150872237
 20
228.7898147820971
 40
3.0129628785275182
 50
315.19701498034055
 51
344.80298501966291
  0
ARC
  8
_1-8_小物
  6
CONTINUOUS
 62
    4
 10
163.90760000806114
 20
228.7898147820969
 40
3.0129628785275182
 50
195.19701498033382
 51
224.80298501965711
  0
LINE
  8
_1-f_寸法
  6
CONTINUOUS
 62
    4
 10
163.33333333391161
 20
236.66666666666663
 11
163.33333333391161
 21
243.26666666666659
  0
LINE
  8
_1-f_寸法
  6
CONTINUOUS
 62
    4
 10
56.666666666666657
 20
236.66666666666663
 11
56.666666666666657
 21
243.26666666666659
  0
POINT
  8
_1-f_寸法
 62
    4
 10
56.666666666666657
 20
241.66666666666663
  0
POINT
  8
_1-f_寸法
 62
    4
 10
163.33333333391161
 20
241.66666666666663
  0
LINE
  8
_1-f_寸法
  6
CONTINUOUS
 62
    4
 10
56.666666666666657
 20
241.66666666666663
 11
163.33333333391161
 21
241.66666666666663
  0
TEXT
  8
_1-f_寸法
 62
    4
 10
107.60000000028914
 20
241.66666666666663
 40
3.2000000000000002
 41
1
 50
0
  1
320
  0
CIRCLE
  8
_1-f_寸法
  6
CONTINUOUS
 62
    4
 10
68.333333333327062
 20
238.33333333333326
 40
1.6666666666666665
  0
TEXT
  8
_1-f_寸法
 62
    4
 10
67.708333333327062
 20
237.08333333333326
 40
2.5
 41
1
 50
0
  1
3
  0
LINE
  8
_1-f_寸法
  6
CONTINUOUS
 62
    4
 10
69.166666666660404
 20
236.88995766035919
 11
70.844806995853276
 21
233.98333334796681
  0
CIRCLE
  8
_1-f_寸法
  6
CONTINUOUS
 62
    4
 10
81.666666746126907
 20
238.33333333333326
 40
1.6666666666666665
  0
TEXT
  8
_1-f_寸法
 62
    4
 10
81.041666746126907
 20
237.08333333333326
 40
2.5
 41
1
 50
0
  1
4
  0
LINE
  8
_1-f_寸法
  6
CONTINUOUS
 62
    4
 10
80.833333412793564
 20
236.88995766035919
 11
75.268279767036233
 21
227.25100199906115
  0
CIRCLE
  8
_1-f_寸法
  6
CONTINUOUS
 62
    4
 10
76.66666666666049
 20
238.33333333333317
 40
1.6666666666666665
  0
TEXT
  8
_1-f_寸法
 62
    4
 10
76.04166666666049
 20
237.08333333333317
 40
2.5
 41
1
 50
0
  1
7
  0
LINE
  8
_1-f_寸法
  6
CONTINUOUS
 62
    4
 10
75.333333333327118
 20
237.33334510123191
 11
73.999999999993776
 21
236.33335686913057
  0
CIRCLE
  8
_1-f_寸法
  6
CONTINUOUS
 62
    4
 10
150.00000000057832
 20
238.33333333333317
 40
1.6666666666666665
  0
TEXT
  8
_1-f_寸法
 62
    4
 10
149.37500000057832
 20
237.08333333333317
 40
2.5
 41
1
 50
0
  1
7
  0
LINE
  8
_1-f_寸法
  6
CONTINUOUS
 62
    4
 10
148.66666666724498
 20
237.33334510123191
 11
147.33333333391161
 21
236.33335686913057
  0
CIRCLE
  8
_1-f_寸法
  6
CONTINUOUS
 62
    4
 10
141.66666666724507
 20
238.33333333333326
 40
1.6666666666666665
  0
TEXT
  8
_1-f_寸法
 62
    4
 10
141.04166666724507
 20
237.08333333333326
 40
2.5
 41
1
 50
0
  1
2
  0
CIRCLE
  8
_1-f_寸法
  6
CONTINUOUS
 62
    4
 10
135.00000000057835
 20
238.33333333333326
 40
1.6666666666666665
  0
TEXT
  8
_1-f_寸法
 62
    4
 10
134.37500000057835
 20
237.08333333333326
 40
2.5
 41
1
 50
0
  1
1
  0
LINE
  8
_1-f_寸法
  6
CONTINUOUS
 62
    4
 10
134.16666666724507
 20
236.88995766035919
 11
132.95048253035876
 21
234.78346494391295
  0
LINE
  8
_1-f_寸法
  6
CONTINUOUS
 62
    4
 10
140.83333333391172
 20
236.88995766035919
 11
138.70293386363244
 21
233.19999753741763
  0
CIRCLE
  8
_1-f_寸法
  6
CONTINUOUS
 62
    4
 10
155.00000000057835
 20
238.33333333333331
 40
1.6666666666666665
  0
TEXT
  8
_1-f_寸法
 62
    4
 10
154.37500000057835
 20
237.08333333333331
 40
2.5
 41
1
 50
0
  1
5
  0
LINE
  8
_1-f_寸法
  6
CONTINUOUS
 62
    4
 10
153.86734592127212
 20
237.11068354111617
 11
146.12206810017085
 21
228.75
  0
LINE
  8
_1-7_カバ__
  6
CONTINUOUS
 62
    4
 10
73.333333333327147
 20
234.92928932188136
 11
73.404044011445791
 21
235
  0
LINE
  8
_1-7_カバ__
  6
CONTINUOUS
 62
    4
 10
73.333333333327147
 20
234.92928932188136
 11
73.262622655208503
 21
235
  0
LINE
  8
_1-7_カバ__
  6
CONTINUOUS
 62
    4
 10
146.66666666667317
 20
234.92928932188136
 11
146.73737734479184
 21
235
  0
LINE
  8
_1-7_カバ__
  6
CONTINUOUS
 62
    4
 10
146.66666666667317
 20
234.92928932188136
 11
146.59595598855452
 21
235
  0
LINE
  8
_1-7_カバ__
  6
CONTINUOUS
 62
    4
 10
146.73737734479184
 20
235
 11
163.33333333391158
 21
235
  0
LINE
  8
_1-7_カバ__
  6
CONTINUOUS
 62
    4
 10
56.66666666666049
 20
235
 11
73.262622655208503
 21
235
  0
LINE
  8
_1-7_カバ__
  6
CONTINUOUS
 62
    4
 10
73.404044011445791
 20
235
 11
146.59595598855452
 21
235
  0
LINE
  8
_1-7_カバ__
  6
CONTINUOUS
 62
    4
 10
56.666664502523759
 20
230.33333333333337
 11
56.666664502523759
 21
235
  0
LINE
  8
_1-7_カバ__
  6
CONTINUOUS
 62
    4
 10
59.999997835856931
 20
230.33333333333337
 11
59.999997835856931
 21
231
  0
LINE
  8
_1-7_カバ__
  6
CONTINUOUS
 62
    4
 10
56.666664502523759
 20
230.33333333333337
 11
59.999997835856931
 21
230.33333333333337
  0
LINE
  8
_1-7_カバ__
  6
CONTINUOUS
 62
    4
 10
57.499997835857073
 20
231
 11
59.999997835856931
 21
231
  0
LINE
  8
_1-7_カバ__
  6
CONTINUOUS
 62
    4
 10
57.499997835857073
 20
231
 11
57.499997835857073
 21
234.23333333333335
  0
LINE
  8
_1-7_カバ__
  6
CONTINUOUS
 62
    4
 10
163.33333333333985
 20
230.33333333333337
 11
163.33333333333985
 21
235
  0
LINE
  8
_1-7_カバ__
  6
CONTINUOUS
 62
    4
 10
160.00000000000665
 20
230.33333333333337
 11
160.00000000000665
 21
231
  0
LINE
  8
_1-7_カバ__
  6
CONTINUOUS
 62
    4
 10
163.33333333333985
 20
230.33333333333337
 11
160.00000000000665
 21
230.33333333333337
  0
LINE
  8
_1-7_カバ__
  6
CONTINUOUS
 62
    4
 10
162.50000000000648
 20
231
 11
160.00000000000665
 21
231
  0
LINE
  8
_1-7_カバ__
  6
CONTINUOUS
 62
    4
 10
57.499997835857073
 20
234.23333333333335
 11
162.50000000000648
 21
234.23333333333335
  0
LINE
  8
_1-7_カバ__
  6
CONTINUOUS
 62
    4
 10
162.50000000000648
 20
231
 11
162.50000000000648
 21
234.23333333333335
  0
LINE
  8
_1-7_カバ__
  6
CENTER2
 62
    4
 10
109.9999989179318
 20
236.66666666666663
 11
109.9999989179318
 21
232.56666666666666
  0
LINE
  8
_1-7_カバ__
  6
CENTER2
 62
    4
 10
73.333332251258781
 20
236.66666666666663
 11
73.333332251258781
 21
232.56666666666666
  0
LINE
  8
_1-7_カバ__
  6
CENTER2
 62
    4
 10
146.6666655846048
 20
236.66666666666663
 11
146.6666655846048
 21
232.56666666666666
  0
LINE
  8
_1-7_カバ__
  6
DASHED1
 62
    4
 10
72.416665584592124
 20
235
 11
72.416665584592124
 21
234.23333333333335
  0
LINE
  8
_1-7_カバ__
  6
DASHED1
 62
    4
 10
74.249998917925438
 20
235
 11
74.249998917925438
 21
234.23333333333335
  0
LINE
  8
_1-7_カバ__
  6
DASHED1
 62
    4
 10
145.74999891793814
 20
235
 11
145.74999891793814
 21
234.23333333333335
  0
LINE
  8
_1-7_カバ__
  6
DASHED1
 62
    4
 10
147.58333225127149
 20
235
 11
147.58333225127149
 21
234.23333333333335
  0
LINE
  8
_1-f_寸法
  6
CONTINUOUS
 62
    4
 10
143.3333333333334
 20
226.66666666666666
 11
143.3333333333334
 21
205.06666666666666
  0
LINE
  8
_1-f_寸法
  6
CONTINUOUS
 62
    4
 10
124.66666674613376
 20
226.66666666666666
 11
124.66666674613376
 21
205.06666666666666
  0
POINT
  8
_1-f_寸法
 62
    4
 10
124.66666674613376
 20
206.66666666666666
  0
POINT
  8
_1-f_寸法
 62
    4
 10
143.3333333333334
 20
206.66666666666666
  0
LINE
  8
_1-f_寸法
  6
CONTINUOUS
 62
    4
 10
124.66666674613376
 20
206.66666666666666
 11
143.3333333333334
 21
206.66666666666666
  0
TEXT
  8
_1-f_寸法
 62
    4
 10
132.40000003973358
 20
206.66666666666666
 40
3.2000000000000002
 41
1
 50
0
  1
56
  0
LINE
  8
_1-f_寸法
  6
CONTINUOUS
 62
    4
 10
66.95833325386721
 20
228.25
 11
70.697124814696537
 21
223.02230914503298
  0
LINE
  8
_1-f_寸法
  6
CONTINUOUS
 62
    4
 10
65.000000000000057
 20
229.0317140436166
 11
59.451803695709145
 21
222.90230482102226
  0
LINE
  8
_1-6_ばね
  6
CENTER2
 62
    4
 10
63.983333412800135
 20
226.95000000731673
 11
63.983333412800135
 21
233.61666667398339
  0
LINE
  8
_1-6_ばね
  6
CENTER2
 62
    4
 10
67.316666746133478
 20
230.28333334065007
 11
60.650000079466793
 21
230.28333334065007
  0
CIRCLE
  8
_1-6_ばね
  6
CONTINUOUS
 62
    4
 10
63.983333412800135
 20
230.28333334065007
 40
1.4166666739834075
  0
LINE
  8
_1-6_ばね
  6
CONTINUOUS
 62
    4
 10
64.985068024654794
 20
229.28159872879542
 11
69.362454397882829
 21
233.65898510202345
  0
ARC
  8
_1-6_ばね
  6
CONTINUOUS
 62
    4
 10
70.588106151939513
 20
232.43333334796677
 40
1.7333333333333334
 50
90
 51
135
  0
LINE
  8
_1-6_ばね
  6
CONTINUOUS
 62
    4
 10
65.597893901683108
 20
228.66877285176707
 11
69.975280274911199
 21
233.04615922499514
  0
ARC
  8
_1-6_ばね
  6
CONTINUOUS
 62
    4
 10
70.588106151939513
 20
232.43333334796682
 40
0.8666666666666667
 50
90
 51
134.99999999999866
  0
ARC
  8
_1-6_ばね
  6
CENTER2
 62
    4
 10
70.588106151939598
 20
232.43333334796682
 40
1.2999999999999998
 50
90
 51
135
  0
LINE
  8
_1-6_ばね
  6
CONTINUOUS
 62
    4
 10
80.633333412800084
 20
230.16666668130011
 11
81.466666746133455
 21
230.16666668130011
  0
LINE
  8
_1-6_ばね
  6
CONTINUOUS
 62
    4
 10
80.616666746133433
 20
230.16666668130011
 11
80.616666746133433
 21
232.43333334796682
  0
LINE
  8
_1-6_ばね
  6
CENTER2
 62
    4
 10
81.05000007946677
 20
230.16666668130011
 11
81.05000007946677
 21
232.43333334796682
  0
LINE
  8
_1-6_ばね
  6
CONTINUOUS
 62
    4
 10
81.483333412800107
 20
230.16666668130011
 11
81.483333412800107
 21
232.43333334796677
  0
ARC
  8
_1-6_ばね
  6
CONTINUOUS
 62
    4
 10
79.750000079466759
 20
232.43333334796677
 40
1.7333333333333334
 50
0
 51
90
  0
ARC
  8
_1-6_ばね
  6
CONTINUOUS
 62
    4
 10
79.750000079466759
 20
232.43333334796682
 40
0.8666666666666667
 50
0
 51
90
  0
ARC
  8
_1-6_ばね
  6
CENTER2
 62
    4
 10
79.750000079466759
 20
232.43333334796682
 40
1.2999999999999998
 50
0
 51
90
  0
LINE
  8
_1-6_ばね
  6
CONTINUOUS
 62
    4
 10
70.588106151939513
 20
234.16666668130011
 11
79.750000079466759
 21
234.16666668130011
  0
LINE
  8
_1-6_ばね
  6
CONTINUOUS
 62
    4
 10
70.588106151939513
 20
233.3000000146335
 11
79.750000079466759
 21
233.3000000146335
  0
LINE
  8
_1-6_ばね
  6
CENTER2
 62
    4
 10
70.588106151939598
 20
233.73333334796681
 11
79.750000079466759
 21
233.73333334796681
  0
LINE
  8
_1-6_ばね
  6
CENTER2
 62
    4
 10
65.291480963168965
 20
228.97518579028122
 11
69.668867336397085
 21
233.35257216350934
  0
ARC
  8
_1-6_ばね
  6
CONTINUOUS
 62
    4
 10
63.983333412800135
 20
230.28333334065007
 40
2.2833333406500742
 50
6.6518764977926335
 51
314.99999999999898
  0
ARC
  8
_1-6_ばね
  6
CENTER2
 62
    4
 10
63.983333412800135
 20
230.28333334065007
 40
1.8500000073167409
 50
355.02483380296678
 51
315
  0
LINE
  8
_1-6_ばね
  6
CONTINUOUS
 62
    4
 10
77.758894158620336
 20
227.61076766694362
 11
76.485037792589537
 21
229.94203194979838
  0
ARC
  8
_1-6_ばね
  6
CONTINUOUS
 62
    4
 10
75.724504795602684
 20
229.52645924664617
 40
0.8666666666666667
 50
28.653206084987097
 51
83.653206084990231
  0
LINE
  8
_1-6_ばね
  6
CENTER2
 62
    4
 10
78.139160657113791
 20
227.81855401851971
 11
76.865304291083021
 21
230.14981830137452
  0
LINE
  8
_1-6_ばね
  6
CONTINUOUS
 62
    4
 10
77.245570789576476
 20
230.35760465295061
 11
78.519427155607275
 21
228.02634037009582
  0
ARC
  8
_1-6_ばね
  6
CONTINUOUS
 62
    4
 10
75.724504795602684
 20
229.52645924664614
 40
1.7333333333333334
 50
28.653206084989577
 51
83.653206084987431
  0
ARC
  8
_1-6_ばね
  6
CENTER2
 62
    4
 10
75.724504795602684
 20
229.52645924664617
 40
1.2999999999999998
 50
28.653206084989055
 51
83.653206084987815
  0
LINE
  8
_0-0_図面枠
  6
CONTINUOUS
 62
    4
 10
182.14999999999998
 20
56.199999999999989
 11
40
 21
56.199999999999989
  0
LINE
  8
_0-0_図面枠
  6
CONTINUOUS
 62
    4
 10
182.14999999999998
 20
68.199999999999989
 11
40
 21
68.199999999999989
  0
LINE
  8
_0-0_図面枠
  6
CONTINUOUS
 62
    4
 10
182.14999999999998
 20
62.199999999999989
 11
40
 21
62.199999999999989
  0
LINE
  8
_0-0_図面枠
  6
CONTINUOUS
 62
    4
 10
182.14999999999998
 20
74.199999999999989
 11
40
 21
74.199999999999989
  0
LINE
  8
_0-0_図面枠
  6
CONTINUOUS
 62
    4
 10
182.14999999999998
 20
110.20000000000005
 11
40
 21
110.20000000000005
  0
LINE
  8
_0-0_図面枠
  6
CONTINUOUS
 62
    4
 10
182.14999999999998
 20
104.20000000000005
 11
40
 21
104.20000000000005
  0
LINE
  8
_0-0_図面枠
  6
CONTINUOUS
 62
    4
 10
182.14999999999998
 20
98.200000000000045
 11
40
 21
98.200000000000045
  0
LINE
  8
_0-0_図面枠
  6
CONTINUOUS
 62
    4
 10
182.14999999999998
 20
92.200000000000045
 11
40
 21
92.200000000000045
  0
LINE
  8
_0-0_図面枠
  6
CONTINUOUS
 62
    4
 10
182.14999999999998
 20
86.200000000000045
 11
40
 21
86.200000000000045
  0
LINE
  8
_0-0_図面枠
  6
CONTINUOUS
 62
    4
 10
182.14999999999998
 20
80.199999999999989
 11
40
 21
80.199999999999989
  0
LINE
  8
_0-0_図面枠
  6
CONTINUOUS
 62
    4
 10
182.14999999999998
 20
121
 11
40
 21
121
  0
LINE
  8
_0-0_図面枠
  6
CONTINUOUS
 62
    4
 10
182.14999999999998
 20
50.199999999999989
 11
40
 21
50.199999999999989
  0
LINE
  8
_0-0_図面枠
  6
CONTINUOUS
 62
    4
 10
182.14999999999998
 20
44.199999999999989
 11
40
 21
44.199999999999989
  0
TEXT
  8
_0-0_図面枠
 62
    4
 10
165.55126400000003
 20
116.20001049999996
 40
3.2000000000000002
 41
1
 50
0
  1
使用
  0
TEXT
  8
_0-0_図面枠
 62
    4
 10
150.50638249999997
 20
116.20001049999996
 40
3.2000000000000002
 41
1
 50
0
  1
定　尺
  0
TEXT
  8
_0-0_図面枠
 62
    4
 10
148.3435475
 20
111.40000399999997
 40
3.2000000000000002
 41
1
 50
0
  1
（ｍｍ）
  0
TEXT
  8
_0-0_図面枠
 62
    4
 10
165.55126400000003
 20
111.40000399999997
 40
3.2000000000000002
 41
1
 50
0
  1
数量
  0
TEXT
  8
_0-0_図面枠
 62
    4
 10
40.497068000000013
 20
105.42754949999994
 40
3.2000000000000002
 41
1
 50
0
  1
　１
  0
TEXT
  8
_0-0_図面枠
 62
    4
 10
149.27047700000003
 20
105.40000399999997
 40
3.2000000000000002
 41
1
 50
0
  1
３０００
  0
TEXT
  8
_0-0_図面枠
 62
    4
 10
177.00512500000002
 20
105.40000399999997
 40
3.2000000000000002
 41
1
 50
0
  1
本
  0
TEXT
  8
_0-0_図面枠
 62
    4
 10
43.586831999999958
 20
99.427549499999941
 40
3.2000000000000002
 41
1
 50
0
  1
２
  0
TEXT
  8
_0-0_図面枠
 62
    4
 10
43.586831999999958
 20
93.427549499999941
 40
3.2000000000000002
 41
1
 50
0
  1
３
  0
TEXT
  8
_0-0_図面枠
 62
    4
 10
43.586831999999958
 20
87.427549499999941
 40
3.2000000000000002
 41
1
 50
0
  1
４
  0
TEXT
  8
_0-0_図面枠
 62
    4
 10
169.36022149999994
 20
87.450002999999924
 40
3.2000000000000002
 41
1
 50
0
  1
１
  0
TEXT
  8
_0-0_図面枠
 62
    4
 10
43.586831999999958
 20
81.427560999999969
 40
3.2000000000000002
 41
1
 50
0
  1
５
  0
TEXT
  8
_0-0_図面枠
 62
    4
 10
177.00512500000002
 20
81.399992499999996
 40
3.2000000000000002
 41
1
 50
0
  1
本
  0
TEXT
  8
_0-0_図面枠
 62
    4
 10
43.586831999999958
 20
75.427560999999969
 40
3.2000000000000002
 41
1
 50
0
  1
６
  0
TEXT
  8
_0-0_図面枠
 62
    4
 10
43.586831999999958
 20
69.427555499999983
 40
3.2000000000000002
 41
1
 50
0
  1
７
  0
TEXT
  8
_0-0_図面枠
 62
    4
 10
48.400007500000015
 20
69.40000950000001
 40
3.2000000000000002
 41
1
 50
0
  1
ステンセットシルタップ
  0
TEXT
  8
_0-0_図面枠
 62
    4
 10
43.586831999999958
 20
63.427555499999983
 40
3.2000000000000002
 41
1
 50
0
  1
８
  0
TEXT
  8
_0-0_図面枠
 62
    4
 10
166.27045749999999
 20
63.450008499999967
 40
3.2000000000000002
 41
1
 50
0
  1
１２
  0
TEXT
  8
_0-0_図面枠
 62
    4
 10
43.586831999999958
 20
57.427555499999983
 40
3.2000000000000002
 41
1
 50
0
  1
９
  0
LINE
  8
_0-0_図面枠
  6
CONTINUOUS
 62
    4
 10
382.15000000000009
 20
110.19999999999999
 11
240
 21
110.19999999999999
  0
LINE
  8
_0-0_図面枠
  6
CONTINUOUS
 62
    4
 10
382.15000000000009
 20
104.19999999999999
 11
240
 21
104.19999999999999
  0
LINE
  8
_0-0_図面枠
  6
CONTINUOUS
 62
    4
 10
382.15000000000009
 20
98.199999999999989
 11
240
 21
98.199999999999989
  0
LINE
  8
_0-0_図面枠
  6
CONTINUOUS
 62
    4
 10
382.15000000000009
 20
92.199999999999989
 11
240
 21
92.199999999999989
  0
LINE
  8
_0-0_図面枠
  6
CONTINUOUS
 62
    4
 10
382.15000000000009
 20
86.199999999999989
 11
240
 21
86.199999999999989
  0
LINE
  8
_0-0_図面枠
  6
CONTINUOUS
 62
    4
 10
382.15000000000009
 20
80.199999999999989
 11
240
 21
80.199999999999989
  0
LINE
  8
_0-0_図面枠
  6
CONTINUOUS
 62
    4
 10
382.15000000000009
 20
74.199999999999989
 11
240
 21
74.199999999999989
  0
LINE
  8
_0-0_図面枠
  6
CONTINUOUS
 62
    4
 10
382.15000000000009
 20
68.199999999999989
 11
240
 21
68.199999999999989
  0
LINE
  8
_0-0_図面枠
  6
CONTINUOUS
 62
    4
 10
382.15000000000009
 20
62.199999999999989
 11
240
 21
62.199999999999989
  0
LINE
  8
_0-0_図面枠
  6
CONTINUOUS
 62
    4
 10
382.15000000000009
 20
56.199999999999989
 11
240
 21
56.199999999999989
  0
LINE
  8
_0-0_図面枠
  6
CONTINUOUS
 62
    4
 10
382.15000000000009
 20
44.199999999999989
 11
240
 21
44.199999999999989
  0
LINE
  8
_0-0_図面枠
  6
CONTINUOUS
 62
    4
 10
382.15000000000009
 20
121
 11
240
 21
121
  0
LINE
  8
_0-0_図面枠
  6
CONTINUOUS
 62
    4
 10
382.15000000000009
 20
50.199999999999989
 11
240
 21
50.199999999999989
  0
TEXT
  8
_0-0_図面枠
 62
    4
 10
365.55123000000003
 20
116.20001050000002
 40
3.2000000000000002
 41
1
 50
0
  1
使用
  0
TEXT
  8
_0-0_図面枠
 62
    4
 10
350.50632500000006
 20
116.20002199999999
 40
3.2000000000000002
 41
1
 50
0
  1
定　尺
  0
TEXT
  8
_0-0_図面枠
 62
    4
 10
348.34349000000003
 20
111.400015
 40
3.2000000000000002
 41
1
 50
0
  1
（ｍｍ）
  0
TEXT
  8
_0-0_図面枠
 62
    4
 10
365.55123000000003
 20
111.40000400000002
 40
3.2000000000000002
 41
1
 50
0
  1
数量
  0
TEXT
  8
_0-0_図面枠
 62
    4
 10
240.4970505
 20
105.4275495
 40
3.2000000000000002
 41
1
 50
0
  1
　１
  0
TEXT
  8
_0-0_図面枠
 62
    4
 10
243.5868145
 20
99.427549499999998
 40
3.2000000000000002
 41
1
 50
0
  1
２
  0
TEXT
  8
_0-0_図面枠
 62
    4
 10
243.5868145
 20
93.427549499999998
 40
3.2000000000000002
 41
1
 50
0
  1
３
  0
TEXT
  8
_0-0_図面枠
 62
    4
 10
243.5868145
 20
87.427549499999998
 40
3.2000000000000002
 41
1
 50
0
  1
４
  0
TEXT
  8
_0-0_図面枠
 62
    4
 10
243.5868145
 20
81.427560999999997
 40
3.2000000000000002
 41
1
 50
0
  1
５
  0
TEXT
  8
_0-0_図面枠
 62
    4
 10
243.5868145
 20
75.427560999999997
 40
3.2000000000000002
 41
1
 50
0
  1
６
  0
TEXT
  8
_0-0_図面枠
 62
    4
 10
243.5868145
 20
69.427560999999997
 40
3.2000000000000002
 41
1
 50
0
  1
７
  0
TEXT
  8
_0-0_図面枠
 62
    4
 10
243.5868145
 20
63.427555499999983
 40
3.2000000000000002
 41
1
 50
0
  1
８
  0
TEXT
  8
_0-0_図面枠
 62
    4
 10
243.5868145
 20
57.427555499999983
 40
3.2000000000000002
 41
1
 50
0
  1
９
  0
TEXT
  8
_0-0_図面枠
 62
    4
 10
240.4970505
 20
51.427555499999983
 40
3.2000000000000002
 41
1
 50
0
  1
１０
  0
TEXT
  8
_0-0_図面枠
 62
    4
 10
240.4970505
 20
45.427555499999983
 40
3.2000000000000002
 41
1
 50
0
  1
１１
  0
TEXT
  8
_0-0_図面枠
 62
    4
 10
169.36022149999994
 20
105.44999150000001
 40
3.2000000000000002
 41
1
 50
0
  1
１
  0
TEXT
  8
_0-0_図面枠
 62
    4
 10
48.400007500000015
 20
87.400003999999967
 40
3.2000000000000002
 41
1
 50
0
  1
ＳＳＧばねフレーム
  0
TEXT
  8
_0-0_図面枠
 62
    4
 10
149.27047700000003
 20
87.400003999999967
 40
3.2000000000000002
 41
1
 50
0
  1
３０００
  0
TEXT
  8
_0-0_図面枠
 62
    4
 10
169.36022149999994
 20
93.44999150000001
 40
3.2000000000000002
 41
1
 50
0
  1
６
  0
TEXT
  8
_0-0_図面枠
 62
    4
 10
149.27047700000003
 20
81.400003999999967
 40
3.2000000000000002
 41
1
 50
0
  1
３０００
  0
TEXT
  8
_0-0_図面枠
 62
    4
 10
169.36022149999994
 20
81.450002999999924
 40
3.2000000000000002
 41
1
 50
0
  1
１
  0
TEXT
  8
_0-0_図面枠
 62
    4
 10
48.400007500000015
 20
75.400003999999967
 40
3.2000000000000002
 41
1
 50
0
  1
止水補助板
  0
TEXT
  8
_0-0_図面枠
 62
    4
 10
177.00512500000002
 20
93.400004000000024
 40
3.2000000000000002
 41
1
 50
0
  1
個
  0
TEXT
  8
_0-0_図面枠
 62
    4
 10
178.54999999999998
 20
118.80000000000001
 40
3.2000000000000002
 41
1
 50
0
  1
単位
  7
TATEGAKI
  0
TEXT
  8
_0-0_図面枠
 62
    4
 10
378.55000000000007
 20
118.80000000000001
 40
3.2000000000000002
 41
1
 50
0
  1
単位
  7
TATEGAKI
  0
TEXT
  8
_0-0_図面枠
 62
    4
 10
48.400007500000015
 20
63.40000950000001
 40
3.2000000000000002
 41
1
 50
0
  1
ステンタッピンねじ
  0
TEXT
  8
_0-0_図面枠
 62
    4
 10
48.400007500000015
 20
57.40000950000001
 40
3.2000000000000002
 41
1
 50
0
  1
ステンワッシャー
  0
TEXT
  8
_0-0_図面枠
 62
    4
 10
169.36022149999994
 20
45.449997499999995
 40
3.2000000000000002
 41
1
 50
0
  1
２
  0
TEXT
  8
_0-0_図面枠
 62
    4
 10
177.00512500000002
 20
45.40000950000001
 40
3.2000000000000002
 41
1
 50
0
  1
本
  0
TEXT
  8
_0-0_図面枠
 62
    4
 10
166.27045749999999
 20
57.450008499999967
 40
3.2000000000000002
 41
1
 50
0
  1
１２
  0
TEXT
  8
_0-0_図面枠
 62
    4
 10
177.00512500000002
 20
69.399992499999996
 40
3.2000000000000002
 41
1
 50
0
  1
本
  0
TEXT
  8
_0-0_図面枠
 62
    4
 10
40.4970505
 20
51.427555499999983
 40
3.2000000000000002
 41
1
 50
0
  1
１０
  0
TEXT
  8
_0-0_図面枠
 62
    4
 10
40.4970505
 20
45.427555499999983
 40
3.2000000000000002
 41
1
 50
0
  1
１１
  0
TEXT
  8
_0-0_図面枠
 62
    4
 10
349.27047700000014
 20
105.40000399999997
 40
3.2000000000000002
 41
1
 50
0
  1
３０００
  0
TEXT
  8
_0-0_図面枠
 62
    4
 10
377.00512500000013
 20
105.40000399999997
 40
3.2000000000000002
 41
1
 50
0
  1
本
  0
TEXT
  8
_0-0_図面枠
 62
    4
 10
369.36022150000008
 20
87.450002999999924
 40
3.2000000000000002
 41
1
 50
0
  1
１
  0
TEXT
  8
_0-0_図面枠
 62
    4
 10
377.00512500000013
 20
81.399992499999996
 40
3.2000000000000002
 41
1
 50
0
  1
本
  0
TEXT
  8
_0-0_図面枠
 62
    4
 10
248.4000075000001
 20
69.40000950000001
 40
3.2000000000000002
 41
1
 50
0
  1
ステンセットシルタップ
  0
TEXT
  8
_0-0_図面枠
 62
    4
 10
366.27045750000013
 20
63.450008499999967
 40
3.2000000000000002
 41
1
 50
0
  1
１２
  0
TEXT
  8
_0-0_図面枠
 62
    4
 10
369.36022150000008
 20
105.44999150000001
 40
3.2000000000000002
 41
1
 50
0
  1
１
  0
TEXT
  8
_0-0_図面枠
 62
    4
 10
349.27047700000014
 20
87.400003999999967
 40
3.2000000000000002
 41
1
 50
0
  1
３０００
  0
TEXT
  8
_0-0_図面枠
 62
    4
 10
369.36022150000008
 20
93.44999150000001
 40
3.2000000000000002
 41
1
 50
0
  1
６
  0
TEXT
  8
_0-0_図面枠
 62
    4
 10
349.27047700000014
 20
81.400003999999967
 40
3.2000000000000002
 41
1
 50
0
  1
３０００
  0
TEXT
  8
_0-0_図面枠
 62
    4
 10
369.36022150000008
 20
81.450002999999924
 40
3.2000000000000002
 41
1
 50
0
  1
１
  0
TEXT
  8
_0-0_図面枠
 62
    4
 10
248.4000075000001
 20
75.400003999999967
 40
3.2000000000000002
 41
1
 50
0
  1
止水補助板
  0
TEXT
  8
_0-0_図面枠
 62
    4
 10
377.00512500000013
 20
93.400004000000024
 40
3.2000000000000002
 41
1
 50
0
  1
個
  0
TEXT
  8
_0-0_図面枠
 62
    4
 10
248.4000075000001
 20
63.40000950000001
 40
3.2000000000000002
 41
1
 50
0
  1
ステンタッピンねじ
  0
TEXT
  8
_0-0_図面枠
 62
    4
 10
248.4000075000001
 20
57.40000950000001
 40
3.2000000000000002
 41
1
 50
0
  1
ステンワッシャー
  0
TEXT
  8
_0-0_図面枠
 62
    4
 10
369.36022150000008
 20
45.449997499999995
 40
3.2000000000000002
 41
1
 50
0
  1
２
  0
TEXT
  8
_0-0_図面枠
 62
    4
 10
377.00512500000013
 20
45.40000950000001
 40
3.2000000000000002
 41
1
 50
0
  1
本
  0
TEXT
  8
_0-0_図面枠
 62
    4
 10
366.27045750000013
 20
57.450008499999967
 40
3.2000000000000002
 41
1
 50
0
  1
１２
  0
TEXT
  8
_0-0_図面枠
 62
    4
 10
377.00512500000013
 20
69.399992499999996
 40
3.2000000000000002
 41
1
 50
0
  1
本
  0
TEXT
  8
_0-0_図面枠
 62
    4
 10
248.4000075000001
 20
87.400003999999967
 40
3.2000000000000002
 41
1
 50
0
  1
ＳＣＧばねフレーム
  0
TEXT
  8
_0-0_図面枠
 62
    4
 10
377.00512500000013
 20
57.40000950000001
 40
3.2000000000000002
 41
1
 50
0
  1
枚
  0
TEXT
  8
_0-0_図面枠
 62
    4
 10
177.00512500000002
 20
87.400003999999967
 40
3.2000000000000002
 41
1
 50
0
  1
本
  0
TEXT
  8
_0-0_図面枠
 62
    4
 10
177.00512500000002
 20
57.40000950000001
 40
3.2000000000000002
 41
1
 50
0
  1
枚
  0
TEXT
  8
_0-0_図面枠
 62
    4
 10
177.00512500000002
 20
63.399992499999996
 40
3.2000000000000002
 41
1
 50
0
  1
本
  0
TEXT
  8
_0-0_図面枠
 62
    4
 10
377.00512500000013
 20
63.399992499999996
 40
3.2000000000000002
 41
1
 50
0
  1
本
  0
TEXT
  8
_0-0_図面枠
 62
    4
 10
102.06669116666677
 20
63.40000950000001
 40
3.2000000000000002
 41
1
 50
0
  1
なべ５×５０
  0
TEXT
  8
_0-0_図面枠
 62
    4
 10
102.06663366666675
 20
57.400003999999996
 40
3.2000000000000002
 41
1
 50
0
  1
１．５×１８×５．５穴
  0
TEXT
  8
_0-0_図面枠
 62
    4
 10
102.06667966666674
 20
69.40000950000001
 40
3.2000000000000002
 41
1
 50
0
  1
４×１９
  0
TEXT
  8
_0-0_図面枠
 62
    4
 10
302.06669116666689
 20
63.40000950000001
 40
3.2000000000000002
 41
1
 50
0
  1
なべ５×５０
  0
TEXT
  8
_0-0_図面枠
 62
    4
 10
302.06663366666686
 20
57.400003999999996
 40
3.2000000000000002
 41
1
 50
0
  1
１．５×１８×５．５穴
  0
TEXT
  8
_0-0_図面枠
 62
    4
 10
302.06667966666686
 20
69.40000950000001
 40
3.2000000000000002
 41
1
 50
0
  1
４×１９
  0
TEXT
  8
_0-0_図面枠
 62
    4
 10
67.633333333333383
 20
114.00000000000003
 40
3.2000000000000002
 41
1
 50
0
  1
部材名称
  0
TEXT
  8
_0-0_図面枠
 62
    4
 10
119.10833333333338
 20
114.00000000000001
 40
3.2000000000000002
 41
1
 50
0
  1
規　格
  0
TEXT
  8
_0-0_図面枠
 62
    4
 10
267.63333333333333
 20
114
 40
3.2000000000000002
 41
1
 50
0
  1
部材名称
  0
TEXT
  8
_0-0_図面枠
 62
    4
 10
319.10833333333335
 20
114
 40
3.2000000000000002
 41
1
 50
0
  1
規　格
  0
TEXT
  8
_0-0_図面枠
 62
    4
 10
48.400007500000015
 20
105.40000399999997
 40
3.2000000000000002
 41
1
 50
0
  1
ＳＳＧキャップ(Ｄ)Ａ
  0
TEXT
  8
_0-0_図面枠
 62
    4
 10
48.400007500000015
 20
99.400003999999967
 40
3.2000000000000002
 41
1
 50
0
  1
ＳＳＧアーム(Ｄ)
  0
TEXT
  8
_0-0_図面枠
 62
    4
 10
48.400007500000015
 20
93.400003999999967
 40
3.2000000000000002
 41
1
 50
0
  1
ＳＳＧばね(Ｄ)
  0
TEXT
  8
_0-0_図面枠
 62
    4
 10
48.400007500000015
 20
81.400003999999967
 40
3.2000000000000002
 41
1
 50
0
  1
ＳＳＧフレーム(Ｄ)
  0
TEXT
  8
_0-0_図面枠
 62
    4
 10
248.4000075000001
 20
105.40000399999997
 40
3.2000000000000002
 41
1
 50
0
  1
ＳＣＧキャップ(Ｄ)Ａ
  0
TEXT
  8
_0-0_図面枠
 62
    4
 10
248.4000075000001
 20
99.400003999999967
 40
3.2000000000000002
 41
1
 50
0
  1
ＳＣＧアーム(Ｄ)
  0
TEXT
  8
_0-0_図面枠
 62
    4
 10
248.4000075000001
 20
93.400003999999967
 40
3.2000000000000002
 41
1
 50
0
  1
ＳＣＧばね(Ｄ)
  0
TEXT
  8
_0-0_図面枠
 62
    4
 10
248.4000075000001
 20
81.400003999999967
 40
3.2000000000000002
 41
1
 50
0
  1
ＳＳＧフレーム(Ｄ)
  0
TEXT
  8
_0-0_図面枠
 62
    4
 10
169.36022149999994
 20
99.44999150000001
 40
3.2000000000000002
 41
1
 50
0
  1
６
  0
TEXT
  8
_0-0_図面枠
 62
    4
 10
177.00512500000002
 20
99.400004000000024
 40
3.2000000000000002
 41
1
 50
0
  1
個
  0
TEXT
  8
_0-0_図面枠
 62
    4
 10
369.36022150000008
 20
99.449991499999953
 40
3.2000000000000002
 41
1
 50
0
  1
６
  0
TEXT
  8
_0-0_図面枠
 62
    4
 10
377.00512500000013
 20
99.400003999999967
 40
3.2000000000000002
 41
1
 50
0
  1
個
  0
TEXT
  8
_0-0_図面枠
 62
    4
 10
122.30833333333341
 20
105.60000000000007
 40
3.2000000000000002
 41
1
 50
0
  1
―
  0
TEXT
  8
_0-0_図面枠
 62
    4
 10
122.30833333333341
 20
93.600000000000065
 40
3.2000000000000002
 41
1
 50
0
  1
―
  0
TEXT
  8
_0-0_図面枠
 62
    4
 10
122.30833333333341
 20
87.600000000000065
 40
3.2000000000000002
 41
1
 50
0
  1
―
  0
TEXT
  8
_0-0_図面枠
 62
    4
 10
122.30833333333341
 20
81.600000000000065
 40
3.2000000000000002
 41
1
 50
0
  1
―
  0
TEXT
  8
_0-0_図面枠
 62
    4
 10
122.30833333333339
 20
45.599999999999994
 40
3.2000000000000002
 41
1
 50
0
  1
―
  0
TEXT
  8
_0-0_図面枠
 62
    4
 10
322.30833333333328
 20
105.60000000000001
 40
3.2000000000000002
 41
1
 50
0
  1
―
  0
TEXT
  8
_0-0_図面枠
 62
    4
 10
322.30833333333328
 20
93.600000000000009
 40
3.2000000000000002
 41
1
 50
0
  1
―
  0
TEXT
  8
_0-0_図面枠
 62
    4
 10
322.30833333333328
 20
87.600000000000009
 40
3.2000000000000002
 41
1
 50
0
  1
―
  0
TEXT
  8
_0-0_図面枠
 62
    4
 10
322.30833333333328
 20
81.600000000000009
 40
3.2000000000000002
 41
1
 50
0
  1
―
  0
TEXT
  8
_0-0_図面枠
 62
    4
 10
322.30833333333328
 20
45.599999999999994
 40
3.2000000000000002
 41
1
 50
0
  1
―
  0
TEXT
  8
_0-0_図面枠
 62
    4
 10
353.85000000000002
 20
99.599999999999994
 40
3.2000000000000002
 41
1
 50
0
  1
―
  0
TEXT
  8
_0-0_図面枠
 62
    4
 10
353.85000000000002
 20
93.599999999999994
 40
3.2000000000000002
 41
1
 50
0
  1
―
  0
TEXT
  8
_0-0_図面枠
 62
    4
 10
353.85000000000002
 20
69.599999999999994
 40
3.2000000000000002
 41
1
 50
0
  1
―
  0
TEXT
  8
_0-0_図面枠
 62
    4
 10
353.85000000000002
 20
63.599999999999994
 40
3.2000000000000002
 41
1
 50
0
  1
―
  0
TEXT
  8
_0-0_図面枠
 62
    4
 10
353.85000000000002
 20
57.599999999999994
 40
3.2000000000000002
 41
1
 50
0
  1
―
  0
TEXT
  8
_0-0_図面枠
 62
    4
 10
153.85000000000005
 20
93.600000000000051
 40
3.2000000000000002
 41
1
 50
0
  1
―
  0
TEXT
  8
_0-0_図面枠
 62
    4
 10
153.85000000000005
 20
57.599999999999994
 40
3.2000000000000002
 41
1
 50
0
  1
―
  0
TEXT
  8
_0-0_図面枠
 62
    4
 10
153.85000000000005
 20
63.599999999999994
 40
3.2000000000000002
 41
1
 50
0
  1
―
  0
TEXT
  8
_0-0_図面枠
 62
    4
 10
153.85000000000005
 20
69.599999999999994
 40
3.2000000000000002
 41
1
 50
0
  1
―
  0
TEXT
  8
_0-0_図面枠
 62
    4
 10
149.27047700000003
 20
75.400009499999996
 40
3.2000000000000002
 41
1
 50
0
  1
３１００
  0
TEXT
  8
_0-0_図面枠
 62
    4
 10
349.27047700000003
 20
75.400009499999996
 40
3.2000000000000002
 41
1
 50
0
  1
３１００
  0
TEXT
  8
_0-0_図面枠
 62
    4
 10
166.27045749999996
 20
51.450008499999953
 40
3.2000000000000002
 41
1
 50
0
  1
１２
  0
TEXT
  8
_0-0_図面枠
 62
    4
 10
177.00512500000002
 20
51.399992499999982
 40
3.2000000000000002
 41
1
 50
0
  1
本
  0
TEXT
  8
_0-0_図面枠
 62
    4
 10
153.85000000000002
 20
51.599999999999994
 40
3.2000000000000002
 41
1
 50
0
  1
―
  0
TEXT
  8
_0-0_図面枠
 62
    4
 10
102.06669116666673
 20
51.400009499999996
 40
3.2000000000000002
 41
1
 50
0
  1
φ８×４０
  0
TEXT
  8
_0-0_図面枠
 62
    4
 10
366.27045749999996
 20
51.450008499999953
 40
3.2000000000000002
 41
1
 50
0
  1
１２
  0
TEXT
  8
_0-0_図面枠
 62
    4
 10
377.00512500000002
 20
51.399992499999982
 40
3.2000000000000002
 41
1
 50
0
  1
本
  0
TEXT
  8
_0-0_図面枠
 62
    4
 10
353.85000000000002
 20
51.599999999999994
 40
3.2000000000000002
 41
1
 50
0
  1
―
  0
TEXT
  8
_0-0_図面枠
 62
    4
 10
302.06669116666671
 20
51.400009499999996
 40
3.2000000000000002
 41
1
 50
0
  1
φ８×４０
  0
TEXT
  8
_0-0_図面枠
 62
    4
 10
377.00512500000013
 20
87.399992499999996
 40
3.2000000000000002
 41
1
 50
0
  1
本
  0
TEXT
  8
_0-0_図面枠
 62
    4
 10
169.36022149999994
 20
75.450002999999924
 40
3.2000000000000002
 41
1
 50
0
  1
１
  0
TEXT
  8
_0-0_図面枠
 62
    4
 10
177.00512500000002
 20
75.399992499999996
 40
3.2000000000000002
 41
1
 50
0
  1
枚
  0
TEXT
  8
_0-0_図面枠
 62
    4
 10
369.36022150000008
 20
75.450002999999924
 40
3.2000000000000002
 41
1
 50
0
  1
１
  0
TEXT
  8
_0-0_図面枠
 62
    4
 10
377.00512500000013
 20
75.399992499999996
 40
3.2000000000000002
 41
1
 50
0
  1
枚
  0
TEXT
  8
_0-0_図面枠
 62
    4
 10
153.85000000000005
 20
99.600000000000051
 40
3.2000000000000002
 41
1
 50
0
  1
―
  0
TEXT
  8
_0-0_図面枠
 62
    4
 10
102.06669116666677
 20
75.400003999999967
 40
3.2000000000000002
 41
1
 50
0
  1
ＦＳ５００
  0
TEXT
  8
_0-0_図面枠
 62
    4
 10
302.06669116666689
 20
75.400003999999967
 40
3.2000000000000002
 41
1
 50
0
  1
ＦＳ５００
  0
TEXT
  8
_0-0_図面枠
 62
    4
 10
102.06669116666677
 20
99.400004000000024
 40
3.2000000000000002
 41
1
 50
0
  1
Ｌ＝２９０
  0
TEXT
  8
_0-0_図面枠
 62
    4
 10
302.06669116666671
 20
99.400003999999967
 40
3.2000000000000002
 41
1
 50
0
  1
Ｌ＝２２２
  0
TEXT
  8
_0-0_図面枠
 62
    4
 10
41.666666666666686
 20
128
 40
3
 41
1
 50
0
  1
（落下防止ワイヤー）
  0
INSERT
  2
-005-_5_
  8
_1-8_小物
 10
210
 20
148.5
 41
1
 42
1
 50
0
  0
LINE
  8
_1-8_小物
  6
CONTINUOUS
 62
    4
 10
157.03985321657842
 20
131.84018902839438
 11
151.17656837665947
 21
130.18752043233468
  0
LINE
  8
_1-8_小物
  6
CONTINUOUS
 62
    4
 10
157.16066740562403
 20
131.35707331101599
 11
151.24647145802518
 21
129.68796469593616
  0
LINE
  8
_1-8_小物
  6
CONTINUOUS
 62
    4
 10
157.03985321657842
 20
127.15981097160564
 11
151.17656837665947
 21
128.81247956766532
  0
LINE
  8
_1-8_小物
  6
CONTINUOUS
 62
    4
 10
157.16066740562403
 20
127.64292668898402
 11
151.24647145802518
 21
129.31203530406384
  0
LINE
  8
_1-8_小物
  6
CONTINUOUS
 62
    4
 10
157.1606675134222
 20
127.64292665856117
 11
157.1606675134222
 21
127.64292665856117
  0
LINE
  8
_1-8_小物
  6
CONTINUOUS
 62
    4
 10
157.1606675134222
 20
127.64292665856117
 11
157.6334904430544
 21
127.54220923628057
  0
LINE
  8
_1-8_小物
  6
CONTINUOUS
 62
    4
 10
157.6334904430544
 20
127.54220923628057
 11
158.1239067754791
 21
127.50097829566566
  0
LINE
  8
_1-8_小物
  6
CONTINUOUS
 62
    4
 10
158.1239067754791
 20
127.50097829566566
 11
158.61701545859822
 21
127.52048661798315
  0
LINE
  8
_1-8_小物
  6
CONTINUOUS
 62
    4
 10
158.61701545859822
 20
127.52048661798315
 11
159.09783363460025
 21
127.60014145273112
  0
LINE
  8
_1-8_小物
  6
CONTINUOUS
 62
    4
 10
159.09783363460025
 20
127.60014145273112
 11
159.55175188651307
 21
127.73752252806305
  0
LINE
  8
_1-8_小物
  6
CONTINUOUS
 62
    4
 10
159.55175188651307
 20
127.73752252806305
 11
159.96497813794602
 21
127.92845558952315
  0
LINE
  8
_1-8_小物
  6
CONTINUOUS
 62
    4
 10
159.96497813794602
 20
127.92845558952315
 11
160.32495671835193
 21
128.16713923265576
  0
LINE
  8
_1-8_小物
  6
CONTINUOUS
 62
    4
 10
160.32495671835193
 20
128.16713923265576
 11
160.62074986072307
 21
128.446321175744
  0
LINE
  8
_1-8_小物
  6
CONTINUOUS
 62
    4
 10
160.62074986072307
 20
128.446321175744
 11
160.84337004010706
 21
128.75751861672006
  0
LINE
  8
_1-8_小物
  6
CONTINUOUS
 62
    4
 10
160.84337004010706
 20
128.75751861672006
 11
160.98605305500459
 21
129.0912759788134
  0
LINE
  8
_1-8_小物
  6
CONTINUOUS
 62
    4
 10
160.98605305500459
 20
129.0912759788134
 11
161.04446355420905
 21
129.43745221346612
  0
LINE
  8
_1-8_小物
  6
CONTINUOUS
 62
    4
 10
161.04446355420905
 20
129.43745221346612
 11
161.01682676425926
 21
129.78552893096199
  0
LINE
  8
_1-8_小物
  6
CONTINUOUS
 62
    4
 10
161.01682676425926
 20
129.78552893096199
 11
160.90398241503297
 21
130.12492999637519
  0
LINE
  8
_1-8_小物
  6
CONTINUOUS
 62
    4
 10
160.90398241503297
 20
130.12492999637519
 11
160.70935922497941
 21
130.44534288007836
  0
LINE
  8
_1-8_小物
  6
CONTINUOUS
 62
    4
 10
160.70935922497941
 20
130.44534288007836
 11
160.43887072124426
 21
130.73703199873691
  0
LINE
  8
_1-8_小物
  6
CONTINUOUS
 62
    4
 10
160.43887072124426
 20
130.73703199873691
 11
160.10073556013975
 21
130.99113452608225
  0
LINE
  8
_1-8_小物
  6
CONTINUOUS
 62
    4
 10
160.10073556013975
 20
130.99113452608225
 11
159.70522780743138
 21
131.19992968540308
  0
LINE
  8
_1-8_小物
  6
CONTINUOUS
 62
    4
 10
159.70522780743138
 20
131.19992968540308
 11
159.26436476604863
 21
131.35707334143882
  0
LINE
  8
_1-8_小物
  6
CONTINUOUS
 62
    4
 10
159.26436476604863
 20
131.35707334143882
 11
158.79154183641646
 21
131.45779076371943
  0
LINE
  8
_1-8_小物
  6
CONTINUOUS
 62
    4
 10
158.79154183641646
 20
131.45779076371943
 11
158.30112550399173
 21
131.49902170433435
  0
LINE
  8
_1-8_小物
  6
CONTINUOUS
 62
    4
 10
158.30112550399173
 20
131.49902170433435
 11
157.80801682087261
 21
131.47951338201685
  0
LINE
  8
_1-8_小物
  6
CONTINUOUS
 62
    4
 10
157.80801682087261
 20
131.47951338201685
 11
157.32719864487058
 21
131.39985854726888
  0
LINE
  8
_1-8_小物
  6
CONTINUOUS
 62
    4
 10
157.32719864487058
 20
131.39985854726888
 11
157.160667405624
 21
131.35707331101597
  0
LINE
  8
_1-8_小物
  6
CONTINUOUS
 62
    4
 10
157.039853303781
 20
127.15981094702609
 11
157.039853303781
 21
127.15981094702609
  0
LINE
  8
_1-8_小物
  6
CONTINUOUS
 62
    4
 10
157.039853303781
 20
127.15981094702609
 11
157.5994947731449
 21
127.04264060375607
  0
LINE
  8
_1-8_小物
  6
CONTINUOUS
 62
    4
 10
157.5994947731449
 20
127.04264060375607
 11
158.1777625865289
 21
127.00013588225708
  0
LINE
  8
_1-8_小物
  6
CONTINUOUS
 62
    4
 10
158.1777625865289
 20
127.00013588225708
 11
158.75708636904091
 21
127.03358826698343
  0
LINE
  8
_1-8_小物
  6
CONTINUOUS
 62
    4
 10
158.75708636904091
 20
127.03358826698343
 11
159.31986366070132
 21
127.14198132415292
  0
LINE
  8
_1-8_小物
  6
CONTINUOUS
 62
    4
 10
159.31986366070132
 20
127.14198132415292
 11
159.84899475828206
 21
127.32202158557301
  0
LINE
  8
_1-8_小物
  6
CONTINUOUS
 62
    4
 10
159.84899475828206
 20
127.32202158557301
 11
160.32840228113639
 21
127.56823861900521
  0
LINE
  8
_1-8_小物
  6
CONTINUOUS
 62
    4
 10
160.32840228113639
 20
127.56823861900521
 11
160.74351967427432
 21
127.87315124448051
  0
LINE
  8
_1-8_小物
  6
CONTINUOUS
 62
    4
 10
160.74351967427432
 20
127.87315124448051
 11
161.08173380576486
 21
128.22749484616708
  0
LINE
  8
_1-8_小物
  6
CONTINUOUS
 62
    4
 10
161.08173380576486
 20
128.22749484616708
 11
161.33276821036728
 21
128.62050287303418
  0
LINE
  8
_1-8_小物
  6
CONTINUOUS
 62
    4
 10
161.33276821036728
 20
128.62050287303418
 11
161.48899533472729
 21
129.04023397505711
  0
LINE
  8
_1-8_小物
  6
CONTINUOUS
 62
    4
 10
161.48899533472729
 20
129.04023397505711
 11
161.54566829672595
 21
129.47393483509512
  0
LINE
  8
_1-8_小物
  6
CONTINUOUS
 62
    4
 10
161.54566829672595
 20
129.47393483509512
 11
161.5010651170908
 21
129.90842767197913
  0
LINE
  8
_1-8_小物
  6
CONTINUOUS
 62
    4
 10
161.5010651170908
 20
129.90842767197913
 11
161.35654104086481
 21
130.33051064072444
  0
LINE
  8
_1-8_小物
  6
CONTINUOUS
 62
    4
 10
161.35654104086481
 20
130.33051064072444
 11
161.11648735897137
 21
130.72735896390998
  0
LINE
  8
_1-8_小物
  6
CONTINUOUS
 62
    4
 10
161.11648735897137
 20
130.72735896390998
 11
160.78819798106178
 21
131.08691460605075
  0
LINE
  8
_1-8_小物
  6
CONTINUOUS
 62
    4
 10
160.78819798106178
 20
131.08691460605075
 11
160.38164781376139
 21
131.3982526509042
  0
LINE
  8
_1-8_小物
  6
CONTINUOUS
 62
    4
 10
160.38164781376139
 20
131.3982526509042
 11
159.9091896781793
 21
131.6519132495221
  0
LINE
  8
_1-8_小物
  6
CONTINUOUS
 62
    4
 10
159.9091896781793
 20
131.6519132495221
 11
159.38517897568983
 21
131.84018905297393
  0
LINE
  8
_1-8_小物
  6
CONTINUOUS
 62
    4
 10
159.38517897568983
 20
131.84018905297393
 11
158.82553750632593
 21
131.95735939624393
  0
LINE
  8
_1-8_小物
  6
CONTINUOUS
 62
    4
 10
158.82553750632593
 20
131.95735939624393
 11
158.24726969294193
 21
131.99986411774293
  0
LINE
  8
_1-8_小物
  6
CONTINUOUS
 62
    4
 10
158.24726969294193
 20
131.99986411774293
 11
157.66794591042992
 21
131.96641173301657
  0
LINE
  8
_1-8_小物
  6
CONTINUOUS
 62
    4
 10
157.66794591042992
 20
131.96641173301657
 11
157.10516861876951
 21
131.85801867584706
  0
LINE
  8
_1-8_小物
  6
CONTINUOUS
 62
    4
 10
157.10516861876951
 20
131.85801867584706
 11
157.03985321657842
 21
131.84018902839435
  0
ARC
  8
_1-8_小物
  6
CONTINUOUS
 62
    4
 10
149.88841540894515
 20
124.5
 40
5
 50
74.23983426036601
 51
82.44448201007404
  0
ARC
  8
_1-8_小物
  6
CONTINUOUS
 62
    4
 10
149.82008748449641
 20
124
 40
5
 50
74.258588419679057
 51
81.653895699843488
  0
ARC
  8
_1-8_小物
  6
CONTINUOUS
 62
    4
 10
149.82008748449641
 20
135
 40
5
 50
278.34610430015653
 51
285.74141158032091
  0
ARC
  8
_1-8_小物
  6
CONTINUOUS
 62
    4
 10
149.88841540894515
 20
134.5
 40
5
 50
277.55551798992599
 51
285.76016573963398
  0
INSERT
  2
-006-_6_
  8
_1-8_小物
 10
210
 20
148.5
 41
1
 42
1
 50
0
  0
LINE
  8
_1-8_小物
  6
CONTINUOUS
 62
    4
 10
82.718512396225748
 20
131.84018902839438
 11
88.581797236144695
 21
130.18752043233468
  0
LINE
  8
_1-8_小物
  6
CONTINUOUS
 62
    4
 10
82.597698207180116
 20
131.35707331101599
 11
88.511894154779
 21
129.68796469593616
  0
LINE
  8
_1-8_小物
  6
CONTINUOUS
 62
    4
 10
82.718512396225748
 20
127.15981097160564
 11
88.581797236144695
 21
128.81247956766532
  0
LINE
  8
_1-8_小物
  6
CONTINUOUS
 62
    4
 10
82.597698207180116
 20
127.64292668898402
 11
88.511894154779
 21
129.31203530406384
  0
LINE
  8
_1-8_小物
  6
CONTINUOUS
 62
    4
 10
82.597698207180201
 20
131.35707331101594
 11
82.597698207180201
 21
131.35707331101594
  0
LINE
  8
_1-8_小物
  6
CONTINUOUS
 62
    4
 10
82.597698207180201
 20
131.35707331101594
 11
82.124875283394388
 21
131.45779074697211
  0
LINE
  8
_1-8_小物
  6
CONTINUOUS
 62
    4
 10
82.124875283394388
 20
131.45779074697211
 11
81.634458953363037
 21
131.49902170177148
  0
LINE
  8
_1-8_小物
  6
CONTINUOUS
 62
    4
 10
81.634458953363037
 20
131.49902170177148
 11
81.141350269111499
 21
131.47951339371627
  0
LINE
  8
_1-8_小物
  6
CONTINUOUS
 62
    4
 10
81.141350269111499
 20
131.47951339371627
 11
80.660532088485724
 21
131.39985857287513
  0
LINE
  8
_1-8_小物
  6
CONTINUOUS
 62
    4
 10
80.660532088485724
 20
131.39985857287513
 11
80.206613828598293
 21
131.262477510672
  0
LINE
  8
_1-8_小物
  6
CONTINUOUS
 62
    4
 10
80.206613828598293
 20
131.262477510672
 11
79.79338756608216
 21
131.07154446116377
  0
LINE
  8
_1-8_小物
  6
CONTINUOUS
 62
    4
 10
79.79338756608216
 20
131.07154446116377
 11
79.433408971821308
 21
130.8328608284429
  0
LINE
  8
_1-8_小物
  6
CONTINUOUS
 62
    4
 10
79.433408971821308
 20
130.8328608284429
 11
79.137615813244381
 21
130.55367889390996
  0
LINE
  8
_1-8_小物
  6
CONTINUOUS
 62
    4
 10
79.137615813244381
 20
130.55367889390996
 11
78.914995615796187
 21
130.24248145937278
  0
LINE
  8
_1-8_小物
  6
CONTINUOUS
 62
    4
 10
78.914995615796187
 20
130.24248145937278
 11
78.772312581524943
 21
129.90872410140634
  0
LINE
  8
_1-8_小物
  6
CONTINUOUS
 62
    4
 10
78.772312581524943
 20
129.90872410140634
 11
78.71390206222587
 21
129.56254786844303
  0
LINE
  8
_1-8_小物
  6
CONTINUOUS
 62
    4
 10
78.71390206222587
 20
129.56254786844303
 11
78.741538831970715
 21
129.2144711501478
  0
LINE
  8
_1-8_小物
  6
CONTINUOUS
 62
    4
 10
78.741538831970715
 20
129.2144711501478
 11
78.854383161495676
 21
128.8750700814708
  0
LINE
  8
_1-8_小物
  6
CONTINUOUS
 62
    4
 10
78.854383161495676
 20
128.8750700814708
 11
79.0490063329501
 21
128.55465719213848
  0
LINE
  8
_1-8_小物
  6
CONTINUOUS
 62
    4
 10
79.0490063329501
 20
128.55465719213848
 11
79.319494819753459
 21
128.26296806565651
  0
LINE
  8
_1-8_小物
  6
CONTINUOUS
 62
    4
 10
79.319494819753459
 20
128.26296806565651
 11
79.657629966107976
 21
128.0088655285312
  0
LINE
  8
_1-8_小物
  6
CONTINUOUS
 62
    4
 10
79.657629966107976
 20
128.0088655285312
 11
80.053137706696333
 21
127.80007035777102
  0
LINE
  8
_1-8_小物
  6
CONTINUOUS
 62
    4
 10
80.053137706696333
 20
127.80007035777102
 11
80.494000738957297
 21
127.64292668898406
  0
LINE
  8
_1-8_小物
  6
CONTINUOUS
 62
    4
 10
80.494000738957297
 20
127.64292668898406
 11
80.96682366274311
 21
127.54220925302788
  0
LINE
  8
_1-8_小物
  6
CONTINUOUS
 62
    4
 10
80.96682366274311
 20
127.54220925302788
 11
81.457239992774475
 21
127.50097829822853
  0
LINE
  8
_1-8_小物
  6
CONTINUOUS
 62
    4
 10
81.457239992774475
 20
127.50097829822853
 11
81.950348677026014
 21
127.52048660628371
  0
LINE
  8
_1-8_小物
  6
CONTINUOUS
 62
    4
 10
81.950348677026014
 20
127.52048660628371
 11
82.431166857651789
 21
127.60014142712487
  0
LINE
  8
_1-8_小物
  6
CONTINUOUS
 62
    4
 10
82.431166857651789
 20
127.60014142712487
 11
82.597698099381972
 21
127.64292665856117
  0
LINE
  8
_1-8_小物
  6
CONTINUOUS
 62
    4
 10
82.718512396225734
 20
131.84018902839435
 11
82.718512396225734
 21
131.84018902839435
  0
LINE
  8
_1-8_小物
  6
CONTINUOUS
 62
    4
 10
82.718512396225734
 20
131.84018902839435
 11
82.158870931227952
 21
131.9573593833947
  0
LINE
  8
_1-8_小物
  6
CONTINUOUS
 62
    4
 10
82.158870931227952
 20
131.9573593833947
 11
81.580603119427821
 21
131.99986411701445
  0
LINE
  8
_1-8_小物
  6
CONTINUOUS
 62
    4
 10
81.580603119427821
 20
131.99986411701445
 11
81.001279335669267
 21
131.96641174443101
  0
LINE
  8
_1-8_小物
  6
CONTINUOUS
 62
    4
 10
81.001279335669267
 20
131.96641174443101
 11
80.438502039969805
 21
131.8580186990576
  0
LINE
  8
_1-8_小物
  6
CONTINUOUS
 62
    4
 10
80.438502039969805
 20
131.8580186990576
 11
79.909370935680215
 21
131.67797844872834
  0
LINE
  8
_1-8_小物
  6
CONTINUOUS
 62
    4
 10
79.909370935680215
 20
131.67797844872834
 11
79.429963403651087
 21
131.43176142534475
  0
LINE
  8
_1-8_小物
  6
CONTINUOUS
 62
    4
 10
79.429963403651087
 20
131.43176142534475
 11
79.014845999151191
 21
131.12684880857049
  0
LINE
  8
_1-8_小物
  6
CONTINUOUS
 62
    4
 10
79.014845999151191
 20
131.12684880857049
 11
78.67663185445673
 21
130.77250521397306
  0
LINE
  8
_1-8_小物
  6
CONTINUOUS
 62
    4
 10
78.67663185445673
 20
130.77250521397306
 11
78.425597435209625
 21
130.37949719236775
  0
LINE
  8
_1-8_小物
  6
CONTINUOUS
 62
    4
 10
78.425597435209625
 20
130.37949719236775
 11
78.269370295209157
 21
129.95976609361941
  0
LINE
  8
_1-8_小物
  6
CONTINUOUS
 62
    4
 10
78.269370295209157
 20
129.95976609361941
 11
78.212697317049489
 21
129.52606523476931
  0
LINE
  8
_1-8_小物
  6
CONTINUOUS
 62
    4
 10
78.212697317049489
 20
129.52606523476931
 11
78.257300480494095
 21
129.09157239695037
  0
LINE
  8
_1-8_小物
  6
CONTINUOUS
 62
    4
 10
78.257300480494095
 20
129.09157239695037
 11
78.401824540991996
 21
128.66948942517578
  0
LINE
  8
_1-8_小物
  6
CONTINUOUS
 62
    4
 10
78.401824540991996
 20
128.66948942517578
 11
78.641878208097665
 21
128.27264109695858
  0
LINE
  8
_1-8_小物
  6
CONTINUOUS
 62
    4
 10
78.641878208097665
 20
128.27264109695858
 11
78.970167572609128
 21
127.91308544793674
  0
LINE
  8
_1-8_小物
  6
CONTINUOUS
 62
    4
 10
78.970167572609128
 20
127.91308544793674
 11
79.376717728308108
 21
127.60174739456181
  0
LINE
  8
_1-8_小物
  6
CONTINUOUS
 62
    4
 10
79.376717728308108
 20
127.60174739456181
 11
79.84917585443803
 21
127.34808678604097
  0
LINE
  8
_1-8_小物
  6
CONTINUOUS
 62
    4
 10
79.84917585443803
 20
127.34808678604097
 11
80.373186549911765
 21
127.15981097160564
  0
LINE
  8
_1-8_小物
  6
CONTINUOUS
 62
    4
 10
80.373186549911765
 20
127.15981097160564
 11
80.93282801490956
 21
127.04264061660528
  0
LINE
  8
_1-8_小物
  6
CONTINUOUS
 62
    4
 10
80.93282801490956
 20
127.04264061660528
 11
81.511095826709692
 21
127.00013588298553
  0
LINE
  8
_1-8_小物
  6
CONTINUOUS
 62
    4
 10
81.511095826709692
 20
127.00013588298553
 11
82.090419610468246
 21
127.03358825556899
  0
LINE
  8
_1-8_小物
  6
CONTINUOUS
 62
    4
 10
82.090419610468246
 20
127.03358825556899
 11
82.653196906167707
 21
127.1419813009424
  0
LINE
  8
_1-8_小物
  6
CONTINUOUS
 62
    4
 10
82.653196906167707
 20
127.1419813009424
 11
82.718512309023183
 21
127.15981094702609
  0
ARC
  8
_1-8_小物
  6
CONTINUOUS
 62
    4
 10
89.869950203859005
 20
124.5
 40
5
 50
97.555517989925804
 51
105.76016573963415
  0
ARC
  8
_1-8_小物
  6
CONTINUOUS
 62
    4
 10
89.938278128307758
 20
124
 40
5
 50
98.346104300156512
 51
105.74141158032096
  0
ARC
  8
_1-8_小物
  6
CONTINUOUS
 62
    4
 10
89.938278128307758
 20
135
 40
5
 50
254.25858841967906
 51
261.65389569984347
  0
ARC
  8
_1-8_小物
  6
CONTINUOUS
 62
    4
 10
89.869950203859005
 20
134.5
 40
5
 50
254.23983426036585
 51
262.44448201007418
  0
LINE
  8
_1-8_小物
  6
CONTINUOUS
 62
    4
 10
91.879182806402085
 20
129.25
 11
118.21251613973541
 21
129.25
  0
LINE
  8
_1-8_小物
  6
CONTINUOUS
 62
    4
 10
91.879182806402085
 20
129.75
 11
118.21251613973541
 21
129.75
  0
LINE
  8
_1-8_小物
  6
CONTINUOUS
 62
    4
 10
147.87918280640207
 20
129.25
 11
121.54584947306876
 21
129.25
  0
LINE
  8
_1-8_小物
  6
CONTINUOUS
 62
    4
 10
147.87918280640207
 20
129.75
 11
121.54584947306876
 21
129.75
  0
TEXT
  8
_0-0_図面枠
 62
    4
 10
241.66666666666663
 20
128
 40
3
 41
1
 50
0
  1
（落下防止ワイヤー）
  0
INSERT
  2
-007-_7_
  8
_1-8_小物
 10
210
 20
148.5
 41
1
 42
1
 50
0
  0
LINE
  8
_1-8_小物
  6
CONTINUOUS
 62
    4
 10
357.03985321657842
 20
131.84018902839438
 11
351.17656837665947
 21
130.18752043233468
  0
LINE
  8
_1-8_小物
  6
CONTINUOUS
 62
    4
 10
357.16066740562405
 20
131.35707331101599
 11
351.24647145802516
 21
129.68796469593616
  0
LINE
  8
_1-8_小物
  6
CONTINUOUS
 62
    4
 10
357.03985321657842
 20
127.15981097160564
 11
351.17656837665947
 21
128.81247956766532
  0
LINE
  8
_1-8_小物
  6
CONTINUOUS
 62
    4
 10
357.16066740562405
 20
127.64292668898402
 11
351.24647145802516
 21
129.31203530406384
  0
LINE
  8
_1-8_小物
  6
CONTINUOUS
 62
    4
 10
357.1606675134222
 20
127.64292665856117
 11
357.1606675134222
 21
127.64292665856117
  0
LINE
  8
_1-8_小物
  6
CONTINUOUS
 62
    4
 10
357.1606675134222
 20
127.64292665856117
 11
357.63349044305437
 21
127.54220923628057
  0
LINE
  8
_1-8_小物
  6
CONTINUOUS
 62
    4
 10
357.63349044305437
 20
127.54220923628057
 11
358.1239067754791
 21
127.50097829566566
  0
LINE
  8
_1-8_小物
  6
CONTINUOUS
 62
    4
 10
358.1239067754791
 20
127.50097829566566
 11
358.61701545859825
 21
127.52048661798315
  0
LINE
  8
_1-8_小物
  6
CONTINUOUS
 62
    4
 10
358.61701545859825
 20
127.52048661798315
 11
359.09783363460025
 21
127.60014145273114
  0
LINE
  8
_1-8_小物
  6
CONTINUOUS
 62
    4
 10
359.09783363460025
 20
127.60014145273114
 11
359.55175188651305
 21
127.73752252806307
  0
LINE
  8
_1-8_小物
  6
CONTINUOUS
 62
    4
 10
359.55175188651305
 20
127.73752252806307
 11
359.96497813794605
 21
127.92845558952317
  0
LINE
  8
_1-8_小物
  6
CONTINUOUS
 62
    4
 10
359.96497813794605
 20
127.92845558952317
 11
360.32495671835193
 21
128.16713923265576
  0
LINE
  8
_1-8_小物
  6
CONTINUOUS
 62
    4
 10
360.32495671835193
 20
128.16713923265576
 11
360.62074986072304
 21
128.44632117574403
  0
LINE
  8
_1-8_小物
  6
CONTINUOUS
 62
    4
 10
360.62074986072304
 20
128.44632117574403
 11
360.84337004010706
 21
128.75751861672009
  0
LINE
  8
_1-8_小物
  6
CONTINUOUS
 62
    4
 10
360.84337004010706
 20
128.75751861672009
 11
360.98605305500456
 21
129.0912759788134
  0
LINE
  8
_1-8_小物
  6
CONTINUOUS
 62
    4
 10
360.98605305500456
 20
129.0912759788134
 11
361.04446355420902
 21
129.43745221346614
  0
LINE
  8
_1-8_小物
  6
CONTINUOUS
 62
    4
 10
361.04446355420902
 20
129.43745221346614
 11
361.01682676425924
 21
129.78552893096202
  0
LINE
  8
_1-8_小物
  6
CONTINUOUS
 62
    4
 10
361.01682676425924
 20
129.78552893096202
 11
360.90398241503294
 21
130.12492999637519
  0
LINE
  8
_1-8_小物
  6
CONTINUOUS
 62
    4
 10
360.90398241503294
 20
130.12492999637519
 11
360.70935922497938
 21
130.44534288007836
  0
LINE
  8
_1-8_小物
  6
CONTINUOUS
 62
    4
 10
360.70935922497938
 20
130.44534288007836
 11
360.4388707212442
 21
130.73703199873694
  0
LINE
  8
_1-8_小物
  6
CONTINUOUS
 62
    4
 10
360.4388707212442
 20
130.73703199873694
 11
360.1007355601397
 21
130.99113452608228
  0
LINE
  8
_1-8_小物
  6
CONTINUOUS
 62
    4
 10
360.1007355601397
 20
130.99113452608228
 11
359.70522780743136
 21
131.19992968540308
  0
LINE
  8
_1-8_小物
  6
CONTINUOUS
 62
    4
 10
359.70522780743136
 20
131.19992968540308
 11
359.26436476604857
 21
131.35707334143885
  0
LINE
  8
_1-8_小物
  6
CONTINUOUS
 62
    4
 10
359.26436476604857
 20
131.35707334143885
 11
358.7915418364164
 21
131.45779076371943
  0
LINE
  8
_1-8_小物
  6
CONTINUOUS
 62
    4
 10
358.7915418364164
 20
131.45779076371943
 11
358.30112550399167
 21
131.49902170433435
  0
LINE
  8
_1-8_小物
  6
CONTINUOUS
 62
    4
 10
358.30112550399167
 20
131.49902170433435
 11
357.80801682087258
 21
131.47951338201685
  0
LINE
  8
_1-8_小物
  6
CONTINUOUS
 62
    4
 10
357.80801682087258
 20
131.47951338201685
 11
357.32719864487052
 21
131.39985854726888
  0
LINE
  8
_1-8_小物
  6
CONTINUOUS
 62
    4
 10
357.32719864487052
 20
131.39985854726888
 11
357.16066740562394
 21
131.35707331101594
  0
LINE
  8
_1-8_小物
  6
CONTINUOUS
 62
    4
 10
357.039853303781
 20
127.15981094702607
 11
357.039853303781
 21
127.15981094702607
  0
LINE
  8
_1-8_小物
  6
CONTINUOUS
 62
    4
 10
357.039853303781
 20
127.15981094702607
 11
357.5994947731449
 21
127.04264060375607
  0
LINE
  8
_1-8_小物
  6
CONTINUOUS
 62
    4
 10
357.5994947731449
 20
127.04264060375607
 11
358.1777625865289
 21
127.00013588225708
  0
LINE
  8
_1-8_小物
  6
CONTINUOUS
 62
    4
 10
358.1777625865289
 20
127.00013588225708
 11
358.75708636904091
 21
127.03358826698343
  0
LINE
  8
_1-8_小物
  6
CONTINUOUS
 62
    4
 10
358.75708636904091
 20
127.03358826698343
 11
359.31986366070129
 21
127.14198132415294
  0
LINE
  8
_1-8_小物
  6
CONTINUOUS
 62
    4
 10
359.31986366070129
 20
127.14198132415294
 11
359.84899475828206
 21
127.32202158557303
  0
LINE
  8
_1-8_小物
  6
CONTINUOUS
 62
    4
 10
359.84899475828206
 20
127.32202158557303
 11
360.32840228113639
 21
127.56823861900523
  0
LINE
  8
_1-8_小物
  6
CONTINUOUS
 62
    4
 10
360.32840228113639
 20
127.56823861900523
 11
360.7435196742743
 21
127.87315124448052
  0
LINE
  8
_1-8_小物
  6
CONTINUOUS
 62
    4
 10
360.7435196742743
 20
127.87315124448052
 11
361.08173380576483
 21
128.2274948461671
  0
LINE
  8
_1-8_小物
  6
CONTINUOUS
 62
    4
 10
361.08173380576483
 20
128.2274948461671
 11
361.33276821036725
 21
128.62050287303418
  0
LINE
  8
_1-8_小物
  6
CONTINUOUS
 62
    4
 10
361.33276821036725
 20
128.62050287303418
 11
361.48899533472729
 21
129.04023397505713
  0
LINE
  8
_1-8_小物
  6
CONTINUOUS
 62
    4
 10
361.48899533472729
 20
129.04023397505713
 11
361.54566829672592
 21
129.47393483509512
  0
LINE
  8
_1-8_小物
  6
CONTINUOUS
 62
    4
 10
361.54566829672592
 20
129.47393483509512
 11
361.50106511709077
 21
129.90842767197915
  0
LINE
  8
_1-8_小物
  6
CONTINUOUS
 62
    4
 10
361.50106511709077
 20
129.90842767197915
 11
361.35654104086478
 21
130.33051064072444
  0
LINE
  8
_1-8_小物
  6
CONTINUOUS
 62
    4
 10
361.35654104086478
 20
130.33051064072444
 11
361.11648735897131
 21
130.72735896391001
  0
LINE
  8
_1-8_小物
  6
CONTINUOUS
 62
    4
 10
361.11648735897131
 20
130.72735896391001
 11
360.78819798106173
 21
131.08691460605075
  0
LINE
  8
_1-8_小物
  6
CONTINUOUS
 62
    4
 10
360.78819798106173
 20
131.08691460605075
 11
360.38164781376133
 21
131.3982526509042
  0
LINE
  8
_1-8_小物
  6
CONTINUOUS
 62
    4
 10
360.38164781376133
 20
131.3982526509042
 11
359.90918967817925
 21
131.6519132495221
  0
LINE
  8
_1-8_小物
  6
CONTINUOUS
 62
    4
 10
359.90918967817925
 20
131.6519132495221
 11
359.38517897568977
 21
131.84018905297393
  0
LINE
  8
_1-8_小物
  6
CONTINUOUS
 62
    4
 10
359.38517897568977
 20
131.84018905297393
 11
358.82553750632587
 21
131.95735939624393
  0
LINE
  8
_1-8_小物
  6
CONTINUOUS
 62
    4
 10
358.82553750632587
 20
131.95735939624393
 11
358.24726969294187
 21
131.99986411774293
  0
LINE
  8
_1-8_小物
  6
CONTINUOUS
 62
    4
 10
358.24726969294187
 20
131.99986411774293
 11
357.66794591042986
 21
131.96641173301657
  0
LINE
  8
_1-8_小物
  6
CONTINUOUS
 62
    4
 10
357.66794591042986
 20
131.96641173301657
 11
357.10516861876948
 21
131.85801867584706
  0
LINE
  8
_1-8_小物
  6
CONTINUOUS
 62
    4
 10
357.10516861876948
 20
131.85801867584706
 11
357.03985321657842
 21
131.84018902839438
  0
ARC
  8
_1-8_小物
  6
CONTINUOUS
 62
    4
 10
349.88841540894515
 20
124.5
 40
5
 50
74.239834260366322
 51
82.44448201007404
  0
ARC
  8
_1-8_小物
  6
CONTINUOUS
 62
    4
 10
349.82008748449636
 20
124
 40
5
 50
74.258588419678333
 51
81.653895699842849
  0
ARC
  8
_1-8_小物
  6
CONTINUOUS
 62
    4
 10
349.82008748449636
 20
135
 40
5
 50
278.34610430015715
 51
285.74141158032165
  0
ARC
  8
_1-8_小物
  6
CONTINUOUS
 62
    4
 10
349.88841540894515
 20
134.5
 40
5
 50
277.55551798992599
 51
285.76016573963363
  0
INSERT
  2
-008-_8_
  8
_1-8_小物
 10
210
 20
148.5
 41
1
 42
1
 50
0
  0
LINE
  8
_1-8_小物
  6
CONTINUOUS
 62
    4
 10
282.71851239622572
 20
131.84018902839438
 11
288.58179723614467
 21
130.18752043233468
  0
LINE
  8
_1-8_小物
  6
CONTINUOUS
 62
    4
 10
282.59769820718009
 20
131.35707331101599
 11
288.51189415477899
 21
129.68796469593616
  0
LINE
  8
_1-8_小物
  6
CONTINUOUS
 62
    4
 10
282.71851239622572
 20
127.15981097160564
 11
288.58179723614467
 21
128.81247956766532
  0
LINE
  8
_1-8_小物
  6
CONTINUOUS
 62
    4
 10
282.59769820718009
 20
127.64292668898402
 11
288.51189415477899
 21
129.31203530406384
  0
LINE
  8
_1-8_小物
  6
CONTINUOUS
 62
    4
 10
282.5976982071802
 20
131.35707331101594
 11
282.5976982071802
 21
131.35707331101594
  0
LINE
  8
_1-8_小物
  6
CONTINUOUS
 62
    4
 10
282.5976982071802
 20
131.35707331101594
 11
282.12487528339437
 21
131.45779074697211
  0
LINE
  8
_1-8_小物
  6
CONTINUOUS
 62
    4
 10
282.12487528339437
 20
131.45779074697211
 11
281.63445895336304
 21
131.49902170177148
  0
LINE
  8
_1-8_小物
  6
CONTINUOUS
 62
    4
 10
281.63445895336304
 20
131.49902170177148
 11
281.14135026911151
 21
131.47951339371627
  0
LINE
  8
_1-8_小物
  6
CONTINUOUS
 62
    4
 10
281.14135026911151
 20
131.47951339371627
 11
280.6605320884857
 21
131.39985857287513
  0
LINE
  8
_1-8_小物
  6
CONTINUOUS
 62
    4
 10
280.6605320884857
 20
131.39985857287513
 11
280.20661382859828
 21
131.262477510672
  0
LINE
  8
_1-8_小物
  6
CONTINUOUS
 62
    4
 10
280.20661382859828
 20
131.262477510672
 11
279.79338756608217
 21
131.07154446116377
  0
LINE
  8
_1-8_小物
  6
CONTINUOUS
 62
    4
 10
279.79338756608217
 20
131.07154446116377
 11
279.43340897182128
 21
130.8328608284429
  0
LINE
  8
_1-8_小物
  6
CONTINUOUS
 62
    4
 10
279.43340897182128
 20
130.8328608284429
 11
279.13761581324439
 21
130.55367889390996
  0
LINE
  8
_1-8_小物
  6
CONTINUOUS
 62
    4
 10
279.13761581324439
 20
130.55367889390996
 11
278.91499561579622
 21
130.24248145937278
  0
LINE
  8
_1-8_小物
  6
CONTINUOUS
 62
    4
 10
278.91499561579622
 20
130.24248145937278
 11
278.77231258152494
 21
129.90872410140634
  0
LINE
  8
_1-8_小物
  6
CONTINUOUS
 62
    4
 10
278.77231258152494
 20
129.90872410140634
 11
278.71390206222588
 21
129.56254786844303
  0
LINE
  8
_1-8_小物
  6
CONTINUOUS
 62
    4
 10
278.71390206222588
 20
129.56254786844303
 11
278.74153883197073
 21
129.2144711501478
  0
LINE
  8
_1-8_小物
  6
CONTINUOUS
 62
    4
 10
278.74153883197073
 20
129.2144711501478
 11
278.85438316149566
 21
128.8750700814708
  0
LINE
  8
_1-8_小物
  6
CONTINUOUS
 62
    4
 10
278.85438316149566
 20
128.8750700814708
 11
279.04900633295011
 21
128.55465719213848
  0
LINE
  8
_1-8_小物
  6
CONTINUOUS
 62
    4
 10
279.04900633295011
 20
128.55465719213848
 11
279.31949481975346
 21
128.26296806565651
  0
LINE
  8
_1-8_小物
  6
CONTINUOUS
 62
    4
 10
279.31949481975346
 20
128.26296806565651
 11
279.657629966108
 21
128.0088655285312
  0
LINE
  8
_1-8_小物
  6
CONTINUOUS
 62
    4
 10
279.657629966108
 20
128.0088655285312
 11
280.0531377066963
 21
127.80007035777102
  0
LINE
  8
_1-8_小物
  6
CONTINUOUS
 62
    4
 10
280.0531377066963
 20
127.80007035777102
 11
280.49400073895731
 21
127.64292668898406
  0
LINE
  8
_1-8_小物
  6
CONTINUOUS
 62
    4
 10
280.49400073895731
 20
127.64292668898406
 11
280.96682366274314
 21
127.54220925302788
  0
LINE
  8
_1-8_小物
  6
CONTINUOUS
 62
    4
 10
280.96682366274314
 20
127.54220925302788
 11
281.45723999277448
 21
127.50097829822853
  0
LINE
  8
_1-8_小物
  6
CONTINUOUS
 62
    4
 10
281.45723999277448
 20
127.50097829822853
 11
281.950348677026
 21
127.52048660628371
  0
LINE
  8
_1-8_小物
  6
CONTINUOUS
 62
    4
 10
281.950348677026
 20
127.52048660628371
 11
282.43116685765176
 21
127.60014142712487
  0
LINE
  8
_1-8_小物
  6
CONTINUOUS
 62
    4
 10
282.43116685765176
 20
127.60014142712487
 11
282.59769809938194
 21
127.64292665856117
  0
LINE
  8
_1-8_小物
  6
CONTINUOUS
 62
    4
 10
282.71851239622572
 20
131.84018902839438
 11
282.71851239622572
 21
131.84018902839438
  0
LINE
  8
_1-8_小物
  6
CONTINUOUS
 62
    4
 10
282.71851239622572
 20
131.84018902839438
 11
282.15887093122791
 21
131.95735938339473
  0
LINE
  8
_1-8_小物
  6
CONTINUOUS
 62
    4
 10
282.15887093122791
 20
131.95735938339473
 11
281.58060311942779
 21
131.99986411701445
  0
LINE
  8
_1-8_小物
  6
CONTINUOUS
 62
    4
 10
281.58060311942779
 20
131.99986411701445
 11
281.00127933566921
 21
131.96641174443101
  0
LINE
  8
_1-8_小物
  6
CONTINUOUS
 62
    4
 10
281.00127933566921
 20
131.96641174443101
 11
280.43850203996976
 21
131.85801869905757
  0
LINE
  8
_1-8_小物
  6
CONTINUOUS
 62
    4
 10
280.43850203996976
 20
131.85801869905757
 11
279.90937093568022
 21
131.67797844872831
  0
LINE
  8
_1-8_小物
  6
CONTINUOUS
 62
    4
 10
279.90937093568022
 20
131.67797844872831
 11
279.42996340365107
 21
131.43176142534472
  0
LINE
  8
_1-8_小物
  6
CONTINUOUS
 62
    4
 10
279.42996340365107
 20
131.43176142534472
 11
279.01484599915119
 21
131.12684880857049
  0
LINE
  8
_1-8_小物
  6
CONTINUOUS
 62
    4
 10
279.01484599915119
 20
131.12684880857049
 11
278.67663185445673
 21
130.77250521397303
  0
LINE
  8
_1-8_小物
  6
CONTINUOUS
 62
    4
 10
278.67663185445673
 20
130.77250521397303
 11
278.42559743520962
 21
130.37949719236772
  0
LINE
  8
_1-8_小物
  6
CONTINUOUS
 62
    4
 10
278.42559743520962
 20
130.37949719236772
 11
278.26937029520917
 21
129.95976609361938
  0
LINE
  8
_1-8_小物
  6
CONTINUOUS
 62
    4
 10
278.26937029520917
 20
129.95976609361938
 11
278.2126973170495
 21
129.52606523476928
  0
LINE
  8
_1-8_小物
  6
CONTINUOUS
 62
    4
 10
278.2126973170495
 20
129.52606523476928
 11
278.25730048049411
 21
129.09157239695037
  0
LINE
  8
_1-8_小物
  6
CONTINUOUS
 62
    4
 10
278.25730048049411
 20
129.09157239695037
 11
278.40182454099198
 21
128.66948942517575
  0
LINE
  8
_1-8_小物
  6
CONTINUOUS
 62
    4
 10
278.40182454099198
 20
128.66948942517575
 11
278.64187820809769
 21
128.27264109695858
  0
LINE
  8
_1-8_小物
  6
CONTINUOUS
 62
    4
 10
278.64187820809769
 20
128.27264109695858
 11
278.97016757260911
 21
127.91308544793672
  0
LINE
  8
_1-8_小物
  6
CONTINUOUS
 62
    4
 10
278.97016757260911
 20
127.91308544793672
 11
279.37671772830811
 21
127.6017473945618
  0
LINE
  8
_1-8_小物
  6
CONTINUOUS
 62
    4
 10
279.37671772830811
 20
127.6017473945618
 11
279.84917585443804
 21
127.34808678604095
  0
LINE
  8
_1-8_小物
  6
CONTINUOUS
 62
    4
 10
279.84917585443804
 20
127.34808678604095
 11
280.37318654991179
 21
127.15981097160564
  0
LINE
  8
_1-8_小物
  6
CONTINUOUS
 62
    4
 10
280.37318654991179
 20
127.15981097160564
 11
280.9328280149096
 21
127.04264061660528
  0
LINE
  8
_1-8_小物
  6
CONTINUOUS
 62
    4
 10
280.9328280149096
 20
127.04264061660528
 11
281.51109582670972
 21
127.00013588298553
  0
LINE
  8
_1-8_小物
  6
CONTINUOUS
 62
    4
 10
281.51109582670972
 20
127.00013588298553
 11
282.09041961046825
 21
127.03358825556899
  0
LINE
  8
_1-8_小物
  6
CONTINUOUS
 62
    4
 10
282.09041961046825
 20
127.03358825556899
 11
282.65319690616775
 21
127.14198130094242
  0
LINE
  8
_1-8_小物
  6
CONTINUOUS
 62
    4
 10
282.65319690616775
 20
127.14198130094242
 11
282.71851230902314
 21
127.15981094702607
  0
ARC
  8
_1-8_小物
  6
CONTINUOUS
 62
    4
 10
289.86995020385899
 20
124.5
 40
5
 50
97.55551798992596
 51
105.76016573963432
  0
ARC
  8
_1-8_小物
  6
CONTINUOUS
 62
    4
 10
289.93827812830773
 20
124
 40
5
 50
98.346104300156512
 51
105.74141158032096
  0
ARC
  8
_1-8_小物
  6
CONTINUOUS
 62
    4
 10
289.93827812830773
 20
135
 40
5
 50
254.25858841967906
 51
261.65389569984347
  0
ARC
  8
_1-8_小物
  6
CONTINUOUS
 62
    4
 10
289.86995020385899
 20
134.5
 40
5
 50
254.23983426036568
 51
262.44448201007401
  0
LINE
  8
_1-8_小物
  6
CONTINUOUS
 62
    4
 10
291.87918280640207
 20
129.25
 11
318.21251613973538
 21
129.25
  0
LINE
  8
_1-8_小物
  6
CONTINUOUS
 62
    4
 10
291.87918280640207
 20
129.75
 11
318.21251613973538
 21
129.75
  0
LINE
  8
_1-8_小物
  6
CONTINUOUS
 62
    4
 10
347.87918280640207
 20
129.25
 11
321.54584947306876
 21
129.25
  0
LINE
  8
_1-8_小物
  6
CONTINUOUS
 62
    4
 10
347.87918280640207
 20
129.75
 11
321.54584947306876
 21
129.75
  0
LINE
  8
_0-0_図面枠
  6
CONTINUOUS
 62
    4
 10
182.14999999999998
 20
32.199999999999989
 11
40
 21
32.199999999999989
  0
LINE
  8
_0-0_図面枠
  6
CONTINUOUS
 62
    4
 10
182.14999999999998
 20
26.199999999999989
 11
40
 21
26.199999999999989
  0
TEXT
  8
_0-0_図面枠
 62
    4
 10
43.586831999999958
 20
33.427555499999983
 40
3.2000000000000002
 41
1
 50
0
  1
※
  0
TEXT
  8
_0-0_図面枠
 62
    4
 10
43.586831999999958
 20
27.427560999999969
 40
3.2000000000000002
 41
1
 50
0
  1
※
  0
LINE
  8
_0-0_図面枠
  6
CONTINUOUS
 62
    4
 10
382.15000000000009
 20
26.199999999999989
 11
240
 21
26.199999999999989
  0
LINE
  8
_0-0_図面枠
  6
CONTINUOUS
 62
    4
 10
382.15000000000009
 20
20.199999999999989
 11
240
 21
20.199999999999989
  0
LINE
  8
_0-0_図面枠
  6
CONTINUOUS
 62
    4
 10
382.15000000000009
 20
32.199999999999989
 11
240
 21
32.199999999999989
  0
TEXT
  8
_0-0_図面枠
 62
    4
 10
243.5868145
 20
33.427555499999983
 40
3.2000000000000002
 41
1
 50
0
  1
※
  0
TEXT
  8
_0-0_図面枠
 62
    4
 10
243.5868145
 20
27.427555499999983
 40
3.2000000000000002
 41
1
 50
0
  1
※
  0
TEXT
  8
_0-0_図面枠
 62
    4
 10
243.5868145
 20
21.427558500000004
 40
3.2000000000000002
 41
1
 50
0
  1
※
  0
LINE
  8
_0-0_図面枠
  6
CONTINUOUS
 62
    4
 10
182.14999999999998
 20
20.199999999999989
 11
40
 21
20.199999999999989
  0
TEXT
  8
_0-0_図面枠
 62
    4
 10
43.586831999999958
 20
21.427555499999983
 40
3.2000000000000002
 41
1
 50
0
  1
※
  0
TEXT
  8
_0-0_図面枠
 62
    4
 10
149.27047700000003
 20
27.400014999999996
 40
3.2000000000000002
 41
1
 50
0
  1
６０００
  0
TEXT
  8
_0-0_図面枠
 62
    4
 10
169.36022149999994
 20
27.450002999999981
 40
3.2000000000000002
 41
1
 50
0
  1
１
  0
TEXT
  8
_0-0_図面枠
 62
    4
 10
177.00512500000002
 20
27.40000950000001
 40
3.2000000000000002
 41
1
 50
0
  1
巻
  0
TEXT
  8
_0-0_図面枠
 62
    4
 10
48.400007500000015
 20
27.40000950000001
 40
3.2000000000000002
 41
1
 50
0
  1
ブチルテープ
  0
TEXT
  8
_0-0_図面枠
 62
    4
 10
169.36022149999994
 20
21.450002999999981
 40
3.2000000000000002
 41
1
 50
0
  1
２
  0
TEXT
  8
_0-0_図面枠
 62
    4
 10
177.00512500000002
 20
21.40000950000001
 40
3.2000000000000002
 41
1
 50
0
  1
本
  0
TEXT
  8
_0-0_図面枠
 62
    4
 10
349.27041950000012
 20
27.40000950000001
 40
3.2000000000000002
 41
1
 50
0
  1
６０００
  0
TEXT
  8
_0-0_図面枠
 62
    4
 10
369.8602370000001
 20
27.450002999999981
 40
3.2000000000000002
 41
1
 50
0
  1
１
  0
TEXT
  8
_0-0_図面枠
 62
    4
 10
377.00510200000008
 20
27.40000950000001
 40
3.2000000000000002
 41
1
 50
0
  1
巻
  0
TEXT
  8
_0-0_図面枠
 62
    4
 10
248.400013
 20
27.40000950000001
 40
3.2000000000000002
 41
1
 50
0
  1
ブチルテープ
  0
TEXT
  8
_0-0_図面枠
 62
    4
 10
369.8602370000001
 20
21.450002999999981
 40
3.2000000000000002
 41
1
 50
0
  1
２
  0
TEXT
  8
_0-0_図面枠
 62
    4
 10
377.00510200000008
 20
21.400006499999989
 40
3.2000000000000002
 41
1
 50
0
  1
本
  0
TEXT
  8
_0-0_図面枠
 62
    4
 10
102.06669116666677
 20
27.40000950000001
 40
3.2000000000000002
 41
1
 50
0
  1
ｔ１．０×ｗ３０
  0
TEXT
  8
_0-0_図面枠
 62
    4
 10
102.06669116666677
 20
21.400009499999996
 40
3.2000000000000002
 41
1
 50
0
  1
１.５×(１×１９)Ｌ＝６００
  0
TEXT
  8
_0-0_図面枠
 62
    4
 10
302.06663366666669
 20
27.40000950000001
 40
3.2000000000000002
 41
1
 50
0
  1
ｔ１．０×ｗ３０
  0
TEXT
  8
_0-0_図面枠
 62
    4
 10
302.06669116666671
 20
21.400009499999996
 40
3.2000000000000002
 41
1
 50
0
  1
１.５×(１×１９)Ｌ＝６００
  0
TEXT
  8
_0-0_図面枠
 62
    4
 10
48.400007500000015
 20
21.40000950000001
 40
3.2000000000000002
 41
1
 50
0
  1
落下防止ワイヤー
  0
TEXT
  8
_0-0_図面枠
 62
    4
 10
248.40000750000002
 20
21.40000950000001
 40
3.2000000000000002
 41
1
 50
0
  1
落下防止ワイヤー
  0
TEXT
  8
_0-0_図面枠
 62
    4
 10
353.85000000000002
 20
21.599999999999994
 40
3.2000000000000002
 41
1
 50
0
  1
―
  0
TEXT
  8
_0-0_図面枠
 62
    4
 10
153.85000000000005
 20
21.599999999999994
 40
3.2000000000000002
 41
1
 50
0
  1
―
  0
TEXT
  8
_0-0_図面枠
 62
    4
 10
169.36022149999991
 20
33.450002999999995
 40
3.2000000000000002
 41
1
 50
0
  1
１
  0
TEXT
  8
_0-0_図面枠
 62
    4
 10
177.00512500000002
 20
33.400003999999981
 40
3.2000000000000002
 41
1
 50
0
  1
個
  0
TEXT
  8
_0-0_図面枠
 62
    4
 10
153.85000000000002
 20
33.600000000000009
 40
3.2000000000000002
 41
1
 50
0
  1
―
  0
TEXT
  8
_0-0_図面枠
 62
    4
 10
102.0666796666667
 20
33.400003999999981
 40
3.2000000000000002
 41
1
 50
0
  1
ＡＬ　ｔ＝１．５
  0
TEXT
  8
_0-0_図面枠
 62
    4
 10
369.36022149999991
 20
33.450002999999981
 40
3.2000000000000002
 41
1
 50
0
  1
１
  0
TEXT
  8
_0-0_図面枠
 62
    4
 10
377.00512500000002
 20
33.400003999999967
 40
3.2000000000000002
 41
1
 50
0
  1
個
  0
TEXT
  8
_0-0_図面枠
 62
    4
 10
353.85000000000002
 20
33.599999999999994
 40
3.2000000000000002
 41
1
 50
0
  1
―
  0
TEXT
  8
_0-0_図面枠
 62
    4
 10
302.06667966666669
 20
33.400003999999967
 40
3.2000000000000002
 41
1
 50
0
  1
ＡＬ　ｔ＝１．５
  0
LINE
  8
_0-0_図面枠
  6
CONTINUOUS
 62
    4
 10
182.14999999999998
 20
38.199999999999989
 11
40
 21
38.199999999999989
  0
LINE
  8
_0-0_図面枠
  6
CONTINUOUS
 62
    4
 10
382.15000000000009
 20
38.199999999999989
 11
240
 21
38.199999999999989
  0
TEXT
  8
_0-0_図面枠
 62
    4
 10
153.85000000000002
 20
39.599999999999994
 40
3.2000000000000002
 41
1
 50
0
  1
―
  0
TEXT
  8
_0-0_図面枠
 62
    4
 10
169.36022149999991
 20
39.450002999999924
 40
3.2000000000000002
 41
1
 50
0
  1
６
  0
TEXT
  8
_0-0_図面枠
 62
    4
 10
122.30833333333337
 20
39.599999999999994
 40
3.2000000000000002
 41
1
 50
0
  1
―
  0
TEXT
  8
_0-0_図面枠
 62
    4
 10
40.497050499999972
 20
39.427555499999983
 40
3.2000000000000002
 41
1
 50
0
  1
１２
  0
TEXT
  8
_0-0_図面枠
 62
    4
 10
48.400007499999987
 20
39.400003999999967
 40
3.2000000000000002
 41
1
 50
0
  1
ＳＳＧクリップ
  0
TEXT
  8
_0-0_図面枠
 62
    4
 10
353.85000000000002
 20
39.599999999999994
 40
3.2000000000000002
 41
1
 50
0
  1
―
  0
TEXT
  8
_0-0_図面枠
 62
    4
 10
369.36022149999991
 20
39.450002999999924
 40
3.2000000000000002
 41
1
 50
0
  1
６
  0
TEXT
  8
_0-0_図面枠
 62
    4
 10
322.30833333333334
 20
39.599999999999994
 40
3.2000000000000002
 41
1
 50
0
  1
―
  0
TEXT
  8
_0-0_図面枠
 62
    4
 10
240.49705049999997
 20
39.427555499999983
 40
3.2000000000000002
 41
1
 50
0
  1
１２
  0
TEXT
  8
_0-0_図面枠
 62
    4
 10
248.40000749999999
 20
39.400003999999967
 40
3.2000000000000002
 41
1
 50
0
  1
ＳＳＧクリップ
  0
CIRCLE
  8
_1-f_寸法
  6
CONTINUOUS
 62
    4
 10
81.666666924066476
 20
224.99999999999994
 40
1.6666666666666665
  0
LINE
  8
_1-f_寸法
  6
CONTINUOUS
 62
    4
 10
78.855287770783491
 20
226.86666666666667
 11
80.278189656415066
 21
225.92190490561282
  0
TEXT
  8
_1-f_寸法
 62
    4
 10
80.416666924066448
 20
223.74999999999994
 40
2.5
 41
1
 50
0
  1
12
  0
CIRCLE
  8
_1-f_寸法
  6
CONTINUOUS
 62
    4
 10
85
 20
210
 40
1.6666666666666665
  0
TEXT
  8
_1-f_寸法
 62
    4
 10
84.374999999999972
 20
208.75
 40
2.5
 41
1
 50
0
  1
6
  0
LINE
  8
_1-f_寸法
  6
CONTINUOUS
 62
    4
 10
82.105689660043112
 20
207.01190706271453
 11
83.84042495073345
 21
208.80285193777198
  0
INSERT
  2
-009-_9_
  8
_1-4_フレ__ム
 10
210
 20
148.5
 41
1
 42
1
 50
0
  0
INSERT
  2
-010-_10_
  8
_1-8_小物
 10
210
 20
148.5
 41
1
 42
1
 50
0
  0
LINE
  8
_0-0_図面枠
  6
CONTINUOUS
 62
    4
 10
40
 20
20.199999999999989
 11
40
 21
121.00000000000001
  0
LINE
  8
_0-0_図面枠
  6
CONTINUOUS
 62
    4
 10
47.200000000000045
 20
20.199999999999989
 11
47.200000000000045
 21
121.00000000000001
  0
LINE
  8
_0-0_図面枠
  6
CONTINUOUS
 62
    4
 10
162.95000000000002
 20
20.199999999999989
 11
162.95000000000002
 21
121
  0
LINE
  8
_0-0_図面枠
  6
CONTINUOUS
 62
    4
 10
147.95000000000005
 20
20.199999999999989
 11
147.95000000000005
 21
121
  0
LINE
  8
_0-0_図面枠
  6
CONTINUOUS
 62
    4
 10
174.95000000000005
 20
20.199999999999989
 11
174.95000000000005
 21
121
  0
LINE
  8
_0-0_図面枠
  6
CONTINUOUS
 62
    4
 10
146.95000000000005
 20
20.199999999999989
 11
146.95000000000005
 21
121
  0
LINE
  8
_0-0_図面枠
  6
CONTINUOUS
 62
    4
 10
240
 20
20.199999999999989
 11
240
 21
121
  0
LINE
  8
_0-0_図面枠
  6
CONTINUOUS
 62
    4
 10
247.20000000000005
 20
20.199999999999989
 11
247.20000000000005
 21
121
  0
LINE
  8
_0-0_図面枠
  6
CONTINUOUS
 62
    4
 10
346.95000000000005
 20
20.199999999999989
 11
346.95000000000005
 21
121
  0
LINE
  8
_0-0_図面枠
  6
CONTINUOUS
 62
    4
 10
382.15000000000009
 20
20.199999999999989
 11
382.15000000000009
 21
121
  0
LINE
  8
_0-0_図面枠
  6
CONTINUOUS
 62
    4
 10
374.95000000000005
 20
20.199999999999989
 11
374.95000000000005
 21
121
  0
LINE
  8
_0-0_図面枠
  6
CONTINUOUS
 62
    4
 10
362.95000000000005
 20
20.199999999999989
 11
362.95000000000005
 21
121
  0
LINE
  8
_0-0_図面枠
  6
CONTINUOUS
 62
    4
 10
347.95000000000005
 20
20.199999999999989
 11
347.95000000000005
 21
121
  0
LINE
  8
_0-0_図面枠
  6
CONTINUOUS
 62
    4
 10
182.14999999999998
 20
20.199999999999989
 11
182.14999999999998
 21
121
  0
LINE
  8
_0-0_図面枠
  6
CONTINUOUS
 62
    4
 10
100.86666666666673
 20
20.199999999999989
 11
100.86666666666673
 21
121
  0
LINE
  8
_0-0_図面枠
  6
CONTINUOUS
 62
    4
 10
300.86666666666667
 20
20.199999999999989
 11
300.86666666666667
 21
121
  0
INSERT
  2
-011-_11_
  8
_1-5_ア__ム
 10
210
 20
148.5
 41
1
 42
1
 50
0
  0
ARC
  8
_1-6_ばね
  6
CONTINUOUS
 62
    4
 10
78.139160657113791
 20
227.81855401851971
 40
0.4333333333333333
 50
208.65320608498635
 51
28.653206084987836
  0
LINE
  8
_1-6_ばね
  6
CONTINUOUS
 62
    4
 10
68.952803893183386
 20
232.02368284326735
 11
75.916117949205272
 21
231.24916898534593
  0
LINE
  8
_1-6_ばね
  6
CONTINUOUS
 62
    4
 10
64.211594768131818
 20
232.55103693660749
 11
67.849833113562966
 21
232.14636381770362
  0
LINE
  8
_1-6_ばね
  6
CENTER2
 62
    4
 10
67.457469257845901
 20
231.75399996198655
 11
65.523371202353076
 21
231.96912536556684
  0
LINE
  8
_1-6_ばね
  6
CENTER2
 62
    4
 10
75.868214660804597
 20
230.81849155067098
 11
68.560440037466321
 21
231.63131898755029
  0
LINE
  8
_1-6_ばね
  6
CONTINUOUS
 62
    4
 10
75.820311372403921
 20
230.38781411599601
 11
68.168076181749257
 21
231.23895513183322
  0
LINE
  8
_1-6_ばね
  6
CONTINUOUS
 62
    4
 10
67.065105402128836
 20
231.36163610626949
 11
65.922575814520684
 21
231.48871711849563
  0
INSERT
  2
-012-_12_
  8
_1-8_小物
 10
210
 20
148.5
 41
1
 42
1
 50
0
  0
INSERT
  2
-013-_13_
  8
_1-8_小物
 10
210
 20
148.5
 41
1
 42
1
 50
0
  0
TEXT
  8
_0-0_図面枠
 62
    4
 10
166.27045749999999
 20
69.450008499999967
 40
3.2000000000000002
 41
1
 50
0
  1
１２
  0
TEXT
  8
_0-0_図面枠
 62
    4
 10
366.27045750000013
 20
69.450008499999967
 40
3.2000000000000002
 41
1
 50
0
  1
１２
  0
TEXT
  8
_0-0_図面枠
 62
    4
 10
177.00512500000002
 20
39.399992499999996
 40
3.2000000000000002
 41
1
 50
0
  1
個
  0
TEXT
  8
_0-0_図面枠
 62
    4
 10
377.00512500000002
 20
39.399992499999996
 40
3.2000000000000002
 41
1
 50
0
  1
個
  0
TEXT
  8
_0-0_図面枠
 62
    4
 10
48.400007499999987
 20
51.400003999999953
 40
3.2000000000000002
 41
1
 50
0
  1
アンカープラグ
  0
TEXT
  8
_0-0_図面枠
 62
    4
 10
248.40000749999999
 20
51.400003999999953
 40
3.2000000000000002
 41
1
 50
0
  1
アンカープラグ
  0
LINE
  8
_0-0_図面枠
  6
CONTINUOUS
 62
    2
 10
165.00000000000003
 20
246.99999999999994
 11
165.00000000000003
 21
287
  0
INSERT
  2
-014-_14_
  8
_0-0_図面枠
 10
210
 20
148.5
 41
1
 42
1
 50
0
  0
LINE
  8
_0-0_図面枠
  6
CONTINUOUS
 62
    2
 10
178.99460475445105
 20
263.11505807960714
 11
181.15966826391212
 21
261.86505807960714
  0
LINE
  8
_0-0_図面枠
  6
CONTINUOUS
 62
    2
 10
181.15966826391212
 20
261.86505807960714
 11
195.8821001282476
 21
270.36505807960714
  0
LINE
  8
_0-0_図面枠
  6
CONTINUOUS
 62
    2
 10
195.8821001282476
 20
270.36505807960714
 11
193.71703661878649
 21
271.61505807960714
  0
LINE
  8
_0-0_図面枠
  6
CONTINUOUS
 62
    2
 10
181.15966826391212
 20
261.86505807960714
 11
181.15966826391212
 21
251.86505807960714
  0
LINE
  8
_0-0_図面枠
  6
CONTINUOUS
 62
    2
 10
178.99460475445105
 20
263.11505807960714
 11
178.99460475445105
 21
253.11505807960714
  0
TEXT
  8
_0-0_図面枠
 62
    4
 10
172.59769212770595
 20
280.88494192039275
 40
2.5
 41
1
 50
0
  1
-100
  0
TEXT
  8
_0-0_図面枠
 62
    4
 10
195.11354581797707
 20
280.88494192039269
 40
2.5
 41
1
 50
0
  1
+100
  0
TEXT
  8
_0-0_図面枠
 62
    4
 10
195.11354581797704
 20
267.88540773128045
 40
2.5
 41
1
 50
0
  1
+100
  0
TEXT
  8
_0-0_図面枠
 62
    4
 10
172.59728872183663
 20
267.88610650082211
 40
2.5
 41
1
 50
0
  1
-100
  0
LINE
  8
_0-0_図面枠
  6
CONTINUOUS
 62
    2
 10
195.8821001282476
 20
270.36505807960714
 11
195.8821001282476
 21
270.18409224854935
  0
LINE
  8
_0-0_図面枠
  6
CONTINUOUS
 62
    2
 10
195.8821001282476
 20
268.01364867294285
 11
195.8821001282476
 21
260.36505807960714
  0
LINE
  8
_0-0_図面枠
  6
CONTINUOUS
 62
    2
 10
193.71703661878649
 20
271.61505807960714
 11
193.71703661878649
 21
271.52033947808678
  0
LINE
  8
_0-0_図面枠
  6
CONTINUOUS
 62
    2
 10
193.71703661878649
 20
270.73757885370628
 11
193.71703661878649
 21
269.11505807960714
  0
LINE
  8
_0-0_図面枠
  6
CONTINUOUS
 62
    3
 10
184.19075717715768
 20
266.11505807960714
 11
184.19075717715768
 21
263.61505807960714
  0
LINE
  8
_0-0_図面枠
  6
CONTINUOUS
 62
    3
 10
188.52088419607989
 20
268.61505807960714
 11
188.52088419607989
 21
266.11505807960714
  0
LINE
  8
_0-0_図面枠
  6
CONTINUOUS
 62
    3
 10
184.19075717715768
 20
266.11505807960714
 11
178.99460475445105
 21
263.11505807960714
  0
LINE
  8
_0-0_図面枠
  6
CONTINUOUS
 62
    3
 10
188.52088419607989
 20
268.61505807960714
 11
184.19075717715771
 21
271.11505807960714
  0
LINE
  8
_0-0_図面枠
  6
CONTINUOUS
 62
    3
 10
184.19075717715768
 20
266.11505807960714
 11
179.86063015823549
 21
268.61505807960714
  0
LINE
  8
_0-0_図面枠
  6
CONTINUOUS
 62
    3
 10
178.99460475445105
 20
263.11505807960714
 11
175.53050313931328
 21
261.11505807960714
  0
LINE
  8
_0-0_図面枠
  6
CONTINUOUS
 62
    3
 10
193.71703661878649
 20
271.61505807960714
 11
197.18113823392426
 21
273.61505807960714
  0
LINE
  8
_0-0_図面枠
  6
CONTINUOUS
 62
    3
 10
193.71703661878649
 20
271.61505807960714
 11
193.68236424150382
 21
271.59503997324953
  0
LINE
  8
_0-0_図面枠
  6
CONTINUOUS
 62
    3
 10
192.51835025799224
 20
270.92299618652862
 11
188.52088419607989
 21
268.61505807960714
  0
LINE
  8
_0-0_図面枠
  6
CONTINUOUS
 62
    2
 10
165.00000000000003
 20
246.99999999999994
 11
210.00000000000003
 21
246.99999999999994
  0
LINE
  8
_0-0_図面枠
  6
CONTINUOUS
 62
    2
 10
365.00000000000006
 20
247
 11
365.00000000000006
 21
287
  0
INSERT
  2
-015-_15_
  8
_0-0_図面枠
 10
210
 20
148.5
 41
1
 42
1
 50
0
  0
LINE
  8
_0-0_図面枠
  6
CONTINUOUS
 62
    4
 10
392.70254983187715
 20
272.37647457958167
 11
392.66787745459447
 21
272.35645647322406
  0
LINE
  8
_0-0_図面枠
  6
CONTINUOUS
 62
    2
 10
377.98011796754167
 20
263.87647457958167
 11
380.14518147700278
 21
262.62647457958167
  0
LINE
  8
_0-0_図面枠
  6
CONTINUOUS
 62
    2
 10
380.14518147700278
 20
262.62647457958167
 11
380.14518147700278
 21
252.62647457958167
  0
LINE
  8
_0-0_図面枠
  6
CONTINUOUS
 62
    2
 10
377.98011796754167
 20
263.87647457958167
 11
377.98011796754167
 21
253.87647457958167
  0
LINE
  8
_0-0_図面枠
  6
CONTINUOUS
 62
    2
 10
387.50639740917052
 20
266.87647457958161
 11
390.97049902430831
 21
264.87647457958161
  0
LINE
  8
_0-0_図面枠
  6
CONTINUOUS
 62
    2
 10
390.97049902430831
 20
264.87647457958161
 11
393.13556253376942
 21
266.12647457958161
  0
LINE
  8
_0-0_図面枠
  6
CONTINUOUS
 62
    2
 10
380.14518147700278
 20
262.62647457958167
 11
387.50639740917052
 21
266.87647457958167
  0
LINE
  8
_0-0_図面枠
  6
CONTINUOUS
 62
    2
 10
390.97049902430831
 20
264.87647457958161
 11
390.97049902430831
 21
254.87647457958161
  0
LINE
  8
_0-0_図面枠
  6
CONTINUOUS
 62
    2
 10
393.13556253376942
 20
266.12647457958161
 11
393.13556253376942
 21
256.12647457958161
  0
TEXT
  8
_0-0_図面枠
 62
    4
 10
371.58360876835116
 20
281.64635842036728
 40
2.5
 41
1
 50
0
  1
-100
  0
TEXT
  8
_0-0_図面枠
 62
    4
 10
394.09946245862227
 20
281.64635842036722
 40
2.5
 41
1
 50
0
  1
+100
  0
TEXT
  8
_0-0_図面枠
 62
    4
 10
394.09946245862227
 20
268.64682423125498
 40
2.5
 41
1
 50
0
  1
+100
  0
TEXT
  8
_0-0_図面枠
 62
    4
 10
371.58320536248186
 20
268.64752300079664
 40
2.5
 41
1
 50
0
  1
-100
  0
LINE
  8
_0-0_図面枠
  6
CONTINUOUS
 62
    3
 10
377.98011796754167
 20
263.87647457958167
 11
374.51601635240394
 21
261.87647457958167
  0
LINE
  8
_0-0_図面枠
  6
CONTINUOUS
 62
    3
 10
383.17627039024831
 20
266.87647457958167
 11
383.17627039024831
 21
264.37647457958167
  0
LINE
  8
_0-0_図面枠
  6
CONTINUOUS
 62
    3
 10
383.17627039024831
 20
266.87647457958167
 11
377.98011796754167
 21
263.87647457958167
  0
LINE
  8
_0-0_図面枠
  6
CONTINUOUS
 62
    3
 10
396.16665144701494
 20
264.37647457958167
 11
383.17627039024836
 21
271.87647457958167
  0
LINE
  8
_0-0_図面枠
  6
CONTINUOUS
 62
    3
 10
396.16665144701494
 20
264.37647457958167
 11
400.49677846593715
 21
266.87647457958167
  0
LINE
  8
_0-0_図面枠
  6
CONTINUOUS
 62
    3
 10
396.16665144701494
 20
264.37647457958161
 11
396.16665144701494
 21
254.37647457958161
  0
LINE
  8
_0-0_図面枠
  6
CONTINUOUS
 62
    3
 10
383.17627039024831
 20
266.87647457958167
 11
378.84614337132615
 21
269.37647457958167
  0
LINE
  8
_0-0_図面枠
  6
CONTINUOUS
 62
    2
 10
365.00000000000006
 20
246.99999999999994
 11
410.00000000000006
 21
246.99999999999994
  0
LINE
  8
_1-0_躯体
  6
CENTER2
 62
    4
 10
259.40709729752905
 20
238.33333333333331
 11
239.6686366700888
 21
238.33333333333331
  0
LINE
  8
_1-0_躯体
  6
CENTER2
 62
    4
 10
334.66863674955596
 20
233.07179397977319
 11
334.66863674955596
 21
210
  0
INSERT
  2
-016-_16_
  8
_1-4_フレ__ム
 10
210
 20
148.5
 41
1
 42
1
 50
0
  0
INSERT
  2
-017-_17_
  8
_1-8_小物
 10
210
 20
148.5
 41
1
 42
1
 50
0
  0
INSERT
  2
-018-_18_
  8
_1-8_小物
 10
210
 20
148.5
 41
1
 42
1
 50
0
  0
LINE
  8
_1-3_止水補助板
  6
CONTINUOUS
 62
    4
 10
339.66863667008886
 20
226.66666666666663
 11
339.66863667008886
 21
227.00000000000011
  0
LINE
  8
_1-3_止水補助板
  6
CONTINUOUS
 62
    4
 10
256.33530333675554
 20
242.80000000000166
 11
256.66863667008931
 21
242.80000000000166
  0
LINE
  8
_1-3_止水補助板
  6
CONTINUOUS
 62
    4
 10
256.33530333675554
 20
226.66666666666677
 11
256.33530333675554
 21
242.80000000000166
  0
LINE
  8
_1-3_止水補助板
  6
CONTINUOUS
 62
    4
 10
323.00197000342212
 20
226.66666666666663
 11
339.66863667008886
 21
226.66666666666663
  0
LINE
  8
_1-3_止水補助板
  6
CONTINUOUS
 62
    4
 10
322.7461943407626
 20
227.00000000000011
 11
339.66863667008886
 21
227.00000000000011
  0
LINE
  8
_1-3_止水補助板
  6
CONTINUOUS
 62
    4
 10
323.00197000342212
 20
226.66666666666663
 11
310.06101774829619
 21
178.37037535221327
  0
LINE
  8
_1-3_止水補助板
  6
CONTINUOUS
 62
    4
 10
322.7461943407626
 20
227.00000000000011
 11
309.73904247286634
 21
178.4566483672474
  0
LINE
  8
_1-3_止水補助板
  6
CONTINUOUS
 62
    4
 10
256.33530333675554
 20
226.66666666666663
 11
269.27625559188152
 21
178.37037535221327
  0
ARC
  8
_1-3_止水補助板
  6
CONTINUOUS
 62
    4
 10
289.66863667008886
 20
183.83449739386663
 40
21.111746392113268
 50
195
 51
344.99999999999994
  0
ARC
  8
_1-3_止水補助板
  6
CONTINUOUS
 62
    4
 10
289.66863667008886
 20
183.83449739386663
 40
20.778413058779936
 50
195.00000000000014
 51
344.99999999999983
  0
LINE
  8
_1-3_止水補助板
  6
CONTINUOUS
 62
    4
 10
256.66863667008931
 20
226.7105508325273
 11
256.66863667008931
 21
242.80000000000166
  0
LINE
  8
_1-3_止水補助板
  6
CONTINUOUS
 62
    4
 10
256.66863667008931
 20
226.7105508325273
 11
269.59823086731137
 21
178.4566483672474
  0
INSERT
  2
-019-_19_
  8
_1-8_小物
 10
210
 20
148.5
 41
1
 42
1
 50
0
  0
INSERT
  2
-020-_20_
  8
_1-8_小物
 10
210
 20
148.5
 41
1
 42
1
 50
0
  0
LINE
  8
_1-0_躯体
  6
CENTER2
 62
    4
 10
289.66863667008886
 20
153.33333333333329
 11
289.66863667008886
 21
256.407118657149
  0
LINE
  8
_1-0_躯体
  6
CONTINUOUS
 62
    6
 10
256.33530333675549
 20
251.30886749755271
 11
256.33530333675549
 21
153.33333333333329
  0
LINE
  8
_1-0_躯体
  6
CONTINUOUS
 62
    6
 10
346.33530333675549
 20
226.66666666666663
 11
323.00197000342212
 21
226.66666666666663
  0
LINE
  8
_1-0_躯体
  6
CONTINUOUS
 62
    6
 10
323.00197000342212
 20
226.66666666666663
 11
323.00197000342212
 21
153.33333333333329
  0
LINE
  8
_1-f_寸法
  6
CONTINUOUS
 62
    4
 10
323.00197000342212
 20
149.99999999999994
 11
323.00197000342212
 21
138.39999999999992
  0
LINE
  8
_1-f_寸法
  6
CONTINUOUS
 62
    4
 10
256.33530333675537
 20
149.99999999999994
 11
256.33530333675537
 21
138.39999999999992
  0
POINT
  8
_1-f_寸法
 62
    4
 10
256.33530333675537
 20
139.99999999999994
  0
POINT
  8
_1-f_寸法
 62
    4
 10
323.00197000342212
 20
139.99999999999994
  0
LINE
  8
_1-f_寸法
  6
CONTINUOUS
 62
    4
 10
256.33530333675537
 20
139.99999999999994
 11
323.00197000342212
 21
139.99999999999994
  0
TEXT
  8
_1-f_寸法
 62
    4
 10
287.26863667008877
 20
139.99999999999994
 40
3.2000000000000002
 41
1
 50
0
  1
200
  0
LINE
  8
_1-f_寸法
  6
CONTINUOUS
 62
    4
 10
323.00197000342018
 20
211.66666666666654
 11
323.00197000342018
 21
205.06666666666655
  0
LINE
  8
_1-f_寸法
  6
CONTINUOUS
 62
    4
 10
334.66863667008681
 20
211.66666666666654
 11
334.66863667008681
 21
205.06666666666655
  0
POINT
  8
_1-f_寸法
 62
    4
 10
334.66863667008681
 20
206.66666666666654
  0
POINT
  8
_1-f_寸法
 62
    4
 10
323.00197000342018
 20
206.66666666666654
  0
LINE
  8
_1-f_寸法
  6
CONTINUOUS
 62
    4
 10
334.66863667008681
 20
206.66666666666654
 11
323.00197000342018
 21
206.66666666666654
  0
TEXT
  8
_1-f_寸法
 62
    4
 10
327.23530333675342
 20
206.66666666666654
 40
3.2000000000000002
 41
1
 50
0
  1
35
  0
LINE
  8
_1-f_寸法
  6
CONTINUOUS
 62
    4
 10
239.66863667008926
 20
226.66666674613322
 11
233.06863667008929
 21
226.66666674613322
  0
LINE
  8
_1-f_寸法
  6
CONTINUOUS
 62
    4
 10
239.66863667008926
 20
238.3333374160915
 11
233.06863667008929
 21
238.3333374160915
  0
POINT
  8
_1-f_寸法
 62
    4
 10
234.66863667008926
 20
238.3333374160915
  0
POINT
  8
_1-f_寸法
 62
    4
 10
234.66863667008926
 20
226.66666674613322
  0
LINE
  8
_1-f_寸法
  6
CONTINUOUS
 62
    4
 10
234.66863667008926
 20
238.3333374160915
 11
234.66863667008926
 21
226.66666674613322
  0
TEXT
  8
_1-f_寸法
 62
    4
 10
234.66863667008926
 20
230.90000208111238
 40
3.2000000000000002
 41
1
 50
90
  1
35
  0
LINE
  8
_1-f_寸法
  6
CONTINUOUS
 62
    4
 10
239.66863667008926
 20
226.66666674613322
 11
304.66863667008886
 21
226.66666674613322
  0
CIRCLE
  8
_1-f_寸法
  6
CONTINUOUS
 62
    4
 10
346.33530333675549
 20
231.66666666666663
 40
1.6666666666666665
  0
CIRCLE
  8
_1-f_寸法
  6
CONTINUOUS
 62
    4
 10
346.33530333675549
 20
231.66666666666663
 40
1.6666666666666665
  0
LINE
  8
_1-f_寸法
  6
CONTINUOUS
 62
    4
 10
345.15679203477794
 20
230.48815536468899
 11
342.83530333675549
 21
228.16666666666663
  0
TEXT
  8
_1-f_寸法
 62
    4
 10
345.08530333675549
 20
230.41666666666663
 40
2.5
 41
1
 50
0
  1
11
  0
CIRCLE
  8
_1-f_寸法
  6
CONTINUOUS
 62
    4
 10
328.00197000342212
 20
221.66666666666663
 40
1.6666666666666665
  0
CIRCLE
  8
_1-f_寸法
  6
CONTINUOUS
 62
    4
 10
341.33530333675549
 20
214.99999999999994
 40
1.6666666666666665
  0
CIRCLE
  8
_1-f_寸法
  6
CONTINUOUS
 62
    4
 10
341.33530333675549
 20
221.66666666666663
 40
1.6666666666666665
  0
TEXT
  8
_1-f_寸法
 62
    4
 10
340.71030333675549
 20
220.41666666666663
 40
2.5
 41
1
 50
0
  1
8
  0
TEXT
  8
_1-f_寸法
 62
    4
 10
327.37697000342212
 20
220.41666666666663
 40
2.5
 41
1
 50
0
  1
9
  0
TEXT
  8
_1-f_寸法
 62
    4
 10
340.08530333675549
 20
213.74999999999994
 40
2.5
 41
1
 50
0
  1
10
  0
LINE
  8
_1-f_寸法
  6
CONTINUOUS
 62
    4
 10
329.02207657173813
 20
222.98468046289793
 11
332.71030333675549
 21
227.74999999999994
  0
LINE
  8
_1-f_寸法
  6
CONTINUOUS
 62
    4
 10
340.17419428486335
 20
222.86232696432319
 11
334.66863667008874
 21
228.53171404361663
  0
LINE
  8
_1-f_寸法
  6
CONTINUOUS
 62
    4
 10
340.37043347162137
 20
216.35897164103361
 11
335.41863667008863
 21
223.33333333333314
  0
CIRCLE
  8
_1-f_寸法
  6
CONTINUOUS
 62
    4
 10
322.16866950123858
 20
238.33333333386034
 40
1.6666666666666665
  0
TEXT
  8
_1-f_寸法
 62
    4
 10
321.54366950123858
 20
237.08333333386034
 40
2.5
 41
1
 50
0
  1
7
  0
LINE
  8
_1-f_寸法
  6
CONTINUOUS
 62
    4
 10
325.66865308675506
 20
236.00340566719368
 11
323.55604074667644
 21
237.40976481712212
  0
CIRCLE
  8
_1-f_寸法
  6
CONTINUOUS
 62
    4
 10
339.66863666135578
 20
238.33333331469987
 40
1.6666666666666665
  0
TEXT
  8
_1-f_寸法
 62
    4
 10
339.04363666135578
 20
237.08333331469987
 40
2.5
 41
1
 50
0
  1
2
  0
LINE
  8
_1-f_寸法
  6
CONTINUOUS
 62
    4
 10
336.70490386850111
 20
233.19999753741757
 11
338.83530332802252
 21
236.8899576417258
  0
CIRCLE
  8
_1-f_寸法
  6
CONTINUOUS
 62
    4
 10
333.00197000342223
 20
238.33333333333329
 40
1.6666666666666665
  0
TEXT
  8
_1-f_寸法
 62
    4
 10
332.37697000342223
 20
237.08333333333329
 40
2.5
 41
1
 50
0
  1
5
  0
LINE
  8
_1-f_寸法
  6
CONTINUOUS
 62
    4
 10
332.00064172473981
 20
237.00099724356886
 11
325.79953608617507
 21
228.7500000465667
  0
LINE
  8
_1-f_寸法
  6
CONTINUOUS
 62
    4
 10
252.8479079473791
 20
244.30013516702451
 11
256.91863667008806
 21
242.41666658720027
  0
CIRCLE
  8
_1-f_寸法
  6
CONTINUOUS
 62
    4
 10
251.33530333675458
 20
244.99999591724216
 40
1.6666666666666665
  0
TEXT
  8
_1-f_寸法
 62
    4
 10
250.71030333675458
 20
243.74999591724216
 40
2.5
 41
1
 50
0
  1
4
  0
CIRCLE
  8
_1-f_寸法
  6
CONTINUOUS
 62
    4
 10
268.00197000342189
 20
244.99999990189988
 40
1.6666666666666665
  0
TEXT
  8
_1-f_寸法
 62
    4
 10
267.37697000342189
 20
243.74999990189988
 40
2.5
 41
1
 50
0
  1
3
  0
LINE
  8
_1-f_寸法
  6
CONTINUOUS
 62
    4
 10
267.16863667008852
 20
243.55662422892581
 11
263.12697000342143
 21
236.55625221500102
  0
CIRCLE
  8
_1-f_寸法
  6
CONTINUOUS
 62
    4
 10
268.83533616790498
 20
238.33333325439384
 40
1.6666666666666665
  0
TEXT
  8
_1-f_寸法
 62
    4
 10
268.21033616790498
 20
237.08333325439384
 40
2.5
 41
1
 50
0
  1
7
  0
LINE
  8
_1-f_寸法
  6
CONTINUOUS
 62
    4
 10
272.33531975342146
 20
236.00340558772717
 11
270.22270741334285
 21
237.40976473765562
  0
CIRCLE
  8
_1-f_寸法
  6
CONTINUOUS
 62
    4
 10
261.33530333675503
 20
253.33333325386675
 40
1.6666666666666665
  0
CIRCLE
  8
_1-f_寸法
  6
CONTINUOUS
 62
    4
 10
261.33530333675503
 20
253.33333325386675
 40
1.6666666666666665
  0
LINE
  8
_1-f_寸法
  6
CONTINUOUS
 62
    4
 10
260.15679203477748
 20
252.15482195188918
 11
257.83530333675503
 21
249.83333325386675
  0
TEXT
  8
_1-f_寸法
 62
    4
 10
260.08530333675503
 20
252.08333325386675
 40
2.5
 41
1
 50
0
  1
11
  0
CIRCLE
  8
_1-f_寸法
  6
CONTINUOUS
 62
    4
 10
246.33530333675503
 20
243.33333325386678
 40
1.6666666666666665
  0
TEXT
  8
_1-f_寸法
 62
    4
 10
245.71030333675503
 20
242.08333325386678
 40
2.5
 41
1
 50
0
  1
9
  0
CIRCLE
  8
_1-f_寸法
  6
CONTINUOUS
 62
    4
 10
251.33530333675503
 20
233.33333325386678
 40
1.6666666666666665
  0
TEXT
  8
_1-f_寸法
 62
    4
 10
250.71030333675503
 20
232.08333325386678
 40
2.5
 41
1
 50
0
  1
8
  0
CIRCLE
  8
_1-f_寸法
  6
CONTINUOUS
 62
    4
 10
244.6686366700884
 20
233.33333325386678
 40
1.6666666666666665
  0
TEXT
  8
_1-f_寸法
 62
    4
 10
243.4186366700884
 20
232.08333325386678
 40
2.5
 41
1
 50
0
  1
10
  0
LINE
  8
_1-f_寸法
  6
CONTINUOUS
 62
    4
 10
246.15336242512933
 20
234.09054340309598
 11
253.00197000342166
 21
237.58333333333343
  0
CIRCLE
  8
_1-f_寸法
  6
CONTINUOUS
 62
    4
 10
309.66863666951724
 20
238.33332698040721
 40
1.6666666666666665
  0
TEXT
  8
_1-f_寸法
 62
    4
 10
309.04363666951724
 20
237.08332698040721
 40
2.5
 41
1
 50
0
  1
1
  0
LINE
  8
_1-f_寸法
  6
CONTINUOUS
 62
    4
 10
311.73747513411342
 20
234.74999364707404
 11
310.5019700028505
 21
236.88995130743314
  0
LINE
  8
_1-f_寸法
  6
CONTINUOUS
 62
    4
 10
348.00197000342206
 20
234.99999999999994
 11
354.60197000342203
 21
234.99999999999994
  0
LINE
  8
_1-f_寸法
  6
CONTINUOUS
 62
    4
 10
348.00197000342206
 20
226.66666666666663
 11
354.60197000342203
 21
226.66666666666663
  0
POINT
  8
_1-f_寸法
 62
    4
 10
353.00197000342206
 20
226.66666666666663
  0
POINT
  8
_1-f_寸法
 62
    4
 10
353.00197000342206
 20
234.99999999999994
  0
LINE
  8
_1-f_寸法
  6
CONTINUOUS
 62
    4
 10
353.00197000342206
 20
226.66666666666663
 11
353.00197000342206
 21
234.99999999999994
  0
TEXT
  8
_1-f_寸法
 62
    4
 10
353.00197000342206
 20
229.23333333333329
 40
3.2000000000000002
 41
1
 50
90
  1
25
  0
LINE
  8
_1-f_寸法
  6
CONTINUOUS
 62
    4
 10
348.00197000342206
 20
249.99999364707412
 11
354.60197000342203
 21
249.99999364707412
  0
POINT
  8
_1-f_寸法
 62
    4
 10
353.00197000342206
 20
249.99999364707412
  0
LINE
  8
_1-f_寸法
  6
CONTINUOUS
 62
    4
 10
353.00197000342206
 20
234.99999999999994
 11
353.00197000342206
 21
249.99999364707412
  0
TEXT
  8
_1-f_寸法
 62
    4
 10
353.00197000342206
 20
240.89999682353698
 40
3.2000000000000002
 41
1
 50
90
  1
45
  0
LINE
  8
_1-f_寸法
  6
CONTINUOUS
 62
    4
 10
354.66863667008874
 20
249.99999364707412
 11
361.26863667008871
 21
249.99999364707412
  0
LINE
  8
_1-f_寸法
  6
CONTINUOUS
 62
    4
 10
354.66863667008874
 20
226.66666666666663
 11
361.26863667008871
 21
226.66666666666663
  0
POINT
  8
_1-f_寸法
 62
    4
 10
359.66863667008874
 20
226.66666666666663
  0
POINT
  8
_1-f_寸法
 62
    4
 10
359.66863667008874
 20
249.99999364707412
  0
LINE
  8
_1-f_寸法
  6
CONTINUOUS
 62
    4
 10
359.66863667008874
 20
226.66666666666663
 11
359.66863667008874
 21
249.99999364707412
  0
TEXT
  8
_1-f_寸法
 62
    4
 10
359.66863667008874
 20
236.7333301568703
 40
3.2000000000000002
 41
1
 50
90
  1
70
  0
LINE
  8
_1-f_寸法
  6
CONTINUOUS
 62
    4
 10
348.00197000342206
 20
249.99999364707412
 11
266.33530333675537
 21
249.99999364707412
  0
LINE
  8
_1-f_寸法
  6
CONTINUOUS
 62
    4
 10
264.66863667008874
 20
253.33334603918505
 11
264.66863667008874
 21
259.93334603918498
  0
LINE
  8
_1-f_寸法
  6
CONTINUOUS
 62
    4
 10
256.33530333675537
 20
253.33334603918505
 11
256.33530333675537
 21
259.93334603918498
  0
POINT
  8
_1-f_寸法
 62
    4
 10
256.33530333675537
 20
258.33334603918502
  0
POINT
  8
_1-f_寸法
 62
    4
 10
264.66863667008874
 20
258.33334603918502
  0
LINE
  8
_1-f_寸法
  6
CONTINUOUS
 62
    4
 10
256.33530333675537
 20
258.33334603918502
 11
264.66863667008874
 21
258.33334603918502
  0
TEXT
  8
_1-f_寸法
 62
    4
 10
258.90197000342198
 20
258.33334603918502
 40
3.2000000000000002
 41
1
 50
0
  1
25
  0
LINE
  8
_1-f_寸法
  6
CONTINUOUS
 62
    4
 10
343.00197000285027
 20
253.33334603918505
 11
343.00197000285027
 21
259.93334603918498
  0
POINT
  8
_1-f_寸法
 62
    4
 10
343.00197000285027
 20
258.33334603918502
  0
LINE
  8
_1-f_寸法
  6
CONTINUOUS
 62
    4
 10
264.66863667008874
 20
258.33334603918502
 11
343.00197000285027
 21
258.33334603918502
  0
TEXT
  8
_1-f_寸法
 62
    4
 10
301.43530333646947
 20
258.33334603918502
 40
3.2000000000000002
 41
1
 50
0
  1
235
  0
LINE
  8
_1-f_寸法
  6
CONTINUOUS
 62
    4
 10
343.00197000285027
 20
253.33334603918505
 11
343.00197000285027
 21
264.93334603918498
  0
LINE
  8
_1-f_寸法
  6
CONTINUOUS
 62
    4
 10
256.33530333675549
 20
253.33334603918505
 11
256.33530333675549
 21
264.93334603918498
  0
POINT
  8
_1-f_寸法
 62
    4
 10
256.33530333675549
 20
263.33334603918502
  0
POINT
  8
_1-f_寸法
 62
    4
 10
343.00197000285027
 20
263.33334603918502
  0
LINE
  8
_1-f_寸法
  6
CONTINUOUS
 62
    4
 10
256.33530333675549
 20
263.33334603918502
 11
343.00197000285027
 21
263.33334603918502
  0
TEXT
  8
_1-f_寸法
 62
    4
 10
297.26863666980285
 20
263.33334603918502
 40
3.2000000000000002
 41
1
 50
0
  1
260
  0
LINE
  8
_1-f_寸法
  6
CONTINUOUS
 62
    4
 10
343.00197000285027
 20
253.33334603918505
 11
343.00197000285027
 21
236.66667937251842
  0
ARC
  8
_1-8_小物
  6
CONTINUOUS
 62
    4
 10
343.57623667814988
 20
228.78981478209704
 40
3.0129628785275182
 50
195.19701498033368
 51
224.80298501965635
  0
INSERT
  2
-021-_21_
  8
_1-7_カバ__
 10
210
 20
148.5
 41
1
 42
1
 50
0
  0
LINE
  8
_1-f_寸法
  6
CONTINUOUS
 62
    4
 10
323.00197000342212
 20
226.66666666666654
 11
323.00197000342212
 21
205.06666666666655
  0
LINE
  8
_1-f_寸法
  6
CONTINUOUS
 62
    4
 10
304.33530341622247
 20
226.66666666666654
 11
304.33530341622247
 21
205.06666666666655
  0
POINT
  8
_1-f_寸法
 62
    4
 10
304.33530341622247
 20
206.66666666666654
  0
POINT
  8
_1-f_寸法
 62
    4
 10
323.00197000342212
 20
206.66666666666654
  0
LINE
  8
_1-f_寸法
  6
CONTINUOUS
 62
    4
 10
304.33530341622247
 20
206.66666666666654
 11
323.00197000342212
 21
206.66666666666654
  0
TEXT
  8
_1-f_寸法
 62
    4
 10
312.06863670982227
 20
206.66666666666654
 40
3.2000000000000002
 41
1
 50
0
  1
56
  0
LINE
  8
_1-f_寸法
  6
CONTINUOUS
 62
    4
 10
247.9473193478172
 20
242.91003411867166
 11
257.91863667008909
 21
240.29166682559949
  0
LINE
  8
_1-f_寸法
  6
CONTINUOUS
 62
    4
 10
258.70944980592242
 20
238.33333333333331
 11
252.71476721230601
 21
234.26867126433552
  0
ARC
  8
_1-f_寸法
  6
CONTINUOUS
 62
    4
 10
260.64363665332553
 20
251.96865838639462
 40
6.7166666375130486
 50
230.10077861169503
 51
254.38150176464501
  0
INSERT
  2
-022-_22_
  8
_1-8_小物
 10
210
 20
148.5
 41
1
 42
1
 50
0
  0
LINE
  8
_1-6_ばね
  6
CENTER2
 62
    4
 10
261.618636667906
 20
247.49999999999991
 11
261.618636667906
 21
240.83333333333326
  0
LINE
  8
_1-6_ばね
  6
CENTER2
 62
    4
 10
264.95197000123926
 20
244.16666666666657
 11
258.28530333457263
 21
244.16666666666657
  0
CIRCLE
  8
_1-6_ばね
  6
CONTINUOUS
 62
    4
 10
261.618636667906
 20
244.16666666666657
 40
1.4166666739834075
  0
ARC
  8
_1-6_ばね
  6
CONTINUOUS
 62
    4
 10
272.77297639998801
 20
232.43333336660004
 40
0.8666666666666667
 50
90
 51
120.49335808176535
  0
ARC
  8
_1-6_ばね
  6
CONTINUOUS
 62
    4
 10
269.06429694018732
 20
233.26666672255001
 40
0.8666666666666667
 50
270
 51
300.49335808175789
  0
LINE
  8
_1-6_ばね
  6
CONTINUOUS
 62
    4
 10
269.06429694018732
 20
231.53333338921666
 11
264.05197000342082
 21
231.53333338921666
  0
LINE
  8
_1-6_ばね
  6
CONTINUOUS
 62
    4
 10
272.3331963869183
 20
233.18012962476928
 11
269.94385696632673
 21
231.77307420621156
  0
ARC
  8
_1-6_ばね
  6
CONTINUOUS
 62
    4
 10
269.06429694018732
 20
233.26666672255001
 40
1.7333333333333334
 50
270
 51
300.49335808175329
  0
ARC
  8
_1-6_ばね
  6
CONTINUOUS
 62
    4
 10
272.7729763999879
 20
232.43333336659998
 40
1.7333333333333334
 50
90
 51
120.49335808175535
  0
ARC
  8
_1-6_ばね
  6
CENTER2
 62
    4
 10
269.06429694018755
 20
233.26666672254993
 40
1.2999999999999998
 50
270
 51
300.49335808175448
  0
ARC
  8
_1-6_ばね
  6
CENTER2
 62
    4
 10
272.7729763999879
 20
232.43333336659998
 40
1.2999999999999998
 50
90
 51
120.49335808175448
  0
ARC
  8
_1-6_ばね
  6
CONTINUOUS
 62
    4
 10
264.05197000342116
 20
233.26666672255001
 40
0.8666666666666667
 50
180
 51
270
  0
ARC
  8
_1-6_ばね
  6
CONTINUOUS
 62
    4
 10
264.05197000342082
 20
233.26666672255001
 40
1.7333333333333334
 50
180
 51
270
  0
ARC
  8
_1-6_ばね
  6
CENTER2
 62
    4
 10
264.05197000342116
 20
233.26666672254993
 40
1.2999999999999998
 50
180
 51
270
  0
LINE
  8
_1-6_ばね
  6
CONTINUOUS
 62
    4
 10
263.18530333675437
 20
238.91283391237835
 11
263.18530333675437
 21
233.26666672255001
  0
ARC
  8
_1-6_ばね
  6
CONTINUOUS
 62
    4
 10
261.45197000342102
 20
238.91283391237835
 40
1.7333333333333334
 50
0
 51
34.999999999999957
  0
LINE
  8
_1-6_ばね
  6
CENTER2
 62
    4
 10
260.10320537997779
 20
243.10555025522058
 11
262.5168676609967
 21
239.65848327963482
  0
LINE
  8
_1-6_ばね
  6
CENTER2
 62
    4
 10
262.75197000342098
 20
238.91283391237849
 11
262.75197000342098
 21
233.26666672255001
  0
ARC
  8
_1-6_ばね
  6
CENTER2
 62
    4
 10
261.45197000342102
 20
238.91283391237849
 40
1.2999999999999998
 50
0
 51
34.999999999999538
  0
ARC
  8
_1-6_ばね
  6
CONTINUOUS
 62
    4
 10
261.4519700034208
 20
238.91283391237872
 40
0.8666666666666667
 50
0
 51
34.999999999996561
  0
LINE
  8
_1-6_ばね
  6
CENTER2
 62
    4
 10
269.06429694018755
 20
231.96666672254992
 11
264.05197000342116
 21
231.96666672254992
  0
LINE
  8
_1-6_ばね
  6
CENTER2
 62
    4
 10
272.11330638038339
 20
233.55352775385373
 11
269.72396695979205
 21
232.14647233529618
  0
LINE
  8
_1-6_ばね
  6
CONTINUOUS
 62
    4
 10
271.89341637384848
 20
233.92692588293841
 11
269.50407695325703
 21
232.51987046438072
  0
LINE
  8
_1-6_ばね
  6
CONTINUOUS
 62
    4
 10
269.06429694018732
 20
232.40000005588331
 11
264.05197000342116
 21
232.40000005588331
  0
ARC
  8
_1-6_ばね
  6
CONTINUOUS
 62
    4
 10
277.11863667008777
 20
232.43333336660004
 40
0.8666666666666667
 50
0
 51
90
  0
LINE
  8
_1-6_ばね
  6
CONTINUOUS
 62
    4
 10
277.98530333675444
 20
231.63333336660008
 11
277.98530333675444
 21
232.43333336660004
  0
LINE
  8
_1-6_ばね
  6
CONTINUOUS
 62
    4
 10
278.85197000342123
 20
231.63333336660008
 11
278.85197000342123
 21
232.43333336659998
  0
ARC
  8
_1-6_ばね
  6
CONTINUOUS
 62
    4
 10
277.11863667008788
 20
232.43333336659998
 40
1.7333333333333334
 50
0
 51
90
  0
ARC
  8
_1-6_ばね
  6
CENTER2
 62
    4
 10
277.11863667008777
 20
232.43333336659998
 40
1.2999999999999998
 50
0
 51
90
  0
LINE
  8
_1-6_ばね
  6
CENTER2
 62
    4
 10
278.41863667008784
 20
231.63333336660008
 11
278.41863667008784
 21
232.43333336659998
  0
LINE
  8
_1-6_ばね
  6
CONTINUOUS
 62
    4
 10
281.58994935289866
 20
230.3565926280684
 11
283.63273453454929
 21
232.07069292056582
  0
LINE
  8
_1-6_ばね
  6
CONTINUOUS
 62
    4
 10
283.63273453454929
 20
232.07069292056582
 11
284.18981712961101
 21
231.4067877365294
  0
LINE
  8
_1-6_ばね
  6
CONTINUOUS
 62
    4
 10
282.14703194796027
 20
229.69268744403195
 11
284.18981712961101
 21
231.4067877365294
  0
LINE
  8
_1-6_ばね
  6
CENTER2
 62
    4
 10
281.86849065042952
 20
230.02464003605019
 11
283.91127583208015
 21
231.73874032854761
  0
ARC
  8
_1-6_ばね
  6
CONTINUOUS
 62
    4
 10
280.51863667008786
 20
231.63333336660003
 40
1.6666666666666665
 50
179.99999999999804
 51
309.99999999999545
  0
ARC
  8
_1-6_ばね
  6
CENTER2
 62
    4
 10
280.51863667008786
 20
231.63333336660003
 40
2.0999999999999996
 50
179.99999999999844
 51
309.99999999999733
  0
ARC
  8
_1-6_ばね
  6
CONTINUOUS
 62
    4
 10
280.51863667008786
 20
231.63333336660003
 40
2.5333333333333328
 50
179.99999999999872
 51
309.99999999999744
  0
LINE
  8
_1-6_ばね
  6
CONTINUOUS
 62
    4
 10
277.11863667008788
 20
234.16666669993333
 11
272.7729763999879
 21
234.16666669993333
  0
LINE
  8
_1-6_ばね
  6
CENTER2
 62
    4
 10
277.11863667008777
 20
233.73333336659994
 11
272.7729763999879
 21
233.73333336659994
  0
LINE
  8
_1-6_ばね
  6
CONTINUOUS
 62
    4
 10
277.11863667008777
 20
233.30000003326668
 11
272.77297639998801
 21
233.30000003326668
  0
LINE
  8
_1-6_ばね
  6
CONTINUOUS
 62
    4
 10
260.45817126583643
 20
243.35410004430588
 11
262.87183354685533
 21
239.90703306872015
  0
ARC
  8
_1-6_ばね
  6
CENTER2
 62
    4
 10
261.618636667906
 20
244.16666666666657
 40
1.8500000073167409
 50
255.02483380297036
 51
215.00000000000063
  0
ARC
  8
_1-6_ばね
  6
CONTINUOUS
 62
    4
 10
261.618636667906
 20
244.16666666666657
 40
2.2833333406500742
 50
266.6518764977946
 51
214.99999999999559
  0
LINE
  8
_1-6_ばね
  6
CONTINUOUS
 62
    4
 10
262.31863667008747
 20
238.91283391237872
 11
262.31863667008747
 21
233.26666672255001
  0
LINE
  8
_1-6_ばね
  6
CONTINUOUS
 62
    4
 10
259.74823949411916
 20
242.8570004661351
 11
262.16190177513795
 21
239.40993349054958
  0
CIRCLE
  8
_1-f_寸法
  6
CONTINUOUS
 62
    4
 10
261.33530333675651
 20
224.99999599670838
 40
1.6666666666666665
  0
TEXT
  8
_1-f_寸法
 62
    4
 10
260.08530333675651
 20
223.74999599670838
 40
2.5
 41
1
 50
0
  1
12
  0
LINE
  8
_1-f_寸法
  6
CONTINUOUS
 62
    4
 10
260.21060244733718
 20
226.22996578784844
 11
257.95197000342324
 21
228.69999999999999
  0
CIRCLE
  8
_1-f_寸法
  6
CONTINUOUS
 62
    4
 10
264.66863667008874
 20
210
 40
1.6666666666666665
  0
TEXT
  8
_1-f_寸法
 62
    4
 10
264.04363667008874
 20
208.75
 40
2.5
 41
1
 50
0
  1
6
  0
LINE
  8
_1-f_寸法
  6
CONTINUOUS
 62
    4
 10
261.77432633013098
 20
207.01190706271362
 11
263.50906162082219
 21
208.80285193777198
  0
INSERT
  2
-023-_23_
  8
_1-4_フレ__ム
 10
210
 20
148.5
 41
1
 42
1
 50
0
  0
INSERT
  2
-024-_24_
  8
_1-8_小物
 10
210
 20
148.5
 41
1
 42
1
 50
0
  0
INSERT
  2
-025-_25_
  8
_1-5_ア__ム
 10
210
 20
148.5
 41
1
 42
1
 50
0
  0
LINE
  8
_1-6_ばね
  6
CONTINUOUS
 62
    4
 10
263.73511344973997
 20
243.30984861335412
 11
262.54595439424878
 21
240.37243673095401
  0
LINE
  8
_1-6_ばね
  6
CONTINUOUS
 62
    4
 10
262.15835351003784
 20
239.41500093827966
 11
258.22030379528252
 21
229.68739219478277
  0
LINE
  8
_1-6_ばね
  6
CENTER2
 62
    4
 10
257.8186366700902
 20
229.8499999999998
 11
261.86212505442529
 21
239.83805901670303
  0
LINE
  8
_1-6_ばね
  6
CENTER2
 62
    4
 10
262.24972593863629
 20
240.79549480937737
 11
262.83124187621854
 21
242.23193160643285
  0
LINE
  8
_1-6_ばね
  6
CONTINUOUS
 62
    4
 10
261.9534974830238
 20
241.21855288780057
 11
262.25981490029778
 21
241.97520559723563
  0
LINE
  8
_1-6_ばね
  6
CONTINUOUS
 62
    4
 10
257.41696954489777
 20
230.01260780521685
 11
261.56589659881286
 21
240.26111709512622
  0
ARC
  8
_1-6_ばね
  6
CONTINUOUS
 62
    4
 10
257.8186366700902
 20
229.8499999999998
 40
0.4333333333333333
 50
157.96031013033797
 51
337.9603101303282
  0
INSERT
  2
-026-_26_
  8
_1-8_小物
 10
210
 20
148.5
 41
1
 42
1
 50
0
  0
INSERT
  2
-027-_27_
  8
_1-8_小物
 10
210
 20
148.5
 41
1
 42
1
 50
0
  0
INSERT
  2
-028-_28_
  8
_1-8_小物
 10
210
 20
148.5
 41
1
 42
1
 50
0
  0
INSERT
  2
-029-_29_
  8
_1-8_小物
 10
210
 20
148.5
 41
1
 42
1
 50
0
  0
INSERT
  2
-030-_30_
  8
_1-8_小物
 10
210
 20
148.5
 41
1
 42
1
 50
0
  0
TEXT
  8
_0-0_図面枠
 62
    4
 10
48.400007500000015
 20
45.400003999999967
 40
3.2000000000000002
 41
1
 50
0
  1
ガスケットＧＮ
  0
TEXT
  8
_0-0_図面枠
 62
    4
 10
149.27047700000003
 20
45.40000950000001
 40
3.2000000000000002
 41
1
 50
0
  1
３０１０
  0
TEXT
  8
_0-0_図面枠
 62
    4
 10
248.4000075000001
 20
45.400003999999967
 40
3.2000000000000002
 41
1
 50
0
  1
ガスケットＧＮ
  0
TEXT
  8
_0-0_図面枠
 62
    4
 10
349.27047700000014
 20
45.40000950000001
 40
3.2000000000000002
 41
1
 50
0
  1
３０１０
  0
LINE
  8
_0-0_図面枠
  6
CONTINUOUS
 62
    4
 10
387.50639740917046
 20
266.87647457958155
 11
387.50639740917046
 21
256.87647457958155
  0
TEXT
  8
_0-0_図面枠
 62
    4
 10
247.20000000000005
 20
35.200000000000003
 40
2.5
 41
1
 50
0
  1
 ジョイントプレート
  0
TEXT
  8
_0-0_図面枠
 62
    4
 10
47.200000000000045
 20
35.200000000000003
 40
2.5
 41
1
 50
0
  1
 ジョイントプレート
  0
TEXT
  8
_0-0_図面枠
 62
    4
 10
47.200000000000045
 20
32.200000000000003
 40
2.5
 41
1
 50
0
  1
（２００ＳＳＧＪＰ-Ａ）
  0
TEXT
  8
_0-0_図面枠
 62
    4
 10
247.20000000000005
 20
32.200000000000003
 40
2.5
 41
1
 50
0
  1
（２００ＳＣＧＪＰ-Ａ）
  0
ENDSEC
  0
EOF
