  0
SECTION
  2
HEADER
  9
$ACADVER
  1
AC1009
  9
$INSBASE
 10
0
 20
0
 30
0
  9
$EXTMIN
 10
0
 20
0
  9
$EXTMAX
 10
420
 20
297
  9
$LIMMIN
 10
0
 20
0
  9
$LIMMAX
 10
420
 20
297
  9
$LTSCALE
 40
1
  0
ENDSEC
  0
SECTION
  2
TABLES
  0
TABLE
  2
LTYPE
 70
     9
  0
LTYPE
  2
CONTINUOUS
 70
    64
  3
実線
 72
    65
 73
     0
 40
0.0
  0
LTYPE
  2
DASHED1
 70
    64
  3
--  --  --  --  --  --  --  --  
 72
    65
 73
     2
 40
2.5
 49
1.25
 49
-1.25
  0
LTYPE
  2
DASHED2
 70
    64
  3
----    ----    ----    ----    
 72
    65
 73
     2
 40
5.0
 49
2.5
 49
-2.5
  0
LTYPE
  2
DASHED3
 70
    64
  3
------  ------  ------  ------  
 72
    65
 73
     2
 40
5.0
 49
3.75
 49
-1.25
  0
LTYPE
  2
CENTER1
 70
    64
  3
----- - ----- - ----- - ----- - 
 72
    65
 73
     4
 40
10.0
 49
6.25
 49
-1.25
 49
1.25
 49
-1.25
  0
LTYPE
  2
CENTER2
 70
    64
  3
----------  --  ----------  --  
 72
    65
 73
     4
 40
20.0
 49
12.5
 49
-2.5
 49
2.5
 49
-2.5
  0
LTYPE
  2
PHANTOM1
 70
    64
  3
--- - - --- - - --- - - --- - - 
 72
    65
 73
     6
 40
10.0
 49
3.25
 49
-1.25
 49
1.25
 49
-1.25
 49
1.25
 49
-1.25
  0
LTYPE
  2
PHANTOM2
 70
    64
  3
--------  -  -  --------  -  -  
 72
    65
 73
     6
 40
20.0
 49
10.0
 49
-2.5
 49
1.25
 49
-2.5
 49
1.25
 49
-2.5
  0
LTYPE
  2
DOT
 70
    64
  3
-   -   -   -   -   -   -   -   
 72
    65
 73
     2
 40
2.5
 49
0.625
 49
-1.875
  0
LTYPE
  2
DUMMY
 70
    64
  3
ダミー
 72
    65
 73
     0
 40
0.0
  0
LTYPE
  2
RAND1
 70
    64
  3
ランダム線1
 72
    65
 73
     4
 40
10.0
 49
1.0
 49
-2.0
 49
3.0
 49
-4.0
  0
LTYPE
  2
RAND2
 70
    64
  3
ランダム線2
 72
    65
 73
     4
 40
14.0
 49
2.0
 49
-3.0
 49
4.0
 49
-5.0
  0
LTYPE
  2
RAND3
 70
    64
  3
ランダム線3
 72
    65
 73
     4
 40
18.0
 49
3.0
 49
-4.0
 49
5.0
 49
-6.0
  0
LTYPE
  2
RAND4
 70
    64
  3
ランダム線4
 72
    65
 73
     4
 40
22.0
 49
4.0
 49
-5.0
 49
6.0
 49
-7.0
  0
LTYPE
  2
RAND5
 70
    64
  3
ランダム線5
 72
    65
 73
     4
 40
26.0
 49
5.0
 49
-6.0
 49
7.0
 49
-8.0
  0
LTYPE
  2
LONG1
 70
    64
  3
----------  --  ----------  --  
 72
    65
 73
     4
 40
40.0
 49
32.5
 49
-2.5
 49
2.5
 49
-2.5
  0
LTYPE
  2
LONG2
 70
    64
  3
--------  -  -  --------  -  -  
 72
    65
 73
     6
 40
40.0
 49
30.0
 49
-2.5
 49
1.25
 49
-2.5
 49
1.25
 49
-2.5
  0
LTYPE
  2
LONG3
 70
    64
  3
+++++++++++++++..+++++++++++++++
 72
    65
 73
     2
 40
40.0
 49
37.5
 49
-2.5
  0
LTYPE
  2
LONG4
 70
    64
  3
+++++++++++++++..+++++++++++++++
 72
    65
 73
     2
 40
80.0
 49
75.0
 49
-5.0
  0
LTYPE
  2
LONG5
 70
    64
  3
----------  --  ----------  --  
 72
    65
 73
     4
 40
60.0
 49
37.5
 49
-7.5
 49
7.5
 49
-7.5
  0
LTYPE
  2
dashed
 70
   64
  3
-------   -------------   ------
 72
   65
 73
    2
 40
7.5
 49
6
 49
-1.5
  0
LTYPE
  2
dashed_spaced
 70
   64
  3
----        --------        ----
 72
   65
 73
    2
 40
12
 49
6
 49
-6
  0
LTYPE
  2
long_dashed_dotted
 70
   64
  3
------------- --- --------------
 72
   65
 73
    4
 40
15.25
 49
12
 49
-1.5
 49
0.25
 49
-1.5
  0
LTYPE
  2
long_dashed_double-dotted
 70
   64
  3
----------- --- --- ------------
 72
   65
 73
    6
 40
17
 49
12
 49
-1.5
 49
0.25
 49
-1.5
 49
0.25
 49
-1.5
  0
LTYPE
  2
long_dashed_triplicate-dotted
 70
   64
  3
--------- --- --- --- ----------
 72
   65
 73
    8
 40
18.75
 49
12
 49
-1.5
 49
0.25
 49
-1.5
 49
0.25
 49
-1.5
 49
0.25
 49
-1.5
  0
LTYPE
  2
dotted
 70
   64
  3
   -       -       -       -    
 72
   65
 73
    2
 40
1.75
 49
0.25
 49
-1.5
  0
LTYPE
  2
chain
 70
   64
  3
-------------- -- --------------
 72
   65
 73
    4
 40
18.5
 49
12
 49
-1.5
 49
3.5
 49
-1.5
  0
LTYPE
  2
chain_double_dash
 70
   64
  3
------------ -- -- -------------
 72
   65
 73
    6
 40
23.5
 49
12
 49
-1.5
 49
3.5
 49
-1.5
 49
3.5
 49
-1.5
  0
LTYPE
  2
dashed_dotted
 70
   64
  3
-----------     -     ----------
 72
   65
 73
    4
 40
9.25
 49
6
 49
-1.5
 49
0.25
 49
-1.5
  0
LTYPE
  2
double-dashed_dotted
 70
   64
  3
------   -----------   -   -----
 72
   65
 73
    6
 40
16.75
 49
6
 49
-1.5
 49
6
 49
-1.5
 49
0.25
 49
-1.5
  0
LTYPE
  2
dashed_double-dotted
 70
   64
  3
---------    -    -    ---------
 72
   65
 73
    6
 40
11
 49
6
 49
-1.5
 49
0.25
 49
-1.5
 49
0.25
 49
-1.5
  0
LTYPE
  2
double-dashed_double-dotted
 70
   64
  3
-----   ---------   -   -   ----
 72
   65
 73
    8
 40
18.5
 49
6
 49
-1.5
 49
6
 49
-1.5
 49
0.25
 49
-1.5
 49
0.25
 49
-1.5
  0
LTYPE
  2
dashed_triplicate-dotted
 70
   64
  3
-------    -    -    -    ------
 72
   65
 73
    8
 40
12.75
 49
6
 49
-1.5
 49
0.25
 49
-1.5
 49
0.25
 49
-1.5
 49
0.25
 49
-1.5
  0
LTYPE
  2
double-dashed_triplicate-dotted
 70
   64
  3
-----  ---------  -  -  -  -----
 72
   65
 73
   10
 40
20.25
 49
6
 49
-1.5
 49
6
 49
-1.5
 49
0.25
 49
-1.5
 49
0.25
 49
-1.5
 49
0.25
 49
-1.5
  0
LTYPE
  2
undefined
 70
   64
  3
--------------------------------
 72
   65
 73
    0
 40
0
  0
ENDTAB
  0
TABLE
  2
STYLE
  5
3
100
AcDbSymbolTable
 70
     1
  0
STYLE
  5
10
100
AcDbSymbolTableRecord
100
AcDbTextStyleTableRecord
  2
STANDARD
 70
     0
 40
0.0
 41
1.0
 50
0.0
 71
     0
 42
0.2
  3
txt
  4
bigfont.shx
  0
STYLE
  5
26
100
AcDbSymbolTableRecord
100
AcDbTextStyleTableRecord
  2
TATEGAKI
 70
    68
 40
0.0
 41
1.0
 50
0.0
 71
     0
 42
1.0
  3
txt
  4
bigfont.shx
  0
ENDTAB
  0
TABLE
  2
LAYER
 70
   10
  0
LAYER
  2
_0-0_図面枠
 70
   64
 62
    7
  6
CONTINUOUS
  0
LAYER
  2
_1-0_躯体
 70
   64
 62
    7
  6
CONTINUOUS
  0
LAYER
  2
_1-3_止水補助板
 70
   64
 62
    7
  6
CONTINUOUS
  0
LAYER
  2
_1-4_フレ__ム
 70
   64
 62
    7
  6
CONTINUOUS
  0
LAYER
  2
_1-5_ア__ム
 70
   64
 62
    7
  6
CONTINUOUS
  0
LAYER
  2
_1-6_ばね
 70
   64
 62
    7
  6
CONTINUOUS
  0
LAYER
  2
_1-7_カバ__
 70
   64
 62
    7
  6
CONTINUOUS
  0
LAYER
  2
_1-8_小物
 70
   64
 62
    7
  6
CONTINUOUS
  0
LAYER
  2
_1-f_寸法
 70
   64
 62
    7
  6
CONTINUOUS
  0
LAYER
  2
ADD_LINE
 70
   64
 62
    7
  6
CONTINUOUS
  0
ENDTAB
  0
ENDSEC
  0
SECTION
  2
BLOCKS
  0
BLOCK
  2
-000-
 70
   64
 10
0
 20
0
 30
0
  0
LINE
  8
_1-8_小物
  6
CONTINUOUS
 62
    4
 10
-100
 20
72
 11
-100.53333300000001
 21
72.307920000000081
  0
LINE
  8
_1-8_小物
  6
CONTINUOUS
 62
    4
 10
-100
 20
72
 11
-99.466666666666555
 21
72.307920000000081
  0
ARC
  8
_1-8_小物
  6
CONTINUOUS
 62
    4
 10
-100
 20
76.305555666666692
 40
2.0277776666666663
 50
53.831357999997991
 51
126.16864200000235
  0
ARC
  8
_1-8_小物
  6
CONTINUOUS
 62
    4
 10
-99
 20
77.673452333333273
 40
0.3333333333333333
 50
0
 51
53.831357999948033
  0
ARC
  8
_1-8_小物
  6
CONTINUOUS
 62
    4
 10
-101
 20
77.673452333333273
 40
0.3333333333333333
 50
126.16864199999917
 51
180
  0
LINE
  8
_1-8_小物
  6
CONTINUOUS
 62
    4
 10
-102
 20
77.083333333333258
 11
-102
 21
76.833333333333371
  0
ARC
  8
_1-8_小物
  6
CONTINUOUS
 62
    4
 10
-101.43275999999969
 20
76.666669333333459
 40
0.6666666666666666
 50
90
 51
124.99999999998016
  0
LINE
  8
_1-8_小物
  6
CONTINUOUS
 62
    4
 10
-102
 20
77.083333333333258
 11
-101.815144333333
 21
77.21277066666687
  0
LINE
  8
_1-8_小物
  6
CONTINUOUS
 62
    4
 10
-102
 20
77.083333333333258
 11
-98
 21
77.083333333333258
  0
LINE
  8
_1-8_小物
  6
CONTINUOUS
 62
    4
 10
-102
 20
76.833333333333371
 11
-98
 21
76.833333333333371
  0
LINE
  8
_1-8_小物
  6
CONTINUOUS
 62
    4
 10
-98
 20
77.083333333333258
 11
-98
 21
76.833333333333371
  0
LINE
  8
_1-8_小物
  6
CONTINUOUS
 62
    4
 10
-101.66666666666667
 20
76.833333333333371
 11
-101.66666666666667
 21
76.5
  0
LINE
  8
_1-8_小物
  6
CONTINUOUS
 62
    4
 10
-98.333333333333343
 20
76.833333333333371
 11
-98.333333333333343
 21
76.5
  0
LINE
  8
_1-8_小物
  6
CONTINUOUS
 62
    4
 10
-100
 20
74.032944000000043
 11
-99.466666666666555
 21
74.048603999999898
  0
LINE
  8
_1-8_小物
  6
CONTINUOUS
 62
    4
 10
-100
 20
74.032944000000043
 11
-99.466666666666555
 21
74.330864333333295
  0
LINE
  8
_1-8_小物
  6
CONTINUOUS
 62
    4
 10
-100.53333333333316
 20
74.989344666666682
 11
-100.53333333333316
 21
74.64444433333324
  0
LINE
  8
_1-8_小物
  6
CONTINUOUS
 62
    4
 10
-100.53333333333316
 20
74.362184333333346
 11
-100.53333333333316
 21
72.307920000000081
  0
LINE
  8
_1-8_小物
  6
CONTINUOUS
 62
    4
 10
-99.466666666666555
 20
75.302924999999959
 11
-99.466666666666555
 21
74.958024666666631
  0
LINE
  8
_1-8_小物
  6
CONTINUOUS
 62
    4
 10
-99.466666666666555
 20
74.675764666666566
 11
-99.466666666666555
 21
74.330864333333295
  0
LINE
  8
_1-8_小物
  6
CONTINUOUS
 62
    4
 10
-99.466666666666555
 20
74.048603999999898
 11
-99.466666666666555
 21
72.307920000000081
  0
LINE
  8
_1-8_小物
  6
CONTINUOUS
 62
    4
 10
-100.53333333333316
 20
74.989344666666682
 11
-99.466666666666555
 21
75.302924999999959
  0
LINE
  8
_1-8_小物
  6
CONTINUOUS
 62
    4
 10
-100.77777766666654
 20
75.130474999999933
 11
-100.53333333333316
 21
74.989344666666682
  0
LINE
  8
_1-8_小物
  6
CONTINUOUS
 62
    4
 10
-100.77777766666654
 20
75.130474999999933
 11
-100.53333333333316
 21
75.271604999999909
  0
LINE
  8
_1-8_小物
  6
CONTINUOUS
 62
    4
 10
-101.33333333333334
 20
77.673452333333273
 11
-101.33333333333334
 21
77.333333333333314
  0
ARC
  8
_1-8_小物
  6
CONTINUOUS
 62
    4
 10
-98.567305666666783
 20
76.666715333333201
 40
0.6666666666666666
 50
54.99999999999104
 51
90
  0
LINE
  8
_1-8_小物
  6
CONTINUOUS
 62
    4
 10
-101.43275999999969
 20
77.333335999999917
 11
-98.567305666666783
 21
77.333381999999943
  0
LINE
  8
_1-8_小物
  6
CONTINUOUS
 62
    4
 10
-98.666666666666671
 20
77.673452333333273
 11
-98.666666666666671
 21
77.333333333333314
  0
LINE
  8
_1-8_小物
  6
CONTINUOUS
 62
    4
 10
-100
 20
72.678746999999845
 11
-100
 21
72
  0
LINE
  8
_1-8_小物
  6
CONTINUOUS
 62
    4
 10
-99.466666666666555
 20
73.866666666666674
 11
-100.53332833333297
 21
73.866666666666674
  0
ARC
  8
_1-8_小物
  6
CONTINUOUS
 62
    4
 10
-99.991647333332978
 20
72.078443333333354
 40
0.5882826666666666
 50
90.813543000037654
 51
157.04087500001089
  0
ARC
  8
_1-8_小物
  6
CONTINUOUS
 62
    4
 10
-97.989195999999851
 20
72.491494666666654
 40
2.0184196666666665
 50
137.05379999998939
 51
175.02122199999758
  0
LINE
  8
_1-8_小物
  6
CONTINUOUS
 62
    4
 10
-100.53333333333316
 20
74.362184333333346
 11
-99.466666666666555
 21
74.675764666666566
  0
LINE
  8
_1-8_小物
  6
CONTINUOUS
 62
    4
 10
-100.53333333333316
 20
74.64444433333324
 11
-99.466666666666555
 21
74.958024666666631
  0
LINE
  8
_1-8_小物
  6
CONTINUOUS
 62
    4
 10
-100.77777766666654
 20
74.503314333333321
 11
-99.222222333333178
 21
74.816894666666656
  0
LINE
  8
_1-8_小物
  6
CONTINUOUS
 62
    4
 10
-100.77777766666654
 20
74.503314333333321
 11
-100.53333333333316
 21
74.362184333333346
  0
LINE
  8
_1-8_小物
  6
CONTINUOUS
 62
    4
 10
-100.77777766666654
 20
74.503314333333321
 11
-100.53333333333316
 21
74.64444433333324
  0
LINE
  8
_1-8_小物
  6
CONTINUOUS
 62
    4
 10
-99.222222333333178
 20
74.816894666666656
 11
-99.466666666666555
 21
74.675764666666566
  0
LINE
  8
_1-8_小物
  6
CONTINUOUS
 62
    4
 10
-99.466666666666555
 20
74.958024666666631
 11
-99.222222333333178
 21
74.816894666666656
  0
LINE
  8
_1-8_小物
  6
CONTINUOUS
 62
    4
 10
-100
 20
74.032944000000043
 11
-99.222222333333178
 21
74.189734000000072
  0
LINE
  8
_1-8_小物
  6
CONTINUOUS
 62
    4
 10
-99.222222333333178
 20
74.189734000000072
 11
-99.466666666666555
 21
74.048603999999898
  0
LINE
  8
_1-8_小物
  6
CONTINUOUS
 62
    4
 10
-99.466666666666555
 20
74.330864333333295
 11
-99.222222333333178
 21
74.189734000000072
  0
LINE
  8
_1-8_小物
  6
CONTINUOUS
 62
    4
 10
-98
 20
77.083333333333258
 11
-98.184921333332881
 21
77.21281666666664
  0
LINE
  8
_1-8_小物
  6
CONTINUOUS
 62
    4
 10
-100.53333333333316
 20
75.333333333333314
 11
-100.53333333333316
 21
75.271604999999909
  0
LINE
  8
_1-8_小物
  6
CONTINUOUS
 62
    4
 10
-100.53333333333316
 20
75.271604999999909
 11
-100.3233598478931
 21
75.333333333333314
  0
LINE
  8
_1-8_小物
  6
CONTINUOUS
 62
    4
 10
-100.77777766666654
 20
75.130474999999933
 11
-99.771471899947457
 21
75.333333333333314
  0
LINE
  8
_1-8_小物
  6
CONTINUOUS
 62
    4
 10
-99.413997887743193
 20
75.333333333333314
 11
-99.466666666666555
 21
75.302924999999959
  0
LINE
  8
_1-8_小物
  6
CONTINUOUS
 62
    4
 10
-99.466666666666555
 20
75.585185333333357
 11
-99.466666666666555
 21
75.930085666666685
  0
LINE
  8
_1-8_小物
  6
CONTINUOUS
 62
    4
 10
-99.466666666666555
 20
75.585185333333357
 11
-99.222222333333178
 21
75.444054999999935
  0
LINE
  8
_1-8_小物
  6
CONTINUOUS
 62
    4
 10
-100.53333333333316
 20
76.243665666666629
 11
-100.53333333333316
 21
75.898765333333358
  0
LINE
  8
_1-8_小物
  6
CONTINUOUS
 62
    4
 10
-99.466666666666555
 20
76.5
 11
-99.466666666666555
 21
76.212345666666693
  0
LINE
  8
_1-8_小物
  6
CONTINUOUS
 62
    4
 10
-100.53333333333316
 20
75.61650533333318
 11
-99.466666666666555
 21
75.930085666666685
  0
LINE
  8
_1-8_小物
  6
CONTINUOUS
 62
    4
 10
-100.53333333333316
 20
75.898765333333358
 11
-99.466666666666555
 21
76.212345666666693
  0
LINE
  8
_1-8_小物
  6
CONTINUOUS
 62
    4
 10
-100.77777766666654
 20
75.757635333333383
 11
-99.222222333333178
 21
76.071215666666603
  0
LINE
  8
_1-8_小物
  6
CONTINUOUS
 62
    4
 10
-100.77777766666654
 20
75.757635333333383
 11
-100.53333333333316
 21
75.61650533333318
  0
LINE
  8
_1-8_小物
  6
CONTINUOUS
 62
    4
 10
-100.77777766666654
 20
75.757635333333383
 11
-100.53333333333316
 21
75.898765333333358
  0
LINE
  8
_1-8_小物
  6
CONTINUOUS
 62
    4
 10
-99.222222333333178
 20
76.071215666666603
 11
-99.466666666666555
 21
75.930085666666685
  0
LINE
  8
_1-8_小物
  6
CONTINUOUS
 62
    4
 10
-99.466666666666555
 20
76.212345666666693
 11
-99.222222333333178
 21
76.071215666666603
  0
LINE
  8
_1-8_小物
  6
CONTINUOUS
 62
    4
 10
-99.661393333333166
 20
76.5
 11
-100.53333333333316
 21
76.243665666666629
  0
LINE
  8
_1-8_小物
  6
CONTINUOUS
 62
    4
 10
-100.20629266666644
 20
76.5
 11
-100.77777766666654
 21
76.384796000000108
  0
LINE
  8
_1-8_小物
  6
CONTINUOUS
 62
    4
 10
-100.77777766666654
 20
76.384796000000108
 11
-100.53333333333316
 21
76.243665666666629
  0
LINE
  8
_1-8_小物
  6
CONTINUOUS
 62
    4
 10
-100.57823833333291
 20
76.5
 11
-100.77777766666654
 21
76.384796000000108
  0
LINE
  8
_1-8_小物
  6
CONTINUOUS
 62
    4
 10
-100.53333333333316
 20
75.61650533333318
 11
-100.53333333333316
 21
75.333333333333314
  0
LINE
  8
_1-8_小物
  6
CONTINUOUS
 62
    4
 10
-100.3233598478931
 20
75.333333333333314
 11
-99.466666666666555
 21
75.585185333333357
  0
LINE
  8
_1-8_小物
  6
CONTINUOUS
 62
    4
 10
-99.771471899947457
 20
75.333333333333314
 11
-99.222222333333178
 21
75.444054999999935
  0
LINE
  8
_1-8_小物
  6
CONTINUOUS
 62
    4
 10
-99.222222333333178
 20
75.444054999999935
 11
-99.413997887743193
 21
75.333333333333314
  0
LINE
  8
_1-8_小物
  6
CONTINUOUS
 62
    4
 10
-101.66666666666667
 20
76.5
 11
-98.333333333333343
 21
76.5
  0
ENDBLK
  0
BLOCK
  2
-001-_1_
 70
   64
 10
0
 20
0
 30
0
  0
LINE
  8
_1-8_小物
  6
CONTINUOUS
 62
    4
 10
114.16666666884987
 20
72.000000000000057
 11
113.63333366884984
 21
72.307920000000138
  0
LINE
  8
_1-8_小物
  6
CONTINUOUS
 62
    4
 10
114.16666666884987
 20
72.000000000000057
 11
114.70000000218329
 21
72.307920000000138
  0
ARC
  8
_1-8_小物
  6
CONTINUOUS
 62
    4
 10
114.16666666884987
 20
76.305555666666748
 40
2.0277776666666663
 50
53.831357999998787
 51
126.16864200000121
  0
ARC
  8
_1-8_小物
  6
CONTINUOUS
 62
    4
 10
115.16666666884987
 20
77.673452333333358
 40
0.3333333333333333
 50
0
 51
53.831357999947123
  0
ARC
  8
_1-8_小物
  6
CONTINUOUS
 62
    4
 10
113.16666666884987
 20
77.673452333333358
 40
0.3333333333333333
 50
126.16864200000116
 51
180
  0
LINE
  8
_1-8_小物
  6
CONTINUOUS
 62
    4
 10
112.16666666884987
 20
77.083333333333314
 11
112.16666666884987
 21
76.833333333333428
  0
ARC
  8
_1-8_小物
  6
CONTINUOUS
 62
    4
 10
112.73390666885018
 20
76.666669333333545
 40
0.6666666666666666
 50
90
 51
124.99999999998157
  0
LINE
  8
_1-8_小物
  6
CONTINUOUS
 62
    4
 10
112.16666666884987
 20
77.083333333333314
 11
112.35152233551685
 21
77.212770666666927
  0
LINE
  8
_1-8_小物
  6
CONTINUOUS
 62
    4
 10
112.16666666884987
 20
77.083333333333314
 11
116.16666666884987
 21
77.083333333333314
  0
LINE
  8
_1-8_小物
  6
CONTINUOUS
 62
    4
 10
112.16666666884987
 20
76.833333333333428
 11
116.16666666884987
 21
76.833333333333428
  0
LINE
  8
_1-8_小物
  6
CONTINUOUS
 62
    4
 10
116.16666666884987
 20
77.083333333333314
 11
116.16666666884987
 21
76.833333333333428
  0
LINE
  8
_1-8_小物
  6
CONTINUOUS
 62
    4
 10
112.50000000218319
 20
76.833333333333428
 11
112.50000000218319
 21
76.500000000000057
  0
LINE
  8
_1-8_小物
  6
CONTINUOUS
 62
    4
 10
115.8333333355165
 20
76.833333333333428
 11
115.8333333355165
 21
76.500000000000057
  0
LINE
  8
_1-8_小物
  6
CONTINUOUS
 62
    4
 10
114.16666666884987
 20
74.0329440000001
 11
114.70000000218329
 21
74.048603999999983
  0
LINE
  8
_1-8_小物
  6
CONTINUOUS
 62
    4
 10
114.16666666884987
 20
74.0329440000001
 11
114.70000000218329
 21
74.330864333333381
  0
LINE
  8
_1-8_小物
  6
CONTINUOUS
 62
    4
 10
113.63333333551668
 20
74.989344666666767
 11
113.63333333551668
 21
74.644444333333297
  0
LINE
  8
_1-8_小物
  6
CONTINUOUS
 62
    4
 10
113.63333333551668
 20
74.362184333333431
 11
113.63333333551668
 21
72.307920000000138
  0
LINE
  8
_1-8_小物
  6
CONTINUOUS
 62
    4
 10
114.70000000218329
 20
75.302925000000016
 11
114.70000000218329
 21
74.958024666666716
  0
LINE
  8
_1-8_小物
  6
CONTINUOUS
 62
    4
 10
114.70000000218329
 20
74.675764666666652
 11
114.70000000218329
 21
74.330864333333381
  0
LINE
  8
_1-8_小物
  6
CONTINUOUS
 62
    4
 10
114.70000000218329
 20
74.048603999999983
 11
114.70000000218329
 21
72.307920000000138
  0
LINE
  8
_1-8_小物
  6
CONTINUOUS
 62
    4
 10
113.63333333551668
 20
74.989344666666767
 11
114.70000000218329
 21
75.302925000000016
  0
LINE
  8
_1-8_小物
  6
CONTINUOUS
 62
    4
 10
113.3888890021833
 20
75.13047499999999
 11
113.63333333551668
 21
74.989344666666767
  0
LINE
  8
_1-8_小物
  6
CONTINUOUS
 62
    4
 10
113.3888890021833
 20
75.13047499999999
 11
113.63333333551668
 21
75.271604999999965
  0
LINE
  8
_1-8_小物
  6
CONTINUOUS
 62
    4
 10
112.8333333355165
 20
77.673452333333358
 11
112.8333333355165
 21
77.3333333333334
  0
ARC
  8
_1-8_小物
  6
CONTINUOUS
 62
    4
 10
115.59936100218306
 20
76.666715333333286
 40
0.6666666666666666
 50
54.999999999992632
 51
90
  0
LINE
  8
_1-8_小物
  6
CONTINUOUS
 62
    4
 10
112.73390666885018
 20
77.333335999999974
 11
115.59936100218306
 21
77.333382000000029
  0
LINE
  8
_1-8_小物
  6
CONTINUOUS
 62
    4
 10
115.50000000218319
 20
77.673452333333358
 11
115.50000000218319
 21
77.3333333333334
  0
LINE
  8
_1-8_小物
  6
CONTINUOUS
 62
    4
 10
114.16666666884987
 20
72.67874699999993
 11
114.16666666884987
 21
72.000000000000057
  0
LINE
  8
_1-8_小物
  6
CONTINUOUS
 62
    4
 10
114.70000000218329
 20
73.866666666666731
 11
113.6333383355169
 21
73.866666666666731
  0
ARC
  8
_1-8_小物
  6
CONTINUOUS
 62
    4
 10
114.17501933551688
 20
72.078443333333439
 40
0.5882826666666666
 50
90.813543000039033
 51
157.04087500001251
  0
ARC
  8
_1-8_小物
  6
CONTINUOUS
 62
    4
 10
116.17747066884999
 20
72.491494666666711
 40
2.0184196666666665
 50
137.05379999998883
 51
175.02122199999769
  0
LINE
  8
_1-8_小物
  6
CONTINUOUS
 62
    4
 10
113.63333333551668
 20
74.362184333333431
 11
114.70000000218329
 21
74.675764666666652
  0
LINE
  8
_1-8_小物
  6
CONTINUOUS
 62
    4
 10
113.63333333551668
 20
74.644444333333297
 11
114.70000000218329
 21
74.958024666666716
  0
LINE
  8
_1-8_小物
  6
CONTINUOUS
 62
    4
 10
113.3888890021833
 20
74.503314333333407
 11
114.94444433551666
 21
74.816894666666741
  0
LINE
  8
_1-8_小物
  6
CONTINUOUS
 62
    4
 10
113.3888890021833
 20
74.503314333333407
 11
113.63333333551668
 21
74.362184333333431
  0
LINE
  8
_1-8_小物
  6
CONTINUOUS
 62
    4
 10
113.3888890021833
 20
74.503314333333407
 11
113.63333333551668
 21
74.644444333333297
  0
LINE
  8
_1-8_小物
  6
CONTINUOUS
 62
    4
 10
114.94444433551666
 20
74.816894666666741
 11
114.70000000218329
 21
74.675764666666652
  0
LINE
  8
_1-8_小物
  6
CONTINUOUS
 62
    4
 10
114.70000000218329
 20
74.958024666666716
 11
114.94444433551666
 21
74.816894666666741
  0
LINE
  8
_1-8_小物
  6
CONTINUOUS
 62
    4
 10
114.16666666884987
 20
74.0329440000001
 11
114.94444433551666
 21
74.189734000000158
  0
LINE
  8
_1-8_小物
  6
CONTINUOUS
 62
    4
 10
114.94444433551666
 20
74.189734000000158
 11
114.70000000218329
 21
74.048603999999983
  0
LINE
  8
_1-8_小物
  6
CONTINUOUS
 62
    4
 10
114.70000000218329
 20
74.330864333333381
 11
114.94444433551666
 21
74.189734000000158
  0
LINE
  8
_1-8_小物
  6
CONTINUOUS
 62
    4
 10
116.16666666884987
 20
77.083333333333314
 11
115.98174533551696
 21
77.212816666666697
  0
LINE
  8
_1-8_小物
  6
CONTINUOUS
 62
    4
 10
113.63333333551668
 20
75.3333333333334
 11
113.63333333551668
 21
75.271604999999965
  0
LINE
  8
_1-8_小物
  6
CONTINUOUS
 62
    4
 10
113.63333333551668
 20
75.271604999999965
 11
113.84330682095674
 21
75.3333333333334
  0
LINE
  8
_1-8_小物
  6
CONTINUOUS
 62
    4
 10
113.3888890021833
 20
75.13047499999999
 11
114.3951947689024
 21
75.3333333333334
  0
LINE
  8
_1-8_小物
  6
CONTINUOUS
 62
    4
 10
114.75266878110665
 20
75.3333333333334
 11
114.70000000218329
 21
75.302925000000016
  0
LINE
  8
_1-8_小物
  6
CONTINUOUS
 62
    4
 10
114.70000000218329
 20
75.585185333333413
 11
114.70000000218329
 21
75.93008566666677
  0
LINE
  8
_1-8_小物
  6
CONTINUOUS
 62
    4
 10
114.70000000218329
 20
75.585185333333413
 11
114.94444433551666
 21
75.444054999999992
  0
LINE
  8
_1-8_小物
  6
CONTINUOUS
 62
    4
 10
113.63333333551668
 20
76.243665666666686
 11
113.63333333551668
 21
75.898765333333415
  0
LINE
  8
_1-8_小物
  6
CONTINUOUS
 62
    4
 10
114.70000000218329
 20
76.500000000000057
 11
114.70000000218329
 21
76.212345666666749
  0
LINE
  8
_1-8_小物
  6
CONTINUOUS
 62
    4
 10
113.63333333551668
 20
75.616505333333237
 11
114.70000000218329
 21
75.93008566666677
  0
LINE
  8
_1-8_小物
  6
CONTINUOUS
 62
    4
 10
113.63333333551668
 20
75.898765333333415
 11
114.70000000218329
 21
76.212345666666749
  0
LINE
  8
_1-8_小物
  6
CONTINUOUS
 62
    4
 10
113.3888890021833
 20
75.75763533333344
 11
114.94444433551666
 21
76.07121566666666
  0
LINE
  8
_1-8_小物
  6
CONTINUOUS
 62
    4
 10
113.3888890021833
 20
75.75763533333344
 11
113.63333333551668
 21
75.616505333333237
  0
LINE
  8
_1-8_小物
  6
CONTINUOUS
 62
    4
 10
113.3888890021833
 20
75.75763533333344
 11
113.63333333551668
 21
75.898765333333415
  0
LINE
  8
_1-8_小物
  6
CONTINUOUS
 62
    4
 10
114.94444433551666
 20
76.07121566666666
 11
114.70000000218329
 21
75.93008566666677
  0
LINE
  8
_1-8_小物
  6
CONTINUOUS
 62
    4
 10
114.70000000218329
 20
76.212345666666749
 11
114.94444433551666
 21
76.07121566666666
  0
LINE
  8
_1-8_小物
  6
CONTINUOUS
 62
    4
 10
114.50527333551668
 20
76.500000000000057
 11
113.63333333551668
 21
76.243665666666686
  0
LINE
  8
_1-8_小物
  6
CONTINUOUS
 62
    4
 10
113.96037400218341
 20
76.500000000000057
 11
113.3888890021833
 21
76.384796000000193
  0
LINE
  8
_1-8_小物
  6
CONTINUOUS
 62
    4
 10
113.3888890021833
 20
76.384796000000193
 11
113.63333333551668
 21
76.243665666666686
  0
LINE
  8
_1-8_小物
  6
CONTINUOUS
 62
    4
 10
113.58842833551694
 20
76.500000000000057
 11
113.3888890021833
 21
76.384796000000193
  0
LINE
  8
_1-8_小物
  6
CONTINUOUS
 62
    4
 10
113.63333333551668
 20
75.616505333333237
 11
113.63333333551668
 21
75.3333333333334
  0
LINE
  8
_1-8_小物
  6
CONTINUOUS
 62
    4
 10
113.84330682095674
 20
75.3333333333334
 11
114.70000000218329
 21
75.585185333333413
  0
LINE
  8
_1-8_小物
  6
CONTINUOUS
 62
    4
 10
114.3951947689024
 20
75.3333333333334
 11
114.94444433551666
 21
75.444054999999992
  0
LINE
  8
_1-8_小物
  6
CONTINUOUS
 62
    4
 10
114.94444433551666
 20
75.444054999999992
 11
114.75266878110665
 21
75.3333333333334
  0
LINE
  8
_1-8_小物
  6
CONTINUOUS
 62
    4
 10
112.50000000218319
 20
76.500000000000057
 11
115.8333333355165
 21
76.500000000000057
  0
ENDBLK
  0
BLOCK
  2
-002-_2_
 70
   64
 10
0
 20
0
 30
0
  0
LINE
  8
_1-8_小物
  6
CONTINUOUS
 62
    4
 10
-126.53057500000008
 20
56.573391666666595
 11
-126.49568500000046
 21
55.907638333333267
  0
LINE
  8
_1-8_小物
  6
CONTINUOUS
 62
    4
 10
-126.582911666667
 20
57.572021666666529
 11
-127.23121833333366
 21
57.204254999999904
  0
LINE
  8
_1-8_小物
  6
CONTINUOUS
 62
    4
 10
-127.23121833333366
 20
57.204254999999904
 11
-127.19632833333343
 21
56.538501666666576
  0
LINE
  8
_1-8_小物
  6
CONTINUOUS
 62
    4
 10
-127.19632833333343
 20
56.538501666666576
 11
-126.53057500000008
 21
56.573391666666595
  0
LINE
  8
_1-8_小物
  6
CONTINUOUS
 62
    4
 10
-126.61780166666691
 20
58.237774999999971
 11
-126.582911666667
 21
57.572021666666529
  0
LINE
  8
_1-8_小物
  6
CONTINUOUS
 62
    4
 10
-126.67013833333354
 20
59.236403333333357
 11
-127.31844500000048
 21
58.86863666666639
  0
LINE
  8
_1-8_小物
  6
CONTINUOUS
 62
    4
 10
-127.31844500000048
 20
58.86863666666639
 11
-127.28355500000029
 21
58.20288333333329
  0
LINE
  8
_1-8_小物
  6
CONTINUOUS
 62
    4
 10
-127.28355500000029
 20
58.20288333333329
 11
-126.61780166666691
 21
58.237774999999971
  0
LINE
  8
_1-8_小物
  6
CONTINUOUS
 62
    4
 10
-126.70502833333374
 20
59.902156666666684
 11
-126.67013833333354
 21
59.236403333333357
  0
LINE
  8
_1-8_小物
  6
CONTINUOUS
 62
    4
 10
-126.75736500000008
 20
60.900786666666392
 11
-127.40567166666673
 21
60.533019999999993
  0
LINE
  8
_1-8_小物
  6
CONTINUOUS
 62
    4
 10
-127.40567166666673
 20
60.533019999999993
 11
-127.37078166666713
 21
59.867266666666666
  0
LINE
  8
_1-8_小物
  6
CONTINUOUS
 62
    4
 10
-127.37078166666713
 20
59.867266666666666
 11
-126.70502833333374
 21
59.902156666666684
  0
LINE
  8
_1-8_小物
  6
CONTINUOUS
 62
    4
 10
-126.79225500000028
 20
61.566539999999947
 11
-126.75736500000008
 21
60.900786666666392
  0
LINE
  8
_1-8_小物
  6
CONTINUOUS
 62
    4
 10
-126.84459166666691
 20
62.565169999999995
 11
-127.49289833333357
 21
62.197401666666593
  0
LINE
  8
_1-8_小物
  6
CONTINUOUS
 62
    4
 10
-127.49289833333357
 20
62.197401666666593
 11
-127.45800833333365
 21
61.531648333333266
  0
LINE
  8
_1-8_小物
  6
CONTINUOUS
 62
    4
 10
-127.45800833333365
 20
61.531648333333266
 11
-126.79225500000028
 21
61.566539999999947
  0
LINE
  8
_1-8_小物
  6
CONTINUOUS
 62
    4
 10
-126.87948166666686
 20
63.230921666666546
 11
-126.84459166666691
 21
62.565169999999995
  0
LINE
  8
_1-8_小物
  6
CONTINUOUS
 62
    4
 10
-127.58012500000039
 20
63.861784999999855
 11
-127.54523500000019
 21
63.196031666666528
  0
LINE
  8
_1-8_小物
  6
CONTINUOUS
 62
    4
 10
-127.54523500000019
 20
63.196031666666528
 11
-126.87948166666686
 21
63.230921666666546
  0
LINE
  8
_1-8_小物
  6
CONTINUOUS
 62
    4
 10
-127.00000000000031
 20
64.166666666666657
 11
-127.58012500000039
 21
63.861784999999855
  0
LINE
  8
_1-8_小物
  6
CONTINUOUS
 62
    4
 10
-130.13609166666691
 20
56.573391666666595
 11
-130.17098166666679
 21
55.907638333333267
  0
LINE
  8
_1-8_小物
  6
CONTINUOUS
 62
    4
 10
-130.08375500000025
 20
57.572021666666529
 11
-129.43544833333362
 21
57.204254999999904
  0
LINE
  8
_1-8_小物
  6
CONTINUOUS
 62
    4
 10
-129.43544833333362
 20
57.204254999999904
 11
-129.47033833333384
 21
56.538501666666576
  0
LINE
  8
_1-8_小物
  6
CONTINUOUS
 62
    4
 10
-129.47033833333384
 20
56.538501666666576
 11
-130.13609166666691
 21
56.573391666666595
  0
LINE
  8
_1-8_小物
  6
CONTINUOUS
 62
    4
 10
-130.04886500000006
 20
58.237774999999971
 11
-130.08375500000025
 21
57.572021666666529
  0
LINE
  8
_1-8_小物
  6
CONTINUOUS
 62
    4
 10
-129.99652833333371
 20
59.236403333333357
 11
-129.34822166666709
 21
58.86863666666639
  0
LINE
  8
_1-8_小物
  6
CONTINUOUS
 62
    4
 10
-129.34822166666709
 20
58.86863666666639
 11
-129.38311166666668
 21
58.20288333333329
  0
LINE
  8
_1-8_小物
  6
CONTINUOUS
 62
    4
 10
-129.38311166666668
 20
58.20288333333329
 11
-130.04886500000006
 21
58.237774999999971
  0
LINE
  8
_1-8_小物
  6
CONTINUOUS
 62
    4
 10
-129.96163833333381
 20
59.902156666666684
 11
-129.99652833333371
 21
59.236403333333357
  0
LINE
  8
_1-8_小物
  6
CONTINUOUS
 62
    4
 10
-129.90930166666718
 20
60.900786666666392
 11
-129.26099500000024
 21
60.533019999999993
  0
LINE
  8
_1-8_小物
  6
CONTINUOUS
 62
    4
 10
-129.26099500000024
 20
60.533019999999993
 11
-129.29588500000017
 21
59.867266666666666
  0
LINE
  8
_1-8_小物
  6
CONTINUOUS
 62
    4
 10
-129.29588500000017
 20
59.867266666666666
 11
-129.96163833333381
 21
59.902156666666684
  0
LINE
  8
_1-8_小物
  6
CONTINUOUS
 62
    4
 10
-129.87441166666699
 20
61.566539999999947
 11
-129.90930166666718
 21
60.900786666666392
  0
LINE
  8
_1-8_小物
  6
CONTINUOUS
 62
    4
 10
-129.82207500000004
 20
62.565169999999995
 11
-129.17376833333341
 21
62.197401666666593
  0
LINE
  8
_1-8_小物
  6
CONTINUOUS
 62
    4
 10
-129.17376833333341
 20
62.197401666666593
 11
-129.2086583333336
 21
61.531648333333266
  0
LINE
  8
_1-8_小物
  6
CONTINUOUS
 62
    4
 10
-129.2086583333336
 20
61.531648333333266
 11
-129.87441166666699
 21
61.566539999999947
  0
LINE
  8
_1-8_小物
  6
CONTINUOUS
 62
    4
 10
-129.78718500000045
 20
63.230921666666546
 11
-129.82207500000004
 21
62.565169999999995
  0
LINE
  8
_1-8_小物
  6
CONTINUOUS
 62
    4
 10
-129.08654166666688
 20
63.861784999999855
 11
-129.12143166666706
 21
63.196031666666528
  0
LINE
  8
_1-8_小物
  6
CONTINUOUS
 62
    4
 10
-129.12143166666706
 20
63.196031666666528
 11
-129.78718500000045
 21
63.230921666666546
  0
LINE
  8
_1-8_小物
  6
CONTINUOUS
 62
    4
 10
-128.3531016666669
 20
56.186434999999875
 11
-127.70853500000037
 21
56.758324999999928
  0
LINE
  8
_1-8_小物
  6
CONTINUOUS
 62
    4
 10
-128.95648166666706
 20
56.789813333333342
 11
-128.33333333333334
 21
56.166666666666544
  0
LINE
  8
_1-8_小物
  6
CONTINUOUS
 62
    4
 10
-129.66666666666666
 20
64.166666666666657
 11
-129.08654166666688
 21
63.861784999999855
  0
LINE
  8
_1-8_小物
  6
CONTINUOUS
 62
    4
 10
-126.79225500000028
 20
61.566539999999947
 11
-126.2271333333338
 21
63.119199999999779
  0
LINE
  8
_1-8_小物
  6
CONTINUOUS
 62
    4
 10
-127.14698166666679
 20
61.566539999999947
 11
-126.5403633333335
 21
63.233206666666575
  0
LINE
  8
_1-8_小物
  6
CONTINUOUS
 62
    4
 10
-129.87441166666699
 20
61.566539999999947
 11
-130.43953333333351
 21
63.119199999999779
  0
LINE
  8
_1-8_小物
  6
CONTINUOUS
 62
    4
 10
-129.51968500000052
 20
61.566539999999947
 11
-130.12630333333377
 21
63.233206666666575
  0
LINE
  8
_1-8_小物
  6
CONTINUOUS
 62
    4
 10
-127.66075166666693
 20
55.846579999999818
 11
-126.49568500000046
 21
55.907638333333267
  0
LINE
  8
_1-8_小物
  6
CONTINUOUS
 62
    4
 10
-126.49568500000046
 20
55.907638333333267
 11
-127.12654666666701
 21
55.206995000000035
  0
LINE
  8
_1-8_小物
  6
CONTINUOUS
 62
    4
 10
-127.12654666666701
 20
55.206995000000035
 11
-127.62586166666674
 21
55.180826666666491
  0
LINE
  8
_1-8_小物
  6
CONTINUOUS
 62
    4
 10
-127.62586166666674
 20
55.180826666666491
 11
-128.16666666666666
 21
65.499999999999801
  0
LINE
  8
_1-8_小物
  6
CONTINUOUS
 62
    4
 10
-127.00000000000031
 20
64.166666666666657
 11
-127.00000000000031
 21
65.499999999999801
  0
LINE
  8
_1-8_小物
  6
CONTINUOUS
 62
    4
 10
-129.00591500000033
 20
55.846579999999818
 11
-130.17098166666679
 21
55.907638333333267
  0
LINE
  8
_1-8_小物
  6
CONTINUOUS
 62
    4
 10
-130.17098166666679
 20
55.907638333333267
 11
-129.54012000000029
 21
55.206995000000035
  0
LINE
  8
_1-8_小物
  6
CONTINUOUS
 62
    4
 10
-129.54012000000029
 20
55.206995000000035
 11
-129.04080500000023
 21
55.180826666666491
  0
LINE
  8
_1-8_小物
  6
CONTINUOUS
 62
    4
 10
-129.04080500000023
 20
55.180826666666491
 11
-128.50000000000031
 21
65.499999999999801
  0
LINE
  8
_1-8_小物
  6
CONTINUOUS
 62
    4
 10
-129.66666666666666
 20
64.166666666666657
 11
-129.66666666666666
 21
65.499999999999801
  0
LINE
  8
_1-8_小物
  6
CONTINUOUS
 62
    4
 10
-130.43953333333351
 20
63.119199999999779
 11
-130.77031833333362
 21
65.387073333333461
  0
ARC
  8
_1-8_小物
  6
CONTINUOUS
 62
    4
 10
-130.63838166666696
 20
65.406318333333303
 40
0.1333333333333333
 50
98.130101999953808
 51
188.29846600002313
  0
LINE
  8
_1-8_小物
  6
CONTINUOUS
 62
    4
 10
-130.65723833333382
 20
65.538311666666601
 11
-130.59163000000021
 21
65.547683333333367
  0
ARC
  8
_1-8_小物
  6
CONTINUOUS
 62
    4
 10
-130.57277333333332
 20
65.415689999999955
 40
0.1333333333333333
 50
8.130102000040166
 51
98.13010200021462
  0
LINE
  8
_1-8_小物
  6
CONTINUOUS
 62
    4
 10
-130.44078000000022
 20
65.434546666666535
 11
-130.12630333333377
 21
63.233206666666575
  0
LINE
  8
_1-8_小物
  6
CONTINUOUS
 62
    4
 10
-126.2271333333338
 20
63.119199999999779
 11
-125.89634833333365
 21
65.387073333333461
  0
ARC
  8
_1-8_小物
  6
CONTINUOUS
 62
    4
 10
-126.02828500000031
 20
65.406318333333303
 40
0.1333333333333333
 50
351.70153399996389
 51
81.869898000040166
  0
LINE
  8
_1-8_小物
  6
CONTINUOUS
 62
    4
 10
-126.00943000000038
 20
65.538311666666601
 11
-126.07503666666706
 21
65.547683333333367
  0
ARC
  8
_1-8_小物
  6
CONTINUOUS
 62
    4
 10
-126.09389333333334
 20
65.415689999999955
 40
0.1333333333333333
 50
81.869898000046192
 51
171.86989799999611
  0
LINE
  8
_1-8_小物
  6
CONTINUOUS
 62
    4
 10
-126.22588666666705
 20
65.434546666666535
 11
-126.5403633333335
 21
63.233206666666575
  0
LINE
  8
_1-8_小物
  6
CONTINUOUS
 62
    4
 10
-126.2271333333338
 20
63.119199999999779
 11
-125.89634833333365
 21
65.387073333333461
  0
ARC
  8
_1-8_小物
  6
CONTINUOUS
 62
    4
 10
-126.02828500000031
 20
65.406318333333303
 40
0.1333333333333333
 50
351.70153399996389
 51
81.869898000040166
  0
LINE
  8
_1-8_小物
  6
CONTINUOUS
 62
    4
 10
-126.00943000000038
 20
65.538311666666601
 11
-126.07503666666706
 21
65.547683333333367
  0
ARC
  8
_1-8_小物
  6
CONTINUOUS
 62
    4
 10
-126.09389333333334
 20
65.415689999999955
 40
0.1333333333333333
 50
81.869898000046192
 51
171.86989799999611
  0
LINE
  8
_1-8_小物
  6
CONTINUOUS
 62
    4
 10
-126.22588666666705
 20
65.434546666666535
 11
-126.5403633333335
 21
63.233206666666575
  0
LINE
  8
_1-8_小物
  6
CONTINUOUS
 62
    4
 10
-126.66666666666666
 20
68.166666666666657
 11
-127.00000000000031
 21
66.500000000000028
  0
LINE
  8
_1-8_小物
  6
CONTINUOUS
 62
    4
 10
-127.00000000000031
 20
68.166666666666657
 11
-127.00000000000031
 21
65.499999999999801
  0
LINE
  8
_1-8_小物
  6
CONTINUOUS
 62
    4
 10
-128.16666666666666
 20
65.499999999999801
 11
-128.33333333333334
 21
65.499999999999801
  0
LINE
  8
_1-8_小物
  6
CONTINUOUS
 62
    4
 10
-128.33333333333334
 20
66.500000000000028
 11
-128.33333333333334
 21
68.166666666666657
  0
LINE
  8
_1-8_小物
  6
CONTINUOUS
 62
    4
 10
-128.00000000000031
 20
68.166666666666657
 11
-128.33333333333334
 21
66.500000000000028
  0
LINE
  8
_1-8_小物
  6
CONTINUOUS
 62
    4
 10
-128.66666666666697
 20
68.166666666666657
 11
-128.33333333333334
 21
66.500000000000028
  0
LINE
  8
_1-8_小物
  6
CONTINUOUS
 62
    4
 10
-130
 20
68.166666666666657
 11
-129.66666666666666
 21
66.500000000000028
  0
LINE
  8
_1-8_小物
  6
CONTINUOUS
 62
    4
 10
-129.66666666666666
 20
68.166666666666657
 11
-129.66666666666666
 21
65.499999999999801
  0
LINE
  8
_1-8_小物
  6
CONTINUOUS
 62
    4
 10
-128.50000000000031
 20
65.499999999999801
 11
-128.33333333333334
 21
65.499999999999801
  0
LINE
  8
_1-8_小物
  6
CONTINUOUS
 62
    4
 10
-126.66666666666666
 20
68.166666666666657
 11
-130
 21
68.166666666666657
  0
ENDBLK
  0
BLOCK
  2
-003-_3_
 70
   64
 10
0
 20
0
 30
0
  0
LINE
  8
_1-8_小物
  6
CONTINUOUS
 62
    4
 10
-69.863908333333427
 20
56.573391666666595
 11
-69.829018333333806
 21
55.907638333333267
  0
LINE
  8
_1-8_小物
  6
CONTINUOUS
 62
    4
 10
-69.916245000000345
 20
57.572021666666529
 11
-70.564551666667001
 21
57.204254999999904
  0
LINE
  8
_1-8_小物
  6
CONTINUOUS
 62
    4
 10
-70.564551666667001
 20
57.204254999999904
 11
-70.529661666666755
 21
56.538501666666576
  0
LINE
  8
_1-8_小物
  6
CONTINUOUS
 62
    4
 10
-70.529661666666755
 20
56.538501666666576
 11
-69.863908333333427
 21
56.573391666666595
  0
LINE
  8
_1-8_小物
  6
CONTINUOUS
 62
    4
 10
-69.951135000000249
 20
58.237774999999971
 11
-69.916245000000345
 21
57.572021666666529
  0
LINE
  8
_1-8_小物
  6
CONTINUOUS
 62
    4
 10
-70.003471666666883
 20
59.236403333333357
 11
-70.651778333333823
 21
58.86863666666639
  0
LINE
  8
_1-8_小物
  6
CONTINUOUS
 62
    4
 10
-70.651778333333823
 20
58.86863666666639
 11
-70.616888333333634
 21
58.20288333333329
  0
LINE
  8
_1-8_小物
  6
CONTINUOUS
 62
    4
 10
-70.616888333333634
 20
58.20288333333329
 11
-69.951135000000249
 21
58.237774999999971
  0
LINE
  8
_1-8_小物
  6
CONTINUOUS
 62
    4
 10
-70.038361666667072
 20
59.902156666666684
 11
-70.003471666666883
 21
59.236403333333357
  0
LINE
  8
_1-8_小物
  6
CONTINUOUS
 62
    4
 10
-70.090698333333421
 20
60.900786666666392
 11
-70.739005000000077
 21
60.533019999999993
  0
LINE
  8
_1-8_小物
  6
CONTINUOUS
 62
    4
 10
-70.739005000000077
 20
60.533019999999993
 11
-70.704115000000456
 21
59.867266666666666
  0
LINE
  8
_1-8_小物
  6
CONTINUOUS
 62
    4
 10
-70.704115000000456
 20
59.867266666666666
 11
-70.038361666667072
 21
59.902156666666684
  0
LINE
  8
_1-8_小物
  6
CONTINUOUS
 62
    4
 10
-70.12558833333361
 20
61.566539999999947
 11
-70.090698333333421
 21
60.900786666666392
  0
LINE
  8
_1-8_小物
  6
CONTINUOUS
 62
    4
 10
-70.177925000000243
 20
62.565169999999995
 11
-70.826231666666899
 21
62.197401666666593
  0
LINE
  8
_1-8_小物
  6
CONTINUOUS
 62
    4
 10
-70.826231666666899
 20
62.197401666666593
 11
-70.791341666666995
 21
61.531648333333266
  0
LINE
  8
_1-8_小物
  6
CONTINUOUS
 62
    4
 10
-70.791341666666995
 20
61.531648333333266
 11
-70.12558833333361
 21
61.566539999999947
  0
LINE
  8
_1-8_小物
  6
CONTINUOUS
 62
    4
 10
-70.212815000000205
 20
63.230921666666546
 11
-70.177925000000243
 21
62.565169999999995
  0
LINE
  8
_1-8_小物
  6
CONTINUOUS
 62
    4
 10
-70.913458333333722
 20
63.861784999999855
 11
-70.878568333333533
 21
63.196031666666528
  0
LINE
  8
_1-8_小物
  6
CONTINUOUS
 62
    4
 10
-70.878568333333533
 20
63.196031666666528
 11
-70.212815000000205
 21
63.230921666666546
  0
LINE
  8
_1-8_小物
  6
CONTINUOUS
 62
    4
 10
-70.333333333333655
 20
64.166666666666657
 11
-70.913458333333722
 21
63.861784999999855
  0
LINE
  8
_1-8_小物
  6
CONTINUOUS
 62
    4
 10
-73.469425000000228
 20
56.573391666666595
 11
-73.504315000000133
 21
55.907638333333267
  0
LINE
  8
_1-8_小物
  6
CONTINUOUS
 62
    4
 10
-73.417088333333595
 20
57.572021666666529
 11
-72.768781666666939
 21
57.204254999999904
  0
LINE
  8
_1-8_小物
  6
CONTINUOUS
 62
    4
 10
-72.768781666666939
 20
57.204254999999904
 11
-72.803671666667185
 21
56.538501666666576
  0
LINE
  8
_1-8_小物
  6
CONTINUOUS
 62
    4
 10
-72.803671666667185
 20
56.538501666666576
 11
-73.469425000000228
 21
56.573391666666595
  0
LINE
  8
_1-8_小物
  6
CONTINUOUS
 62
    4
 10
-73.382198333333406
 20
58.237774999999971
 11
-73.417088333333595
 21
57.572021666666529
  0
LINE
  8
_1-8_小物
  6
CONTINUOUS
 62
    4
 10
-73.329861666667057
 20
59.236403333333357
 11
-72.681555000000401
 21
58.86863666666639
  0
LINE
  8
_1-8_小物
  6
CONTINUOUS
 62
    4
 10
-72.681555000000401
 20
58.86863666666639
 11
-72.716445000000022
 21
58.20288333333329
  0
LINE
  8
_1-8_小物
  6
CONTINUOUS
 62
    4
 10
-72.716445000000022
 20
58.20288333333329
 11
-73.382198333333406
 21
58.237774999999971
  0
LINE
  8
_1-8_小物
  6
CONTINUOUS
 62
    4
 10
-73.294971666667152
 20
59.902156666666684
 11
-73.329861666667057
 21
59.236403333333357
  0
LINE
  8
_1-8_小物
  6
CONTINUOUS
 62
    4
 10
-73.242635000000519
 20
60.900786666666392
 11
-72.594328333333578
 21
60.533019999999993
  0
LINE
  8
_1-8_小物
  6
CONTINUOUS
 62
    4
 10
-72.594328333333578
 20
60.533019999999993
 11
-72.629218333333483
 21
59.867266666666666
  0
LINE
  8
_1-8_小物
  6
CONTINUOUS
 62
    4
 10
-72.629218333333483
 20
59.867266666666666
 11
-73.294971666667152
 21
59.902156666666684
  0
LINE
  8
_1-8_小物
  6
CONTINUOUS
 62
    4
 10
-73.20774500000033
 20
61.566539999999947
 11
-73.242635000000519
 21
60.900786666666392
  0
LINE
  8
_1-8_小物
  6
CONTINUOUS
 62
    4
 10
-73.155408333333355
 20
62.565169999999995
 11
-72.507101666666756
 21
62.197401666666593
  0
LINE
  8
_1-8_小物
  6
CONTINUOUS
 62
    4
 10
-72.507101666666756
 20
62.197401666666593
 11
-72.541991666666945
 21
61.531648333333266
  0
LINE
  8
_1-8_小物
  6
CONTINUOUS
 62
    4
 10
-72.541991666666945
 20
61.531648333333266
 11
-73.20774500000033
 21
61.566539999999947
  0
LINE
  8
_1-8_小物
  6
CONTINUOUS
 62
    4
 10
-73.120518333333791
 20
63.230921666666546
 11
-73.155408333333355
 21
62.565169999999995
  0
LINE
  8
_1-8_小物
  6
CONTINUOUS
 62
    4
 10
-72.419875000000218
 20
63.861784999999855
 11
-72.454765000000407
 21
63.196031666666528
  0
LINE
  8
_1-8_小物
  6
CONTINUOUS
 62
    4
 10
-72.454765000000407
 20
63.196031666666528
 11
-73.120518333333791
 21
63.230921666666546
  0
LINE
  8
_1-8_小物
  6
CONTINUOUS
 62
    4
 10
-71.686435000000245
 20
56.186434999999875
 11
-71.041868333333696
 21
56.758324999999928
  0
LINE
  8
_1-8_小物
  6
CONTINUOUS
 62
    4
 10
-72.289815000000374
 20
56.789813333333342
 11
-71.666666666666686
 21
56.166666666666544
  0
LINE
  8
_1-8_小物
  6
CONTINUOUS
 62
    4
 10
-73
 20
64.166666666666657
 11
-72.419875000000218
 21
63.861784999999855
  0
LINE
  8
_1-8_小物
  6
CONTINUOUS
 62
    4
 10
-70.12558833333361
 20
61.566539999999947
 11
-69.560466666667139
 21
63.119199999999779
  0
LINE
  8
_1-8_小物
  6
CONTINUOUS
 62
    4
 10
-70.480315000000132
 20
61.566539999999947
 11
-69.873696666666831
 21
63.233206666666575
  0
LINE
  8
_1-8_小物
  6
CONTINUOUS
 62
    4
 10
-73.20774500000033
 20
61.566539999999947
 11
-73.772866666666857
 21
63.119199999999779
  0
LINE
  8
_1-8_小物
  6
CONTINUOUS
 62
    4
 10
-72.853018333333864
 20
61.566539999999947
 11
-73.459636666667109
 21
63.233206666666575
  0
LINE
  8
_1-8_小物
  6
CONTINUOUS
 62
    4
 10
-70.994085000000268
 20
55.846579999999818
 11
-69.829018333333806
 21
55.907638333333267
  0
LINE
  8
_1-8_小物
  6
CONTINUOUS
 62
    4
 10
-69.829018333333806
 20
55.907638333333267
 11
-70.459880000000339
 21
55.206995000000035
  0
LINE
  8
_1-8_小物
  6
CONTINUOUS
 62
    4
 10
-70.459880000000339
 20
55.206995000000035
 11
-70.959195000000079
 21
55.180826666666491
  0
LINE
  8
_1-8_小物
  6
CONTINUOUS
 62
    4
 10
-70.959195000000079
 20
55.180826666666491
 11
-71.5
 21
65.499999999999801
  0
LINE
  8
_1-8_小物
  6
CONTINUOUS
 62
    4
 10
-70.333333333333655
 20
64.166666666666657
 11
-70.333333333333655
 21
65.499999999999801
  0
LINE
  8
_1-8_小物
  6
CONTINUOUS
 62
    4
 10
-72.339248333333671
 20
55.846579999999818
 11
-73.504315000000133
 21
55.907638333333267
  0
LINE
  8
_1-8_小物
  6
CONTINUOUS
 62
    4
 10
-73.504315000000133
 20
55.907638333333267
 11
-72.8734533333336
 21
55.206995000000035
  0
LINE
  8
_1-8_小物
  6
CONTINUOUS
 62
    4
 10
-72.8734533333336
 20
55.206995000000035
 11
-72.374138333333576
 21
55.180826666666491
  0
LINE
  8
_1-8_小物
  6
CONTINUOUS
 62
    4
 10
-72.374138333333576
 20
55.180826666666491
 11
-71.833333333333655
 21
65.499999999999801
  0
LINE
  8
_1-8_小物
  6
CONTINUOUS
 62
    4
 10
-73
 20
64.166666666666657
 11
-73
 21
65.499999999999801
  0
LINE
  8
_1-8_小物
  6
CONTINUOUS
 62
    4
 10
-73.772866666666857
 20
63.119199999999779
 11
-74.103651666666963
 21
65.387073333333461
  0
ARC
  8
_1-8_小物
  6
CONTINUOUS
 62
    4
 10
-73.971715000000302
 20
65.406318333333303
 40
0.1333333333333333
 50
98.130101999965902
 51
188.29846600002313
  0
LINE
  8
_1-8_小物
  6
CONTINUOUS
 62
    4
 10
-73.990571666667165
 20
65.538311666666601
 11
-73.924963333333551
 21
65.547683333333367
  0
ARC
  8
_1-8_小物
  6
CONTINUOUS
 62
    4
 10
-73.906106666666631
 20
65.415689999999955
 40
0.1333333333333333
 50
8.130102000040166
 51
98.130102000226714
  0
LINE
  8
_1-8_小物
  6
CONTINUOUS
 62
    4
 10
-73.77411333333356
 20
65.434546666666535
 11
-73.459636666667109
 21
63.233206666666575
  0
LINE
  8
_1-8_小物
  6
CONTINUOUS
 62
    4
 10
-69.560466666667139
 20
63.119199999999779
 11
-69.229681666666977
 21
65.387073333333461
  0
ARC
  8
_1-8_小物
  6
CONTINUOUS
 62
    4
 10
-69.361618333333638
 20
65.406318333333303
 40
0.1333333333333333
 50
351.70153399996303
 51
81.869898000046192
  0
LINE
  8
_1-8_小物
  6
CONTINUOUS
 62
    4
 10
-69.342763333333721
 20
65.538311666666601
 11
-69.408370000000389
 21
65.547683333333367
  0
ARC
  8
_1-8_小物
  6
CONTINUOUS
 62
    4
 10
-69.427226666666684
 20
65.415689999999955
 40
0.1333333333333333
 50
81.869898000046192
 51
171.86989799999611
  0
LINE
  8
_1-8_小物
  6
CONTINUOUS
 62
    4
 10
-69.55922000000038
 20
65.434546666666535
 11
-69.873696666666831
 21
63.233206666666575
  0
LINE
  8
_1-8_小物
  6
CONTINUOUS
 62
    4
 10
-69.560466666667139
 20
63.119199999999779
 11
-69.229681666666977
 21
65.387073333333461
  0
ARC
  8
_1-8_小物
  6
CONTINUOUS
 62
    4
 10
-69.361618333333638
 20
65.406318333333303
 40
0.1333333333333333
 50
351.70153399996303
 51
81.869898000046192
  0
LINE
  8
_1-8_小物
  6
CONTINUOUS
 62
    4
 10
-69.342763333333721
 20
65.538311666666601
 11
-69.408370000000389
 21
65.547683333333367
  0
ARC
  8
_1-8_小物
  6
CONTINUOUS
 62
    4
 10
-69.427226666666684
 20
65.415689999999955
 40
0.1333333333333333
 50
81.869898000046192
 51
171.86989799999611
  0
LINE
  8
_1-8_小物
  6
CONTINUOUS
 62
    4
 10
-69.55922000000038
 20
65.434546666666535
 11
-69.873696666666831
 21
63.233206666666575
  0
LINE
  8
_1-8_小物
  6
CONTINUOUS
 62
    4
 10
-70
 20
68.166666666666657
 11
-70.333333333333655
 21
66.500000000000028
  0
LINE
  8
_1-8_小物
  6
CONTINUOUS
 62
    4
 10
-70.333333333333655
 20
68.166666666666657
 11
-70.333333333333655
 21
65.499999999999801
  0
LINE
  8
_1-8_小物
  6
CONTINUOUS
 62
    4
 10
-71.5
 20
65.499999999999801
 11
-71.666666666666686
 21
65.499999999999801
  0
LINE
  8
_1-8_小物
  6
CONTINUOUS
 62
    4
 10
-71.666666666666686
 20
66.500000000000028
 11
-71.666666666666686
 21
68.166666666666657
  0
LINE
  8
_1-8_小物
  6
CONTINUOUS
 62
    4
 10
-71.333333333333655
 20
68.166666666666657
 11
-71.666666666666686
 21
66.500000000000028
  0
LINE
  8
_1-8_小物
  6
CONTINUOUS
 62
    4
 10
-72.000000000000284
 20
68.166666666666657
 11
-71.666666666666686
 21
66.500000000000028
  0
LINE
  8
_1-8_小物
  6
CONTINUOUS
 62
    4
 10
-73.333333333333314
 20
68.166666666666657
 11
-73
 21
66.500000000000028
  0
LINE
  8
_1-8_小物
  6
CONTINUOUS
 62
    4
 10
-73
 20
68.166666666666657
 11
-73
 21
65.499999999999801
  0
LINE
  8
_1-8_小物
  6
CONTINUOUS
 62
    4
 10
-71.833333333333655
 20
65.499999999999801
 11
-71.666666666666686
 21
65.499999999999801
  0
LINE
  8
_1-8_小物
  6
CONTINUOUS
 62
    4
 10
-70
 20
68.166666666666657
 11
-73.333333333333314
 21
68.166666666666657
  0
ENDBLK
  0
BLOCK
  2
-004-_4_
 70
   64
 10
0
 20
0
 30
0
  0
LINE
  8
_1-4_フレ__ム
  6
CONTINUOUS
 62
    4
 10
-66.666666746133643
 20
68.50000001899997
 11
-65.66666676513367
 21
69.499999999999915
  0
LINE
  8
_1-4_フレ__ム
  6
CONTINUOUS
 62
    4
 10
-65.66666676513367
 20
69.499999999999915
 11
-66.373773546320194
 21
69.499999999999915
  0
LINE
  8
_1-4_フレ__ム
  6
CONTINUOUS
 62
    4
 10
-71.666666666666856
 20
68.900000000000034
 11
-71.766666666666566
 21
68.999999999999943
  0
LINE
  8
_1-4_フレ__ム
  6
CONTINUOUS
 62
    4
 10
-71.566666666666748
 20
68.999999999999943
 11
-71.666666666666856
 21
68.900000000000034
  0
LINE
  8
_1-4_フレ__ム
  6
CONTINUOUS
 62
    4
 10
-71.766666666666566
 20
68.999999999999943
 11
-86.166666666666799
 21
68.999999999999943
  0
LINE
  8
_1-4_フレ__ム
  6
CONTINUOUS
 62
    4
 10
-86.666666666666856
 20
68.499999999999943
 11
-66.666666666666856
 21
68.499999999999943
  0
ARC
  8
_1-4_フレ__ム
  6
CONTINUOUS
 62
    4
 10
-86.399999999999807
 20
70.400000000000034
 40
0.2666666666666667
 50
90
 51
180
  0
LINE
  8
_1-4_フレ__ム
  6
CONTINUOUS
 62
    4
 10
-84.599999999999937
 20
70.666666666666629
 11
-86.399999999999807
 21
70.666666666666629
  0
ARC
  8
_1-4_フレ__ム
  6
CONTINUOUS
 62
    4
 10
-84.599999999999937
 20
70.400000000000034
 40
0.2666666666666667
 50
0
 51
90
  0
LINE
  8
_1-4_フレ__ム
  6
CONTINUOUS
 62
    4
 10
-84.333333333333513
 20
70.166666666666629
 11
-84.333333333333513
 21
70.400000000000034
  0
LINE
  8
_1-4_フレ__ム
  6
CONTINUOUS
 62
    4
 10
-85.900000000000119
 20
70.166666666666629
 11
-84.333333333333513
 21
70.166666666666629
  0
ARC
  8
_1-4_フレ__ム
  6
CONTINUOUS
 62
    4
 10
-85.900000000000119
 20
69.900000000000091
 40
0.2666666666666667
 50
90
 51
180
  0
LINE
  8
_1-4_フレ__ム
  6
CONTINUOUS
 62
    4
 10
-86.166666666666771
 20
68.999999999999943
 11
-86.166666666666771
 21
69.900000000000091
  0
LINE
  8
_1-4_フレ__ム
  6
CONTINUOUS
 62
    4
 10
-86.666666666666856
 20
70.400000000000034
 11
-86.666666666666856
 21
68.499999999999943
  0
LINE
  8
_1-4_フレ__ム
  6
CONTINUOUS
 62
    4
 10
-66.873773546320194
 20
68.999999999999943
 11
-66.373773546320194
 21
69.499999999999915
  0
LINE
  8
_1-4_フレ__ム
  6
CONTINUOUS
 62
    4
 10
-66.873773546320194
 20
68.999999999999943
 11
-71.566666666666748
 21
68.999999999999943
  0
LINE
  8
_1-4_フレ__ム
  6
CENTER2
 62
    4
 10
-71.666666666666686
 20
70.666666666666629
 11
-71.666666666666686
 21
66.833333333333286
  0
LINE
  8
_1-4_フレ__ム
  6
DASHED1
 62
    4
 10
-69.166666666666856
 20
68.999999999999943
 11
-69.166666666666856
 21
68.499999999999829
  0
LINE
  8
_1-4_フレ__ム
  6
DASHED1
 62
    4
 10
-74.166666666666856
 20
68.999999999999943
 11
-74.166666666666856
 21
68.499999999999829
  0
ENDBLK
  0
BLOCK
  2
-005-_5_
 70
   64
 10
0
 20
0
 30
0
  0
LINE
  8
_1-3_止水補助板
  6
CONTINUOUS
 62
    4
 10
133.33333333333303
 20
68.166666666666657
 11
133.33333333333303
 21
68.499999999999943
  0
LINE
  8
_1-3_止水補助板
  6
CONTINUOUS
 62
    4
 10
83.333333333331893
 20
84.299999999999869
 11
83.666666666665719
 21
84.299999999999869
  0
LINE
  8
_1-3_止水補助板
  6
CONTINUOUS
 62
    4
 10
83.333333333331893
 20
68.166666666666657
 11
83.333333333331893
 21
84.30000000000058
  0
LINE
  8
_1-3_止水補助板
  6
CONTINUOUS
 62
    4
 10
116.66666666666657
 20
68.166666666666657
 11
110.19619053910355
 21
44.018521009439979
  0
LINE
  8
_1-3_止水補助板
  6
CONTINUOUS
 62
    4
 10
116.66666666666657
 20
68.166666666666657
 11
133.33333333333303
 21
68.166666666666657
  0
LINE
  8
_1-3_止水補助板
  6
CONTINUOUS
 62
    4
 10
116.41089100400677
 20
68.499999999999943
 11
133.33333333333303
 21
68.499999999999943
  0
LINE
  8
_1-3_止水補助板
  6
CONTINUOUS
 62
    4
 10
116.41089100400677
 20
68.499999999999943
 11
109.87421526367353
 21
44.104794024474131
  0
LINE
  8
_1-3_止水補助板
  6
CONTINUOUS
 62
    4
 10
83.333333333332689
 20
68.166666666666657
 11
89.803809460895593
 21
44.018521009439979
  0
ARC
  8
_1-3_止水補助板
  6
CONTINUOUS
 62
    4
 10
99.999999999999602
 20
46.750582030266742
 40
10.555873196056922
 50
195.00000000000011
 51
344.99999999999989
  0
ARC
  8
_1-3_止水補助板
  6
CONTINUOUS
 62
    4
 10
99.999999999999602
 20
46.750582030266742
 40
10.22253986272359
 50
195.0000000000002
 51
344.99999999999983
  0
LINE
  8
_1-3_止水補助板
  6
CONTINUOUS
 62
    4
 10
83.666666666665719
 20
68.21055083253114
 11
83.666666666665719
 21
84.300000000001376
  0
LINE
  8
_1-3_止水補助板
  6
CONTINUOUS
 62
    4
 10
83.666666666665719
 20
68.21055083253114
 11
90.12578473632567
 21
44.104794024474131
  0
ENDBLK
  0
BLOCK
  2
-006-_6_
 70
   64
 10
0
 20
0
 30
0
  0
LINE
  8
_1-4_フレ__ム
  6
CONTINUOUS
 62
    4
 10
133.33333325386639
 20
68.50000001899997
 11
134.33333323486636
 21
69.499999999999915
  0
LINE
  8
_1-4_フレ__ム
  6
CONTINUOUS
 62
    4
 10
134.33333323486636
 20
69.499999999999915
 11
133.62622645367981
 21
69.499999999999915
  0
LINE
  8
_1-4_フレ__ム
  6
CONTINUOUS
 62
    4
 10
128.33333333333314
 20
68.900000000000034
 11
128.23333333333346
 21
68.999999999999943
  0
LINE
  8
_1-4_フレ__ム
  6
CONTINUOUS
 62
    4
 10
128.43333333333328
 20
68.999999999999943
 11
128.33333333333314
 21
68.900000000000034
  0
LINE
  8
_1-4_フレ__ム
  6
CONTINUOUS
 62
    4
 10
128.23333333333346
 20
68.999999999999943
 11
113.8333333333332
 21
68.999999999999943
  0
LINE
  8
_1-4_フレ__ム
  6
CONTINUOUS
 62
    4
 10
113.33333333333314
 20
68.499999999999943
 11
133.33333333333314
 21
68.499999999999943
  0
ARC
  8
_1-4_フレ__ム
  6
CONTINUOUS
 62
    4
 10
113.60000000000019
 20
70.400000000000034
 40
0.2666666666666667
 50
90
 51
180
  0
LINE
  8
_1-4_フレ__ム
  6
CONTINUOUS
 62
    4
 10
115.40000000000009
 20
70.666666666666629
 11
113.60000000000019
 21
70.666666666666629
  0
ARC
  8
_1-4_フレ__ム
  6
CONTINUOUS
 62
    4
 10
115.40000000000009
 20
70.400000000000034
 40
0.2666666666666667
 50
0
 51
90
  0
LINE
  8
_1-4_フレ__ム
  6
CONTINUOUS
 62
    4
 10
115.66666666666652
 20
70.166666666666629
 11
115.66666666666652
 21
70.400000000000034
  0
LINE
  8
_1-4_フレ__ム
  6
CONTINUOUS
 62
    4
 10
114.09999999999991
 20
70.166666666666629
 11
115.66666666666652
 21
70.166666666666629
  0
ARC
  8
_1-4_フレ__ム
  6
CONTINUOUS
 62
    4
 10
114.09999999999991
 20
69.900000000000091
 40
0.2666666666666667
 50
90
 51
180
  0
LINE
  8
_1-4_フレ__ム
  6
CONTINUOUS
 62
    4
 10
113.83333333333326
 20
68.999999999999943
 11
113.83333333333326
 21
69.900000000000091
  0
LINE
  8
_1-4_フレ__ム
  6
CONTINUOUS
 62
    4
 10
113.33333333333314
 20
70.400000000000034
 11
113.33333333333314
 21
68.499999999999943
  0
LINE
  8
_1-4_フレ__ム
  6
CONTINUOUS
 62
    4
 10
133.12622645367981
 20
68.999999999999943
 11
133.62622645367981
 21
69.499999999999915
  0
LINE
  8
_1-4_フレ__ム
  6
CONTINUOUS
 62
    4
 10
133.12622645367981
 20
68.999999999999943
 11
128.43333333333328
 21
68.999999999999943
  0
LINE
  8
_1-4_フレ__ム
  6
CENTER2
 62
    4
 10
128.33333333333331
 20
70.666666666666629
 11
128.33333333333331
 21
66.833333333333286
  0
LINE
  8
_1-4_フレ__ム
  6
DASHED1
 62
    4
 10
130.83333333333314
 20
68.999999999999943
 11
130.83333333333314
 21
68.499999999999829
  0
LINE
  8
_1-4_フレ__ム
  6
DASHED1
 62
    4
 10
125.83333333333314
 20
68.999999999999943
 11
125.83333333333314
 21
68.499999999999829
  0
ENDBLK
  0
BLOCK
  2
-007-_7_
 70
   64
 10
0
 20
0
 30
0
  0
LINE
  8
_1-8_小物
  6
CONTINUOUS
 62
    4
 10
71.74005833333274
 20
78.030579003291592
 11
71.074304999999413
 21
77.995689003292028
  0
LINE
  8
_1-8_小物
  6
CONTINUOUS
 62
    4
 10
72.738688333332675
 20
78.082915669958567
 11
72.37092166666605
 21
78.731222336625166
  0
LINE
  8
_1-8_小物
  6
CONTINUOUS
 62
    4
 10
72.37092166666605
 20
78.731222336625166
 11
71.705168333332722
 21
78.696332336624948
  0
LINE
  8
_1-8_小物
  6
CONTINUOUS
 62
    4
 10
71.705168333332722
 20
78.696332336624948
 11
71.74005833333274
 21
78.030579003291592
  0
LINE
  8
_1-8_小物
  6
CONTINUOUS
 62
    4
 10
73.404441666666116
 20
78.117805669958472
 11
72.738688333332675
 21
78.082915669958567
  0
LINE
  8
_1-8_小物
  6
CONTINUOUS
 62
    4
 10
74.403069999999502
 20
78.170142336625105
 11
74.035303333332536
 21
78.818449003292045
  0
LINE
  8
_1-8_小物
  6
CONTINUOUS
 62
    4
 10
74.035303333332536
 20
78.818449003292045
 11
73.369549999999435
 21
78.783559003291799
  0
LINE
  8
_1-8_小物
  6
CONTINUOUS
 62
    4
 10
73.369549999999435
 20
78.783559003291799
 11
73.404441666666116
 21
78.117805669958472
  0
LINE
  8
_1-8_小物
  6
CONTINUOUS
 62
    4
 10
75.06882333333283
 20
78.205032336625266
 11
74.403069999999502
 21
78.170142336625105
  0
LINE
  8
_1-8_小物
  6
CONTINUOUS
 62
    4
 10
76.067453333332537
 20
78.257369003291643
 11
75.699686666666139
 21
78.905675669958242
  0
LINE
  8
_1-8_小物
  6
CONTINUOUS
 62
    4
 10
75.699686666666139
 20
78.905675669958242
 11
75.033933333332811
 21
78.870785669958678
  0
LINE
  8
_1-8_小物
  6
CONTINUOUS
 62
    4
 10
75.033933333332811
 20
78.870785669958678
 11
75.06882333333283
 21
78.205032336625266
  0
LINE
  8
_1-8_小物
  6
CONTINUOUS
 62
    4
 10
76.733206666666092
 20
78.292259003291804
 11
76.067453333332537
 21
78.257369003291643
  0
LINE
  8
_1-8_小物
  6
CONTINUOUS
 62
    4
 10
77.73183666666614
 20
78.344595669958437
 11
77.364068333332739
 21
78.992902336625122
  0
LINE
  8
_1-8_小物
  6
CONTINUOUS
 62
    4
 10
77.364068333332739
 20
78.992902336625122
 11
76.698314999999411
 21
78.958012336625217
  0
LINE
  8
_1-8_小物
  6
CONTINUOUS
 62
    4
 10
76.698314999999411
 20
78.958012336625217
 11
76.733206666666092
 21
78.292259003291804
  0
LINE
  8
_1-8_小物
  6
CONTINUOUS
 62
    4
 10
78.397588333332692
 20
78.379485669958342
 11
77.73183666666614
 21
78.344595669958437
  0
LINE
  8
_1-8_小物
  6
CONTINUOUS
 62
    4
 10
79.028451666666001
 20
79.080129003291916
 11
78.362698333332673
 21
79.045239003291755
  0
LINE
  8
_1-8_小物
  6
CONTINUOUS
 62
    4
 10
78.362698333332673
 20
79.045239003291755
 11
78.397588333332692
 21
78.379485669958342
  0
LINE
  8
_1-8_小物
  6
CONTINUOUS
 62
    4
 10
79.333333333332803
 20
78.500004003291821
 11
79.028451666666001
 21
79.080129003291916
  0
LINE
  8
_1-8_小物
  6
CONTINUOUS
 62
    4
 10
71.74005833333274
 20
81.636095669958451
 11
71.074304999999413
 21
81.670985669958355
  0
LINE
  8
_1-8_小物
  6
CONTINUOUS
 62
    4
 10
72.738688333332675
 20
81.583759003291817
 11
72.37092166666605
 21
80.935452336625133
  0
LINE
  8
_1-8_小物
  6
CONTINUOUS
 62
    4
 10
72.37092166666605
 20
80.935452336625133
 11
71.705168333332722
 21
80.97034233662535
  0
LINE
  8
_1-8_小物
  6
CONTINUOUS
 62
    4
 10
71.705168333332722
 20
80.97034233662535
 11
71.74005833333274
 21
81.636095669958451
  0
LINE
  8
_1-8_小物
  6
CONTINUOUS
 62
    4
 10
73.404441666666116
 20
81.548869003291571
 11
72.738688333332675
 21
81.583759003291817
  0
LINE
  8
_1-8_小物
  6
CONTINUOUS
 62
    4
 10
74.403069999999502
 20
81.496532336625279
 11
74.035303333332536
 21
80.848225669958595
  0
LINE
  8
_1-8_小物
  6
CONTINUOUS
 62
    4
 10
74.035303333332536
 20
80.848225669958595
 11
73.369549999999435
 21
80.883115669958244
  0
LINE
  8
_1-8_小物
  6
CONTINUOUS
 62
    4
 10
73.369549999999435
 20
80.883115669958244
 11
73.404441666666116
 21
81.548869003291571
  0
LINE
  8
_1-8_小物
  6
CONTINUOUS
 62
    4
 10
75.06882333333283
 20
81.461642336625374
 11
74.403069999999502
 21
81.496532336625279
  0
LINE
  8
_1-8_小物
  6
CONTINUOUS
 62
    4
 10
76.067453333332537
 20
81.409305669958741
 11
75.699686666666139
 21
80.760999003291801
  0
LINE
  8
_1-8_小物
  6
CONTINUOUS
 62
    4
 10
75.699686666666139
 20
80.760999003291801
 11
75.033933333332811
 21
80.795889003291705
  0
LINE
  8
_1-8_小物
  6
CONTINUOUS
 62
    4
 10
75.033933333332811
 20
80.795889003291705
 11
75.06882333333283
 21
81.461642336625374
  0
LINE
  8
_1-8_小物
  6
CONTINUOUS
 62
    4
 10
76.733206666666092
 20
81.374415669958495
 11
76.067453333332537
 21
81.409305669958741
  0
LINE
  8
_1-8_小物
  6
CONTINUOUS
 62
    4
 10
77.73183666666614
 20
81.322079003291549
 11
77.364068333332739
 21
80.673772336624921
  0
LINE
  8
_1-8_小物
  6
CONTINUOUS
 62
    4
 10
77.364068333332739
 20
80.673772336624921
 11
76.698314999999411
 21
80.708662336625167
  0
LINE
  8
_1-8_小物
  6
CONTINUOUS
 62
    4
 10
76.698314999999411
 20
80.708662336625167
 11
76.733206666666092
 21
81.374415669958495
  0
LINE
  8
_1-8_小物
  6
CONTINUOUS
 62
    4
 10
78.397588333332692
 20
81.287189003291957
 11
77.73183666666614
 21
81.322079003291549
  0
LINE
  8
_1-8_小物
  6
CONTINUOUS
 62
    4
 10
79.028451666666001
 20
80.586545669958383
 11
78.362698333332673
 21
80.621435669958629
  0
LINE
  8
_1-8_小物
  6
CONTINUOUS
 62
    4
 10
78.362698333332673
 20
80.621435669958629
 11
78.397588333332692
 21
81.287189003291957
  0
LINE
  8
_1-8_小物
  6
CONTINUOUS
 62
    4
 10
71.353101666666021
 20
79.85310566995841
 11
71.924991666666074
 21
79.208539003291918
  0
LINE
  8
_1-8_小物
  6
CONTINUOUS
 62
    4
 10
71.956479999999488
 20
80.456485669958568
 11
71.333333333332689
 21
79.833337336624851
  0
LINE
  8
_1-8_小物
  6
CONTINUOUS
 62
    4
 10
79.333333333332803
 20
81.166670669958222
 11
79.028451666666001
 21
80.586545669958383
  0
LINE
  8
_1-8_小物
  6
CONTINUOUS
 62
    4
 10
76.733206666666092
 20
78.292259003291804
 11
78.285866666665925
 21
77.727137336625276
  0
LINE
  8
_1-8_小物
  6
CONTINUOUS
 62
    4
 10
76.733206666666092
 20
78.646985669958269
 11
78.399873333332721
 21
78.040367336625025
  0
LINE
  8
_1-8_小物
  6
CONTINUOUS
 62
    4
 10
76.733206666666092
 20
81.374415669958495
 11
78.285866666665925
 21
81.939537336625023
  0
LINE
  8
_1-8_小物
  6
CONTINUOUS
 62
    4
 10
76.733206666666092
 20
81.019689003292029
 11
78.399873333332721
 21
81.626307336625274
  0
LINE
  8
_1-8_小物
  6
CONTINUOUS
 62
    4
 10
71.013246666665964
 20
79.16075566995849
 11
71.074304999999413
 21
77.995689003292028
  0
LINE
  8
_1-8_小物
  6
CONTINUOUS
 62
    4
 10
71.074304999999413
 20
77.995689003292028
 11
70.37366166666618
 21
78.626550669958561
  0
LINE
  8
_1-8_小物
  6
CONTINUOUS
 62
    4
 10
70.37366166666618
 20
78.626550669958561
 11
70.347493333332636
 21
79.125865669958245
  0
LINE
  8
_1-8_小物
  6
CONTINUOUS
 62
    4
 10
70.347493333332636
 20
79.125865669958245
 11
80.666666666665947
 21
79.666670669958222
  0
LINE
  8
_1-8_小物
  6
CONTINUOUS
 62
    4
 10
79.333333333332803
 20
78.500004003291821
 11
80.666666666665947
 21
78.500004003291821
  0
LINE
  8
_1-8_小物
  6
CONTINUOUS
 62
    4
 10
71.013246666665964
 20
80.505919003291893
 11
71.074304999999413
 21
81.670985669958355
  0
LINE
  8
_1-8_小物
  6
CONTINUOUS
 62
    4
 10
71.074304999999413
 20
81.670985669958355
 11
70.37366166666618
 21
81.040124003291822
  0
LINE
  8
_1-8_小物
  6
CONTINUOUS
 62
    4
 10
70.37366166666618
 20
81.040124003291822
 11
70.347493333332636
 21
80.540809003291798
  0
LINE
  8
_1-8_小物
  6
CONTINUOUS
 62
    4
 10
70.347493333332636
 20
80.540809003291798
 11
80.666666666665947
 21
80.000004003291821
  0
LINE
  8
_1-8_小物
  6
CONTINUOUS
 62
    4
 10
79.333333333332803
 20
81.166670669958222
 11
80.666666666665947
 21
81.166670669958222
  0
LINE
  8
_1-8_小物
  6
CONTINUOUS
 62
    4
 10
78.285866666665925
 20
81.939537336625023
 11
80.553739999999607
 21
82.270322336625128
  0
ARC
  8
_1-8_小物
  6
CONTINUOUS
 62
    4
 10
80.572984999999449
 20
82.138385669958467
 40
0.1333333333333333
 50
8.1301019999555333
 51
98.298466000035219
  0
LINE
  8
_1-8_小物
  6
CONTINUOUS
 62
    4
 10
80.704978333332747
 20
82.157242336625387
 11
80.714349999999513
 21
82.091634003291716
  0
ARC
  8
_1-8_小物
  6
CONTINUOUS
 62
    4
 10
80.582356666666101
 20
82.072777336624824
 40
0.1333333333333333
 50
278.13010200004015
 51
8.130102000228419
  0
LINE
  8
_1-8_小物
  6
CONTINUOUS
 62
    4
 10
80.60121333333268
 20
81.940784003291725
 11
78.399873333332721
 21
81.626307336625274
  0
LINE
  8
_1-8_小物
  6
CONTINUOUS
 62
    4
 10
78.285866666665925
 20
77.727137336625276
 11
80.553739999999607
 21
77.396352336625171
  0
ARC
  8
_1-8_小物
  6
CONTINUOUS
 62
    4
 10
80.572984999999449
 20
77.528289003291832
 40
0.1333333333333333
 50
261.70153399996303
 51
351.86989800004449
  0
LINE
  8
_1-8_小物
  6
CONTINUOUS
 62
    4
 10
80.704978333332747
 20
77.509434003291886
 11
80.714349999999513
 21
77.575040669958582
  0
ARC
  8
_1-8_小物
  6
CONTINUOUS
 62
    4
 10
80.582356666666101
 20
77.593897336624906
 40
0.1333333333333333
 50
351.86989800004449
 51
81.86989800000822
  0
LINE
  8
_1-8_小物
  6
CONTINUOUS
 62
    4
 10
80.60121333333268
 20
77.725890669958574
 11
78.399873333332721
 21
78.040367336625025
  0
LINE
  8
_1-8_小物
  6
CONTINUOUS
 62
    4
 10
78.285866666665925
 20
77.727137336625276
 11
80.553739999999607
 21
77.396352336625171
  0
ARC
  8
_1-8_小物
  6
CONTINUOUS
 62
    4
 10
80.572984999999449
 20
77.528289003291832
 40
0.1333333333333333
 50
261.70153399996303
 51
351.86989800004449
  0
LINE
  8
_1-8_小物
  6
CONTINUOUS
 62
    4
 10
80.704978333332747
 20
77.509434003291886
 11
80.714349999999513
 21
77.575040669958582
  0
ARC
  8
_1-8_小物
  6
CONTINUOUS
 62
    4
 10
80.582356666666101
 20
77.593897336624906
 40
0.1333333333333333
 50
351.86989800004449
 51
81.86989800000822
  0
LINE
  8
_1-8_小物
  6
CONTINUOUS
 62
    4
 10
80.60121333333268
 20
77.725890669958574
 11
78.399873333332721
 21
78.040367336625025
  0
LINE
  8
_1-8_小物
  6
CONTINUOUS
 62
    4
 10
83.333333333332803
 20
78.166670669958222
 11
81.666666666666174
 21
78.500004003291821
  0
LINE
  8
_1-8_小物
  6
CONTINUOUS
 62
    4
 10
83.333333333332803
 20
78.500004003291821
 11
80.666666666665947
 21
78.500004003291821
  0
LINE
  8
_1-8_小物
  6
CONTINUOUS
 62
    4
 10
80.666666666665947
 20
79.666670669958222
 11
80.666666666665947
 21
79.833337336624851
  0
LINE
  8
_1-8_小物
  6
CONTINUOUS
 62
    4
 10
81.666666666666174
 20
79.833337336624851
 11
83.333333333332803
 21
79.833337336624851
  0
LINE
  8
_1-8_小物
  6
CONTINUOUS
 62
    4
 10
83.333333333332803
 20
79.500004003291821
 11
81.666666666666174
 21
79.833337336624851
  0
LINE
  8
_1-8_小物
  6
CONTINUOUS
 62
    4
 10
83.333333333332803
 20
80.166670669958478
 11
81.666666666666174
 21
79.833337336624851
  0
LINE
  8
_1-8_小物
  6
CONTINUOUS
 62
    4
 10
83.333333333332803
 20
81.500004003291508
 11
81.666666666666174
 21
81.166670669958222
  0
LINE
  8
_1-8_小物
  6
CONTINUOUS
 62
    4
 10
83.333333333332803
 20
81.166670669958222
 11
80.666666666665947
 21
81.166670669958222
  0
LINE
  8
_1-8_小物
  6
CONTINUOUS
 62
    4
 10
80.666666666665947
 20
80.000004003291821
 11
80.666666666665947
 21
79.833337336624851
  0
LINE
  8
_1-8_小物
  6
CONTINUOUS
 62
    4
 10
83.333333333332803
 20
78.166670669958222
 11
83.333333333332803
 21
81.500004003291508
  0
ENDBLK
  0
BLOCK
  2
-008-_8_
 70
   64
 10
0
 20
0
 30
0
  0
LINE
  8
_1-8_小物
  6
CONTINUOUS
 62
    4
 10
130.13609166666657
 20
56.573391666666595
 11
130.17098166666614
 21
55.907638333333267
  0
LINE
  8
_1-8_小物
  6
CONTINUOUS
 62
    4
 10
130.0837549999996
 20
57.572021666666529
 11
129.435448333333
 21
57.204254999999904
  0
LINE
  8
_1-8_小物
  6
CONTINUOUS
 62
    4
 10
129.435448333333
 20
57.204254999999904
 11
129.47033833333319
 21
56.538501666666576
  0
LINE
  8
_1-8_小物
  6
CONTINUOUS
 62
    4
 10
129.47033833333319
 20
56.538501666666576
 11
130.13609166666657
 21
56.573391666666595
  0
LINE
  8
_1-8_小物
  6
CONTINUOUS
 62
    4
 10
130.04886499999969
 20
58.237774999999971
 11
130.0837549999996
 21
57.572021666666529
  0
LINE
  8
_1-8_小物
  6
CONTINUOUS
 62
    4
 10
129.99652833333306
 20
59.236403333333357
 11
129.34822166666612
 21
58.86863666666639
  0
LINE
  8
_1-8_小物
  6
CONTINUOUS
 62
    4
 10
129.34822166666612
 20
58.86863666666639
 11
129.38311166666637
 21
58.20288333333329
  0
LINE
  8
_1-8_小物
  6
CONTINUOUS
 62
    4
 10
129.38311166666637
 20
58.20288333333329
 11
130.04886499999969
 21
58.237774999999971
  0
LINE
  8
_1-8_小物
  6
CONTINUOUS
 62
    4
 10
129.96163833333287
 20
59.902156666666684
 11
129.99652833333306
 21
59.236403333333357
  0
LINE
  8
_1-8_小物
  6
CONTINUOUS
 62
    4
 10
129.90930166666652
 20
60.900786666666392
 11
129.26099499999992
 21
60.533019999999993
  0
LINE
  8
_1-8_小物
  6
CONTINUOUS
 62
    4
 10
129.26099499999992
 20
60.533019999999993
 11
129.29588499999949
 21
59.867266666666666
  0
LINE
  8
_1-8_小物
  6
CONTINUOUS
 62
    4
 10
129.29588499999949
 20
59.867266666666666
 11
129.96163833333287
 21
59.902156666666684
  0
LINE
  8
_1-8_小物
  6
CONTINUOUS
 62
    4
 10
129.87441166666633
 20
61.566539999999947
 11
129.90930166666652
 21
60.900786666666392
  0
LINE
  8
_1-8_小物
  6
CONTINUOUS
 62
    4
 10
129.8220749999997
 20
62.565169999999995
 11
129.17376833333304
 21
62.197401666666593
  0
LINE
  8
_1-8_小物
  6
CONTINUOUS
 62
    4
 10
129.17376833333304
 20
62.197401666666593
 11
129.20865833333295
 21
61.531648333333266
  0
LINE
  8
_1-8_小物
  6
CONTINUOUS
 62
    4
 10
129.20865833333295
 20
61.531648333333266
 11
129.87441166666633
 21
61.566539999999947
  0
LINE
  8
_1-8_小物
  6
CONTINUOUS
 62
    4
 10
129.78718499999979
 20
63.230921666666546
 11
129.8220749999997
 21
62.565169999999995
  0
LINE
  8
_1-8_小物
  6
CONTINUOUS
 62
    4
 10
129.08654166666622
 20
63.861784999999855
 11
129.12143166666641
 21
63.196031666666528
  0
LINE
  8
_1-8_小物
  6
CONTINUOUS
 62
    4
 10
129.12143166666641
 20
63.196031666666528
 11
129.78718499999979
 21
63.230921666666546
  0
LINE
  8
_1-8_小物
  6
CONTINUOUS
 62
    4
 10
129.66666666666634
 20
64.166666666666657
 11
129.08654166666622
 21
63.861784999999855
  0
LINE
  8
_1-8_小物
  6
CONTINUOUS
 62
    4
 10
126.53057499999971
 20
56.573391666666595
 11
126.49568499999981
 21
55.907638333333267
  0
LINE
  8
_1-8_小物
  6
CONTINUOUS
 62
    4
 10
126.58291166666635
 20
57.572021666666529
 11
127.231218333333
 21
57.204254999999904
  0
LINE
  8
_1-8_小物
  6
CONTINUOUS
 62
    4
 10
127.231218333333
 20
57.204254999999904
 11
127.19632833333281
 21
56.538501666666576
  0
LINE
  8
_1-8_小物
  6
CONTINUOUS
 62
    4
 10
127.19632833333281
 20
56.538501666666576
 11
126.53057499999971
 21
56.573391666666595
  0
LINE
  8
_1-8_小物
  6
CONTINUOUS
 62
    4
 10
126.61780166666659
 20
58.237774999999971
 11
126.58291166666635
 21
57.572021666666529
  0
LINE
  8
_1-8_小物
  6
CONTINUOUS
 62
    4
 10
126.67013833333289
 20
59.236403333333357
 11
127.31844499999954
 21
58.86863666666639
  0
LINE
  8
_1-8_小物
  6
CONTINUOUS
 62
    4
 10
127.31844499999954
 20
58.86863666666639
 11
127.28355499999992
 21
58.20288333333329
  0
LINE
  8
_1-8_小物
  6
CONTINUOUS
 62
    4
 10
127.28355499999992
 20
58.20288333333329
 11
126.61780166666659
 21
58.237774999999971
  0
LINE
  8
_1-8_小物
  6
CONTINUOUS
 62
    4
 10
126.70502833333279
 20
59.902156666666684
 11
126.67013833333289
 21
59.236403333333357
  0
LINE
  8
_1-8_小物
  6
CONTINUOUS
 62
    4
 10
126.75736499999942
 20
60.900786666666392
 11
127.40567166666636
 21
60.533019999999993
  0
LINE
  8
_1-8_小物
  6
CONTINUOUS
 62
    4
 10
127.40567166666636
 20
60.533019999999993
 11
127.37078166666646
 21
59.867266666666666
  0
LINE
  8
_1-8_小物
  6
CONTINUOUS
 62
    4
 10
127.37078166666646
 20
59.867266666666666
 11
126.70502833333279
 21
59.902156666666684
  0
LINE
  8
_1-8_小物
  6
CONTINUOUS
 62
    4
 10
126.79225499999967
 20
61.566539999999947
 11
126.75736499999942
 21
60.900786666666392
  0
LINE
  8
_1-8_小物
  6
CONTINUOUS
 62
    4
 10
126.84459166666659
 20
62.565169999999995
 11
127.49289833333324
 21
62.197401666666593
  0
LINE
  8
_1-8_小物
  6
CONTINUOUS
 62
    4
 10
127.49289833333324
 20
62.197401666666593
 11
127.458008333333
 21
61.531648333333266
  0
LINE
  8
_1-8_小物
  6
CONTINUOUS
 62
    4
 10
127.458008333333
 20
61.531648333333266
 11
126.79225499999967
 21
61.566539999999947
  0
LINE
  8
_1-8_小物
  6
CONTINUOUS
 62
    4
 10
126.87948166666621
 20
63.230921666666546
 11
126.84459166666659
 21
62.565169999999995
  0
LINE
  8
_1-8_小物
  6
CONTINUOUS
 62
    4
 10
127.58012499999978
 20
63.861784999999855
 11
127.54523499999954
 21
63.196031666666528
  0
LINE
  8
_1-8_小物
  6
CONTINUOUS
 62
    4
 10
127.54523499999954
 20
63.196031666666528
 11
126.87948166666621
 21
63.230921666666546
  0
LINE
  8
_1-8_小物
  6
CONTINUOUS
 62
    4
 10
128.31356499999976
 20
56.186434999999875
 11
128.95813166666625
 21
56.758324999999928
  0
LINE
  8
_1-8_小物
  6
CONTINUOUS
 62
    4
 10
127.71018499999957
 20
56.789813333333342
 11
128.33333333333331
 21
56.166666666666544
  0
LINE
  8
_1-8_小物
  6
CONTINUOUS
 62
    4
 10
126.99999999999994
 20
64.166666666666657
 11
127.58012499999978
 21
63.861784999999855
  0
LINE
  8
_1-8_小物
  6
CONTINUOUS
 62
    4
 10
129.87441166666633
 20
61.566539999999947
 11
130.43953333333286
 21
63.119199999999779
  0
LINE
  8
_1-8_小物
  6
CONTINUOUS
 62
    4
 10
129.51968499999987
 20
61.566539999999947
 11
130.12630333333311
 21
63.233206666666575
  0
LINE
  8
_1-8_小物
  6
CONTINUOUS
 62
    4
 10
126.79225499999967
 20
61.566539999999947
 11
126.22713333333314
 21
63.119199999999779
  0
LINE
  8
_1-8_小物
  6
CONTINUOUS
 62
    4
 10
127.14698166666614
 20
61.566539999999947
 11
126.54036333333289
 21
63.233206666666575
  0
LINE
  8
_1-8_小物
  6
CONTINUOUS
 62
    4
 10
129.00591499999967
 20
55.846579999999818
 11
130.17098166666614
 21
55.907638333333267
  0
LINE
  8
_1-8_小物
  6
CONTINUOUS
 62
    4
 10
130.17098166666614
 20
55.907638333333267
 11
129.5401199999996
 21
55.206995000000035
  0
LINE
  8
_1-8_小物
  6
CONTINUOUS
 62
    4
 10
129.5401199999996
 20
55.206995000000035
 11
129.04080499999992
 21
55.180826666666491
  0
LINE
  8
_1-8_小物
  6
CONTINUOUS
 62
    4
 10
129.04080499999992
 20
55.180826666666491
 11
128.49999999999994
 21
65.499999999999801
  0
LINE
  8
_1-8_小物
  6
CONTINUOUS
 62
    4
 10
129.66666666666634
 20
64.166666666666657
 11
129.66666666666634
 21
65.499999999999801
  0
LINE
  8
_1-8_小物
  6
CONTINUOUS
 62
    4
 10
127.66075166666627
 20
55.846579999999818
 11
126.49568499999981
 21
55.907638333333267
  0
LINE
  8
_1-8_小物
  6
CONTINUOUS
 62
    4
 10
126.49568499999981
 20
55.907638333333267
 11
127.12654666666634
 21
55.206995000000035
  0
LINE
  8
_1-8_小物
  6
CONTINUOUS
 62
    4
 10
127.12654666666634
 20
55.206995000000035
 11
127.62586166666637
 21
55.180826666666491
  0
LINE
  8
_1-8_小物
  6
CONTINUOUS
 62
    4
 10
127.62586166666637
 20
55.180826666666491
 11
128.16666666666634
 21
65.499999999999801
  0
LINE
  8
_1-8_小物
  6
CONTINUOUS
 62
    4
 10
126.99999999999994
 20
64.166666666666657
 11
126.99999999999994
 21
65.499999999999801
  0
LINE
  8
_1-8_小物
  6
CONTINUOUS
 62
    4
 10
126.22713333333314
 20
63.119199999999779
 11
125.89634833333304
 21
65.387073333333461
  0
ARC
  8
_1-8_小物
  6
CONTINUOUS
 62
    4
 10
126.0282849999997
 20
65.406318333333303
 40
0.1333333333333333
 50
98.130101999965902
 51
188.29846600002489
  0
LINE
  8
_1-8_小物
  6
CONTINUOUS
 62
    4
 10
126.00942833333278
 20
65.538311666666601
 11
126.07503666666645
 21
65.547683333333367
  0
ARC
  8
_1-8_小物
  6
CONTINUOUS
 62
    4
 10
126.09389333333331
 20
65.415689999999955
 40
0.1333333333333333
 50
8.130102000040166
 51
98.130102000238807
  0
LINE
  8
_1-8_小物
  6
CONTINUOUS
 62
    4
 10
126.22588666666644
 20
65.434546666666535
 11
126.54036333333289
 21
63.233206666666575
  0
LINE
  8
_1-8_小物
  6
CONTINUOUS
 62
    4
 10
130.43953333333286
 20
63.119199999999779
 11
130.77031833333297
 21
65.387073333333461
  0
ARC
  8
_1-8_小物
  6
CONTINUOUS
 62
    4
 10
130.63838166666631
 20
65.406318333333303
 40
0.1333333333333333
 50
351.70153399996303
 51
81.869898000058242
  0
LINE
  8
_1-8_小物
  6
CONTINUOUS
 62
    4
 10
130.65723666666628
 20
65.538311666666601
 11
130.59162999999955
 21
65.547683333333367
  0
ARC
  8
_1-8_小物
  6
CONTINUOUS
 62
    4
 10
130.57277333333326
 20
65.415689999999955
 40
0.1333333333333333
 50
81.869898000034112
 51
171.86989799999611
  0
LINE
  8
_1-8_小物
  6
CONTINUOUS
 62
    4
 10
130.44077999999956
 20
65.434546666666535
 11
130.12630333333311
 21
63.233206666666575
  0
LINE
  8
_1-8_小物
  6
CONTINUOUS
 62
    4
 10
130.43953333333286
 20
63.119199999999779
 11
130.77031833333297
 21
65.387073333333461
  0
ARC
  8
_1-8_小物
  6
CONTINUOUS
 62
    4
 10
130.63838166666631
 20
65.406318333333303
 40
0.1333333333333333
 50
351.70153399996303
 51
81.869898000058242
  0
LINE
  8
_1-8_小物
  6
CONTINUOUS
 62
    4
 10
130.65723666666628
 20
65.538311666666601
 11
130.59162999999955
 21
65.547683333333367
  0
ARC
  8
_1-8_小物
  6
CONTINUOUS
 62
    4
 10
130.57277333333326
 20
65.415689999999955
 40
0.1333333333333333
 50
81.869898000034112
 51
171.86989799999611
  0
LINE
  8
_1-8_小物
  6
CONTINUOUS
 62
    4
 10
130.44077999999956
 20
65.434546666666535
 11
130.12630333333311
 21
63.233206666666575
  0
LINE
  8
_1-8_小物
  6
CONTINUOUS
 62
    4
 10
129.99999999999994
 20
68.166666666666657
 11
129.66666666666634
 21
66.500000000000028
  0
LINE
  8
_1-8_小物
  6
CONTINUOUS
 62
    4
 10
129.66666666666634
 20
68.166666666666657
 11
129.66666666666634
 21
65.499999999999801
  0
LINE
  8
_1-8_小物
  6
CONTINUOUS
 62
    4
 10
128.49999999999994
 20
65.499999999999801
 11
128.33333333333331
 21
65.499999999999801
  0
LINE
  8
_1-8_小物
  6
CONTINUOUS
 62
    4
 10
128.33333333333331
 20
66.500000000000028
 11
128.33333333333331
 21
68.166666666666657
  0
LINE
  8
_1-8_小物
  6
CONTINUOUS
 62
    4
 10
128.66666666666634
 20
68.166666666666657
 11
128.33333333333331
 21
66.500000000000028
  0
LINE
  8
_1-8_小物
  6
CONTINUOUS
 62
    4
 10
127.99999999999966
 20
68.166666666666657
 11
128.33333333333331
 21
66.500000000000028
  0
LINE
  8
_1-8_小物
  6
CONTINUOUS
 62
    4
 10
126.66666666666663
 20
68.166666666666657
 11
126.99999999999994
 21
66.500000000000028
  0
LINE
  8
_1-8_小物
  6
CONTINUOUS
 62
    4
 10
126.99999999999994
 20
68.166666666666657
 11
126.99999999999994
 21
65.499999999999801
  0
LINE
  8
_1-8_小物
  6
CONTINUOUS
 62
    4
 10
128.16666666666634
 20
65.499999999999801
 11
128.33333333333331
 21
65.499999999999801
  0
LINE
  8
_1-8_小物
  6
CONTINUOUS
 62
    4
 10
129.99999999999994
 20
68.166666666666657
 11
126.66666666666663
 21
68.166666666666657
  0
ENDBLK
  0
BLOCK
  2
-009-_9_
 70
   64
 10
0
 20
0
 30
0
  0
LINE
  8
_1-7_カバ__
  6
CONTINUOUS
 62
    4
 10
-100
 20
76.429289321881299
 11
-99.929289321881356
 21
76.499999999999943
  0
LINE
  8
_1-7_カバ__
  6
CONTINUOUS
 62
    4
 10
-100
 20
76.429289321881299
 11
-100.07071067811867
 21
76.499999999999943
  0
LINE
  8
_1-7_カバ__
  6
CONTINUOUS
 62
    4
 10
-63.833333333333371
 20
76.000000000000057
 11
-63.833333333333371
 21
72.333333333333314
  0
LINE
  8
_1-7_カバ__
  6
CONTINUOUS
 62
    4
 10
-99.929289321881356
 20
76.499999999999943
 11
-63.333333333333371
 21
76.499999999999943
  0
LINE
  8
_1-7_カバ__
  6
CONTINUOUS
 62
    4
 10
-63.333333333333371
 20
76.499999999999943
 11
-63.333333333333371
 21
71.833333333333314
  0
LINE
  8
_1-7_カバ__
  6
CONTINUOUS
 62
    4
 10
-136.16666666666669
 20
76.000000000000057
 11
-63.833333333333371
 21
76.000000000000057
  0
LINE
  8
_1-7_カバ__
  6
CONTINUOUS
 62
    4
 10
-136.16666666666669
 20
76.000000000000057
 11
-136.16666666666669
 21
72.333333333333314
  0
LINE
  8
_1-7_カバ__
  6
CONTINUOUS
 62
    4
 10
-136.66666666666669
 20
76.499999999999943
 11
-100.07071067811867
 21
76.499999999999943
  0
LINE
  8
_1-7_カバ__
  6
CONTINUOUS
 62
    4
 10
-136.66666666666669
 20
76.499999999999943
 11
-136.66666666666669
 21
71.833333333333314
  0
LINE
  8
_1-7_カバ__
  6
CONTINUOUS
 62
    4
 10
-136.16666666666669
 20
72.333333333333314
 11
-133.33333333333334
 21
72.333333333333314
  0
LINE
  8
_1-7_カバ__
  6
CONTINUOUS
 62
    4
 10
-133.33333333333334
 20
72.333333333333314
 11
-133.33333333333334
 21
71.833333333333314
  0
LINE
  8
_1-7_カバ__
  6
CONTINUOUS
 62
    4
 10
-136.66666666666669
 20
71.833333333333314
 11
-133.33333333333334
 21
71.833333333333314
  0
LINE
  8
_1-7_カバ__
  6
CONTINUOUS
 62
    4
 10
-63.833333333333371
 20
72.333333333333314
 11
-66.666666666666686
 21
72.333333333333314
  0
LINE
  8
_1-7_カバ__
  6
CONTINUOUS
 62
    4
 10
-66.666666666666686
 20
72.333333333333314
 11
-66.666666666666686
 21
71.833333333333314
  0
LINE
  8
_1-7_カバ__
  6
CONTINUOUS
 62
    4
 10
-63.333333333333371
 20
71.833333333333314
 11
-66.666666666666686
 21
71.833333333333314
  0
LINE
  8
_1-7_カバ__
  6
CENTER2
 62
    4
 10
-100
 20
74.3333333333334
 11
-100
 21
78.166666666666657
  0
LINE
  8
_1-7_カバ__
  6
DASHED1
 62
    4
 10
-99.083333333333343
 20
76.000000000000057
 11
-99.083333333333343
 21
76.499999999999943
  0
LINE
  8
_1-7_カバ__
  6
DASHED1
 62
    4
 10
-100.91666666666667
 20
76.000000000000057
 11
-100.91666666666667
 21
76.499999999999943
  0
ENDBLK
  0
BLOCK
  2
-010-_10_
 70
   64
 10
0
 20
0
 30
0
  0
LINE
  8
_1-7_カバ__
  6
CONTINUOUS
 62
    4
 10
136.666666671033
 20
76.500000018633415
 11
136.666666671033
 21
71.833333351966758
  0
LINE
  8
_1-7_カバ__
  6
CONTINUOUS
 62
    4
 10
91.666666666666458
 20
76.500000018633415
 11
91.666666666666458
 21
91.499993665707564
  0
LINE
  8
_1-7_カバ__
  6
CONTINUOUS
 62
    4
 10
91.666666666666458
 20
91.499993665707564
 11
86.999999999999488
 21
91.499993665707564
  0
LINE
  8
_1-7_カバ__
  6
CONTINUOUS
 62
    4
 10
91.166666666666117
 20
90.999993665707649
 11
87.499999999999773
 21
90.999993665707649
  0
LINE
  8
_1-7_カバ__
  6
CONTINUOUS
 62
    4
 10
91.166666666666117
 20
90.999993665707649
 11
91.166666666666117
 21
76.0000000186335
  0
LINE
  8
_1-7_カバ__
  6
CONTINUOUS
 62
    4
 10
114.1666666688497
 20
76.429289340514771
 11
114.23737734696834
 21
76.500000018633415
  0
LINE
  8
_1-7_カバ__
  6
CONTINUOUS
 62
    4
 10
114.1666666688497
 20
76.429289340514771
 11
114.095955990731
 21
76.500000018633415
  0
LINE
  8
_1-7_カバ__
  6
CONTINUOUS
 62
    4
 10
91.166666666666117
 20
76.0000000186335
 11
136.166666671033
 21
76.0000000186335
  0
LINE
  8
_1-7_カバ__
  6
CONTINUOUS
 62
    4
 10
136.166666671033
 20
76.0000000186335
 11
136.166666671033
 21
72.333333351966758
  0
LINE
  8
_1-7_カバ__
  6
CONTINUOUS
 62
    4
 10
114.23737734696834
 20
76.500000018633415
 11
136.666666671033
 21
76.500000018633415
  0
LINE
  8
_1-7_カバ__
  6
CONTINUOUS
 62
    4
 10
91.666666666666458
 20
76.500000018633415
 11
114.095955990731
 21
76.500000018633415
  0
LINE
  8
_1-7_カバ__
  6
CONTINUOUS
 62
    4
 10
136.166666671033
 20
72.333333351966758
 11
133.33333333769957
 21
72.333333351966758
  0
LINE
  8
_1-7_カバ__
  6
CONTINUOUS
 62
    4
 10
133.33333333769957
 20
72.333333351966758
 11
133.33333333769957
 21
71.833333351966758
  0
LINE
  8
_1-7_カバ__
  6
CONTINUOUS
 62
    4
 10
136.666666671033
 20
71.833333351966758
 11
133.33333333769957
 21
71.833333351966758
  0
LINE
  8
_1-7_カバ__
  6
CONTINUOUS
 62
    4
 10
86.999999999999488
 20
91.499993665707564
 11
86.999999999999488
 21
88.166660332374391
  0
LINE
  8
_1-7_カバ__
  6
CONTINUOUS
 62
    4
 10
87.499999999999773
 20
88.166660332374391
 11
86.999999999999488
 21
88.166660332374391
  0
LINE
  8
_1-7_カバ__
  6
CONTINUOUS
 62
    4
 10
87.499999999999773
 20
90.999993665707649
 11
87.499999999999773
 21
88.166660332374391
  0
LINE
  8
_1-7_カバ__
  6
CENTER2
 62
    4
 10
114.1666666688497
 20
79.166666685300129
 11
114.1666666688497
 21
74.333333351966814
  0
ENDBLK
  0
BLOCK
  2
-011-_11_
 70
   64
 10
0
 20
0
 30
0
  0
LINE
  8
_1-8_小物
  6
CONTINUOUS
 62
    4
 10
-61.787483860264587
 20
-19
 11
-59.787483860264587
 21
-19
  0
LINE
  8
_1-8_小物
  6
CONTINUOUS
 62
    4
 10
-62.120817193597929
 20
-19.707106781186582
 11
-62.120817193597929
 21
-18.292893218813447
  0
LINE
  8
_1-8_小物
  6
CONTINUOUS
 62
    4
 10
-62.120817193597929
 20
-18.292893218813447
 11
-59.454150526931244
 21
-18.292893218813447
  0
LINE
  8
_1-8_小物
  6
CONTINUOUS
 62
    4
 10
-59.454150526931244
 20
-19.707106781186582
 11
-59.454150526931244
 21
-18.292893218813447
  0
LINE
  8
_1-8_小物
  6
CONTINUOUS
 62
    4
 10
-62.120817193597929
 20
-19.707106781186582
 11
-59.454150526931244
 21
-19.707106781186582
  0
ENDBLK
  0
BLOCK
  2
-012-_12_
 70
   64
 10
0
 20
0
 30
0
  0
LINE
  8
_1-8_小物
  6
CONTINUOUS
 62
    4
 10
-118.45415052693124
 20
-19
 11
-120.45415052693124
 21
-19
  0
LINE
  8
_1-8_小物
  6
CONTINUOUS
 62
    4
 10
-118.12081719359792
 20
-19.707106781186582
 11
-118.12081719359792
 21
-18.292893218813447
  0
LINE
  8
_1-8_小物
  6
CONTINUOUS
 62
    4
 10
-118.12081719359792
 20
-18.292893218813447
 11
-120.78748386026459
 21
-18.292893218813447
  0
LINE
  8
_1-8_小物
  6
CONTINUOUS
 62
    4
 10
-120.78748386026459
 20
-19.707106781186582
 11
-120.78748386026459
 21
-18.292893218813447
  0
LINE
  8
_1-8_小物
  6
CONTINUOUS
 62
    4
 10
-118.12081719359792
 20
-19.707106781186582
 11
-120.78748386026459
 21
-19.707106781186582
  0
ENDBLK
  0
BLOCK
  2
-013-_13_
 70
   64
 10
0
 20
0
 30
0
  0
LINE
  8
_1-8_小物
  6
CONTINUOUS
 62
    4
 10
138.21251613973538
 20
-19
 11
140.21251613973538
 21
-19
  0
LINE
  8
_1-8_小物
  6
CONTINUOUS
 62
    4
 10
137.87918280640207
 20
-19.707106781186582
 11
137.87918280640207
 21
-18.292893218813447
  0
LINE
  8
_1-8_小物
  6
CONTINUOUS
 62
    4
 10
137.87918280640207
 20
-18.292893218813447
 11
140.54584947306876
 21
-18.292893218813447
  0
LINE
  8
_1-8_小物
  6
CONTINUOUS
 62
    4
 10
140.54584947306876
 20
-19.707106781186582
 11
140.54584947306876
 21
-18.292893218813447
  0
LINE
  8
_1-8_小物
  6
CONTINUOUS
 62
    4
 10
137.87918280640207
 20
-19.707106781186582
 11
140.54584947306876
 21
-19.707106781186582
  0
ENDBLK
  0
BLOCK
  2
-014-_14_
 70
   64
 10
0
 20
0
 30
0
  0
LINE
  8
_1-8_小物
  6
CONTINUOUS
 62
    4
 10
81.545849473068756
 20
-19
 11
79.545849473068756
 21
-19
  0
LINE
  8
_1-8_小物
  6
CONTINUOUS
 62
    4
 10
81.879182806402071
 20
-19.707106781186582
 11
81.879182806402071
 21
-18.292893218813447
  0
LINE
  8
_1-8_小物
  6
CONTINUOUS
 62
    4
 10
81.879182806402071
 20
-18.292893218813447
 11
79.212516139735385
 21
-18.292893218813447
  0
LINE
  8
_1-8_小物
  6
CONTINUOUS
 62
    4
 10
79.212516139735385
 20
-19.707106781186582
 11
79.212516139735385
 21
-18.292893218813447
  0
LINE
  8
_1-8_小物
  6
CONTINUOUS
 62
    4
 10
81.879182806402071
 20
-19.707106781186582
 11
79.212516139735385
 21
-19.707106781186582
  0
ENDBLK
  0
BLOCK
  2
-015-_15_
 70
   64
 10
0
 20
0
 30
0
  0
LINE
  8
ADD_LINE
  6
DOT
 62
    4
 10
-125.83333333333334
 20
69.500000000000057
 11
-125.83333333333334
 21
68.499999999999943
  0
LINE
  8
ADD_LINE
  6
DOT
 62
    4
 10
-130.83333333333334
 20
69.500000000000057
 11
-130.83333333333334
 21
68.499999999999943
  0
LINE
  8
_1-4_フレ__ム
  6
CENTER2
 62
    4
 10
-128.33333333333334
 20
66.833333333333286
 11
-128.33333333333334
 21
70.666666666666771
  0
LINE
  8
_1-4_フレ__ム
  6
CONTINUOUS
 62
    4
 10
-128.33333333333334
 20
69.400000000000034
 11
-128.43333333333311
 21
69.500000000000057
  0
LINE
  8
_1-4_フレ__ム
  6
CONTINUOUS
 62
    4
 10
-128.23333333333298
 20
69.500000000000057
 11
-128.33333333333334
 21
69.400000000000034
  0
LINE
  8
_1-4_フレ__ム
  6
CONTINUOUS
 62
    4
 10
-123.66666682559938
 20
69.500000000000057
 11
-128.23333333333298
 21
69.500000000000057
  0
LINE
  8
_1-4_フレ__ム
  6
CONTINUOUS
 62
    4
 10
-123.66666682559938
 20
70.333333333333314
 11
-123.66666682559938
 21
69.500000000000057
  0
LINE
  8
_1-4_フレ__ム
  6
CONTINUOUS
 62
    4
 10
-123.66666682559938
 20
70.333333333333314
 11
-122.66666682559935
 21
70.333333333333314
  0
LINE
  8
_1-4_フレ__ム
  6
CONTINUOUS
 62
    4
 10
-128.43333333333311
 20
69.500000000000057
 11
-134.33333323486676
 21
69.500000000000057
  0
ARC
  8
_1-4_フレ__ム
  6
CONTINUOUS
 62
    4
 10
-114.43333323486635
 20
68.766666666666936
 40
0.2666666666666667
 50
270
 51
0
  0
ARC
  8
_1-4_フレ__ム
  6
CONTINUOUS
 62
    4
 10
-114.5333332348664
 20
68.666666666666771
 40
0.1666666666666666
 50
180
 51
270
  0
LINE
  8
_1-4_フレ__ム
  6
CONTINUOUS
 62
    4
 10
-114.5333332348664
 20
68.499999999999943
 11
-114.43333323486635
 21
68.499999999999943
  0
ARC
  8
_1-4_フレ__ム
  6
CONTINUOUS
 62
    4
 10
-116.66666656819993
 20
69.500000000000057
 40
0.1666666666666666
 50
270
 51
0
  0
LINE
  8
_1-4_フレ__ム
  6
CONTINUOUS
 62
    4
 10
-114.16666656819993
 20
68.766666666666936
 11
-114.16666656819993
 21
69.76666666666668
  0
ARC
  8
_1-4_フレ__ム
  6
CONTINUOUS
 62
    4
 10
-114.79999990153327
 20
69.76666666666668
 40
0.6333333333333333
 50
0
 51
90
  0
LINE
  8
_1-4_フレ__ム
  6
CONTINUOUS
 62
    4
 10
-122.66666682559935
 20
70.333333333333314
 11
-122.66666682559935
 21
69.333333333333428
  0
LINE
  8
_1-4_フレ__ム
  6
CONTINUOUS
 62
    4
 10
-116.66666656819993
 20
69.333333333333428
 11
-122.66666682559935
 21
69.333333333333428
  0
LINE
  8
_1-4_フレ__ム
  6
CONTINUOUS
 62
    4
 10
-133.33333323486644
 20
68.499999999999943
 11
-134.33333323486676
 21
69.500000000000057
  0
LINE
  8
_1-4_フレ__ム
  6
CONTINUOUS
 62
    4
 10
-133.33333323486644
 20
68.499999999999943
 11
-115.66666674613316
 21
68.499999999999943
  0
LINE
  8
ADD_LINE
  6
DOT
 62
    4
 10
-117.16666656819993
 20
69.333333333333428
 11
-117.16666656819993
 21
68.499999999999943
  0
LINE
  8
_1-4_フレ__ム
  6
CENTER2
 62
    4
 10
-115.18333323486635
 20
69.316666666666777
 11
-115.18333323486635
 21
70.149999999999807
  0
LINE
  8
_1-4_フレ__ム
  6
CENTER2
 62
    4
 10
-115.18333323486635
 20
69.316666666666777
 11
-116.01666656819998
 21
69.316666666666777
  0
LINE
  8
_1-4_フレ__ム
  6
CENTER2
 62
    4
 10
-115.18333323486635
 20
69.316666666666777
 11
-115.18333323486635
 21
68.483333333333178
  0
LINE
  8
_1-4_フレ__ム
  6
CENTER2
 62
    4
 10
-115.18333323486635
 20
69.316666666666777
 11
-114.34999990153301
 21
69.316666666666777
  0
ARC
  8
_1-4_フレ__ム
  6
CONTINUOUS
 62
    4
 10
-115.18333323486635
 20
69.316666666666777
 40
0.4833333333332726
 50
0
 51
180
  0
LINE
  8
_1-4_フレ__ム
  6
CONTINUOUS
 62
    4
 10
-115.66666656819993
 20
68.499999999999943
 11
-115.66666656819993
 21
69.316666666666777
  0
LINE
  8
_1-4_フレ__ム
  6
CONTINUOUS
 62
    4
 10
-114.69999990153337
 20
69.316666666666777
 11
-114.69999990153337
 21
68.666666666666771
  0
LINE
  8
_1-4_フレ__ム
  6
CONTINUOUS
 62
    4
 10
-116.49999990153326
 20
70.300000000000011
 11
-116.49999990153326
 21
69.500000000000057
  0
LINE
  8
_1-4_フレ__ム
  6
CONTINUOUS
 62
    4
 10
-114.79999990153327
 20
70.400000000000034
 11
-116.39999990153325
 21
70.400000000000034
  0
ARC
  8
_1-4_フレ__ム
  6
CONTINUOUS
 62
    4
 10
-116.39999990153325
 20
70.300000000000011
 40
0.0999999999999999
 50
90
 51
180
  0
ENDBLK
  0
BLOCK
  2
-016-_16_
 70
   64
 10
0
 20
0
 30
0
  0
LINE
  8
_1-8_小物
  6
CONTINUOUS
 62
    4
 10
-117.29444434924963
 20
69.563646888524232
 11
-117.38148138629434
 21
69.462640294876707
  0
ARC
  8
_1-8_小物
  6
CONTINUOUS
 62
    4
 10
-114.29999990153297
 20
70.26666666666668
 40
0.1333333333333333
 50
0
 51
89.999998490725531
  0
ARC
  8
_1-8_小物
  6
CONTINUOUS
 62
    4
 10
-114.29999990153297
 20
70.26666666666668
 40
0.2666666666666666
 50
0
 51
89.999998490725531
  0
ARC
  8
_1-8_小物
  6
CONTINUOUS
 62
    4
 10
-114.29999990153297
 20
68.633333333333326
 40
0.2666666666666666
 50
270
 51
0
  0
ARC
  8
_1-8_小物
  6
CONTINUOUS
 62
    4
 10
-115.03333323486632
 20
68.127322003766636
 40
0.5
 50
53.031405798549194
 51
131.81031489580602
  0
ARC
  8
_1-8_小物
  6
CONTINUOUS
 62
    4
 10
-114.65246101819963
 20
68.633333333333326
 40
0.1333333333333333
 50
233.03140197499982
 51
269.99999849072555
  0
LINE
  8
_1-8_小物
  6
CONTINUOUS
 62
    4
 10
-114.65609173836634
 20
68.366666666666674
 11
-114.29999990153297
 21
68.366666666666674
  0
ARC
  8
_1-8_小物
  6
CONTINUOUS
 62
    4
 10
-114.29999990153297
 20
68.633333333333326
 40
0.1333333333333333
 50
270
 51
0
  0
ARC
  8
_1-8_小物
  6
CONTINUOUS
 62
    4
 10
-115.03333323486632
 20
68.083666800100019
 40
0.3999999999999999
 50
55.537811429940156
 51
127.63786311680128
  0
LINE
  8
_1-8_小物
  6
CONTINUOUS
 62
    4
 10
-114.65246102169968
 20
68.5
 11
-114.29999990153297
 21
68.5
  0
ARC
  8
_1-8_小物
  6
CONTINUOUS
 62
    4
 10
-114.65609173836634
 20
68.633333333333326
 40
0.2666666666666666
 50
235.53781142990741
 51
270
  0
LINE
  8
_1-8_小物
  6
CONTINUOUS
 62
    4
 10
-115.36666656819965
 20
68.5
 11
-115.27760067656632
 21
68.400421305899982
  0
LINE
  8
_1-8_小物
  6
CONTINUOUS
 62
    4
 10
-114.03333323486632
 20
68.633333333333326
 11
-114.03333323486632
 21
70.26666666666668
  0
LINE
  8
_1-8_小物
  6
CONTINUOUS
 62
    4
 10
-114.16666656819967
 20
68.633333333333326
 11
-114.16666656819967
 21
70.26666666666668
  0
ARC
  8
_1-8_小物
  6
CONTINUOUS
 62
    4
 10
-117.03333323486632
 20
69.866666666666674
 40
0.5333333333333333
 50
180
 51
0.0000086701116401
  0
ARC
  8
_1-8_小物
  6
CONTINUOUS
 62
    4
 10
-117.03333323486632
 20
69.866666666666674
 40
0.3999999999999999
 50
180.00000000009771
 51
0.0000018823917002
  0
LINE
  8
_1-8_小物
  6
CONTINUOUS
 62
    4
 10
-117.43333323486632
 20
69.866666666666674
 11
-117.56666656819965
 21
69.866666666666674
  0
LINE
  8
_1-8_小物
  6
CONTINUOUS
 62
    4
 10
-118.49999990153302
 20
69.333333333333286
 11
-118.49999990153302
 21
69.466666666666612
  0
LINE
  8
_1-8_小物
  6
DASHED1
 62
    4
 10
-115.91666656112669
 20
70.533333333333331
 11
-115.91666656112669
 21
70.400000000000006
  0
LINE
  8
_1-8_小物
  6
CONTINUOUS
 62
    4
 10
-117.99999990153302
 20
69.466666666666612
 11
-117.99999990153302
 21
69.333333333333286
  0
LINE
  8
_1-8_小物
  6
CONTINUOUS
 62
    4
 10
-118.49999990153302
 20
69.466666666666612
 11
-117.38610007634155
 21
69.466666666666612
  0
LINE
  8
_1-8_小物
  6
CONTINUOUS
 62
    4
 10
-118.49999990153302
 20
69.333333333333286
 11
-116.66666656819993
 21
69.333333333333286
  0
LINE
  8
_1-8_小物
  6
CONTINUOUS
 62
    4
 10
-116.68056639339108
 20
69.466666666666612
 11
-116.50336725201441
 21
69.466666666666612
  0
ARC
  8
_1-8_小物
  6
CONTINUOUS
 62
    4
 10
-115.60310475988322
 20
69.033333333333331
 40
0.1333333333333333
 50
241.52902134410616
 51
270
  0
LINE
  8
_1-8_小物
  6
CONTINUOUS
 62
    4
 10
-115.66666656819993
 20
68.76666666666668
 11
-114.69999990153337
 21
68.76666666666668
  0
LINE
  8
_1-8_小物
  6
CONTINUOUS
 62
    4
 10
-115.60310475988322
 20
68.899999999999977
 11
-114.69999990153337
 21
68.899999999999977
  0
LINE
  8
_1-8_小物
  6
CONTINUOUS
 62
    4
 10
-114.29999989803301
 20
70.400000000000006
 11
-116.39999990153301
 21
70.400000000000006
  0
LINE
  8
_1-8_小物
  6
CONTINUOUS
 62
    4
 10
-116.49999990153302
 20
69.866666666666674
 11
-116.49999990153302
 21
70.300000000000011
  0
ARC
  8
_1-8_小物
  6
CONTINUOUS
 62
    4
 10
-116.39999990153301
 20
70.300000000000011
 40
0.0999999999999999
 50
90
 51
180
  0
LINE
  8
_1-8_小物
  6
CONTINUOUS
 62
    4
 10
-114.29999989453296
 20
70.533333333333331
 11
-116.39999990153296
 21
70.533333333333331
  0
LINE
  8
_1-8_小物
  6
CONTINUOUS
 62
    4
 10
-116.6333332348663
 20
69.866666666666674
 11
-116.6333332348663
 21
70.299999999999983
  0
ARC
  8
_1-8_小物
  6
CONTINUOUS
 62
    4
 10
-116.39999990153296
 20
70.299999999999983
 40
0.2333333333333333
 50
90
 51
180
  0
ENDBLK
  0
BLOCK
  2
-017-_17_
 70
   64
 10
0
 20
0
 30
0
  0
LINE
  8
_1-4_フレ__ム
  6
CONTINUOUS
 62
    4
 10
84.666666666665719
 20
79.933337336624845
 11
84.566666666666265
 21
79.833337336624936
  0
LINE
  8
_1-4_フレ__ム
  6
CONTINUOUS
 62
    4
 10
84.566666666666265
 20
79.833337336624936
 11
84.666666666666117
 21
79.733337336624629
  0
LINE
  8
_1-4_フレ__ム
  6
CONTINUOUS
 62
    4
 10
84.666666666666117
 20
75.166670669958478
 11
84.666666666666117
 21
79.733337336624629
  0
LINE
  8
_1-4_フレ__ム
  6
CONTINUOUS
 62
    4
 10
84.666666666665719
 20
85.166670669958194
 11
84.666666666665719
 21
79.933337336624845
  0
ARC
  8
_1-4_フレ__ム
  6
CONTINUOUS
 62
    4
 10
86.433333328966739
 20
86.833337336624709
 40
0.1666666666666666
 50
270
 51
90
  0
LINE
  8
_1-4_フレ__ム
  6
CONTINUOUS
 62
    4
 10
86.333333328966773
 20
86.666670669958023
 11
86.333333328966773
 21
83.500004003291508
  0
LINE
  8
_1-4_フレ__ム
  6
CONTINUOUS
 62
    4
 10
85.833333328966773
 20
87.000004003291366
 11
86.433333328966739
 21
87.000004003291366
  0
LINE
  8
_1-4_フレ__ム
  6
CONTINUOUS
 62
    4
 10
85.833333328966773
 20
83.500004003291508
 11
86.333333328966773
 21
83.500004003291508
  0
LINE
  8
_1-4_フレ__ム
  6
CONTINUOUS
 62
    4
 10
85.833333328966773
 20
85.166670669958194
 11
84.666666666665719
 21
85.166670669958194
  0
LINE
  8
_1-4_フレ__ム
  6
CONTINUOUS
 62
    4
 10
85.833333328966773
 20
85.166670669958194
 11
85.833333328966773
 21
83.500004003291508
  0
LINE
  8
_1-4_フレ__ム
  6
CONTINUOUS
 62
    4
 10
85.833333328966773
 20
87.000004003291366
 11
85.833333328966773
 21
86.166670669958194
  0
ARC
  8
_1-4_フレ__ム
  6
CONTINUOUS
 62
    4
 10
84.999999999999602
 20
72.833337336624851
 40
0.1666666666666666
 50
180
 51
270
  0
ARC
  8
_1-4_フレ__ム
  6
CONTINUOUS
 62
    4
 10
84.816666666666606
 20
71.350004003291502
 40
0.4833333333332726
 50
270
 51
90
  0
ARC
  8
_1-4_フレ__ム
  6
CONTINUOUS
 62
    4
 10
85.299999999999727
 20
70.933337336624987
 40
0.5999999999999999
 50
270
 51
0
  0
LINE
  8
_1-4_フレ__ム
  6
CONTINUOUS
 62
    4
 10
83.999999999999147
 20
70.700004003291497
 11
83.999999999999147
 21
70.600004003291588
  0
LINE
  8
_1-4_フレ__ム
  6
CONTINUOUS
 62
    4
 10
84.816666666666606
 20
70.866670669958239
 11
84.16666666666606
 21
70.866670669958154
  0
ARC
  8
_1-4_フレ__ム
  6
CONTINUOUS
 62
    4
 10
84.16666666666606
 20
70.700004003291497
 40
0.1666666666666666
 50
90
 51
180
  0
ARC
  8
_1-4_フレ__ム
  6
CONTINUOUS
 62
    4
 10
84.266666666666254
 20
70.600004003291588
 40
0.2666666666666667
 50
180
 51
270
  0
LINE
  8
_1-4_フレ__ム
  6
CONTINUOUS
 62
    4
 10
84.266666666666254
 20
70.333337336624879
 11
85.299999999999727
 21
70.333337336624936
  0
LINE
  8
_1-4_フレ__ム
  6
CONTINUOUS
 62
    4
 10
83.666666666665719
 20
71.833337336624936
 11
84.816666666666606
 21
71.833337336624936
  0
LINE
  8
_1-4_フレ__ム
  6
CONTINUOUS
 62
    4
 10
85.833333328966773
 20
86.166670669958194
 11
83.666666666665719
 21
86.166670669958194
  0
LINE
  8
_1-4_フレ__ム
  6
CONTINUOUS
 62
    4
 10
83.666666666665719
 20
71.833337336624936
 11
83.666666666665719
 21
86.166670669958194
  0
LINE
  8
_1-4_フレ__ム
  6
CONTINUOUS
 62
    4
 10
84.666666666666117
 20
75.166670669958478
 11
84.833333333332916
 21
75.166670669958478
  0
LINE
  8
_1-4_フレ__ム
  6
CONTINUOUS
 62
    4
 10
84.833333333332916
 20
72.833337336624851
 11
84.833333333332916
 21
75.166670669958478
  0
LINE
  8
_1-4_フレ__ム
  6
CONTINUOUS
 62
    4
 10
86.333333328966773
 20
86.666670669958023
 11
86.433333328966739
 21
86.666670669958023
  0
LINE
  8
_1-4_フレ__ム
  6
CENTER2
 62
    4
 10
85.833333333332462
 20
79.833337336624936
 11
81.999999999999091
 21
79.833337336624936
  0
LINE
  8
_1-4_フレ__ム
  6
CENTER2
 62
    4
 10
84.816666666666606
 20
71.350004003291502
 11
85.64999999999975
 21
71.350004003291502
  0
LINE
  8
_1-4_フレ__ム
  6
CENTER2
 62
    4
 10
84.816666666666606
 20
71.350004003291502
 11
84.816666666666606
 21
72.183337336624987
  0
LINE
  8
_1-4_フレ__ム
  6
CENTER2
 62
    4
 10
84.816666666666606
 20
71.350004003291502
 11
83.983333333333121
 21
71.350004003291502
  0
LINE
  8
_1-4_フレ__ム
  6
CENTER2
 62
    4
 10
84.816666666666606
 20
71.350004003291502
 11
84.816666666666606
 21
70.516670669958103
  0
LINE
  8
_1-4_フレ__ム
  6
DASHED1
 62
    4
 10
84.666666666666117
 20
82.33333733662522
 11
83.666666666665719
 21
82.33333733662522
  0
LINE
  8
_1-4_フレ__ム
  6
DASHED1
 62
    4
 10
84.666666666666117
 20
77.33333733662522
 11
83.666666666665719
 21
77.33333733662522
  0
LINE
  8
_1-4_フレ__ム
  6
DASHED1
 62
    4
 10
84.833333333332689
 20
73.666670669958251
 11
83.666666666665719
 21
73.666670669958251
  0
LINE
  8
_1-4_フレ__ム
  6
CONTINUOUS
 62
    4
 10
85.799999999999613
 20
72.666670669958336
 11
84.999999999999602
 21
72.666670669958336
  0
LINE
  8
_1-4_フレ__ム
  6
CONTINUOUS
 62
    4
 10
85.899999999999636
 20
70.933337336624987
 11
85.899999999999636
 21
72.566670669958313
  0
ARC
  8
_1-4_フレ__ム
  6
CONTINUOUS
 62
    4
 10
85.799999999999613
 20
72.566670669958313
 40
0.0999999999999999
 50
0
 51
90
  0
ENDBLK
  0
BLOCK
  2
-018-_18_
 70
   64
 10
0
 20
0
 30
0
  0
LINE
  8
_1-8_小物
  6
CONTINUOUS
 62
    4
 10
85.06364688852392
 20
73.461115117674922
 11
84.962640294876394
 21
73.548152154719617
  0
ARC
  8
_1-8_小物
  6
CONTINUOUS
 62
    4
 10
85.766666666666367
 20
70.466670669958262
 40
0.1333333333333333
 50
270
 51
359.99999849072555
  0
ARC
  8
_1-8_小物
  6
CONTINUOUS
 62
    4
 10
85.766666666666367
 20
70.466670669958262
 40
0.2666666666666666
 50
270
 51
359.99999849072555
  0
ARC
  8
_1-8_小物
  6
CONTINUOUS
 62
    4
 10
84.133333333332985
 20
70.466670669958262
 40
0.2666666666666666
 50
180
 51
270
  0
ARC
  8
_1-8_小物
  6
CONTINUOUS
 62
    4
 10
83.627322003766324
 20
71.20000400329161
 40
0.5
 50
323.03140579854858
 51
41.810314895802605
  0
ARC
  8
_1-8_小物
  6
CONTINUOUS
 62
    4
 10
84.133333333332985
 20
70.819131786624922
 40
0.1333333333333333
 50
143.03140197500721
 51
179.99999849072555
  0
LINE
  8
_1-8_小物
  6
CONTINUOUS
 62
    4
 10
83.866666666666333
 20
70.822762506791634
 11
83.866666666666333
 21
70.466670669958262
  0
ARC
  8
_1-8_小物
  6
CONTINUOUS
 62
    4
 10
84.133333333332985
 20
70.466670669958262
 40
0.1333333333333333
 50
180
 51
270
  0
ARC
  8
_1-8_小物
  6
CONTINUOUS
 62
    4
 10
83.583666800099707
 20
71.20000400329161
 40
0.3999999999999999
 50
325.5378114299408
 51
37.637863116799679
  0
LINE
  8
_1-8_小物
  6
CONTINUOUS
 62
    4
 10
83.999999999999659
 20
70.81913179012497
 11
83.999999999999659
 21
70.466670669958262
  0
ARC
  8
_1-8_小物
  6
CONTINUOUS
 62
    4
 10
84.133333333332985
 20
70.822762506791634
 40
0.2666666666666666
 50
145.53781142990746
 51
180
  0
LINE
  8
_1-8_小物
  6
CONTINUOUS
 62
    4
 10
83.999999999999659
 20
71.533337336624925
 11
83.90042130589967
 21
71.444271444991614
  0
LINE
  8
_1-8_小物
  6
CONTINUOUS
 62
    4
 10
84.133333333332985
 20
70.20000400329161
 11
85.766666666666367
 21
70.20000400329161
  0
LINE
  8
_1-8_小物
  6
CONTINUOUS
 62
    4
 10
84.133333333332985
 20
70.333337336624965
 11
85.766666666666367
 21
70.333337336624965
  0
ARC
  8
_1-8_小物
  6
CONTINUOUS
 62
    4
 10
85.366666666666333
 20
73.20000400329161
 40
0.5333333333333333
 50
90
 51
270.00000867010863
  0
ARC
  8
_1-8_小物
  6
CONTINUOUS
 62
    4
 10
85.366666666666333
 20
73.20000400329161
 40
0.3999999999999999
 50
90.0000000000977
 51
270.0000018823917
  0
LINE
  8
_1-8_小物
  6
CONTINUOUS
 62
    4
 10
85.366666666666333
 20
73.600004003291616
 11
85.366666666666333
 21
73.733337336624942
  0
LINE
  8
_1-8_小物
  6
CONTINUOUS
 62
    4
 10
84.833333333332973
 20
74.666670669958307
 11
84.966666666666299
 21
74.666670669958307
  0
LINE
  8
_1-8_小物
  6
DASHED1
 62
    4
 10
86.033333333333019
 20
72.083337329551966
 11
85.899999999999693
 21
72.083337329551966
  0
LINE
  8
_1-8_小物
  6
CONTINUOUS
 62
    4
 10
84.966666666666299
 20
74.166670669958307
 11
84.833333333332973
 21
74.166670669958307
  0
LINE
  8
_1-8_小物
  6
CONTINUOUS
 62
    4
 10
84.966666666666299
 20
74.666670669958307
 11
84.966666666666299
 21
73.552770844766826
  0
LINE
  8
_1-8_小物
  6
CONTINUOUS
 62
    4
 10
84.966666666666299
 20
72.847237161816366
 11
84.966666666666299
 21
72.670038020439307
  0
LINE
  8
_1-8_小物
  6
CONTINUOUS
 62
    4
 10
84.833333333332973
 20
74.666670669958307
 11
84.833333333332973
 21
72.833337336624851
  0
ARC
  8
_1-8_小物
  6
CONTINUOUS
 62
    4
 10
84.533333333333019
 20
71.769775528308514
 40
0.1333333333333333
 50
151.52902134424266
 51
180
  0
LINE
  8
_1-8_小物
  6
CONTINUOUS
 62
    4
 10
84.399999999999636
 20
71.769775528308514
 11
84.399999999999636
 21
70.866670669958239
  0
LINE
  8
_1-8_小物
  6
CONTINUOUS
 62
    4
 10
84.266666666666367
 20
71.833337336624936
 11
84.266666666666367
 21
70.866670669958239
  0
LINE
  8
_1-8_小物
  6
CONTINUOUS
 62
    4
 10
85.366666666666333
 20
72.800004003291576
 11
85.79999999999967
 21
72.800004003291576
  0
LINE
  8
_1-8_小物
  6
CONTINUOUS
 62
    4
 10
86.033333333333019
 20
70.466670662958251
 11
86.033333333333019
 21
72.566670669958228
  0
ARC
  8
_1-8_小物
  6
CONTINUOUS
 62
    4
 10
85.79999999999967
 20
72.566670669958228
 40
0.2333333333333333
 50
0
 51
90
  0
LINE
  8
_1-8_小物
  6
CONTINUOUS
 62
    4
 10
85.366666666666333
 20
72.666670669958307
 11
85.799999999999727
 21
72.666670669958307
  0
LINE
  8
_1-8_小物
  6
CONTINUOUS
 62
    4
 10
85.899999999999693
 20
70.466670666458299
 11
85.899999999999693
 21
72.566670669958313
  0
ARC
  8
_1-8_小物
  6
CONTINUOUS
 62
    4
 10
85.799999999999727
 20
72.566670669958313
 40
0.0999999999999999
 50
0
 51
90
  0
ENDBLK
  0
BLOCK
  2
-019-_19_
 70
   64
 10
0
 20
0
 30
0
  0
LINE
  8
_1-8_小物
  6
CONTINUOUS
 62
    4
 10
131.33333333333354
 20
69.499999999999943
 11
125.33333333333326
 21
69.499999999999943
  0
LINE
  8
_1-8_小物
  6
CONTINUOUS
 62
    4
 10
131.33333333333354
 20
68.999999999999943
 11
125.33333333333326
 21
68.999999999999943
  0
LINE
  8
_1-8_小物
  6
CONTINUOUS
 62
    4
 10
131.33333333333354
 20
69.499999999999943
 11
131.33333333333354
 21
68.999999999999943
  0
LINE
  8
_1-8_小物
  6
CONTINUOUS
 62
    4
 10
125.33333333333326
 20
69.499999999999943
 11
125.33333333333326
 21
68.999999999999943
  0
LINE
  8
_1-8_小物
  6
CONTINUOUS
 62
    4
 10
129.83333333333354
 20
69.499999999999943
 11
129.79702907206672
 21
69.914959604999979
  0
LINE
  8
_1-8_小物
  6
CONTINUOUS
 62
    4
 10
126.86963759456671
 20
69.914959604999979
 11
126.83333333333354
 21
69.499999999999943
  0
ARC
  8
_1-8_小物
  6
CONTINUOUS
 62
    4
 10
127.19838184496643
 20
69.886198209899874
 40
0.3299999999999999
 50
127.36755803205445
 51
175.00000000119914
  0
ARC
  8
_1-8_小物
  6
CONTINUOUS
 62
    4
 10
129.46828482170008
 20
69.886198209899874
 40
0.3299999999999999
 50
4.9999999988017167
 51
52.632441967953397
  0
ARC
  8
_1-8_小物
  6
CONTINUOUS
 62
    4
 10
128.33333333333326
 20
68.39999999999992
 40
2.1999999999999997
 50
52.632441967705518
 51
68.26638354339913
  0
ARC
  8
_1-8_小物
  6
CONTINUOUS
 62
    4
 10
128.33333333333326
 20
68.39999999999992
 40
2.1999999999999997
 50
111.74840859090399
 51
127.36755803230515
  0
LINE
  8
_1-8_小物
  6
CONTINUOUS
 62
    4
 10
128.43833333333339
 20
70.586375709866672
 11
128.43833333333339
 21
70.441104079866534
  0
LINE
  8
_1-8_小物
  6
CONTINUOUS
 62
    4
 10
128.55409622730036
 20
70.586375709866672
 11
128.43833333333339
 21
70.586375709866672
  0
LINE
  8
_1-8_小物
  6
CONTINUOUS
 62
    4
 10
129.1475010895
 20
70.441104079866534
 11
128.55409622730036
 21
70.586375709866672
  0
LINE
  8
_1-8_小物
  6
CONTINUOUS
 62
    4
 10
128.11257043933335
 20
70.586375709866672
 11
127.67926701676657
 21
70.497897102733361
  0
LINE
  8
_1-8_小物
  6
CONTINUOUS
 62
    4
 10
127.67926701676657
 20
70.497897102733361
 11
127.51916557713372
 21
70.441104079866534
  0
LINE
  8
_1-8_小物
  6
CONTINUOUS
 62
    4
 10
128.22833333333335
 20
70.586375709866672
 11
128.11257043933335
 21
70.586375709866672
  0
LINE
  8
_1-8_小物
  6
CONTINUOUS
 62
    4
 10
128.22833333333335
 20
70.441104079866534
 11
128.22833333333335
 21
70.586375709866672
  0
LINE
  8
_1-8_小物
  6
CONTINUOUS
 62
    4
 10
128.43833333333339
 20
70.441104079866534
 11
128.33333333333326
 21
70.442805804666648
  0
LINE
  8
_1-8_小物
  6
CONTINUOUS
 62
    4
 10
128.33333333333326
 20
70.442805804666648
 11
128.22833333333335
 21
70.441104079866534
  0
LINE
  8
_1-8_小物
  6
CONTINUOUS
 62
    4
 10
129.79702907206672
 20
69.914959604999979
 11
126.86963759456671
 21
69.914959604999979
  0
LINE
  8
_1-8_小物
  6
CONTINUOUS
 62
    4
 10
128.33333333333326
 20
70.148468482233341
 11
126.99809628816661
 21
70.148468482233341
  0
LINE
  8
_1-8_小物
  6
CONTINUOUS
 62
    4
 10
129.66857037846682
 20
70.148468482233341
 11
128.33333333333326
 21
70.148468482233341
  0
ENDBLK
  0
BLOCK
  2
-020-_20_
 70
   64
 10
0
 20
0
 30
0
  0
LINE
  8
_1-8_小物
  6
CONTINUOUS
 62
    4
 10
-68.666666666666458
 20
69.499999999999943
 11
-74.666666666666771
 21
69.499999999999943
  0
LINE
  8
_1-8_小物
  6
CONTINUOUS
 62
    4
 10
-68.666666666666458
 20
68.999999999999943
 11
-74.666666666666771
 21
68.999999999999943
  0
LINE
  8
_1-8_小物
  6
CONTINUOUS
 62
    4
 10
-68.666666666666458
 20
69.499999999999943
 11
-68.666666666666458
 21
68.999999999999943
  0
LINE
  8
_1-8_小物
  6
CONTINUOUS
 62
    4
 10
-74.666666666666771
 20
69.499999999999943
 11
-74.666666666666771
 21
68.999999999999943
  0
LINE
  8
_1-8_小物
  6
CONTINUOUS
 62
    4
 10
-70.166666666666458
 20
69.499999999999943
 11
-70.202970927933308
 21
69.914959604999979
  0
LINE
  8
_1-8_小物
  6
CONTINUOUS
 62
    4
 10
-73.130362405433317
 20
69.914959604999979
 11
-73.166666666666458
 21
69.499999999999943
  0
ARC
  8
_1-8_小物
  6
CONTINUOUS
 62
    4
 10
-72.801618155033594
 20
69.886198209899874
 40
0.3299999999999999
 50
127.36755803205052
 51
175.00000000119871
  0
ARC
  8
_1-8_小物
  6
CONTINUOUS
 62
    4
 10
-70.531715178299947
 20
69.886198209899874
 40
0.3299999999999999
 50
4.999999998801286
 51
52.632441967949475
  0
ARC
  8
_1-8_小物
  6
CONTINUOUS
 62
    4
 10
-71.666666666666771
 20
68.39999999999992
 40
2.1999999999999997
 50
52.632441967704935
 51
68.266383543398447
  0
ARC
  8
_1-8_小物
  6
CONTINUOUS
 62
    4
 10
-71.666666666666771
 20
68.39999999999992
 40
2.1999999999999997
 50
111.74840859090331
 51
127.36755803230515
  0
LINE
  8
_1-8_小物
  6
CONTINUOUS
 62
    4
 10
-71.561666666666639
 20
70.586375709866672
 11
-71.561666666666639
 21
70.441104079866534
  0
LINE
  8
_1-8_小物
  6
CONTINUOUS
 62
    4
 10
-71.445903772699637
 20
70.586375709866672
 11
-71.561666666666639
 21
70.586375709866672
  0
LINE
  8
_1-8_小物
  6
CONTINUOUS
 62
    4
 10
-70.852498910500032
 20
70.441104079866534
 11
-71.445903772699637
 21
70.586375709866672
  0
LINE
  8
_1-8_小物
  6
CONTINUOUS
 62
    4
 10
-71.887429560666675
 20
70.586375709866672
 11
-72.320732983233427
 21
70.497897102733361
  0
LINE
  8
_1-8_小物
  6
CONTINUOUS
 62
    4
 10
-72.320732983233427
 20
70.497897102733361
 11
-72.48083442286628
 21
70.441104079866534
  0
LINE
  8
_1-8_小物
  6
CONTINUOUS
 62
    4
 10
-71.771666666666675
 20
70.586375709866672
 11
-71.887429560666675
 21
70.586375709866672
  0
LINE
  8
_1-8_小物
  6
CONTINUOUS
 62
    4
 10
-71.771666666666675
 20
70.441104079866534
 11
-71.771666666666675
 21
70.586375709866672
  0
LINE
  8
_1-8_小物
  6
CONTINUOUS
 62
    4
 10
-71.561666666666639
 20
70.441104079866534
 11
-71.666666666666771
 21
70.442805804666648
  0
LINE
  8
_1-8_小物
  6
CONTINUOUS
 62
    4
 10
-71.666666666666771
 20
70.442805804666648
 11
-71.771666666666675
 21
70.441104079866534
  0
LINE
  8
_1-8_小物
  6
CONTINUOUS
 62
    4
 10
-70.202970927933308
 20
69.914959604999979
 11
-73.130362405433317
 21
69.914959604999979
  0
LINE
  8
_1-8_小物
  6
CONTINUOUS
 62
    4
 10
-71.666666666666771
 20
70.148468482233341
 11
-73.001903711833421
 21
70.148468482233341
  0
LINE
  8
_1-8_小物
  6
CONTINUOUS
 62
    4
 10
-70.331429621533204
 20
70.148468482233341
 11
-71.666666666666771
 21
70.148468482233341
  0
ENDBLK
  0
BLOCK
  2
-021-_21_
 70
   64
 10
0
 20
0
 30
0
  0
LINE
  8
_1-8_小物
  6
CONTINUOUS
 62
    4
 10
-125.33333333333287
 20
70.000000000000057
 11
-131.33333333333317
 21
70.000000000000057
  0
LINE
  8
_1-8_小物
  6
CONTINUOUS
 62
    4
 10
-125.33333333333287
 20
69.500000000000057
 11
-131.33333333333317
 21
69.500000000000057
  0
LINE
  8
_1-8_小物
  6
CONTINUOUS
 62
    4
 10
-125.33333333333287
 20
70.000000000000057
 11
-125.33333333333287
 21
69.500000000000057
  0
LINE
  8
_1-8_小物
  6
CONTINUOUS
 62
    4
 10
-131.33333333333317
 20
70.000000000000057
 11
-131.33333333333317
 21
69.500000000000057
  0
LINE
  8
_1-8_小物
  6
CONTINUOUS
 62
    4
 10
-126.83333333333287
 20
70.000000000000057
 11
-126.86963759459971
 21
70.414959605000092
  0
LINE
  8
_1-8_小物
  6
CONTINUOUS
 62
    4
 10
-129.79702907209972
 20
70.414959605000092
 11
-129.83333333333286
 21
70.000000000000057
  0
ARC
  8
_1-8_小物
  6
CONTINUOUS
 62
    4
 10
-129.4682848217
 20
70.386198209899987
 40
0.3299999999999999
 50
127.36755803205445
 51
175.00000000119871
  0
ARC
  8
_1-8_小物
  6
CONTINUOUS
 62
    4
 10
-127.19838184496635
 20
70.386198209899987
 40
0.3299999999999999
 50
4.999999998801286
 51
52.632441967947514
  0
ARC
  8
_1-8_小物
  6
CONTINUOUS
 62
    4
 10
-128.33333333333317
 20
68.900000000000034
 40
2.1999999999999997
 50
52.632441967704935
 51
68.266383543398447
  0
ARC
  8
_1-8_小物
  6
CONTINUOUS
 62
    4
 10
-128.33333333333317
 20
68.900000000000034
 40
2.1999999999999997
 50
111.74840859090331
 51
127.36755803230515
  0
LINE
  8
_1-8_小物
  6
CONTINUOUS
 62
    4
 10
-128.22833333333304
 20
71.086375709866786
 11
-128.22833333333304
 21
70.941104079866648
  0
LINE
  8
_1-8_小物
  6
CONTINUOUS
 62
    4
 10
-128.11257043936604
 20
71.086375709866786
 11
-128.22833333333304
 21
71.086375709866786
  0
LINE
  8
_1-8_小物
  6
CONTINUOUS
 62
    4
 10
-127.51916557716643
 20
70.941104079866648
 11
-128.11257043936604
 21
71.086375709866786
  0
LINE
  8
_1-8_小物
  6
CONTINUOUS
 62
    4
 10
-128.55409622733308
 20
71.086375709866786
 11
-128.98739964989983
 21
70.997897102733475
  0
LINE
  8
_1-8_小物
  6
CONTINUOUS
 62
    4
 10
-128.98739964989983
 20
70.997897102733475
 11
-129.14750108953268
 21
70.941104079866648
  0
LINE
  8
_1-8_小物
  6
CONTINUOUS
 62
    4
 10
-128.43833333333308
 20
71.086375709866786
 11
-128.55409622733308
 21
71.086375709866786
  0
LINE
  8
_1-8_小物
  6
CONTINUOUS
 62
    4
 10
-128.43833333333308
 20
70.941104079866648
 11
-128.43833333333308
 21
71.086375709866786
  0
LINE
  8
_1-8_小物
  6
CONTINUOUS
 62
    4
 10
-128.22833333333304
 20
70.941104079866648
 11
-128.33333333333317
 21
70.942805804666762
  0
LINE
  8
_1-8_小物
  6
CONTINUOUS
 62
    4
 10
-128.33333333333317
 20
70.942805804666762
 11
-128.43833333333308
 21
70.941104079866648
  0
LINE
  8
_1-8_小物
  6
CONTINUOUS
 62
    4
 10
-126.86963759459971
 20
70.414959605000092
 11
-129.79702907209972
 21
70.414959605000092
  0
LINE
  8
_1-8_小物
  6
CONTINUOUS
 62
    4
 10
-128.33333333333317
 20
70.648468482233454
 11
-129.66857037849982
 21
70.648468482233454
  0
LINE
  8
_1-8_小物
  6
CONTINUOUS
 62
    4
 10
-126.9980962881996
 20
70.648468482233454
 11
-128.33333333333317
 21
70.648468482233454
  0
ENDBLK
  0
BLOCK
  2
-022-_22_
 70
   64
 10
0
 20
0
 30
0
  0
LINE
  8
_1-8_小物
  6
CONTINUOUS
 62
    4
 10
85.16666666666589
 20
76.833337336624538
 11
85.16666666666589
 21
82.833337336624851
  0
LINE
  8
_1-8_小物
  6
CONTINUOUS
 62
    4
 10
84.66666666666589
 20
76.833337336624538
 11
84.66666666666589
 21
82.833337336624851
  0
LINE
  8
_1-8_小物
  6
CONTINUOUS
 62
    4
 10
85.16666666666589
 20
76.833337336624538
 11
84.66666666666589
 21
76.833337336624538
  0
LINE
  8
_1-8_小物
  6
CONTINUOUS
 62
    4
 10
85.16666666666589
 20
82.833337336624851
 11
84.66666666666589
 21
82.833337336624851
  0
LINE
  8
_1-8_小物
  6
CONTINUOUS
 62
    4
 10
85.16666666666589
 20
78.333337336624538
 11
85.581626271665925
 21
78.369641597891388
  0
LINE
  8
_1-8_小物
  6
CONTINUOUS
 62
    4
 10
85.581626271665925
 20
81.297033075391397
 11
85.16666666666589
 21
81.333337336624538
  0
ARC
  8
_1-8_小物
  6
CONTINUOUS
 62
    4
 10
85.55286487656582
 20
80.968288824991674
 40
0.3299999999999999
 50
37.367558032050525
 51
85.000000001203631
  0
ARC
  8
_1-8_小物
  6
CONTINUOUS
 62
    4
 10
85.55286487656582
 20
78.698385848258027
 40
0.3299999999999999
 50
274.9999999987964
 51
322.63244196794949
  0
ARC
  8
_1-8_小物
  6
CONTINUOUS
 62
    4
 10
84.066666666665867
 20
79.833337336624851
 40
2.1999999999999997
 50
322.63244196770495
 51
338.26638354339843
  0
ARC
  8
_1-8_小物
  6
CONTINUOUS
 62
    4
 10
84.066666666665867
 20
79.833337336624851
 40
2.1999999999999997
 50
21.748408590903569
 51
37.367558032305141
  0
LINE
  8
_1-8_小物
  6
CONTINUOUS
 62
    4
 10
86.253042376532619
 20
79.728337336624719
 11
86.107770746532481
 21
79.728337336624719
  0
LINE
  8
_1-8_小物
  6
CONTINUOUS
 62
    4
 10
86.253042376532619
 20
79.612574442657717
 11
86.253042376532619
 21
79.728337336624719
  0
LINE
  8
_1-8_小物
  6
CONTINUOUS
 62
    4
 10
86.107770746532481
 20
79.019169580458112
 11
86.253042376532619
 21
79.612574442657717
  0
LINE
  8
_1-8_小物
  6
CONTINUOUS
 62
    4
 10
86.253042376532619
 20
80.054100230624755
 11
86.164563769399308
 21
80.487403653191507
  0
LINE
  8
_1-8_小物
  6
CONTINUOUS
 62
    4
 10
86.164563769399308
 20
80.487403653191507
 11
86.107770746532481
 21
80.64750509282436
  0
LINE
  8
_1-8_小物
  6
CONTINUOUS
 62
    4
 10
86.253042376532619
 20
79.938337336624755
 11
86.253042376532619
 21
80.054100230624755
  0
LINE
  8
_1-8_小物
  6
CONTINUOUS
 62
    4
 10
86.107770746532481
 20
79.938337336624755
 11
86.253042376532619
 21
79.938337336624755
  0
LINE
  8
_1-8_小物
  6
CONTINUOUS
 62
    4
 10
86.107770746532481
 20
79.728337336624719
 11
86.109472471332595
 21
79.833337336624851
  0
LINE
  8
_1-8_小物
  6
CONTINUOUS
 62
    4
 10
86.109472471332595
 20
79.833337336624851
 11
86.107770746532481
 21
79.938337336624755
  0
LINE
  8
_1-8_小物
  6
CONTINUOUS
 62
    4
 10
85.581626271665925
 20
78.369641597891388
 11
85.581626271665925
 21
81.297033075391397
  0
LINE
  8
_1-8_小物
  6
CONTINUOUS
 62
    4
 10
85.815135148899287
 20
79.833337336624851
 11
85.815135148899287
 21
81.168574381791501
  0
LINE
  8
_1-8_小物
  6
CONTINUOUS
 62
    4
 10
85.815135148899287
 20
78.498100291491284
 11
85.815135148899287
 21
79.833337336624851
  0
ENDBLK
  0
BLOCK
  2
-023-_23_
 70
   64
 10
0
 20
0
 30
0
  0
LINE
  8
_1-5_ア__ム
  6
CONTINUOUS
 62
    4
 10
-131.66666666666669
 20
75.999999981366642
 11
-131.66666666666669
 21
72.333333426466879
  0
ARC
  8
_1-5_ア__ム
  6
CONTINUOUS
 62
    4
 10
-130.00000000000003
 20
72.333333426466879
 40
1.6666666666666665
 50
180
 51
270
  0
LINE
  8
_1-5_ア__ム
  6
DASHED1
 62
    4
 10
-127.66666666666669
 20
75.066666681300148
 11
-127.66666666666669
 21
74.3333333479668
  0
LINE
  8
_1-5_ア__ム
  6
DASHED1
 62
    4
 10
-122.33333333333306
 20
75.066666681300148
 11
-122.33333333333306
 21
74.3333333479668
  0
LINE
  8
_1-5_ア__ム
  6
DASHED1
 62
    4
 10
-113.33333333333351
 20
75.066666681300148
 11
-113.33333333333351
 21
74.3333333479668
  0
LINE
  8
_1-5_ア__ム
  6
DASHED1
 62
    4
 10
-111.3333333333332
 20
75.066666681300148
 11
-111.3333333333332
 21
74.3333333479668
  0
LINE
  8
_1-5_ア__ム
  6
DASHED1
 62
    4
 10
-125.33333333333336
 20
75.066666681300148
 11
-125.33333333333336
 21
74.3333333479668
  0
LINE
  8
_1-5_ア__ム
  6
DASHED1
 62
    4
 10
-117.00000000000003
 20
75.066666681300148
 11
-117.00000000000003
 21
74.3333333479668
  0
LINE
  8
_1-5_ア__ム
  6
DASHED1
 62
    4
 10
-112.66666666666669
 20
75.066666681300148
 11
-112.66666666666669
 21
74.3333333479668
  0
LINE
  8
_1-5_ア__ム
  6
CONTINUOUS
 62
    4
 10
-68.333333333333371
 20
76.000000000000057
 11
-68.333333333333371
 21
72.333333426466879
  0
ARC
  8
_1-5_ア__ム
  6
CONTINUOUS
 62
    4
 10
-70.000000000000028
 20
72.333333426466879
 40
1.6666666666666665
 50
270
 51
0
  0
LINE
  8
_1-5_ア__ム
  6
CONTINUOUS
 62
    4
 10
-130.00000000000003
 20
70.666666759800194
 11
-70.000000000000028
 21
70.666666759800194
  0
LINE
  8
_1-5_ア__ム
  6
CONTINUOUS
 62
    4
 10
-131.66666666666669
 20
76.000000000000057
 11
-68.333333333333371
 21
76.000000000000057
  0
LINE
  8
_1-5_ア__ム
  6
DASHED1
 62
    4
 10
-131.66666666666669
 20
75.066666681300148
 11
-68.333333333333371
 21
75.066666681300148
  0
LINE
  8
_1-5_ア__ム
  6
DASHED1
 62
    4
 10
-131.66666666666669
 20
74.3333333479668
 11
-68.333333333333371
 21
74.3333333479668
  0
ENDBLK
  0
BLOCK
  2
-024-_24_
 70
   64
 10
0
 20
0
 30
0
  0
LINE
  8
_1-5_ア__ム
  6
CONTINUOUS
 62
    4
 10
91.166666666666288
 20
75.999999981366642
 11
91.166666666666288
 21
72.333333426466879
  0
ARC
  8
_1-5_ア__ム
  6
CONTINUOUS
 62
    4
 10
92.833333333332916
 20
72.333333426466879
 40
1.6666666666666665
 50
180
 51
270
  0
LINE
  8
_1-5_ア__ム
  6
DASHED1
 62
    4
 10
95.166666666666174
 20
75.066666681300148
 11
95.166666666666174
 21
74.333328393535282
  0
LINE
  8
_1-5_ア__ム
  6
DASHED1
 62
    4
 10
100.49999999999989
 20
75.066666681300148
 11
100.49999999999989
 21
74.333328393535282
  0
LINE
  8
_1-5_ア__ム
  6
DASHED1
 62
    4
 10
104.39999999999918
 20
75.066666681300148
 11
104.39999999999918
 21
74.333328393535282
  0
LINE
  8
_1-5_ア__ム
  6
DASHED1
 62
    4
 10
107.19999999999914
 20
75.066666681300148
 11
107.19999999999914
 21
74.333328393535282
  0
LINE
  8
_1-5_ア__ム
  6
DASHED1
 62
    4
 10
105.86666666666576
 20
75.066666681300148
 11
105.86666666666576
 21
74.333328393535282
  0
LINE
  8
_1-5_ア__ム
  6
DASHED1
 62
    4
 10
113.06666666666592
 20
74.333328393535282
 11
113.06666666666592
 21
75.066666681300148
  0
LINE
  8
_1-5_ア__ム
  6
CONTINUOUS
 62
    4
 10
131.83333333333292
 20
76.000000000000057
 11
131.83333333333292
 21
72.333333426466879
  0
ARC
  8
_1-5_ア__ム
  6
CONTINUOUS
 62
    4
 10
130.16666666666617
 20
72.333333426466879
 40
1.6666666666666665
 50
270
 51
0
  0
LINE
  8
_1-5_ア__ム
  6
CONTINUOUS
 62
    4
 10
91.166666666666288
 20
76.000000000000057
 11
131.83333333333292
 21
76.000000000000057
  0
LINE
  8
_1-5_ア__ム
  6
DASHED1
 62
    4
 10
91.166666666666288
 20
75.066666681300148
 11
131.83333333333292
 21
75.066666681300148
  0
LINE
  8
_1-5_ア__ム
  6
DASHED1
 62
    4
 10
91.166666666666288
 20
74.333328393535282
 11
131.83333333333292
 21
74.333328393535282
  0
LINE
  8
_1-5_ア__ム
  6
CONTINUOUS
 62
    4
 10
92.833333333332916
 20
70.666666759800194
 11
130.16666666666617
 21
70.666666759800194
  0
ENDBLK
  0
BLOCK
  2
-025-_25_
 70
   64
 10
0
 20
0
 30
0
  0
LINE
  8
_0-0_図面枠
  6
CONTINUOUS
 62
    7
 10
-17.103643301208507
 20
124.788467342351
 11
-17.633973387058489
 21
124.48231430040101
  0
LINE
  8
_0-0_図面枠
  6
CONTINUOUS
 62
    7
 10
-16.197776643308515
 20
122.83680745630096
 11
-17.103643301208507
 21
124.788467342351
  0
LINE
  8
_0-0_図面枠
  6
CONTINUOUS
 62
    7
 10
-19.578517035358487
 20
123.35975314665097
 11
-16.197776643308515
 21
122.83680745630096
  0
LINE
  8
_0-0_図面枠
  6
CONTINUOUS
 62
    7
 10
-19.048186949458483
 20
123.66590618860101
 11
-19.578517035358487
 21
123.35975314665097
  0
LINE
  8
_0-0_図面枠
  6
CONTINUOUS
 62
    7
 10
-23.644381027158431
 20
126.31923255200098
 11
-19.048186949458483
 21
123.66590618860101
  0
LINE
  8
_0-0_図面枠
  6
CONTINUOUS
 62
    7
 10
-28.240575104858465
 20
123.66590618860101
 11
-23.644381027158431
 21
126.31923255200098
  0
LINE
  8
_0-0_図面枠
  6
CONTINUOUS
 62
    7
 10
-27.710245019008482
 20
123.35975314665097
 11
-28.240575104858465
 21
123.66590618860101
  0
LINE
  8
_0-0_図面枠
  6
CONTINUOUS
 62
    7
 10
-31.090985411008489
 20
122.83680745630096
 11
-27.710245019008482
 21
123.35975314665097
  0
LINE
  8
_0-0_図面枠
  6
CONTINUOUS
 62
    7
 10
-30.185118753158463
 20
124.788467342351
 11
-31.090985411008489
 21
122.83680745630096
  0
LINE
  8
_0-0_図面枠
  6
CONTINUOUS
 62
    7
 10
-29.654788667258458
 20
124.48231430040101
 11
-30.185118753158463
 21
124.788467342351
  0
LINE
  8
_0-0_図面枠
  6
CONTINUOUS
 62
    7
 10
-25.058594589558481
 20
127.13564066385101
 11
-29.654788667258458
 21
124.48231430040101
  0
LINE
  8
_0-0_図面枠
  6
CONTINUOUS
 62
    7
 10
-29.654788667258458
 20
129.78896702725098
 11
-25.058594589558481
 21
127.13564066385101
  0
LINE
  8
_0-0_図面枠
  6
CONTINUOUS
 62
    7
 10
-30.185118753158463
 20
129.48281398535102
 11
-29.654788667258458
 21
129.78896702725098
  0
LINE
  8
_0-0_図面枠
  6
CONTINUOUS
 62
    7
 10
-31.090985411008489
 20
131.434473871401
 11
-30.185118753158463
 21
129.48281398535102
  0
LINE
  8
_0-0_図面枠
  6
CONTINUOUS
 62
    7
 10
-27.710245019008482
 20
130.91152818105098
 11
-31.090985411008489
 21
131.434473871401
  0
LINE
  8
_0-0_図面枠
  6
CONTINUOUS
 62
    7
 10
-28.240575104858465
 20
130.605375139101
 11
-27.710245019008482
 21
130.91152818105098
  0
LINE
  8
_0-0_図面枠
  6
CONTINUOUS
 62
    7
 10
-23.644381027158431
 20
127.95204877565101
 11
-28.240575104858465
 21
130.605375139101
  0
LINE
  8
_0-0_図面枠
  6
CONTINUOUS
 62
    7
 10
-19.048186949458483
 20
130.605375139101
 11
-23.644381027158431
 21
127.95204877565101
  0
LINE
  8
_0-0_図面枠
  6
CONTINUOUS
 62
    7
 10
-19.578517035358487
 20
130.91152818105098
 11
-19.048186949458483
 21
130.605375139101
  0
LINE
  8
_0-0_図面枠
  6
CONTINUOUS
 62
    7
 10
-16.197776643308515
 20
131.434473871401
 11
-19.578517035358487
 21
130.91152818105098
  0
LINE
  8
_0-0_図面枠
  6
CONTINUOUS
 62
    7
 10
-17.103643301208507
 20
129.48281398535102
 11
-16.197776643308515
 21
131.434473871401
  0
LINE
  8
_0-0_図面枠
  6
CONTINUOUS
 62
    7
 10
-17.633973387058489
 20
129.78896702725098
 11
-17.103643301208507
 21
129.48281398535102
  0
LINE
  8
_0-0_図面枠
  6
CONTINUOUS
 62
    7
 10
-22.23016746480846
 20
127.13564066385101
 11
-17.633973387058489
 21
129.78896702725098
  0
LINE
  8
_0-0_図面枠
  6
CONTINUOUS
 62
    7
 10
-17.633973387058489
 20
124.48231430040101
 11
-22.23016746480846
 21
127.13564066385101
  0
LINE
  8
_0-0_図面枠
  6
CONTINUOUS
 62
    7
 10
-31.090985411008489
 20
122.83680745630096
 11
-31.090985411008489
 21
122.224401847401
  0
LINE
  8
_0-0_図面枠
  6
CONTINUOUS
 62
    7
 10
-27.710245019008482
 20
123.35975314665097
 11
-27.710245019008482
 21
122.74734753775101
  0
LINE
  8
_0-0_図面枠
  6
CONTINUOUS
 62
    7
 10
-31.090985411008489
 20
122.224401847401
 11
-27.710245019008482
 21
122.74734753775101
  0
LINE
  8
_0-0_図面枠
  6
CONTINUOUS
 62
    7
 10
-19.578517035358487
 20
123.35975314665097
 11
-19.578517035358487
 21
122.74734753775101
  0
LINE
  8
_0-0_図面枠
  6
CONTINUOUS
 62
    7
 10
-16.197776643308515
 20
122.83680745630096
 11
-16.197776643308515
 21
122.224401847401
  0
LINE
  8
_0-0_図面枠
  6
CONTINUOUS
 62
    7
 10
-19.578517035358487
 20
122.74734753775101
 11
-16.197776643308515
 21
122.224401847401
  0
LINE
  8
_0-0_図面枠
  6
CONTINUOUS
 62
    7
 10
-23.644381027158431
 20
126.31923255200098
 11
-23.644381027158431
 21
125.70682694310102
  0
LINE
  8
_0-0_図面枠
  6
CONTINUOUS
 62
    7
 10
-27.710245019008482
 20
123.35965362160101
 11
-23.644381027158431
 21
125.70682694310102
  0
LINE
  8
_0-0_図面枠
  6
CONTINUOUS
 62
    7
 10
-23.644381027158431
 20
125.70682694310102
 11
-19.578517035358487
 21
123.35965362160101
  0
LINE
  8
_0-0_図面枠
  6
CONTINUOUS
 62
    7
 10
-29.654788667258458
 20
129.78896702725098
 11
-29.654788667258458
 21
129.17656141835101
  0
LINE
  8
_0-0_図面枠
  6
CONTINUOUS
 62
    7
 10
-29.654788667258458
 20
129.17656141835101
 11
-25.589010876008444
 21
126.82943785940103
  0
LINE
  8
_0-0_図面枠
  6
CONTINUOUS
 62
    7
 10
-17.633973387058489
 20
129.78896702725098
 11
-17.633973387058489
 21
129.17656141835101
  0
LINE
  8
_0-0_図面枠
  6
CONTINUOUS
 62
    7
 10
-21.69975117835844
 20
126.82943785940103
 11
-17.633973387058489
 21
129.17656141835101
  0
LINE
  8
_0-0_図面枠
  6
CONTINUOUS
 62
    7
 10
-17.103643301208507
 20
129.48281398535102
 11
-17.103643301208507
 21
128.87040837640097
  0
LINE
  8
_0-0_図面枠
  6
CONTINUOUS
 62
    7
 10
-17.633973387058489
 20
129.17656141835101
 11
-17.103643301208507
 21
128.87040837640097
  0
LINE
  8
_0-0_図面枠
  6
CONTINUOUS
 62
    7
 10
-16.197776643308515
 20
131.434473871401
 11
-16.197776643308515
 21
130.82206826250098
  0
LINE
  8
_0-0_図面枠
  6
CONTINUOUS
 62
    7
 10
-17.103643301208507
 20
128.87040837640097
 11
-16.197776643308515
 21
130.82206826250098
  0
LINE
  8
_0-0_図面枠
  6
CONTINUOUS
 62
    7
 10
-30.185118753158463
 20
129.48281398535102
 11
-30.185118753158463
 21
128.87040837640097
  0
LINE
  8
_0-0_図面枠
  6
CONTINUOUS
 62
    7
 10
-30.185118753158463
 20
128.87040837640097
 11
-29.654788667258458
 21
129.17656141835101
  0
LINE
  8
_0-0_図面枠
  6
CONTINUOUS
 62
    7
 10
-31.090985411008489
 20
131.434473871401
 11
-31.090985411008489
 21
130.82206826250098
  0
LINE
  8
_0-0_図面枠
  6
CONTINUOUS
 62
    7
 10
-31.090985411008489
 20
130.82206826250098
 11
-30.185118753158463
 21
128.87040837640097
  0
LINE
  8
_0-0_図面枠
  6
CONTINUOUS
 62
    7
 10
-19.578517035358487
 20
130.91152818105098
 11
-19.578517035358487
 21
130.29922209715102
  0
LINE
  8
_0-0_図面枠
  6
CONTINUOUS
 62
    7
 10
-27.710245019008482
 20
130.91152818105098
 11
-27.710245019008482
 21
130.29922209715102
  0
LINE
  8
ADD_LINE
  6
DOT
 62
    4
 10
-31.090985411008489
 20
131.434473871401
 11
-16.198180070863003
 21
122.83610869927929
  0
LINE
  8
ADD_LINE
  6
DOT
 62
    4
 10
-16.197776643308515
 20
131.434473871401
 11
-31.090581983453887
 21
122.83610869927929
  0
ENDBLK
  0
BLOCK
  2
-026-_26_
 70
   64
 10
0
 20
0
 30
0
  0
LINE
  8
_0-0_図面枠
  6
CONTINUOUS
 62
    7
 10
181.88186991188218
 20
125.54988384232558
 11
181.35153982603214
 21
125.2437308003756
  0
LINE
  8
_0-0_図面枠
  6
CONTINUOUS
 62
    7
 10
182.78773656978217
 20
123.59822395627555
 11
181.88186991188218
 21
125.54988384232558
  0
LINE
  8
_0-0_図面枠
  6
CONTINUOUS
 62
    7
 10
179.4069961777322
 20
124.12116964662556
 11
182.78773656978217
 21
123.59822395627555
  0
LINE
  8
_0-0_図面枠
  6
CONTINUOUS
 62
    7
 10
179.9373262636322
 20
124.4273226885756
 11
179.4069961777322
 21
124.12116964662556
  0
LINE
  8
_0-0_図面枠
  6
CONTINUOUS
 62
    7
 10
175.34113218593217
 20
127.08064905197557
 11
179.9373262636322
 21
124.4273226885756
  0
LINE
  8
_0-0_図面枠
  6
CONTINUOUS
 62
    7
 10
170.74493810823213
 20
124.4273226885756
 11
175.34113218593217
 21
127.08064905197557
  0
LINE
  8
_0-0_図面枠
  6
CONTINUOUS
 62
    7
 10
171.27526819408217
 20
124.12116964662556
 11
170.74493810823213
 21
124.4273226885756
  0
LINE
  8
_0-0_図面枠
  6
CONTINUOUS
 62
    7
 10
167.89452780208217
 20
123.59822395627555
 11
171.27526819408217
 21
124.12116964662556
  0
LINE
  8
_0-0_図面枠
  6
CONTINUOUS
 62
    7
 10
168.80039445993219
 20
125.54988384232558
 11
167.89452780208217
 21
123.59822395627555
  0
LINE
  8
_0-0_図面枠
  6
CONTINUOUS
 62
    7
 10
169.3307245458322
 20
125.2437308003756
 11
168.80039445993219
 21
125.54988384232558
  0
LINE
  8
_0-0_図面枠
  6
CONTINUOUS
 62
    7
 10
173.92691862353217
 20
127.89705716382559
 11
169.3307245458322
 21
125.2437308003756
  0
LINE
  8
_0-0_図面枠
  6
CONTINUOUS
 62
    7
 10
169.3307245458322
 20
130.55038352722556
 11
173.92691862353217
 21
127.89705716382559
  0
LINE
  8
_0-0_図面枠
  6
CONTINUOUS
 62
    7
 10
168.80039445993219
 20
130.2442304853256
 11
169.3307245458322
 21
130.55038352722556
  0
LINE
  8
_0-0_図面枠
  6
CONTINUOUS
 62
    7
 10
167.89452780208217
 20
132.19589037137558
 11
168.80039445993219
 21
130.2442304853256
  0
LINE
  8
_0-0_図面枠
  6
CONTINUOUS
 62
    7
 10
171.27526819408217
 20
131.67294468102557
 11
167.89452780208217
 21
132.19589037137558
  0
LINE
  8
_0-0_図面枠
  6
CONTINUOUS
 62
    7
 10
170.74493810823213
 20
131.36679163907559
 11
171.27526819408217
 21
131.67294468102557
  0
LINE
  8
_0-0_図面枠
  6
CONTINUOUS
 62
    7
 10
175.34113218593217
 20
128.71346527562559
 11
170.74493810823213
 21
131.36679163907559
  0
LINE
  8
_0-0_図面枠
  6
CONTINUOUS
 62
    7
 10
179.9373262636322
 20
131.36679163907559
 11
175.34113218593217
 21
128.71346527562559
  0
LINE
  8
_0-0_図面枠
  6
CONTINUOUS
 62
    7
 10
179.4069961777322
 20
131.67294468102557
 11
179.9373262636322
 21
131.36679163907559
  0
LINE
  8
_0-0_図面枠
  6
CONTINUOUS
 62
    7
 10
182.78773656978217
 20
132.19589037137558
 11
179.4069961777322
 21
131.67294468102557
  0
LINE
  8
_0-0_図面枠
  6
CONTINUOUS
 62
    7
 10
181.88186991188218
 20
130.2442304853256
 11
182.78773656978217
 21
132.19589037137558
  0
LINE
  8
_0-0_図面枠
  6
CONTINUOUS
 62
    7
 10
181.35153982603214
 20
130.55038352722556
 11
181.88186991188218
 21
130.2442304853256
  0
LINE
  8
_0-0_図面枠
  6
CONTINUOUS
 62
    7
 10
176.7553457482822
 20
127.89705716382559
 11
181.35153982603214
 21
130.55038352722556
  0
LINE
  8
_0-0_図面枠
  6
CONTINUOUS
 62
    7
 10
181.35153982603214
 20
125.2437308003756
 11
176.7553457482822
 21
127.89705716382559
  0
LINE
  8
_0-0_図面枠
  6
CONTINUOUS
 62
    7
 10
167.89452780208217
 20
123.59822395627555
 11
167.89452780208217
 21
122.98581834737558
  0
LINE
  8
_0-0_図面枠
  6
CONTINUOUS
 62
    7
 10
171.27526819408217
 20
124.12116964662556
 11
171.27526819408217
 21
123.5087640377256
  0
LINE
  8
_0-0_図面枠
  6
CONTINUOUS
 62
    7
 10
167.89452780208217
 20
122.98581834737558
 11
171.27526819408217
 21
123.5087640377256
  0
LINE
  8
_0-0_図面枠
  6
CONTINUOUS
 62
    7
 10
179.4069961777322
 20
124.12116964662556
 11
179.4069961777322
 21
123.5087640377256
  0
LINE
  8
_0-0_図面枠
  6
CONTINUOUS
 62
    7
 10
182.78773656978217
 20
123.59822395627555
 11
182.78773656978217
 21
122.98581834737558
  0
LINE
  8
_0-0_図面枠
  6
CONTINUOUS
 62
    7
 10
179.4069961777322
 20
123.5087640377256
 11
182.78773656978217
 21
122.98581834737558
  0
LINE
  8
_0-0_図面枠
  6
CONTINUOUS
 62
    7
 10
175.34113218593217
 20
127.08064905197557
 11
175.34113218593217
 21
126.46824344307561
  0
LINE
  8
_0-0_図面枠
  6
CONTINUOUS
 62
    7
 10
171.27526819408217
 20
124.1210701215756
 11
175.34113218593217
 21
126.46824344307561
  0
LINE
  8
_0-0_図面枠
  6
CONTINUOUS
 62
    7
 10
175.34113218593217
 20
126.46824344307561
 11
179.4069961777322
 21
124.1210701215756
  0
LINE
  8
_0-0_図面枠
  6
CONTINUOUS
 62
    7
 10
169.3307245458322
 20
130.55038352722556
 11
169.3307245458322
 21
129.9379779183256
  0
LINE
  8
_0-0_図面枠
  6
CONTINUOUS
 62
    7
 10
169.3307245458322
 20
129.9379779183256
 11
173.39650233708215
 21
127.59085435937561
  0
LINE
  8
_0-0_図面枠
  6
CONTINUOUS
 62
    7
 10
181.35153982603214
 20
130.55038352722556
 11
181.35153982603214
 21
129.9379779183256
  0
LINE
  8
_0-0_図面枠
  6
CONTINUOUS
 62
    7
 10
177.28576203473216
 20
127.59085435937561
 11
181.35153982603214
 21
129.9379779183256
  0
LINE
  8
_0-0_図面枠
  6
CONTINUOUS
 62
    7
 10
181.88186991188218
 20
130.2442304853256
 11
181.88186991188218
 21
129.63182487637556
  0
LINE
  8
_0-0_図面枠
  6
CONTINUOUS
 62
    7
 10
181.35153982603214
 20
129.9379779183256
 11
181.88186991188218
 21
129.63182487637556
  0
LINE
  8
_0-0_図面枠
  6
CONTINUOUS
 62
    7
 10
182.78773656978217
 20
132.19589037137558
 11
182.78773656978217
 21
131.58348476247556
  0
LINE
  8
_0-0_図面枠
  6
CONTINUOUS
 62
    7
 10
181.88186991188218
 20
129.63182487637556
 11
182.78773656978217
 21
131.58348476247556
  0
LINE
  8
_0-0_図面枠
  6
CONTINUOUS
 62
    7
 10
168.80039445993219
 20
130.2442304853256
 11
168.80039445993219
 21
129.63182487637556
  0
LINE
  8
_0-0_図面枠
  6
CONTINUOUS
 62
    7
 10
168.80039445993219
 20
129.63182487637556
 11
169.3307245458322
 21
129.9379779183256
  0
LINE
  8
_0-0_図面枠
  6
CONTINUOUS
 62
    7
 10
167.89452780208217
 20
132.19589037137558
 11
167.89452780208217
 21
131.58348476247556
  0
LINE
  8
_0-0_図面枠
  6
CONTINUOUS
 62
    7
 10
167.89452780208217
 20
131.58348476247556
 11
168.80039445993219
 21
129.63182487637556
  0
LINE
  8
_0-0_図面枠
  6
CONTINUOUS
 62
    7
 10
179.4069961777322
 20
131.67294468102557
 11
179.4069961777322
 21
131.0606385971256
  0
LINE
  8
_0-0_図面枠
  6
CONTINUOUS
 62
    7
 10
171.27526819408217
 20
131.67294468102557
 11
171.27526819408217
 21
131.0606385971256
  0
LINE
  8
ADD_LINE
  6
DOT
 62
    4
 10
167.89452780208217
 20
132.19589037137558
 11
182.78733314222762
 21
123.59752519925388
  0
LINE
  8
ADD_LINE
  6
DOT
 62
    4
 10
182.78773656978217
 20
132.19589037137558
 11
167.89493122963671
 21
123.59752519925388
  0
ENDBLK
  0
BLOCK
  2
-027-_27_
 70
   64
 10
0
 20
0
 30
0
  0
ARC
  8
_1-8_小物
  6
CONTINUOUS
 62
    4
 10
-66.666666666666686
 20
71.933333333333337
 40
0.0999999999999999
 50
180
 51
270
  0
ARC
  8
_1-8_小物
  6
CONTINUOUS
 62
    4
 10
-64.000000000000057
 20
71.166666666666657
 40
0.1666666666666666
 50
0
 51
90
  0
LINE
  8
_1-8_小物
  6
CONTINUOUS
 62
    4
 10
-66.766666666666708
 20
72.5
 11
-66.766666666666708
 21
71.933333333333337
  0
LINE
  8
_1-8_小物
  6
CONTINUOUS
 62
    4
 10
-63.333333333333371
 20
70.833333333333314
 11
-63.594800561576335
 21
67.844749239058075
  0
ARC
  8
_1-8_小物
  6
CONTINUOUS
 62
    4
 10
-63.926865460940235
 20
67.873801153307284
 40
0.3333333333333333
 50
116.53346871300235
 51
355.00000000000159
  0
ARC
  8
_1-8_小物
  6
CONTINUOUS
 62
    4
 10
-64.22467912976083
 20
68.470250198161978
 40
0.3333333333333333
 50
296.53346871300454
 51
358.57633437499754
  0
LINE
  8
_1-8_小物
  6
CONTINUOUS
 62
    4
 10
-63.833333333333371
 20
70.800354300154709
 11
-63.891448692106621
 21
68.461968499550295
  0
LINE
  8
_1-8_小物
  6
CONTINUOUS
 62
    4
 10
-63.833333333333371
 20
71.166666666666657
 11
-63.833333333333371
 21
70.800354300154709
  0
LINE
  8
_1-8_小物
  6
CONTINUOUS
 62
    4
 10
-66.666666666666686
 20
71.333333333333314
 11
-64.000000000000057
 21
71.333333333333314
  0
ARC
  8
_1-8_小物
  6
CONTINUOUS
 62
    4
 10
-66.666666666666686
 20
71.933333333333337
 40
0.5999999999999999
 50
180
 51
270
  0
LINE
  8
_1-8_小物
  6
CONTINUOUS
 62
    4
 10
-66.666666666666686
 20
71.833333333333314
 11
-63.666666666666686
 21
71.833333333333314
  0
LINE
  8
_1-8_小物
  6
CONTINUOUS
 62
    4
 10
-63.333333333333371
 20
70.833333333333314
 11
-63.333333333333371
 21
71.5
  0
ARC
  8
_1-8_小物
  6
CONTINUOUS
 62
    4
 10
-63.666666666666686
 20
71.5
 40
0.3333333333333333
 50
0
 51
90
  0
LINE
  8
_1-8_小物
  6
CONTINUOUS
 62
    4
 10
-67.266666666666708
 20
72.5
 11
-67.266666666666708
 21
71.933333333333337
  0
LINE
  8
_1-8_小物
  6
CONTINUOUS
 62
    4
 10
-66.303516725774159
 20
72.449338724116103
 11
-65.511189582008626
 21
72.338805031278469
  0
ARC
  8
_1-8_小物
  6
CONTINUOUS
 62
    4
 10
-64.342372878304388
 20
72.892809494840009
 40
0.1666666666666662
 50
332.05820099376814
 51
152.05820099375489
  0
LINE
  8
_1-8_小物
  6
CONTINUOUS
 62
    4
 10
-64.429422752379253
 20
72.373001744607961
 11
-64.195135540642241
 21
72.814713757594347
  0
LINE
  8
_1-8_小物
  6
CONTINUOUS
 62
    4
 10
-65.511189582008626
 20
72.338805031278469
 11
-64.839403035866724
 21
72.329227698056059
  0
LINE
  8
_1-8_小物
  6
CONTINUOUS
 62
    4
 10
-64.839403035866724
 20
72.329227698056059
 11
-64.429422752379253
 21
72.373001744607961
  0
LINE
  8
_1-8_小物
  6
CONTINUOUS
 62
    4
 10
-64.572977106009603
 20
72.813729957582495
 11
-64.489610215966479
 21
72.970905232085698
  0
ARC
  8
_1-8_小物
  6
CONTINUOUS
 62
    4
 10
-66.666666666666686
 20
72.5
 40
0.5999999999999999
 50
82.058200993765382
 51
180
  0
LINE
  8
_1-8_小物
  6
CONTINUOUS
 62
    4
 10
-66.583766397038517
 20
73.09424535782415
 11
-64.572977106009603
 21
72.813729957582495
  0
ARC
  8
_1-8_小物
  6
CONTINUOUS
 62
    4
 10
-66.666666666666686
 20
72.5
 40
0.0999999999999999
 50
82.058200993757751
 51
180
  0
LINE
  8
_1-8_小物
  6
CONTINUOUS
 62
    4
 10
-66.652849955061981
 20
72.599040892970663
 11
-66.289700014169455
 21
72.548379617086795
  0
LINE
  8
_1-8_小物
  6
CONTINUOUS
 62
    4
 10
-66.289700014169455
 20
72.548379617086795
 11
-66.303516725774159
 21
72.449338724116103
  0
ENDBLK
  0
BLOCK
  2
-028-_28_
 70
   64
 10
0
 20
0
 30
0
  0
ARC
  8
_1-8_小物
  6
CONTINUOUS
 62
    4
 10
-133.33333333333331
 20
71.933333333333337
 40
0.0999999999999999
 50
270
 51
0
  0
ARC
  8
_1-8_小物
  6
CONTINUOUS
 62
    4
 10
-135.99999999999994
 20
71.166666666666657
 40
0.1666666666666666
 50
90
 51
180
  0
LINE
  8
_1-8_小物
  6
CONTINUOUS
 62
    4
 10
-133.23333333333329
 20
72.5
 11
-133.23333333333329
 21
71.933333333333337
  0
LINE
  8
_1-8_小物
  6
CONTINUOUS
 62
    4
 10
-136.66666666666663
 20
70.833333333333314
 11
-136.40519943842367
 21
67.844749239058075
  0
ARC
  8
_1-8_小物
  6
CONTINUOUS
 62
    4
 10
-136.07313453905977
 20
67.873801153307284
 40
0.3333333333333333
 50
184.99999999999798
 51
63.466531286997622
  0
ARC
  8
_1-8_小物
  6
CONTINUOUS
 62
    4
 10
-135.77532087023917
 20
68.470250198161978
 40
0.3333333333333333
 50
181.42366562500246
 51
243.46653128699546
  0
LINE
  8
_1-8_小物
  6
CONTINUOUS
 62
    4
 10
-136.16666666666663
 20
70.800354300154709
 11
-136.10855130789338
 21
68.461968499550295
  0
LINE
  8
_1-8_小物
  6
CONTINUOUS
 62
    4
 10
-136.16666666666663
 20
71.166666666666657
 11
-136.16666666666663
 21
70.800354300154709
  0
LINE
  8
_1-8_小物
  6
CONTINUOUS
 62
    4
 10
-133.33333333333331
 20
71.333333333333314
 11
-135.99999999999994
 21
71.333333333333314
  0
ARC
  8
_1-8_小物
  6
CONTINUOUS
 62
    4
 10
-133.33333333333331
 20
71.933333333333337
 40
0.5999999999999999
 50
270
 51
0
  0
LINE
  8
_1-8_小物
  6
CONTINUOUS
 62
    4
 10
-133.33333333333331
 20
71.833333333333314
 11
-136.33333333333331
 21
71.833333333333314
  0
LINE
  8
_1-8_小物
  6
CONTINUOUS
 62
    4
 10
-136.66666666666663
 20
70.833333333333314
 11
-136.66666666666663
 21
71.5
  0
ARC
  8
_1-8_小物
  6
CONTINUOUS
 62
    4
 10
-136.33333333333331
 20
71.5
 40
0.3333333333333333
 50
90
 51
180
  0
LINE
  8
_1-8_小物
  6
CONTINUOUS
 62
    4
 10
-132.73333333333329
 20
72.5
 11
-132.73333333333329
 21
71.933333333333337
  0
LINE
  8
_1-8_小物
  6
CONTINUOUS
 62
    4
 10
-133.69648327422584
 20
72.449338724116103
 11
-134.48881041799137
 21
72.338805031278469
  0
ARC
  8
_1-8_小物
  6
CONTINUOUS
 62
    4
 10
-135.65762712169561
 20
72.892809494840009
 40
0.1666666666666662
 50
27.94179900624507
 51
207.94179900623186
  0
LINE
  8
_1-8_小物
  6
CONTINUOUS
 62
    4
 10
-135.57057724762075
 20
72.373001744607961
 11
-135.80486445935776
 21
72.814713757594347
  0
LINE
  8
_1-8_小物
  6
CONTINUOUS
 62
    4
 10
-134.48881041799137
 20
72.338805031278469
 11
-135.16059696413328
 21
72.329227698056059
  0
LINE
  8
_1-8_小物
  6
CONTINUOUS
 62
    4
 10
-135.16059696413328
 20
72.329227698056059
 11
-135.57057724762075
 21
72.373001744607961
  0
LINE
  8
_1-8_小物
  6
CONTINUOUS
 62
    4
 10
-135.4270228939904
 20
72.813729957582495
 11
-135.51038978403352
 21
72.970905232085698
  0
ARC
  8
_1-8_小物
  6
CONTINUOUS
 62
    4
 10
-133.33333333333331
 20
72.5
 40
0.5999999999999999
 50
0
 51
97.941799006237318
  0
LINE
  8
_1-8_小物
  6
CONTINUOUS
 62
    4
 10
-133.41623360296148
 20
73.09424535782415
 11
-135.4270228939904
 21
72.813729957582495
  0
ARC
  8
_1-8_小物
  6
CONTINUOUS
 62
    4
 10
-133.33333333333331
 20
72.5
 40
0.0999999999999999
 50
0
 51
97.941799006242249
  0
LINE
  8
_1-8_小物
  6
CONTINUOUS
 62
    4
 10
-133.34715004493802
 20
72.599040892970663
 11
-133.71029998583055
 21
72.548379617086795
  0
LINE
  8
_1-8_小物
  6
CONTINUOUS
 62
    4
 10
-133.71029998583055
 20
72.548379617086795
 11
-133.69648327422584
 21
72.449338724116103
  0
ENDBLK
  0
BLOCK
  2
-029-_29_
 70
   64
 10
0
 20
0
 30
0
  0
ARC
  8
_1-8_小物
  6
CONTINUOUS
 62
    4
 10
133.33333333769957
 20
71.93333335196678
 40
0.0999999999999999
 50
180
 51
270
  0
ARC
  8
_1-8_小物
  6
CONTINUOUS
 62
    4
 10
136.00000000436614
 20
71.166666685300072
 40
0.1666666666666666
 50
0
 51
90
  0
LINE
  8
_1-8_小物
  6
CONTINUOUS
 62
    4
 10
133.23333333769961
 20
72.500000018633415
 11
133.23333333769961
 21
71.93333335196678
  0
LINE
  8
_1-8_小物
  6
CONTINUOUS
 62
    4
 10
136.66666667103289
 20
70.833333351966758
 11
136.40519944278992
 21
67.84474925769149
  0
ARC
  8
_1-8_小物
  6
CONTINUOUS
 62
    4
 10
136.07313454342602
 20
67.873801171940727
 40
0.3333333333333333
 50
116.53346871300454
 51
354.99999999999676
  0
ARC
  8
_1-8_小物
  6
CONTINUOUS
 62
    4
 10
135.77532087460543
 20
68.470250216795421
 40
0.3333333333333333
 50
296.53346871300232
 51
358.57633437499265
  0
LINE
  8
_1-8_小物
  6
CONTINUOUS
 62
    4
 10
136.16666667103289
 20
70.800354318788123
 11
136.10855131225964
 21
68.46196851818371
  0
LINE
  8
_1-8_小物
  6
CONTINUOUS
 62
    4
 10
136.16666667103289
 20
71.166666685300072
 11
136.16666667103289
 21
70.800354318788123
  0
LINE
  8
_1-8_小物
  6
CONTINUOUS
 62
    4
 10
133.33333333769957
 20
71.333333351966758
 11
136.00000000436614
 21
71.333333351966758
  0
ARC
  8
_1-8_小物
  6
CONTINUOUS
 62
    4
 10
133.33333333769957
 20
71.93333335196678
 40
0.5999999999999999
 50
180
 51
270
  0
LINE
  8
_1-8_小物
  6
CONTINUOUS
 62
    4
 10
133.33333333769957
 20
71.833333351966758
 11
136.33333333769957
 21
71.833333351966758
  0
LINE
  8
_1-8_小物
  6
CONTINUOUS
 62
    4
 10
136.66666667103289
 20
70.833333351966758
 11
136.66666667103289
 21
71.500000018633415
  0
ARC
  8
_1-8_小物
  6
CONTINUOUS
 62
    4
 10
136.33333333769957
 20
71.500000018633415
 40
0.3333333333333333
 50
0
 51
90
  0
LINE
  8
_1-8_小物
  6
CONTINUOUS
 62
    4
 10
132.73333333769961
 20
72.500000018633415
 11
132.73333333769961
 21
71.93333335196678
  0
LINE
  8
_1-8_小物
  6
CONTINUOUS
 62
    4
 10
133.6964832785921
 20
72.449338742749546
 11
134.48881042235763
 21
72.338805049911912
  0
ARC
  8
_1-8_小物
  6
CONTINUOUS
 62
    4
 10
135.65762712606193
 20
72.892809513473424
 40
0.1666666666666662
 50
332.0582009937595
 51
152.05820099376865
  0
LINE
  8
_1-8_小物
  6
CONTINUOUS
 62
    4
 10
135.57057725198695
 20
72.373001763241405
 11
135.80486446372402
 21
72.814713776227791
  0
LINE
  8
_1-8_小物
  6
CONTINUOUS
 62
    4
 10
134.48881042235763
 20
72.338805049911912
 11
135.16059696849953
 21
72.329227716689502
  0
LINE
  8
_1-8_小物
  6
CONTINUOUS
 62
    4
 10
135.16059696849953
 20
72.329227716689502
 11
135.57057725198695
 21
72.373001763241405
  0
LINE
  8
_1-8_小物
  6
CONTINUOUS
 62
    4
 10
135.42702289835665
 20
72.81372997621591
 11
135.51038978839972
 21
72.970905250719113
  0
ARC
  8
_1-8_小物
  6
CONTINUOUS
 62
    4
 10
133.33333333769957
 20
72.500000018633415
 40
0.5999999999999999
 50
82.058200993765752
 51
180
  0
LINE
  8
_1-8_小物
  6
CONTINUOUS
 62
    4
 10
133.41623360732774
 20
73.094245376457593
 11
135.42702289835665
 21
72.81372997621591
  0
ARC
  8
_1-8_小物
  6
CONTINUOUS
 62
    4
 10
133.33333333769957
 20
72.500000018633415
 40
0.0999999999999999
 50
82.058200993759996
 51
180
  0
LINE
  8
_1-8_小物
  6
CONTINUOUS
 62
    4
 10
133.34715004930428
 20
72.599040911604106
 11
133.7102999901968
 21
72.54837963572021
  0
LINE
  8
_1-8_小物
  6
CONTINUOUS
 62
    4
 10
133.7102999901968
 20
72.54837963572021
 11
133.6964832785921
 21
72.449338742749546
  0
ENDBLK
  0
BLOCK
  2
-030-_30_
 70
   64
 10
0
 20
0
 30
0
  0
ARC
  8
_1-8_小物
  6
CONTINUOUS
 62
    4
 10
87.099999999999511
 20
88.166660332374391
 40
0.0999999999999999
 50
180
 51
270
  0
ARC
  8
_1-8_小物
  6
CONTINUOUS
 62
    4
 10
86.33333333333286
 20
90.833326999040992
 40
0.1666666666666666
 50
0
 51
90
  0
LINE
  8
_1-8_小物
  6
CONTINUOUS
 62
    4
 10
87.666666666666174
 20
88.066660332374397
 11
87.099999999999511
 21
88.066660332374397
  0
LINE
  8
_1-8_小物
  6
CONTINUOUS
 62
    4
 10
85.999999999999488
 20
91.499993665707734
 11
83.011415905724277
 21
91.23852643746477
  0
ARC
  8
_1-8_小物
  6
CONTINUOUS
 62
    4
 10
83.040467819973458
 20
90.906461538100814
 40
0.3333333333333333
 50
95.000000000003283
 51
333.466531287002
  0
ARC
  8
_1-8_小物
  6
CONTINUOUS
 62
    4
 10
83.636916864828152
 20
90.608647869280276
 40
0.3333333333333333
 50
91.423665625007345
 51
153.46653128700203
  0
LINE
  8
_1-8_小物
  6
CONTINUOUS
 62
    4
 10
85.967020966820883
 20
90.999993665707734
 11
83.628635166216498
 21
90.941878306934456
  0
LINE
  8
_1-8_小物
  6
CONTINUOUS
 62
    4
 10
86.33333333333286
 20
90.999993665707734
 11
85.967020966820883
 21
90.999993665707734
  0
LINE
  8
_1-8_小物
  6
CONTINUOUS
 62
    4
 10
86.499999999999488
 20
88.166660332374391
 11
86.499999999999488
 21
90.833326999040992
  0
ARC
  8
_1-8_小物
  6
CONTINUOUS
 62
    4
 10
87.099999999999511
 20
88.166660332374391
 40
0.5999999999999999
 50
180
 51
270
  0
LINE
  8
_1-8_小物
  6
CONTINUOUS
 62
    4
 10
86.999999999999488
 20
88.166660332374391
 11
86.999999999999488
 21
91.166660332374391
  0
LINE
  8
_1-8_小物
  6
CONTINUOUS
 62
    4
 10
85.999999999999488
 20
91.499993665707734
 11
86.666666666666174
 21
91.499993665707734
  0
ARC
  8
_1-8_小物
  6
CONTINUOUS
 62
    4
 10
86.666666666666174
 20
91.166660332374391
 40
0.3333333333333333
 50
0
 51
90
  0
LINE
  8
_1-8_小物
  6
CONTINUOUS
 62
    4
 10
87.666666666666174
 20
87.566660332374397
 11
87.099999999999511
 21
87.566660332374397
  0
LINE
  8
_1-8_小物
  6
CONTINUOUS
 62
    4
 10
87.616005390782277
 20
88.529810273266918
 11
87.505471697944643
 21
89.322137417032451
  0
ARC
  8
_1-8_小物
  6
CONTINUOUS
 62
    4
 10
88.059476161506211
 20
90.490954120736717
 40
0.1666666666666662
 50
297.94179900624511
 51
117.9417990062405
  0
LINE
  8
_1-8_小物
  6
CONTINUOUS
 62
    4
 10
87.539668411274135
 20
90.403904246661796
 11
87.981380424260522
 21
90.638191458398808
  0
LINE
  8
_1-8_小物
  6
CONTINUOUS
 62
    4
 10
87.505471697944643
 20
89.322137417032451
 11
87.495894364722233
 21
89.993923963174353
  0
LINE
  8
_1-8_小物
  6
CONTINUOUS
 62
    4
 10
87.495894364722233
 20
89.993923963174353
 11
87.539668411274135
 21
90.403904246661796
  0
LINE
  8
_1-8_小物
  6
CONTINUOUS
 62
    4
 10
87.980396624248669
 20
90.260349893031446
 11
88.137571898751901
 21
90.343716783074569
  0
ARC
  8
_1-8_小物
  6
CONTINUOUS
 62
    4
 10
87.666666666666174
 20
88.166660332374391
 40
0.5999999999999999
 50
270
 51
7.9417990062311787
  0
LINE
  8
_1-8_小物
  6
CONTINUOUS
 62
    4
 10
88.260912024490324
 20
88.249560602002532
 11
87.980396624248669
 21
90.260349893031446
  0
ARC
  8
_1-8_小物
  6
CONTINUOUS
 62
    4
 10
87.666666666666174
 20
88.166660332374391
 40
0.0999999999999999
 50
270
 51
7.9417990062377157
  0
LINE
  8
_1-8_小物
  6
CONTINUOUS
 62
    4
 10
87.765707559636837
 20
88.180477043979096
 11
87.715046283752997
 21
88.543626984871622
  0
LINE
  8
_1-8_小物
  6
CONTINUOUS
 62
    4
 10
87.715046283752997
 20
88.543626984871622
 11
87.616005390782277
 21
88.529810273266918
  0
ENDBLK
  0
ENDSEC
  0
SECTION
  2
ENTITIES
  0
LINE
  8
_0-0_図面枠
  6
CONTINUOUS
 62
    6
 10
410.00000000000006
 20
287
 11
10
 21
287.00000000000006
  0
LINE
  8
_0-0_図面枠
  6
CONTINUOUS
 62
    6
 10
410
 20
9.9999999999998863
 11
410.00000000000006
 21
287
  0
LINE
  8
_0-0_図面枠
  6
CONTINUOUS
 62
    6
 10
9.9999999999999147
 20
10
 11
410
 21
9.9999999999998863
  0
LINE
  8
_0-0_図面枠
  6
CONTINUOUS
 62
    6
 10
10
 20
287.00000000000006
 11
9.9999999999999147
 21
10
  0
LINE
  8
_0-0_図面枠
  6
CONTINUOUS
 62
    6
 10
210
 20
287
 11
210.00000000000003
 21
9.9999999999999432
  0
TEXT
  8
_0-0_図面枠
 62
    4
 10
20
 20
280
 40
3.2000000000000002
 41
1
 50
0
  1
（アルミ１００タイプ）
  0
TEXT
  8
_0-0_図面枠
 62
    4
 10
220
 20
280
 40
3.2000000000000002
 41
1
 50
0
  1
（アルミ１００タイプ）
  0
INSERT
  2
-000-
  8
_1-8_小物
 10
210
 20
148.5
 41
1
 42
1
 50
0
  0
INSERT
  2
-001-_1_
  8
_1-8_小物
 10
210
 20
148.5
 41
1
 42
1
 50
0
  0
LINE
  8
_1-0_躯体
  6
CONTINUOUS
 62
    6
 10
69.999999999999972
 20
216.66666666666666
 11
93.333333333333329
 21
216.66666666666666
  0
INSERT
  2
-002-_2_
  8
_1-8_小物
 10
210
 20
148.5
 41
1
 42
1
 50
0
  0
LINE
  8
_1-0_躯体
  6
CENTER2
 62
    4
 10
81.666666666666657
 20
219.79724203365018
 11
81.666666666666657
 21
200
  0
LINE
  8
_1-0_躯体
  6
CONTINUOUS
 62
    6
 10
126.66666666666666
 20
216.66666666666666
 11
149.99999999999994
 21
216.66666666666666
  0
INSERT
  2
-003-_3_
  8
_1-8_小物
 10
210
 20
148.5
 41
1
 42
1
 50
0
  0
LINE
  8
_1-0_躯体
  6
CENTER2
 62
    4
 10
138.33333333333331
 20
219.79724203365026
 11
138.33333333333331
 21
200
  0
LINE
  8
_1-3_止水補助板
  6
CONTINUOUS
 62
    4
 10
143.33333333333331
 20
216.66666666666666
 11
143.33333333333331
 21
216.99999999999994
  0
LINE
  8
_1-3_止水補助板
  6
CONTINUOUS
 62
    4
 10
76.666666666666657
 20
216.66666666666666
 11
76.666666666666657
 21
216.99999999999994
  0
ARC
  8
_1-3_止水補助板
  6
CONTINUOUS
 62
    4
 10
110.0000000000003
 20
195.25058203026896
 40
10.555873196056922
 50
195.00000000000023
 51
344.99999999999977
  0
ARC
  8
_1-3_止水補助板
  6
CONTINUOUS
 62
    4
 10
110.0000000000003
 20
195.25058203026896
 40
10.22253986272359
 50
195.0000000000002
 51
344.99999999999983
  0
LINE
  8
_1-3_止水補助板
  6
CONTINUOUS
 62
    4
 10
126.41089100400673
 20
216.99999999999994
 11
143.33333333333331
 21
216.99999999999994
  0
LINE
  8
_1-3_止水補助板
  6
CONTINUOUS
 62
    4
 10
126.41089100400673
 20
216.99999999999994
 11
119.87421526367412
 21
192.60479402447632
  0
LINE
  8
_1-3_止水補助板
  6
CONTINUOUS
 62
    4
 10
126.66666666666666
 20
216.66666666666666
 11
143.33333333333331
 21
216.66666666666666
  0
LINE
  8
_1-3_止水補助板
  6
CONTINUOUS
 62
    4
 10
126.66666666666666
 20
216.66666666666666
 11
120.19619053910414
 21
192.51852100944217
  0
LINE
  8
_1-3_止水補助板
  6
CONTINUOUS
 62
    4
 10
93.333333333333783
 20
216.66666666666666
 11
76.666666666666657
 21
216.66666666666666
  0
LINE
  8
_1-3_止水補助板
  6
CONTINUOUS
 62
    4
 10
93.333333333333783
 20
216.66666666666666
 11
99.80380946089646
 21
192.51852100944217
  0
LINE
  8
_1-3_止水補助板
  6
CONTINUOUS
 62
    4
 10
93.589108995993683
 20
216.99999999999994
 11
76.666666666666657
 21
216.99999999999994
  0
LINE
  8
_1-3_止水補助板
  6
CONTINUOUS
 62
    4
 10
93.589108995993683
 20
216.99999999999994
 11
100.12578473632648
 21
192.60479402447632
  0
INSERT
  2
-004-_4_
  8
_1-4_フレ__ム
 10
210
 20
148.5
 41
1
 42
1
 50
0
  0
LINE
  8
_1-0_躯体
  6
CENTER2
 62
    4
 10
296.40512729410659
 20
228.33333733662494
 11
276.66666666666663
 21
228.33333733662494
  0
LINE
  8
_1-0_躯体
  6
CONTINUOUS
 62
    6
 10
326.66666666666657
 20
216.66666666666666
 11
350
 21
216.66666666666666
  0
LINE
  8
_1-0_躯体
  6
CENTER2
 62
    4
 10
338.33333333333331
 20
219.79724203365018
 11
338.33333333333331
 21
200
  0
INSERT
  2
-005-_5_
  8
_1-3_止水補助板
 10
210
 20
148.5
 41
1
 42
1
 50
0
  0
INSERT
  2
-006-_6_
  8
_1-4_フレ__ム
 10
210
 20
148.5
 41
1
 42
1
 50
0
  0
INSERT
  2
-007-_7_
  8
_1-8_小物
 10
210
 20
148.5
 41
1
 42
1
 50
0
  0
INSERT
  2
-008-_8_
  8
_1-8_小物
 10
210
 20
148.5
 41
1
 42
1
 50
0
  0
ARC
  8
_1-8_小物
  6
CONTINUOUS
 62
    4
 10
147.24093326192744
 20
218.78981478209693
 40
3.0129628785275182
 50
195.19701498033498
 51
224.80298501965788
  0
ARC
  8
_1-8_小物
  6
CONTINUOUS
 62
    4
 10
72.759066658605491
 20
218.78981476309707
 40
3.0129628785275182
 50
315.19701498034135
 51
344.8029850196645
  0
LINE
  8
_1-f_寸法
  6
CONTINUOUS
 62
    4
 10
151.6666666666666
 20
216.66666666666666
 11
158.26666666666659
 21
216.66666666666666
  0
LINE
  8
_1-f_寸法
  6
CONTINUOUS
 62
    4
 10
151.6666666666666
 20
225.00000000000003
 11
158.26666666666659
 21
225.00000000000003
  0
POINT
  8
_1-f_寸法
 62
    4
 10
156.66666666666657
 20
225.00000000000003
  0
POINT
  8
_1-f_寸法
 62
    4
 10
156.66666666666657
 20
216.66666666666666
  0
LINE
  8
_1-f_寸法
  6
CONTINUOUS
 62
    4
 10
156.66666666666657
 20
225.00000000000003
 11
156.66666666666657
 21
216.66666666666666
  0
TEXT
  8
_1-f_寸法
 62
    4
 10
156.66666666666657
 20
219.23333333333335
 40
3.2000000000000002
 41
1
 50
90
  1
25
  0
LINE
  8
_1-f_寸法
  6
CONTINUOUS
 62
    4
 10
126.66666666666666
 20
201.66666666666666
 11
126.66666666666666
 21
195.06666666666666
  0
LINE
  8
_1-f_寸法
  6
CONTINUOUS
 62
    4
 10
138.33333333333334
 20
201.66666666666666
 11
138.33333333333334
 21
195.06666666666666
  0
POINT
  8
_1-f_寸法
 62
    4
 10
138.33333333333334
 20
196.66666666666666
  0
POINT
  8
_1-f_寸法
 62
    4
 10
126.66666666666666
 20
196.66666666666666
  0
LINE
  8
_1-f_寸法
  6
CONTINUOUS
 62
    4
 10
138.33333333333334
 20
196.66666666666666
 11
126.66666666666666
 21
196.66666666666666
  0
TEXT
  8
_1-f_寸法
 62
    4
 10
130.89999999999998
 20
196.66666666666666
 40
3.2000000000000002
 41
1
 50
0
  1
35
  0
LINE
  8
_1-f_寸法
  6
CONTINUOUS
 62
    4
 10
93.333333333333783
 20
201.66666666666663
 11
93.333333333333783
 21
195.06666666666663
  0
LINE
  8
_1-f_寸法
  6
CONTINUOUS
 62
    4
 10
81.666666666667112
 20
201.66666666666663
 11
81.666666666667112
 21
195.06666666666663
  0
POINT
  8
_1-f_寸法
 62
    4
 10
81.666666666667112
 20
196.66666666666663
  0
POINT
  8
_1-f_寸法
 62
    4
 10
93.333333333333783
 20
196.66666666666663
  0
LINE
  8
_1-f_寸法
  6
CONTINUOUS
 62
    4
 10
81.666666666667112
 20
196.66666666666663
 11
93.333333333333783
 21
196.66666666666663
  0
TEXT
  8
_1-f_寸法
 62
    4
 10
85.900000000000432
 20
196.66666666666663
 40
3.2000000000000002
 41
1
 50
0
  1
35
  0
CIRCLE
  8
_1-f_寸法
  6
CONTINUOUS
 62
    4
 10
150
 20
221.66666666666666
 40
1.6666666666666665
  0
CIRCLE
  8
_1-f_寸法
  6
CONTINUOUS
 62
    4
 10
150
 20
221.66666666666666
 40
1.6666666666666665
  0
LINE
  8
_1-f_寸法
  6
CONTINUOUS
 62
    4
 10
148.82148869802242
 20
220.48815536468908
 11
146.5
 21
218.16666666666666
  0
TEXT
  8
_1-f_寸法
 62
    4
 10
148.75
 20
220.41666666666666
 40
2.5
 41
1
 50
0
  1
11
  0
CIRCLE
  8
_1-f_寸法
  6
CONTINUOUS
 62
    4
 10
131.66666666666666
 20
211.66666666666666
 40
1.6666666666666665
  0
CIRCLE
  8
_1-f_寸法
  6
CONTINUOUS
 62
    4
 10
145
 20
205
 40
1.6666666666666665
  0
CIRCLE
  8
_1-f_寸法
  6
CONTINUOUS
 62
    4
 10
145
 20
211.66666666666666
 40
1.6666666666666665
  0
TEXT
  8
_1-f_寸法
 62
    4
 10
144.375
 20
210.41666666666666
 40
2.5
 41
1
 50
0
  1
8
  0
TEXT
  8
_1-f_寸法
 62
    4
 10
131.04166666666666
 20
210.41666666666666
 40
2.5
 41
1
 50
0
  1
9
  0
TEXT
  8
_1-f_寸法
 62
    4
 10
143.75
 20
203.75
 40
2.5
 41
1
 50
0
  1
10
  0
LINE
  8
_1-f_寸法
  6
CONTINUOUS
 62
    4
 10
132.68677323498272
 20
212.98468046289804
 11
136.375
 21
217.75
  0
LINE
  8
_1-f_寸法
  6
CONTINUOUS
 62
    4
 10
143.83889094810797
 20
212.86232696432324
 11
138.33333333333331
 21
218.53171404361672
  0
LINE
  8
_1-f_寸法
  6
CONTINUOUS
 62
    4
 10
144.03513013486594
 20
206.35897164103375
 11
139.08333333333314
 21
213.33333333333326
  0
CIRCLE
  8
_1-f_寸法
  6
CONTINUOUS
 62
    4
 10
101.66666666666666
 20
205
 40
1.6666666666666665
  0
TEXT
  8
_1-f_寸法
 62
    4
 10
101.04166666666664
 20
203.75
 40
2.5
 41
1
 50
0
  1
6
  0
LINE
  8
_1-f_寸法
  6
CONTINUOUS
 62
    4
 10
100.83333333333333
 20
203.55662432702593
 11
98.227893469839003
 21
199.0438701073885
  0
LINE
  8
_1-f_寸法
  6
CONTINUOUS
 62
    4
 10
73.333333333333314
 20
226.66666666666666
 11
73.333333333333314
 21
233.26666666666665
  0
LINE
  8
_1-f_寸法
  6
CONTINUOUS
 62
    4
 10
146.66666666666666
 20
226.66666666666666
 11
146.66666666666666
 21
233.26666666666665
  0
POINT
  8
_1-f_寸法
 62
    4
 10
146.66666666666666
 20
231.66666666666666
  0
POINT
  8
_1-f_寸法
 62
    4
 10
73.333333333333314
 20
231.66666666666666
  0
LINE
  8
_1-f_寸法
  6
CONTINUOUS
 62
    4
 10
146.66666666666666
 20
231.66666666666666
 11
73.333333333333314
 21
231.66666666666666
  0
TEXT
  8
_1-f_寸法
 62
    4
 10
107.59999999999999
 20
231.66666666666666
 40
3.2000000000000002
 41
1
 50
0
  1
220
  0
CIRCLE
  8
_1-f_寸法
  6
CONTINUOUS
 62
    4
 10
130
 20
228.33333333333329
 40
1.6666666666666665
  0
TEXT
  8
_1-f_寸法
 62
    4
 10
129.375
 20
227.08333333333329
 40
2.5
 41
1
 50
0
  1
5
  0
CIRCLE
  8
_1-f_寸法
  6
CONTINUOUS
 62
    4
 10
125
 20
228.33333333333329
 40
1.6666666666666665
  0
TEXT
  8
_1-f_寸法
 62
    4
 10
124.375
 20
227.08333333333329
 40
2.5
 41
1
 50
0
  1
2
  0
CIRCLE
  8
_1-f_寸法
  6
CONTINUOUS
 62
    4
 10
118.33333333333333
 20
228.33333333333329
 40
1.6666666666666665
  0
TEXT
  8
_1-f_寸法
 62
    4
 10
117.70833333333333
 20
227.08333333333329
 40
2.5
 41
1
 50
0
  1
1
  0
CIRCLE
  8
_1-f_寸法
  6
CONTINUOUS
 62
    4
 10
113.33333333333333
 20
228.33333333333329
 40
1.6666666666666665
  0
TEXT
  8
_1-f_寸法
 62
    4
 10
112.70833333333333
 20
227.08333333333329
 40
2.5
 41
1
 50
0
  1
7
  0
LINE
  8
_1-f_寸法
  6
CONTINUOUS
 62
    4
 10
112
 20
227.333345101232
 11
110.66666666666666
 21
226.33335686913065
  0
LINE
  8
_1-f_寸法
  6
CONTINUOUS
 62
    4
 10
117.5
 20
226.88995766035922
 11
116.28381586311373
 21
224.78346494391295
  0
LINE
  8
_1-f_寸法
  6
CONTINUOUS
 62
    4
 10
129.1369469312846
 20
226.90752928706377
 11
124.30000000000001
 21
218.91666666666666
  0
LINE
  8
_1-f_寸法
  6
CONTINUOUS
 62
    4
 10
124.16666666666666
 20
226.88995766035922
 11
122.03626719638737
 21
223.19999753741766
  0
CIRCLE
  8
_1-f_寸法
  6
CONTINUOUS
 62
    4
 10
95
 20
228.33333333333329
 40
1.6666666666666665
  0
TEXT
  8
_1-f_寸法
 62
    4
 10
94.375
 20
227.08333333333329
 40
2.5
 41
1
 50
0
  1
4
  0
CIRCLE
  8
_1-f_寸法
  6
CONTINUOUS
 62
    4
 10
85
 20
228.33333333333329
 40
1.6666666666666665
  0
TEXT
  8
_1-f_寸法
 62
    4
 10
84.375
 20
227.08333333333329
 40
2.5
 41
1
 50
0
  1
3
  0
LINE
  8
_1-f_寸法
  6
CONTINUOUS
 62
    4
 10
85.833333333333329
 20
226.88995766035922
 11
87.511473662526214
 21
223.98333334796681
  0
LINE
  8
_1-f_寸法
  6
CONTINUOUS
 62
    4
 10
94.166666666666657
 20
226.88995766035922
 11
88.601613020909326
 21
217.25100199906115
  0
LINE
  8
_1-f_寸法
  6
CONTINUOUS
 62
    4
 10
346.66666666666663
 20
243.33333333333331
 11
346.66666666666663
 21
226.66666666666666
  0
LINE
  8
_1-f_寸法
  6
CONTINUOUS
 62
    4
 10
301.66666666666663
 20
243.33333333333331
 11
301.66666666666663
 21
249.93333333333331
  0
LINE
  8
_1-f_寸法
  6
CONTINUOUS
 62
    4
 10
293.33333333333331
 20
243.33333333333331
 11
293.33333333333331
 21
249.93333333333331
  0
POINT
  8
_1-f_寸法
 62
    4
 10
293.33333333333331
 20
248.33333333333331
  0
POINT
  8
_1-f_寸法
 62
    4
 10
301.66666666666663
 20
248.33333333333331
  0
LINE
  8
_1-f_寸法
  6
CONTINUOUS
 62
    4
 10
293.33333333333331
 20
248.33333333333331
 11
301.66666666666663
 21
248.33333333333331
  0
TEXT
  8
_1-f_寸法
 62
    4
 10
295.89999999999998
 20
248.33333333333331
 40
3.2000000000000002
 41
1
 50
0
  1
25
  0
LINE
  8
_1-f_寸法
  6
CONTINUOUS
 62
    4
 10
346.66666666666663
 20
243.33333333333331
 11
346.66666666666663
 21
249.93333333333331
  0
POINT
  8
_1-f_寸法
 62
    4
 10
346.66666666666663
 20
248.33333333333331
  0
LINE
  8
_1-f_寸法
  6
CONTINUOUS
 62
    4
 10
301.66666666666663
 20
248.33333333333331
 11
346.66666666666663
 21
248.33333333333331
  0
TEXT
  8
_1-f_寸法
 62
    4
 10
321.76666666666665
 20
248.33333333333331
 40
3.2000000000000002
 41
1
 50
0
  1
135
  0
LINE
  8
_1-f_寸法
  6
CONTINUOUS
 62
    4
 10
346.66666666666663
 20
248.33333333333331
 11
346.66666666666663
 21
254.93333333333331
  0
LINE
  8
_1-f_寸法
  6
CONTINUOUS
 62
    4
 10
293.33333333333331
 20
248.33333333333331
 11
293.33333333333331
 21
254.93333333333331
  0
POINT
  8
_1-f_寸法
 62
    4
 10
293.33333333333331
 20
253.33333333333331
  0
POINT
  8
_1-f_寸法
 62
    4
 10
346.66666666666663
 20
253.33333333333331
  0
LINE
  8
_1-f_寸法
  6
CONTINUOUS
 62
    4
 10
293.33333333333331
 20
253.33333333333331
 11
346.66666666666663
 21
253.33333333333331
  0
TEXT
  8
_1-f_寸法
 62
    4
 10
317.59999999999997
 20
253.33333333333331
 40
3.2000000000000002
 41
1
 50
0
  1
160
  0
LINE
  8
_1-f_寸法
  6
CONTINUOUS
 62
    4
 10
351.66666666666663
 20
225
 11
358.26666666666665
 21
225
  0
LINE
  8
_1-f_寸法
  6
CONTINUOUS
 62
    4
 10
351.66666666666663
 20
216.66666666666666
 11
358.26666666666665
 21
216.66666666666666
  0
POINT
  8
_1-f_寸法
 62
    4
 10
356.66666666666663
 20
216.66666666666666
  0
POINT
  8
_1-f_寸法
 62
    4
 10
356.66666666666663
 20
225
  0
LINE
  8
_1-f_寸法
  6
CONTINUOUS
 62
    4
 10
356.66666666666663
 20
216.66666666666666
 11
356.66666666666663
 21
225
  0
TEXT
  8
_1-f_寸法
 62
    4
 10
356.66666666666663
 20
219.23333333333335
 40
3.2000000000000002
 41
1
 50
90
  1
25
  0
LINE
  8
_1-f_寸法
  6
CONTINUOUS
 62
    4
 10
351.66666666666663
 20
239.99999364707415
 11
358.26666666666665
 21
239.99999364707415
  0
POINT
  8
_1-f_寸法
 62
    4
 10
356.66666666666663
 20
239.99999364707415
  0
LINE
  8
_1-f_寸法
  6
CONTINUOUS
 62
    4
 10
356.66666666666663
 20
225
 11
356.66666666666663
 21
239.99999364707415
  0
TEXT
  8
_1-f_寸法
 62
    4
 10
356.66666666666663
 20
230.89999682353709
 40
3.2000000000000002
 41
1
 50
90
  1
45
  0
LINE
  8
_1-f_寸法
  6
CONTINUOUS
 62
    4
 10
358.33333333333331
 20
239.99999364707415
 11
364.93333333333328
 21
239.99999364707415
  0
LINE
  8
_1-f_寸法
  6
CONTINUOUS
 62
    4
 10
358.33333333333331
 20
216.66666666666666
 11
364.93333333333328
 21
216.66666666666666
  0
POINT
  8
_1-f_寸法
 62
    4
 10
363.33333333333331
 20
216.66666666666666
  0
POINT
  8
_1-f_寸法
 62
    4
 10
363.33333333333331
 20
239.99999364707415
  0
LINE
  8
_1-f_寸法
  6
CONTINUOUS
 62
    4
 10
363.33333333333331
 20
216.66666666666666
 11
363.33333333333331
 21
239.99999364707415
  0
TEXT
  8
_1-f_寸法
 62
    4
 10
363.33333333333331
 20
226.73333015687041
 40
3.2000000000000002
 41
1
 50
90
  1
70
  0
LINE
  8
_1-f_寸法
  6
CONTINUOUS
 62
    4
 10
351.66666666666663
 20
240
 11
303.33333333333331
 21
240
  0
CIRCLE
  8
_1-f_寸法
  6
CONTINUOUS
 62
    4
 10
349.99999999999989
 20
221.66666666666666
 40
1.6666666666666665
  0
CIRCLE
  8
_1-f_寸法
  6
CONTINUOUS
 62
    4
 10
349.99999999999989
 20
221.66666666666666
 40
1.6666666666666665
  0
LINE
  8
_1-f_寸法
  6
CONTINUOUS
 62
    4
 10
348.82148869802234
 20
220.48815536468908
 11
346.49999999999989
 21
218.16666666666666
  0
TEXT
  8
_1-f_寸法
 62
    4
 10
348.74999999999989
 20
220.41666666666666
 40
2.5
 41
1
 50
0
  1
11
  0
CIRCLE
  8
_1-f_寸法
  6
CONTINUOUS
 62
    4
 10
331.66666666666657
 20
211.66666666666666
 40
1.6666666666666665
  0
CIRCLE
  8
_1-f_寸法
  6
CONTINUOUS
 62
    4
 10
344.99999999999989
 20
205
 40
1.6666666666666665
  0
CIRCLE
  8
_1-f_寸法
  6
CONTINUOUS
 62
    4
 10
344.99999999999989
 20
211.66666666666666
 40
1.6666666666666665
  0
TEXT
  8
_1-f_寸法
 62
    4
 10
344.37499999999989
 20
210.41666666666666
 40
2.5
 41
1
 50
0
  1
8
  0
TEXT
  8
_1-f_寸法
 62
    4
 10
331.04166666666657
 20
210.41666666666666
 40
2.5
 41
1
 50
0
  1
9
  0
TEXT
  8
_1-f_寸法
 62
    4
 10
343.74999999999989
 20
203.75
 40
2.5
 41
1
 50
0
  1
10
  0
LINE
  8
_1-f_寸法
  6
CONTINUOUS
 62
    4
 10
332.68677323498264
 20
212.98468046289804
 11
336.37499999999989
 21
217.75
  0
LINE
  8
_1-f_寸法
  6
CONTINUOUS
 62
    4
 10
343.83889094810786
 20
212.86232696432324
 11
338.33333333333326
 21
218.53171404361672
  0
LINE
  8
_1-f_寸法
  6
CONTINUOUS
 62
    4
 10
344.03513013486582
 20
206.35897164103375
 11
339.08333333333309
 21
213.33333333333326
  0
LINE
  8
_1-f_寸法
  6
CONTINUOUS
 62
    4
 10
326.66666666666663
 20
201.66666666666666
 11
326.66666666666663
 21
195.06666666666666
  0
LINE
  8
_1-f_寸法
  6
CONTINUOUS
 62
    4
 10
338.33333333333331
 20
201.66666666666666
 11
338.33333333333331
 21
195.06666666666666
  0
POINT
  8
_1-f_寸法
 62
    4
 10
338.33333333333331
 20
196.66666666666666
  0
POINT
  8
_1-f_寸法
 62
    4
 10
326.66666666666663
 20
196.66666666666666
  0
LINE
  8
_1-f_寸法
  6
CONTINUOUS
 62
    4
 10
338.33333333333331
 20
196.66666666666666
 11
326.66666666666663
 21
196.66666666666666
  0
TEXT
  8
_1-f_寸法
 62
    4
 10
330.89999999999998
 20
196.66666666666666
 40
3.2000000000000002
 41
1
 50
0
  1
35
  0
LINE
  8
_1-f_寸法
  6
CONTINUOUS
 62
    4
 10
276.66666666666708
 20
216.66666666666674
 11
270.06666666666712
 21
216.66666666666674
  0
LINE
  8
_1-f_寸法
  6
CONTINUOUS
 62
    4
 10
276.66666666666708
 20
228.33333733662499
 11
270.06666666666712
 21
228.33333733662499
  0
POINT
  8
_1-f_寸法
 62
    4
 10
271.66666666666708
 20
228.33333733662499
  0
POINT
  8
_1-f_寸法
 62
    4
 10
271.66666666666708
 20
216.66666666666674
  0
LINE
  8
_1-f_寸法
  6
CONTINUOUS
 62
    4
 10
271.66666666666708
 20
228.33333733662499
 11
271.66666666666708
 21
216.66666666666674
  0
TEXT
  8
_1-f_寸法
 62
    4
 10
271.66666666666708
 20
220.90000200164587
 40
3.2000000000000002
 41
1
 50
90
  1
35
  0
LINE
  8
_1-f_寸法
  6
CONTINUOUS
 62
    4
 10
276.66666666666708
 20
216.66666666666674
 11
325
 21
216.66666666666674
  0
CIRCLE
  8
_1-f_寸法
  6
CONTINUOUS
 62
    4
 10
304.99999999999994
 20
235.00000635292582
 40
1.6666666666666665
  0
TEXT
  8
_1-f_寸法
 62
    4
 10
304.37499999999994
 20
233.75000635292582
 40
2.5
 41
1
 50
0
  1
3
  0
LINE
  8
_1-f_寸法
  6
CONTINUOUS
 62
    4
 10
304.16666666666663
 20
233.55663067995175
 11
300.12499999999955
 21
226.55625866602693
  0
CIRCLE
  8
_1-f_寸法
  6
CONTINUOUS
 62
    4
 10
306.66666666666646
 20
228.33333335196676
 40
1.6666666666666665
  0
TEXT
  8
_1-f_寸法
 62
    4
 10
306.04166666666646
 20
227.08333335196676
 40
2.5
 41
1
 50
0
  1
1
  0
LINE
  8
_1-f_寸法
  6
CONTINUOUS
 62
    4
 10
308.7355051312627
 20
224.75000001863344
 11
307.49999999999977
 21
226.88995767899269
  0
CIRCLE
  8
_1-f_寸法
  6
CONTINUOUS
 62
    4
 10
320.00003283333302
 20
228.33333333386042
 40
1.6666666666666665
  0
TEXT
  8
_1-f_寸法
 62
    4
 10
319.37503283333302
 20
227.08333333386042
 40
2.5
 41
1
 50
0
  1
7
  0
LINE
  8
_1-f_寸法
  6
CONTINUOUS
 62
    4
 10
323.50001641884955
 20
226.00340566719376
 11
321.38740407877089
 21
227.40976481712224
  0
CIRCLE
  8
_1-f_寸法
  6
CONTINUOUS
 62
    4
 10
343.33333332896683
 20
228.33333333333331
 40
1.6666666666666665
  0
TEXT
  8
_1-f_寸法
 62
    4
 10
342.70833332896683
 20
227.08333333333331
 40
2.5
 41
1
 50
0
  1
2
  0
LINE
  8
_1-f_寸法
  6
CONTINUOUS
 62
    4
 10
340.36960053611216
 20
223.19999755605107
 11
342.49999999563352
 21
226.88995766035924
  0
CIRCLE
  8
_1-f_寸法
  6
CONTINUOUS
 62
    4
 10
331.6666666623002
 20
228.33333333333331
 40
1.6666666666666665
  0
TEXT
  8
_1-f_寸法
 62
    4
 10
331.0416666623002
 20
227.08333333333331
 40
2.5
 41
1
 50
0
  1
5
  0
LINE
  8
_1-f_寸法
  6
CONTINUOUS
 62
    4
 10
330.66533838361778
 20
227.00099724356895
 11
324.63333333333333
 21
218.97499999999997
  0
CIRCLE
  8
_1-f_寸法
  6
CONTINUOUS
 62
    4
 10
301.66666666666657
 20
205
 40
1.6666666666666665
  0
TEXT
  8
_1-f_寸法
 62
    4
 10
301.04166666666657
 20
203.75
 40
2.5
 41
1
 50
0
  1
6
  0
LINE
  8
_1-f_寸法
  6
CONTINUOUS
 62
    4
 10
300.83333333333326
 20
203.55662432702593
 11
298.22789346983893
 21
199.0438701073885
  0
ARC
  8
_1-8_小物
  6
CONTINUOUS
 62
    4
 10
347.24093334139422
 20
218.7898147630971
 40
3.0129628785275182
 50
195.19701498033552
 51
224.80298501965711
  0
CIRCLE
  8
_1-f_寸法
  6
CONTINUOUS
 62
    4
 10
288.33333333333258
 20
235.00000000000003
 40
1.6666666666666665
  0
TEXT
  8
_1-f_寸法
 62
    4
 10
287.70833333333258
 20
233.75000000000003
 40
2.5
 41
1
 50
0
  1
4
  0
LINE
  8
_1-f_寸法
  6
CONTINUOUS
 62
    4
 10
289.8459379439571
 20
234.30013924978246
 11
293.91666666666606
 21
232.41667066995819
  0
LINE
  8
ADD_LINE
  6
DOT
 62
    4
 10
0
 20
148.5
 11
420
 21
148.5
  0
LINE
  8
_1-f_寸法
  6
CONTINUOUS
 62
    4
 10
326.66666666666657
 20
176.66666666666666
 11
326.66666666666657
 21
170.06666666666666
  0
LINE
  8
_1-f_寸法
  6
CONTINUOUS
 62
    4
 10
293.33333333333331
 20
176.66666666666666
 11
293.33333333333331
 21
170.06666666666666
  0
POINT
  8
_1-f_寸法
 62
    4
 10
293.33333333333331
 20
171.66666666666666
  0
POINT
  8
_1-f_寸法
 62
    4
 10
326.66666666666657
 20
171.66666666666666
  0
LINE
  8
_1-f_寸法
  6
CONTINUOUS
 62
    4
 10
293.33333333333331
 20
171.66666666666666
 11
326.66666666666657
 21
171.66666666666666
  0
TEXT
  8
_1-f_寸法
 62
    4
 10
307.59999999999991
 20
171.66666666666666
 40
3.2000000000000002
 41
1
 50
0
  1
100
  0
LINE
  8
_1-f_寸法
  6
CONTINUOUS
 62
    4
 10
126.66666666666663
 20
176.66666666666666
 11
126.66666666666663
 21
170.06666666666666
  0
LINE
  8
_1-f_寸法
  6
CONTINUOUS
 62
    4
 10
93.333333333333371
 20
176.66666666666666
 11
93.333333333333371
 21
170.06666666666666
  0
POINT
  8
_1-f_寸法
 62
    4
 10
93.333333333333371
 20
171.66666666666666
  0
POINT
  8
_1-f_寸法
 62
    4
 10
126.66666666666663
 20
171.66666666666666
  0
LINE
  8
_1-f_寸法
  6
CONTINUOUS
 62
    4
 10
93.333333333333371
 20
171.66666666666666
 11
126.66666666666663
 21
171.66666666666666
  0
TEXT
  8
_1-f_寸法
 62
    4
 10
107.59999999999999
 20
171.66666666666666
 40
3.2000000000000002
 41
1
 50
0
  1
100
  0
LINE
  8
_1-0_躯体
  6
CONTINUOUS
 62
    6
 10
93.333333333333329
 20
216.66666666666666
 11
93.333333333333329
 21
178.33333333333331
  0
LINE
  8
_1-0_躯体
  6
CONTINUOUS
 62
    6
 10
126.66666666666666
 20
216.66666666666666
 11
126.66666666666666
 21
178.33333333333331
  0
LINE
  8
_1-0_躯体
  6
CONTINUOUS
 62
    6
 10
293.33333333333326
 20
241.66666666666666
 11
293.33333333333326
 21
178.33333333333331
  0
LINE
  8
_1-0_躯体
  6
CONTINUOUS
 62
    6
 10
326.66666666666657
 20
216.66666666666666
 11
326.66666666666657
 21
178.33333333333331
  0
LINE
  8
_1-0_躯体
  6
CENTER2
 62
    4
 10
310
 20
241.66666666666666
 11
310
 21
178.33333333333331
  0
LINE
  8
_1-0_躯体
  6
CENTER2
 62
    4
 10
110
 20
226.83333333333337
 11
110
 21
178.33333333333331
  0
CIRCLE
  8
_1-f_寸法
  6
CONTINUOUS
 62
    4
 10
298.33333333333331
 20
243.33333333333331
 40
1.6666666666666665
  0
CIRCLE
  8
_1-f_寸法
  6
CONTINUOUS
 62
    4
 10
298.33333333333331
 20
243.33333333333331
 40
1.6666666666666665
  0
LINE
  8
_1-f_寸法
  6
CONTINUOUS
 62
    4
 10
297.15482203135576
 20
242.15482203135574
 11
294.83333333333331
 21
239.83333333333331
  0
TEXT
  8
_1-f_寸法
 62
    4
 10
297.08333333333331
 20
242.08333333333331
 40
2.5
 41
1
 50
0
  1
11
  0
CIRCLE
  8
_1-f_寸法
  6
CONTINUOUS
 62
    4
 10
70
 20
221.66666666666666
 40
1.6666666666666665
  0
CIRCLE
  8
_1-f_寸法
  6
CONTINUOUS
 62
    4
 10
70
 20
221.66666666666666
 40
1.6666666666666665
  0
LINE
  8
_1-f_寸法
  6
CONTINUOUS
 62
    4
 10
71.178511301977551
 20
220.48815536468908
 11
73.5
 21
218.16666666666666
  0
TEXT
  8
_1-f_寸法
 62
    4
 10
68.75
 20
220.41666666666666
 40
2.5
 41
1
 50
0
  1
11
  0
CIRCLE
  8
_1-f_寸法
  6
CONTINUOUS
 62
    4
 10
283.33333333333303
 20
233.33333333333329
 40
1.6666666666666665
  0
TEXT
  8
_1-f_寸法
 62
    4
 10
282.70833333333303
 20
232.08333333333329
 40
2.5
 41
1
 50
0
  1
9
  0
CIRCLE
  8
_1-f_寸法
  6
CONTINUOUS
 62
    4
 10
288.33333333333303
 20
223.33333333333329
 40
1.6666666666666665
  0
TEXT
  8
_1-f_寸法
 62
    4
 10
287.70833333333303
 20
222.08333333333329
 40
2.5
 41
1
 50
0
  1
8
  0
CIRCLE
  8
_1-f_寸法
  6
CONTINUOUS
 62
    4
 10
281.66666666666634
 20
223.33333333333329
 40
1.6666666666666665
  0
TEXT
  8
_1-f_寸法
 62
    4
 10
280.41666666666634
 20
222.08333333333329
 40
2.5
 41
1
 50
0
  1
10
  0
LINE
  8
_1-f_寸法
  6
CONTINUOUS
 62
    4
 10
283.15139242170733
 20
224.09054348256251
 11
289.9999999999996
 21
227.58333341279996
  0
CIRCLE
  8
_1-f_寸法
  6
CONTINUOUS
 62
    4
 10
88.333333333333329
 20
211.66666666666666
 40
1.6666666666666665
  0
CIRCLE
  8
_1-f_寸法
  6
CONTINUOUS
 62
    4
 10
75
 20
205
 40
1.6666666666666665
  0
CIRCLE
  8
_1-f_寸法
  6
CONTINUOUS
 62
    4
 10
75
 20
211.66666666666666
 40
1.6666666666666665
  0
TEXT
  8
_1-f_寸法
 62
    4
 10
74.375
 20
210.41666666666666
 40
2.5
 41
1
 50
0
  1
8
  0
TEXT
  8
_1-f_寸法
 62
    4
 10
87.708333333333329
 20
210.41666666666666
 40
2.5
 41
1
 50
0
  1
9
  0
TEXT
  8
_1-f_寸法
 62
    4
 10
73.75
 20
203.75
 40
2.5
 41
1
 50
0
  1
10
  0
LINE
  8
_1-f_寸法
  6
CONTINUOUS
 62
    4
 10
75.964869865134062
 20
206.35897164103375
 11
80.916666666666856
 21
213.33333333333326
  0
TEXT
  8
_0-0_図面枠
 62
    4
 10
30
 20
270
 40
3.2000000000000002
 41
1
 50
0
  1
◇外壁＋外壁（１００ＳＳＧ－Ａ）　Ｓ＝１／３
  0
TEXT
  8
_0-0_図面枠
 62
    4
 10
230
 20
270
 40
3.2000000000000002
 41
1
 50
0
  1
◇外壁＋外壁コーナー（１００ＳＣＧ－Ａ）　Ｓ＝１／３
  0
INSERT
  2
-009-_9_
  8
_1-7_カバ__
 10
210
 20
148.5
 41
1
 42
1
 50
0
  0
INSERT
  2
-010-_10_
  8
_1-7_カバ__
 10
210
 20
148.5
 41
1
 42
1
 50
0
  0
LINE
  8
_1-f_寸法
  6
CONTINUOUS
 62
    4
 10
295.70747980249951
 20
228.33333733663315
 11
289.71279686793406
 21
224.26867184664479
  0
LINE
  8
_1-f_寸法
  6
CONTINUOUS
 62
    4
 10
294.91666666666617
 20
230.29167066995819
 11
284.94534947310376
 21
232.91003468828879
  0
ARC
  8
_1-f_寸法
  6
CONTINUOUS
 62
    4
 10
297.64166664990273
 20
241.9686623896861
 40
6.7166666375130486
 50
230.10077861169486
 51
254.38150176464103
  0
LINE
  8
_1-f_寸法
  6
CONTINUOUS
 62
    4
 10
83.625000000000298
 20
218.25
 11
87.36379156083099
 21
213.02230914503286
  0
LINE
  8
_1-f_寸法
  6
CONTINUOUS
 62
    4
 10
81.666666666658386
 20
219.03171404361672
 11
76.118470434514904
 21
212.90230482765622
  0
LINE
  8
_0-0_図面枠
  6
CONTINUOUS
 62
    4
 10
182.14999999999998
 20
56.199999999999989
 11
40
 21
56.199999999999989
  0
LINE
  8
_0-0_図面枠
  6
CONTINUOUS
 62
    4
 10
182.14999999999998
 20
68.199999999999989
 11
40
 21
68.199999999999989
  0
LINE
  8
_0-0_図面枠
  6
CONTINUOUS
 62
    4
 10
182.14999999999998
 20
62.199999999999989
 11
40
 21
62.199999999999989
  0
LINE
  8
_0-0_図面枠
  6
CONTINUOUS
 62
    4
 10
182.14999999999998
 20
74.199999999999989
 11
40
 21
74.199999999999989
  0
LINE
  8
_0-0_図面枠
  6
CONTINUOUS
 62
    4
 10
182.14999999999998
 20
110.20000000000005
 11
40
 21
110.20000000000005
  0
LINE
  8
_0-0_図面枠
  6
CONTINUOUS
 62
    4
 10
182.14999999999998
 20
104.20000000000005
 11
40
 21
104.20000000000005
  0
LINE
  8
_0-0_図面枠
  6
CONTINUOUS
 62
    4
 10
182.14999999999998
 20
98.200000000000045
 11
40
 21
98.200000000000045
  0
LINE
  8
_0-0_図面枠
  6
CONTINUOUS
 62
    4
 10
182.14999999999998
 20
92.200000000000045
 11
40
 21
92.200000000000045
  0
LINE
  8
_0-0_図面枠
  6
CONTINUOUS
 62
    4
 10
182.14999999999998
 20
86.200000000000045
 11
40
 21
86.200000000000045
  0
LINE
  8
_0-0_図面枠
  6
CONTINUOUS
 62
    4
 10
182.14999999999998
 20
80.199999999999989
 11
40
 21
80.199999999999989
  0
LINE
  8
_0-0_図面枠
  6
CONTINUOUS
 62
    4
 10
182.14999999999998
 20
121
 11
40
 21
121
  0
LINE
  8
_0-0_図面枠
  6
CONTINUOUS
 62
    4
 10
182.14999999999998
 20
50.199999999999989
 11
40
 21
50.199999999999989
  0
LINE
  8
_0-0_図面枠
  6
CONTINUOUS
 62
    4
 10
182.14999999999998
 20
44.199999999999989
 11
40
 21
44.199999999999989
  0
TEXT
  8
_0-0_図面枠
 62
    4
 10
165.55126400000003
 20
116.20001049999996
 40
3.2000000000000002
 41
1
 50
0
  1
使用
  0
TEXT
  8
_0-0_図面枠
 62
    4
 10
150.50638249999997
 20
116.20001049999996
 40
3.2000000000000002
 41
1
 50
0
  1
定　尺
  0
TEXT
  8
_0-0_図面枠
 62
    4
 10
148.3435475
 20
111.40000399999997
 40
3.2000000000000002
 41
1
 50
0
  1
（ｍｍ）
  0
TEXT
  8
_0-0_図面枠
 62
    4
 10
165.55126400000003
 20
111.40000399999997
 40
3.2000000000000002
 41
1
 50
0
  1
数量
  0
TEXT
  8
_0-0_図面枠
 62
    4
 10
40.497068000000013
 20
105.42754949999994
 40
3.2000000000000002
 41
1
 50
0
  1
　１
  0
TEXT
  8
_0-0_図面枠
 62
    4
 10
149.27047700000003
 20
105.40000399999997
 40
3.2000000000000002
 41
1
 50
0
  1
３０００
  0
TEXT
  8
_0-0_図面枠
 62
    4
 10
177.00512500000002
 20
105.40000399999997
 40
3.2000000000000002
 41
1
 50
0
  1
本
  0
TEXT
  8
_0-0_図面枠
 62
    4
 10
43.586831999999958
 20
99.427549499999941
 40
3.2000000000000002
 41
1
 50
0
  1
２
  0
TEXT
  8
_0-0_図面枠
 62
    4
 10
43.586831999999958
 20
93.427549499999941
 40
3.2000000000000002
 41
1
 50
0
  1
３
  0
TEXT
  8
_0-0_図面枠
 62
    4
 10
43.586831999999958
 20
87.427549499999941
 40
3.2000000000000002
 41
1
 50
0
  1
４
  0
TEXT
  8
_0-0_図面枠
 62
    4
 10
169.36022149999994
 20
87.450002999999924
 40
3.2000000000000002
 41
1
 50
0
  1
１
  0
TEXT
  8
_0-0_図面枠
 62
    4
 10
43.586831999999958
 20
81.427560999999969
 40
3.2000000000000002
 41
1
 50
0
  1
５
  0
TEXT
  8
_0-0_図面枠
 62
    4
 10
177.00512500000002
 20
81.399992499999996
 40
3.2000000000000002
 41
1
 50
0
  1
本
  0
TEXT
  8
_0-0_図面枠
 62
    4
 10
43.586831999999958
 20
75.427560999999969
 40
3.2000000000000002
 41
1
 50
0
  1
６
  0
TEXT
  8
_0-0_図面枠
 62
    4
 10
43.586831999999958
 20
69.427555499999983
 40
3.2000000000000002
 41
1
 50
0
  1
７
  0
TEXT
  8
_0-0_図面枠
 62
    4
 10
48.400007500000015
 20
69.40000950000001
 40
3.2000000000000002
 41
1
 50
0
  1
ステンセットシルタップ
  0
TEXT
  8
_0-0_図面枠
 62
    4
 10
43.586831999999958
 20
63.427555499999983
 40
3.2000000000000002
 41
1
 50
0
  1
８
  0
TEXT
  8
_0-0_図面枠
 62
    4
 10
166.27045749999999
 20
63.450008499999967
 40
3.2000000000000002
 41
1
 50
0
  1
１２
  0
TEXT
  8
_0-0_図面枠
 62
    4
 10
43.586831999999958
 20
57.427555499999983
 40
3.2000000000000002
 41
1
 50
0
  1
９
  0
LINE
  8
_0-0_図面枠
  6
CONTINUOUS
 62
    4
 10
382.15000000000009
 20
110.19999999999999
 11
240
 21
110.19999999999999
  0
LINE
  8
_0-0_図面枠
  6
CONTINUOUS
 62
    4
 10
382.15000000000009
 20
104.19999999999999
 11
240
 21
104.19999999999999
  0
LINE
  8
_0-0_図面枠
  6
CONTINUOUS
 62
    4
 10
382.15000000000009
 20
98.199999999999989
 11
240
 21
98.199999999999989
  0
LINE
  8
_0-0_図面枠
  6
CONTINUOUS
 62
    4
 10
382.15000000000009
 20
92.199999999999989
 11
240
 21
92.199999999999989
  0
LINE
  8
_0-0_図面枠
  6
CONTINUOUS
 62
    4
 10
382.15000000000009
 20
86.199999999999989
 11
240
 21
86.199999999999989
  0
LINE
  8
_0-0_図面枠
  6
CONTINUOUS
 62
    4
 10
382.15000000000009
 20
80.199999999999989
 11
240
 21
80.199999999999989
  0
LINE
  8
_0-0_図面枠
  6
CONTINUOUS
 62
    4
 10
382.15000000000009
 20
74.199999999999989
 11
240
 21
74.199999999999989
  0
LINE
  8
_0-0_図面枠
  6
CONTINUOUS
 62
    4
 10
382.15000000000009
 20
68.199999999999989
 11
240
 21
68.199999999999989
  0
LINE
  8
_0-0_図面枠
  6
CONTINUOUS
 62
    4
 10
382.15000000000009
 20
62.199999999999989
 11
240
 21
62.199999999999989
  0
LINE
  8
_0-0_図面枠
  6
CONTINUOUS
 62
    4
 10
382.15000000000009
 20
56.199999999999989
 11
240
 21
56.199999999999989
  0
LINE
  8
_0-0_図面枠
  6
CONTINUOUS
 62
    4
 10
382.15000000000009
 20
44.199999999999989
 11
240
 21
44.199999999999989
  0
LINE
  8
_0-0_図面枠
  6
CONTINUOUS
 62
    4
 10
382.15000000000009
 20
121
 11
240
 21
121
  0
LINE
  8
_0-0_図面枠
  6
CONTINUOUS
 62
    4
 10
382.15000000000009
 20
50.199999999999989
 11
240
 21
50.199999999999989
  0
TEXT
  8
_0-0_図面枠
 62
    4
 10
365.55123000000003
 20
116.20001050000002
 40
3.2000000000000002
 41
1
 50
0
  1
使用
  0
TEXT
  8
_0-0_図面枠
 62
    4
 10
350.50632500000006
 20
116.20002199999999
 40
3.2000000000000002
 41
1
 50
0
  1
定　尺
  0
TEXT
  8
_0-0_図面枠
 62
    4
 10
348.34349000000003
 20
111.400015
 40
3.2000000000000002
 41
1
 50
0
  1
（ｍｍ）
  0
TEXT
  8
_0-0_図面枠
 62
    4
 10
365.55123000000003
 20
111.40000400000002
 40
3.2000000000000002
 41
1
 50
0
  1
数量
  0
TEXT
  8
_0-0_図面枠
 62
    4
 10
240.4970505
 20
105.4275495
 40
3.2000000000000002
 41
1
 50
0
  1
　１
  0
TEXT
  8
_0-0_図面枠
 62
    4
 10
243.5868145
 20
99.427549499999998
 40
3.2000000000000002
 41
1
 50
0
  1
２
  0
TEXT
  8
_0-0_図面枠
 62
    4
 10
243.5868145
 20
93.427549499999998
 40
3.2000000000000002
 41
1
 50
0
  1
３
  0
TEXT
  8
_0-0_図面枠
 62
    4
 10
243.5868145
 20
87.427549499999998
 40
3.2000000000000002
 41
1
 50
0
  1
４
  0
TEXT
  8
_0-0_図面枠
 62
    4
 10
243.5868145
 20
81.427560999999997
 40
3.2000000000000002
 41
1
 50
0
  1
５
  0
TEXT
  8
_0-0_図面枠
 62
    4
 10
243.5868145
 20
75.427560999999997
 40
3.2000000000000002
 41
1
 50
0
  1
６
  0
TEXT
  8
_0-0_図面枠
 62
    4
 10
243.5868145
 20
69.427560999999997
 40
3.2000000000000002
 41
1
 50
0
  1
７
  0
TEXT
  8
_0-0_図面枠
 62
    4
 10
243.5868145
 20
63.427555499999983
 40
3.2000000000000002
 41
1
 50
0
  1
８
  0
TEXT
  8
_0-0_図面枠
 62
    4
 10
243.5868145
 20
57.427555499999983
 40
3.2000000000000002
 41
1
 50
0
  1
９
  0
TEXT
  8
_0-0_図面枠
 62
    4
 10
240.4970505
 20
51.427555499999983
 40
3.2000000000000002
 41
1
 50
0
  1
１０
  0
TEXT
  8
_0-0_図面枠
 62
    4
 10
240.4970505
 20
45.427555499999983
 40
3.2000000000000002
 41
1
 50
0
  1
１１
  0
TEXT
  8
_0-0_図面枠
 62
    4
 10
169.36022149999994
 20
105.44999150000001
 40
3.2000000000000002
 41
1
 50
0
  1
１
  0
TEXT
  8
_0-0_図面枠
 62
    4
 10
48.400007500000015
 20
93.400003999999967
 40
3.2000000000000002
 41
1
 50
0
  1
ＳＳＧばね(Ａ)
  0
TEXT
  8
_0-0_図面枠
 62
    4
 10
48.400007500000015
 20
87.400003999999967
 40
3.2000000000000002
 41
1
 50
0
  1
ＳＳＧばねフレーム
  0
TEXT
  8
_0-0_図面枠
 62
    4
 10
149.27047700000003
 20
87.400003999999967
 40
3.2000000000000002
 41
1
 50
0
  1
３０００
  0
TEXT
  8
_0-0_図面枠
 62
    4
 10
169.36022149999994
 20
93.44999150000001
 40
3.2000000000000002
 41
1
 50
0
  1
６
  0
TEXT
  8
_0-0_図面枠
 62
    4
 10
149.27047700000003
 20
81.400003999999967
 40
3.2000000000000002
 41
1
 50
0
  1
３０００
  0
TEXT
  8
_0-0_図面枠
 62
    4
 10
169.36022149999994
 20
81.450002999999924
 40
3.2000000000000002
 41
1
 50
0
  1
１
  0
TEXT
  8
_0-0_図面枠
 62
    4
 10
48.400007500000015
 20
75.400003999999967
 40
3.2000000000000002
 41
1
 50
0
  1
止水補助板
  0
TEXT
  8
_0-0_図面枠
 62
    4
 10
177.00512500000002
 20
93.400004000000024
 40
3.2000000000000002
 41
1
 50
0
  1
個
  0
TEXT
  8
_0-0_図面枠
 62
    4
 10
178.54999999999998
 20
118.80000000000001
 40
3.2000000000000002
 41
1
 50
0
  1
単位
  7
TATEGAKI
  0
TEXT
  8
_0-0_図面枠
 62
    4
 10
378.55000000000007
 20
118.80000000000001
 40
3.2000000000000002
 41
1
 50
0
  1
単位
  7
TATEGAKI
  0
TEXT
  8
_0-0_図面枠
 62
    4
 10
169.36022149999994
 20
69.450002999999924
 40
3.2000000000000002
 41
1
 50
0
  1
６
  0
TEXT
  8
_0-0_図面枠
 62
    4
 10
48.400007500000015
 20
63.40000950000001
 40
3.2000000000000002
 41
1
 50
0
  1
ステンタッピンねじ
  0
TEXT
  8
_0-0_図面枠
 62
    4
 10
48.400007500000015
 20
57.40000950000001
 40
3.2000000000000002
 41
1
 50
0
  1
ステンワッシャー
  0
TEXT
  8
_0-0_図面枠
 62
    4
 10
169.36022149999994
 20
45.449997499999995
 40
3.2000000000000002
 41
1
 50
0
  1
２
  0
TEXT
  8
_0-0_図面枠
 62
    4
 10
177.00512500000002
 20
45.40000950000001
 40
3.2000000000000002
 41
1
 50
0
  1
本
  0
TEXT
  8
_0-0_図面枠
 62
    4
 10
166.27045749999999
 20
57.450008499999967
 40
3.2000000000000002
 41
1
 50
0
  1
１２
  0
TEXT
  8
_0-0_図面枠
 62
    4
 10
177.00512500000002
 20
69.399992499999996
 40
3.2000000000000002
 41
1
 50
0
  1
本
  0
TEXT
  8
_0-0_図面枠
 62
    4
 10
40.4970505
 20
51.427555499999983
 40
3.2000000000000002
 41
1
 50
0
  1
１０
  0
TEXT
  8
_0-0_図面枠
 62
    4
 10
40.4970505
 20
45.427555499999983
 40
3.2000000000000002
 41
1
 50
0
  1
１１
  0
TEXT
  8
_0-0_図面枠
 62
    4
 10
349.27047700000014
 20
105.40000399999997
 40
3.2000000000000002
 41
1
 50
0
  1
３０００
  0
TEXT
  8
_0-0_図面枠
 62
    4
 10
377.00512500000013
 20
105.40000399999997
 40
3.2000000000000002
 41
1
 50
0
  1
本
  0
TEXT
  8
_0-0_図面枠
 62
    4
 10
369.36022150000008
 20
87.450002999999924
 40
3.2000000000000002
 41
1
 50
0
  1
１
  0
TEXT
  8
_0-0_図面枠
 62
    4
 10
377.00512500000013
 20
81.399992499999996
 40
3.2000000000000002
 41
1
 50
0
  1
本
  0
TEXT
  8
_0-0_図面枠
 62
    4
 10
248.4000075000001
 20
69.40000950000001
 40
3.2000000000000002
 41
1
 50
0
  1
ステンセットシルタップ
  0
TEXT
  8
_0-0_図面枠
 62
    4
 10
366.27045750000013
 20
63.450008499999967
 40
3.2000000000000002
 41
1
 50
0
  1
１２
  0
TEXT
  8
_0-0_図面枠
 62
    4
 10
369.36022150000008
 20
105.44999150000001
 40
3.2000000000000002
 41
1
 50
0
  1
１
  0
TEXT
  8
_0-0_図面枠
 62
    4
 10
349.27047700000014
 20
87.400003999999967
 40
3.2000000000000002
 41
1
 50
0
  1
３０００
  0
TEXT
  8
_0-0_図面枠
 62
    4
 10
369.36022150000008
 20
93.44999150000001
 40
3.2000000000000002
 41
1
 50
0
  1
６
  0
TEXT
  8
_0-0_図面枠
 62
    4
 10
349.27047700000014
 20
81.400003999999967
 40
3.2000000000000002
 41
1
 50
0
  1
３０００
  0
TEXT
  8
_0-0_図面枠
 62
    4
 10
369.36022150000008
 20
81.450002999999924
 40
3.2000000000000002
 41
1
 50
0
  1
１
  0
TEXT
  8
_0-0_図面枠
 62
    4
 10
248.4000075000001
 20
75.400003999999967
 40
3.2000000000000002
 41
1
 50
0
  1
止水補助板
  0
TEXT
  8
_0-0_図面枠
 62
    4
 10
377.00512500000013
 20
93.400004000000024
 40
3.2000000000000002
 41
1
 50
0
  1
個
  0
TEXT
  8
_0-0_図面枠
 62
    4
 10
369.36022150000008
 20
69.450002999999924
 40
3.2000000000000002
 41
1
 50
0
  1
６
  0
TEXT
  8
_0-0_図面枠
 62
    4
 10
248.4000075000001
 20
63.40000950000001
 40
3.2000000000000002
 41
1
 50
0
  1
ステンタッピンねじ
  0
TEXT
  8
_0-0_図面枠
 62
    4
 10
248.4000075000001
 20
57.40000950000001
 40
3.2000000000000002
 41
1
 50
0
  1
ステンワッシャー
  0
TEXT
  8
_0-0_図面枠
 62
    4
 10
369.36022150000008
 20
45.449997499999995
 40
3.2000000000000002
 41
1
 50
0
  1
２
  0
TEXT
  8
_0-0_図面枠
 62
    4
 10
377.00512500000013
 20
45.40000950000001
 40
3.2000000000000002
 41
1
 50
0
  1
本
  0
TEXT
  8
_0-0_図面枠
 62
    4
 10
366.27045750000013
 20
57.450008499999967
 40
3.2000000000000002
 41
1
 50
0
  1
１２
  0
TEXT
  8
_0-0_図面枠
 62
    4
 10
377.00512500000013
 20
69.399992499999996
 40
3.2000000000000002
 41
1
 50
0
  1
本
  0
TEXT
  8
_0-0_図面枠
 62
    4
 10
248.4000075000001
 20
93.400003999999967
 40
3.2000000000000002
 41
1
 50
0
  1
ＳＣＧばね(Ａ)
  0
TEXT
  8
_0-0_図面枠
 62
    4
 10
248.4000075000001
 20
87.400003999999967
 40
3.2000000000000002
 41
1
 50
0
  1
ＳＣＧばねフレーム
  0
TEXT
  8
_0-0_図面枠
 62
    4
 10
377.00512500000013
 20
57.40000950000001
 40
3.2000000000000002
 41
1
 50
0
  1
枚
  0
TEXT
  8
_0-0_図面枠
 62
    4
 10
177.00512500000002
 20
87.400003999999967
 40
3.2000000000000002
 41
1
 50
0
  1
本
  0
TEXT
  8
_0-0_図面枠
 62
    4
 10
177.00512500000002
 20
57.40000950000001
 40
3.2000000000000002
 41
1
 50
0
  1
枚
  0
TEXT
  8
_0-0_図面枠
 62
    4
 10
177.00512500000002
 20
63.399992499999996
 40
3.2000000000000002
 41
1
 50
0
  1
本
  0
TEXT
  8
_0-0_図面枠
 62
    4
 10
377.00512500000013
 20
63.399992499999996
 40
3.2000000000000002
 41
1
 50
0
  1
本
  0
TEXT
  8
_0-0_図面枠
 62
    4
 10
48.400007500000015
 20
105.40000399999997
 40
3.2000000000000002
 41
1
 50
0
  1
ＳＳＧキャップ(Ｂ)Ａ
  0
TEXT
  8
_0-0_図面枠
 62
    4
 10
48.400007500000015
 20
99.400003999999967
 40
3.2000000000000002
 41
1
 50
0
  1
ＳＳＧアーム(Ｂ)
  0
TEXT
  8
_0-0_図面枠
 62
    4
 10
48.400007500000015
 20
81.400003999999967
 40
3.2000000000000002
 41
1
 50
0
  1
ＳＳＧフレーム(Ｂ)
  0
TEXT
  8
_0-0_図面枠
 62
    4
 10
248.4000075000001
 20
105.40000399999997
 40
3.2000000000000002
 41
1
 50
0
  1
ＳＣＧキャップ(Ｂ)Ａ
  0
TEXT
  8
_0-0_図面枠
 62
    4
 10
248.4000075000001
 20
99.400003999999967
 40
3.2000000000000002
 41
1
 50
0
  1
ＳＣＧアーム(Ｂ)
  0
TEXT
  8
_0-0_図面枠
 62
    4
 10
248.4000075000001
 20
81.400003999999967
 40
3.2000000000000002
 41
1
 50
0
  1
ＳＳＧフレーム(Ｂ)
  0
TEXT
  8
_0-0_図面枠
 62
    4
 10
102.06669116666677
 20
63.40000950000001
 40
3.2000000000000002
 41
1
 50
0
  1
なべ５×５０
  0
TEXT
  8
_0-0_図面枠
 62
    4
 10
102.06663366666675
 20
57.400003999999996
 40
3.2000000000000002
 41
1
 50
0
  1
１．５×１８×５．５穴
  0
TEXT
  8
_0-0_図面枠
 62
    4
 10
102.06667966666674
 20
69.40000950000001
 40
3.2000000000000002
 41
1
 50
0
  1
４×１９
  0
TEXT
  8
_0-0_図面枠
 62
    4
 10
67.633333333333383
 20
114.00000000000003
 40
3.2000000000000002
 41
1
 50
0
  1
部材名称
  0
TEXT
  8
_0-0_図面枠
 62
    4
 10
119.10833333333338
 20
114.00000000000001
 40
3.2000000000000002
 41
1
 50
0
  1
規　格
  0
TEXT
  8
_0-0_図面枠
 62
    4
 10
269.30000000000001
 20
114
 40
3.2000000000000002
 41
1
 50
0
  1
部材名称
  0
TEXT
  8
_0-0_図面枠
 62
    4
 10
302.06669116666689
 20
63.40000950000001
 40
3.2000000000000002
 41
1
 50
0
  1
なべ５×５０
  0
TEXT
  8
_0-0_図面枠
 62
    4
 10
302.06663366666686
 20
57.400003999999996
 40
3.2000000000000002
 41
1
 50
0
  1
１．５×１８×５．５穴
  0
TEXT
  8
_0-0_図面枠
 62
    4
 10
302.06667966666686
 20
69.40000950000001
 40
3.2000000000000002
 41
1
 50
0
  1
４×１９
  0
TEXT
  8
_0-0_図面枠
 62
    4
 10
319.10833333333335
 20
114
 40
3.2000000000000002
 41
1
 50
0
  1
規　格
  0
TEXT
  8
_0-0_図面枠
 62
    4
 10
169.36022149999994
 20
99.44999150000001
 40
3.2000000000000002
 41
1
 50
0
  1
６
  0
TEXT
  8
_0-0_図面枠
 62
    4
 10
177.00512500000002
 20
99.400004000000024
 40
3.2000000000000002
 41
1
 50
0
  1
個
  0
TEXT
  8
_0-0_図面枠
 62
    4
 10
369.36022150000008
 20
99.449991499999953
 40
3.2000000000000002
 41
1
 50
0
  1
６
  0
TEXT
  8
_0-0_図面枠
 62
    4
 10
377.00512500000013
 20
99.400003999999967
 40
3.2000000000000002
 41
1
 50
0
  1
個
  0
TEXT
  8
_0-0_図面枠
 62
    4
 10
122.30833333333341
 20
105.60000000000007
 40
3.2000000000000002
 41
1
 50
0
  1
―
  0
TEXT
  8
_0-0_図面枠
 62
    4
 10
122.30833333333341
 20
93.600000000000065
 40
3.2000000000000002
 41
1
 50
0
  1
―
  0
TEXT
  8
_0-0_図面枠
 62
    4
 10
122.30833333333341
 20
87.600000000000065
 40
3.2000000000000002
 41
1
 50
0
  1
―
  0
TEXT
  8
_0-0_図面枠
 62
    4
 10
122.30833333333341
 20
81.600000000000065
 40
3.2000000000000002
 41
1
 50
0
  1
―
  0
TEXT
  8
_0-0_図面枠
 62
    4
 10
122.30833333333339
 20
45.599999999999994
 40
3.2000000000000002
 41
1
 50
0
  1
―
  0
TEXT
  8
_0-0_図面枠
 62
    4
 10
322.30833333333328
 20
105.60000000000001
 40
3.2000000000000002
 41
1
 50
0
  1
―
  0
TEXT
  8
_0-0_図面枠
 62
    4
 10
322.30833333333328
 20
93.600000000000009
 40
3.2000000000000002
 41
1
 50
0
  1
―
  0
TEXT
  8
_0-0_図面枠
 62
    4
 10
322.30833333333328
 20
87.600000000000009
 40
3.2000000000000002
 41
1
 50
0
  1
―
  0
TEXT
  8
_0-0_図面枠
 62
    4
 10
322.30833333333328
 20
81.600000000000009
 40
3.2000000000000002
 41
1
 50
0
  1
―
  0
TEXT
  8
_0-0_図面枠
 62
    4
 10
322.30833333333328
 20
45.599999999999994
 40
3.2000000000000002
 41
1
 50
0
  1
―
  0
TEXT
  8
_0-0_図面枠
 62
    4
 10
353.85000000000002
 20
93.599999999999994
 40
3.2000000000000002
 41
1
 50
0
  1
―
  0
TEXT
  8
_0-0_図面枠
 62
    4
 10
353.85000000000002
 20
69.599999999999994
 40
3.2000000000000002
 41
1
 50
0
  1
―
  0
TEXT
  8
_0-0_図面枠
 62
    4
 10
353.85000000000002
 20
63.599999999999994
 40
3.2000000000000002
 41
1
 50
0
  1
―
  0
TEXT
  8
_0-0_図面枠
 62
    4
 10
353.85000000000002
 20
57.599999999999994
 40
3.2000000000000002
 41
1
 50
0
  1
―
  0
TEXT
  8
_0-0_図面枠
 62
    4
 10
153.85000000000005
 20
93.600000000000051
 40
3.2000000000000002
 41
1
 50
0
  1
―
  0
TEXT
  8
_0-0_図面枠
 62
    4
 10
153.85000000000005
 20
69.599999999999994
 40
3.2000000000000002
 41
1
 50
0
  1
―
  0
TEXT
  8
_0-0_図面枠
 62
    4
 10
153.85000000000005
 20
63.599999999999994
 40
3.2000000000000002
 41
1
 50
0
  1
―
  0
TEXT
  8
_0-0_図面枠
 62
    4
 10
153.85000000000005
 20
57.599999999999994
 40
3.2000000000000002
 41
1
 50
0
  1
―
  0
TEXT
  8
_0-0_図面枠
 62
    4
 10
149.27047700000003
 20
75.400009499999996
 40
3.2000000000000002
 41
1
 50
0
  1
３１００
  0
TEXT
  8
_0-0_図面枠
 62
    4
 10
349.27047700000003
 20
75.400009499999996
 40
3.2000000000000002
 41
1
 50
0
  1
３１００
  0
TEXT
  8
_0-0_図面枠
 62
    4
 10
166.27045749999996
 20
51.450008499999967
 40
3.2000000000000002
 41
1
 50
0
  1
１２
  0
TEXT
  8
_0-0_図面枠
 62
    4
 10
177.00512500000002
 20
51.399992499999996
 40
3.2000000000000002
 41
1
 50
0
  1
本
  0
TEXT
  8
_0-0_図面枠
 62
    4
 10
153.85000000000002
 20
51.599999999999994
 40
3.2000000000000002
 41
1
 50
0
  1
―
  0
TEXT
  8
_0-0_図面枠
 62
    4
 10
102.06669116666673
 20
51.40000950000001
 40
3.2000000000000002
 41
1
 50
0
  1
φ８×４０
  0
TEXT
  8
_0-0_図面枠
 62
    4
 10
366.27045749999996
 20
51.450008499999953
 40
3.2000000000000002
 41
1
 50
0
  1
１２
  0
TEXT
  8
_0-0_図面枠
 62
    4
 10
377.00512500000002
 20
51.399992499999982
 40
3.2000000000000002
 41
1
 50
0
  1
本
  0
TEXT
  8
_0-0_図面枠
 62
    4
 10
353.85000000000002
 20
51.599999999999994
 40
3.2000000000000002
 41
1
 50
0
  1
―
  0
TEXT
  8
_0-0_図面枠
 62
    4
 10
302.06669116666671
 20
51.400009499999996
 40
3.2000000000000002
 41
1
 50
0
  1
φ８×４０
  0
TEXT
  8
_0-0_図面枠
 62
    4
 10
377.00512500000013
 20
87.399992499999996
 40
3.2000000000000002
 41
1
 50
0
  1
本
  0
TEXT
  8
_0-0_図面枠
 62
    4
 10
102.06669116666677
 20
99.400004000000024
 40
3.2000000000000002
 41
1
 50
0
  1
Ｌ＝１９０
  0
TEXT
  8
_0-0_図面枠
 62
    4
 10
153.85000000000005
 20
99.600000000000051
 40
3.2000000000000002
 41
1
 50
0
  1
―
  0
TEXT
  8
_0-0_図面枠
 62
    4
 10
353.85000000000002
 20
99.599999999999994
 40
3.2000000000000002
 41
1
 50
0
  1
―
  0
TEXT
  8
_0-0_図面枠
 62
    4
 10
102.06669116666677
 20
75.400003999999967
 40
3.2000000000000002
 41
1
 50
0
  1
ＦＳ３００
  0
TEXT
  8
_0-0_図面枠
 62
    4
 10
302.06669116666689
 20
75.400003999999967
 40
3.2000000000000002
 41
1
 50
0
  1
ＦＳ３００
  0
TEXT
  8
_0-0_図面枠
 62
    4
 10
369.36022150000008
 20
75.450002999999924
 40
3.2000000000000002
 41
1
 50
0
  1
１
  0
TEXT
  8
_0-0_図面枠
 62
    4
 10
377.00512500000013
 20
75.399992499999996
 40
3.2000000000000002
 41
1
 50
0
  1
枚
  0
TEXT
  8
_0-0_図面枠
 62
    4
 10
169.36022149999994
 20
75.450002999999924
 40
3.2000000000000002
 41
1
 50
0
  1
１
  0
TEXT
  8
_0-0_図面枠
 62
    4
 10
177.00512500000002
 20
75.399992499999996
 40
3.2000000000000002
 41
1
 50
0
  1
枚
  0
TEXT
  8
_0-0_図面枠
 62
    4
 10
302.06669116666671
 20
99.400003999999967
 40
3.2000000000000002
 41
1
 50
0
  1
Ｌ＝１２２
  0
TEXT
  8
_0-0_図面枠
 62
    4
 10
41.666666666666686
 20
128
 40
3
 41
1
 50
0
  1
（落下防止ワイヤー）
  0
INSERT
  2
-011-_11_
  8
_1-8_小物
 10
210
 20
148.5
 41
1
 42
1
 50
0
  0
LINE
  8
_1-8_小物
  6
CONTINUOUS
 62
    4
 10
157.03985321657842
 20
131.84018902839435
 11
151.17656837665947
 21
130.18752043233465
  0
LINE
  8
_1-8_小物
  6
CONTINUOUS
 62
    4
 10
157.16066740562403
 20
131.35707331101597
 11
151.24647145802518
 21
129.68796469593613
  0
LINE
  8
_1-8_小物
  6
CONTINUOUS
 62
    4
 10
157.03985321657842
 20
127.15981097160562
 11
151.17656837665947
 21
128.81247956766532
  0
LINE
  8
_1-8_小物
  6
CONTINUOUS
 62
    4
 10
157.16066740562403
 20
127.64292668898401
 11
151.24647145802518
 21
129.31203530406384
  0
LINE
  8
_1-8_小物
  6
CONTINUOUS
 62
    4
 10
157.1606675134222
 20
127.64292665856117
 11
157.1606675134222
 21
127.64292665856117
  0
LINE
  8
_1-8_小物
  6
CONTINUOUS
 62
    4
 10
157.1606675134222
 20
127.64292665856117
 11
157.6334904430544
 21
127.54220923628057
  0
LINE
  8
_1-8_小物
  6
CONTINUOUS
 62
    4
 10
157.6334904430544
 20
127.54220923628057
 11
158.1239067754791
 21
127.50097829566566
  0
LINE
  8
_1-8_小物
  6
CONTINUOUS
 62
    4
 10
158.1239067754791
 20
127.50097829566566
 11
158.61701545859825
 21
127.52048661798315
  0
LINE
  8
_1-8_小物
  6
CONTINUOUS
 62
    4
 10
158.61701545859825
 20
127.52048661798315
 11
159.09783363460025
 21
127.60014145273114
  0
LINE
  8
_1-8_小物
  6
CONTINUOUS
 62
    4
 10
159.09783363460025
 20
127.60014145273114
 11
159.55175188651307
 21
127.73752252806307
  0
LINE
  8
_1-8_小物
  6
CONTINUOUS
 62
    4
 10
159.55175188651307
 20
127.73752252806307
 11
159.96497813794605
 21
127.92845558952315
  0
LINE
  8
_1-8_小物
  6
CONTINUOUS
 62
    4
 10
159.96497813794605
 20
127.92845558952315
 11
160.32495671835193
 21
128.16713923265576
  0
LINE
  8
_1-8_小物
  6
CONTINUOUS
 62
    4
 10
160.32495671835193
 20
128.16713923265576
 11
160.62074986072309
 21
128.446321175744
  0
LINE
  8
_1-8_小物
  6
CONTINUOUS
 62
    4
 10
160.62074986072309
 20
128.446321175744
 11
160.84337004010709
 21
128.75751861672009
  0
LINE
  8
_1-8_小物
  6
CONTINUOUS
 62
    4
 10
160.84337004010709
 20
128.75751861672009
 11
160.98605305500459
 21
129.0912759788134
  0
LINE
  8
_1-8_小物
  6
CONTINUOUS
 62
    4
 10
160.98605305500459
 20
129.0912759788134
 11
161.04446355420905
 21
129.43745221346614
  0
LINE
  8
_1-8_小物
  6
CONTINUOUS
 62
    4
 10
161.04446355420905
 20
129.43745221346614
 11
161.01682676425926
 21
129.78552893096199
  0
LINE
  8
_1-8_小物
  6
CONTINUOUS
 62
    4
 10
161.01682676425926
 20
129.78552893096199
 11
160.90398241503294
 21
130.12492999637519
  0
LINE
  8
_1-8_小物
  6
CONTINUOUS
 62
    4
 10
160.90398241503294
 20
130.12492999637519
 11
160.70935922497938
 21
130.44534288007836
  0
LINE
  8
_1-8_小物
  6
CONTINUOUS
 62
    4
 10
160.70935922497938
 20
130.44534288007836
 11
160.43887072124426
 21
130.73703199873694
  0
LINE
  8
_1-8_小物
  6
CONTINUOUS
 62
    4
 10
160.43887072124426
 20
130.73703199873694
 11
160.10073556013975
 21
130.99113452608228
  0
LINE
  8
_1-8_小物
  6
CONTINUOUS
 62
    4
 10
160.10073556013975
 20
130.99113452608228
 11
159.70522780743138
 21
131.19992968540308
  0
LINE
  8
_1-8_小物
  6
CONTINUOUS
 62
    4
 10
159.70522780743138
 20
131.19992968540308
 11
159.26436476604863
 21
131.35707334143885
  0
LINE
  8
_1-8_小物
  6
CONTINUOUS
 62
    4
 10
159.26436476604863
 20
131.35707334143885
 11
158.79154183641643
 21
131.45779076371943
  0
LINE
  8
_1-8_小物
  6
CONTINUOUS
 62
    4
 10
158.79154183641643
 20
131.45779076371943
 11
158.30112550399173
 21
131.49902170433435
  0
LINE
  8
_1-8_小物
  6
CONTINUOUS
 62
    4
 10
158.30112550399173
 20
131.49902170433435
 11
157.80801682087258
 21
131.47951338201685
  0
LINE
  8
_1-8_小物
  6
CONTINUOUS
 62
    4
 10
157.80801682087258
 20
131.47951338201685
 11
157.32719864487058
 21
131.39985854726888
  0
LINE
  8
_1-8_小物
  6
CONTINUOUS
 62
    4
 10
157.32719864487058
 20
131.39985854726888
 11
157.160667405624
 21
131.35707331101594
  0
LINE
  8
_1-8_小物
  6
CONTINUOUS
 62
    4
 10
157.039853303781
 20
127.15981094702609
 11
157.039853303781
 21
127.15981094702609
  0
LINE
  8
_1-8_小物
  6
CONTINUOUS
 62
    4
 10
157.039853303781
 20
127.15981094702609
 11
157.5994947731449
 21
127.04264060375607
  0
LINE
  8
_1-8_小物
  6
CONTINUOUS
 62
    4
 10
157.5994947731449
 20
127.04264060375607
 11
158.1777625865289
 21
127.00013588225708
  0
LINE
  8
_1-8_小物
  6
CONTINUOUS
 62
    4
 10
158.1777625865289
 20
127.00013588225708
 11
158.75708636904091
 21
127.03358826698343
  0
LINE
  8
_1-8_小物
  6
CONTINUOUS
 62
    4
 10
158.75708636904091
 20
127.03358826698343
 11
159.31986366070132
 21
127.14198132415292
  0
LINE
  8
_1-8_小物
  6
CONTINUOUS
 62
    4
 10
159.31986366070132
 20
127.14198132415292
 11
159.84899475828206
 21
127.32202158557301
  0
LINE
  8
_1-8_小物
  6
CONTINUOUS
 62
    4
 10
159.84899475828206
 20
127.32202158557301
 11
160.32840228113639
 21
127.56823861900521
  0
LINE
  8
_1-8_小物
  6
CONTINUOUS
 62
    4
 10
160.32840228113639
 20
127.56823861900521
 11
160.74351967427432
 21
127.87315124448051
  0
LINE
  8
_1-8_小物
  6
CONTINUOUS
 62
    4
 10
160.74351967427432
 20
127.87315124448051
 11
161.08173380576486
 21
128.22749484616708
  0
LINE
  8
_1-8_小物
  6
CONTINUOUS
 62
    4
 10
161.08173380576486
 20
128.22749484616708
 11
161.33276821036728
 21
128.62050287303418
  0
LINE
  8
_1-8_小物
  6
CONTINUOUS
 62
    4
 10
161.33276821036728
 20
128.62050287303418
 11
161.48899533472729
 21
129.04023397505711
  0
LINE
  8
_1-8_小物
  6
CONTINUOUS
 62
    4
 10
161.48899533472729
 20
129.04023397505711
 11
161.54566829672595
 21
129.47393483509512
  0
LINE
  8
_1-8_小物
  6
CONTINUOUS
 62
    4
 10
161.54566829672595
 20
129.47393483509512
 11
161.5010651170908
 21
129.90842767197913
  0
LINE
  8
_1-8_小物
  6
CONTINUOUS
 62
    4
 10
161.5010651170908
 20
129.90842767197913
 11
161.35654104086481
 21
130.33051064072444
  0
LINE
  8
_1-8_小物
  6
CONTINUOUS
 62
    4
 10
161.35654104086481
 20
130.33051064072444
 11
161.11648735897137
 21
130.72735896391001
  0
LINE
  8
_1-8_小物
  6
CONTINUOUS
 62
    4
 10
161.11648735897137
 20
130.72735896391001
 11
160.78819798106178
 21
131.08691460605075
  0
LINE
  8
_1-8_小物
  6
CONTINUOUS
 62
    4
 10
160.78819798106178
 20
131.08691460605075
 11
160.38164781376139
 21
131.3982526509042
  0
LINE
  8
_1-8_小物
  6
CONTINUOUS
 62
    4
 10
160.38164781376139
 20
131.3982526509042
 11
159.9091896781793
 21
131.6519132495221
  0
LINE
  8
_1-8_小物
  6
CONTINUOUS
 62
    4
 10
159.9091896781793
 20
131.6519132495221
 11
159.38517897568983
 21
131.84018905297393
  0
LINE
  8
_1-8_小物
  6
CONTINUOUS
 62
    4
 10
159.38517897568983
 20
131.84018905297393
 11
158.82553750632593
 21
131.95735939624393
  0
LINE
  8
_1-8_小物
  6
CONTINUOUS
 62
    4
 10
158.82553750632593
 20
131.95735939624393
 11
158.24726969294193
 21
131.99986411774293
  0
LINE
  8
_1-8_小物
  6
CONTINUOUS
 62
    4
 10
158.24726969294193
 20
131.99986411774293
 11
157.66794591042992
 21
131.96641173301657
  0
LINE
  8
_1-8_小物
  6
CONTINUOUS
 62
    4
 10
157.66794591042992
 20
131.96641173301657
 11
157.10516861876951
 21
131.85801867584706
  0
LINE
  8
_1-8_小物
  6
CONTINUOUS
 62
    4
 10
157.10516861876951
 20
131.85801867584706
 11
157.03985321657842
 21
131.84018902839435
  0
ARC
  8
_1-8_小物
  6
CONTINUOUS
 62
    4
 10
149.88841540894515
 20
124.49999999999997
 40
5
 50
74.23983426036601
 51
82.444482010074083
  0
ARC
  8
_1-8_小物
  6
CONTINUOUS
 62
    4
 10
149.82008748449641
 20
123.99999999999997
 40
5
 50
74.258588419679057
 51
81.653895699843488
  0
ARC
  8
_1-8_小物
  6
CONTINUOUS
 62
    4
 10
149.82008748449641
 20
135
 40
5
 50
278.34610430015653
 51
285.74141158032086
  0
ARC
  8
_1-8_小物
  6
CONTINUOUS
 62
    4
 10
149.88841540894515
 20
134.5
 40
5
 50
277.55551798992593
 51
285.76016573963392
  0
INSERT
  2
-012-_12_
  8
_1-8_小物
 10
210
 20
148.5
 41
1
 42
1
 50
0
  0
LINE
  8
_1-8_小物
  6
CONTINUOUS
 62
    4
 10
82.718512396225748
 20
131.84018902839435
 11
88.581797236144695
 21
130.18752043233465
  0
LINE
  8
_1-8_小物
  6
CONTINUOUS
 62
    4
 10
82.597698207180116
 20
131.35707331101597
 11
88.511894154779
 21
129.68796469593613
  0
LINE
  8
_1-8_小物
  6
CONTINUOUS
 62
    4
 10
82.718512396225748
 20
127.15981097160562
 11
88.581797236144695
 21
128.81247956766532
  0
LINE
  8
_1-8_小物
  6
CONTINUOUS
 62
    4
 10
82.597698207180116
 20
127.64292668898401
 11
88.511894154779
 21
129.31203530406384
  0
LINE
  8
_1-8_小物
  6
CONTINUOUS
 62
    4
 10
82.597698207180201
 20
131.35707331101594
 11
82.597698207180201
 21
131.35707331101594
  0
LINE
  8
_1-8_小物
  6
CONTINUOUS
 62
    4
 10
82.597698207180201
 20
131.35707331101594
 11
82.124875283394388
 21
131.45779074697211
  0
LINE
  8
_1-8_小物
  6
CONTINUOUS
 62
    4
 10
82.124875283394388
 20
131.45779074697211
 11
81.634458953363037
 21
131.49902170177148
  0
LINE
  8
_1-8_小物
  6
CONTINUOUS
 62
    4
 10
81.634458953363037
 20
131.49902170177148
 11
81.141350269111499
 21
131.47951339371627
  0
LINE
  8
_1-8_小物
  6
CONTINUOUS
 62
    4
 10
81.141350269111499
 20
131.47951339371627
 11
80.660532088485724
 21
131.39985857287513
  0
LINE
  8
_1-8_小物
  6
CONTINUOUS
 62
    4
 10
80.660532088485724
 20
131.39985857287513
 11
80.206613828598293
 21
131.262477510672
  0
LINE
  8
_1-8_小物
  6
CONTINUOUS
 62
    4
 10
80.206613828598293
 20
131.262477510672
 11
79.79338756608216
 21
131.07154446116377
  0
LINE
  8
_1-8_小物
  6
CONTINUOUS
 62
    4
 10
79.79338756608216
 20
131.07154446116377
 11
79.433408971821308
 21
130.8328608284429
  0
LINE
  8
_1-8_小物
  6
CONTINUOUS
 62
    4
 10
79.433408971821308
 20
130.8328608284429
 11
79.137615813244381
 21
130.55367889390996
  0
LINE
  8
_1-8_小物
  6
CONTINUOUS
 62
    4
 10
79.137615813244381
 20
130.55367889390996
 11
78.914995615796187
 21
130.24248145937278
  0
LINE
  8
_1-8_小物
  6
CONTINUOUS
 62
    4
 10
78.914995615796187
 20
130.24248145937278
 11
78.772312581524943
 21
129.90872410140634
  0
LINE
  8
_1-8_小物
  6
CONTINUOUS
 62
    4
 10
78.772312581524943
 20
129.90872410140634
 11
78.71390206222587
 21
129.56254786844303
  0
LINE
  8
_1-8_小物
  6
CONTINUOUS
 62
    4
 10
78.71390206222587
 20
129.56254786844303
 11
78.741538831970715
 21
129.2144711501478
  0
LINE
  8
_1-8_小物
  6
CONTINUOUS
 62
    4
 10
78.741538831970715
 20
129.2144711501478
 11
78.854383161495676
 21
128.8750700814708
  0
LINE
  8
_1-8_小物
  6
CONTINUOUS
 62
    4
 10
78.854383161495676
 20
128.8750700814708
 11
79.0490063329501
 21
128.55465719213848
  0
LINE
  8
_1-8_小物
  6
CONTINUOUS
 62
    4
 10
79.0490063329501
 20
128.55465719213848
 11
79.319494819753459
 21
128.26296806565651
  0
LINE
  8
_1-8_小物
  6
CONTINUOUS
 62
    4
 10
79.319494819753459
 20
128.26296806565651
 11
79.657629966107976
 21
128.0088655285312
  0
LINE
  8
_1-8_小物
  6
CONTINUOUS
 62
    4
 10
79.657629966107976
 20
128.0088655285312
 11
80.053137706696333
 21
127.80007035777102
  0
LINE
  8
_1-8_小物
  6
CONTINUOUS
 62
    4
 10
80.053137706696333
 20
127.80007035777102
 11
80.494000738957297
 21
127.64292668898406
  0
LINE
  8
_1-8_小物
  6
CONTINUOUS
 62
    4
 10
80.494000738957297
 20
127.64292668898406
 11
80.96682366274311
 21
127.54220925302788
  0
LINE
  8
_1-8_小物
  6
CONTINUOUS
 62
    4
 10
80.96682366274311
 20
127.54220925302788
 11
81.457239992774475
 21
127.50097829822853
  0
LINE
  8
_1-8_小物
  6
CONTINUOUS
 62
    4
 10
81.457239992774475
 20
127.50097829822853
 11
81.950348677026014
 21
127.52048660628371
  0
LINE
  8
_1-8_小物
  6
CONTINUOUS
 62
    4
 10
81.950348677026014
 20
127.52048660628371
 11
82.431166857651789
 21
127.60014142712487
  0
LINE
  8
_1-8_小物
  6
CONTINUOUS
 62
    4
 10
82.431166857651789
 20
127.60014142712487
 11
82.597698099381958
 21
127.64292665856115
  0
LINE
  8
_1-8_小物
  6
CONTINUOUS
 62
    4
 10
82.718512396225748
 20
131.84018902839435
 11
82.718512396225748
 21
131.84018902839435
  0
LINE
  8
_1-8_小物
  6
CONTINUOUS
 62
    4
 10
82.718512396225748
 20
131.84018902839435
 11
82.158870931227966
 21
131.9573593833947
  0
LINE
  8
_1-8_小物
  6
CONTINUOUS
 62
    4
 10
82.158870931227966
 20
131.9573593833947
 11
81.580603119427835
 21
131.99986411701445
  0
LINE
  8
_1-8_小物
  6
CONTINUOUS
 62
    4
 10
81.580603119427835
 20
131.99986411701445
 11
81.001279335669281
 21
131.96641174443101
  0
LINE
  8
_1-8_小物
  6
CONTINUOUS
 62
    4
 10
81.001279335669281
 20
131.96641174443101
 11
80.438502039969819
 21
131.8580186990576
  0
LINE
  8
_1-8_小物
  6
CONTINUOUS
 62
    4
 10
80.438502039969819
 20
131.8580186990576
 11
79.909370935680229
 21
131.67797844872834
  0
LINE
  8
_1-8_小物
  6
CONTINUOUS
 62
    4
 10
79.909370935680229
 20
131.67797844872834
 11
79.429963403651087
 21
131.43176142534475
  0
LINE
  8
_1-8_小物
  6
CONTINUOUS
 62
    4
 10
79.429963403651087
 20
131.43176142534475
 11
79.014845999151206
 21
131.12684880857049
  0
LINE
  8
_1-8_小物
  6
CONTINUOUS
 62
    4
 10
79.014845999151206
 20
131.12684880857049
 11
78.676631854456744
 21
130.77250521397306
  0
LINE
  8
_1-8_小物
  6
CONTINUOUS
 62
    4
 10
78.676631854456744
 20
130.77250521397306
 11
78.425597435209639
 21
130.37949719236775
  0
LINE
  8
_1-8_小物
  6
CONTINUOUS
 62
    4
 10
78.425597435209639
 20
130.37949719236775
 11
78.269370295209171
 21
129.95976609361941
  0
LINE
  8
_1-8_小物
  6
CONTINUOUS
 62
    4
 10
78.269370295209171
 20
129.95976609361941
 11
78.212697317049489
 21
129.52606523476931
  0
LINE
  8
_1-8_小物
  6
CONTINUOUS
 62
    4
 10
78.212697317049489
 20
129.52606523476931
 11
78.257300480494095
 21
129.0915723969504
  0
LINE
  8
_1-8_小物
  6
CONTINUOUS
 62
    4
 10
78.257300480494095
 20
129.0915723969504
 11
78.401824540991996
 21
128.66948942517578
  0
LINE
  8
_1-8_小物
  6
CONTINUOUS
 62
    4
 10
78.401824540991996
 20
128.66948942517578
 11
78.641878208097665
 21
128.27264109695858
  0
LINE
  8
_1-8_小物
  6
CONTINUOUS
 62
    4
 10
78.641878208097665
 20
128.27264109695858
 11
78.970167572609114
 21
127.91308544793674
  0
LINE
  8
_1-8_小物
  6
CONTINUOUS
 62
    4
 10
78.970167572609114
 20
127.91308544793674
 11
79.376717728308108
 21
127.60174739456183
  0
LINE
  8
_1-8_小物
  6
CONTINUOUS
 62
    4
 10
79.376717728308108
 20
127.60174739456183
 11
79.849175854438016
 21
127.34808678604097
  0
LINE
  8
_1-8_小物
  6
CONTINUOUS
 62
    4
 10
79.849175854438016
 20
127.34808678604097
 11
80.37318654991175
 21
127.15981097160564
  0
LINE
  8
_1-8_小物
  6
CONTINUOUS
 62
    4
 10
80.37318654991175
 20
127.15981097160564
 11
80.932828014909546
 21
127.04264061660528
  0
LINE
  8
_1-8_小物
  6
CONTINUOUS
 62
    4
 10
80.932828014909546
 20
127.04264061660528
 11
81.511095826709678
 21
127.00013588298553
  0
LINE
  8
_1-8_小物
  6
CONTINUOUS
 62
    4
 10
81.511095826709678
 20
127.00013588298553
 11
82.090419610468231
 21
127.03358825556899
  0
LINE
  8
_1-8_小物
  6
CONTINUOUS
 62
    4
 10
82.090419610468231
 20
127.03358825556899
 11
82.653196906167693
 21
127.1419813009424
  0
LINE
  8
_1-8_小物
  6
CONTINUOUS
 62
    4
 10
82.653196906167693
 20
127.1419813009424
 11
82.718512309023168
 21
127.15981094702607
  0
ARC
  8
_1-8_小物
  6
CONTINUOUS
 62
    4
 10
89.869950203859005
 20
124.49999999999997
 40
5
 50
97.555517989925761
 51
105.76016573963415
  0
ARC
  8
_1-8_小物
  6
CONTINUOUS
 62
    4
 10
89.938278128307758
 20
123.99999999999997
 40
5
 50
98.346104300156512
 51
105.74141158032096
  0
ARC
  8
_1-8_小物
  6
CONTINUOUS
 62
    4
 10
89.938278128307758
 20
135
 40
5
 50
254.25858841967909
 51
261.65389569984347
  0
ARC
  8
_1-8_小物
  6
CONTINUOUS
 62
    4
 10
89.869950203859005
 20
134.5
 40
5
 50
254.23983426036591
 51
262.44448201007424
  0
LINE
  8
_1-8_小物
  6
CONTINUOUS
 62
    4
 10
91.879182806402085
 20
129.24999999999997
 11
118.21251613973541
 21
129.24999999999997
  0
LINE
  8
_1-8_小物
  6
CONTINUOUS
 62
    4
 10
91.879182806402085
 20
129.75
 11
118.21251613973541
 21
129.75
  0
LINE
  8
_1-8_小物
  6
CONTINUOUS
 62
    4
 10
147.87918280640207
 20
129.24999999999997
 11
121.54584947306876
 21
129.24999999999997
  0
LINE
  8
_1-8_小物
  6
CONTINUOUS
 62
    4
 10
147.87918280640207
 20
129.75
 11
121.54584947306876
 21
129.75
  0
TEXT
  8
_0-0_図面枠
 62
    4
 10
241.66666666666663
 20
128
 40
3
 41
1
 50
0
  1
（落下防止ワイヤー）
  0
INSERT
  2
-013-_13_
  8
_1-8_小物
 10
210
 20
148.5
 41
1
 42
1
 50
0
  0
LINE
  8
_1-8_小物
  6
CONTINUOUS
 62
    4
 10
357.03985321657842
 20
131.84018902839435
 11
351.17656837665947
 21
130.18752043233465
  0
LINE
  8
_1-8_小物
  6
CONTINUOUS
 62
    4
 10
357.16066740562405
 20
131.35707331101597
 11
351.24647145802516
 21
129.68796469593613
  0
LINE
  8
_1-8_小物
  6
CONTINUOUS
 62
    4
 10
357.03985321657842
 20
127.15981097160562
 11
351.17656837665947
 21
128.81247956766532
  0
LINE
  8
_1-8_小物
  6
CONTINUOUS
 62
    4
 10
357.16066740562405
 20
127.64292668898401
 11
351.24647145802516
 21
129.31203530406384
  0
LINE
  8
_1-8_小物
  6
CONTINUOUS
 62
    4
 10
357.1606675134222
 20
127.64292665856115
 11
357.1606675134222
 21
127.64292665856115
  0
LINE
  8
_1-8_小物
  6
CONTINUOUS
 62
    4
 10
357.1606675134222
 20
127.64292665856115
 11
357.63349044305437
 21
127.54220923628056
  0
LINE
  8
_1-8_小物
  6
CONTINUOUS
 62
    4
 10
357.63349044305437
 20
127.54220923628056
 11
358.1239067754791
 21
127.50097829566566
  0
LINE
  8
_1-8_小物
  6
CONTINUOUS
 62
    4
 10
358.1239067754791
 20
127.50097829566566
 11
358.61701545859825
 21
127.52048661798315
  0
LINE
  8
_1-8_小物
  6
CONTINUOUS
 62
    4
 10
358.61701545859825
 20
127.52048661798315
 11
359.09783363460025
 21
127.60014145273114
  0
LINE
  8
_1-8_小物
  6
CONTINUOUS
 62
    4
 10
359.09783363460025
 20
127.60014145273114
 11
359.55175188651305
 21
127.73752252806307
  0
LINE
  8
_1-8_小物
  6
CONTINUOUS
 62
    4
 10
359.55175188651305
 20
127.73752252806307
 11
359.96497813794605
 21
127.92845558952317
  0
LINE
  8
_1-8_小物
  6
CONTINUOUS
 62
    4
 10
359.96497813794605
 20
127.92845558952317
 11
360.32495671835193
 21
128.16713923265576
  0
LINE
  8
_1-8_小物
  6
CONTINUOUS
 62
    4
 10
360.32495671835193
 20
128.16713923265576
 11
360.62074986072309
 21
128.44632117574403
  0
LINE
  8
_1-8_小物
  6
CONTINUOUS
 62
    4
 10
360.62074986072309
 20
128.44632117574403
 11
360.84337004010706
 21
128.75751861672009
  0
LINE
  8
_1-8_小物
  6
CONTINUOUS
 62
    4
 10
360.84337004010706
 20
128.75751861672009
 11
360.98605305500456
 21
129.09127597881343
  0
LINE
  8
_1-8_小物
  6
CONTINUOUS
 62
    4
 10
360.98605305500456
 20
129.09127597881343
 11
361.04446355420902
 21
129.43745221346614
  0
LINE
  8
_1-8_小物
  6
CONTINUOUS
 62
    4
 10
361.04446355420902
 20
129.43745221346614
 11
361.01682676425924
 21
129.78552893096202
  0
LINE
  8
_1-8_小物
  6
CONTINUOUS
 62
    4
 10
361.01682676425924
 20
129.78552893096202
 11
360.90398241503294
 21
130.12492999637522
  0
LINE
  8
_1-8_小物
  6
CONTINUOUS
 62
    4
 10
360.90398241503294
 20
130.12492999637522
 11
360.70935922497932
 21
130.44534288007839
  0
LINE
  8
_1-8_小物
  6
CONTINUOUS
 62
    4
 10
360.70935922497932
 20
130.44534288007839
 11
360.4388707212442
 21
130.73703199873694
  0
LINE
  8
_1-8_小物
  6
CONTINUOUS
 62
    4
 10
360.4388707212442
 20
130.73703199873694
 11
360.1007355601397
 21
130.99113452608228
  0
LINE
  8
_1-8_小物
  6
CONTINUOUS
 62
    4
 10
360.1007355601397
 20
130.99113452608228
 11
359.70522780743136
 21
131.19992968540308
  0
LINE
  8
_1-8_小物
  6
CONTINUOUS
 62
    4
 10
359.70522780743136
 20
131.19992968540308
 11
359.26436476604857
 21
131.35707334143885
  0
LINE
  8
_1-8_小物
  6
CONTINUOUS
 62
    4
 10
359.26436476604857
 20
131.35707334143885
 11
358.7915418364164
 21
131.45779076371943
  0
LINE
  8
_1-8_小物
  6
CONTINUOUS
 62
    4
 10
358.7915418364164
 20
131.45779076371943
 11
358.30112550399167
 21
131.49902170433435
  0
LINE
  8
_1-8_小物
  6
CONTINUOUS
 62
    4
 10
358.30112550399167
 20
131.49902170433435
 11
357.80801682087252
 21
131.47951338201685
  0
LINE
  8
_1-8_小物
  6
CONTINUOUS
 62
    4
 10
357.80801682087252
 20
131.47951338201685
 11
357.32719864487052
 21
131.39985854726888
  0
LINE
  8
_1-8_小物
  6
CONTINUOUS
 62
    4
 10
357.32719864487052
 20
131.39985854726888
 11
357.16066740562394
 21
131.35707331101594
  0
LINE
  8
_1-8_小物
  6
CONTINUOUS
 62
    4
 10
357.039853303781
 20
127.15981094702607
 11
357.039853303781
 21
127.15981094702607
  0
LINE
  8
_1-8_小物
  6
CONTINUOUS
 62
    4
 10
357.039853303781
 20
127.15981094702607
 11
357.5994947731449
 21
127.04264060375607
  0
LINE
  8
_1-8_小物
  6
CONTINUOUS
 62
    4
 10
357.5994947731449
 20
127.04264060375607
 11
358.1777625865289
 21
127.00013588225708
  0
LINE
  8
_1-8_小物
  6
CONTINUOUS
 62
    4
 10
358.1777625865289
 20
127.00013588225708
 11
358.75708636904091
 21
127.03358826698343
  0
LINE
  8
_1-8_小物
  6
CONTINUOUS
 62
    4
 10
358.75708636904091
 20
127.03358826698343
 11
359.31986366070134
 21
127.14198132415294
  0
LINE
  8
_1-8_小物
  6
CONTINUOUS
 62
    4
 10
359.31986366070134
 20
127.14198132415294
 11
359.84899475828206
 21
127.32202158557303
  0
LINE
  8
_1-8_小物
  6
CONTINUOUS
 62
    4
 10
359.84899475828206
 20
127.32202158557303
 11
360.32840228113639
 21
127.56823861900523
  0
LINE
  8
_1-8_小物
  6
CONTINUOUS
 62
    4
 10
360.32840228113639
 20
127.56823861900523
 11
360.7435196742743
 21
127.87315124448052
  0
LINE
  8
_1-8_小物
  6
CONTINUOUS
 62
    4
 10
360.7435196742743
 20
127.87315124448052
 11
361.08173380576483
 21
128.2274948461671
  0
LINE
  8
_1-8_小物
  6
CONTINUOUS
 62
    4
 10
361.08173380576483
 20
128.2274948461671
 11
361.33276821036725
 21
128.62050287303421
  0
LINE
  8
_1-8_小物
  6
CONTINUOUS
 62
    4
 10
361.33276821036725
 20
128.62050287303421
 11
361.48899533472729
 21
129.04023397505713
  0
LINE
  8
_1-8_小物
  6
CONTINUOUS
 62
    4
 10
361.48899533472729
 20
129.04023397505713
 11
361.54566829672592
 21
129.47393483509512
  0
LINE
  8
_1-8_小物
  6
CONTINUOUS
 62
    4
 10
361.54566829672592
 20
129.47393483509512
 11
361.50106511709077
 21
129.90842767197915
  0
LINE
  8
_1-8_小物
  6
CONTINUOUS
 62
    4
 10
361.50106511709077
 20
129.90842767197915
 11
361.35654104086478
 21
130.33051064072447
  0
LINE
  8
_1-8_小物
  6
CONTINUOUS
 62
    4
 10
361.35654104086478
 20
130.33051064072447
 11
361.11648735897131
 21
130.72735896391001
  0
LINE
  8
_1-8_小物
  6
CONTINUOUS
 62
    4
 10
361.11648735897131
 20
130.72735896391001
 11
360.78819798106173
 21
131.08691460605075
  0
LINE
  8
_1-8_小物
  6
CONTINUOUS
 62
    4
 10
360.78819798106173
 20
131.08691460605075
 11
360.38164781376133
 21
131.3982526509042
  0
LINE
  8
_1-8_小物
  6
CONTINUOUS
 62
    4
 10
360.38164781376133
 20
131.3982526509042
 11
359.90918967817925
 21
131.6519132495221
  0
LINE
  8
_1-8_小物
  6
CONTINUOUS
 62
    4
 10
359.90918967817925
 20
131.6519132495221
 11
359.38517897568977
 21
131.84018905297393
  0
LINE
  8
_1-8_小物
  6
CONTINUOUS
 62
    4
 10
359.38517897568977
 20
131.84018905297393
 11
358.82553750632587
 21
131.95735939624393
  0
LINE
  8
_1-8_小物
  6
CONTINUOUS
 62
    4
 10
358.82553750632587
 20
131.95735939624393
 11
358.24726969294187
 21
131.99986411774293
  0
LINE
  8
_1-8_小物
  6
CONTINUOUS
 62
    4
 10
358.24726969294187
 20
131.99986411774293
 11
357.66794591042986
 21
131.96641173301657
  0
LINE
  8
_1-8_小物
  6
CONTINUOUS
 62
    4
 10
357.66794591042986
 20
131.96641173301657
 11
357.10516861876948
 21
131.85801867584706
  0
LINE
  8
_1-8_小物
  6
CONTINUOUS
 62
    4
 10
357.10516861876948
 20
131.85801867584706
 11
357.03985321657842
 21
131.84018902839438
  0
ARC
  8
_1-8_小物
  6
CONTINUOUS
 62
    4
 10
349.88841540894515
 20
124.49999999999997
 40
5
 50
74.239834260366322
 51
82.444482010074083
  0
ARC
  8
_1-8_小物
  6
CONTINUOUS
 62
    4
 10
349.82008748449636
 20
123.99999999999997
 40
5
 50
74.258588419678418
 51
81.653895699842849
  0
ARC
  8
_1-8_小物
  6
CONTINUOUS
 62
    4
 10
349.82008748449636
 20
135
 40
5
 50
278.34610430015715
 51
285.7414115803216
  0
ARC
  8
_1-8_小物
  6
CONTINUOUS
 62
    4
 10
349.88841540894515
 20
134.5
 40
5
 50
277.55551798992593
 51
285.76016573963363
  0
INSERT
  2
-014-_14_
  8
_1-8_小物
 10
210
 20
148.5
 41
1
 42
1
 50
0
  0
LINE
  8
_1-8_小物
  6
CONTINUOUS
 62
    4
 10
282.71851239622572
 20
131.84018902839435
 11
288.58179723614467
 21
130.18752043233465
  0
LINE
  8
_1-8_小物
  6
CONTINUOUS
 62
    4
 10
282.59769820718009
 20
131.35707331101597
 11
288.51189415477899
 21
129.68796469593613
  0
LINE
  8
_1-8_小物
  6
CONTINUOUS
 62
    4
 10
282.71851239622572
 20
127.15981097160562
 11
288.58179723614467
 21
128.81247956766532
  0
LINE
  8
_1-8_小物
  6
CONTINUOUS
 62
    4
 10
282.59769820718009
 20
127.64292668898401
 11
288.51189415477899
 21
129.31203530406384
  0
LINE
  8
_1-8_小物
  6
CONTINUOUS
 62
    4
 10
282.5976982071802
 20
131.35707331101594
 11
282.5976982071802
 21
131.35707331101594
  0
LINE
  8
_1-8_小物
  6
CONTINUOUS
 62
    4
 10
282.5976982071802
 20
131.35707331101594
 11
282.12487528339437
 21
131.45779074697211
  0
LINE
  8
_1-8_小物
  6
CONTINUOUS
 62
    4
 10
282.12487528339437
 20
131.45779074697211
 11
281.63445895336304
 21
131.49902170177148
  0
LINE
  8
_1-8_小物
  6
CONTINUOUS
 62
    4
 10
281.63445895336304
 20
131.49902170177148
 11
281.14135026911151
 21
131.47951339371627
  0
LINE
  8
_1-8_小物
  6
CONTINUOUS
 62
    4
 10
281.14135026911151
 20
131.47951339371627
 11
280.6605320884857
 21
131.39985857287513
  0
LINE
  8
_1-8_小物
  6
CONTINUOUS
 62
    4
 10
280.6605320884857
 20
131.39985857287513
 11
280.20661382859828
 21
131.262477510672
  0
LINE
  8
_1-8_小物
  6
CONTINUOUS
 62
    4
 10
280.20661382859828
 20
131.262477510672
 11
279.79338756608217
 21
131.07154446116377
  0
LINE
  8
_1-8_小物
  6
CONTINUOUS
 62
    4
 10
279.79338756608217
 20
131.07154446116377
 11
279.43340897182128
 21
130.8328608284429
  0
LINE
  8
_1-8_小物
  6
CONTINUOUS
 62
    4
 10
279.43340897182128
 20
130.8328608284429
 11
279.13761581324439
 21
130.55367889390996
  0
LINE
  8
_1-8_小物
  6
CONTINUOUS
 62
    4
 10
279.13761581324439
 20
130.55367889390996
 11
278.91499561579622
 21
130.24248145937278
  0
LINE
  8
_1-8_小物
  6
CONTINUOUS
 62
    4
 10
278.91499561579622
 20
130.24248145937278
 11
278.77231258152494
 21
129.90872410140634
  0
LINE
  8
_1-8_小物
  6
CONTINUOUS
 62
    4
 10
278.77231258152494
 20
129.90872410140634
 11
278.71390206222588
 21
129.56254786844303
  0
LINE
  8
_1-8_小物
  6
CONTINUOUS
 62
    4
 10
278.71390206222588
 20
129.56254786844303
 11
278.74153883197073
 21
129.2144711501478
  0
LINE
  8
_1-8_小物
  6
CONTINUOUS
 62
    4
 10
278.74153883197073
 20
129.2144711501478
 11
278.85438316149566
 21
128.8750700814708
  0
LINE
  8
_1-8_小物
  6
CONTINUOUS
 62
    4
 10
278.85438316149566
 20
128.8750700814708
 11
279.04900633295011
 21
128.55465719213848
  0
LINE
  8
_1-8_小物
  6
CONTINUOUS
 62
    4
 10
279.04900633295011
 20
128.55465719213848
 11
279.31949481975346
 21
128.26296806565651
  0
LINE
  8
_1-8_小物
  6
CONTINUOUS
 62
    4
 10
279.31949481975346
 20
128.26296806565651
 11
279.657629966108
 21
128.0088655285312
  0
LINE
  8
_1-8_小物
  6
CONTINUOUS
 62
    4
 10
279.657629966108
 20
128.0088655285312
 11
280.0531377066963
 21
127.80007035777102
  0
LINE
  8
_1-8_小物
  6
CONTINUOUS
 62
    4
 10
280.0531377066963
 20
127.80007035777102
 11
280.49400073895731
 21
127.64292668898406
  0
LINE
  8
_1-8_小物
  6
CONTINUOUS
 62
    4
 10
280.49400073895731
 20
127.64292668898406
 11
280.96682366274314
 21
127.54220925302788
  0
LINE
  8
_1-8_小物
  6
CONTINUOUS
 62
    4
 10
280.96682366274314
 20
127.54220925302788
 11
281.45723999277448
 21
127.50097829822853
  0
LINE
  8
_1-8_小物
  6
CONTINUOUS
 62
    4
 10
281.45723999277448
 20
127.50097829822853
 11
281.950348677026
 21
127.52048660628371
  0
LINE
  8
_1-8_小物
  6
CONTINUOUS
 62
    4
 10
281.950348677026
 20
127.52048660628371
 11
282.43116685765176
 21
127.60014142712487
  0
LINE
  8
_1-8_小物
  6
CONTINUOUS
 62
    4
 10
282.43116685765176
 20
127.60014142712487
 11
282.59769809938194
 21
127.64292665856115
  0
LINE
  8
_1-8_小物
  6
CONTINUOUS
 62
    4
 10
282.71851239622572
 20
131.84018902839438
 11
282.71851239622572
 21
131.84018902839438
  0
LINE
  8
_1-8_小物
  6
CONTINUOUS
 62
    4
 10
282.71851239622572
 20
131.84018902839438
 11
282.15887093122791
 21
131.9573593833947
  0
LINE
  8
_1-8_小物
  6
CONTINUOUS
 62
    4
 10
282.15887093122791
 20
131.9573593833947
 11
281.58060311942779
 21
131.99986411701445
  0
LINE
  8
_1-8_小物
  6
CONTINUOUS
 62
    4
 10
281.58060311942779
 20
131.99986411701445
 11
281.00127933566927
 21
131.96641174443101
  0
LINE
  8
_1-8_小物
  6
CONTINUOUS
 62
    4
 10
281.00127933566927
 20
131.96641174443101
 11
280.43850203996976
 21
131.8580186990576
  0
LINE
  8
_1-8_小物
  6
CONTINUOUS
 62
    4
 10
280.43850203996976
 20
131.8580186990576
 11
279.90937093568022
 21
131.67797844872834
  0
LINE
  8
_1-8_小物
  6
CONTINUOUS
 62
    4
 10
279.90937093568022
 20
131.67797844872834
 11
279.42996340365107
 21
131.43176142534472
  0
LINE
  8
_1-8_小物
  6
CONTINUOUS
 62
    4
 10
279.42996340365107
 20
131.43176142534472
 11
279.01484599915119
 21
131.12684880857049
  0
LINE
  8
_1-8_小物
  6
CONTINUOUS
 62
    4
 10
279.01484599915119
 20
131.12684880857049
 11
278.67663185445673
 21
130.77250521397303
  0
LINE
  8
_1-8_小物
  6
CONTINUOUS
 62
    4
 10
278.67663185445673
 20
130.77250521397303
 11
278.42559743520962
 21
130.37949719236772
  0
LINE
  8
_1-8_小物
  6
CONTINUOUS
 62
    4
 10
278.42559743520962
 20
130.37949719236772
 11
278.26937029520917
 21
129.95976609361938
  0
LINE
  8
_1-8_小物
  6
CONTINUOUS
 62
    4
 10
278.26937029520917
 20
129.95976609361938
 11
278.2126973170495
 21
129.52606523476928
  0
LINE
  8
_1-8_小物
  6
CONTINUOUS
 62
    4
 10
278.2126973170495
 20
129.52606523476928
 11
278.25730048049411
 21
129.09157239695037
  0
LINE
  8
_1-8_小物
  6
CONTINUOUS
 62
    4
 10
278.25730048049411
 20
129.09157239695037
 11
278.40182454099198
 21
128.66948942517575
  0
LINE
  8
_1-8_小物
  6
CONTINUOUS
 62
    4
 10
278.40182454099198
 20
128.66948942517575
 11
278.64187820809769
 21
128.27264109695858
  0
LINE
  8
_1-8_小物
  6
CONTINUOUS
 62
    4
 10
278.64187820809769
 20
128.27264109695858
 11
278.97016757260911
 21
127.91308544793672
  0
LINE
  8
_1-8_小物
  6
CONTINUOUS
 62
    4
 10
278.97016757260911
 20
127.91308544793672
 11
279.37671772830811
 21
127.60174739456181
  0
LINE
  8
_1-8_小物
  6
CONTINUOUS
 62
    4
 10
279.37671772830811
 20
127.60174739456181
 11
279.84917585443804
 21
127.34808678604097
  0
LINE
  8
_1-8_小物
  6
CONTINUOUS
 62
    4
 10
279.84917585443804
 20
127.34808678604097
 11
280.37318654991179
 21
127.15981097160564
  0
LINE
  8
_1-8_小物
  6
CONTINUOUS
 62
    4
 10
280.37318654991179
 20
127.15981097160564
 11
280.93282801490955
 21
127.04264061660528
  0
LINE
  8
_1-8_小物
  6
CONTINUOUS
 62
    4
 10
280.93282801490955
 20
127.04264061660528
 11
281.51109582670972
 21
127.00013588298553
  0
LINE
  8
_1-8_小物
  6
CONTINUOUS
 62
    4
 10
281.51109582670972
 20
127.00013588298553
 11
282.09041961046825
 21
127.03358825556899
  0
LINE
  8
_1-8_小物
  6
CONTINUOUS
 62
    4
 10
282.09041961046825
 20
127.03358825556899
 11
282.65319690616769
 21
127.14198130094242
  0
LINE
  8
_1-8_小物
  6
CONTINUOUS
 62
    4
 10
282.65319690616769
 20
127.14198130094242
 11
282.71851230902314
 21
127.15981094702607
  0
ARC
  8
_1-8_小物
  6
CONTINUOUS
 62
    4
 10
289.86995020385899
 20
124.49999999999997
 40
5
 50
97.555517989925917
 51
105.76016573963432
  0
ARC
  8
_1-8_小物
  6
CONTINUOUS
 62
    4
 10
289.93827812830773
 20
123.99999999999997
 40
5
 50
98.346104300156512
 51
105.74141158032096
  0
ARC
  8
_1-8_小物
  6
CONTINUOUS
 62
    4
 10
289.93827812830773
 20
135
 40
5
 50
254.25858841967909
 51
261.65389569984347
  0
ARC
  8
_1-8_小物
  6
CONTINUOUS
 62
    4
 10
289.86995020385899
 20
134.5
 40
5
 50
254.23983426036577
 51
262.44448201007407
  0
LINE
  8
_1-8_小物
  6
CONTINUOUS
 62
    4
 10
291.87918280640207
 20
129.24999999999997
 11
318.21251613973538
 21
129.24999999999997
  0
LINE
  8
_1-8_小物
  6
CONTINUOUS
 62
    4
 10
291.87918280640207
 20
129.75
 11
318.21251613973538
 21
129.75
  0
LINE
  8
_1-8_小物
  6
CONTINUOUS
 62
    4
 10
347.87918280640207
 20
129.24999999999997
 11
321.54584947306876
 21
129.24999999999997
  0
LINE
  8
_1-8_小物
  6
CONTINUOUS
 62
    4
 10
347.87918280640207
 20
129.75
 11
321.54584947306876
 21
129.75
  0
LINE
  8
_0-0_図面枠
  6
CONTINUOUS
 62
    4
 10
182.14999999999998
 20
32.199999999999989
 11
40
 21
32.199999999999989
  0
LINE
  8
_0-0_図面枠
  6
CONTINUOUS
 62
    4
 10
182.14999999999998
 20
26.199999999999989
 11
40
 21
26.199999999999989
  0
TEXT
  8
_0-0_図面枠
 62
    4
 10
43.586831999999958
 20
33.427555499999983
 40
3.2000000000000002
 41
1
 50
0
  1
※
  0
TEXT
  8
_0-0_図面枠
 62
    4
 10
43.586831999999958
 20
27.427560999999969
 40
3.2000000000000002
 41
1
 50
0
  1
※
  0
LINE
  8
_0-0_図面枠
  6
CONTINUOUS
 62
    4
 10
382.15000000000009
 20
26.199999999999989
 11
240
 21
26.199999999999989
  0
LINE
  8
_0-0_図面枠
  6
CONTINUOUS
 62
    4
 10
382.15000000000009
 20
20.199999999999989
 11
240
 21
20.199999999999989
  0
LINE
  8
_0-0_図面枠
  6
CONTINUOUS
 62
    4
 10
382.15000000000009
 20
32.199999999999989
 11
240
 21
32.199999999999989
  0
TEXT
  8
_0-0_図面枠
 62
    4
 10
243.5868145
 20
33.427555499999983
 40
3.2000000000000002
 41
1
 50
0
  1
※
  0
TEXT
  8
_0-0_図面枠
 62
    4
 10
243.5868145
 20
27.427555499999983
 40
3.2000000000000002
 41
1
 50
0
  1
※
  0
TEXT
  8
_0-0_図面枠
 62
    4
 10
243.5868145
 20
21.427558500000004
 40
3.2000000000000002
 41
1
 50
0
  1
※
  0
LINE
  8
_0-0_図面枠
  6
CONTINUOUS
 62
    4
 10
182.14999999999998
 20
20.199999999999989
 11
40
 21
20.199999999999989
  0
TEXT
  8
_0-0_図面枠
 62
    4
 10
43.586831999999958
 20
21.427555499999983
 40
3.2000000000000002
 41
1
 50
0
  1
※
  0
TEXT
  8
_0-0_図面枠
 62
    4
 10
149.27047700000003
 20
27.400014999999996
 40
3.2000000000000002
 41
1
 50
0
  1
６０００
  0
TEXT
  8
_0-0_図面枠
 62
    4
 10
169.36022149999994
 20
27.450002999999981
 40
3.2000000000000002
 41
1
 50
0
  1
１
  0
TEXT
  8
_0-0_図面枠
 62
    4
 10
177.00512500000002
 20
27.40000950000001
 40
3.2000000000000002
 41
1
 50
0
  1
巻
  0
TEXT
  8
_0-0_図面枠
 62
    4
 10
48.400007500000015
 20
27.40000950000001
 40
3.2000000000000002
 41
1
 50
0
  1
ブチルテープ
  0
TEXT
  8
_0-0_図面枠
 62
    4
 10
169.36022149999994
 20
21.450002999999981
 40
3.2000000000000002
 41
1
 50
0
  1
２
  0
TEXT
  8
_0-0_図面枠
 62
    4
 10
177.00512500000002
 20
21.40000950000001
 40
3.2000000000000002
 41
1
 50
0
  1
本
  0
TEXT
  8
_0-0_図面枠
 62
    4
 10
349.27041950000012
 20
27.40000950000001
 40
3.2000000000000002
 41
1
 50
0
  1
６０００
  0
TEXT
  8
_0-0_図面枠
 62
    4
 10
369.8602370000001
 20
27.450002999999981
 40
3.2000000000000002
 41
1
 50
0
  1
１
  0
TEXT
  8
_0-0_図面枠
 62
    4
 10
377.00510200000008
 20
27.40000950000001
 40
3.2000000000000002
 41
1
 50
0
  1
巻
  0
TEXT
  8
_0-0_図面枠
 62
    4
 10
248.400013
 20
27.40000950000001
 40
3.2000000000000002
 41
1
 50
0
  1
ブチルテープ
  0
TEXT
  8
_0-0_図面枠
 62
    4
 10
369.8602370000001
 20
21.450002999999981
 40
3.2000000000000002
 41
1
 50
0
  1
２
  0
TEXT
  8
_0-0_図面枠
 62
    4
 10
377.00510200000008
 20
21.400006499999989
 40
3.2000000000000002
 41
1
 50
0
  1
本
  0
TEXT
  8
_0-0_図面枠
 62
    4
 10
102.06669116666677
 20
27.40000950000001
 40
3.2000000000000002
 41
1
 50
0
  1
ｔ１．０×ｗ３０
  0
TEXT
  8
_0-0_図面枠
 62
    4
 10
102.06669116666677
 20
21.400009499999982
 40
3.2000000000000002
 41
1
 50
0
  1
１.５×(１×１９)Ｌ＝６００
  0
TEXT
  8
_0-0_図面枠
 62
    4
 10
302.06663366666669
 20
27.40000950000001
 40
3.2000000000000002
 41
1
 50
0
  1
ｔ１．０×ｗ３０
  0
TEXT
  8
_0-0_図面枠
 62
    4
 10
302.06669116666671
 20
21.400009499999982
 40
3.2000000000000002
 41
1
 50
0
  1
１.５×(１×１９)Ｌ＝６００
  0
TEXT
  8
_0-0_図面枠
 62
    4
 10
248.40000750000002
 20
21.40000950000001
 40
3.2000000000000002
 41
1
 50
0
  1
落下防止ワイヤー
  0
TEXT
  8
_0-0_図面枠
 62
    4
 10
48.400007500000015
 20
21.400009500000024
 40
3.2000000000000002
 41
1
 50
0
  1
落下防止ワイヤー
  0
TEXT
  8
_0-0_図面枠
 62
    4
 10
353.85000000000002
 20
21.599999999999994
 40
3.2000000000000002
 41
1
 50
0
  1
―
  0
TEXT
  8
_0-0_図面枠
 62
    4
 10
153.85000000000005
 20
21.599999999999994
 40
3.2000000000000002
 41
1
 50
0
  1
―
  0
TEXT
  8
_0-0_図面枠
 62
    4
 10
169.36022149999991
 20
33.450002999999981
 40
3.2000000000000002
 41
1
 50
0
  1
１
  0
TEXT
  8
_0-0_図面枠
 62
    4
 10
177.00512500000002
 20
33.400003999999967
 40
3.2000000000000002
 41
1
 50
0
  1
個
  0
TEXT
  8
_0-0_図面枠
 62
    4
 10
153.85000000000002
 20
33.599999999999994
 40
3.2000000000000002
 41
1
 50
0
  1
―
  0
TEXT
  8
_0-0_図面枠
 62
    4
 10
102.0666796666667
 20
33.400003999999967
 40
3.2000000000000002
 41
1
 50
0
  1
ＡＬ　ｔ＝１．５
  0
TEXT
  8
_0-0_図面枠
 62
    4
 10
369.36022149999991
 20
33.450002999999981
 40
3.2000000000000002
 41
1
 50
0
  1
１
  0
TEXT
  8
_0-0_図面枠
 62
    4
 10
377.00512500000002
 20
33.400003999999967
 40
3.2000000000000002
 41
1
 50
0
  1
個
  0
TEXT
  8
_0-0_図面枠
 62
    4
 10
353.85000000000002
 20
33.599999999999994
 40
3.2000000000000002
 41
1
 50
0
  1
―
  0
TEXT
  8
_0-0_図面枠
 62
    4
 10
302.06667966666669
 20
33.400003999999967
 40
3.2000000000000002
 41
1
 50
0
  1
ＡＬ　ｔ＝１．５
  0
LINE
  8
_0-0_図面枠
  6
CONTINUOUS
 62
    4
 10
40
 20
20.199999999999989
 11
40
 21
121.00000000000001
  0
LINE
  8
_0-0_図面枠
  6
CONTINUOUS
 62
    4
 10
47.200000000000045
 20
20.199999999999989
 11
47.200000000000045
 21
121.00000000000001
  0
LINE
  8
_0-0_図面枠
  6
CONTINUOUS
 62
    4
 10
162.95000000000002
 20
20.199999999999989
 11
162.95000000000002
 21
121
  0
LINE
  8
_0-0_図面枠
  6
CONTINUOUS
 62
    4
 10
147.95000000000005
 20
20.199999999999989
 11
147.95000000000005
 21
121
  0
LINE
  8
_0-0_図面枠
  6
CONTINUOUS
 62
    4
 10
174.95000000000005
 20
20.199999999999989
 11
174.95000000000005
 21
121
  0
LINE
  8
_0-0_図面枠
  6
CONTINUOUS
 62
    4
 10
146.95000000000005
 20
20.199999999999989
 11
146.95000000000005
 21
121
  0
LINE
  8
_0-0_図面枠
  6
CONTINUOUS
 62
    4
 10
240
 20
20.199999999999989
 11
240
 21
121
  0
LINE
  8
_0-0_図面枠
  6
CONTINUOUS
 62
    4
 10
247.20000000000005
 20
20.199999999999989
 11
247.20000000000005
 21
121
  0
LINE
  8
_0-0_図面枠
  6
CONTINUOUS
 62
    4
 10
346.95000000000005
 20
20.199999999999989
 11
346.95000000000005
 21
121
  0
LINE
  8
_0-0_図面枠
  6
CONTINUOUS
 62
    4
 10
382.15000000000009
 20
20.199999999999989
 11
382.15000000000009
 21
120.99999999999999
  0
LINE
  8
_0-0_図面枠
  6
CONTINUOUS
 62
    4
 10
374.95000000000005
 20
20.199999999999989
 11
374.95000000000005
 21
120.99999999999999
  0
LINE
  8
_0-0_図面枠
  6
CONTINUOUS
 62
    4
 10
362.95000000000005
 20
20.199999999999989
 11
362.95000000000005
 21
120.99999999999999
  0
LINE
  8
_0-0_図面枠
  6
CONTINUOUS
 62
    4
 10
347.95000000000005
 20
20.199999999999989
 11
347.95000000000005
 21
121
  0
LINE
  8
_0-0_図面枠
  6
CONTINUOUS
 62
    4
 10
182.14999999999998
 20
20.199999999999989
 11
182.14999999999998
 21
121
  0
LINE
  8
_0-0_図面枠
  6
CONTINUOUS
 62
    4
 10
100.86666666666673
 20
20.199999999999989
 11
100.86666666666673
 21
121.00000000000001
  0
LINE
  8
_0-0_図面枠
  6
CONTINUOUS
 62
    4
 10
300.86666666666667
 20
20.199999999999989
 11
300.86666666666667
 21
121
  0
LINE
  8
_0-0_図面枠
  6
CONTINUOUS
 62
    4
 10
182.14999999999998
 20
38.199999999999989
 11
40
 21
38.199999999999989
  0
LINE
  8
_0-0_図面枠
  6
CONTINUOUS
 62
    4
 10
382.15000000000009
 20
38.199999999999989
 11
240
 21
38.199999999999989
  0
TEXT
  8
_0-0_図面枠
 62
    4
 10
153.85000000000002
 20
39.599999999999994
 40
3.2000000000000002
 41
1
 50
0
  1
―
  0
TEXT
  8
_0-0_図面枠
 62
    4
 10
169.36022149999991
 20
39.450002999999924
 40
3.2000000000000002
 41
1
 50
0
  1
６
  0
TEXT
  8
_0-0_図面枠
 62
    4
 10
122.30833333333337
 20
39.599999999999994
 40
3.2000000000000002
 41
1
 50
0
  1
―
  0
TEXT
  8
_0-0_図面枠
 62
    4
 10
40.497050499999972
 20
39.427555499999983
 40
3.2000000000000002
 41
1
 50
0
  1
１２
  0
TEXT
  8
_0-0_図面枠
 62
    4
 10
48.400007499999987
 20
39.400003999999967
 40
3.2000000000000002
 41
1
 50
0
  1
ＳＳＧクリップ
  0
TEXT
  8
_0-0_図面枠
 62
    4
 10
353.85000000000002
 20
39.599999999999994
 40
3.2000000000000002
 41
1
 50
0
  1
―
  0
TEXT
  8
_0-0_図面枠
 62
    4
 10
322.30833333333334
 20
39.599999999999994
 40
3.2000000000000002
 41
1
 50
0
  1
―
  0
TEXT
  8
_0-0_図面枠
 62
    4
 10
240.49705049999997
 20
39.427555499999983
 40
3.2000000000000002
 41
1
 50
0
  1
１２
  0
TEXT
  8
_0-0_図面枠
 62
    4
 10
248.40000749999999
 20
39.400003999999967
 40
3.2000000000000002
 41
1
 50
0
  1
ＳＳＧクリップ
  0
CIRCLE
  8
_1-f_寸法
  6
CONTINUOUS
 62
    4
 10
98.333333511266574
 20
215
 40
1.6666666666666665
  0
LINE
  8
_1-f_寸法
  6
CONTINUOUS
 62
    4
 10
95.521954357983589
 20
216.8666666666667
 11
96.944856243615163
 21
215.92190490561285
  0
TEXT
  8
_1-f_寸法
 62
    4
 10
97.083333511266545
 20
213.75
 40
2.5
 41
1
 50
0
  1
12
  0
CIRCLE
  8
_1-f_寸法
  6
CONTINUOUS
 62
    4
 10
298.33333333333326
 20
215
 40
1.6666666666666665
  0
TEXT
  8
_1-f_寸法
 62
    4
 10
297.08333333333326
 20
213.75
 40
2.5
 41
1
 50
0
  1
12
  0
LINE
  8
_1-f_寸法
  6
CONTINUOUS
 62
    4
 10
297.20863244391393
 20
216.22996979114004
 11
294.94999999999999
 21
218.70000400329161
  0
INSERT
  2
-015-_15_
  8
_1-4_フレ__ム
 10
210
 20
148.5
 41
1
 42
1
 50
0
  0
INSERT
  2
-016-_16_
  8
_1-8_小物
 10
210
 20
148.5
 41
1
 42
1
 50
0
  0
INSERT
  2
-017-_17_
  8
_1-4_フレ__ム
 10
210
 20
148.5
 41
1
 42
1
 50
0
  0
INSERT
  2
-018-_18_
  8
_1-8_小物
 10
210
 20
148.5
 41
1
 42
1
 50
0
  0
INSERT
  2
-019-_19_
  8
_1-8_小物
 10
210
 20
148.5
 41
1
 42
1
 50
0
  0
INSERT
  2
-020-_20_
  8
_1-8_小物
 10
210
 20
148.5
 41
1
 42
1
 50
0
  0
INSERT
  2
-021-_21_
  8
_1-8_小物
 10
210
 20
148.5
 41
1
 42
1
 50
0
  0
INSERT
  2
-022-_22_
  8
_1-8_小物
 10
210
 20
148.5
 41
1
 42
1
 50
0
  0
INSERT
  2
-023-_23_
  8
_1-5_ア__ム
 10
210
 20
148.5
 41
1
 42
1
 50
0
  0
INSERT
  2
-024-_24_
  8
_1-5_ア__ム
 10
210
 20
148.5
 41
1
 42
1
 50
0
  0
LINE
  8
_1-6_ばね
  6
CENTER2
 62
    4
 10
80.650166778653869
 20
217.08333219039633
 11
80.650166778653869
 21
223.74999885706302
  0
LINE
  8
_1-6_ばね
  6
CENTER2
 62
    4
 10
83.983500111987212
 20
220.41666552372968
 11
77.316833445320526
 21
220.41666552372968
  0
CIRCLE
  8
_1-6_ばね
  6
CONTINUOUS
 62
    4
 10
80.650166778653869
 20
220.41666552372968
 40
1.5500000073166575
  0
LINE
  8
_1-6_ばね
  6
CONTINUOUS
 62
    4
 10
82.35900817169501
 20
218.70782413068849
 11
86.964008782414467
 21
223.31282474140801
  0
ARC
  8
_1-6_ばね
  6
CONTINUOUS
 62
    4
 10
87.576834659442824
 20
222.69999886437967
 40
0.8666666666666667
 50
90
 51
135.00000000000065
  0
LINE
  8
_1-6_ばね
  6
CONTINUOUS
 62
    4
 10
81.746182294666681
 20
219.32065000771686
 11
86.351182905386111
 21
223.92565061843632
  0
ARC
  8
_1-6_ばね
  6
CONTINUOUS
 62
    4
 10
87.576834659442795
 20
222.69999886437964
 40
1.7333333333333334
 50
90
 51
135
  0
LINE
  8
_1-6_ばね
  6
CENTER2
 62
    4
 10
82.052595233180853
 20
219.01423706920266
 11
86.657595843900339
 21
223.61923767992221
  0
ARC
  8
_1-6_ばね
  6
CENTER2
 62
    4
 10
87.576834659442866
 20
222.69999886437967
 40
1.2999999999999998
 50
90
 51
134.99999999999866
  0
ARC
  8
_1-6_ばね
  6
CONTINUOUS
 62
    4
 10
96.416833445320549
 20
222.69999886437964
 40
1.7333333333333334
 50
0
 51
90
  0
ARC
  8
_1-6_ばね
  6
CONTINUOUS
 62
    4
 10
96.416833445320506
 20
222.69999886437967
 40
0.8666666666666667
 50
0
 51
90
  0
ARC
  8
_1-6_ばね
  6
CENTER2
 62
    4
 10
96.416833445320549
 20
222.69999886437967
 40
1.2999999999999998
 50
0
 51
90
  0
LINE
  8
_1-6_ばね
  6
CONTINUOUS
 62
    4
 10
97.300166778653875
 20
220.43333219771299
 11
98.133500111987203
 21
220.43333219771299
  0
LINE
  8
_1-6_ばね
  6
CONTINUOUS
 62
    4
 10
97.283500111987223
 20
220.43333219771299
 11
97.283500111987223
 21
222.69999886437967
  0
LINE
  8
_1-6_ばね
  6
CENTER2
 62
    4
 10
97.716833445320532
 20
220.43333219771299
 11
97.716833445320532
 21
222.69999886437967
  0
LINE
  8
_1-6_ばね
  6
CONTINUOUS
 62
    4
 10
98.150166778653855
 20
220.43333219771299
 11
98.150166778653855
 21
222.69999886437964
  0
LINE
  8
_1-6_ばね
  6
CONTINUOUS
 62
    4
 10
87.576834659442795
 20
224.43333219771299
 11
96.416833445320549
 21
224.43333219771299
  0
LINE
  8
_1-6_ばね
  6
CENTER2
 62
    4
 10
87.576834659442866
 20
223.99999886437968
 11
96.416833445320549
 21
223.99999886437968
  0
LINE
  8
_1-6_ばね
  6
CONTINUOUS
 62
    4
 10
87.576834659442824
 20
223.56666553104634
 11
96.416833445320549
 21
223.56666553104634
  0
ARC
  8
_1-6_ばね
  6
CONTINUOUS
 62
    4
 10
80.650166778653869
 20
220.41666552372968
 40
2.416666673983324
 50
5.1052516629133109
 51
315.00000000000045
  0
ARC
  8
_1-6_ばね
  6
CENTER2
 62
    4
 10
80.650166778653869
 20
220.41666552372968
 40
1.9833333406499909
 50
353.60072244347799
 51
314.99999999999972
  0
LINE
  8
_1-6_ばね
  6
CONTINUOUS
 62
    4
 10
95.200779766711719
 20
218.01725325594057
 11
93.971062310543175
 21
220.37209893576477
  0
LINE
  8
_1-6_ばね
  6
CENTER2
 62
    4
 10
94.816666765133647
 20
217.81666666666686
 11
93.586949308965089
 21
220.17151234649103
  0
ARC
  8
_1-6_ばね
  6
CONTINUOUS
 62
    4
 10
92.434610304230844
 20
219.56975257866998
 40
1.7333333333333334
 50
27.573889345971384
 51
82.573889345972276
  0
ARC
  8
_1-6_ばね
  6
CONTINUOUS
 62
    4
 10
92.434610304230887
 20
219.56975257866998
 40
0.8666666666666667
 50
27.573889345973267
 51
82.573889345970883
  0
ARC
  8
_1-6_ばね
  6
CENTER2
 62
    4
 10
92.434610304230858
 20
219.56975257866989
 40
1.2999999999999998
 50
27.573889345974376
 51
82.573889345971338
  0
LINE
  8
_1-6_ばね
  6
CONTINUOUS
 62
    4
 10
94.432553763555589
 20
217.61608007739318
 11
93.202836307387045
 21
219.9709257572174
  0
LINE
  8
_1-6_ばね
  6
CENTER2
 62
    4
 10
298.7499999978167
 20
237.50000400329159
 11
298.7499999978167
 21
230.83333733662494
  0
LINE
  8
_1-6_ばね
  6
CENTER2
 62
    4
 10
302.08333333114996
 20
234.16667066995825
 11
295.41666666448333
 21
234.16667066995825
  0
CIRCLE
  8
_1-6_ばね
  6
CONTINUOUS
 62
    4
 10
298.7499999978167
 20
234.16667066995825
 40
1.5500000021829385
  0
ARC
  8
_1-6_ばね
  6
CONTINUOUS
 62
    4
 10
310.0376730632326
 20
222.70000003326697
 40
0.8666666666666667
 50
90
 51
120.49335808176116
  0
ARC
  8
_1-6_ばね
  6
CONTINUOUS
 62
    4
 10
306.32899360343202
 20
223.53333338921692
 40
0.8666666666666667
 50
270
 51
300.49335808176113
  0
LINE
  8
_1-6_ばね
  6
CONTINUOUS
 62
    4
 10
306.32899360343202
 20
221.80000005588357
 11
301.31666666666541
 21
221.80000005588357
  0
LINE
  8
_1-6_ばね
  6
CONTINUOUS
 62
    4
 10
309.5978930501629
 20
223.44679629143621
 11
307.20855362957133
 21
222.0397408728785
  0
ARC
  8
_1-6_ばね
  6
CONTINUOUS
 62
    4
 10
306.32899360343202
 20
223.53333338921692
 40
1.7333333333333334
 50
270
 51
300.49335808175533
  0
ARC
  8
_1-6_ばね
  6
CONTINUOUS
 62
    4
 10
310.03767306323249
 20
222.70000003326692
 40
1.7333333333333334
 50
90
 51
120.49335808175486
  0
ARC
  8
_1-6_ばね
  6
CENTER2
 62
    4
 10
306.32899360343214
 20
223.53333338921686
 40
1.2999999999999998
 50
270
 51
300.49335808175238
  0
ARC
  8
_1-6_ばね
  6
CENTER2
 62
    4
 10
310.03767306323249
 20
222.70000003326689
 40
1.2999999999999998
 50
90
 51
120.49335808175448
  0
ARC
  8
_1-6_ばね
  6
CONTINUOUS
 62
    4
 10
301.31666666666575
 20
223.53333338921692
 40
0.8666666666666667
 50
180
 51
270
  0
ARC
  8
_1-6_ばね
  6
CONTINUOUS
 62
    4
 10
301.31666666666541
 20
223.53333338921692
 40
1.7333333333333334
 50
180
 51
270
  0
ARC
  8
_1-6_ばね
  6
CENTER2
 62
    4
 10
301.31666666666575
 20
223.53333338921686
 40
1.2999999999999998
 50
180
 51
270
  0
ARC
  8
_1-6_ばね
  6
CONTINUOUS
 62
    4
 10
314.38333333333236
 20
222.70000003326697
 40
0.8666666666666667
 50
0
 51
90
  0
LINE
  8
_1-6_ばね
  6
CONTINUOUS
 62
    4
 10
315.24999999999898
 20
221.90000003326705
 11
315.24999999999898
 21
222.700000033267
  0
LINE
  8
_1-6_ばね
  6
CONTINUOUS
 62
    4
 10
316.11666666666576
 20
221.90000003326705
 11
316.11666666666576
 21
222.70000003326692
  0
ARC
  8
_1-6_ばね
  6
CONTINUOUS
 62
    4
 10
314.38333333333247
 20
222.70000003326692
 40
1.7333333333333334
 50
0
 51
90
  0
ARC
  8
_1-6_ばね
  6
CENTER2
 62
    4
 10
314.38333333333236
 20
222.70000003326689
 40
1.2999999999999998
 50
0
 51
90
  0
LINE
  8
_1-6_ばね
  6
CENTER2
 62
    4
 10
315.68333333333237
 20
221.90000003326705
 11
315.68333333333237
 21
222.70000003326689
  0
LINE
  8
_1-6_ばね
  6
CONTINUOUS
 62
    4
 10
318.85464601614319
 20
220.62325929473536
 11
320.89743119779382
 21
222.33735958723278
  0
LINE
  8
_1-6_ばね
  6
CONTINUOUS
 62
    4
 10
320.89743119779382
 20
222.33735958723278
 11
321.45451379285555
 21
221.6734544031963
  0
LINE
  8
_1-6_ばね
  6
CONTINUOUS
 62
    4
 10
319.41172861120486
 20
219.95935411069891
 11
321.45451379285555
 21
221.6734544031963
  0
LINE
  8
_1-6_ばね
  6
CENTER2
 62
    4
 10
319.13318731367406
 20
220.29130670271712
 11
321.17597249532469
 21
222.00540699521451
  0
ARC
  8
_1-6_ばね
  6
CONTINUOUS
 62
    4
 10
317.78333333333245
 20
221.90000003326696
 40
1.6666666666666665
 50
179.99999999999707
 51
309.99999999999829
  0
ARC
  8
_1-6_ばね
  6
CENTER2
 62
    4
 10
317.78333333333245
 20
221.90000003326696
 40
2.0999999999999996
 50
179.9999999999977
 51
309.99999999999778
  0
ARC
  8
_1-6_ばね
  6
CONTINUOUS
 62
    4
 10
317.78333333333245
 20
221.90000003326696
 40
2.5333333333333328
 50
179.99999999999807
 51
309.99999999999704
  0
LINE
  8
_1-6_ばね
  6
CONTINUOUS
 62
    4
 10
314.38333333333236
 20
223.56666669993365
 11
310.0376730632326
 21
223.56666669993365
  0
LINE
  8
_1-6_ばね
  6
CONTINUOUS
 62
    4
 10
314.38333333333247
 20
224.43333336660027
 11
310.03767306323249
 21
224.43333336660027
  0
LINE
  8
_1-6_ばね
  6
CENTER2
 62
    4
 10
306.32899360343214
 20
222.23333338921685
 11
301.31666666666575
 21
222.23333338921685
  0
LINE
  8
_1-6_ばね
  6
CONTINUOUS
 62
    4
 10
309.15811303709319
 20
224.19359254960534
 11
306.76877361650173
 21
222.78653713104762
  0
LINE
  8
_1-6_ばね
  6
CONTINUOUS
 62
    4
 10
306.32899360343202
 20
222.66666672255025
 11
301.31666666666575
 21
222.66666672255025
  0
LINE
  8
_1-6_ばね
  6
CENTER2
 62
    4
 10
314.38333333333236
 20
224.00000003326687
 11
310.03767306323249
 21
224.00000003326687
  0
LINE
  8
_1-6_ばね
  6
CENTER2
 62
    4
 10
309.43253259958107
 20
223.8523062697264
 11
306.98866362303664
 21
222.41313900196306
  0
LINE
  8
_1-6_ばね
  6
CONTINUOUS
 62
    4
 10
296.77038255566339
 20
232.7805276141911
 11
299.42659843838265
 21
228.98705819580886
  0
LINE
  8
_1-6_ばね
  6
CONTINUOUS
 62
    4
 10
299.58333333333218
 20
228.48995861763791
 11
299.58333333333218
 21
223.53333338921692
  0
LINE
  8
_1-6_ばね
  6
CONTINUOUS
 62
    4
 10
297.48031432738043
 20
233.27762719236205
 11
300.13653021010003
 21
229.4841577739794
  0
LINE
  8
_1-6_ばね
  6
CONTINUOUS
 62
    4
 10
300.44999999999908
 20
228.48995861763757
 11
300.44999999999908
 21
223.53333338921692
  0
LINE
  8
_1-6_ばね
  6
CENTER2
 62
    4
 10
297.12534844152191
 20
233.02907740327657
 11
299.7815643242414
 21
229.23560798489407
  0
LINE
  8
_1-6_ばね
  6
CENTER2
 62
    4
 10
300.01666666666569
 20
228.48995861763768
 11
300.01666666666569
 21
223.53333338921686
  0
ARC
  8
_1-6_ばね
  6
CONTINUOUS
 62
    4
 10
298.7166666666655
 20
228.48995861763791
 40
0.8666666666666667
 50
0
 51
34.999999999999645
  0
ARC
  8
_1-6_ばね
  6
CONTINUOUS
 62
    4
 10
298.71666666666579
 20
228.48995861763757
 40
1.7333333333333334
 50
0
 51
35.000000000001798
  0
ARC
  8
_1-6_ばね
  6
CENTER2
 62
    4
 10
298.71666666666573
 20
228.48995861763768
 40
1.2999999999999998
 50
0
 51
35.000000000001592
  0
ARC
  8
_1-6_ばね
  6
CONTINUOUS
 62
    4
 10
94.816666761167141
 20
217.81666551641302
 40
0.4333333333333333
 50
207.57375477576571
 51
27.574023915840943
  0
LINE
  8
_1-6_ばね
  6
CONTINUOUS
 62
    4
 10
84.745486008889316
 20
222.3199537219395
 11
80.962510679753365
 21
222.81302958304377
  0
LINE
  8
_1-6_ばね
  6
CONTINUOUS
 62
    4
 10
92.658639311993824
 20
221.28854734481428
 11
85.829806598477035
 21
222.17862255747059
  0
LINE
  8
_1-6_ばね
  6
CENTER2
 62
    4
 10
92.602632060053082
 20
220.85884865327819
 11
85.443198651220726
 21
221.79201461021424
  0
LINE
  8
_1-6_ばね
  6
CENTER2
 62
    4
 10
84.358878061632993
 20
221.9333457746832
 11
82.275789294891197
 21
222.20485713757978
  0
LINE
  8
_1-6_ばね
  6
CONTINUOUS
 62
    4
 10
83.972270114376656
 20
221.54673782742685
 11
82.689096157031614
 21
221.71398769001291
  0
LINE
  8
_1-6_ばね
  6
CONTINUOUS
 62
    4
 10
92.546624808112369
 20
220.42914996174218
 11
85.056590703964403
 21
221.40540666295789
  0
LINE
  8
_1-6_ばね
  6
CONTINUOUS
 62
    4
 10
294.41789660067252
 20
220.01959236446248
 11
298.68312448269154
 21
230.04884904369385
  0
LINE
  8
_1-6_ばね
  6
CENTER2
 62
    4
 10
294.81666666666695
 20
219.8500040032915
 11
298.97608445789024
 21
229.63045883905855
  0
LINE
  8
_1-6_ばね
  6
CONTINUOUS
 62
    4
 10
299.26904443308899
 20
229.21206863442325
 11
295.2154367326612
 21
219.68041564212061
  0
LINE
  8
_1-6_ばね
  6
CONTINUOUS
 62
    4
 10
300.97390998325545
 20
233.2208894241121
 11
299.66882431031553
 21
230.1521110224981
  0
LINE
  8
_1-6_ばね
  6
CENTER2
 62
    4
 10
299.37586433511683
 20
230.57050122713343
 11
300.03474490361469
 21
232.1197929707894
  0
LINE
  8
_1-6_ばね
  6
CONTINUOUS
 62
    4
 10
299.08290435991807
 20
230.98889143176871
 11
299.45074383391454
 21
231.85382915690565
  0
ARC
  8
_1-6_ばね
  6
CENTER2
 62
    4
 10
298.7499999978167
 20
234.16667066995825
 40
1.9833333355162719
 50
253.60072249540826
 51
215.00000000000108
  0
ARC
  8
_1-6_ばね
  6
CONTINUOUS
 62
    4
 10
298.7499999978167
 20
234.16667066995825
 40
2.4166666688496052
 50
265.10525171980129
 51
215.00000000000051
  0
ARC
  8
_1-6_ばね
  6
CONTINUOUS
 62
    4
 10
294.81666666666695
 20
219.8500040032915
 40
0.4333333333333333
 50
156.96099060802763
 51
336.96099060802464
  0
TEXT
  8
_0-0_図面枠
 62
    4
 10
177.00512500000002
 20
39.399992499999996
 40
3.2000000000000002
 41
1
 50
0
  1
個
  0
TEXT
  8
_0-0_図面枠
 62
    4
 10
369.36022149999991
 20
39.450002999999924
 40
3.2000000000000002
 41
1
 50
0
  1
６
  0
TEXT
  8
_0-0_図面枠
 62
    4
 10
377.00512500000002
 20
39.399992499999996
 40
3.2000000000000002
 41
1
 50
0
  1
個
  0
TEXT
  8
_0-0_図面枠
 62
    4
 10
48.400007499999987
 20
51.400003999999967
 40
3.2000000000000002
 41
1
 50
0
  1
アンカープラグ
  0
TEXT
  8
_0-0_図面枠
 62
    4
 10
248.40000749999999
 20
51.400003999999953
 40
3.2000000000000002
 41
1
 50
0
  1
アンカープラグ
  0
LINE
  8
_0-0_図面枠
  6
CONTINUOUS
 62
    2
 10
165.00000000000006
 20
246.99999999999989
 11
210.00000000000003
 21
246.99999999999989
  0
LINE
  8
_0-0_図面枠
  6
CONTINUOUS
 62
    2
 10
165.00000000000006
 20
246.99999999999989
 11
165.00000000000006
 21
286.99999999999994
  0
INSERT
  2
-025-_25_
  8
_0-0_図面枠
 10
210
 20
148.5
 41
1
 42
1
 50
0
  0
LINE
  8
_0-0_図面枠
  6
CONTINUOUS
 62
    2
 10
178.99460475445107
 20
263.11505807960708
 11
181.15966826391212
 21
261.86505807960708
  0
LINE
  8
_0-0_図面枠
  6
CONTINUOUS
 62
    2
 10
181.15966826391212
 20
261.86505807960708
 11
195.88210012824757
 21
270.36505807960708
  0
LINE
  8
_0-0_図面枠
  6
CONTINUOUS
 62
    2
 10
195.88210012824757
 20
270.36505807960708
 11
193.71703661878647
 21
271.61505807960708
  0
LINE
  8
_0-0_図面枠
  6
CONTINUOUS
 62
    2
 10
181.15966826391212
 20
261.86505807960708
 11
181.15966826391212
 21
251.86505807960708
  0
LINE
  8
_0-0_図面枠
  6
CONTINUOUS
 62
    2
 10
178.99460475445107
 20
263.11505807960708
 11
178.99460475445107
 21
253.11505807960708
  0
LINE
  8
_0-0_図面枠
  6
CONTINUOUS
 62
    2
 10
195.88210012824757
 20
270.36505807960708
 11
195.88210012824757
 21
270.18409224854929
  0
LINE
  8
_0-0_図面枠
  6
CONTINUOUS
 62
    2
 10
195.88210012824757
 20
268.01364867294279
 11
195.88210012824757
 21
260.36505807960708
  0
LINE
  8
_0-0_図面枠
  6
CONTINUOUS
 62
    2
 10
193.71703661878647
 20
271.61505807960708
 11
193.71703661878647
 21
271.52033947808673
  0
LINE
  8
_0-0_図面枠
  6
CONTINUOUS
 62
    2
 10
193.71703661878647
 20
270.73757885370622
 11
193.71703661878647
 21
269.11505807960708
  0
LINE
  8
_0-0_図面枠
  6
CONTINUOUS
 62
    3
 10
184.19075717715771
 20
266.11505807960708
 11
184.19075717715771
 21
263.61505807960708
  0
LINE
  8
_0-0_図面枠
  6
CONTINUOUS
 62
    3
 10
188.52088419607992
 20
268.61505807960708
 11
188.52088419607992
 21
266.11505807960708
  0
LINE
  8
_0-0_図面枠
  6
CONTINUOUS
 62
    3
 10
184.19075717715771
 20
266.11505807960708
 11
178.99460475445107
 21
263.11505807960708
  0
LINE
  8
_0-0_図面枠
  6
CONTINUOUS
 62
    3
 10
188.52088419607992
 20
268.61505807960708
 11
184.19075717715776
 21
271.11505807960708
  0
LINE
  8
_0-0_図面枠
  6
CONTINUOUS
 62
    3
 10
184.19075717715771
 20
266.11505807960708
 11
179.86063015823555
 21
268.61505807960708
  0
LINE
  8
_0-0_図面枠
  6
CONTINUOUS
 62
    3
 10
178.99460475445107
 20
263.11505807960708
 11
175.53050313931334
 21
261.11505807960708
  0
LINE
  8
_0-0_図面枠
  6
CONTINUOUS
 62
    3
 10
193.71703661878647
 20
271.61505807960708
 11
197.18113823392426
 21
273.61505807960708
  0
LINE
  8
_0-0_図面枠
  6
CONTINUOUS
 62
    3
 10
193.71703661878647
 20
271.61505807960708
 11
193.68236424150385
 21
271.59503997324947
  0
LINE
  8
_0-0_図面枠
  6
CONTINUOUS
 62
    3
 10
192.51835025799224
 20
270.92299618652856
 11
188.52088419607992
 21
268.61505807960708
  0
TEXT
  8
_0-0_図面枠
 62
    4
 10
173.22269212770601
 20
280.88494192039269
 40
2.5
 41
1
 50
0
  1
-50
  0
TEXT
  8
_0-0_図面枠
 62
    4
 10
195.7385458179771
 20
280.88494192039263
 40
2.5
 41
1
 50
0
  1
+50
  0
TEXT
  8
_0-0_図面枠
 62
    4
 10
195.73854581797704
 20
267.8854077312804
 40
2.5
 41
1
 50
0
  1
+50
  0
TEXT
  8
_0-0_図面枠
 62
    4
 10
173.22228872183666
 20
267.88610650082205
 40
2.5
 41
1
 50
0
  1
-50
  0
LINE
  8
_0-0_図面枠
  6
CONTINUOUS
 62
    2
 10
365.00000000000006
 20
246.99999999999994
 11
410.00000000000006
 21
246.99999999999994
  0
LINE
  8
_0-0_図面枠
  6
CONTINUOUS
 62
    2
 10
365.00000000000006
 20
247
 11
365.00000000000006
 21
287
  0
INSERT
  2
-026-_26_
  8
_0-0_図面枠
 10
210
 20
148.5
 41
1
 42
1
 50
0
  0
LINE
  8
_0-0_図面枠
  6
CONTINUOUS
 62
    4
 10
392.70254983187715
 20
272.37647457958167
 11
392.66787745459447
 21
272.35645647322406
  0
LINE
  8
_0-0_図面枠
  6
CONTINUOUS
 62
    2
 10
377.98011796754173
 20
263.87647457958167
 11
380.14518147700278
 21
262.62647457958167
  0
LINE
  8
_0-0_図面枠
  6
CONTINUOUS
 62
    2
 10
380.14518147700278
 20
262.62647457958167
 11
380.14518147700278
 21
252.62647457958167
  0
LINE
  8
_0-0_図面枠
  6
CONTINUOUS
 62
    2
 10
377.98011796754173
 20
263.87647457958167
 11
377.98011796754173
 21
253.87647457958167
  0
LINE
  8
_0-0_図面枠
  6
CONTINUOUS
 62
    2
 10
387.50639740917057
 20
266.87647457958161
 11
390.97049902430831
 21
264.87647457958161
  0
LINE
  8
_0-0_図面枠
  6
CONTINUOUS
 62
    2
 10
390.97049902430831
 20
264.87647457958161
 11
393.13556253376942
 21
266.12647457958161
  0
LINE
  8
_0-0_図面枠
  6
CONTINUOUS
 62
    2
 10
380.14518147700278
 20
262.62647457958167
 11
387.50639740917046
 21
266.87647457958167
  0
LINE
  8
_0-0_図面枠
  6
CONTINUOUS
 62
    2
 10
390.97049902430831
 20
264.87647457958161
 11
390.97049902430831
 21
254.87647457958161
  0
LINE
  8
_0-0_図面枠
  6
CONTINUOUS
 62
    2
 10
393.13556253376942
 20
266.12647457958161
 11
393.13556253376942
 21
256.12647457958161
  0
LINE
  8
_0-0_図面枠
  6
CONTINUOUS
 62
    3
 10
377.98011796754173
 20
263.87647457958167
 11
374.51601635240394
 21
261.87647457958167
  0
LINE
  8
_0-0_図面枠
  6
CONTINUOUS
 62
    3
 10
383.17627039024836
 20
266.87647457958167
 11
383.17627039024836
 21
264.37647457958167
  0
LINE
  8
_0-0_図面枠
  6
CONTINUOUS
 62
    3
 10
383.17627039024836
 20
266.87647457958167
 11
377.98011796754173
 21
263.87647457958167
  0
LINE
  8
_0-0_図面枠
  6
CONTINUOUS
 62
    3
 10
396.16665144701494
 20
264.37647457958167
 11
383.17627039024836
 21
271.87647457958167
  0
LINE
  8
_0-0_図面枠
  6
CONTINUOUS
 62
    3
 10
396.16665144701494
 20
264.37647457958167
 11
400.4967784659371
 21
266.87647457958167
  0
LINE
  8
_0-0_図面枠
  6
CONTINUOUS
 62
    3
 10
396.16665144701494
 20
264.37647457958161
 11
396.16665144701494
 21
254.37647457958161
  0
LINE
  8
_0-0_図面枠
  6
CONTINUOUS
 62
    3
 10
383.17627039024836
 20
266.87647457958167
 11
378.84614337132615
 21
269.37647457958167
  0
TEXT
  8
_0-0_図面枠
 62
    4
 10
372.20780191324212
 20
281.64635842036728
 40
2.5
 41
1
 50
0
  1
-50
  0
TEXT
  8
_0-0_図面枠
 62
    4
 10
394.72365560351324
 20
281.64635842036722
 40
2.5
 41
1
 50
0
  1
+50
  0
TEXT
  8
_0-0_図面枠
 62
    4
 10
394.72365560351318
 20
268.64682423125498
 40
2.5
 41
1
 50
0
  1
+50
  0
TEXT
  8
_0-0_図面枠
 62
    4
 10
372.20739850737277
 20
268.64752300079664
 40
2.5
 41
1
 50
0
  1
-50
  0
INSERT
  2
-027-_27_
  8
_1-8_小物
 10
210
 20
148.5
 41
1
 42
1
 50
0
  0
INSERT
  2
-028-_28_
  8
_1-8_小物
 10
210
 20
148.5
 41
1
 42
1
 50
0
  0
INSERT
  2
-029-_29_
  8
_1-8_小物
 10
210
 20
148.5
 41
1
 42
1
 50
0
  0
INSERT
  2
-030-_30_
  8
_1-8_小物
 10
210
 20
148.5
 41
1
 42
1
 50
0
  0
TEXT
  8
_0-0_図面枠
 62
    4
 10
48.400007500000015
 20
45.400003999999967
 40
3.2000000000000002
 41
1
 50
0
  1
ガスケットＧＮ
  0
TEXT
  8
_0-0_図面枠
 62
    4
 10
149.27047700000003
 20
45.40000950000001
 40
3.2000000000000002
 41
1
 50
0
  1
３０１０
  0
TEXT
  8
_0-0_図面枠
 62
    4
 10
248.4000075000001
 20
45.400003999999967
 40
3.2000000000000002
 41
1
 50
0
  1
ガスケットＧＮ
  0
TEXT
  8
_0-0_図面枠
 62
    4
 10
349.27047700000014
 20
45.40000950000001
 40
3.2000000000000002
 41
1
 50
0
  1
３０１０
  0
LINE
  8
_0-0_図面枠
  6
CONTINUOUS
 62
    4
 10
387.50639740917046
 20
266.87647457958161
 11
387.50639740917046
 21
256.87647457958161
  0
TEXT
  8
_0-0_図面枠
 62
    4
 10
247.20000000000005
 20
35.200000000000003
 40
2.5
 41
1
 50
0
  1
 ジョイントプレート
  0
TEXT
  8
_0-0_図面枠
 62
    4
 10
47.200000000000045
 20
35.200000000000003
 40
2.5
 41
1
 50
0
  1
 ジョイントプレート
  0
TEXT
  8
_0-0_図面枠
 62
    4
 10
47.200000000000045
 20
32.200000000000003
 40
2.5
 41
1
 50
0
  1
（１００ＳＳＧＪＰ-Ａ）
  0
TEXT
  8
_0-0_図面枠
 62
    4
 10
247.20000000000005
 20
32.200000000000003
 40
2.5
 41
1
 50
0
  1
（１００ＳＣＧＪＰ-Ａ）
  0
ENDSEC
  0
EOF
