  0
SECTION
  2
HEADER
  9
$ACADVER
  1
AC1009
  9
$INSBASE
 10
0
 20
0
 30
0
  9
$EXTMIN
 10
0
 20
0
  9
$EXTMAX
 10
3360
 20
2376
  9
$LIMMIN
 10
0
 20
0
  9
$LIMMAX
 10
3360
 20
2376
  9
$LTSCALE
 40
8
  0
ENDSEC
  0
SECTION
  2
TABLES
  0
TABLE
  2
LTYPE
 70
     9
  0
LTYPE
  2
CONTINUOUS
 70
    64
  3
実線
 72
    65
 73
     0
 40
0.0
  0
LTYPE
  2
DASHED1
 70
    64
  3
--  --  --  --  --  --  --  --  
 72
    65
 73
     2
 40
2.5
 49
1.25
 49
-1.25
  0
LTYPE
  2
DASHED2
 70
    64
  3
----    ----    ----    ----    
 72
    65
 73
     2
 40
5.0
 49
2.5
 49
-2.5
  0
LTYPE
  2
DASHED3
 70
    64
  3
------  ------  ------  ------  
 72
    65
 73
     2
 40
5.0
 49
3.75
 49
-1.25
  0
LTYPE
  2
CENTER1
 70
    64
  3
----- - ----- - ----- - ----- - 
 72
    65
 73
     4
 40
10.0
 49
6.25
 49
-1.25
 49
1.25
 49
-1.25
  0
LTYPE
  2
CENTER2
 70
    64
  3
----------  --  ----------  --  
 72
    65
 73
     4
 40
20.0
 49
12.5
 49
-2.5
 49
2.5
 49
-2.5
  0
LTYPE
  2
PHANTOM1
 70
    64
  3
--- - - --- - - --- - - --- - - 
 72
    65
 73
     6
 40
10.0
 49
3.25
 49
-1.25
 49
1.25
 49
-1.25
 49
1.25
 49
-1.25
  0
LTYPE
  2
PHANTOM2
 70
    64
  3
--------  -  -  --------  -  -  
 72
    65
 73
     6
 40
20.0
 49
10.0
 49
-2.5
 49
1.25
 49
-2.5
 49
1.25
 49
-2.5
  0
LTYPE
  2
DOT
 70
    64
  3
-   -   -   -   -   -   -   -   
 72
    65
 73
     2
 40
2.5
 49
0.625
 49
-1.875
  0
LTYPE
  2
DUMMY
 70
    64
  3
ダミー
 72
    65
 73
     0
 40
0.0
  0
LTYPE
  2
RAND1
 70
    64
  3
ランダム線1
 72
    65
 73
     4
 40
10.0
 49
1.0
 49
-2.0
 49
3.0
 49
-4.0
  0
LTYPE
  2
RAND2
 70
    64
  3
ランダム線2
 72
    65
 73
     4
 40
14.0
 49
2.0
 49
-3.0
 49
4.0
 49
-5.0
  0
LTYPE
  2
RAND3
 70
    64
  3
ランダム線3
 72
    65
 73
     4
 40
18.0
 49
3.0
 49
-4.0
 49
5.0
 49
-6.0
  0
LTYPE
  2
RAND4
 70
    64
  3
ランダム線4
 72
    65
 73
     4
 40
22.0
 49
4.0
 49
-5.0
 49
6.0
 49
-7.0
  0
LTYPE
  2
RAND5
 70
    64
  3
ランダム線5
 72
    65
 73
     4
 40
26.0
 49
5.0
 49
-6.0
 49
7.0
 49
-8.0
  0
LTYPE
  2
LONG1
 70
    64
  3
----------  --  ----------  --  
 72
    65
 73
     4
 40
40.0
 49
32.5
 49
-2.5
 49
2.5
 49
-2.5
  0
LTYPE
  2
LONG2
 70
    64
  3
--------  -  -  --------  -  -  
 72
    65
 73
     6
 40
40.0
 49
30.0
 49
-2.5
 49
1.25
 49
-2.5
 49
1.25
 49
-2.5
  0
LTYPE
  2
LONG3
 70
    64
  3
+++++++++++++++..+++++++++++++++
 72
    65
 73
     2
 40
40.0
 49
37.5
 49
-2.5
  0
LTYPE
  2
LONG4
 70
    64
  3
+++++++++++++++..+++++++++++++++
 72
    65
 73
     2
 40
80.0
 49
75.0
 49
-5.0
  0
LTYPE
  2
LONG5
 70
    64
  3
----------  --  ----------  --  
 72
    65
 73
     4
 40
60.0
 49
37.5
 49
-7.5
 49
7.5
 49
-7.5
  0
LTYPE
  2
dashed
 70
   64
  3
-------   -------------   ------
 72
   65
 73
    2
 40
7.5
 49
6
 49
-1.5
  0
LTYPE
  2
dashed_spaced
 70
   64
  3
----        --------        ----
 72
   65
 73
    2
 40
12
 49
6
 49
-6
  0
LTYPE
  2
long_dashed_dotted
 70
   64
  3
------------- --- --------------
 72
   65
 73
    4
 40
15.25
 49
12
 49
-1.5
 49
0.25
 49
-1.5
  0
LTYPE
  2
long_dashed_double-dotted
 70
   64
  3
----------- --- --- ------------
 72
   65
 73
    6
 40
17
 49
12
 49
-1.5
 49
0.25
 49
-1.5
 49
0.25
 49
-1.5
  0
LTYPE
  2
long_dashed_triplicate-dotted
 70
   64
  3
--------- --- --- --- ----------
 72
   65
 73
    8
 40
18.75
 49
12
 49
-1.5
 49
0.25
 49
-1.5
 49
0.25
 49
-1.5
 49
0.25
 49
-1.5
  0
LTYPE
  2
dotted
 70
   64
  3
   -       -       -       -    
 72
   65
 73
    2
 40
1.75
 49
0.25
 49
-1.5
  0
LTYPE
  2
chain
 70
   64
  3
-------------- -- --------------
 72
   65
 73
    4
 40
18.5
 49
12
 49
-1.5
 49
3.5
 49
-1.5
  0
LTYPE
  2
chain_double_dash
 70
   64
  3
------------ -- -- -------------
 72
   65
 73
    6
 40
23.5
 49
12
 49
-1.5
 49
3.5
 49
-1.5
 49
3.5
 49
-1.5
  0
LTYPE
  2
dashed_dotted
 70
   64
  3
-----------     -     ----------
 72
   65
 73
    4
 40
9.25
 49
6
 49
-1.5
 49
0.25
 49
-1.5
  0
LTYPE
  2
double-dashed_dotted
 70
   64
  3
------   -----------   -   -----
 72
   65
 73
    6
 40
16.75
 49
6
 49
-1.5
 49
6
 49
-1.5
 49
0.25
 49
-1.5
  0
LTYPE
  2
dashed_double-dotted
 70
   64
  3
---------    -    -    ---------
 72
   65
 73
    6
 40
11
 49
6
 49
-1.5
 49
0.25
 49
-1.5
 49
0.25
 49
-1.5
  0
LTYPE
  2
double-dashed_double-dotted
 70
   64
  3
-----   ---------   -   -   ----
 72
   65
 73
    8
 40
18.5
 49
6
 49
-1.5
 49
6
 49
-1.5
 49
0.25
 49
-1.5
 49
0.25
 49
-1.5
  0
LTYPE
  2
dashed_triplicate-dotted
 70
   64
  3
-------    -    -    -    ------
 72
   65
 73
    8
 40
12.75
 49
6
 49
-1.5
 49
0.25
 49
-1.5
 49
0.25
 49
-1.5
 49
0.25
 49
-1.5
  0
LTYPE
  2
double-dashed_triplicate-dotted
 70
   64
  3
-----  ---------  -  -  -  -----
 72
   65
 73
   10
 40
20.25
 49
6
 49
-1.5
 49
6
 49
-1.5
 49
0.25
 49
-1.5
 49
0.25
 49
-1.5
 49
0.25
 49
-1.5
  0
LTYPE
  2
undefined
 70
   64
  3
--------------------------------
 72
   65
 73
    0
 40
0
  0
LTYPE
  2
PLINE2
 70
   64
  3
------     -----------     -----
 72
   65
 73
    2
 40
3
 49
2.1000000000000001
 49
-0.9
  0
ENDTAB
  0
TABLE
  2
STYLE
  5
3
100
AcDbSymbolTable
 70
     1
  0
STYLE
  5
10
100
AcDbSymbolTableRecord
100
AcDbTextStyleTableRecord
  2
STANDARD
 70
     0
 40
0.0
 41
1.0
 50
0.0
 71
     0
 42
0.2
  3
txt
  4
bigfont.shx
  0
STYLE
  5
26
100
AcDbSymbolTableRecord
100
AcDbTextStyleTableRecord
  2
TATEGAKI
 70
    68
 40
0.0
 41
1.0
 50
0.0
 71
     0
 42
1.0
  3
txt
  4
bigfont.shx
  0
ENDTAB
  0
TABLE
  2
LAYER
 70
    5
  0
LAYER
  2
_0-2_寸法
 70
   64
 62
    7
  6
CONTINUOUS
  0
LAYER
  2
_0-3_躯体と製品
 70
   64
 62
    7
  6
CONTINUOUS
  0
LAYER
  2
_0-4_文字-記号
 70
   64
 62
    7
  6
CONTINUOUS
  0
LAYER
  2
_0-5_中心線
 70
   64
 62
    7
  6
CONTINUOUS
  0
LAYER
  2
ADD_LINE
 70
   64
 62
    7
  6
CONTINUOUS
  0
ENDTAB
  0
ENDSEC
  0
SECTION
  2
BLOCKS
  0
BLOCK
  2
-000-_Small
 70
   64
 10
0
 20
0
 30
0
  0
CIRCLE
  8
_0-0_0
  6
CONTINUOUS
 62
    7
 10
0
 20
0
 40
0.25
  0
ENDBLK
  0
BLOCK
  2
-001-_D2
 70
   64
 10
0
 20
0
 30
0
  0
LINE
  8
_0-2_寸法
  6
CONTINUOUS
 62
    4
 10
4374.3232893977056
 20
538.96060908728305
 11
4374.3232893977056
 21
424.17456908728258
  0
LINE
  8
_0-2_寸法
  6
CONTINUOUS
 62
    4
 10
4524.3232893977047
 20
538.96060908728305
 11
4524.3232893977047
 21
424.17456908728258
  0
LINE
  8
_0-2_寸法
  6
CONTINUOUS
 62
    4
 10
4374.3232893977056
 20
424.17456908728258
 11
4524.3232893977047
 21
424.17456908728258
  0
INSERT
  2
-000-_Small
  8
_0-2_寸法
 10
4374.3232893977056
 20
424.17456908728258
 41
10
 42
10
 50
180
  0
INSERT
  2
-000-_Small
  8
_0-2_寸法
 10
4524.3232893977047
 20
424.17456908728258
 41
10
 42
10
 50
0
  0
TEXT
  8
_0-2_寸法
 62
    7
 10
4411.8232893977056
 20
439.17456908728258
 40
50
 41
1
 50
0
  1
150
  0
POINT
  8
_0-1_Defpoints
 62
    7
 10
4374.3232893977056
 20
538.96060908728305
  0
POINT
  8
_0-1_Defpoints
 62
    7
 10
4524.3232893977047
 20
538.96060908728305
  0
POINT
  8
_0-1_Defpoints
 62
    7
 10
4524.3232893977047
 20
424.17456908728258
  0
ENDBLK
  0
BLOCK
  2
-002-_D3
 70
   64
 10
0
 20
0
 30
0
  0
LINE
  8
_0-2_寸法
  6
CONTINUOUS
 62
    4
 10
4524.3232893977047
 20
538.96060908728305
 11
4524.3232893977047
 21
424.17456908728258
  0
LINE
  8
_0-2_寸法
  6
CONTINUOUS
 62
    4
 10
5312.5640261496292
 20
538.96060908728305
 11
5312.5640261496292
 21
424.17456908728258
  0
LINE
  8
_0-2_寸法
  6
CONTINUOUS
 62
    4
 10
4524.3232893977047
 20
424.17456908728258
 11
5312.5640261496292
 21
424.17456908728258
  0
INSERT
  2
-000-_Small
  8
_0-2_寸法
 10
4524.3232893977047
 20
424.17456908728258
 41
10
 42
10
 50
180
  0
INSERT
  2
-000-_Small
  8
_0-2_寸法
 10
5312.5640261496292
 20
424.17456908728258
 41
10
 42
10
 50
0
  0
TEXT
  8
_0-2_寸法
 62
    7
 10
4830.9436577736669
 20
439.17456908728258
 40
50
 41
1
 50
0
  1
900以内
  0
POINT
  8
_0-1_Defpoints
 62
    7
 10
4524.3232893977047
 20
538.96060908728305
  0
POINT
  8
_0-1_Defpoints
 62
    7
 10
5312.5640261496292
 20
538.96060908728305
  0
POINT
  8
_0-1_Defpoints
 62
    7
 10
5312.5640261496292
 20
424.17456908728258
  0
ENDBLK
  0
BLOCK
  2
-003-_D4
 70
   64
 10
0
 20
0
 30
0
  0
LINE
  8
_0-2_寸法
  6
CONTINUOUS
 62
    4
 10
4374.3232893977056
 20
-679.86667581810605
 11
4374.3232893977056
 21
-779.65272581810666
  0
LINE
  8
_0-2_寸法
  6
CONTINUOUS
 62
    4
 10
4574.3232893977056
 20
-679.86667581810605
 11
4574.3232893977056
 21
-779.65272581810666
  0
LINE
  8
_0-2_寸法
  6
CONTINUOUS
 62
    4
 10
4374.3232893977056
 20
-779.65272581810666
 11
4574.3232893977056
 21
-779.65272581810666
  0
INSERT
  2
-000-_Small
  8
_0-2_寸法
 10
4374.3232893977056
 20
-779.65272581810666
 41
10
 42
10
 50
180
  0
INSERT
  2
-000-_Small
  8
_0-2_寸法
 10
4574.3232893977056
 20
-779.65272581810666
 41
10
 42
10
 50
0
  0
TEXT
  8
_0-2_寸法
 62
    7
 10
4436.8232893977047
 20
-764.65272581810666
 40
50
 41
1
 50
0
  1
200
  0
POINT
  8
_0-1_Defpoints
 62
    7
 10
4374.3232893977056
 20
-679.86667581810605
  0
POINT
  8
_0-1_Defpoints
 62
    7
 10
4574.3232893977056
 20
-679.86667581810605
  0
POINT
  8
_0-1_Defpoints
 62
    7
 10
4574.3232893977056
 20
-779.65272581810666
  0
ENDBLK
  0
BLOCK
  2
-004-_D5
 70
   64
 10
0
 20
0
 30
0
  0
LINE
  8
_0-2_寸法
  6
CONTINUOUS
 62
    4
 10
4574.3232893977056
 20
-679.86667581810605
 11
4574.3232893977056
 21
-779.65272581810632
  0
LINE
  8
_0-2_寸法
  6
CONTINUOUS
 62
    4
 10
5312.5640261496292
 20
-679.82094571331515
 11
5312.5640261496292
 21
-779.65272581810632
  0
LINE
  8
_0-2_寸法
  6
CONTINUOUS
 62
    4
 10
4574.3232893977056
 20
-779.65272581810632
 11
5312.5640261496292
 21
-779.65272581810632
  0
INSERT
  2
-000-_Small
  8
_0-2_寸法
 10
4574.3232893977056
 20
-779.65272581810632
 41
10
 42
10
 50
180
  0
INSERT
  2
-000-_Small
  8
_0-2_寸法
 10
5312.5640261496292
 20
-779.65272581810632
 41
10
 42
10
 50
0
  0
TEXT
  8
_0-2_寸法
 62
    7
 10
4855.943657773666
 20
-764.65272581810632
 40
50
 41
1
 50
0
  1
900以内
  0
POINT
  8
_0-1_Defpoints
 62
    7
 10
4574.3232893977056
 20
-679.86667581810605
  0
POINT
  8
_0-1_Defpoints
 62
    7
 10
5312.5640261496292
 20
-679.82094571331515
  0
POINT
  8
_0-1_Defpoints
 62
    7
 10
5312.5640261496292
 20
-779.65272581810632
  0
ENDBLK
  0
BLOCK
  2
-005-_D6
 70
   64
 10
0
 20
0
 30
0
  0
LINE
  8
_0-2_寸法
  6
CONTINUOUS
 62
    4
 10
6199.4480193977051
 20
538.96060908728305
 11
6199.4480193977051
 21
424.17456908728258
  0
LINE
  8
_0-2_寸法
  6
CONTINUOUS
 62
    4
 10
6349.4480193977051
 20
538.96060908728305
 11
6349.4480193977051
 21
424.17456908728258
  0
LINE
  8
_0-2_寸法
  6
CONTINUOUS
 62
    4
 10
6199.4480193977051
 20
424.17456908728258
 11
6349.4480193977051
 21
424.17456908728258
  0
INSERT
  2
-000-_Small
  8
_0-2_寸法
 10
6199.4480193977051
 20
424.17456908728258
 41
10
 42
10
 50
180
  0
INSERT
  2
-000-_Small
  8
_0-2_寸法
 10
6349.4480193977051
 20
424.17456908728258
 41
10
 42
10
 50
0
  0
TEXT
  8
_0-2_寸法
 62
    7
 10
6236.948019397706
 20
439.17456908728258
 40
50
 41
1
 50
0
  1
150
  0
POINT
  8
_0-1_Defpoints
 62
    7
 10
6199.4480193977051
 20
538.96060908728305
  0
POINT
  8
_0-1_Defpoints
 62
    7
 10
6349.4480193977051
 20
538.96060908728305
  0
POINT
  8
_0-1_Defpoints
 62
    7
 10
6349.4480193977051
 20
424.17456908728258
  0
ENDBLK
  0
BLOCK
  2
-006-_D7
 70
   64
 10
0
 20
0
 30
0
  0
LINE
  8
_0-2_寸法
  6
CONTINUOUS
 62
    4
 10
6349.4480193977051
 20
538.96060908728305
 11
6349.4480193977051
 21
424.17456908728258
  0
LINE
  8
_0-2_寸法
  6
CONTINUOUS
 62
    4
 10
7099.4480193977051
 20
538.96060908728305
 11
7099.4480193977051
 21
424.17456908728258
  0
LINE
  8
_0-2_寸法
  6
CONTINUOUS
 62
    4
 10
6349.4480193977051
 20
424.17456908728258
 11
7099.4480193977051
 21
424.17456908728258
  0
INSERT
  2
-000-_Small
  8
_0-2_寸法
 10
6349.4480193977051
 20
424.17456908728258
 41
10
 42
10
 50
180
  0
INSERT
  2
-000-_Small
  8
_0-2_寸法
 10
7099.4480193977051
 20
424.17456908728258
 41
10
 42
10
 50
0
  0
TEXT
  8
_0-2_寸法
 62
    7
 10
6636.9480193977051
 20
439.17456908728258
 40
50
 41
1
 50
0
  1
900以内
  0
POINT
  8
_0-1_Defpoints
 62
    7
 10
6349.4480193977051
 20
538.96060908728305
  0
POINT
  8
_0-1_Defpoints
 62
    7
 10
7099.4480193977051
 20
538.96060908728305
  0
POINT
  8
_0-1_Defpoints
 62
    7
 10
7099.4480193977051
 20
424.17456908728258
  0
ENDBLK
  0
BLOCK
  2
-007-_D8
 70
   64
 10
0
 20
0
 30
0
  0
LINE
  8
_0-2_寸法
  6
CONTINUOUS
 62
    4
 10
5657.784336149628
 20
548.96060908728282
 11
5741.6015361496284
 21
548.96060908728282
  0
LINE
  8
_0-2_寸法
  6
CONTINUOUS
 62
    4
 10
5657.7843361496289
 20
1015.960609087283
 11
5741.6015361496284
 21
1015.960609087283
  0
LINE
  8
_0-2_寸法
  6
CONTINUOUS
 62
    4
 10
5741.6015361496284
 20
548.96060908728282
 11
5741.6015361496284
 21
1015.960609087283
  0
INSERT
  2
-000-_Small
  8
_0-2_寸法
 10
5741.6015361496284
 20
548.96060908728282
 41
10
 42
10
 50
270
  0
INSERT
  2
-000-_Small
  8
_0-2_寸法
 10
5741.6015361496284
 20
1015.960609087283
 41
10
 42
10
 50
90
  0
TEXT
  8
_0-2_寸法
 62
    7
 10
5721.8396313877238
 20
657.46060908728384
 40
50
 41
1
 50
90
  1
208～1,087
  0
POINT
  8
_0-1_Defpoints
 62
    7
 10
5657.784336149628
 20
548.96060908728282
  0
POINT
  8
_0-1_Defpoints
 62
    7
 10
5657.7843361496289
 20
1015.960609087283
  0
POINT
  8
_0-1_Defpoints
 62
    7
 10
5741.6015361496284
 20
1015.960609087283
  0
ENDBLK
  0
BLOCK
  2
-008-_D9
 70
   64
 10
0
 20
0
 30
0
  0
LINE
  8
_0-2_寸法
  6
CONTINUOUS
 62
    4
 10
5657.7843361496289
 20
1048.960609087283
 11
5833.9349089504749
 21
1048.960609087283
  0
LINE
  8
_0-2_寸法
  6
CONTINUOUS
 62
    4
 10
5657.784336149628
 20
548.96060908728282
 11
5833.9349089504749
 21
548.96060908728282
  0
LINE
  8
_0-2_寸法
  6
CONTINUOUS
 62
    4
 10
5833.9349089504749
 20
1048.960609087283
 11
5833.9349089504749
 21
548.96060908728282
  0
INSERT
  2
-000-_Small
  8
_0-2_寸法
 10
5833.9349089504749
 20
1048.960609087283
 41
10
 42
10
 50
90
  0
INSERT
  2
-000-_Small
  8
_0-2_寸法
 10
5833.9349089504749
 20
548.96060908728282
 41
10
 42
10
 50
270
  0
TEXT
  8
_0-2_寸法
 62
    7
 10
5818.934908950474
 20
786.46060908728384
 40
50
 41
1
 50
90
  1
H
  0
POINT
  8
_0-1_Defpoints
 62
    7
 10
5657.7843361496289
 20
1048.960609087283
  0
POINT
  8
_0-1_Defpoints
 62
    7
 10
5657.784336149628
 20
548.96060908728282
  0
POINT
  8
_0-1_Defpoints
 62
    7
 10
5833.9349089504749
 20
548.96060908728282
  0
ENDBLK
  0
BLOCK
  2
-009-_D10
 70
   64
 10
0
 20
0
 30
0
  0
LINE
  8
_0-2_寸法
  6
CONTINUOUS
 62
    4
 10
7502.3716493977063
 20
548.96060908728305
 11
7586.188849397704
 21
548.96060908728305
  0
LINE
  8
_0-2_寸法
  6
CONTINUOUS
 62
    4
 10
7502.3716493977063
 20
1015.960609087283
 11
7586.188849397704
 21
1015.960609087283
  0
LINE
  8
_0-2_寸法
  6
CONTINUOUS
 62
    4
 10
7586.188849397704
 20
548.96060908728305
 11
7586.188849397704
 21
1015.960609087283
  0
INSERT
  2
-000-_Small
  8
_0-2_寸法
 10
7586.188849397704
 20
548.96060908728305
 41
10
 42
10
 50
270
  0
INSERT
  2
-000-_Small
  8
_0-2_寸法
 10
7586.188849397704
 20
1015.960609087283
 41
10
 42
10
 50
90
  0
TEXT
  8
_0-2_寸法
 62
    7
 10
7566.4269446357994
 20
657.46060908728418
 40
50
 41
1
 50
90
  1
208～1,087
  0
POINT
  8
_0-1_Defpoints
 62
    7
 10
7502.3716493977063
 20
548.96060908728305
  0
POINT
  8
_0-1_Defpoints
 62
    7
 10
7502.3716493977063
 20
1015.960609087283
  0
POINT
  8
_0-1_Defpoints
 62
    7
 10
7586.188849397704
 20
1015.960609087283
  0
ENDBLK
  0
BLOCK
  2
-010-_D11
 70
   64
 10
0
 20
0
 30
0
  0
LINE
  8
_0-2_寸法
  6
CONTINUOUS
 62
    4
 10
7502.3716493977063
 20
1048.960609087283
 11
7675.8701727276948
 21
1048.960609087283
  0
LINE
  8
_0-2_寸法
  6
CONTINUOUS
 62
    4
 10
7502.3716493977063
 20
548.96060908728305
 11
7675.8701727276948
 21
548.96060908728305
  0
LINE
  8
_0-2_寸法
  6
CONTINUOUS
 62
    4
 10
7675.8701727276948
 20
1048.960609087283
 11
7675.8701727276948
 21
548.96060908728305
  0
INSERT
  2
-000-_Small
  8
_0-2_寸法
 10
7675.8701727276948
 20
1048.960609087283
 41
10
 42
10
 50
90
  0
INSERT
  2
-000-_Small
  8
_0-2_寸法
 10
7675.8701727276948
 20
548.96060908728305
 41
10
 42
10
 50
270
  0
TEXT
  8
_0-2_寸法
 62
    7
 10
7660.8701727276948
 20
786.46060908728407
 40
50
 41
1
 50
90
  1
H
  0
POINT
  8
_0-1_Defpoints
 62
    7
 10
7502.3716493977063
 20
1048.960609087283
  0
POINT
  8
_0-1_Defpoints
 62
    7
 10
7502.3716493977063
 20
548.96060908728305
  0
POINT
  8
_0-1_Defpoints
 62
    7
 10
7675.8701727276948
 20
548.96060908728305
  0
ENDBLK
  0
BLOCK
  2
-011-_D12
 70
   64
 10
0
 20
0
 30
0
  0
LINE
  8
_0-2_寸法
  6
CONTINUOUS
 62
    4
 10
5727.2221961496289
 20
-666.51731091271722
 11
5811.039406149629
 21
-666.51731091271722
  0
LINE
  8
_0-2_寸法
  6
CONTINUOUS
 62
    4
 10
5727.2221961496289
 20
-199.51731091271739
 11
5811.039406149629
 21
-199.51731091271739
  0
LINE
  8
_0-2_寸法
  6
CONTINUOUS
 62
    4
 10
5811.039406149629
 20
-666.51731091271722
 11
5811.039406149629
 21
-199.51731091271739
  0
INSERT
  2
-000-_Small
  8
_0-2_寸法
 10
5811.039406149629
 20
-666.51731091271722
 41
10
 42
10
 50
270
  0
INSERT
  2
-000-_Small
  8
_0-2_寸法
 10
5811.039406149629
 20
-199.51731091271739
 41
10
 42
10
 50
90
  0
TEXT
  8
_0-2_寸法
 62
    7
 10
5791.2775013877244
 20
-558.01731091271643
 40
50
 41
1
 50
90
  1
208～1,087
  0
POINT
  8
_0-1_Defpoints
 62
    7
 10
5727.2221961496289
 20
-666.51731091271722
  0
POINT
  8
_0-1_Defpoints
 62
    7
 10
5727.2221961496289
 20
-199.51731091271739
  0
POINT
  8
_0-1_Defpoints
 62
    7
 10
5811.039406149629
 20
-199.51731091271739
  0
ENDBLK
  0
BLOCK
  2
-012-_D13
 70
   64
 10
0
 20
0
 30
0
  0
LINE
  8
_0-2_寸法
  6
CONTINUOUS
 62
    4
 10
5727.2221961496289
 20
-666.51731091271722
 11
5915.648421107775
 21
-666.51731091271733
  0
LINE
  8
_0-2_寸法
  6
CONTINUOUS
 62
    4
 10
5727.2221961496289
 20
-166.5173109127177
 11
5915.648421107775
 21
-166.5173109127177
  0
LINE
  8
_0-2_寸法
  6
CONTINUOUS
 62
    4
 10
5915.648421107775
 20
-666.51731091271733
 11
5915.648421107775
 21
-166.5173109127177
  0
INSERT
  2
-000-_Small
  8
_0-2_寸法
 10
5915.648421107775
 20
-666.51731091271733
 41
10
 42
10
 50
270
  0
INSERT
  2
-000-_Small
  8
_0-2_寸法
 10
5915.648421107775
 20
-166.5173109127177
 41
10
 42
10
 50
90
  0
TEXT
  8
_0-2_寸法
 62
    7
 10
5900.648421107775
 20
-429.01731091271648
 40
50
 41
1
 50
90
  1
H
  0
POINT
  8
_0-1_Defpoints
 62
    7
 10
5727.2221961496289
 20
-666.51731091271722
  0
POINT
  8
_0-1_Defpoints
 62
    7
 10
5727.2221961496289
 20
-166.5173109127177
  0
POINT
  8
_0-1_Defpoints
 62
    7
 10
5915.648421107775
 20
-166.5173109127177
  0
ENDBLK
  0
BLOCK
  2
-013-_D14
 70
   64
 10
0
 20
0
 30
0
  0
LINE
  8
_0-2_寸法
  6
CONTINUOUS
 62
    4
 10
4862.5650261496276
 20
-158.5986109127175
 11
4862.5650261496276
 21
-35.2100666816591
  0
LINE
  8
_0-2_寸法
  6
CONTINUOUS
 62
    4
 10
5162.5650261496276
 20
-157.5962809127177
 11
5162.5650261496276
 21
-35.2100666816591
  0
LINE
  8
_0-2_寸法
  6
CONTINUOUS
 62
    4
 10
4862.5650261496276
 20
-35.2100666816591
 11
5162.5650261496276
 21
-35.2100666816591
  0
INSERT
  2
-000-_Small
  8
_0-2_寸法
 10
4862.5650261496276
 20
-35.2100666816591
 41
10
 42
10
 50
180
  0
INSERT
  2
-000-_Small
  8
_0-2_寸法
 10
5162.5650261496276
 20
-35.2100666816591
 41
10
 42
10
 50
0
  0
TEXT
  8
_0-2_寸法
 62
    7
 10
4975.0650261496276
 20
-20.2100666816591
 40
50
 41
1
 50
0
  1
300
  0
POINT
  8
_0-1_Defpoints
 62
    7
 10
4862.5650261496276
 20
-158.5986109127175
  0
POINT
  8
_0-1_Defpoints
 62
    7
 10
5162.5650261496276
 20
-157.5962809127177
  0
POINT
  8
_0-1_Defpoints
 62
    7
 10
5162.5650261496276
 20
-35.2100666816591
  0
ENDBLK
  0
BLOCK
  2
-014-_D15
 70
   64
 10
0
 20
0
 30
0
  0
LINE
  8
_0-2_寸法
  6
CONTINUOUS
 62
    4
 10
5162.5650261496276
 20
-157.5962809127177
 11
5162.5650261496276
 21
-35.2100666816591
  0
LINE
  8
_0-2_寸法
  6
CONTINUOUS
 62
    4
 10
5462.5650261496276
 20
-157.5962809127177
 11
5462.5650261496276
 21
-35.2100666816591
  0
LINE
  8
_0-2_寸法
  6
CONTINUOUS
 62
    4
 10
5162.5650261496276
 20
-35.2100666816591
 11
5462.5650261496276
 21
-35.2100666816591
  0
INSERT
  2
-000-_Small
  8
_0-2_寸法
 10
5162.5650261496276
 20
-35.2100666816591
 41
10
 42
10
 50
180
  0
INSERT
  2
-000-_Small
  8
_0-2_寸法
 10
5462.5650261496276
 20
-35.2100666816591
 41
10
 42
10
 50
0
  0
TEXT
  8
_0-2_寸法
 62
    7
 10
5275.0650261496276
 20
-20.2100666816591
 40
50
 41
1
 50
0
  1
300
  0
POINT
  8
_0-1_Defpoints
 62
    7
 10
5162.5650261496276
 20
-157.5962809127177
  0
POINT
  8
_0-1_Defpoints
 62
    7
 10
5462.5650261496276
 20
-157.5962809127177
  0
POINT
  8
_0-1_Defpoints
 62
    7
 10
5462.5650261496276
 20
-35.2100666816591
  0
ENDBLK
  0
BLOCK
  2
-015-_D16
 70
   64
 10
0
 20
0
 30
0
  0
LINE
  8
_0-2_寸法
  6
CONTINUOUS
 62
    4
 10
6399.448019397706
 20
1058.960609087283
 11
6399.448019397706
 21
1152.6397958071691
  0
LINE
  8
_0-2_寸法
  6
CONTINUOUS
 62
    4
 10
6599.448019397707
 20
1058.9339590872819
 11
6599.448019397707
 21
1152.6397958071691
  0
LINE
  8
_0-2_寸法
  6
CONTINUOUS
 62
    4
 10
6399.448019397706
 20
1152.6397958071691
 11
6599.448019397707
 21
1152.6397958071691
  0
INSERT
  2
-000-_Small
  8
_0-2_寸法
 10
6399.448019397706
 20
1152.6397958071691
 41
10
 42
10
 50
180
  0
INSERT
  2
-000-_Small
  8
_0-2_寸法
 10
6599.448019397707
 20
1152.6397958071691
 41
10
 42
10
 50
0
  0
TEXT
  8
_0-2_寸法
 62
    7
 10
6461.948019397707
 20
1167.6397958071691
 40
50
 41
1
 50
0
  1
200
  0
POINT
  8
_0-1_Defpoints
 62
    7
 10
6399.448019397706
 20
1058.960609087283
  0
POINT
  8
_0-1_Defpoints
 62
    7
 10
6599.448019397707
 20
1058.9339590872819
  0
POINT
  8
_0-1_Defpoints
 62
    7
 10
6599.448019397707
 20
1152.6397958071691
  0
ENDBLK
  0
ENDSEC
  0
SECTION
  2
ENTITIES
  0
TEXT
  8
_0-4_文字-記号
 62
    7
 10
439.1432683350049
 20
1121.7214245686212
 40
45
 41
0.8
 50
0
  1
壁廻り納まり（根太方向）
  0
TEXT
  8
_0-4_文字-記号
 62
    7
 10
428.29754833500556
 20
-87.20004429627852
 40
45
 41
0.8
 50
0
  1
壁廻り納まり（大引方向）
  0
TEXT
  8
_0-4_文字-記号
 62
    7
 10
687.07989573251689
 20
1541.6140647475552
 40
45
 41
0.8
 50
0
  1
支持脚２０３
  0
TEXT
  8
_0-4_文字-記号
 62
    7
 10
329.45753706522555
 20
1687.4045927695722
 40
45
 41
0.8
 50
0.0000100000010064
  1
大引鋼
  0
TEXT
  8
_0-4_文字-記号
 62
    7
 10
180.08483873124715
 20
2075.5378402465558
 40
45
 41
0.8
 50
0
  1
巾木
  0
TEXT
  8
_0-4_文字-記号
 62
    7
 10
1013.9666564576273
 20
1974.1664595180816
 40
45
 41
0.8
 50
0
  1
捨　板
  0
TEXT
  8
_0-4_文字-記号
 62
    7
 10
753.50966437246916
 20
1682.6310588153071
 40
45
 41
0.8
 50
0
  1
根太鋼
  0
TEXT
  8
_0-4_文字-記号
 62
    7
 10
929.36496241967416
 20
2039.1564432099747
 40
45
 41
0.8
 50
0
  1
フローリング
  0
TEXT
  8
_0-4_文字-記号
 62
    7
 10
2365.3303983350024
 20
1106.5844045686206
 40
45
 41
0.8
 50
0
  1
床上換気口設置例
  0
TEXT
  8
_0-4_文字-記号
 62
    7
 10
2400.3991283350069
 20
2063.1180645686209
 40
45
 41
0.8
 50
0
  1
床上換気口（ベースピット）
  0
TEXT
  8
_0-4_文字-記号
 62
    7
 10
2389.8818052861443
 20
1961.9378451355076
 40
45
 41
0.8
 50
0
  1
ＥＸＰゴム
  0
CIRCLE
  8
_0-3_躯体と製品
  6
CONTINUOUS
 62
    3
 10
2112.6519883350056
 20
2104.0702245686198
 40
3
  0
CIRCLE
  8
_0-3_躯体と製品
  6
CONTINUOUS
 62
    3
 10
2292.6519883350056
 20
2104.0702245686198
 40
3
  0
INSERT
  2
-001-_D2
  8
_0-2_寸法
 10
-4296.7960310627004
 20
818.05767548133758
 41
1
 42
1
 50
0
  0
INSERT
  2
-002-_D3
  8
_0-2_寸法
 10
-4296.7960310627004
 20
818.05767548133758
 41
1
 42
1
 50
0
  0
INSERT
  2
-003-_D4
  8
_0-2_寸法
 10
-4296.7960310627004
 20
818.05767548133758
 41
1
 42
1
 50
0
  0
INSERT
  2
-004-_D5
  8
_0-2_寸法
 10
-4296.7960310627004
 20
818.05767548133758
 41
1
 42
1
 50
0
  0
INSERT
  2
-005-_D6
  8
_0-2_寸法
 10
-4296.7960310627004
 20
818.05767548133758
 41
1
 42
1
 50
0
  0
INSERT
  2
-006-_D7
  8
_0-2_寸法
 10
-4296.7960310627004
 20
818.05767548133758
 41
1
 42
1
 50
0
  0
INSERT
  2
-007-_D8
  8
_0-2_寸法
 10
-4296.7960310627004
 20
818.05767548133758
 41
1
 42
1
 50
0
  0
INSERT
  2
-008-_D9
  8
_0-2_寸法
 10
-4296.7960310627004
 20
818.05767548133758
 41
1
 42
1
 50
0
  0
INSERT
  2
-009-_D10
  8
_0-2_寸法
 10
-4296.7960310627004
 20
818.05767548133758
 41
1
 42
1
 50
0
  0
INSERT
  2
-010-_D11
  8
_0-2_寸法
 10
-4296.7960310627004
 20
818.05767548133758
 41
1
 42
1
 50
0
  0
INSERT
  2
-011-_D12
  8
_0-2_寸法
 10
-4296.7960310627004
 20
818.05767548133758
 41
1
 42
1
 50
0
  0
INSERT
  2
-012-_D13
  8
_0-2_寸法
 10
-4296.7960310627004
 20
818.05767548133758
 41
1
 42
1
 50
0
  0
INSERT
  2
-013-_D14
  8
_0-2_寸法
 10
-4296.7960310627004
 20
818.05767548133758
 41
1
 42
1
 50
0
  0
INSERT
  2
-014-_D15
  8
_0-2_寸法
 10
-4296.7960310627004
 20
818.05767548133758
 41
1
 42
1
 50
0
  0
TEXT
  8
_0-2_寸法
 62
    7
 10
1203.6384502341307
 20
800.82410449213353
 40
45
 41
1
 50
0
  1
@300
  0
TEXT
  8
_0-2_寸法
 62
    7
 10
1120.0805341458818
 20
1255.7794990913637
 40
45
 41
1
 50
0
  1
@900
  0
TEXT
  8
_0-2_寸法
 62
    7
 10
2938.5973412877684
 20
1259.7312249812969
 40
45
 41
1
 50
0
  1
@900
  0
TEXT
  8
_0-2_寸法
 62
    7
 10
1139.0720741004943
 20
58.717865301715847
 40
45
 41
1
 50
0
  1
@900
  0
INSERT
  2
-015-_D16
  8
_0-2_寸法
 10
-4296.7960310627004
 20
818.05767548133758
 41
1
 42
1
 50
0
  0
TEXT
  8
_0-4_文字-記号
 62
    7
 10
1968.5739990663296
 20
2032.8508214665305
 40
45
 41
0.8
 50
0
  1
巾木
  0
TEXT
  8
_0-4_文字-記号
 62
    7
 10
2155.0401698012456
 20
1691.1088562200025
 40
45
 41
0.8
 50
0.0000100000010064
  1
大引鋼
  0
TEXT
  8
_0-4_文字-記号
 62
    7
 10
3035.1343522841344
 20
1683.2088381444921
 40
45
 41
0.8
 50
0
  1
根太鋼
  0
TEXT
  8
_0-4_文字-記号
 62
    7
 10
2887.7915690480086
 20
1529.293355935042
 40
45
 41
0.8
 50
0
  1
支持脚２０３
  0
TEXT
  8
_0-4_文字-記号
 62
    7
 10
632.07982777760117
 20
450.12805481217026
 40
45
 41
0.8
 50
0.0000100000010064
  1
大引鋼
  0
TEXT
  8
_0-4_文字-記号
 62
    7
 10
1243.2721777486904
 20
485.01017468165333
 40
45
 41
0.8
 50
0
  1
根太鋼
  0
TEXT
  8
_0-4_文字-記号
 62
    7
 10
1085.9163116892332
 20
295.12431423483076
 40
45
 41
0.8
 50
0
  1
支持脚２０３
  0
LINE
  8
_0-5_中心線
  6
CENTER1
 62
    7
 10
1015.7679950869287
 20
1357.0182845686206
 11
1015.7679950869287
 21
1828.7242187793956
  0
ARC
  8
_0-3_躯体と製品
  6
CONTINUOUS
 62
    4
 10
971.47380680052265
 20
1370.6182845686119
 40
1.599999999991212
 50
270
 51
89.999999999999972
  0
LINE
  8
_0-3_躯体と製品
  6
CONTINUOUS
 62
    4
 10
971.47380680052265
 20
1372.2182845686032
 11
940.7679950869333
 21
1372.2182845686032
  0
LINE
  8
_0-3_躯体と製品
  6
CONTINUOUS
 62
    4
 10
940.7679950869333
 20
1372.2182845686032
 11
940.7679950869333
 21
1369.0182845686206
  0
LINE
  8
_0-3_躯体と製品
  6
CONTINUOUS
 62
    4
 10
940.7679950869333
 20
1369.0182845686206
 11
971.47380680052265
 21
1369.0182845686206
  0
ARC
  8
_0-3_躯体と製品
  6
CONTINUOUS
 62
    4
 10
971.47380680053982
 20
1376.2182845686143
 40
7.1999999999937341
 50
269.99999999986329
 51
352.31944208863757
  0
LINE
  8
_0-3_躯体と製品
  6
CONTINUOUS
 62
    4
 10
978.60921277804118
 20
1375.2560052244801
 11
997.09806894138364
 21
1512.3528842042426
  0
ARC
  8
_0-3_躯体と製品
  6
CONTINUOUS
 62
    4
 10
1001.0621833733315
 20
1511.8182845686094
 40
3.9999999999996634
 50
89.999999999823189
 51
172.31944208859915
  0
LINE
  8
_0-3_躯体と製品
  6
CONTINUOUS
 62
    4
 10
1001.0621833733439
 20
1515.818284568609
 11
1030.4738068005227
 21
1515.818284568609
  0
ARC
  8
_0-3_躯体と製品
  6
CONTINUOUS
 62
    4
 10
1030.4738068005358
 20
1511.8182845686083
 40
4.0000000000007034
 50
7.6805579114138913
 51
90.000000000189843
  0
LINE
  8
_0-3_躯体と製品
  6
CONTINUOUS
 62
    4
 10
1034.4379212324848
 20
1512.3528842042426
 11
1052.9267773958254
 21
1375.2560052244801
  0
ARC
  8
_0-3_躯体と製品
  6
CONTINUOUS
 62
    4
 10
1060.0621833733267
 20
1376.2182845686143
 40
7.1999999999937341
 50
187.68055791136243
 51
270.00000000013671
  0
LINE
  8
_0-3_躯体と製品
  6
CONTINUOUS
 62
    4
 10
1060.0621833733439
 20
1369.0182845686206
 11
1090.7679950869324
 21
1369.0182845686206
  0
LINE
  8
_0-3_躯体と製品
  6
CONTINUOUS
 62
    4
 10
1090.7679950869324
 20
1369.0182845686206
 11
1090.7679950869324
 21
1372.2182845686032
  0
LINE
  8
_0-3_躯体と製品
  6
CONTINUOUS
 62
    4
 10
1090.7679950869324
 20
1372.2182845686032
 11
1060.0621833733439
 21
1372.2182845686032
  0
ARC
  8
_0-3_躯体と製品
  6
CONTINUOUS
 62
    4
 10
1060.0621833733439
 20
1370.6182845686119
 40
1.599999999991212
 50
90
 51
270
  0
LINE
  8
_0-3_躯体と製品
  6
CONTINUOUS
 62
    4
 10
969.2679950869333
 20
1372.2182845686032
 11
969.2679950869333
 21
1369.0182845686206
  0
LINE
  8
_0-3_躯体と製品
  6
CONTINUOUS
 62
    4
 10
1062.2679950869333
 20
1372.2182845686032
 11
1062.2679950869333
 21
1369.0182845686206
  0
LINE
  8
_0-3_躯体と製品
  6
CONTINUOUS
 62
    4
 10
1001.0621833733439
 20
1515.818284568609
 11
999.7679950869333
 21
1518.9010154458513
  0
LINE
  8
_0-3_躯体と製品
  6
CONTINUOUS
 62
    4
 10
1001.7679954936584
 20
1523.0182852522987
 11
1029.7679955310286
 21
1523.0182852522987
  0
LINE
  8
_0-3_躯体と製品
  6
CONTINUOUS
 62
    4
 10
1029.7679955310286
 20
1523.0182852522987
 11
1029.7679955310286
 21
1519.0182852522987
  0
LINE
  8
_0-3_躯体と製品
  6
CONTINUOUS
 62
    4
 10
1029.7679955310286
 20
1519.0182852522987
 11
1001.7679954936584
 21
1519.0182852522987
  0
LINE
  8
_0-3_躯体と製品
  6
CONTINUOUS
 62
    4
 10
1001.7679954936584
 20
1519.0182852522987
 11
1001.7679954936584
 21
1523.0182852522987
  0
LINE
  8
_0-3_躯体と製品
  6
CONTINUOUS
 62
    4
 10
1015.7679946615226
 20
1523.0182852522987
 11
1011.7679946615226
 21
1519.0182852522987
  0
LINE
  8
_0-3_躯体と製品
  6
CONTINUOUS
 62
    4
 10
1019.7679947089036
 20
1523.0182852809951
 11
1015.7679947089036
 21
1519.0182852809951
  0
LINE
  8
_0-3_躯体と製品
  6
CONTINUOUS
 62
    4
 10
1030.4738068005227
 20
1515.818284568609
 11
1031.7679950869333
 21
1518.9010154458513
  0
LINE
  8
_0-3_躯体と製品
  6
CONTINUOUS
 62
    4
 10
940.7679950869333
 20
1367.0182845686206
 11
965.76799508693239
 21
1367.0182845686206
  0
LINE
  8
_0-3_躯体と製品
  6
CONTINUOUS
 62
    4
 10
965.76799508693239
 20
1367.0182845686206
 11
965.76799508693239
 21
1369.0182845686206
  0
LINE
  8
_0-3_躯体と製品
  6
CONTINUOUS
 62
    4
 10
965.76799508693239
 20
1369.0182845686206
 11
940.7679950869333
 21
1369.0182845686206
  0
LINE
  8
_0-3_躯体と製品
  6
CONTINUOUS
 62
    4
 10
940.7679950869333
 20
1369.0182845686206
 11
940.7679950869333
 21
1367.0182845686206
  0
LINE
  8
_0-3_躯体と製品
  6
CONTINUOUS
 62
    4
 10
1090.7679950869324
 20
1367.0182845686206
 11
1065.7679950869333
 21
1367.0182845686206
  0
LINE
  8
_0-3_躯体と製品
  6
CONTINUOUS
 62
    4
 10
1065.7679950869333
 20
1367.0182845686206
 11
1065.7679950869333
 21
1369.0182845686206
  0
LINE
  8
_0-3_躯体と製品
  6
CONTINUOUS
 62
    4
 10
1065.7679950869333
 20
1369.0182845686206
 11
1090.7679950869324
 21
1369.0182845686206
  0
LINE
  8
_0-3_躯体と製品
  6
CONTINUOUS
 62
    4
 10
1090.7679950869324
 20
1369.0182845686206
 11
1090.7679950869324
 21
1367.0182845686206
  0
LINE
  8
_0-3_躯体と製品
  6
CONTINUOUS
 62
    4
 10
1063.6287802739525
 20
1372.218285255308
 11
1045.3150440682357
 21
1508.0166159960493
  0
ARC
  8
_0-3_躯体と製品
  6
CONTINUOUS
 62
    4
 10
1041.3509296439584
 20
1507.4820163035415
 40
3.9999999999992508
 50
7.6805587334454755
 51
82.319442910993359
  0
LINE
  8
_0-3_躯体と製品
  6
CONTINUOUS
 62
    4
 10
1041.8855292226926
 20
1511.4461307431623
 11
1037.7132930234056
 21
1512.008797575457
  0
LINE
  8
_0-3_躯体と製品
  6
CONTINUOUS
 62
    4
 10
1037.7132930234056
 20
1512.008797575457
 11
1037.6092127780403
 21
1512.7805639127321
  0
ARC
  8
_0-3_躯体と製品
  6
CONTINUOUS
 62
    4
 10
1030.4738068005372
 20
1511.8182845686295
 40
7.1999999999912419
 50
7.6805579111095508
 51
89.999999999883713
  0
LINE
  8
_0-3_躯体と製品
  6
CONTINUOUS
 62
    4
 10
1030.4738068005518
 20
1519.0182845686206
 11
1001.0621833733439
 21
1519.0182845686206
  0
ARC
  8
_0-3_躯体と製品
  6
CONTINUOUS
 62
    4
 10
1001.092458836799
 20
1511.7437610168158
 40
7.2745865524751654
 50
90.238454965636222
 51
177.91206638987401
  0
LINE
  8
_0-3_躯体と製品
  6
CONTINUOUS
 62
    4
 10
993.82270196440822
 20
1512.0087978553486
 11
989.65045887898032
 21
1511.4461303684213
  0
ARC
  8
_0-3_躯体と製品
  6
CONTINUOUS
 62
    4
 10
990.18505851460191
 20
1507.4820159364733
 40
3.9999999999981894
 50
97.680557911233663
 51
172.31944208878156
  0
LINE
  8
_0-3_躯体と製品
  6
CONTINUOUS
 62
    4
 10
986.22094408265366
 20
1508.0166155720938
 11
967.90720982529274
 21
1372.2182845686032
  0
LINE
  8
_0-3_躯体と製品
  6
CONTINUOUS
 62
    4
 10
1022.6962013826687
 20
1534.5182852522987
 11
1022.6962013826687
 21
1523.0182852522987
  0
LINE
  8
_0-3_躯体と製品
  6
CONTINUOUS
 62
    4
 10
1008.8397949220935
 20
1534.5182852522987
 11
1008.8397949220935
 21
1523.0182852522987
  0
LINE
  8
_0-3_躯体と製品
  6
CONTINUOUS
 62
    4
 10
1005.3756933069644
 20
1536.0182852522987
 11
1026.1603029977978
 21
1536.0182852522987
  0
ARC
  8
_0-3_躯体と製品
  6
CONTINUOUS
 62
    4
 10
1005.3756933069649
 20
1531.2682852523062
 40
4.7499999999882805
 50
43.173551107269937
 51
136.8264488927301
  0
ARC
  8
_0-3_躯体と製品
  6
CONTINUOUS
 62
    4
 10
1015.7679981523811
 20
1519.2682852522705
 40
16.750000000030717
 50
65.56730232054764
 51
114.43269767945236
  0
ARC
  8
_0-3_躯体と製品
  6
CONTINUOUS
 62
    4
 10
1026.1603029977978
 20
1531.2682852523071
 40
4.749999999987951
 50
43.173551107257659
 51
136.82644889274232
  0
LINE
  8
_0-3_躯体と製品
  6
CONTINUOUS
 62
    4
 10
1029.6244046129268
 20
1534.5182852522987
 11
1029.6244046129268
 21
1523.0182852522987
  0
LINE
  8
_0-3_躯体と製品
  6
CONTINUOUS
 62
    4
 10
1029.6244046129268
 20
1523.0182852522987
 11
1001.9115916918363
 21
1523.0182852522987
  0
LINE
  8
_0-3_躯体と製品
  6
CONTINUOUS
 62
    4
 10
1001.9115916918363
 20
1523.0182852522987
 11
1001.9115916918363
 21
1534.5182852522987
  0
LINE
  8
_0-3_躯体と製品
  6
CONTINUOUS
 62
    4
 10
1022.6962024443765
 20
1504.318284568609
 11
1022.6962024443765
 21
1515.818284568609
  0
LINE
  8
_0-3_躯体と製品
  6
CONTINUOUS
 62
    4
 10
1008.8397959838312
 20
1504.318284568609
 11
1008.8397959838312
 21
1515.818284568609
  0
LINE
  8
_0-3_躯体と製品
  6
CONTINUOUS
 62
    4
 10
1005.3756943687022
 20
1502.818284568609
 11
1026.1603040595346
 21
1502.818284568609
  0
ARC
  8
_0-3_躯体と製品
  6
CONTINUOUS
 62
    4
 10
1005.3756943686881
 20
1507.5682845686154
 40
4.7500000000082343
 50
223.1735511072699
 51
316.82644889273007
  0
ARC
  8
_0-3_躯体と製品
  6
CONTINUOUS
 62
    4
 10
1015.7679992141038
 20
1519.5682845686042
 40
16.749999999994436
 50
245.56730232054764
 51
294.43269767945236
  0
ARC
  8
_0-3_躯体と製品
  6
CONTINUOUS
 62
    4
 10
1026.1603040595205
 20
1507.5682845686147
 40
4.7500000000085283
 50
223.17355110725768
 51
316.82644889274235
  0
LINE
  8
_0-3_躯体と製品
  6
CONTINUOUS
 62
    4
 10
1029.6244056746646
 20
1504.318284568609
 11
1029.6244056746646
 21
1515.818284568609
  0
LINE
  8
_0-3_躯体と製品
  6
CONTINUOUS
 62
    4
 10
1029.6244056746646
 20
1515.818284568609
 11
1001.9115927535449
 21
1515.818284568609
  0
LINE
  8
_0-3_躯体と製品
  6
CONTINUOUS
 62
    4
 10
1001.9115927535449
 20
1515.818284568609
 11
1001.9115927535449
 21
1504.318284568609
  0
LINE
  8
_0-5_中心線
  6
CENTER1
 62
    7
 10
227.52725833500426
 20
1357.0182845686206
 11
227.52725833500426
 21
1828.7242187793956
  0
ARC
  8
_0-3_躯体と製品
  6
CONTINUOUS
 62
    4
 10
183.23307004859998
 20
1370.6182845686119
 40
1.599999999991212
 50
270
 51
89.999999999999972
  0
LINE
  8
_0-3_躯体と製品
  6
CONTINUOUS
 62
    4
 10
183.23307004859998
 20
1372.2182845686032
 11
152.52725833500972
 21
1372.2182845686032
  0
LINE
  8
_0-3_躯体と製品
  6
CONTINUOUS
 62
    4
 10
152.52725833500972
 20
1372.2182845686032
 11
152.52725833500972
 21
1369.0182845686206
  0
LINE
  8
_0-3_躯体と製品
  6
CONTINUOUS
 62
    4
 10
152.52725833500972
 20
1369.0182845686206
 11
183.23307004859998
 21
1369.0182845686206
  0
ARC
  8
_0-3_躯体と製品
  6
CONTINUOUS
 62
    4
 10
183.23307004861726
 20
1376.2182845686143
 40
7.1999999999937341
 50
269.99999999986329
 51
352.31944208863757
  0
LINE
  8
_0-3_躯体と製品
  6
CONTINUOUS
 62
    4
 10
190.36847602611851
 20
1375.2560052244801
 11
208.85733218945916
 21
1512.3528842042426
  0
ARC
  8
_0-3_躯体と製品
  6
CONTINUOUS
 62
    4
 10
212.82144662140809
 20
1511.8182845686083
 40
4.0000000000007034
 50
89.999999999810157
 51
172.3194420885861
  0
LINE
  8
_0-3_躯体と製品
  6
CONTINUOUS
 62
    4
 10
212.82144662142127
 20
1515.818284568609
 11
242.23307004859998
 21
1515.818284568609
  0
ARC
  8
_0-3_躯体と製品
  6
CONTINUOUS
 62
    4
 10
242.23307004861226
 20
1511.8182845686094
 40
3.9999999999996634
 50
7.6805579114008644
 51
90.000000000176811
  0
LINE
  8
_0-3_躯体と製品
  6
CONTINUOUS
 62
    4
 10
246.19718448056028
 20
1512.3528842042426
 11
264.68604064390274
 21
1375.2560052244801
  0
ARC
  8
_0-3_躯体と製品
  6
CONTINUOUS
 62
    4
 10
271.82144662140399
 20
1376.2182845686143
 40
7.1999999999937341
 50
187.68055791136243
 51
270.00000000013671
  0
LINE
  8
_0-3_躯体と製品
  6
CONTINUOUS
 62
    4
 10
271.82144662142127
 20
1369.0182845686206
 11
302.52725833501063
 21
1369.0182845686206
  0
LINE
  8
_0-3_躯体と製品
  6
CONTINUOUS
 62
    4
 10
302.52725833501063
 20
1369.0182845686206
 11
302.52725833501063
 21
1372.2182845686032
  0
LINE
  8
_0-3_躯体と製品
  6
CONTINUOUS
 62
    4
 10
302.52725833501063
 20
1372.2182845686032
 11
271.82144662142127
 21
1372.2182845686032
  0
ARC
  8
_0-3_躯体と製品
  6
CONTINUOUS
 62
    4
 10
271.82144662142127
 20
1370.6182845686119
 40
1.599999999991212
 50
90
 51
270
  0
LINE
  8
_0-3_躯体と製品
  6
CONTINUOUS
 62
    4
 10
181.02725833501063
 20
1372.2182845686032
 11
181.02725833501063
 21
1369.0182845686206
  0
LINE
  8
_0-3_躯体と製品
  6
CONTINUOUS
 62
    4
 10
274.02725833500972
 20
1372.2182845686032
 11
274.02725833500972
 21
1369.0182845686206
  0
LINE
  8
_0-3_躯体と製品
  6
CONTINUOUS
 62
    4
 10
212.82144662142127
 20
1515.818284568609
 11
211.52725833500972
 21
1518.9010154458513
  0
LINE
  8
_0-3_躯体と製品
  6
CONTINUOUS
 62
    4
 10
213.52725874173666
 20
1523.0182852522987
 11
241.52725877910598
 21
1523.0182852522987
  0
LINE
  8
_0-3_躯体と製品
  6
CONTINUOUS
 62
    4
 10
241.52725877910598
 20
1523.0182852522987
 11
241.52725877910598
 21
1519.0182852522987
  0
LINE
  8
_0-3_躯体と製品
  6
CONTINUOUS
 62
    4
 10
241.52725877910598
 20
1519.0182852522987
 11
213.52725874173666
 21
1519.0182852522987
  0
LINE
  8
_0-3_躯体と製品
  6
CONTINUOUS
 62
    4
 10
213.52725874173666
 20
1519.0182852522987
 11
213.52725874173666
 21
1523.0182852522987
  0
LINE
  8
_0-3_躯体と製品
  6
CONTINUOUS
 62
    4
 10
227.52725790959994
 20
1523.0182852522987
 11
223.52725790959994
 21
1519.0182852522987
  0
LINE
  8
_0-3_躯体と製品
  6
CONTINUOUS
 62
    4
 10
231.52725795698097
 20
1523.0182852809951
 11
227.52725795698097
 21
1519.0182852809951
  0
LINE
  8
_0-3_躯体と製品
  6
CONTINUOUS
 62
    4
 10
242.23307004859998
 20
1515.818284568609
 11
243.52725833501063
 21
1518.9010154458513
  0
LINE
  8
_0-3_躯体と製品
  6
CONTINUOUS
 62
    4
 10
152.52725833500972
 20
1367.0182845686206
 11
177.52725833501063
 21
1367.0182845686206
  0
LINE
  8
_0-3_躯体と製品
  6
CONTINUOUS
 62
    4
 10
177.52725833501063
 20
1367.0182845686206
 11
177.52725833501063
 21
1369.0182845686206
  0
LINE
  8
_0-3_躯体と製品
  6
CONTINUOUS
 62
    4
 10
177.52725833501063
 20
1369.0182845686206
 11
152.52725833500972
 21
1369.0182845686206
  0
LINE
  8
_0-3_躯体と製品
  6
CONTINUOUS
 62
    4
 10
152.52725833500972
 20
1369.0182845686206
 11
152.52725833500972
 21
1367.0182845686206
  0
LINE
  8
_0-3_躯体と製品
  6
CONTINUOUS
 62
    4
 10
302.52725833501063
 20
1367.0182845686206
 11
277.52725833500972
 21
1367.0182845686206
  0
LINE
  8
_0-3_躯体と製品
  6
CONTINUOUS
 62
    4
 10
277.52725833500972
 20
1367.0182845686206
 11
277.52725833500972
 21
1369.0182845686206
  0
LINE
  8
_0-3_躯体と製品
  6
CONTINUOUS
 62
    4
 10
277.52725833500972
 20
1369.0182845686206
 11
302.52725833501063
 21
1369.0182845686206
  0
LINE
  8
_0-3_躯体と製品
  6
CONTINUOUS
 62
    4
 10
302.52725833501063
 20
1369.0182845686206
 11
302.52725833501063
 21
1367.0182845686206
  0
LINE
  8
_0-3_躯体と製品
  6
CONTINUOUS
 62
    4
 10
275.38804352202897
 20
1372.218285255308
 11
257.07430731631121
 21
1508.0166159960493
  0
ARC
  8
_0-3_躯体と製品
  6
CONTINUOUS
 62
    4
 10
253.11019289203477
 20
1507.4820163035427
 40
3.9999999999981894
 50
7.6805587334302814
 51
82.319442910978182
  0
LINE
  8
_0-3_躯体と製品
  6
CONTINUOUS
 62
    4
 10
253.64479247076997
 20
1511.4461307431623
 11
249.47255627148297
 21
1512.008797575457
  0
LINE
  8
_0-3_躯体と製品
  6
CONTINUOUS
 62
    4
 10
249.47255627148297
 20
1512.008797575457
 11
249.36847602611851
 21
1512.7805639127321
  0
ARC
  8
_0-3_躯体と製品
  6
CONTINUOUS
 62
    4
 10
242.23307004861545
 20
1511.8182845686295
 40
7.1999999999912419
 50
7.6805579111095508
 51
89.999999999883713
  0
LINE
  8
_0-3_躯体と製品
  6
CONTINUOUS
 62
    4
 10
242.23307004863
 20
1519.0182845686206
 11
212.82144662142127
 21
1519.0182845686206
  0
ARC
  8
_0-3_躯体と製品
  6
CONTINUOUS
 62
    4
 10
212.85172208487643
 20
1511.7437610168158
 40
7.2745865524751654
 50
90.238454965636222
 51
177.91206638987401
  0
LINE
  8
_0-3_躯体と製品
  6
CONTINUOUS
 62
    4
 10
205.58196521248556
 20
1512.0087978553486
 11
201.40972212705856
 21
1511.4461303684213
  0
ARC
  8
_0-3_躯体と製品
  6
CONTINUOUS
 62
    4
 10
201.94432176267969
 20
1507.4820159364726
 40
3.9999999999987201
 50
97.680557911226032
 51
172.31944208877391
  0
LINE
  8
_0-3_躯体と製品
  6
CONTINUOUS
 62
    4
 10
197.98020733073099
 20
1508.0166155720938
 11
179.66647307337098
 21
1372.2182845686032
  0
LINE
  8
_0-3_躯体と製品
  6
CONTINUOUS
 62
    4
 10
234.45546463074515
 20
1534.5182852522987
 11
234.45546463074515
 21
1523.0182852522987
  0
LINE
  8
_0-3_躯体と製品
  6
CONTINUOUS
 62
    4
 10
220.5990581701717
 20
1534.5182852522987
 11
220.5990581701717
 21
1523.0182852522987
  0
LINE
  8
_0-3_躯体と製品
  6
CONTINUOUS
 62
    4
 10
217.13495655504266
 20
1536.0182852522987
 11
237.91956624587419
 21
1536.0182852522987
  0
ARC
  8
_0-3_躯体と製品
  6
CONTINUOUS
 62
    4
 10
217.13495655504266
 20
1531.2682852523058
 40
4.749999999988904
 50
43.173551107269937
 51
136.8264488927301
  0
ARC
  8
_0-3_躯体と製品
  6
CONTINUOUS
 62
    4
 10
227.52726140045843
 20
1519.2682852522726
 40
16.750000000028518
 50
65.56730232054764
 51
114.43269767945236
  0
ARC
  8
_0-3_躯体と製品
  6
CONTINUOUS
 62
    4
 10
237.91956624587465
 20
1531.2682852523067
 40
4.7499999999885745
 50
43.173551107257659
 51
136.82644889274232
  0
LINE
  8
_0-3_躯体と製品
  6
CONTINUOUS
 62
    4
 10
241.38366786100414
 20
1534.5182852522987
 11
241.38366786100414
 21
1523.0182852522987
  0
LINE
  8
_0-3_躯体と製品
  6
CONTINUOUS
 62
    4
 10
241.38366786100414
 20
1523.0182852522987
 11
213.67085493991362
 21
1523.0182852522987
  0
LINE
  8
_0-3_躯体と製品
  6
CONTINUOUS
 62
    4
 10
213.67085493991362
 20
1523.0182852522987
 11
213.67085493991362
 21
1534.5182852522987
  0
LINE
  8
_0-3_躯体と製品
  6
CONTINUOUS
 62
    4
 10
234.4554656924538
 20
1504.318284568609
 11
234.4554656924538
 21
1515.818284568609
  0
LINE
  8
_0-3_躯体と製品
  6
CONTINUOUS
 62
    4
 10
220.59905923190763
 20
1504.318284568609
 11
220.59905923190763
 21
1515.818284568609
  0
LINE
  8
_0-3_躯体と製品
  6
CONTINUOUS
 62
    4
 10
217.13495761677859
 20
1502.818284568609
 11
237.91956730761194
 21
1502.818284568609
  0
ARC
  8
_0-3_躯体と製品
  6
CONTINUOUS
 62
    4
 10
217.13495761676404
 20
1507.5682845686158
 40
4.7500000000088578
 50
223.1735511072699
 51
316.82644889273007
  0
ARC
  8
_0-3_躯体と製品
  6
CONTINUOUS
 62
    4
 10
227.52726246218072
 20
1519.5682845686051
 40
16.749999999995538
 50
245.56730232054764
 51
294.43269767945236
  0
ARC
  8
_0-3_躯体と製品
  6
CONTINUOUS
 62
    4
 10
237.91956730759739
 20
1507.5682845686144
 40
4.7500000000079048
 50
223.17355110725768
 51
316.82644889274235
  0
LINE
  8
_0-3_躯体と製品
  6
CONTINUOUS
 62
    4
 10
241.38366892274098
 20
1504.318284568609
 11
241.38366892274098
 21
1515.818284568609
  0
LINE
  8
_0-3_躯体と製品
  6
CONTINUOUS
 62
    4
 10
241.38366892274098
 20
1515.818284568609
 11
213.67085600162045
 21
1515.818284568609
  0
LINE
  8
_0-3_躯体と製品
  6
CONTINUOUS
 62
    4
 10
213.67085600162045
 20
1515.818284568609
 11
213.67085600162045
 21
1504.318284568609
  0
LINE
  8
_0-5_中心線
  6
CENTER1
 62
    7
 10
2802.6519883350047
 20
1357.0182845686202
 11
2802.6519883350047
 21
1828.7242187793956
  0
ARC
  8
_0-3_躯体と製品
  6
CONTINUOUS
 62
    4
 10
2758.3578000486004
 20
1370.6182845686114
 40
1.5999999999912689
 50
270
 51
89.999999999999972
  0
LINE
  8
_0-3_躯体と製品
  6
CONTINUOUS
 62
    4
 10
2758.3578000486004
 20
1372.2182845686027
 11
2727.6519883350102
 21
1372.2182845686027
  0
LINE
  8
_0-3_躯体と製品
  6
CONTINUOUS
 62
    4
 10
2727.6519883350102
 20
1372.2182845686027
 11
2727.6519883350102
 21
1369.0182845686202
  0
LINE
  8
_0-3_躯体と製品
  6
CONTINUOUS
 62
    4
 10
2727.6519883350102
 20
1369.0182845686202
 11
2758.3578000486004
 21
1369.0182845686202
  0
ARC
  8
_0-3_躯体と製品
  6
CONTINUOUS
 62
    4
 10
2758.3578000486168
 20
1376.2182845686129
 40
7.1999999999927509
 50
269.99999999987108
 51
352.31944208864536
  0
LINE
  8
_0-3_躯体と製品
  6
CONTINUOUS
 62
    4
 10
2765.4932060261172
 20
1375.2560052244796
 11
2783.9820621894596
 21
1512.3528842042422
  0
ARC
  8
_0-3_躯体と製品
  6
CONTINUOUS
 62
    4
 10
2787.9461766214081
 20
1511.8182845686083
 40
4.0000000000001839
 50
89.999999999816666
 51
172.31944208859261
  0
LINE
  8
_0-3_躯体と製品
  6
CONTINUOUS
 62
    4
 10
2787.9461766214208
 20
1515.8182845686085
 11
2817.3578000485986
 21
1515.8182845686085
  0
ARC
  8
_0-3_躯体と製品
  6
CONTINUOUS
 62
    4
 10
2817.3578000486118
 20
1511.8182845686079
 40
4.0000000000007034
 50
7.6805579114138913
 51
90.000000000189843
  0
LINE
  8
_0-3_躯体と製品
  6
CONTINUOUS
 62
    4
 10
2821.3219144805607
 20
1512.3528842042422
 11
2839.8107706439014
 21
1375.2560052244796
  0
ARC
  8
_0-3_躯体と製品
  6
CONTINUOUS
 62
    4
 10
2846.9461766214035
 20
1376.2182845686145
 40
7.1999999999943105
 50
187.68055791136553
 51
270.00000000013983
  0
LINE
  8
_0-3_躯体と製品
  6
CONTINUOUS
 62
    4
 10
2846.9461766214208
 20
1369.0182845686202
 11
2877.6519883350102
 21
1369.0182845686202
  0
LINE
  8
_0-3_躯体と製品
  6
CONTINUOUS
 62
    4
 10
2877.6519883350102
 20
1369.0182845686202
 11
2877.6519883350102
 21
1372.2182845686027
  0
LINE
  8
_0-3_躯体と製品
  6
CONTINUOUS
 62
    4
 10
2877.6519883350102
 20
1372.2182845686027
 11
2846.9461766214208
 21
1372.2182845686027
  0
ARC
  8
_0-3_躯体と製品
  6
CONTINUOUS
 62
    4
 10
2846.9461766214208
 20
1370.6182845686114
 40
1.5999999999912689
 50
90
 51
270
  0
LINE
  8
_0-3_躯体と製品
  6
CONTINUOUS
 62
    4
 10
2756.1519883350093
 20
1372.2182845686027
 11
2756.1519883350093
 21
1369.0182845686202
  0
LINE
  8
_0-3_躯体と製品
  6
CONTINUOUS
 62
    4
 10
2849.1519883350102
 20
1372.2182845686027
 11
2849.1519883350102
 21
1369.0182845686202
  0
LINE
  8
_0-3_躯体と製品
  6
CONTINUOUS
 62
    4
 10
2787.9461766214208
 20
1515.8182845686085
 11
2786.6519883350102
 21
1518.9010154458508
  0
LINE
  8
_0-3_躯体と製品
  6
CONTINUOUS
 62
    4
 10
2788.6519887417362
 20
1523.0182852522983
 11
2816.6519887791055
 21
1523.0182852522983
  0
LINE
  8
_0-3_躯体と製品
  6
CONTINUOUS
 62
    4
 10
2816.6519887791055
 20
1523.0182852522983
 11
2816.6519887791055
 21
1519.0182852522983
  0
LINE
  8
_0-3_躯体と製品
  6
CONTINUOUS
 62
    4
 10
2816.6519887791055
 20
1519.0182852522983
 11
2788.6519887417362
 21
1519.0182852522983
  0
LINE
  8
_0-3_躯体と製品
  6
CONTINUOUS
 62
    4
 10
2788.6519887417362
 20
1519.0182852522983
 11
2788.6519887417362
 21
1523.0182852522983
  0
LINE
  8
_0-3_躯体と製品
  6
CONTINUOUS
 62
    4
 10
2802.6519879095995
 20
1523.0182852522983
 11
2798.6519879095995
 21
1519.0182852522983
  0
LINE
  8
_0-3_躯体と製品
  6
CONTINUOUS
 62
    4
 10
2806.6519879569814
 20
1523.0182852809946
 11
2802.6519879569805
 21
1519.0182852809946
  0
LINE
  8
_0-3_躯体と製品
  6
CONTINUOUS
 62
    4
 10
2817.3578000485986
 20
1515.8182845686085
 11
2818.6519883350093
 21
1518.9010154458508
  0
LINE
  8
_0-3_躯体と製品
  6
CONTINUOUS
 62
    4
 10
2727.6519883350102
 20
1367.0182845686202
 11
2752.6519883350102
 21
1367.0182845686202
  0
LINE
  8
_0-3_躯体と製品
  6
CONTINUOUS
 62
    4
 10
2752.6519883350102
 20
1367.0182845686202
 11
2752.6519883350102
 21
1369.0182845686202
  0
LINE
  8
_0-3_躯体と製品
  6
CONTINUOUS
 62
    4
 10
2752.6519883350102
 20
1369.0182845686202
 11
2727.6519883350102
 21
1369.0182845686202
  0
LINE
  8
_0-3_躯体と製品
  6
CONTINUOUS
 62
    4
 10
2727.6519883350102
 20
1369.0182845686202
 11
2727.6519883350102
 21
1367.0182845686202
  0
LINE
  8
_0-3_躯体と製品
  6
CONTINUOUS
 62
    4
 10
2877.6519883350102
 20
1367.0182845686202
 11
2852.6519883350102
 21
1367.0182845686202
  0
LINE
  8
_0-3_躯体と製品
  6
CONTINUOUS
 62
    4
 10
2852.6519883350102
 20
1367.0182845686202
 11
2852.6519883350102
 21
1369.0182845686202
  0
LINE
  8
_0-3_躯体と製品
  6
CONTINUOUS
 62
    4
 10
2852.6519883350102
 20
1369.0182845686202
 11
2877.6519883350102
 21
1369.0182845686202
  0
LINE
  8
_0-3_躯体と製品
  6
CONTINUOUS
 62
    4
 10
2877.6519883350102
 20
1369.0182845686202
 11
2877.6519883350102
 21
1367.0182845686202
  0
LINE
  8
_0-3_躯体と製品
  6
CONTINUOUS
 62
    4
 10
2850.5127735220285
 20
1372.2182852553076
 11
2832.1990373163117
 21
1508.0166159960488
  0
ARC
  8
_0-3_躯体と製品
  6
CONTINUOUS
 62
    4
 10
2828.2349228920343
 20
1507.4820163035411
 40
3.9999999999992508
 50
7.6805587334454755
 51
82.319442910993359
  0
LINE
  8
_0-3_躯体と製品
  6
CONTINUOUS
 62
    4
 10
2828.7695224707686
 20
1511.4461307431618
 11
2824.5972862714825
 21
1512.0087975754566
  0
LINE
  8
_0-3_躯体と製品
  6
CONTINUOUS
 62
    4
 10
2824.5972862714825
 20
1512.0087975754566
 11
2824.4932060261172
 21
1512.7805639127316
  0
ARC
  8
_0-3_躯体と製品
  6
CONTINUOUS
 62
    4
 10
2817.3578000486141
 20
1511.818284568629
 40
7.199999999991185
 50
7.6805579111100695
 51
89.999999999884238
  0
LINE
  8
_0-3_躯体と製品
  6
CONTINUOUS
 62
    4
 10
2817.3578000486286
 20
1519.0182845686202
 11
2787.9461766214208
 21
1519.0182845686202
  0
ARC
  8
_0-3_躯体と製品
  6
CONTINUOUS
 62
    4
 10
2787.9764520848767
 20
1511.7437610168158
 40
7.2745865524746938
 50
90.238454965639789
 51
177.91206638987759
  0
LINE
  8
_0-3_躯体と製品
  6
CONTINUOUS
 62
    4
 10
2780.706695212486
 20
1512.0087978553481
 11
2776.5344521270572
 21
1511.4461303684209
  0
ARC
  8
_0-3_躯体と製品
  6
CONTINUOUS
 62
    4
 10
2777.0690517626781
 20
1507.4820159364722
 40
3.9999999999987201
 50
97.680557911226032
 51
172.31944208877391
  0
LINE
  8
_0-3_躯体と製品
  6
CONTINUOUS
 62
    4
 10
2773.1049373307296
 20
1508.0166155720933
 11
2754.7912030733705
 21
1372.2182845686027
  0
LINE
  8
_0-3_躯体と製品
  6
CONTINUOUS
 62
    4
 10
2809.5801946307465
 20
1534.5182852522983
 11
2809.5801946307465
 21
1523.0182852522983
  0
LINE
  8
_0-3_躯体と製品
  6
CONTINUOUS
 62
    4
 10
2795.7237881701712
 20
1534.5182852522983
 11
2795.7237881701712
 21
1523.0182852522983
  0
LINE
  8
_0-3_躯体と製品
  6
CONTINUOUS
 62
    4
 10
2792.2596865550422
 20
1536.0182852522983
 11
2813.0442962458746
 21
1536.0182852522983
  0
ARC
  8
_0-3_躯体と製品
  6
CONTINUOUS
 62
    4
 10
2792.2596865550422
 20
1531.2682852523051
 40
4.749999999988904
 50
43.173551107269937
 51
136.8264488927301
  0
ARC
  8
_0-3_躯体と製品
  6
CONTINUOUS
 62
    4
 10
2802.6519914004589
 20
1519.2682852522698
 40
16.750000000030717
 50
65.56730232054764
 51
114.43269767945236
  0
ARC
  8
_0-3_躯体と製品
  6
CONTINUOUS
 62
    4
 10
2813.0442962458751
 20
1531.2682852523069
 40
4.7499999999873275
 50
43.173551107257659
 51
136.82644889274232
  0
LINE
  8
_0-3_躯体と製品
  6
CONTINUOUS
 62
    4
 10
2816.5083978610037
 20
1534.5182852522983
 11
2816.5083978610037
 21
1523.0182852522983
  0
LINE
  8
_0-3_躯体と製品
  6
CONTINUOUS
 62
    4
 10
2816.5083978610037
 20
1523.0182852522983
 11
2788.7955849399132
 21
1523.0182852522983
  0
LINE
  8
_0-3_躯体と製品
  6
CONTINUOUS
 62
    4
 10
2788.7955849399132
 20
1523.0182852522983
 11
2788.7955849399132
 21
1534.5182852522983
  0
LINE
  8
_0-3_躯体と製品
  6
CONTINUOUS
 62
    4
 10
2809.5801956924533
 20
1504.3182845686085
 11
2809.5801956924533
 21
1515.8182845686085
  0
LINE
  8
_0-3_躯体と製品
  6
CONTINUOUS
 62
    4
 10
2795.723789231909
 20
1504.3182845686085
 11
2795.723789231909
 21
1515.8182845686085
  0
LINE
  8
_0-3_躯体と製品
  6
CONTINUOUS
 62
    4
 10
2792.2596876167781
 20
1502.8182845686085
 11
2813.0442973076115
 21
1502.8182845686085
  0
ARC
  8
_0-3_躯体と製品
  6
CONTINUOUS
 62
    4
 10
2792.2596876167649
 20
1507.5682845686158
 40
4.7500000000094813
 50
223.1735511072699
 51
316.82644889273007
  0
ARC
  8
_0-3_躯体と製品
  6
CONTINUOUS
 62
    4
 10
2802.6519924621812
 20
1519.5682845686028
 40
16.749999999993339
 50
245.56730232054764
 51
294.43269767945236
  0
ARC
  8
_0-3_躯体と製品
  6
CONTINUOUS
 62
    4
 10
2813.0442973075965
 20
1507.5682845686135
 40
4.7500000000072813
 50
223.17355110725768
 51
316.82644889274235
  0
LINE
  8
_0-3_躯体と製品
  6
CONTINUOUS
 62
    4
 10
2816.5083989227396
 20
1504.3182845686085
 11
2816.5083989227396
 21
1515.8182845686085
  0
LINE
  8
_0-3_躯体と製品
  6
CONTINUOUS
 62
    4
 10
2816.5083989227396
 20
1515.8182845686085
 11
2788.7955860016209
 21
1515.8182845686085
  0
LINE
  8
_0-3_躯体と製品
  6
CONTINUOUS
 62
    4
 10
2788.7955860016209
 20
1515.8182845686085
 11
2788.7955860016209
 21
1504.3182845686085
  0
LINE
  8
_0-5_中心線
  6
CENTER1
 62
    7
 10
2052.6519883350047
 20
1357.0182845686202
 11
2052.6519883350047
 21
1828.7242187793956
  0
ARC
  8
_0-3_躯体と製品
  6
CONTINUOUS
 62
    4
 10
2008.3578000485995
 20
1370.6182845686114
 40
1.5999999999912689
 50
270
 51
89.999999999999972
  0
LINE
  8
_0-3_躯体と製品
  6
CONTINUOUS
 62
    4
 10
2008.3578000485995
 20
1372.2182845686027
 11
1977.6519883350093
 21
1372.2182845686027
  0
LINE
  8
_0-3_躯体と製品
  6
CONTINUOUS
 62
    4
 10
1977.6519883350093
 20
1372.2182845686027
 11
1977.6519883350093
 21
1369.0182845686202
  0
LINE
  8
_0-3_躯体と製品
  6
CONTINUOUS
 62
    4
 10
1977.6519883350093
 20
1369.0182845686202
 11
2008.3578000485995
 21
1369.0182845686202
  0
ARC
  8
_0-3_躯体と製品
  6
CONTINUOUS
 62
    4
 10
2008.357800048617
 20
1376.2182845686145
 40
7.1999999999943105
 50
269.99999999986022
 51
352.3194420886345
  0
LINE
  8
_0-3_躯体と製品
  6
CONTINUOUS
 62
    4
 10
2015.493206026119
 20
1375.2560052244796
 11
2033.9820621894596
 21
1512.3528842042422
  0
ARC
  8
_0-3_躯体と製品
  6
CONTINUOUS
 62
    4
 10
2037.9461766214081
 20
1511.8182845686083
 40
4.0000000000001839
 50
89.999999999816666
 51
172.31944208859261
  0
LINE
  8
_0-3_躯体と製品
  6
CONTINUOUS
 62
    4
 10
2037.9461766214208
 20
1515.8182845686085
 11
2067.3578000485995
 21
1515.8182845686085
  0
ARC
  8
_0-3_躯体と製品
  6
CONTINUOUS
 62
    4
 10
2067.3578000486123
 20
1511.8182845686083
 40
4.0000000000001839
 50
7.6805579114073783
 51
90.00000000018332
  0
LINE
  8
_0-3_躯体と製品
  6
CONTINUOUS
 62
    4
 10
2071.3219144805607
 20
1512.3528842042422
 11
2089.8107706439014
 21
1375.2560052244796
  0
ARC
  8
_0-3_躯体と製品
  6
CONTINUOUS
 62
    4
 10
2096.9461766214031
 20
1376.2182845686145
 40
7.1999999999943105
 50
187.68055791136553
 51
270.00000000013983
  0
LINE
  8
_0-3_躯体と製品
  6
CONTINUOUS
 62
    4
 10
2096.9461766214208
 20
1369.0182845686202
 11
2127.6519883350102
 21
1369.0182845686202
  0
LINE
  8
_0-3_躯体と製品
  6
CONTINUOUS
 62
    4
 10
2127.6519883350102
 20
1369.0182845686202
 11
2127.6519883350102
 21
1372.2182845686027
  0
LINE
  8
_0-3_躯体と製品
  6
CONTINUOUS
 62
    4
 10
2127.6519883350102
 20
1372.2182845686027
 11
2096.9461766214208
 21
1372.2182845686027
  0
ARC
  8
_0-3_躯体と製品
  6
CONTINUOUS
 62
    4
 10
2096.9461766214208
 20
1370.6182845686114
 40
1.5999999999912689
 50
90
 51
270
  0
LINE
  8
_0-3_躯体と製品
  6
CONTINUOUS
 62
    4
 10
2006.1519883350093
 20
1372.2182845686027
 11
2006.1519883350093
 21
1369.0182845686202
  0
LINE
  8
_0-3_躯体と製品
  6
CONTINUOUS
 62
    4
 10
2099.1519883350093
 20
1372.2182845686027
 11
2099.1519883350093
 21
1369.0182845686202
  0
LINE
  8
_0-3_躯体と製品
  6
CONTINUOUS
 62
    4
 10
2037.9461766214208
 20
1515.8182845686085
 11
2036.6519883350093
 21
1518.9010154458508
  0
LINE
  8
_0-3_躯体と製品
  6
CONTINUOUS
 62
    4
 10
2038.6519887417362
 20
1523.0182852522983
 11
2066.6519887791055
 21
1523.0182852522983
  0
LINE
  8
_0-3_躯体と製品
  6
CONTINUOUS
 62
    4
 10
2066.6519887791055
 20
1523.0182852522983
 11
2066.6519887791055
 21
1519.0182852522983
  0
LINE
  8
_0-3_躯体と製品
  6
CONTINUOUS
 62
    4
 10
2066.6519887791055
 20
1519.0182852522983
 11
2038.6519887417362
 21
1519.0182852522983
  0
LINE
  8
_0-3_躯体と製品
  6
CONTINUOUS
 62
    4
 10
2038.6519887417362
 20
1519.0182852522983
 11
2038.6519887417362
 21
1523.0182852522983
  0
LINE
  8
_0-3_躯体と製品
  6
CONTINUOUS
 62
    4
 10
2052.6519879095986
 20
1523.0182852522983
 11
2048.6519879095995
 21
1519.0182852522983
  0
LINE
  8
_0-3_躯体と製品
  6
CONTINUOUS
 62
    4
 10
2056.6519879569805
 20
1523.0182852809946
 11
2052.6519879569805
 21
1519.0182852809946
  0
LINE
  8
_0-3_躯体と製品
  6
CONTINUOUS
 62
    4
 10
2067.3578000485995
 20
1515.8182845686085
 11
2068.6519883350093
 21
1518.9010154458508
  0
LINE
  8
_0-3_躯体と製品
  6
CONTINUOUS
 62
    4
 10
1977.6519883350093
 20
1367.0182845686202
 11
2002.6519883350093
 21
1367.0182845686202
  0
LINE
  8
_0-3_躯体と製品
  6
CONTINUOUS
 62
    4
 10
2002.6519883350093
 20
1367.0182845686202
 11
2002.6519883350093
 21
1369.0182845686202
  0
LINE
  8
_0-3_躯体と製品
  6
CONTINUOUS
 62
    4
 10
2002.6519883350093
 20
1369.0182845686202
 11
1977.6519883350093
 21
1369.0182845686202
  0
LINE
  8
_0-3_躯体と製品
  6
CONTINUOUS
 62
    4
 10
1977.6519883350093
 20
1369.0182845686202
 11
1977.6519883350093
 21
1367.0182845686202
  0
LINE
  8
_0-3_躯体と製品
  6
CONTINUOUS
 62
    4
 10
2127.6519883350102
 20
1367.0182845686202
 11
2102.6519883350093
 21
1367.0182845686202
  0
LINE
  8
_0-3_躯体と製品
  6
CONTINUOUS
 62
    4
 10
2102.6519883350093
 20
1367.0182845686202
 11
2102.6519883350093
 21
1369.0182845686202
  0
LINE
  8
_0-3_躯体と製品
  6
CONTINUOUS
 62
    4
 10
2102.6519883350093
 20
1369.0182845686202
 11
2127.6519883350102
 21
1369.0182845686202
  0
LINE
  8
_0-3_躯体と製品
  6
CONTINUOUS
 62
    4
 10
2127.6519883350102
 20
1369.0182845686202
 11
2127.6519883350102
 21
1367.0182845686202
  0
LINE
  8
_0-3_躯体と製品
  6
CONTINUOUS
 62
    4
 10
2100.5127735220285
 20
1372.2182852553076
 11
2082.1990373163117
 21
1508.0166159960488
  0
ARC
  8
_0-3_躯体と製品
  6
CONTINUOUS
 62
    4
 10
2078.2349228920348
 20
1507.4820163035415
 40
3.9999999999987201
 50
7.680558733437878
 51
82.319442910985771
  0
LINE
  8
_0-3_躯体と製品
  6
CONTINUOUS
 62
    4
 10
2078.7695224707695
 20
1511.4461307431618
 11
2074.5972862714825
 21
1512.0087975754566
  0
LINE
  8
_0-3_躯体と製品
  6
CONTINUOUS
 62
    4
 10
2074.5972862714825
 20
1512.0087975754566
 11
2074.4932060261172
 21
1512.7805639127316
  0
ARC
  8
_0-3_躯体と製品
  6
CONTINUOUS
 62
    4
 10
2067.3578000486141
 20
1511.818284568629
 40
7.199999999991185
 50
7.6805579111100695
 51
89.999999999884238
  0
LINE
  8
_0-3_躯体と製品
  6
CONTINUOUS
 62
    4
 10
2067.3578000486286
 20
1519.0182845686202
 11
2037.9461766214208
 21
1519.0182845686202
  0
ARC
  8
_0-3_躯体と製品
  6
CONTINUOUS
 62
    4
 10
2037.9764520848762
 20
1511.7437610168158
 40
7.2745865524746938
 50
90.238454965639789
 51
177.91206638987759
  0
LINE
  8
_0-3_躯体と製品
  6
CONTINUOUS
 62
    4
 10
2030.706695212486
 20
1512.0087978553481
 11
2026.5344521270572
 21
1511.4461303684209
  0
ARC
  8
_0-3_躯体と製品
  6
CONTINUOUS
 62
    4
 10
2027.0690517626788
 20
1507.4820159364729
 40
3.9999999999981894
 50
97.680557911233663
 51
172.31944208878156
  0
LINE
  8
_0-3_躯体と製品
  6
CONTINUOUS
 62
    4
 10
2023.1049373307305
 20
1508.0166155720933
 11
2004.7912030733705
 21
1372.2182845686027
  0
LINE
  8
_0-3_躯体と製品
  6
CONTINUOUS
 62
    4
 10
2059.5801946307456
 20
1534.5182852522983
 11
2059.5801946307456
 21
1523.0182852522983
  0
LINE
  8
_0-3_躯体と製品
  6
CONTINUOUS
 62
    4
 10
2045.7237881701712
 20
1534.5182852522983
 11
2045.7237881701712
 21
1523.0182852522983
  0
LINE
  8
_0-3_躯体と製品
  6
CONTINUOUS
 62
    4
 10
2042.2596865550422
 20
1536.0182852522983
 11
2063.0442962458746
 21
1536.0182852522983
  0
ARC
  8
_0-3_躯体と製品
  6
CONTINUOUS
 62
    4
 10
2042.2596865550422
 20
1531.2682852523051
 40
4.749999999988904
 50
43.173551107269937
 51
136.8264488927301
  0
ARC
  8
_0-3_躯体と製品
  6
CONTINUOUS
 62
    4
 10
2052.6519914004584
 20
1519.268285252271
 40
16.750000000029619
 50
65.56730232054764
 51
114.43269767945236
  0
ARC
  8
_0-3_躯体と製品
  6
CONTINUOUS
 62
    4
 10
2063.0442962458746
 20
1531.2682852523064
 40
4.749999999987951
 50
43.173551107257659
 51
136.82644889274232
  0
LINE
  8
_0-3_躯体と製品
  6
CONTINUOUS
 62
    4
 10
2066.5083978610037
 20
1534.5182852522983
 11
2066.5083978610037
 21
1523.0182852522983
  0
LINE
  8
_0-3_躯体と製品
  6
CONTINUOUS
 62
    4
 10
2066.5083978610037
 20
1523.0182852522983
 11
2038.7955849399132
 21
1523.0182852522983
  0
LINE
  8
_0-3_躯体と製品
  6
CONTINUOUS
 62
    4
 10
2038.7955849399132
 20
1523.0182852522983
 11
2038.7955849399132
 21
1534.5182852522983
  0
LINE
  8
_0-3_躯体と製品
  6
CONTINUOUS
 62
    4
 10
2059.5801956924533
 20
1504.3182845686085
 11
2059.5801956924533
 21
1515.8182845686085
  0
LINE
  8
_0-3_躯体と製品
  6
CONTINUOUS
 62
    4
 10
2045.7237892319072
 20
1504.3182845686085
 11
2045.7237892319072
 21
1515.8182845686085
  0
LINE
  8
_0-3_躯体と製品
  6
CONTINUOUS
 62
    4
 10
2042.2596876167781
 20
1502.8182845686085
 11
2063.0442973076115
 21
1502.8182845686085
  0
ARC
  8
_0-3_躯体と製品
  6
CONTINUOUS
 62
    4
 10
2042.259687616764
 20
1507.5682845686149
 40
4.7500000000082343
 50
223.1735511072699
 51
316.82644889273007
  0
ARC
  8
_0-3_躯体と製品
  6
CONTINUOUS
 62
    4
 10
2052.6519924621803
 20
1519.5682845686047
 40
16.749999999995538
 50
245.56730232054764
 51
294.43269767945236
  0
ARC
  8
_0-3_躯体と製品
  6
CONTINUOUS
 62
    4
 10
2063.0442973075969
 20
1507.568284568614
 40
4.7500000000079048
 50
223.17355110725768
 51
316.82644889274235
  0
LINE
  8
_0-3_躯体と製品
  6
CONTINUOUS
 62
    4
 10
2066.5083989227405
 20
1504.3182845686085
 11
2066.5083989227405
 21
1515.8182845686085
  0
LINE
  8
_0-3_躯体と製品
  6
CONTINUOUS
 62
    4
 10
2066.5083989227405
 20
1515.8182845686085
 11
2038.7955860016209
 21
1515.8182845686085
  0
LINE
  8
_0-3_躯体と製品
  6
CONTINUOUS
 62
    4
 10
2038.7955860016209
 20
1515.8182845686085
 11
2038.7955860016209
 21
1504.3182845686085
  0
LINE
  8
_0-5_中心線
  6
CENTER1
 62
    7
 10
1015.7679950869287
 20
138.23672976802254
 11
1015.7679950869287
 21
613.24629877939537
  0
LINE
  8
_0-3_躯体と製品
  6
CONTINUOUS
 62
    4
 10
1001.7679938021729
 20
307.54036585337974
 11
1029.7679938395413
 21
307.54036585337974
  0
LINE
  8
_0-3_躯体と製品
  6
CONTINUOUS
 62
    4
 10
1029.7679938395413
 20
307.54036585337974
 11
1029.7679938395413
 21
303.54036585337963
  0
LINE
  8
_0-3_躯体と製品
  6
CONTINUOUS
 62
    4
 10
1029.7679938395413
 20
303.54036585337963
 11
1001.7679938021729
 21
303.54036585337963
  0
LINE
  8
_0-3_躯体と製品
  6
CONTINUOUS
 62
    4
 10
1001.7679938021729
 20
303.54036585337963
 11
1001.7679938021729
 21
307.54036585337974
  0
LINE
  8
_0-3_躯体と製品
  6
CONTINUOUS
 62
    4
 10
1015.7679938208566
 20
307.54036585337974
 11
1019.7679938208566
 21
303.54036585337963
  0
LINE
  8
_0-3_躯体と製品
  6
CONTINUOUS
 62
    4
 10
1011.7679937734756
 20
307.540365882076
 11
1015.7679937734756
 21
303.540365882076
  0
LINE
  8
_0-3_躯体と製品
  6
CONTINUOUS
 62
    4
 10
1040.7679950869315
 20
156.74036456860267
 11
1040.7679950869315
 21
296.53087785534808
  0
LINE
  8
_0-3_躯体と製品
  6
CONTINUOUS
 62
    4
 10
1040.7679950869315
 20
296.53087785534808
 11
990.76799508693148
 21
296.53087785534808
  0
LINE
  8
_0-3_躯体と製品
  6
CONTINUOUS
 62
    4
 10
990.76799508693148
 20
296.53087785534808
 11
990.76799508693148
 21
156.74036456860267
  0
LINE
  8
_0-3_躯体と製品
  6
CONTINUOUS
 62
    4
 10
985.76799508693148
 20
153.54036456862013
 11
1045.7679950869315
 21
153.54036456862013
  0
LINE
  8
_0-3_躯体と製品
  6
CONTINUOUS
 62
    4
 10
1045.7679950869315
 20
153.54036456862013
 11
1045.7679950869315
 21
156.74036456860267
  0
LINE
  8
_0-3_躯体と製品
  6
CONTINUOUS
 62
    4
 10
1045.7679950869315
 20
156.74036456860267
 11
985.76799508693148
 21
156.74036456860267
  0
LINE
  8
_0-3_躯体と製品
  6
CONTINUOUS
 62
    4
 10
985.76799508693148
 20
156.74036456860267
 11
985.76799508693148
 21
153.54036456862013
  0
LINE
  8
_0-3_躯体と製品
  6
CONTINUOUS
 62
    4
 10
993.96799508694403
 20
303.54036456862013
 11
993.96799508694403
 21
156.74036456860267
  0
LINE
  8
_0-3_躯体と製品
  6
CONTINUOUS
 62
    4
 10
1037.5679950869207
 20
303.54036456862013
 11
1037.5679950869207
 21
156.74036456860267
  0
LINE
  8
_0-3_躯体と製品
  6
CONTINUOUS
 62
    4
 10
993.96799508694403
 20
300.34036456860849
 11
985.76799508693148
 21
300.34036456860849
  0
LINE
  8
_0-3_躯体と製品
  6
CONTINUOUS
 62
    4
 10
985.76799508693148
 20
300.34036456860849
 11
985.76799508693148
 21
303.54036456862013
  0
LINE
  8
_0-3_躯体と製品
  6
CONTINUOUS
 62
    4
 10
985.76799508693148
 20
303.54036456862013
 11
1045.7679950869315
 21
303.54036456862013
  0
LINE
  8
_0-3_躯体と製品
  6
CONTINUOUS
 62
    4
 10
1045.7679950869315
 20
303.54036456862013
 11
1045.7679950869315
 21
300.34036456860849
  0
LINE
  8
_0-3_躯体と製品
  6
CONTINUOUS
 62
    4
 10
1045.7679950869315
 20
300.34036456860849
 11
1037.5679950869207
 21
300.34036456860849
  0
LINE
  8
_0-3_躯体と製品
  6
CONTINUOUS
 62
    4
 10
1045.7679950869315
 20
151.54036456862013
 11
985.76799508693148
 21
151.54036456862013
  0
LINE
  8
_0-3_躯体と製品
  6
CONTINUOUS
 62
    4
 10
985.76799508693148
 20
151.54036456862013
 11
985.76799508693148
 21
153.54036456862013
  0
LINE
  8
_0-3_躯体と製品
  6
CONTINUOUS
 62
    4
 10
985.76799508693148
 20
153.54036456862013
 11
1045.7679950869315
 21
153.54036456862013
  0
LINE
  8
_0-3_躯体と製品
  6
CONTINUOUS
 62
    4
 10
1045.7679950869315
 20
153.54036456862013
 11
1045.7679950869315
 21
151.54036456862013
  0
LINE
  8
_0-3_躯体と製品
  6
CONTINUOUS
 62
    4
 10
1009.7674274113924
 20
320.54036564234787
 11
1021.7679927154923
 21
320.54036557933796
  0
LINE
  8
_0-3_躯体と製品
  6
CONTINUOUS
 62
    4
 10
1003.7679927526297
 20
307.54036593946876
 11
1003.7679927526297
 21
319.04036561085741
  0
ARC
  8
_0-3_躯体と製品
  6
CONTINUOUS
 62
    4
 10
1009.7679927236859
 20
307.79036610100081
 40
12.749999553899949
 50
61.927512142394527
 51
118.07248785760547
  0
ARC
  8
_0-3_躯体と製品
  6
CONTINUOUS
 62
    4
 10
1021.7679927236859
 20
307.79036522722845
 40
12.750000352116722
 50
61.927513760650953
 51
118.07248623934905
  0
LINE
  8
_0-3_躯体と製品
  6
CONTINUOUS
 62
    4
 10
1027.7679927526297
 20
319.04036561085741
 11
1027.7679927526297
 21
307.5403657672905
  0
LINE
  8
_0-3_躯体と製品
  6
CONTINUOUS
 62
    4
 10
1015.7679926840028
 20
319.04036561085741
 11
1015.7679926048113
 21
307.54036585337974
  0
LINE
  8
_0-5_中心線
  6
CENTER1
 62
    7
 10
277.52725833500517
 20
138.23672976802254
 11
277.52725833500517
 21
613.24629877939537
  0
LINE
  8
_0-3_躯体と製品
  6
CONTINUOUS
 62
    4
 10
263.52725705024841
 20
307.54036585337974
 11
291.52725708761864
 21
307.54036585337974
  0
LINE
  8
_0-3_躯体と製品
  6
CONTINUOUS
 62
    4
 10
291.52725708761864
 20
307.54036585337974
 11
291.52725708761864
 21
303.54036585337963
  0
LINE
  8
_0-3_躯体と製品
  6
CONTINUOUS
 62
    4
 10
291.52725708761864
 20
303.54036585337963
 11
263.52725705024841
 21
303.54036585337963
  0
LINE
  8
_0-3_躯体と製品
  6
CONTINUOUS
 62
    4
 10
263.52725705024841
 20
303.54036585337963
 11
263.52725705024841
 21
307.54036585337974
  0
LINE
  8
_0-3_躯体と製品
  6
CONTINUOUS
 62
    4
 10
277.52725706893398
 20
307.54036585337974
 11
281.52725706893398
 21
303.54036585337963
  0
LINE
  8
_0-3_躯体と製品
  6
CONTINUOUS
 62
    4
 10
273.52725702155294
 20
307.540365882076
 11
277.52725702155294
 21
303.540365882076
  0
LINE
  8
_0-3_躯体と製品
  6
CONTINUOUS
 62
    4
 10
302.52725833500881
 20
156.74036456860313
 11
302.52725833500881
 21
296.53087785534808
  0
LINE
  8
_0-3_躯体と製品
  6
CONTINUOUS
 62
    4
 10
302.52725833500881
 20
296.53087785534808
 11
252.52725833500881
 21
296.53087785534808
  0
LINE
  8
_0-3_躯体と製品
  6
CONTINUOUS
 62
    4
 10
252.52725833500881
 20
296.53087785534808
 11
252.52725833500881
 21
156.74036456860313
  0
LINE
  8
_0-3_躯体と製品
  6
CONTINUOUS
 62
    4
 10
247.5272583350079
 20
153.54036456862059
 11
307.52725833500881
 21
153.54036456862059
  0
LINE
  8
_0-3_躯体と製品
  6
CONTINUOUS
 62
    4
 10
307.52725833500881
 20
153.54036456862059
 11
307.52725833500881
 21
156.74036456860313
  0
LINE
  8
_0-3_躯体と製品
  6
CONTINUOUS
 62
    4
 10
307.52725833500881
 20
156.74036456860313
 11
247.5272583350079
 21
156.74036456860313
  0
LINE
  8
_0-3_躯体と製品
  6
CONTINUOUS
 62
    4
 10
247.5272583350079
 20
156.74036456860313
 11
247.5272583350079
 21
153.54036456862059
  0
LINE
  8
_0-3_躯体と製品
  6
CONTINUOUS
 62
    4
 10
255.72725833502045
 20
303.54036456862013
 11
255.72725833502045
 21
156.74036456860313
  0
LINE
  8
_0-3_躯体と製品
  6
CONTINUOUS
 62
    4
 10
299.32725833499717
 20
303.54036456862013
 11
299.32725833499717
 21
156.74036456860313
  0
LINE
  8
_0-3_躯体と製品
  6
CONTINUOUS
 62
    4
 10
255.72725833502045
 20
300.34036456860849
 11
247.5272583350079
 21
300.34036456860849
  0
LINE
  8
_0-3_躯体と製品
  6
CONTINUOUS
 62
    4
 10
247.5272583350079
 20
300.34036456860849
 11
247.5272583350079
 21
303.54036456862013
  0
LINE
  8
_0-3_躯体と製品
  6
CONTINUOUS
 62
    4
 10
247.5272583350079
 20
303.54036456862013
 11
307.52725833500881
 21
303.54036456862013
  0
LINE
  8
_0-3_躯体と製品
  6
CONTINUOUS
 62
    4
 10
307.52725833500881
 20
303.54036456862013
 11
307.52725833500881
 21
300.34036456860849
  0
LINE
  8
_0-3_躯体と製品
  6
CONTINUOUS
 62
    4
 10
307.52725833500881
 20
300.34036456860849
 11
299.32725833499717
 21
300.34036456860849
  0
LINE
  8
_0-3_躯体と製品
  6
CONTINUOUS
 62
    4
 10
307.52725833500881
 20
151.54036456862036
 11
247.5272583350079
 21
151.54036456862036
  0
LINE
  8
_0-3_躯体と製品
  6
CONTINUOUS
 62
    4
 10
247.5272583350079
 20
151.54036456862036
 11
247.5272583350079
 21
153.54036456862059
  0
LINE
  8
_0-3_躯体と製品
  6
CONTINUOUS
 62
    4
 10
247.5272583350079
 20
153.54036456862059
 11
307.52725833500881
 21
153.54036456862059
  0
LINE
  8
_0-3_躯体と製品
  6
CONTINUOUS
 62
    4
 10
307.52725833500881
 20
153.54036456862059
 11
307.52725833500881
 21
151.54036456862036
  0
LINE
  8
_0-3_躯体と製品
  6
CONTINUOUS
 62
    4
 10
271.52669065947066
 20
320.54036564234787
 11
283.5272559635705
 21
320.54036557933796
  0
LINE
  8
_0-3_躯体と製品
  6
CONTINUOUS
 62
    4
 10
265.52725600070698
 20
307.54036593946876
 11
265.52725600070698
 21
319.04036561085741
  0
ARC
  8
_0-3_躯体と製品
  6
CONTINUOUS
 62
    4
 10
271.52725597176322
 20
307.79036610100081
 40
12.749999553899949
 50
61.927512142394527
 51
118.07248785760547
  0
ARC
  8
_0-3_躯体と製品
  6
CONTINUOUS
 62
    4
 10
283.52725597176232
 20
307.79036522723015
 40
12.750000352114789
 50
61.927513760650953
 51
118.07248623934905
  0
LINE
  8
_0-3_躯体と製品
  6
CONTINUOUS
 62
    4
 10
289.52725600070517
 20
319.04036561085741
 11
289.52725600070517
 21
307.5403657672905
  0
LINE
  8
_0-3_躯体と製品
  6
CONTINUOUS
 62
    4
 10
277.52725593207924
 20
319.04036561085741
 11
277.52725585288772
 21
307.54036585337974
  0
LINE
  8
_0-3_躯体と製品
  6
CONTINUOUS
 62
    4
 10
1131.7679950869278
 20
587.54036456862059
 11
1199.7679950869278
 21
587.54036456862059
  0
LINE
  8
_0-3_躯体と製品
  6
CONTINUOUS
 62
    4
 10
1199.7679950869278
 20
587.54036456862059
 11
1199.7679950869278
 21
594.54036456862059
  0
LINE
  8
_0-3_躯体と製品
  6
CONTINUOUS
 62
    4
 10
1199.7679950869278
 20
594.54036456862059
 11
1194.7679950869278
 21
594.54036456862059
  0
LINE
  8
_0-3_躯体と製品
  6
CONTINUOUS
 62
    4
 10
1194.7679950869278
 20
594.54036456862059
 11
1194.7679950869278
 21
592.54036456862059
  0
LINE
  8
_0-3_躯体と製品
  6
CONTINUOUS
 62
    4
 10
1194.7679950869278
 20
592.54036456862059
 11
1197.7679950869278
 21
592.54036456862059
  0
LINE
  8
_0-3_躯体と製品
  6
CONTINUOUS
 62
    4
 10
1197.7679950869278
 20
592.54036456862059
 11
1197.7679950869278
 21
589.54036456862059
  0
LINE
  8
_0-3_躯体と製品
  6
CONTINUOUS
 62
    4
 10
1197.7679950869278
 20
589.54036456862059
 11
1133.7679950869278
 21
589.54036456862059
  0
LINE
  8
_0-3_躯体と製品
  6
CONTINUOUS
 62
    4
 10
1133.7679950869278
 20
589.54036456862059
 11
1133.7679950869278
 21
592.54036456862059
  0
LINE
  8
_0-3_躯体と製品
  6
CONTINUOUS
 62
    4
 10
1133.7679950869278
 20
592.54036456862059
 11
1136.7679950869278
 21
592.54036456862059
  0
LINE
  8
_0-3_躯体と製品
  6
CONTINUOUS
 62
    4
 10
1136.7679950869278
 20
592.54036456862059
 11
1136.7679950869278
 21
594.54036456862059
  0
LINE
  8
_0-3_躯体と製品
  6
CONTINUOUS
 62
    4
 10
1136.7679950869278
 20
594.54036456862059
 11
1131.7679950869278
 21
594.54036456862059
  0
LINE
  8
_0-3_躯体と製品
  6
CONTINUOUS
 62
    4
 10
1131.7679950869278
 20
594.54036456862059
 11
1131.7679950869278
 21
587.54036456862059
  0
ARC
  8
_0-3_躯体と製品
  6
CONTINUOUS
 62
    4
 10
1181.5679950869285
 20
616.84036456862111
 40
1.699999999999477
 50
359.99999999998084
 51
89.999999999980844
  0
LINE
  8
_0-3_躯体と製品
  6
CONTINUOUS
 62
    4
 10
1183.2679950869278
 20
616.84036456862054
 11
1183.2679950869278
 21
591.24036456862075
  0
ARC
  8
_0-3_躯体と製品
  6
CONTINUOUS
 62
    4
 10
1183.7679950869283
 20
591.2403645686212
 40
0.5000000000004547
 50
180.0000000000521
 51
270.00000000005213
  0
LINE
  8
_0-3_躯体と製品
  6
CONTINUOUS
 62
    4
 10
1183.7679950869287
 20
590.74036456862075
 11
1196.0679950869289
 21
590.74036456862075
  0
ARC
  8
_0-3_躯体と製品
  6
CONTINUOUS
 62
    4
 10
1196.0679950869285
 20
591.24036456862029
 40
0.4999999999995452
 50
270.00000000005213
 51
0.0000000000521229
  0
LINE
  8
_0-3_躯体と製品
  6
CONTINUOUS
 62
    4
 10
1196.567995086928
 20
591.24036456862075
 11
1196.567995086928
 21
592.54036456862059
  0
LINE
  8
_0-3_躯体と製品
  6
CONTINUOUS
 62
    4
 10
1196.567995086928
 20
592.54036456862059
 11
1197.7679950869278
 21
592.54036456862059
  0
LINE
  8
_0-3_躯体と製品
  6
CONTINUOUS
 62
    4
 10
1197.7679950869278
 20
592.54036456862059
 11
1197.7679950869278
 21
591.24036456862075
  0
ARC
  8
_0-3_躯体と製品
  6
CONTINUOUS
 62
    4
 10
1196.0679950869282
 20
591.24036456862007
 40
1.6999999999995337
 50
270.00000000002103
 51
0.0000000000210722
  0
LINE
  8
_0-3_躯体と製品
  6
CONTINUOUS
 62
    4
 10
1196.0679950869289
 20
589.54036456862059
 11
1183.7679950869287
 21
589.54036456862059
  0
ARC
  8
_0-3_躯体と製品
  6
CONTINUOUS
 62
    4
 10
1183.7679950869285
 20
591.24036456862098
 40
1.7000000000004432
 50
180.00000000000958
 51
270.00000000000955
  0
LINE
  8
_0-3_躯体と製品
  6
CONTINUOUS
 62
    4
 10
1182.067995086928
 20
591.24036456862075
 11
1182.067995086928
 21
616.84036456862054
  0
ARC
  8
_0-3_躯体と製品
  6
CONTINUOUS
 62
    4
 10
1181.5679950869285
 20
616.840364568621
 40
0.4999999999994884
 50
359.99999999995441
 51
89.999999999954412
  0
LINE
  8
_0-3_躯体と製品
  6
CONTINUOUS
 62
    4
 10
1181.5679950869289
 20
617.34036456862043
 11
1149.9679950869286
 21
617.34036456862043
  0
ARC
  8
_0-3_躯体と製品
  6
CONTINUOUS
 62
    4
 10
1149.9679950869281
 20
616.84036456862009
 40
0.5000000000003979
 50
89.99999999994138
 51
179.99999999994137
  0
LINE
  8
_0-3_躯体と製品
  6
CONTINUOUS
 62
    4
 10
1149.4679950869277
 20
616.84036456862054
 11
1149.4679950869277
 21
591.24036456862075
  0
ARC
  8
_0-3_躯体と製品
  6
CONTINUOUS
 62
    4
 10
1147.7679950869278
 20
591.24036456862052
 40
1.6999999999999884
 50
270.00000000000574
 51
0.0000000000057431
  0
LINE
  8
_0-3_躯体と製品
  6
CONTINUOUS
 62
    4
 10
1147.7679950869278
 20
589.54036456862059
 11
1135.4679950869277
 21
589.54036456862059
  0
ARC
  8
_0-3_躯体と製品
  6
CONTINUOUS
 62
    4
 10
1135.4679950869277
 20
591.24036456862052
 40
1.6999999999999884
 50
179.99999999999426
 51
269.99999999999426
  0
LINE
  8
_0-3_躯体と製品
  6
CONTINUOUS
 62
    4
 10
1133.7679950869278
 20
591.24036456862075
 11
1133.7679950869278
 21
592.54036456862059
  0
LINE
  8
_0-3_躯体と製品
  6
CONTINUOUS
 62
    4
 10
1133.7679950869278
 20
592.54036456862059
 11
1134.9679950869277
 21
592.54036456862059
  0
LINE
  8
_0-3_躯体と製品
  6
CONTINUOUS
 62
    4
 10
1134.9679950869277
 20
592.54036456862059
 11
1134.9679950869277
 21
591.24036456862075
  0
ARC
  8
_0-3_躯体と製品
  6
CONTINUOUS
 62
    4
 10
1135.4679950869277
 20
591.24036456862075
 40
0.4999999999999999
 50
180
 51
270
  0
LINE
  8
_0-3_躯体と製品
  6
CONTINUOUS
 62
    4
 10
1135.4679950869277
 20
590.74036456862075
 11
1147.7679950869278
 21
590.74036456862075
  0
ARC
  8
_0-3_躯体と製品
  6
CONTINUOUS
 62
    4
 10
1147.7679950869278
 20
591.24036456862075
 40
0.4999999999999999
 50
270
 51
0.0000000000000127
  0
LINE
  8
_0-3_躯体と製品
  6
CONTINUOUS
 62
    4
 10
1148.2679950869278
 20
591.24036456862075
 11
1148.2679950869278
 21
616.84036456862054
  0
ARC
  8
_0-3_躯体と製品
  6
CONTINUOUS
 62
    4
 10
1149.9679950869281
 20
616.8403645686202
 40
1.7000000000003865
 50
89.999999999988489
 51
179.99999999998849
  0
LINE
  8
_0-3_躯体と製品
  6
CONTINUOUS
 62
    4
 10
1149.9679950869286
 20
618.54036456862059
 11
1181.5679950869289
 21
618.54036456862059
  0
LINE
  8
_0-3_躯体と製品
  6
CONTINUOUS
 62
    4
 10
1144.9689950869106
 20
591.38936456862552
 11
1144.9689950869106
 21
590.94036456863228
  0
LINE
  8
_0-3_躯体と製品
  6
CONTINUOUS
 62
    4
 10
1136.9689950869106
 20
591.38936456862552
 11
1136.9689950869106
 21
590.94036456863228
  0
LINE
  8
_0-3_躯体と製品
  6
CONTINUOUS
 62
    4
 10
1144.7689950869271
 20
590.74036456862075
 11
1140.9689950869106
 21
590.74036456862075
  0
ARC
  8
_0-3_躯体と製品
  6
CONTINUOUS
 62
    4
 10
1137.1689950869136
 20
590.94036456862364
 40
0.2000000000028541
 50
180.00000600061105
 51
269.9999970009697
  0
LINE
  8
_0-3_躯体と製品
  6
CONTINUOUS
 62
    4
 10
1137.1689950869213
 20
590.74036456862075
 11
1140.9689950869106
 21
590.74036456862075
  0
ARC
  8
_0-3_躯体と製品
  6
CONTINUOUS
 62
    4
 10
1144.7689950869253
 20
590.94036456863523
 40
0.2000000000144951
 50
269.99999699926957
 51
359.99999999915002
  0
LINE
  8
_0-3_躯体と製品
  6
CONTINUOUS
 62
    4
 10
1144.7339950869236
 20
592.5403645686381
 11
1140.9689950869106
 21
592.5403645686381
  0
ARC
  8
_0-3_躯体と製品
  6
CONTINUOUS
 62
    4
 10
1141.5159950868801
 20
588.95236456862187
 40
4.818999999997609
 50
48.111754999084987
 51
96.517442000067135
  0
LINE
  8
_0-3_躯体と製品
  6
CONTINUOUS
 62
    4
 10
1137.2039950869257
 20
592.5403645686381
 11
1136.9689950869106
 21
591.38936456862552
  0
ARC
  8
_0-3_躯体と製品
  6
CONTINUOUS
 62
    4
 10
1140.4219950869285
 20
588.9523645686171
 40
4.8190000000168984
 50
83.482563001155967
 51
131.88825099942517
  0
LINE
  8
_0-3_躯体と製品
  6
CONTINUOUS
 62
    4
 10
1137.2039950869257
 20
592.5403645686381
 11
1140.9689950869106
 21
592.5403645686381
  0
LINE
  8
_0-3_躯体と製品
  6
CONTINUOUS
 62
    4
 10
1144.7339950869236
 20
592.5403645686381
 11
1144.9689950869106
 21
591.38936456862552
  0
LINE
  8
_0-3_躯体と製品
  6
CONTINUOUS
 62
    4
 10
1194.5689950869164
 20
591.38936456862552
 11
1194.5689950869164
 21
590.94036456863228
  0
LINE
  8
_0-3_躯体と製品
  6
CONTINUOUS
 62
    4
 10
1186.5689950869155
 20
591.38936456862552
 11
1186.5689950869155
 21
590.94036456863228
  0
LINE
  8
_0-3_躯体と製品
  6
CONTINUOUS
 62
    4
 10
1194.3689950869048
 20
590.74036456862075
 11
1190.5689950869164
 21
590.74036456862075
  0
ARC
  8
_0-3_躯体と製品
  6
CONTINUOUS
 62
    4
 10
1186.7689950869187
 20
590.94036456862409
 40
0.2000000000033089
 50
180.00000600074134
 51
269.99999700110004
  0
LINE
  8
_0-3_躯体と製品
  6
CONTINUOUS
 62
    4
 10
1186.7689950869271
 20
590.74036456862075
 11
1190.5689950869164
 21
590.74036456862075
  0
ARC
  8
_0-3_躯体と製品
  6
CONTINUOUS
 62
    4
 10
1194.368995086902
 20
590.94036456863523
 40
0.2000000000144951
 50
269.99999699926957
 51
359.99999999915002
  0
LINE
  8
_0-3_躯体と製品
  6
CONTINUOUS
 62
    4
 10
1194.3339950869295
 20
592.5403645686381
 11
1190.5689950869164
 21
592.5403645686381
  0
ARC
  8
_0-3_躯体と製品
  6
CONTINUOUS
 62
    4
 10
1191.115995086886
 20
588.95236456862187
 40
4.818999999997609
 50
48.111754999084987
 51
96.517442000067135
  0
LINE
  8
_0-3_躯体と製品
  6
CONTINUOUS
 62
    4
 10
1186.8039950869024
 20
592.5403645686381
 11
1186.5689950869155
 21
591.38936456862552
  0
ARC
  8
_0-3_躯体と製品
  6
CONTINUOUS
 62
    4
 10
1190.0219950869052
 20
588.9523645686171
 40
4.8190000000168984
 50
83.482563001155967
 51
131.88825099942517
  0
LINE
  8
_0-3_躯体と製品
  6
CONTINUOUS
 62
    4
 10
1186.8039950869024
 20
592.5403645686381
 11
1190.5689950869164
 21
592.5403645686381
  0
LINE
  8
_0-3_躯体と製品
  6
CONTINUOUS
 62
    4
 10
1194.3339950869295
 20
592.5403645686381
 11
1194.5689950869164
 21
591.38936456862552
  0
LINE
  8
_0-3_躯体と製品
  6
CONTINUOUS
 62
    4
 10
831.76799508692875
 20
587.54036456862059
 11
899.76799508692784
 21
587.54036456862059
  0
LINE
  8
_0-3_躯体と製品
  6
CONTINUOUS
 62
    4
 10
899.76799508692784
 20
587.54036456862059
 11
899.76799508692784
 21
594.54036456862059
  0
LINE
  8
_0-3_躯体と製品
  6
CONTINUOUS
 62
    4
 10
899.76799508692784
 20
594.54036456862059
 11
894.76799508692784
 21
594.54036456862059
  0
LINE
  8
_0-3_躯体と製品
  6
CONTINUOUS
 62
    4
 10
894.76799508692784
 20
594.54036456862059
 11
894.76799508692784
 21
592.54036456862059
  0
LINE
  8
_0-3_躯体と製品
  6
CONTINUOUS
 62
    4
 10
894.76799508692784
 20
592.54036456862059
 11
897.76799508692784
 21
592.54036456862059
  0
LINE
  8
_0-3_躯体と製品
  6
CONTINUOUS
 62
    4
 10
897.76799508692784
 20
592.54036456862059
 11
897.76799508692784
 21
589.54036456862059
  0
LINE
  8
_0-3_躯体と製品
  6
CONTINUOUS
 62
    4
 10
897.76799508692784
 20
589.54036456862059
 11
833.76799508692784
 21
589.54036456862059
  0
LINE
  8
_0-3_躯体と製品
  6
CONTINUOUS
 62
    4
 10
833.76799508692784
 20
589.54036456862059
 11
833.76799508692784
 21
592.54036456862059
  0
LINE
  8
_0-3_躯体と製品
  6
CONTINUOUS
 62
    4
 10
833.76799508692784
 20
592.54036456862059
 11
836.76799508692784
 21
592.54036456862059
  0
LINE
  8
_0-3_躯体と製品
  6
CONTINUOUS
 62
    4
 10
836.76799508692784
 20
592.54036456862059
 11
836.76799508692784
 21
594.54036456862059
  0
LINE
  8
_0-3_躯体と製品
  6
CONTINUOUS
 62
    4
 10
836.76799508692784
 20
594.54036456862059
 11
831.76799508692875
 21
594.54036456862059
  0
LINE
  8
_0-3_躯体と製品
  6
CONTINUOUS
 62
    4
 10
831.76799508692875
 20
594.54036456862059
 11
831.76799508692875
 21
587.54036456862059
  0
ARC
  8
_0-3_躯体と製品
  6
CONTINUOUS
 62
    4
 10
881.56799508692836
 20
616.84036456862111
 40
1.699999999999477
 50
359.99999999998084
 51
89.999999999980844
  0
LINE
  8
_0-3_躯体と製品
  6
CONTINUOUS
 62
    4
 10
883.26799508692784
 20
616.84036456862054
 11
883.26799508692784
 21
591.24036456862075
  0
ARC
  8
_0-3_躯体と製品
  6
CONTINUOUS
 62
    4
 10
883.76799508692784
 20
591.24036456862075
 40
0.4999999999999999
 50
180
 51
270
  0
LINE
  8
_0-3_躯体と製品
  6
CONTINUOUS
 62
    4
 10
883.76799508692784
 20
590.74036456862075
 11
896.06799508692802
 21
590.74036456862075
  0
ARC
  8
_0-3_躯体と製品
  6
CONTINUOUS
 62
    4
 10
896.06799508692802
 20
591.24036456862075
 40
0.4999999999999999
 50
270
 51
0.0000000000000127
  0
LINE
  8
_0-3_躯体と製品
  6
CONTINUOUS
 62
    4
 10
896.56799508692802
 20
591.24036456862075
 11
896.56799508692802
 21
592.54036456862059
  0
LINE
  8
_0-3_躯体と製品
  6
CONTINUOUS
 62
    4
 10
896.56799508692802
 20
592.54036456862059
 11
897.76799508692784
 21
592.54036456862059
  0
LINE
  8
_0-3_躯体と製品
  6
CONTINUOUS
 62
    4
 10
897.76799508692784
 20
592.54036456862059
 11
897.76799508692784
 21
591.24036456862075
  0
ARC
  8
_0-3_躯体と製品
  6
CONTINUOUS
 62
    4
 10
896.06799508692791
 20
591.24036456862052
 40
1.6999999999999884
 50
270.00000000000574
 51
0.0000000000057431
  0
LINE
  8
_0-3_躯体と製品
  6
CONTINUOUS
 62
    4
 10
896.06799508692802
 20
589.54036456862059
 11
883.76799508692784
 21
589.54036456862059
  0
ARC
  8
_0-3_躯体と製品
  6
CONTINUOUS
 62
    4
 10
883.76799508692841
 20
591.24036456862018
 40
1.6999999999995337
 50
179.99999999997894
 51
269.99999999997891
  0
LINE
  8
_0-3_躯体と製品
  6
CONTINUOUS
 62
    4
 10
882.06799508692893
 20
591.24036456862075
 11
882.06799508692893
 21
616.84036456862054
  0
ARC
  8
_0-3_躯体と製品
  6
CONTINUOUS
 62
    4
 10
881.56799508692893
 20
616.84036456862054
 40
0.4999999999999431
 50
0.0000000000065183
 51
90.000000000006523
  0
LINE
  8
_0-3_躯体と製品
  6
CONTINUOUS
 62
    4
 10
881.56799508692893
 20
617.34036456862043
 11
849.96799508692857
 21
617.34036456862043
  0
ARC
  8
_0-3_躯体と製品
  6
CONTINUOUS
 62
    4
 10
849.967995086928
 20
616.84036456862009
 40
0.5000000000003979
 50
89.99999999994138
 51
179.99999999994137
  0
LINE
  8
_0-3_躯体と製品
  6
CONTINUOUS
 62
    4
 10
849.46799508692766
 20
616.84036456862054
 11
849.46799508692766
 21
591.24036456862075
  0
ARC
  8
_0-3_躯体と製品
  6
CONTINUOUS
 62
    4
 10
847.76799508692807
 20
591.24036456862007
 40
1.6999999999995337
 50
270.00000000002103
 51
0.0000000000210722
  0
LINE
  8
_0-3_躯体と製品
  6
CONTINUOUS
 62
    4
 10
847.76799508692875
 20
589.54036456862059
 11
835.46799508692766
 21
589.54036456862059
  0
ARC
  8
_0-3_躯体と製品
  6
CONTINUOUS
 62
    4
 10
835.46799508692777
 20
591.24036456862052
 40
1.6999999999999884
 50
179.99999999999426
 51
269.99999999999426
  0
LINE
  8
_0-3_躯体と製品
  6
CONTINUOUS
 62
    4
 10
833.76799508692784
 20
591.24036456862075
 11
833.76799508692784
 21
592.54036456862059
  0
LINE
  8
_0-3_躯体と製品
  6
CONTINUOUS
 62
    4
 10
833.76799508692784
 20
592.54036456862059
 11
834.96799508692766
 21
592.54036456862059
  0
LINE
  8
_0-3_躯体と製品
  6
CONTINUOUS
 62
    4
 10
834.96799508692766
 20
592.54036456862059
 11
834.96799508692766
 21
591.24036456862075
  0
ARC
  8
_0-3_躯体と製品
  6
CONTINUOUS
 62
    4
 10
835.46799508692766
 20
591.24036456862075
 40
0.4999999999999999
 50
180
 51
270
  0
LINE
  8
_0-3_躯体と製品
  6
CONTINUOUS
 62
    4
 10
835.46799508692766
 20
590.74036456862075
 11
847.76799508692875
 21
590.74036456862075
  0
ARC
  8
_0-3_躯体と製品
  6
CONTINUOUS
 62
    4
 10
847.76799508692829
 20
591.24036456862029
 40
0.4999999999995452
 50
270.00000000005213
 51
0.0000000000521229
  0
LINE
  8
_0-3_躯体と製品
  6
CONTINUOUS
 62
    4
 10
848.26799508692784
 20
591.24036456862075
 11
848.26799508692784
 21
616.84036456862054
  0
ARC
  8
_0-3_躯体と製品
  6
CONTINUOUS
 62
    4
 10
849.96799508692823
 20
616.8403645686202
 40
1.7000000000003865
 50
89.999999999988489
 51
179.99999999998849
  0
LINE
  8
_0-3_躯体と製品
  6
CONTINUOUS
 62
    4
 10
849.96799508692857
 20
618.54036456862059
 11
881.56799508692893
 21
618.54036456862059
  0
LINE
  8
_0-3_躯体と製品
  6
CONTINUOUS
 62
    4
 10
844.96899508691058
 20
591.38936456862552
 11
844.96899508691058
 21
590.94036456863228
  0
LINE
  8
_0-3_躯体と製品
  6
CONTINUOUS
 62
    4
 10
836.96899508690967
 20
591.38936456862552
 11
836.96899508690967
 21
590.94036456863228
  0
LINE
  8
_0-3_躯体と製品
  6
CONTINUOUS
 62
    4
 10
844.76899508692895
 20
590.74036456862075
 11
840.96899508691149
 21
590.74036456862075
  0
ARC
  8
_0-3_躯体と製品
  6
CONTINUOUS
 62
    4
 10
837.16899508691301
 20
590.94036456862409
 40
0.2000000000033089
 50
180.00000600074134
 51
269.99999700110004
  0
LINE
  8
_0-3_躯体と製品
  6
CONTINUOUS
 62
    4
 10
837.16899508692131
 20
590.74036456862075
 11
840.96899508691149
 21
590.74036456862075
  0
ARC
  8
_0-3_躯体と製品
  6
CONTINUOUS
 62
    4
 10
844.76899508692566
 20
590.94036456863569
 40
0.2000000000149499
 50
269.99999699913928
 51
359.99999999901974
  0
LINE
  8
_0-3_躯体と製品
  6
CONTINUOUS
 62
    4
 10
844.73399508692455
 20
592.5403645686381
 11
840.96899508691149
 21
592.5403645686381
  0
ARC
  8
_0-3_躯体と製品
  6
CONTINUOUS
 62
    4
 10
841.51599508688048
 20
588.9523645686229
 40
4.8189999999965529
 50
48.111754999080979
 51
96.517442000063127
  0
LINE
  8
_0-3_躯体と製品
  6
CONTINUOUS
 62
    4
 10
837.20399508692572
 20
592.5403645686381
 11
836.96899508690967
 21
591.38936456862552
  0
ARC
  8
_0-3_躯体と製品
  6
CONTINUOUS
 62
    4
 10
840.42199508692852
 20
588.9523645686171
 40
4.8190000000168984
 50
83.482563001155967
 51
131.88825099942517
  0
LINE
  8
_0-3_躯体と製品
  6
CONTINUOUS
 62
    4
 10
837.20399508692572
 20
592.5403645686381
 11
840.96899508691149
 21
592.5403645686381
  0
LINE
  8
_0-3_躯体と製品
  6
CONTINUOUS
 62
    4
 10
844.73399508692455
 20
592.5403645686381
 11
844.96899508691058
 21
591.38936456862552
  0
LINE
  8
_0-3_躯体と製品
  6
CONTINUOUS
 62
    4
 10
894.5689950869164
 20
591.38936456862552
 11
894.5689950869164
 21
590.94036456863228
  0
LINE
  8
_0-3_躯体と製品
  6
CONTINUOUS
 62
    4
 10
886.56899508691549
 20
591.38936456862552
 11
886.56899508691549
 21
590.94036456863228
  0
LINE
  8
_0-3_躯体と製品
  6
CONTINUOUS
 62
    4
 10
894.36899508690385
 20
590.74036456862075
 11
890.5689950869164
 21
590.74036456862075
  0
ARC
  8
_0-3_躯体と製品
  6
CONTINUOUS
 62
    4
 10
886.76899508691884
 20
590.94036456862409
 40
0.2000000000033089
 50
180.00000600074134
 51
269.99999700110004
  0
LINE
  8
_0-3_躯体と製品
  6
CONTINUOUS
 62
    4
 10
886.76899508692713
 20
590.74036456862075
 11
890.5689950869164
 21
590.74036456862075
  0
ARC
  8
_0-3_躯体と製品
  6
CONTINUOUS
 62
    4
 10
894.36899508690192
 20
590.94036456863523
 40
0.2000000000144951
 50
269.99999699926957
 51
359.99999999915002
  0
LINE
  8
_0-3_躯体と製品
  6
CONTINUOUS
 62
    4
 10
894.33399508693037
 20
592.5403645686381
 11
890.5689950869164
 21
592.5403645686381
  0
ARC
  8
_0-3_躯体と製品
  6
CONTINUOUS
 62
    4
 10
891.11599508688585
 20
588.95236456862392
 40
4.818999999995496
 50
48.111754999076979
 51
96.51744200005912
  0
LINE
  8
_0-3_躯体と製品
  6
CONTINUOUS
 62
    4
 10
886.80399508690243
 20
592.5403645686381
 11
886.56899508691549
 21
591.38936456862552
  0
ARC
  8
_0-3_躯体と製品
  6
CONTINUOUS
 62
    4
 10
890.02199508690478
 20
588.95236456861812
 40
4.8190000000158415
 50
83.482563001159988
 51
131.88825099942918
  0
LINE
  8
_0-3_躯体と製品
  6
CONTINUOUS
 62
    4
 10
886.80399508690243
 20
592.5403645686381
 11
890.5689950869164
 21
592.5403645686381
  0
LINE
  8
_0-3_躯体と製品
  6
CONTINUOUS
 62
    4
 10
894.33399508693037
 20
592.5403645686381
 11
894.5689950869164
 21
591.38936456862552
  0
LINE
  8
_0-3_躯体と製品
  6
CONTINUOUS
 62
    4
 10
531.76799508692784
 20
587.54036456862059
 11
599.76799508692784
 21
587.54036456862059
  0
LINE
  8
_0-3_躯体と製品
  6
CONTINUOUS
 62
    4
 10
599.76799508692784
 20
587.54036456862059
 11
599.76799508692784
 21
594.54036456862059
  0
LINE
  8
_0-3_躯体と製品
  6
CONTINUOUS
 62
    4
 10
599.76799508692784
 20
594.54036456862059
 11
594.76799508692784
 21
594.54036456862059
  0
LINE
  8
_0-3_躯体と製品
  6
CONTINUOUS
 62
    4
 10
594.76799508692784
 20
594.54036456862059
 11
594.76799508692784
 21
592.54036456862059
  0
LINE
  8
_0-3_躯体と製品
  6
CONTINUOUS
 62
    4
 10
594.76799508692784
 20
592.54036456862059
 11
597.76799508692875
 21
592.54036456862059
  0
LINE
  8
_0-3_躯体と製品
  6
CONTINUOUS
 62
    4
 10
597.76799508692875
 20
592.54036456862059
 11
597.76799508692875
 21
589.54036456862059
  0
LINE
  8
_0-3_躯体と製品
  6
CONTINUOUS
 62
    4
 10
597.76799508692875
 20
589.54036456862059
 11
533.76799508692784
 21
589.54036456862059
  0
LINE
  8
_0-3_躯体と製品
  6
CONTINUOUS
 62
    4
 10
533.76799508692784
 20
589.54036456862059
 11
533.76799508692784
 21
592.54036456862059
  0
LINE
  8
_0-3_躯体と製品
  6
CONTINUOUS
 62
    4
 10
533.76799508692784
 20
592.54036456862059
 11
536.76799508692784
 21
592.54036456862059
  0
LINE
  8
_0-3_躯体と製品
  6
CONTINUOUS
 62
    4
 10
536.76799508692784
 20
592.54036456862059
 11
536.76799508692784
 21
594.54036456862059
  0
LINE
  8
_0-3_躯体と製品
  6
CONTINUOUS
 62
    4
 10
536.76799508692784
 20
594.54036456862059
 11
531.76799508692784
 21
594.54036456862059
  0
LINE
  8
_0-3_躯体と製品
  6
CONTINUOUS
 62
    4
 10
531.76799508692784
 20
594.54036456862059
 11
531.76799508692784
 21
587.54036456862059
  0
ARC
  8
_0-3_躯体と製品
  6
CONTINUOUS
 62
    4
 10
581.5679950869287
 20
616.84036456862054
 40
1.6999999999999884
 50
359.99999999999426
 51
89.999999999994245
  0
LINE
  8
_0-3_躯体と製品
  6
CONTINUOUS
 62
    4
 10
583.26799508692875
 20
616.84036456862032
 11
583.26799508692875
 21
591.24036456862052
  0
ARC
  8
_0-3_躯体と製品
  6
CONTINUOUS
 62
    4
 10
583.76799508692829
 20
591.24036456862007
 40
0.4999999999995452
 50
179.9999999999479
 51
269.99999999994787
  0
LINE
  8
_0-3_躯体と製品
  6
CONTINUOUS
 62
    4
 10
583.76799508692784
 20
590.74036456862052
 11
596.06799508692802
 21
590.74036456862052
  0
ARC
  8
_0-3_躯体と製品
  6
CONTINUOUS
 62
    4
 10
596.06799508692848
 20
591.24036456862098
 40
0.5000000000004547
 50
269.99999999994787
 51
359.99999999994787
  0
LINE
  8
_0-3_躯体と製品
  6
CONTINUOUS
 62
    4
 10
596.56799508692893
 20
591.24036456862052
 11
596.56799508692893
 21
592.54036456862059
  0
LINE
  8
_0-3_躯体と製品
  6
CONTINUOUS
 62
    4
 10
596.56799508692893
 20
592.54036456862059
 11
597.76799508692875
 21
592.54036456862059
  0
LINE
  8
_0-3_躯体と製品
  6
CONTINUOUS
 62
    4
 10
597.76799508692875
 20
592.54036456862059
 11
597.76799508692875
 21
591.24036456862052
  0
ARC
  8
_0-3_躯体と製品
  6
CONTINUOUS
 62
    4
 10
596.06799508692848
 20
591.24036456862086
 40
1.7000000000003297
 50
269.99999999998658
 51
359.99999999998658
  0
LINE
  8
_0-3_躯体と製品
  6
CONTINUOUS
 62
    4
 10
596.06799508692802
 20
589.54036456862059
 11
583.76799508692784
 21
589.54036456862059
  0
ARC
  8
_0-3_躯体と製品
  6
CONTINUOUS
 62
    4
 10
583.76799508692784
 20
591.24036456862041
 40
1.6999999999998749
 50
179.99999999999807
 51
269.99999999999807
  0
LINE
  8
_0-3_躯体と製品
  6
CONTINUOUS
 62
    4
 10
582.06799508692802
 20
591.24036456862052
 11
582.06799508692802
 21
616.84036456862032
  0
ARC
  8
_0-3_躯体と製品
  6
CONTINUOUS
 62
    4
 10
581.56799508692848
 20
616.84036456862077
 40
0.4999999999995452
 50
359.99999999994787
 51
89.999999999947903
  0
LINE
  8
_0-3_躯体と製品
  6
CONTINUOUS
 62
    4
 10
581.56799508692893
 20
617.34036456862032
 11
549.96799508692766
 21
617.34036456862032
  0
ARC
  8
_0-3_躯体と製品
  6
CONTINUOUS
 62
    4
 10
549.96799508692766
 20
616.84036456862032
 40
0.4999999999999999
 50
90
 51
180
  0
LINE
  8
_0-3_躯体と製品
  6
CONTINUOUS
 62
    4
 10
549.46799508692766
 20
616.84036456862032
 11
549.46799508692766
 21
591.24036456862052
  0
ARC
  8
_0-3_躯体と製品
  6
CONTINUOUS
 62
    4
 10
547.76799508692829
 20
591.24036456861995
 40
1.69999999999942
 50
270.00000000001722
 51
0.0000000000172399
  0
LINE
  8
_0-3_躯体と製品
  6
CONTINUOUS
 62
    4
 10
547.76799508692875
 20
589.54036456862059
 11
535.46799508692766
 21
589.54036456862059
  0
ARC
  8
_0-3_躯体と製品
  6
CONTINUOUS
 62
    4
 10
535.46799508692766
 20
591.24036456862041
 40
1.6999999999998749
 50
179.99999999999807
 51
269.99999999999807
  0
LINE
  8
_0-3_躯体と製品
  6
CONTINUOUS
 62
    4
 10
533.76799508692784
 20
591.24036456862052
 11
533.76799508692784
 21
592.54036456862059
  0
LINE
  8
_0-3_躯体と製品
  6
CONTINUOUS
 62
    4
 10
533.76799508692784
 20
592.54036456862059
 11
534.96799508692675
 21
592.54036456862059
  0
LINE
  8
_0-3_躯体と製品
  6
CONTINUOUS
 62
    4
 10
534.96799508692675
 20
592.54036456862059
 11
534.96799508692675
 21
591.24036456862052
  0
ARC
  8
_0-3_躯体と製品
  6
CONTINUOUS
 62
    4
 10
535.4679950869272
 20
591.24036456862098
 40
0.5000000000004547
 50
180.0000000000521
 51
270.00000000005213
  0
LINE
  8
_0-3_躯体と製品
  6
CONTINUOUS
 62
    4
 10
535.46799508692766
 20
590.74036456862052
 11
547.76799508692875
 21
590.74036456862052
  0
ARC
  8
_0-3_躯体と製品
  6
CONTINUOUS
 62
    4
 10
547.76799508692829
 20
591.24036456862007
 40
0.4999999999995452
 50
270.00000000005213
 51
0.0000000000521229
  0
LINE
  8
_0-3_躯体と製品
  6
CONTINUOUS
 62
    4
 10
548.26799508692784
 20
591.24036456862052
 11
548.26799508692784
 21
616.84036456862032
  0
ARC
  8
_0-3_躯体と製品
  6
CONTINUOUS
 62
    4
 10
549.96799508692789
 20
616.84036456862054
 40
1.6999999999999884
 50
90.000000000005741
 51
180.00000000000574
  0
LINE
  8
_0-3_躯体と製品
  6
CONTINUOUS
 62
    4
 10
549.96799508692766
 20
618.54036456862048
 11
581.56799508692893
 21
618.54036456862048
  0
LINE
  8
_0-3_躯体と製品
  6
CONTINUOUS
 62
    4
 10
544.96899508691058
 20
591.38936456862541
 11
544.96899508691058
 21
590.94036456863216
  0
LINE
  8
_0-3_躯体と製品
  6
CONTINUOUS
 62
    4
 10
536.96899508691058
 20
591.38936456862541
 11
536.96899508691058
 21
590.94036456863216
  0
LINE
  8
_0-3_躯体と製品
  6
CONTINUOUS
 62
    4
 10
544.76899508692895
 20
590.74036456862052
 11
540.96899508691058
 21
590.74036456862052
  0
ARC
  8
_0-3_躯体と製品
  6
CONTINUOUS
 62
    4
 10
537.16899508691404
 20
590.94036456862386
 40
0.2000000000033658
 50
180.00000600072505
 51
269.99999700108367
  0
LINE
  8
_0-3_躯体と製品
  6
CONTINUOUS
 62
    4
 10
537.16899508692131
 20
590.74036456862052
 11
540.96899508691058
 21
590.74036456862052
  0
ARC
  8
_0-3_躯体と製品
  6
CONTINUOUS
 62
    4
 10
544.76899508692554
 20
590.94036456863557
 40
0.2000000000150067
 50
269.99999699915554
 51
359.99999999903599
  0
LINE
  8
_0-3_躯体と製品
  6
CONTINUOUS
 62
    4
 10
544.73399508692455
 20
592.5403645686381
 11
540.96899508691058
 21
592.5403645686381
  0
ARC
  8
_0-3_躯体と製品
  6
CONTINUOUS
 62
    4
 10
541.51599508688014
 20
588.95236456862381
 40
4.8189999999954543
 50
48.111754999078549
 51
96.517442000060697
  0
LINE
  8
_0-3_躯体と製品
  6
CONTINUOUS
 62
    4
 10
537.20399508692572
 20
592.5403645686381
 11
536.96899508691058
 21
591.38936456862541
  0
ARC
  8
_0-3_躯体と製品
  6
CONTINUOUS
 62
    4
 10
540.42199508692897
 20
588.95236456861801
 40
4.8190000000158415
 50
83.482563001159988
 51
131.88825099942918
  0
LINE
  8
_0-3_躯体と製品
  6
CONTINUOUS
 62
    4
 10
537.20399508692572
 20
592.5403645686381
 11
540.96899508691058
 21
592.5403645686381
  0
LINE
  8
_0-3_躯体と製品
  6
CONTINUOUS
 62
    4
 10
544.73399508692455
 20
592.5403645686381
 11
544.96899508691058
 21
591.38936456862541
  0
LINE
  8
_0-3_躯体と製品
  6
CONTINUOUS
 62
    4
 10
594.5689950869164
 20
591.38936456862541
 11
594.5689950869164
 21
590.94036456863216
  0
LINE
  8
_0-3_躯体と製品
  6
CONTINUOUS
 62
    4
 10
586.5689950869164
 20
591.38936456862541
 11
586.5689950869164
 21
590.94036456863216
  0
LINE
  8
_0-3_躯体と製品
  6
CONTINUOUS
 62
    4
 10
594.36899508690476
 20
590.74036456862052
 11
590.56899508691549
 21
590.74036456862052
  0
ARC
  8
_0-3_躯体と製品
  6
CONTINUOUS
 62
    4
 10
586.76899508691986
 20
590.94036456862386
 40
0.2000000000033658
 50
180.00000600072505
 51
269.99999700108367
  0
LINE
  8
_0-3_躯体と製品
  6
CONTINUOUS
 62
    4
 10
586.76899508692895
 20
590.74036456862052
 11
590.56899508691549
 21
590.74036456862052
  0
ARC
  8
_0-3_躯体と製品
  6
CONTINUOUS
 62
    4
 10
594.3689950869018
 20
590.94036456863512
 40
0.200000000014552
 50
269.99999699928583
 51
359.99999999916628
  0
LINE
  8
_0-3_躯体と製品
  6
CONTINUOUS
 62
    4
 10
594.33399508693037
 20
592.5403645686381
 11
590.56899508691549
 21
592.5403645686381
  0
ARC
  8
_0-3_躯体と製品
  6
CONTINUOUS
 62
    4
 10
591.11599508688596
 20
588.95236456862381
 40
4.8189999999954543
 50
48.111754999078549
 51
96.517442000060697
  0
LINE
  8
_0-3_躯体と製品
  6
CONTINUOUS
 62
    4
 10
586.80399508690243
 20
592.5403645686381
 11
586.5689950869164
 21
591.38936456862541
  0
ARC
  8
_0-3_躯体と製品
  6
CONTINUOUS
 62
    4
 10
590.02199508690478
 20
588.95236456861801
 40
4.8190000000158415
 50
83.482563001159988
 51
131.88825099942918
  0
LINE
  8
_0-3_躯体と製品
  6
CONTINUOUS
 62
    4
 10
586.80399508690243
 20
592.5403645686381
 11
590.56899508691549
 21
592.5403645686381
  0
LINE
  8
_0-3_躯体と製品
  6
CONTINUOUS
 62
    4
 10
594.33399508693037
 20
592.5403645686381
 11
594.5689950869164
 21
591.38936456862541
  0
LINE
  8
_0-3_躯体と製品
  6
CONTINUOUS
 62
    4
 10
318.52725833500426
 20
587.54036456862059
 11
386.52725833500426
 21
587.54036456862059
  0
LINE
  8
_0-3_躯体と製品
  6
CONTINUOUS
 62
    4
 10
386.52725833500426
 20
587.54036456862059
 11
386.52725833500426
 21
594.54036456862059
  0
LINE
  8
_0-3_躯体と製品
  6
CONTINUOUS
 62
    4
 10
386.52725833500426
 20
594.54036456862059
 11
381.52725833500426
 21
594.54036456862059
  0
LINE
  8
_0-3_躯体と製品
  6
CONTINUOUS
 62
    4
 10
381.52725833500426
 20
594.54036456862059
 11
381.52725833500426
 21
592.54036456862059
  0
LINE
  8
_0-3_躯体と製品
  6
CONTINUOUS
 62
    4
 10
381.52725833500426
 20
592.54036456862059
 11
384.52725833500426
 21
592.54036456862059
  0
LINE
  8
_0-3_躯体と製品
  6
CONTINUOUS
 62
    4
 10
384.52725833500426
 20
592.54036456862059
 11
384.52725833500426
 21
589.54036456862059
  0
LINE
  8
_0-3_躯体と製品
  6
CONTINUOUS
 62
    4
 10
384.52725833500426
 20
589.54036456862059
 11
320.52725833500426
 21
589.54036456862059
  0
LINE
  8
_0-3_躯体と製品
  6
CONTINUOUS
 62
    4
 10
320.52725833500426
 20
589.54036456862059
 11
320.52725833500426
 21
592.54036456862059
  0
LINE
  8
_0-3_躯体と製品
  6
CONTINUOUS
 62
    4
 10
320.52725833500426
 20
592.54036456862059
 11
323.52725833500426
 21
592.54036456862059
  0
LINE
  8
_0-3_躯体と製品
  6
CONTINUOUS
 62
    4
 10
323.52725833500426
 20
592.54036456862059
 11
323.52725833500426
 21
594.54036456862059
  0
LINE
  8
_0-3_躯体と製品
  6
CONTINUOUS
 62
    4
 10
323.52725833500426
 20
594.54036456862059
 11
318.52725833500426
 21
594.54036456862059
  0
LINE
  8
_0-3_躯体と製品
  6
CONTINUOUS
 62
    4
 10
318.52725833500426
 20
594.54036456862059
 11
318.52725833500426
 21
587.54036456862059
  0
ARC
  8
_0-3_躯体と製品
  6
CONTINUOUS
 62
    4
 10
368.32725833500467
 20
616.840364568621
 40
1.6999999999995337
 50
359.99999999997891
 51
89.999999999978925
  0
LINE
  8
_0-3_躯体と製品
  6
CONTINUOUS
 62
    4
 10
370.02725833500426
 20
616.84036456862032
 11
370.02725833500426
 21
591.24036456862052
  0
ARC
  8
_0-3_躯体と製品
  6
CONTINUOUS
 62
    4
 10
370.52725833500472
 20
591.24036456862098
 40
0.5000000000004547
 50
180.0000000000521
 51
270.00000000005213
  0
LINE
  8
_0-3_躯体と製品
  6
CONTINUOUS
 62
    4
 10
370.52725833500517
 20
590.74036456862052
 11
382.82725833500535
 21
590.74036456862052
  0
ARC
  8
_0-3_躯体と製品
  6
CONTINUOUS
 62
    4
 10
382.8272583350049
 20
591.24036456862007
 40
0.4999999999995452
 50
270.00000000005213
 51
0.0000000000521229
  0
LINE
  8
_0-3_躯体と製品
  6
CONTINUOUS
 62
    4
 10
383.32725833500444
 20
591.24036456862052
 11
383.32725833500444
 21
592.54036456862059
  0
LINE
  8
_0-3_躯体と製品
  6
CONTINUOUS
 62
    4
 10
383.32725833500444
 20
592.54036456862059
 11
384.52725833500426
 21
592.54036456862059
  0
LINE
  8
_0-3_躯体と製品
  6
CONTINUOUS
 62
    4
 10
384.52725833500426
 20
592.54036456862059
 11
384.52725833500426
 21
591.24036456862052
  0
ARC
  8
_0-3_躯体と製品
  6
CONTINUOUS
 62
    4
 10
382.8272583350049
 20
591.24036456861995
 40
1.69999999999942
 50
270.00000000001722
 51
0.0000000000172399
  0
LINE
  8
_0-3_躯体と製品
  6
CONTINUOUS
 62
    4
 10
382.82725833500535
 20
589.54036456862059
 11
370.52725833500517
 21
589.54036456862059
  0
ARC
  8
_0-3_躯体と製品
  6
CONTINUOUS
 62
    4
 10
370.52725833500472
 20
591.24036456862098
 40
1.7000000000003297
 50
180.00000000001344
 51
270.00000000001342
  0
LINE
  8
_0-3_躯体と製品
  6
CONTINUOUS
 62
    4
 10
368.82725833500444
 20
591.24036456862052
 11
368.82725833500444
 21
616.84036456862032
  0
ARC
  8
_0-3_躯体と製品
  6
CONTINUOUS
 62
    4
 10
368.3272583350049
 20
616.84036456862077
 40
0.4999999999995452
 50
359.99999999994787
 51
89.999999999947903
  0
LINE
  8
_0-3_躯体と製品
  6
CONTINUOUS
 62
    4
 10
368.32725833500535
 20
617.34036456862032
 11
336.7272583350059
 21
617.34036456862032
  0
ARC
  8
_0-3_躯体と製品
  6
CONTINUOUS
 62
    4
 10
336.72725833500544
 20
616.84036456861986
 40
0.5000000000004547
 50
89.999999999947889
 51
179.9999999999479
  0
LINE
  8
_0-3_躯体と製品
  6
CONTINUOUS
 62
    4
 10
336.22725833500499
 20
616.84036456862032
 11
336.22725833500499
 21
591.24036456862052
  0
ARC
  8
_0-3_躯体と製品
  6
CONTINUOUS
 62
    4
 10
334.52725833500472
 20
591.24036456862086
 40
1.7000000000003297
 50
269.99999999998658
 51
359.99999999998658
  0
LINE
  8
_0-3_躯体と製品
  6
CONTINUOUS
 62
    4
 10
334.52725833500426
 20
589.54036456862059
 11
322.22725833500499
 21
589.54036456862059
  0
ARC
  8
_0-3_躯体と製品
  6
CONTINUOUS
 62
    4
 10
322.22725833500454
 20
591.24036456862098
 40
1.7000000000003297
 50
180.00000000001344
 51
270.00000000001342
  0
LINE
  8
_0-3_躯体と製品
  6
CONTINUOUS
 62
    4
 10
320.52725833500426
 20
591.24036456862052
 11
320.52725833500426
 21
592.54036456862059
  0
LINE
  8
_0-3_躯体と製品
  6
CONTINUOUS
 62
    4
 10
320.52725833500426
 20
592.54036456862059
 11
321.72725833500499
 21
592.54036456862059
  0
LINE
  8
_0-3_躯体と製品
  6
CONTINUOUS
 62
    4
 10
321.72725833500499
 20
592.54036456862059
 11
321.72725833500499
 21
591.24036456862052
  0
ARC
  8
_0-3_躯体と製品
  6
CONTINUOUS
 62
    4
 10
322.22725833500499
 20
591.24036456862052
 40
0.4999999999999999
 50
180
 51
270
  0
LINE
  8
_0-3_躯体と製品
  6
CONTINUOUS
 62
    4
 10
322.22725833500499
 20
590.74036456862052
 11
334.52725833500426
 21
590.74036456862052
  0
ARC
  8
_0-3_躯体と製品
  6
CONTINUOUS
 62
    4
 10
334.52725833500426
 20
591.24036456862052
 40
0.4999999999999999
 50
270
 51
0.0000000000000127
  0
LINE
  8
_0-3_躯体と製品
  6
CONTINUOUS
 62
    4
 10
335.02725833500426
 20
591.24036456862052
 11
335.02725833500426
 21
616.84036456862032
  0
ARC
  8
_0-3_躯体と製品
  6
CONTINUOUS
 62
    4
 10
336.72725833500522
 20
616.84036456861963
 40
1.7000000000008983
 50
89.999999999975074
 51
179.9999999999751
  0
LINE
  8
_0-3_躯体と製品
  6
CONTINUOUS
 62
    4
 10
336.7272583350059
 20
618.54036456862048
 11
368.32725833500535
 21
618.54036456862048
  0
LINE
  8
_0-3_躯体と製品
  6
CONTINUOUS
 62
    4
 10
331.72825833498791
 20
591.38936456862541
 11
331.72825833498791
 21
590.94036456863216
  0
LINE
  8
_0-3_躯体と製品
  6
CONTINUOUS
 62
    4
 10
323.72825833498791
 20
591.38936456862541
 11
323.72825833498791
 21
590.94036456863216
  0
LINE
  8
_0-3_躯体と製品
  6
CONTINUOUS
 62
    4
 10
331.52825833500447
 20
590.74036456862052
 11
327.72825833498882
 21
590.74036456862052
  0
ARC
  8
_0-3_躯体と製品
  6
CONTINUOUS
 62
    4
 10
323.92825833499046
 20
590.94036456862295
 40
0.2000000000024563
 50
180.00000600046451
 51
269.99999700082321
  0
LINE
  8
_0-3_躯体と製品
  6
CONTINUOUS
 62
    4
 10
323.92825833499955
 20
590.74036456862052
 11
327.72825833498882
 21
590.74036456862052
  0
ARC
  8
_0-3_躯体と製品
  6
CONTINUOUS
 62
    4
 10
331.52825833500242
 20
590.94036456863512
 40
0.200000000014552
 50
269.99999699928583
 51
359.99999999916628
  0
LINE
  8
_0-3_躯体と製品
  6
CONTINUOUS
 62
    4
 10
331.49325833500097
 20
592.5403645686381
 11
327.72825833498882
 21
592.5403645686381
  0
ARC
  8
_0-3_躯体と製品
  6
CONTINUOUS
 62
    4
 10
328.27525833495793
 20
588.95236456862074
 40
4.8189999999986242
 50
48.111754999090564
 51
96.517442000072705
  0
LINE
  8
_0-3_躯体と製品
  6
CONTINUOUS
 62
    4
 10
323.96325833500214
 20
592.5403645686381
 11
323.72825833498791
 21
591.38936456862541
  0
ARC
  8
_0-3_躯体と製品
  6
CONTINUOUS
 62
    4
 10
327.18125833500585
 20
588.95236456861699
 40
4.8190000000168984
 50
83.482563001155967
 51
131.88825099942517
  0
LINE
  8
_0-3_躯体と製品
  6
CONTINUOUS
 62
    4
 10
323.96325833500214
 20
592.5403645686381
 11
327.72825833498882
 21
592.5403645686381
  0
LINE
  8
_0-3_躯体と製品
  6
CONTINUOUS
 62
    4
 10
331.49325833500097
 20
592.5403645686381
 11
331.72825833498791
 21
591.38936456862541
  0
LINE
  8
_0-3_躯体と製品
  6
CONTINUOUS
 62
    4
 10
381.32825833499373
 20
591.38936456862541
 11
381.32825833499373
 21
590.94036456863216
  0
LINE
  8
_0-3_躯体と製品
  6
CONTINUOUS
 62
    4
 10
373.32825833499282
 20
591.38936456862541
 11
373.32825833499282
 21
590.94036456863216
  0
LINE
  8
_0-3_躯体と製品
  6
CONTINUOUS
 62
    4
 10
381.12825833498118
 20
590.74036456862052
 11
377.32825833499464
 21
590.74036456862052
  0
ARC
  8
_0-3_躯体と製品
  6
CONTINUOUS
 62
    4
 10
373.52825833499628
 20
590.94036456862386
 40
0.2000000000033658
 50
180.00000600072505
 51
269.99999700108367
  0
LINE
  8
_0-3_躯体と製品
  6
CONTINUOUS
 62
    4
 10
373.52825833500447
 20
590.74036456862052
 11
377.32825833499464
 21
590.74036456862052
  0
ARC
  8
_0-3_躯体と製品
  6
CONTINUOUS
 62
    4
 10
381.12825833497914
 20
590.94036456863512
 40
0.200000000014552
 50
269.99999699928583
 51
359.99999999916628
  0
LINE
  8
_0-3_躯体と製品
  6
CONTINUOUS
 62
    4
 10
381.09325833500679
 20
592.5403645686381
 11
377.32825833499464
 21
592.5403645686381
  0
ARC
  8
_0-3_躯体と製品
  6
CONTINUOUS
 62
    4
 10
377.87525833496329
 20
588.95236456862176
 40
4.8189999999975672
 50
48.111754999086557
 51
96.517442000068712
  0
LINE
  8
_0-3_躯体と製品
  6
CONTINUOUS
 62
    4
 10
373.56325833497976
 20
592.5403645686381
 11
373.32825833499282
 21
591.38936456862541
  0
ARC
  8
_0-3_躯体と製品
  6
CONTINUOUS
 62
    4
 10
376.78125833498257
 20
588.95236456861699
 40
4.8190000000168984
 50
83.482563001155967
 51
131.88825099942517
  0
LINE
  8
_0-3_躯体と製品
  6
CONTINUOUS
 62
    4
 10
373.56325833497976
 20
592.5403645686381
 11
377.32825833499464
 21
592.5403645686381
  0
LINE
  8
_0-3_躯体と製品
  6
CONTINUOUS
 62
    4
 10
381.09325833500679
 20
592.5403645686381
 11
381.32825833499373
 21
591.38936456862541
  0
LINE
  8
_0-3_躯体と製品
  6
CONTINUOUS
 62
    4
 10
118.52725833500426
 20
587.54036456862036
 11
186.52725833500426
 21
587.54036456862036
  0
LINE
  8
_0-3_躯体と製品
  6
CONTINUOUS
 62
    4
 10
186.52725833500426
 20
587.54036456862036
 11
186.52725833500426
 21
594.54036456862036
  0
LINE
  8
_0-3_躯体と製品
  6
CONTINUOUS
 62
    4
 10
186.52725833500426
 20
594.54036456862036
 11
181.52725833500517
 21
594.54036456862036
  0
LINE
  8
_0-3_躯体と製品
  6
CONTINUOUS
 62
    4
 10
181.52725833500517
 20
594.54036456862036
 11
181.52725833500517
 21
592.54036456862036
  0
LINE
  8
_0-3_躯体と製品
  6
CONTINUOUS
 62
    4
 10
181.52725833500517
 20
592.54036456862036
 11
184.52725833500517
 21
592.54036456862036
  0
LINE
  8
_0-3_躯体と製品
  6
CONTINUOUS
 62
    4
 10
184.52725833500517
 20
592.54036456862036
 11
184.52725833500517
 21
589.54036456862036
  0
LINE
  8
_0-3_躯体と製品
  6
CONTINUOUS
 62
    4
 10
184.52725833500517
 20
589.54036456862036
 11
120.52725833500517
 21
589.54036456862036
  0
LINE
  8
_0-3_躯体と製品
  6
CONTINUOUS
 62
    4
 10
120.52725833500517
 20
589.54036456862036
 11
120.52725833500517
 21
592.54036456862036
  0
LINE
  8
_0-3_躯体と製品
  6
CONTINUOUS
 62
    4
 10
120.52725833500517
 20
592.54036456862036
 11
123.52725833500517
 21
592.54036456862036
  0
LINE
  8
_0-3_躯体と製品
  6
CONTINUOUS
 62
    4
 10
123.52725833500517
 20
592.54036456862036
 11
123.52725833500517
 21
594.54036456862036
  0
LINE
  8
_0-3_躯体と製品
  6
CONTINUOUS
 62
    4
 10
123.52725833500517
 20
594.54036456862036
 11
118.52725833500426
 21
594.54036456862036
  0
LINE
  8
_0-3_躯体と製品
  6
CONTINUOUS
 62
    4
 10
118.52725833500426
 20
594.54036456862036
 11
118.52725833500426
 21
587.54036456862036
  0
ARC
  8
_0-3_躯体と製品
  6
CONTINUOUS
 62
    4
 10
168.32725833500422
 20
616.84036456862032
 40
1.6999999999999884
 50
359.99999999999426
 51
89.999999999994245
  0
LINE
  8
_0-3_躯体と製品
  6
CONTINUOUS
 62
    4
 10
170.02725833500426
 20
616.84036456862009
 11
170.02725833500426
 21
591.24036456862041
  0
ARC
  8
_0-3_躯体と製品
  6
CONTINUOUS
 62
    4
 10
170.52725833500472
 20
591.24036456862086
 40
0.5000000000004547
 50
180.0000000000521
 51
270.00000000005213
  0
LINE
  8
_0-3_躯体と製品
  6
CONTINUOUS
 62
    4
 10
170.52725833500517
 20
590.74036456862041
 11
182.82725833500444
 21
590.74036456862041
  0
ARC
  8
_0-3_躯体と製品
  6
CONTINUOUS
 62
    4
 10
182.82725833500444
 20
591.24036456862041
 40
0.4999999999999999
 50
270
 51
0.0000000000000127
  0
LINE
  8
_0-3_躯体と製品
  6
CONTINUOUS
 62
    4
 10
183.32725833500444
 20
591.24036456862041
 11
183.32725833500444
 21
592.54036456862036
  0
LINE
  8
_0-3_躯体と製品
  6
CONTINUOUS
 62
    4
 10
183.32725833500444
 20
592.54036456862036
 11
184.52725833500517
 21
592.54036456862036
  0
LINE
  8
_0-3_躯体と製品
  6
CONTINUOUS
 62
    4
 10
184.52725833500517
 20
592.54036456862036
 11
184.52725833500517
 21
591.24036456862041
  0
ARC
  8
_0-3_躯体と製品
  6
CONTINUOUS
 62
    4
 10
182.8272583350049
 20
591.24036456862075
 40
1.7000000000003865
 50
269.99999999998852
 51
359.99999999998852
  0
LINE
  8
_0-3_躯体と製品
  6
CONTINUOUS
 62
    4
 10
182.82725833500444
 20
589.54036456862036
 11
170.52725833500517
 21
589.54036456862036
  0
ARC
  8
_0-3_躯体と製品
  6
CONTINUOUS
 62
    4
 10
170.52725833500472
 20
591.24036456862075
 40
1.7000000000003865
 50
180.00000000001151
 51
270.00000000001148
  0
LINE
  8
_0-3_躯体と製品
  6
CONTINUOUS
 62
    4
 10
168.82725833500444
 20
591.24036456862041
 11
168.82725833500444
 21
616.84036456862009
  0
ARC
  8
_0-3_躯体と製品
  6
CONTINUOUS
 62
    4
 10
168.32725833500444
 20
616.8403645686202
 40
0.5000000000000567
 50
359.99999999999352
 51
89.999999999993506
  0
LINE
  8
_0-3_躯体と製品
  6
CONTINUOUS
 62
    4
 10
168.32725833500444
 20
617.3403645686202
 11
136.72725833500499
 21
617.3403645686202
  0
ARC
  8
_0-3_躯体と製品
  6
CONTINUOUS
 62
    4
 10
136.72725833500499
 20
616.8403645686202
 40
0.5000000000000567
 50
90.000000000006509
 51
180.00000000000651
  0
LINE
  8
_0-3_躯体と製品
  6
CONTINUOUS
 62
    4
 10
136.22725833500499
 20
616.84036456862009
 11
136.22725833500499
 21
591.24036456862041
  0
ARC
  8
_0-3_躯体と製品
  6
CONTINUOUS
 62
    4
 10
134.52725833500472
 20
591.24036456862075
 40
1.7000000000003865
 50
269.99999999998852
 51
359.99999999998852
  0
LINE
  8
_0-3_躯体と製品
  6
CONTINUOUS
 62
    4
 10
134.52725833500426
 20
589.54036456862036
 11
122.22725833500499
 21
589.54036456862036
  0
ARC
  8
_0-3_躯体と製品
  6
CONTINUOUS
 62
    4
 10
122.22725833500499
 20
591.24036456862029
 40
1.6999999999999318
 50
179.99999999999619
 51
269.99999999999619
  0
LINE
  8
_0-3_躯体と製品
  6
CONTINUOUS
 62
    4
 10
120.52725833500517
 20
591.24036456862041
 11
120.52725833500517
 21
592.54036456862036
  0
LINE
  8
_0-3_躯体と製品
  6
CONTINUOUS
 62
    4
 10
120.52725833500517
 20
592.54036456862036
 11
121.72725833500499
 21
592.54036456862036
  0
LINE
  8
_0-3_躯体と製品
  6
CONTINUOUS
 62
    4
 10
121.72725833500499
 20
592.54036456862036
 11
121.72725833500499
 21
591.24036456862041
  0
ARC
  8
_0-3_躯体と製品
  6
CONTINUOUS
 62
    4
 10
122.22725833500499
 20
591.24036456862041
 40
0.4999999999999999
 50
180
 51
270
  0
LINE
  8
_0-3_躯体と製品
  6
CONTINUOUS
 62
    4
 10
122.22725833500499
 20
590.74036456862041
 11
134.52725833500426
 21
590.74036456862041
  0
ARC
  8
_0-3_躯体と製品
  6
CONTINUOUS
 62
    4
 10
134.52725833500426
 20
591.24036456862041
 40
0.4999999999999999
 50
270
 51
0.0000000000000127
  0
LINE
  8
_0-3_躯体と製品
  6
CONTINUOUS
 62
    4
 10
135.02725833500426
 20
591.24036456862041
 11
135.02725833500426
 21
616.84036456862009
  0
ARC
  8
_0-3_躯体と製品
  6
CONTINUOUS
 62
    4
 10
136.72725833500476
 20
616.84036456861986
 40
1.7000000000004432
 50
89.999999999990422
 51
179.99999999999042
  0
LINE
  8
_0-3_躯体と製品
  6
CONTINUOUS
 62
    4
 10
136.72725833500499
 20
618.54036456862025
 11
168.32725833500444
 21
618.54036456862025
  0
LINE
  8
_0-3_躯体と製品
  6
CONTINUOUS
 62
    4
 10
131.72825833498791
 20
591.3893645686253
 11
131.72825833498791
 21
590.94036456863205
  0
LINE
  8
_0-3_躯体と製品
  6
CONTINUOUS
 62
    4
 10
123.72825833498882
 20
591.3893645686253
 11
123.72825833498882
 21
590.94036456863205
  0
LINE
  8
_0-3_躯体と製品
  6
CONTINUOUS
 62
    4
 10
131.52825833500538
 20
590.74036456862041
 11
127.72825833498791
 21
590.74036456862041
  0
ARC
  8
_0-3_躯体と製品
  6
CONTINUOUS
 62
    4
 10
123.92825833499091
 20
590.94036456862239
 40
0.2000000000020015
 50
180.00000600033422
 51
269.99999700069293
  0
LINE
  8
_0-3_躯体と製品
  6
CONTINUOUS
 62
    4
 10
123.92825833499955
 20
590.74036456862041
 11
127.72825833498791
 21
590.74036456862041
  0
ARC
  8
_0-3_躯体と製品
  6
CONTINUOUS
 62
    4
 10
131.52825833500242
 20
590.940364568635
 40
0.200000000014552
 50
269.99999699928583
 51
359.99999999916628
  0
LINE
  8
_0-3_躯体と製品
  6
CONTINUOUS
 62
    4
 10
131.49325833500188
 20
592.54036456863787
 11
127.72825833498791
 21
592.54036456863787
  0
ARC
  8
_0-3_躯体と製品
  6
CONTINUOUS
 62
    4
 10
128.27525833495793
 20
588.95236456862267
 40
4.8189999999965529
 50
48.111754999080979
 51
96.517442000063127
  0
LINE
  8
_0-3_躯体と製品
  6
CONTINUOUS
 62
    4
 10
123.96325833500214
 20
592.54036456863787
 11
123.72825833498882
 21
591.3893645686253
  0
ARC
  8
_0-3_躯体と製品
  6
CONTINUOUS
 62
    4
 10
127.18125833500585
 20
588.95236456861687
 40
4.8190000000168984
 50
83.482563001155967
 51
131.88825099942517
  0
LINE
  8
_0-3_躯体と製品
  6
CONTINUOUS
 62
    4
 10
123.96325833500214
 20
592.54036456863787
 11
127.72825833498791
 21
592.54036456863787
  0
LINE
  8
_0-3_躯体と製品
  6
CONTINUOUS
 62
    4
 10
131.49325833500188
 20
592.54036456863787
 11
131.72825833498791
 21
591.3893645686253
  0
LINE
  8
_0-3_躯体と製品
  6
CONTINUOUS
 62
    4
 10
181.32825833499373
 20
591.3893645686253
 11
181.32825833499373
 21
590.94036456863205
  0
LINE
  8
_0-3_躯体と製品
  6
CONTINUOUS
 62
    4
 10
173.32825833499373
 20
591.3893645686253
 11
173.32825833499373
 21
590.94036456863205
  0
LINE
  8
_0-3_躯体と製品
  6
CONTINUOUS
 62
    4
 10
181.128258334983
 20
590.74036456862041
 11
177.32825833499373
 21
590.74036456862041
  0
ARC
  8
_0-3_躯体と製品
  6
CONTINUOUS
 62
    4
 10
173.52825833499674
 20
590.94036456862329
 40
0.200000000002911
 50
180.00000600059479
 51
269.99999700095344
  0
LINE
  8
_0-3_躯体と製品
  6
CONTINUOUS
 62
    4
 10
173.52825833500447
 20
590.74036456862041
 11
177.32825833499373
 21
590.74036456862041
  0
ARC
  8
_0-3_躯体と製品
  6
CONTINUOUS
 62
    4
 10
181.12825833497914
 20
590.940364568635
 40
0.200000000014552
 50
269.99999699928583
 51
359.99999999916628
  0
LINE
  8
_0-3_躯体と製品
  6
CONTINUOUS
 62
    4
 10
181.09325833500679
 20
592.54036456863787
 11
177.32825833499373
 21
592.54036456863787
  0
ARC
  8
_0-3_躯体と製品
  6
CONTINUOUS
 62
    4
 10
177.87525833496329
 20
588.95236456862165
 40
4.818999999997609
 50
48.111754999084987
 51
96.517442000067135
  0
LINE
  8
_0-3_躯体と製品
  6
CONTINUOUS
 62
    4
 10
173.56325833497976
 20
592.54036456863787
 11
173.32825833499373
 21
591.3893645686253
  0
ARC
  8
_0-3_躯体と製品
  6
CONTINUOUS
 62
    4
 10
176.78125833498257
 20
588.95236456861687
 40
4.8190000000168984
 50
83.482563001155967
 51
131.88825099942517
  0
LINE
  8
_0-3_躯体と製品
  6
CONTINUOUS
 62
    4
 10
173.56325833497976
 20
592.54036456863787
 11
177.32825833499373
 21
592.54036456863787
  0
LINE
  8
_0-3_躯体と製品
  6
CONTINUOUS
 62
    4
 10
181.09325833500679
 20
592.54036456863787
 11
181.32825833499373
 21
591.3893645686253
  0
LINE
  8
_0-4_文字-記号
  6
CONTINUOUS
 62
    7
 10
560.29565907138021
 20
517.35889585213113
 11
554.93667518065013
 21
537.35889582781988
  0
LINE
  8
_0-4_文字-記号
  6
CONTINUOUS
 62
    7
 10
554.93667518065013
 20
537.35889582781988
 11
569.57769128991913
 21
522.71787965213116
  0
LINE
  8
_0-4_文字-記号
  6
CONTINUOUS
 62
    7
 10
1154.8494433783926
 20
588.32717003040511
 11
1149.4904594876625
 21
608.32717000609398
  0
LINE
  8
_0-4_文字-記号
  6
CONTINUOUS
 62
    7
 10
1149.4904594876625
 20
608.32717000609398
 11
1164.1314755969324
 21
593.68615383040515
  0
LINE
  8
_0-4_文字-記号
  6
CONTINUOUS
 62
    7
 10
1028.9674582243315
 20
369.46211724582042
 11
1023.6084743336014
 21
389.46211722150906
  0
LINE
  8
_0-4_文字-記号
  6
CONTINUOUS
 62
    7
 10
1023.6084743336014
 20
389.46211722150906
 11
1038.2494904428713
 21
374.82110104582046
  0
LINE
  8
_0-4_文字-記号
  6
CONTINUOUS
 62
    7
 10
2083.2560010950256
 20
1758.3396972599633
 11
2077.8970172042955
 21
1778.339697235652
  0
LINE
  8
_0-4_文字-記号
  6
CONTINUOUS
 62
    7
 10
2077.8970172042955
 20
1778.339697235652
 11
2092.5380333135654
 21
1763.6986810599631
  0
LINE
  8
_0-4_文字-記号
  6
CONTINUOUS
 62
    7
 10
2307.2928544442766
 20
1878.6593007443087
 11
2292.6518383350076
 21
1864.0182845686195
  0
LINE
  8
_0-4_文字-記号
  6
CONTINUOUS
 62
    7
 10
2292.6518383350076
 20
1864.0182845686195
 11
2298.0108222257377
 21
1884.0182845443085
  0
LINE
  8
_0-4_文字-記号
  6
CONTINUOUS
 62
    7
 10
2337.2930044442774
 20
1877.3810907443085
 11
2322.6519883350065
 21
1862.7400745686195
  0
LINE
  8
_0-4_文字-記号
  6
CONTINUOUS
 62
    7
 10
2322.6519883350065
 20
1862.7400745686195
 11
2328.0109722257366
 21
1882.7400745443085
  0
LINE
  8
_0-4_文字-記号
  6
CONTINUOUS
 62
    7
 10
1929.0959434165352
 20
1964.0296007443096
 11
1914.4549273072662
 21
1949.3885845686207
  0
LINE
  8
_0-4_文字-記号
  6
CONTINUOUS
 62
    7
 10
1914.4549273072662
 20
1949.3885845686207
 11
1919.8139111979963
 21
1969.3885845443097
  0
LINE
  8
_0-4_文字-記号
  6
CONTINUOUS
 62
    7
 10
2813.0295667984492
 20
1598.4630339550192
 11
2807.67058290772
 21
1618.463033930708
  0
LINE
  8
_0-4_文字-記号
  6
CONTINUOUS
 62
    7
 10
2807.67058290772
 20
1618.463033930708
 11
2822.3115990169908
 21
1603.8220177550195
  0
LINE
  8
_0-4_文字-記号
  6
CONTINUOUS
 62
    7
 10
2946.7116179138375
 20
1786.5258334932439
 11
2941.3526340231074
 21
1806.5258334689327
  0
LINE
  8
_0-4_文字-記号
  6
CONTINUOUS
 62
    7
 10
2941.3526340231074
 20
1806.5258334689327
 11
2955.9936501323773
 21
1791.8848172932439
  0
LINE
  8
_0-4_文字-記号
  6
CONTINUOUS
 62
    7
 10
849.63977890371825
 20
1880.9651293547206
 11
834.99876279444834
 21
1866.3241131790317
  0
LINE
  8
_0-4_文字-記号
  6
CONTINUOUS
 62
    7
 10
834.99876279444834
 20
1866.3241131790317
 11
840.35774668517843
 21
1886.3241131547206
  0
LINE
  8
_0-4_文字-記号
  6
CONTINUOUS
 62
    7
 10
929.95754116577336
 20
1857.6593007443096
 11
915.31652505650345
 21
1843.0182845686206
  0
LINE
  8
_0-4_文字-記号
  6
CONTINUOUS
 62
    7
 10
915.31652505650345
 20
1843.0182845686206
 11
920.67550894723354
 21
1863.0182845443096
  0
LINE
  8
_0-4_文字-記号
  6
CONTINUOUS
 62
    7
 10
665.08693000217318
 20
1785.9480541640589
 11
659.727946111444
 21
1805.9480541397479
  0
LINE
  8
_0-4_文字-記号
  6
CONTINUOUS
 62
    7
 10
659.727946111444
 20
1805.9480541397479
 11
674.368962220713
 21
1791.307037964059
  0
LINE
  8
_0-4_文字-記号
  6
CONTINUOUS
 62
    7
 10
257.67336835900642
 20
1754.6354338095332
 11
252.31438446827633
 21
1774.6354337852219
  0
LINE
  8
_0-4_文字-記号
  6
CONTINUOUS
 62
    7
 10
252.31438446827633
 20
1774.6354337852219
 11
266.95540057754533
 21
1759.9944176095332
  0
LINE
  8
_0-4_文字-記号
  6
CONTINUOUS
 62
    7
 10
104.66827444427418
 20
1961.9667834633576
 11
90.027258335005172
 21
1947.3257672876687
  0
LINE
  8
_0-4_文字-記号
  6
CONTINUOUS
 62
    7
 10
90.027258335005172
 20
1947.3257672876687
 11
95.386242225735259
 21
1967.3257672633576
  0
LINE
  8
_0-4_文字-記号
  6
CONTINUOUS
 62
    7
 10
993.79653296257766
 20
1616.1427265675322
 11
1008.4375490718467
 21
1630.7837427432212
  0
LINE
  8
_0-4_文字-記号
  6
CONTINUOUS
 62
    7
 10
1008.4375490718467
 20
1630.7837427432212
 11
1003.0785651811166
 21
1610.7837427675324
  0
LINE
  8
_0-4_文字-記号
  6
CONTINUOUS
 62
    7
 10
1008.4375490718467
 20
1630.78374274322
 11
947.96713512085171
 21
1526.0459134253738
  0
LINE
  8
_0-4_文字-記号
  6
CONTINUOUS
 62
    7
 10
947.96713512085171
 20
1526.0459134253738
 11
661.73398017601176
 21
1526.0459134253738
  0
LINE
  8
_0-4_文字-記号
  6
CONTINUOUS
 62
    7
 10
1023.6084743335996
 20
389.46211722151156
 11
1084.0788882845973
 21
284.72428790366166
  0
LINE
  8
_0-4_文字-記号
  6
CONTINUOUS
 62
    7
 10
1084.0788882845973
 20
284.72428790366166
 11
1345.2915498612874
 21
284.72428790366166
  0
LINE
  8
_0-4_文字-記号
  6
CONTINUOUS
 62
    7
 10
1345.2915498612874
 20
284.72428790366166
 11
1345.3815498612876
 21
284.72428790366166
  0
LINE
  8
_0-4_文字-記号
  6
CONTINUOUS
 62
    7
 10
1149.4904594876625
 20
608.32717000609728
 11
1228.362972219923
 21
471.71597063319427
  0
LINE
  8
_0-4_文字-記号
  6
CONTINUOUS
 62
    7
 10
1228.362972219923
 20
471.71597063319427
 11
1369.5407864493882
 21
471.71597063319427
  0
LINE
  8
_0-4_文字-記号
  6
CONTINUOUS
 62
    7
 10
1369.5407864493882
 20
471.71597063319427
 11
1369.6307864493883
 21
471.71597063319427
  0
LINE
  8
_0-4_文字-記号
  6
CONTINUOUS
 62
    7
 10
554.93667518064831
 20
537.35889582782272
 11
614.9377553205104
 21
433.43397651656926
  0
LINE
  8
_0-4_文字-記号
  6
CONTINUOUS
 62
    7
 10
614.9377553205104
 20
433.43397651656926
 11
774.42644340215884
 21
433.43397651656926
  0
LINE
  8
_0-4_文字-記号
  6
CONTINUOUS
 62
    7
 10
774.42644340215884
 20
433.43397651656926
 11
774.51644340215989
 21
433.43397651656926
  0
LINE
  8
_0-4_文字-記号
  6
CONTINUOUS
 62
    7
 10
2807.6705829077182
 20
1618.4630339307093
 11
2868.1409968587177
 21
1513.7252046128604
  0
LINE
  8
_0-4_文字-記号
  6
CONTINUOUS
 62
    7
 10
2868.1409968587177
 20
1513.7252046128604
 11
3129.3536584354069
 21
1513.7252046128604
  0
LINE
  8
_0-4_文字-記号
  6
CONTINUOUS
 62
    7
 10
3129.3536584354069
 20
1513.7252046128604
 11
3129.4436584354062
 21
1513.7252046128604
  0
LINE
  8
_0-4_文字-記号
  6
CONTINUOUS
 62
    7
 10
2941.3526340231074
 20
1806.5258334689395
 11
3020.2251467553697
 21
1669.9146340960331
  0
LINE
  8
_0-4_文字-記号
  6
CONTINUOUS
 62
    7
 10
3020.2251467553697
 20
1669.9146340960331
 11
3161.4029609848349
 21
1669.9146340960331
  0
LINE
  8
_0-4_文字-記号
  6
CONTINUOUS
 62
    7
 10
3161.4029609848349
 20
1669.9146340960331
 11
3161.492960984835
 21
1669.9146340960331
  0
LINE
  8
_0-4_文字-記号
  6
CONTINUOUS
 62
    7
 10
2077.8970172042918
 20
1778.3396972356543
 11
2137.8980973441567
 21
1674.4147779244017
  0
LINE
  8
_0-4_文字-記号
  6
CONTINUOUS
 62
    7
 10
2137.8980973441567
 20
1674.4147779244017
 11
2297.3867854258042
 21
1674.4147779244017
  0
LINE
  8
_0-4_文字-記号
  6
CONTINUOUS
 62
    7
 10
2297.3867854258042
 20
1674.4147779244017
 11
2297.4767854258043
 21
1674.4147779244017
  0
LINE
  8
_0-4_文字-記号
  6
CONTINUOUS
 62
    7
 10
2292.6518383350085
 20
1864.0182845686177
 11
2398.2961369724399
 21
2046.9995773386356
  0
LINE
  8
_0-4_文字-記号
  6
CONTINUOUS
 62
    7
 10
2398.2961369724399
 20
2046.9995773386356
 11
3001.9504370669129
 21
2046.9995773386356
  0
LINE
  8
_0-4_文字-記号
  6
CONTINUOUS
 62
    7
 10
2322.6519883350047
 20
1862.7400745686195
 11
2376.6584587689549
 21
1956.2820252976896
  0
LINE
  8
_0-4_文字-記号
  6
CONTINUOUS
 62
    7
 10
2376.6584587689549
 20
1956.2820252976896
 11
2628.1610735615795
 21
1956.2820252976896
  0
LINE
  8
_0-4_文字-記号
  6
CONTINUOUS
 62
    7
 10
1914.4549273072626
 20
1949.3885845686175
 11
1957.9167247464557
 21
2024.6666259215626
  0
LINE
  8
_0-4_文字-記号
  6
CONTINUOUS
 62
    7
 10
1957.9167247464557
 20
2024.6666259215626
 11
2078.8394574068643
 21
2024.6666259215626
  0
LINE
  8
_0-4_文字-記号
  6
CONTINUOUS
 62
    7
 10
834.99876279444652
 20
1866.3241131790285
 11
930.41127863524071
 21
2031.5834382932526
  0
LINE
  8
_0-4_文字-記号
  6
CONTINUOUS
 62
    7
 10
930.41127863524071
 20
2031.5834382932526
 11
1199.0028168524495
 21
2031.5834382932526
  0
LINE
  8
_0-4_文字-記号
  6
CONTINUOUS
 62
    7
 10
915.31652505650163
 20
1843.0182845686206
 11
987.07024338417978
 21
1967.2993703441375
  0
LINE
  8
_0-4_文字-記号
  6
CONTINUOUS
 62
    7
 10
987.07024338417978
 20
1967.2993703441375
 11
1182.9139027162873
 21
1967.2993703441375
  0
LINE
  8
_0-4_文字-記号
  6
CONTINUOUS
 62
    7
 10
90.027258335002443
 20
1947.3257672876666
 11
159.62739791725198
 21
2067.8767452580037
  0
LINE
  8
_0-4_文字-記号
  6
CONTINUOUS
 62
    7
 10
159.62739791725198
 20
2067.8767452580037
 11
280.55013057766064
 21
2067.8767452580037
  0
LINE
  8
_0-4_文字-記号
  6
CONTINUOUS
 62
    7
 10
659.72794611144491
 20
1805.9480541397479
 11
738.60045884370447
 21
1669.3368547668483
  0
LINE
  8
_0-4_文字-記号
  6
CONTINUOUS
 62
    7
 10
738.60045884370447
 20
1669.3368547668483
 11
879.77827307317057
 21
1669.3368547668483
  0
LINE
  8
_0-4_文字-記号
  6
CONTINUOUS
 62
    7
 10
879.77827307317057
 20
1669.3368547668483
 11
879.86827307317071
 21
1669.3368547668483
  0
LINE
  8
_0-4_文字-記号
  6
CONTINUOUS
 62
    7
 10
252.31438446827633
 20
1774.6354337852185
 11
312.31546460813661
 21
1670.7105144739714
  0
LINE
  8
_0-4_文字-記号
  6
CONTINUOUS
 62
    7
 10
312.31546460813661
 20
1670.7105144739714
 11
471.80415268978413
 21
1670.7105144739714
  0
LINE
  8
_0-4_文字-記号
  6
CONTINUOUS
 62
    7
 10
471.80415268978413
 20
1670.7105144739714
 11
471.89415268978428
 21
1670.7105144739714
  0
LINE
  8
_0-3_躯体と製品
  6
CONTINUOUS
 62
    3
 10
825.76899508692986
 20
638.54032456862092
 11
825.76899508692986
 21
633.54036456862116
  0
ARC
  8
_0-3_躯体と製品
  6
CONTINUOUS
 62
    3
 10
824.76895708692916
 20
638.54032456862149
 40
1.0000399999995579
 50
359.99999999996743
 51
89.999999999967443
  0
LINE
  8
_0-3_躯体と製品
  6
CONTINUOUS
 62
    3
 10
824.76895708692973
 20
639.54036456862116
 11
816.76864108693098
 21
639.54036456862116
  0
LINE
  8
_0-3_躯体と製品
  6
CONTINUOUS
 62
    3
 10
825.76899508692986
 20
646.54040256862106
 11
825.76899508692986
 21
651.54036456862093
  0
ARC
  8
_0-3_躯体と製品
  6
CONTINUOUS
 62
    3
 10
824.76895708692928
 20
646.54040256862049
 40
1.0000399999995011
 50
270.00000000002933
 51
0.0000000000293247
  0
LINE
  8
_0-3_躯体と製品
  6
CONTINUOUS
 62
    3
 10
824.76895708692973
 20
645.54036456862093
 11
816.76864108693098
 21
645.54036456862093
  0
ARC
  8
_0-3_躯体と製品
  6
CONTINUOUS
 62
    3
 10
816.76864108693053
 20
644.54032456862069
 40
1.0000400000004104
 50
89.999999999977206
 51
179.99999999997721
  0
LINE
  8
_0-3_躯体と製品
  6
CONTINUOUS
 62
    3
 10
815.76860308693085
 20
644.54032456862103
 11
815.76860308693085
 21
640.54040456862106
  0
ARC
  8
_0-3_躯体と製品
  6
CONTINUOUS
 62
    3
 10
816.76864108693053
 20
640.5404045686214
 40
1.0000400000004104
 50
180.00000000002279
 51
270.00000000002279
  0
LINE
  8
_0-3_躯体と製品
  6
CONTINUOUS
 62
    3
 10
3109.3591230140473
 20
1854.0182445686205
 11
3109.3591230140473
 21
1849.0182845686215
  0
ARC
  8
_0-3_躯体と製品
  6
CONTINUOUS
 62
    3
 10
3108.3590850140477
 20
1854.01824456862
 40
1.0000400000004672
 50
0.0000000000195445
 51
90.000000000019554
  0
LINE
  8
_0-3_躯体と製品
  6
CONTINUOUS
 62
    3
 10
3108.3590850140472
 20
1855.0182845686215
 11
3100.3587690140475
 21
1855.0182845686215
  0
LINE
  8
_0-3_躯体と製品
  6
CONTINUOUS
 62
    3
 10
3109.3591230140473
 20
1862.0183225686205
 11
3109.3591230140473
 21
1867.0182845686206
  0
ARC
  8
_0-3_躯体と製品
  6
CONTINUOUS
 62
    3
 10
3108.3590850140481
 20
1862.0183225686214
 40
1.0000399999998988
 50
269.99999999994793
 51
359.99999999994793
  0
LINE
  8
_0-3_躯体と製品
  6
CONTINUOUS
 62
    3
 10
3108.3590850140472
 20
1861.0182845686206
 11
3100.3587690140475
 21
1861.0182845686206
  0
ARC
  8
_0-3_躯体と製品
  6
CONTINUOUS
 62
    3
 10
3100.358769014048
 20
1860.018244568621
 40
1.0000399999995579
 50
90.000000000032571
 51
180.00000000003257
  0
LINE
  8
_0-3_躯体と製品
  6
CONTINUOUS
 62
    3
 10
3099.3587310140483
 20
1860.0182445686205
 11
3099.3587310140483
 21
1856.0183245686217
  0
ARC
  8
_0-3_躯体と製品
  6
CONTINUOUS
 62
    3
 10
3100.358769014048
 20
1856.0183245686212
 40
1.0000399999995579
 50
179.99999999996743
 51
269.99999999996743
  0
LINE
  8
_0-3_躯体と製品
  6
CONTINUOUS
 62
    3
 10
2809.3591230140473
 20
1854.0182445686205
 11
2809.3591230140473
 21
1849.0182845686215
  0
ARC
  8
_0-3_躯体と製品
  6
CONTINUOUS
 62
    3
 10
2808.3590850140481
 20
1854.0182445686196
 40
1.0000400000009222
 50
0.0000000000456013
 51
90.000000000045603
  0
LINE
  8
_0-3_躯体と製品
  6
CONTINUOUS
 62
    3
 10
2808.3590850140472
 20
1855.0182845686215
 11
2800.3587690140475
 21
1855.0182845686215
  0
LINE
  8
_0-3_躯体と製品
  6
CONTINUOUS
 62
    3
 10
2809.3591230140473
 20
1862.0183225686205
 11
2809.3591230140473
 21
1867.0182845686206
  0
ARC
  8
_0-3_躯体と製品
  6
CONTINUOUS
 62
    3
 10
2808.3590850140486
 20
1862.0183225686219
 40
1.0000400000003535
 50
269.99999999992184
 51
359.99999999992184
  0
LINE
  8
_0-3_躯体と製品
  6
CONTINUOUS
 62
    3
 10
2808.3590850140472
 20
1861.0182845686206
 11
2800.3587690140475
 21
1861.0182845686206
  0
ARC
  8
_0-3_躯体と製品
  6
CONTINUOUS
 62
    3
 10
2800.358769014048
 20
1860.018244568621
 40
1.0000399999995579
 50
90.000000000032571
 51
180.00000000003257
  0
LINE
  8
_0-3_躯体と製品
  6
CONTINUOUS
 62
    3
 10
2799.3587310140483
 20
1860.0182445686205
 11
2799.3587310140483
 21
1856.0183245686217
  0
ARC
  8
_0-3_躯体と製品
  6
CONTINUOUS
 62
    3
 10
2800.358769014048
 20
1856.0183245686212
 40
1.0000399999995579
 50
179.99999999996743
 51
269.99999999996743
  0
LINE
  8
_0-3_躯体と製品
  6
CONTINUOUS
 62
    3
 10
2509.3591230140473
 20
1854.0182445686216
 11
2509.3591230140473
 21
1849.0182845686215
  0
ARC
  8
_0-3_躯体と製品
  6
CONTINUOUS
 62
    3
 10
2508.3590850140486
 20
1854.0182445686221
 40
1.0000399999994443
 50
359.99999999997397
 51
89.999999999973952
  0
LINE
  8
_0-3_躯体と製品
  6
CONTINUOUS
 62
    3
 10
2508.359085014049
 20
1855.0182845686215
 11
2500.3587690140475
 21
1855.0182845686215
  0
LINE
  8
_0-3_躯体と製品
  6
CONTINUOUS
 62
    3
 10
2509.3591230140473
 20
1862.0183225686217
 11
2509.3591230140473
 21
1867.0182845686215
  0
ARC
  8
_0-3_躯体と製品
  6
CONTINUOUS
 62
    3
 10
2508.3590850140486
 20
1862.018322568621
 40
1.0000399999995579
 50
270.00000000003257
 51
0.0000000000325816
  0
LINE
  8
_0-3_躯体と製品
  6
CONTINUOUS
 62
    3
 10
2508.359085014049
 20
1861.0182845686215
 11
2500.3587690140475
 21
1861.0182845686215
  0
ARC
  8
_0-3_躯体と製品
  6
CONTINUOUS
 62
    3
 10
2500.358769014048
 20
1860.0182445686221
 40
1.0000399999994443
 50
90.000000000026048
 51
180.00000000002606
  0
LINE
  8
_0-3_躯体と製品
  6
CONTINUOUS
 62
    3
 10
2499.3587310140483
 20
1860.0182445686216
 11
2499.3587310140483
 21
1856.0183245686217
  0
ARC
  8
_0-3_躯体と製品
  6
CONTINUOUS
 62
    3
 10
2500.358769014048
 20
1856.0183245686212
 40
1.0000399999995579
 50
179.99999999996743
 51
269.99999999996743
  0
LINE
  8
_0-3_躯体と製品
  6
CONTINUOUS
 62
    3
 10
638.90640008692753
 20
1854.0182445686205
 11
638.90640008692753
 21
1849.0182845686215
  0
ARC
  8
_0-3_躯体と製品
  6
CONTINUOUS
 62
    3
 10
637.9063620869274
 20
1854.0182445686205
 40
1.0000400000000127
 50
359.99999999999352
 51
89.999999999993506
  0
LINE
  8
_0-3_躯体と製品
  6
CONTINUOUS
 62
    3
 10
637.9063620869274
 20
1855.0182845686215
 11
629.90604608692774
 21
1855.0182845686215
  0
LINE
  8
_0-3_躯体と製品
  6
CONTINUOUS
 62
    3
 10
638.90640008692753
 20
1862.0183225686205
 11
638.90640008692753
 21
1867.0182845686206
  0
ARC
  8
_0-3_躯体と製品
  6
CONTINUOUS
 62
    3
 10
637.90636208692786
 20
1862.018322568621
 40
1.0000399999994443
 50
269.99999999997397
 51
359.99999999997397
  0
LINE
  8
_0-3_躯体と製品
  6
CONTINUOUS
 62
    3
 10
637.9063620869274
 20
1861.0182845686206
 11
629.90604608692774
 21
1861.0182845686206
  0
ARC
  8
_0-3_躯体と製品
  6
CONTINUOUS
 62
    3
 10
629.90604608692774
 20
1860.0182445686205
 40
1.0000400000000127
 50
90.000000000006509
 51
180.00000000000651
  0
LINE
  8
_0-3_躯体と製品
  6
CONTINUOUS
 62
    3
 10
628.90600808692761
 20
1860.0182445686205
 11
628.90600808692761
 21
1856.0183245686217
  0
ARC
  8
_0-3_躯体と製品
  6
CONTINUOUS
 62
    3
 10
629.90604608692774
 20
1856.0183245686217
 40
1.0000400000000127
 50
179.99999999999349
 51
269.99999999999346
  0
LINE
  8
_0-3_躯体と製品
  6
CONTINUOUS
 62
    3
 10
1238.9064000869275
 20
1854.0182445686205
 11
1238.9064000869275
 21
1849.0182845686215
  0
ARC
  8
_0-3_躯体と製品
  6
CONTINUOUS
 62
    3
 10
1237.9063620869269
 20
1854.018244568621
 40
1.0000399999995579
 50
359.99999999996743
 51
89.999999999967443
  0
LINE
  8
_0-3_躯体と製品
  6
CONTINUOUS
 62
    3
 10
1237.9063620869274
 20
1855.0182845686215
 11
1229.9060460869287
 21
1855.0182845686215
  0
LINE
  8
_0-3_躯体と製品
  6
CONTINUOUS
 62
    3
 10
1238.9064000869275
 20
1862.0183225686205
 11
1238.9064000869275
 21
1867.0182845686206
  0
ARC
  8
_0-3_躯体と製品
  6
CONTINUOUS
 62
    3
 10
1237.9063620869274
 20
1862.0183225686205
 40
1.0000399999989893
 50
270
 51
0.0000000000000127
  0
LINE
  8
_0-3_躯体と製品
  6
CONTINUOUS
 62
    3
 10
1237.9063620869274
 20
1861.0182845686206
 11
1229.9060460869287
 21
1861.0182845686206
  0
ARC
  8
_0-3_躯体と製品
  6
CONTINUOUS
 62
    3
 10
1229.9060460869282
 20
1860.01824456862
 40
1.0000400000004672
 50
89.99999999998046
 51
179.99999999998045
  0
LINE
  8
_0-3_躯体と製品
  6
CONTINUOUS
 62
    3
 10
1228.9060080869276
 20
1860.0182445686205
 11
1228.9060080869276
 21
1856.0183245686217
  0
ARC
  8
_0-3_躯体と製品
  6
CONTINUOUS
 62
    3
 10
1229.9060460869282
 20
1856.0183245686221
 40
1.0000400000004672
 50
180.00000000001955
 51
270.00000000001955
  0
LINE
  8
_0-3_躯体と製品
  6
CONTINUOUS
 62
    3
 10
359.52725833500517
 20
1854.0182445686175
 11
359.52725833500517
 21
1849.0182845686186
  0
ARC
  8
_0-3_躯体と製品
  6
CONTINUOUS
 62
    3
 10
358.5272203350055
 20
1854.0182445686182
 40
1.0000399999995579
 50
359.99999999996743
 51
89.999999999967443
  0
LINE
  8
_0-3_躯体と製品
  6
CONTINUOUS
 62
    3
 10
358.52722033500595
 20
1855.0182845686177
 11
350.52690433500447
 21
1855.0182845686177
  0
LINE
  8
_0-3_躯体と製品
  6
CONTINUOUS
 62
    3
 10
359.52725833500517
 20
1862.0183225686176
 11
359.52725833500517
 21
1867.0182845686177
  0
ARC
  8
_0-3_躯体と製品
  6
CONTINUOUS
 62
    3
 10
358.5272203350055
 20
1862.0183225686171
 40
1.0000399999994443
 50
270.00000000002603
 51
0.0000000000260678
  0
LINE
  8
_0-3_躯体と製品
  6
CONTINUOUS
 62
    3
 10
358.52722033500595
 20
1861.0182845686177
 11
350.52690433500447
 21
1861.0182845686177
  0
ARC
  8
_0-3_躯体と製品
  6
CONTINUOUS
 62
    3
 10
350.52690433500447
 20
1860.0182445686178
 40
1.0000400000000127
 50
90.000000000006509
 51
180.00000000000651
  0
LINE
  8
_0-3_躯体と製品
  6
CONTINUOUS
 62
    3
 10
349.52686633500434
 20
1860.0182445686175
 11
349.52686633500434
 21
1856.0183245686176
  0
ARC
  8
_0-3_躯体と製品
  6
CONTINUOUS
 62
    3
 10
350.52690433500447
 20
1856.0183245686176
 40
1.000039999999899
 50
180
 51
270
  0
LINE
  8
_0-3_躯体と製品
  6
CONTINUOUS
 62
    3
 10
938.90640008692753
 20
1854.0182445686205
 11
938.90640008692753
 21
1849.0182845686215
  0
ARC
  8
_0-3_躯体と製品
  6
CONTINUOUS
 62
    3
 10
937.90636208692729
 20
1854.0182445686205
 40
1.0000400000000127
 50
359.99999999999352
 51
89.999999999993506
  0
LINE
  8
_0-3_躯体と製品
  6
CONTINUOUS
 62
    3
 10
937.9063620869274
 20
1855.0182845686215
 11
929.90604608692774
 21
1855.0182845686215
  0
LINE
  8
_0-3_躯体と製品
  6
CONTINUOUS
 62
    3
 10
938.90640008692753
 20
1862.0183225686205
 11
938.90640008692753
 21
1867.0182845686206
  0
ARC
  8
_0-3_躯体と製品
  6
CONTINUOUS
 62
    3
 10
937.90636208692786
 20
1862.018322568621
 40
1.0000399999994443
 50
269.99999999997397
 51
359.99999999997397
  0
LINE
  8
_0-3_躯体と製品
  6
CONTINUOUS
 62
    3
 10
937.9063620869274
 20
1861.0182845686206
 11
929.90604608692774
 21
1861.0182845686206
  0
ARC
  8
_0-3_躯体と製品
  6
CONTINUOUS
 62
    3
 10
929.90604608692786
 20
1860.0182445686205
 40
1.0000400000000127
 50
90.000000000006509
 51
180.00000000000651
  0
LINE
  8
_0-3_躯体と製品
  6
CONTINUOUS
 62
    3
 10
928.90600808692761
 20
1860.0182445686205
 11
928.90600808692761
 21
1856.0183245686217
  0
ARC
  8
_0-3_躯体と製品
  6
CONTINUOUS
 62
    3
 10
929.90604608692786
 20
1856.0183245686217
 40
1.0000400000000127
 50
179.99999999999349
 51
269.99999999999346
  0
LINE
  8
_0-3_躯体と製品
  6
CONTINUOUS
 62
    6
 10
84.014769331431125
 20
638.54036456862048
 11
89.527258335004262
 21
644.05284258564689
  0
LINE
  8
_0-3_躯体と製品
  6
CONTINUOUS
 62
    3
 10
77.527258335005172
 20
751.54036456862013
 11
89.527258335004262
 21
751.54036456862059
  0
LINE
  8
_0-3_躯体と製品
  6
CONTINUOUS
 62
    3
 10
65.027258335005172
 20
743.54036456862036
 11
77.527258335005172
 21
743.54036456862036
  0
LINE
  8
_0-3_躯体と製品
  6
CONTINUOUS
 62
    3
 10
65.027258335005172
 20
1033.2296945686196
 11
65.027258335005172
 21
743.54036456862036
  0
LINE
  8
_0-3_躯体と製品
  6
CONTINUOUS
 62
    3
 10
65.027258335005172
 20
741.54036456862036
 11
77.527258335005172
 21
741.54036456862036
  0
LINE
  8
_0-3_躯体と製品
  6
CONTINUOUS
 62
    6
 10
65.027258335005172
 20
721.4106645686204
 11
89.527258335004262
 21
745.91066456862018
  0
LINE
  8
_0-3_躯体と製品
  6
CONTINUOUS
 62
    6
 10
65.027258335005172
 20
738.38122456862015
 11
68.186398335005833
 21
741.54036456862013
  0
LINE
  8
_0-3_躯体と製品
  6
CONTINUOUS
 62
    6
 10
65.027258335005172
 20
687.46953456861979
 11
89.527258335004262
 21
711.96953456861957
  0
LINE
  8
_0-3_躯体と製品
  6
CONTINUOUS
 62
    6
 10
65.027258335005172
 20
670.49897456862016
 11
89.527258335004262
 21
694.99897456861993
  0
LINE
  8
_0-3_躯体と製品
  6
CONTINUOUS
 62
    6
 10
65.027258335005172
 20
704.44009456861966
 11
89.527258335004262
 21
728.94009456861954
  0
LINE
  8
_0-3_躯体と製品
  6
CONTINUOUS
 62
    3
 10
65.027258335005172
 20
638.54036456862048
 11
89.527258335004262
 21
638.54036456862048
  0
LINE
  8
_0-3_躯体と製品
  6
CONTINUOUS
 62
    6
 10
67.009732460422128
 20
638.54036456862025
 11
89.527258335004262
 21
661.05784556513458
  0
LINE
  8
_0-3_躯体と製品
  6
CONTINUOUS
 62
    6
 10
65.027258335005172
 20
653.52841593843266
 11
89.527258335004262
 21
678.02840479601628
  0
LINE
  8
_0-3_躯体と製品
  6
CONTINUOUS
 62
    3
 10
77.527258335005172
 20
1033.2296945686196
 11
77.527258335005172
 21
741.54036456862036
  0
LINE
  8
_0-3_躯体と製品
  6
CONTINUOUS
 62
    3
 10
65.027258335005172
 20
743.54036456862036
 11
65.027258335005172
 21
638.54036456862025
  0
LINE
  8
_0-3_躯体と製品
  6
CONTINUOUS
 62
    3
 10
89.527258335004262
 20
638.54036456862048
 11
89.527258335004262
 21
751.54036456862059
  0
LINE
  8
_0-3_躯体と製品
  6
CONTINUOUS
 62
    4
 10
89.527258334637736
 20
633.54036456863059
 11
89.527258335004262
 21
651.54036456861752
  0
LINE
  8
_0-3_躯体と製品
  6
CONTINUOUS
 62
    4
 10
109.52725833500517
 20
651.54036456861752
 11
109.52725833500699
 21
633.54036456861775
  0
LINE
  8
_0-3_躯体と製品
  6
CONTINUOUS
 62
    4
 10
109.52725833500699
 20
633.54036456861775
 11
89.527258335004262
 21
633.54036456861775
  0
LINE
  8
_0-3_躯体と製品
  6
CONTINUOUS
 62
    6
 10
89.527258335004262
 20
634.33322456861697
 11
106.73439833500561
 21
651.54036456861752
  0
LINE
  8
_0-3_躯体と製品
  6
CONTINUOUS
 62
    6
 10
95.805468335006481
 20
633.54036456861775
 11
109.52725833500517
 21
647.2621545686161
  0
LINE
  8
_0-3_躯体と製品
  6
CONTINUOUS
 62
    6
 10
102.87652964207246
 20
633.54036456861797
 11
109.52725833500517
 21
640.19108456861659
  0
LINE
  8
_0-3_躯体と製品
  6
CONTINUOUS
 62
    6
 10
89.527258335004262
 20
641.40429456861739
 11
99.663328335006554
 21
651.54036456861752
  0
LINE
  8
_0-3_躯体と製品
  6
CONTINUOUS
 62
    6
 10
89.527258335004262
 20
648.47535456861726
 11
92.592258335005681
 21
651.54036456861752
  0
LINE
  8
_0-3_躯体と製品
  6
CONTINUOUS
 62
    3
 10
40.027258335004262
 20
801.540364568619
 11
65.027258335005172
 21
801.540364568619
  0
LINE
  8
_0-3_躯体と製品
  6
CONTINUOUS
 62
    3
 10
65.027258335005172
 20
1033.2296945686196
 11
65.027258335005172
 21
774.29193456861935
  0
LINE
  8
_0-3_躯体と製品
  6
CONTINUOUS
 62
    3
 10
40.027258335004262
 20
748.37262456862004
 11
65.027258335005172
 21
748.37262456862004
  0
LINE
  8
_0-3_躯体と製品
  6
CONTINUOUS
 62
    3
 10
40.027258335004262
 20
728.37262456862004
 11
65.027258335005172
 21
728.37262456862004
  0
LINE
  8
_0-3_躯体と製品
  6
CONTINUOUS
 62
    3
 10
40.027258335004262
 20
675.02931456861995
 11
65.027258335005172
 21
675.02931456861995
  0
LINE
  8
_0-3_躯体と製品
  6
CONTINUOUS
 62
    3
 10
40.027258335004262
 20
728.37262456862004
 11
65.027258335005172
 21
675.02931456861995
  0
LINE
  8
_0-3_躯体と製品
  6
CONTINUOUS
 62
    3
 10
65.027258335005172
 20
748.37262456862004
 11
40.027258335004262
 21
801.540364568619
  0
LINE
  8
_0-3_躯体と製品
  6
CONTINUOUS
 62
    6
 10
84.014769331431125
 20
1854.0182845686206
 11
89.527258335004262
 21
1859.5307625856465
  0
LINE
  8
_0-3_躯体と製品
  6
CONTINUOUS
 62
    3
 10
77.527258335005172
 20
1967.0182845686206
 11
89.527258335004262
 21
1967.0182845686206
  0
LINE
  8
_0-3_躯体と製品
  6
CONTINUOUS
 62
    3
 10
65.027258335005172
 20
1959.0182845686206
 11
77.527258335005172
 21
1959.0182845686206
  0
LINE
  8
_0-3_躯体と製品
  6
CONTINUOUS
 62
    3
 10
65.027258335005172
 20
2248.7076145686196
 11
65.027258335005172
 21
1959.0182845686206
  0
LINE
  8
_0-3_躯体と製品
  6
CONTINUOUS
 62
    3
 10
65.027258335005172
 20
1957.0182845686206
 11
77.527258335005172
 21
1957.0182845686206
  0
LINE
  8
_0-3_躯体と製品
  6
CONTINUOUS
 62
    6
 10
65.027258335005172
 20
1936.8885845686207
 11
89.527258335004262
 21
1961.3885845686195
  0
LINE
  8
_0-3_躯体と製品
  6
CONTINUOUS
 62
    6
 10
65.027258335005172
 20
1953.8591445686206
 11
68.186398335005833
 21
1957.0182845686206
  0
LINE
  8
_0-3_躯体と製品
  6
CONTINUOUS
 62
    6
 10
65.027258335005172
 20
1902.9474545686196
 11
89.527258335004262
 21
1927.4474545686196
  0
LINE
  8
_0-3_躯体と製品
  6
CONTINUOUS
 62
    6
 10
65.027258335005172
 20
1885.9768945686205
 11
89.527258335004262
 21
1910.4768945686205
  0
LINE
  8
_0-3_躯体と製品
  6
CONTINUOUS
 62
    6
 10
65.027258335005172
 20
1919.9180145686196
 11
89.527258335004262
 21
1944.4180145686196
  0
LINE
  8
_0-3_躯体と製品
  6
CONTINUOUS
 62
    3
 10
65.027258335005172
 20
1854.0182845686206
 11
89.527258335004262
 21
1854.0182845686206
  0
LINE
  8
_0-3_躯体と製品
  6
CONTINUOUS
 62
    6
 10
67.009732460422128
 20
1854.0182845686206
 11
89.527258335005172
 21
1876.5357655651346
  0
LINE
  8
_0-3_躯体と製品
  6
CONTINUOUS
 62
    6
 10
65.027258335005172
 20
1869.0063359384326
 11
89.527258335004262
 21
1893.5063247960165
  0
LINE
  8
_0-3_躯体と製品
  6
CONTINUOUS
 62
    3
 10
77.527258335005172
 20
2248.7076145686196
 11
77.527258335005172
 21
1957.0182845686206
  0
LINE
  8
_0-3_躯体と製品
  6
CONTINUOUS
 62
    3
 10
65.027258335005172
 20
1959.0182845686206
 11
65.027258335005172
 21
1854.0182845686206
  0
LINE
  8
_0-3_躯体と製品
  6
CONTINUOUS
 62
    3
 10
89.527258335004262
 20
1854.0182845686206
 11
89.527258335004262
 21
1967.0182845686206
  0
LINE
  8
_0-3_躯体と製品
  6
CONTINUOUS
 62
    4
 10
89.527258334637736
 20
1849.0182845686306
 11
89.527258335004262
 21
1867.0182845686177
  0
LINE
  8
_0-3_躯体と製品
  6
CONTINUOUS
 62
    4
 10
109.52725833500517
 20
1867.0182845686177
 11
109.52725833500699
 21
1849.0182845686177
  0
LINE
  8
_0-3_躯体と製品
  6
CONTINUOUS
 62
    4
 10
109.52725833500699
 20
1849.0182845686177
 11
89.527258335004262
 21
1849.0182845686177
  0
LINE
  8
_0-3_躯体と製品
  6
CONTINUOUS
 62
    6
 10
89.527258335004262
 20
1849.8111445686177
 11
106.73439833500561
 21
1867.0182845686177
  0
LINE
  8
_0-3_躯体と製品
  6
CONTINUOUS
 62
    6
 10
95.80546833500739
 20
1849.0182845686177
 11
109.52725833500517
 21
1862.7400745686166
  0
LINE
  8
_0-3_躯体と製品
  6
CONTINUOUS
 62
    6
 10
102.87652964207246
 20
1849.0182845686177
 11
109.52725833500517
 21
1855.6690045686166
  0
LINE
  8
_0-3_躯体と製品
  6
CONTINUOUS
 62
    6
 10
89.527258335004262
 20
1856.8822145686177
 11
99.663328335006554
 21
1867.0182845686177
  0
LINE
  8
_0-3_躯体と製品
  6
CONTINUOUS
 62
    6
 10
89.527258335004262
 20
1863.9532745686176
 11
92.592258335006591
 21
1867.0182845686177
  0
LINE
  8
_0-3_躯体と製品
  6
CONTINUOUS
 62
    3
 10
40.027258335004262
 20
2017.0182845686186
 11
65.027258335005172
 21
2017.0182845686186
  0
LINE
  8
_0-3_躯体と製品
  6
CONTINUOUS
 62
    3
 10
65.027258335005172
 20
2248.7076145686196
 11
65.027258335005172
 21
1989.7698545686196
  0
LINE
  8
_0-3_躯体と製品
  6
CONTINUOUS
 62
    3
 10
40.027258335004262
 20
1963.8505445686205
 11
65.027258335005172
 21
1963.8505445686205
  0
LINE
  8
_0-3_躯体と製品
  6
CONTINUOUS
 62
    3
 10
40.027258335004262
 20
1943.8505445686196
 11
65.027258335005172
 21
1943.8505445686196
  0
LINE
  8
_0-3_躯体と製品
  6
CONTINUOUS
 62
    3
 10
40.027258335004262
 20
1890.5072345686197
 11
65.027258335005172
 21
1890.5072345686197
  0
LINE
  8
_0-3_躯体と製品
  6
CONTINUOUS
 62
    3
 10
40.027258335004262
 20
1943.8505445686196
 11
65.027258335005172
 21
1890.5072345686197
  0
LINE
  8
_0-3_躯体と製品
  6
CONTINUOUS
 62
    4
 10
65.027258335005172
 20
1805.0182845686206
 11
65.027258335005172
 21
1849.0182845686206
  0
LINE
  8
_0-3_躯体と製品
  6
CONTINUOUS
 62
    3
 10
65.027258335005172
 20
1963.8505445686205
 11
40.027258335004262
 21
2017.0182845686186
  0
LINE
  8
_0-3_躯体と製品
  6
CONTINUOUS
 62
    6
 10
1909.1394993314316
 20
1854.0182845686206
 11
1914.6519883350056
 21
1859.5307625856465
  0
LINE
  8
_0-3_躯体と製品
  6
CONTINUOUS
 62
    3
 10
1902.6519883350056
 20
1967.0182845686206
 11
1914.6519883350056
 21
1967.0182845686206
  0
LINE
  8
_0-3_躯体と製品
  6
CONTINUOUS
 62
    3
 10
1890.1519883350056
 20
1959.0182845686206
 11
1902.6519883350056
 21
1959.0182845686206
  0
LINE
  8
_0-3_躯体と製品
  6
CONTINUOUS
 62
    3
 10
1890.1519883350056
 20
2248.7076145686196
 11
1890.1519883350056
 21
1959.0182845686206
  0
LINE
  8
_0-3_躯体と製品
  6
CONTINUOUS
 62
    3
 10
1890.1519883350056
 20
1957.0182845686206
 11
1902.6519883350056
 21
1957.0182845686206
  0
LINE
  8
_0-3_躯体と製品
  6
CONTINUOUS
 62
    6
 10
1890.1519883350056
 20
1936.8885845686207
 11
1914.6519883350056
 21
1961.3885845686195
  0
LINE
  8
_0-3_躯体と製品
  6
CONTINUOUS
 62
    6
 10
1890.1519883350056
 20
1953.8591445686206
 11
1893.3111283350063
 21
1957.0182845686206
  0
LINE
  8
_0-3_躯体と製品
  6
CONTINUOUS
 62
    6
 10
1890.1519883350056
 20
1902.9474545686196
 11
1914.6519883350056
 21
1927.4474545686196
  0
LINE
  8
_0-3_躯体と製品
  6
CONTINUOUS
 62
    6
 10
1890.1519883350056
 20
1885.9768945686205
 11
1914.6519883350056
 21
1910.4768945686205
  0
LINE
  8
_0-3_躯体と製品
  6
CONTINUOUS
 62
    6
 10
1890.1519883350056
 20
1919.9180145686196
 11
1914.6519883350056
 21
1944.4180145686196
  0
LINE
  8
_0-3_躯体と製品
  6
CONTINUOUS
 62
    3
 10
1890.1519883350056
 20
1854.0182845686206
 11
1914.6519883350056
 21
1854.0182845686206
  0
LINE
  8
_0-3_躯体と製品
  6
CONTINUOUS
 62
    6
 10
1892.1344624604226
 20
1854.0182845686206
 11
1914.6519883350056
 21
1876.5357655651346
  0
LINE
  8
_0-3_躯体と製品
  6
CONTINUOUS
 62
    6
 10
1890.1519883350056
 20
1869.0063359384326
 11
1914.6519883350056
 21
1893.5063247960165
  0
LINE
  8
_0-3_躯体と製品
  6
CONTINUOUS
 62
    3
 10
1902.6519883350056
 20
2248.7076145686196
 11
1902.6519883350056
 21
1957.0182845686206
  0
LINE
  8
_0-3_躯体と製品
  6
CONTINUOUS
 62
    3
 10
1890.1519883350056
 20
1959.0182845686206
 11
1890.1519883350056
 21
1854.0182845686206
  0
LINE
  8
_0-3_躯体と製品
  6
CONTINUOUS
 62
    3
 10
1914.6519883350056
 20
1854.0182845686206
 11
1914.6519883350056
 21
1967.0182845686206
  0
LINE
  8
_0-3_躯体と製品
  6
CONTINUOUS
 62
    4
 10
1914.6519883346364
 20
1849.0182845686306
 11
1914.6519883350056
 21
1867.0182845686177
  0
LINE
  8
_0-3_躯体と製品
  6
CONTINUOUS
 62
    4
 10
1934.6519883350056
 20
1867.0182845686177
 11
1934.6519883350056
 21
1849.0182845686177
  0
LINE
  8
_0-3_躯体と製品
  6
CONTINUOUS
 62
    4
 10
1934.6519883350056
 20
1849.0182845686177
 11
1914.6519883350056
 21
1849.0182845686177
  0
LINE
  8
_0-3_躯体と製品
  6
CONTINUOUS
 62
    6
 10
1914.6519883350056
 20
1849.8111445686177
 11
1931.859128335007
 21
1867.0182845686177
  0
LINE
  8
_0-3_躯体と製品
  6
CONTINUOUS
 62
    6
 10
1920.9301983350069
 20
1849.0182845686177
 11
1934.6519883350056
 21
1862.7400745686166
  0
LINE
  8
_0-3_躯体と製品
  6
CONTINUOUS
 62
    6
 10
1928.0012596420729
 20
1849.0182845686177
 11
1934.6519883350056
 21
1855.6690045686166
  0
LINE
  8
_0-3_躯体と製品
  6
CONTINUOUS
 62
    6
 10
1914.6519883350056
 20
1856.8822145686177
 11
1924.788058335007
 21
1867.0182845686177
  0
LINE
  8
_0-3_躯体と製品
  6
CONTINUOUS
 62
    6
 10
1914.6519883350056
 20
1863.9532745686176
 11
1917.7169883350061
 21
1867.0182845686177
  0
LINE
  8
_0-3_躯体と製品
  6
CONTINUOUS
 62
    4
 10
2282.651688335005
 20
1849.0182845686206
 11
3188.7726983350067
 21
1849.0182845686215
  0
LINE
  8
_0-3_躯体と製品
  6
CONTINUOUS
 62
    4
 10
1890.1519883350056
 20
1849.0182845686206
 11
2122.6522883350071
 21
1849.0182845686206
  0
LINE
  8
_0-3_躯体と製品
  6
CONTINUOUS
 62
    3
 10
2282.651688335005
 20
1839.0182845686206
 11
3188.7726983350067
 21
1839.0182845686215
  0
LINE
  8
_0-3_躯体と製品
  6
CONTINUOUS
 62
    3
 10
1890.1519883350056
 20
1839.0182845686206
 11
2122.6522883350071
 21
1839.0182845686206
  0
LINE
  8
_0-3_躯体と製品
  6
CONTINUOUS
 62
    3
 10
2282.651688335005
 20
1844.0182845686206
 11
3188.7726983350067
 21
1844.0182845686215
  0
LINE
  8
_0-3_躯体と製品
  6
CONTINUOUS
 62
    3
 10
1890.1519883350056
 20
1844.0182845686206
 11
2122.6522883350071
 21
1844.0182845686206
  0
LINE
  8
_0-3_躯体と製品
  6
CONTINUOUS
 62
    4
 10
1914.6519883350056
 20
1867.0182845687125
 11
3188.7726983350067
 21
1867.0182845686215
  0
LINE
  8
_0-3_躯体と製品
  6
CONTINUOUS
 62
    4
 10
1890.1519883350056
 20
1834.0182845686206
 11
3188.7726983350067
 21
1834.0182845686215
  0
LINE
  8
_0-3_躯体と製品
  6
CONTINUOUS
 62
    4
 10
1040.7679950869806
 20
537.54036456862059
 11
1416.40302508693
 21
537.54036456862059
  0
LINE
  8
_0-3_躯体と製品
  6
CONTINUOUS
 62
    4
 10
528.62741508692852
 20
618.54036456862048
 11
1416.40302508693
 21
618.54036456862093
  0
LINE
  8
_0-3_躯体と製品
  6
CONTINUOUS
 62
    4
 10
77.527258335005172
 20
618.54036456862025
 11
471.42001833500399
 21
618.54036456862048
  0
LINE
  8
_0-3_躯体と製品
  6
CONTINUOUS
 62
    4
 10
528.62741508692852
 20
651.54036456862093
 11
1416.40302508693
 21
651.54036456862093
  0
LINE
  8
_0-3_躯体と製品
  6
CONTINUOUS
 62
    4
 10
89.527258335004262
 20
651.54036456862093
 11
471.42001833500399
 21
651.54036456862093
  0
LINE
  8
_0-3_躯体と製品
  6
CONTINUOUS
 62
    4
 10
528.62741508692852
 20
633.54036456862048
 11
1416.40302508693
 21
633.54036456862093
  0
LINE
  8
_0-3_躯体と製品
  6
CONTINUOUS
 62
    4
 10
77.527258335005172
 20
633.54036456862025
 11
471.42001833500399
 21
633.54036456862048
  0
LINE
  8
_0-3_躯体と製品
  6
CONTINUOUS
 62
    4
 10
1040.7679950869306
 20
587.54036456862059
 11
1416.40302508693
 21
587.54036456862059
  0
LINE
  8
_0-3_躯体と製品
  6
CONTINUOUS
 62
    3
 10
528.62741508692852
 20
628.54036456862048
 11
1416.40302508693
 21
628.54036456862093
  0
LINE
  8
_0-3_躯体と製品
  6
CONTINUOUS
 62
    3
 10
77.527258335005172
 20
628.54036456862025
 11
471.42001833500399
 21
628.54036456862048
  0
LINE
  8
_0-3_躯体と製品
  6
CONTINUOUS
 62
    3
 10
528.62741508692852
 20
623.54036456862048
 11
1416.40302508693
 21
623.54036456862082
  0
LINE
  8
_0-3_躯体と製品
  6
CONTINUOUS
 62
    3
 10
77.527258335005172
 20
623.54036456862025
 11
471.42001833500399
 21
623.54036456862048
  0
LINE
  8
_0-3_躯体と製品
  6
CONTINUOUS
 62
    4
 10
528.62741508692852
 20
537.54036456862059
 11
990.76799508699696
 21
537.54036456862059
  0
LINE
  8
_0-3_躯体と製品
  6
CONTINUOUS
 62
    4
 10
302.52725833505792
 20
537.54036456862059
 11
471.42001833500399
 21
537.54036456862059
  0
LINE
  8
_0-3_躯体と製品
  6
CONTINUOUS
 62
    4
 10
77.527258335005172
 20
537.54036456862036
 11
252.52725833507338
 21
537.54036456862059
  0
LINE
  8
_0-3_躯体と製品
  6
CONTINUOUS
 62
    4
 10
252.52725833502154
 20
587.54036456862059
 11
77.527258335005172
 21
587.54036456862048
  0
LINE
  8
_0-3_躯体と製品
  6
CONTINUOUS
 62
    4
 10
471.42001833500399
 20
587.54036456862059
 11
302.5272583350079
 21
587.54036456862059
  0
LINE
  8
_0-3_躯体と製品
  6
CONTINUOUS
 62
    4
 10
990.76799508694421
 20
587.54036456862059
 11
528.62741508692852
 21
587.54036456862059
  0
LINE
  8
_0-3_躯体と製品
  6
CONTINUOUS
 62
    4
 10
2019.3519883342087
 20
1805.0182845686204
 11
1890.1519883350056
 21
1805.0182845686206
  0
LINE
  8
_0-3_躯体と製品
  6
CONTINUOUS
 62
    3
 10
2019.3519883342087
 20
1808.0182845686206
 11
1890.1519883350056
 21
1808.0182845686206
  0
LINE
  8
_0-3_躯体と製品
  6
CONTINUOUS
 62
    4
 10
2835.9519883350049
 20
1805.0182845686206
 11
3188.7726983350067
 21
1805.0182845686206
  0
LINE
  8
_0-3_躯体と製品
  6
CONTINUOUS
 62
    4
 10
2769.3519883342087
 20
1805.0182845686209
 11
2085.9519883350049
 21
1805.0182845686209
  0
LINE
  8
_0-3_躯体と製品
  6
CONTINUOUS
 62
    3
 10
2835.9519883350049
 20
1808.0182845686206
 11
3188.7726983350067
 21
1808.0182845686206
  0
LINE
  8
_0-3_躯体と製品
  6
CONTINUOUS
 62
    3
 10
2769.3519883342087
 20
1808.0182845686206
 11
2085.9519883350049
 21
1808.0182845686206
  0
LINE
  8
_0-3_躯体と製品
  6
CONTINUOUS
 62
    4
 10
194.22725833420827
 20
1805.0182845686215
 11
65.027258335005172
 21
1805.0182845686215
  0
LINE
  8
_0-3_躯体と製品
  6
CONTINUOUS
 62
    3
 10
194.22725833420827
 20
1808.0182845686218
 11
65.027258335005172
 21
1808.0182845686215
  0
LINE
  8
_0-3_躯体と製品
  6
CONTINUOUS
 62
    4
 10
1049.067995086928
 20
1805.0182845686215
 11
1349.1853850869284
 21
1805.0182845686215
  0
LINE
  8
_0-3_躯体と製品
  6
CONTINUOUS
 62
    4
 10
528.62741508692852
 20
1849.0182845686206
 11
1349.1853850869284
 21
1849.0182845686215
  0
LINE
  8
_0-3_躯体と製品
  6
CONTINUOUS
 62
    4
 10
65.027258335005172
 20
1849.0182845686206
 11
471.42001833500399
 21
1849.0182845686206
  0
LINE
  8
_0-3_躯体と製品
  6
CONTINUOUS
 62
    3
 10
528.62741508692852
 20
1839.0182845686206
 11
1349.1853850869284
 21
1839.0182845686215
  0
LINE
  8
_0-3_躯体と製品
  6
CONTINUOUS
 62
    3
 10
65.027258335005172
 20
1839.0182845686206
 11
471.42001833500399
 21
1839.0182845686206
  0
LINE
  8
_0-3_躯体と製品
  6
CONTINUOUS
 62
    3
 10
528.62741508692852
 20
1844.0182845686206
 11
1349.1853850869284
 21
1844.0182845686215
  0
LINE
  8
_0-3_躯体と製品
  6
CONTINUOUS
 62
    3
 10
65.027258335005172
 20
1844.0182845686206
 11
471.42001833500399
 21
1844.0182845686206
  0
LINE
  8
_0-3_躯体と製品
  6
CONTINUOUS
 62
    4
 10
528.62741508692852
 20
1867.0182845686206
 11
1349.1853850869284
 21
1867.0182845686215
  0
LINE
  8
_0-3_躯体と製品
  6
CONTINUOUS
 62
    4
 10
89.527258335004262
 20
1867.0182845686206
 11
471.42001833500399
 21
1867.0182845686206
  0
LINE
  8
_0-3_躯体と製品
  6
CONTINUOUS
 62
    4
 10
528.62741508692852
 20
1834.0182845686206
 11
1349.1853850869284
 21
1834.0182845686215
  0
LINE
  8
_0-3_躯体と製品
  6
CONTINUOUS
 62
    4
 10
65.027258335005172
 20
1834.0182845686206
 11
471.42001833500399
 21
1834.0182845686206
  0
LINE
  8
_0-3_躯体と製品
  6
CONTINUOUS
 62
    4
 10
471.42001833500399
 20
1805.0182845686215
 11
260.82725833500535
 21
1805.0182845686218
  0
LINE
  8
_0-3_躯体と製品
  6
CONTINUOUS
 62
    4
 10
982.46799508613094
 20
1805.0182845686218
 11
528.62741508692852
 21
1805.0182845686215
  0
LINE
  8
_0-3_躯体と製品
  6
CONTINUOUS
 62
    3
 10
1049.067995086928
 20
1808.0182845686215
 11
1349.1853850869284
 21
1808.0182845686215
  0
LINE
  8
_0-3_躯体と製品
  6
CONTINUOUS
 62
    3
 10
471.42001833500399
 20
1808.0182845686215
 11
260.82725833500535
 21
1808.018284568622
  0
LINE
  8
_0-3_躯体と製品
  6
CONTINUOUS
 62
    3
 10
982.46799508613185
 20
1808.0182845686218
 11
528.62741508692852
 21
1808.0182845686215
  0
LINE
  8
_0-2_寸法
  6
CONTINUOUS
 62
    4
 10
1015.7679950869287
 20
1242.2322445686202
 11
1362.9269250869283
 21
1242.2322445686202
  0
LINE
  8
_0-2_寸法
  6
CONTINUOUS
 62
    4
 10
2802.9019883350047
 20
1242.2322445686202
 11
3201.2726983350067
 21
1242.2322445686202
  0
LINE
  8
_0-2_寸法
  6
CONTINUOUS
 62
    4
 10
1015.7679950869287
 20
38.404949663231264
 11
1432.3647950869272
 21
38.404949663231264
  0
LINE
  8
_0-2_寸法
  6
CONTINUOUS
 62
    4
 10
1165.7689950869271
 20
782.84760879967848
 11
1416.40302508693
 21
782.84760879967848
  0
LINE
  8
_0-3_躯体と製品
  6
CONTINUOUS
 62
    3
 10
2928.9107883350052
 20
1319.5590245686201
 11
2976.3700483350076
 21
1367.0182845686206
  0
LINE
  8
_0-3_躯体と製品
  6
CONTINUOUS
 62
    3
 10
2943.0529283350033
 20
1319.5590245686201
 11
2990.5121883350066
 21
1367.0182845686206
  0
LINE
  8
_0-3_躯体と製品
  6
CONTINUOUS
 62
    3
 10
2962.2279183350074
 20
1367.0182845686206
 11
2914.7686483350044
 21
1319.5590245686201
  0
ARC
  8
_0-3_躯体と製品
  6
CONTINUOUS
 62
    3
 10
2271.6519883350061
 20
2230.3202245686189
 40
2.5000000000004547
 50
0.0000000000104271
 51
90.000000000010445
  0
LINE
  8
_0-3_躯体と製品
  6
CONTINUOUS
 62
    3
 10
2274.1519883350065
 20
2230.3202245686198
 11
2274.1519883350065
 21
2229.8202245686189
  0
ARC
  8
_0-3_躯体と製品
  6
CONTINUOUS
 62
    3
 10
2271.6519883350061
 20
2229.8202245686189
 40
2.5000000000004547
 50
269.9999999999896
 51
359.9999999999896
  0
ARC
  8
_0-3_躯体と製品
  6
CONTINUOUS
 62
    3
 10
2271.6519883350061
 20
2216.3202245686189
 40
2.5000000000004547
 50
0.0000000000104271
 51
90.000000000010445
  0
LINE
  8
_0-3_躯体と製品
  6
CONTINUOUS
 62
    3
 10
2274.1519883350065
 20
2216.3202245686198
 11
2274.1519883350065
 21
2215.8202245686198
  0
ARC
  8
_0-3_躯体と製品
  6
CONTINUOUS
 62
    3
 10
2271.6519883350061
 20
2215.8202245686198
 40
2.5000000000004547
 50
269.9999999999896
 51
359.9999999999896
  0
ARC
  8
_0-3_躯体と製品
  6
CONTINUOUS
 62
    3
 10
2271.6519883350061
 20
2202.320224568618
 40
2.5000000000004547
 50
0.0000000000104271
 51
90.000000000010445
  0
LINE
  8
_0-3_躯体と製品
  6
CONTINUOUS
 62
    3
 10
2274.1519883350065
 20
2202.3202245686189
 11
2274.1519883350065
 21
2201.8202245686189
  0
ARC
  8
_0-3_躯体と製品
  6
CONTINUOUS
 62
    3
 10
2271.6519883350061
 20
2201.8202245686189
 40
2.5000000000004547
 50
269.9999999999896
 51
359.9999999999896
  0
ARC
  8
_0-3_躯体と製品
  6
CONTINUOUS
 62
    3
 10
2271.6519883350061
 20
2188.3202245686189
 40
2.5000000000004547
 50
0.0000000000104271
 51
90.000000000010445
  0
LINE
  8
_0-3_躯体と製品
  6
CONTINUOUS
 62
    3
 10
2274.1519883350065
 20
2188.3202245686198
 11
2274.1519883350065
 21
2187.8202245686198
  0
ARC
  8
_0-3_躯体と製品
  6
CONTINUOUS
 62
    3
 10
2271.6519883350061
 20
2187.8202245686198
 40
2.5000000000004547
 50
269.9999999999896
 51
359.9999999999896
  0
ARC
  8
_0-3_躯体と製品
  6
CONTINUOUS
 62
    3
 10
2271.6519883350061
 20
2174.320224568618
 40
2.5000000000004547
 50
0.0000000000104271
 51
90.000000000010445
  0
LINE
  8
_0-3_躯体と製品
  6
CONTINUOUS
 62
    3
 10
2274.1519883350065
 20
2174.3202245686189
 11
2274.1519883350065
 21
2173.8202245686198
  0
ARC
  8
_0-3_躯体と製品
  6
CONTINUOUS
 62
    3
 10
2271.6519883350061
 20
2173.8202245686198
 40
2.5000000000004547
 50
269.9999999999896
 51
359.9999999999896
  0
ARC
  8
_0-3_躯体と製品
  6
CONTINUOUS
 62
    3
 10
2271.6519883350061
 20
2160.3202245686189
 40
2.5000000000004547
 50
0.0000000000104271
 51
90.000000000010445
  0
LINE
  8
_0-3_躯体と製品
  6
CONTINUOUS
 62
    3
 10
2274.1519883350065
 20
2160.3202245686198
 11
2274.1519883350065
 21
2159.8202245686189
  0
ARC
  8
_0-3_躯体と製品
  6
CONTINUOUS
 62
    3
 10
2271.6519883350061
 20
2159.8202245686189
 40
2.5000000000004547
 50
269.9999999999896
 51
359.9999999999896
  0
ARC
  8
_0-3_躯体と製品
  6
CONTINUOUS
 62
    3
 10
2271.6519883350061
 20
2146.3202245686189
 40
2.5000000000004547
 50
0.0000000000104271
 51
90.000000000010445
  0
LINE
  8
_0-3_躯体と製品
  6
CONTINUOUS
 62
    3
 10
2274.1519883350065
 20
2146.3202245686198
 11
2274.1519883350065
 21
2145.8202245686198
  0
ARC
  8
_0-3_躯体と製品
  6
CONTINUOUS
 62
    3
 10
2271.6519883350061
 20
2145.8202245686198
 40
2.5000000000004547
 50
269.9999999999896
 51
359.9999999999896
  0
ARC
  8
_0-3_躯体と製品
  6
CONTINUOUS
 62
    3
 10
2271.6519883350061
 20
2132.320224568618
 40
2.5000000000004547
 50
0.0000000000104271
 51
90.000000000010445
  0
LINE
  8
_0-3_躯体と製品
  6
CONTINUOUS
 62
    3
 10
2274.1519883350065
 20
2132.3202245686189
 11
2274.1519883350065
 21
2131.8202245686189
  0
ARC
  8
_0-3_躯体と製品
  6
CONTINUOUS
 62
    3
 10
2271.6519883350061
 20
2131.8202245686189
 40
2.5000000000004547
 50
269.9999999999896
 51
359.9999999999896
  0
ARC
  8
_0-3_躯体と製品
  6
CONTINUOUS
 62
    3
 10
2271.6519883350061
 20
2118.3202245686189
 40
2.5000000000004547
 50
0.0000000000104271
 51
90.000000000010445
  0
LINE
  8
_0-3_躯体と製品
  6
CONTINUOUS
 62
    3
 10
2274.1519883350065
 20
2118.3202245686198
 11
2274.1519883350065
 21
2117.8202245686198
  0
ARC
  8
_0-3_躯体と製品
  6
CONTINUOUS
 62
    3
 10
2271.6519883350061
 20
2117.8202245686198
 40
2.5000000000004547
 50
269.9999999999896
 51
359.9999999999896
  0
ARC
  8
_0-3_躯体と製品
  6
CONTINUOUS
 62
    3
 10
2271.6519883350061
 20
2104.320224568618
 40
2.5000000000004547
 50
0.0000000000104271
 51
90.000000000010445
  0
LINE
  8
_0-3_躯体と製品
  6
CONTINUOUS
 62
    3
 10
2274.1519883350065
 20
2104.3202245686189
 11
2274.1519883350065
 21
2103.8202245686198
  0
ARC
  8
_0-3_躯体と製品
  6
CONTINUOUS
 62
    3
 10
2271.6519883350061
 20
2103.8202245686198
 40
2.5000000000004547
 50
269.9999999999896
 51
359.9999999999896
  0
ARC
  8
_0-3_躯体と製品
  6
CONTINUOUS
 62
    3
 10
2249.1519883350065
 20
2229.8202245686189
 40
2.4999999999999996
 50
180
 51
270
  0
LINE
  8
_0-3_躯体と製品
  6
CONTINUOUS
 62
    3
 10
2246.6519883350065
 20
2229.8202245686189
 11
2246.6519883350065
 21
2230.3202245686198
  0
ARC
  8
_0-3_躯体と製品
  6
CONTINUOUS
 62
    3
 10
2249.1519883350065
 20
2230.3202245686198
 40
2.4999999999999996
 50
90
 51
180
  0
ARC
  8
_0-3_躯体と製品
  6
CONTINUOUS
 62
    3
 10
2237.1519883350065
 20
2229.8202245686189
 40
2.4999999999999996
 50
270
 51
0.0000000000000127
  0
LINE
  8
_0-3_躯体と製品
  6
CONTINUOUS
 62
    3
 10
2239.6519883350065
 20
2229.8202245686189
 11
2239.6519883350065
 21
2230.3202245686198
  0
ARC
  8
_0-3_躯体と製品
  6
CONTINUOUS
 62
    3
 10
2237.1519883350065
 20
2230.3202245686198
 40
2.4999999999999996
 50
0.0000000000000052
 51
90.000000000000014
  0
ARC
  8
_0-3_躯体と製品
  6
CONTINUOUS
 62
    3
 10
2249.1519883350065
 20
2215.8202245686198
 40
2.4999999999999996
 50
180
 51
270
  0
LINE
  8
_0-3_躯体と製品
  6
CONTINUOUS
 62
    3
 10
2246.6519883350065
 20
2215.8202245686198
 11
2246.6519883350065
 21
2216.3202245686198
  0
ARC
  8
_0-3_躯体と製品
  6
CONTINUOUS
 62
    3
 10
2249.1519883350065
 20
2216.3202245686198
 40
2.4999999999999996
 50
90
 51
180
  0
ARC
  8
_0-3_躯体と製品
  6
CONTINUOUS
 62
    3
 10
2237.1519883350065
 20
2215.8202245686198
 40
2.4999999999999996
 50
270
 51
0.0000000000000127
  0
LINE
  8
_0-3_躯体と製品
  6
CONTINUOUS
 62
    3
 10
2239.6519883350065
 20
2215.8202245686198
 11
2239.6519883350065
 21
2216.3202245686198
  0
ARC
  8
_0-3_躯体と製品
  6
CONTINUOUS
 62
    3
 10
2237.1519883350065
 20
2216.3202245686198
 40
2.4999999999999996
 50
0.0000000000000052
 51
90.000000000000014
  0
ARC
  8
_0-3_躯体と製品
  6
CONTINUOUS
 62
    3
 10
2249.1519883350065
 20
2201.8202245686189
 40
2.4999999999999996
 50
180
 51
270
  0
LINE
  8
_0-3_躯体と製品
  6
CONTINUOUS
 62
    3
 10
2246.6519883350065
 20
2201.8202245686189
 11
2246.6519883350065
 21
2202.3202245686189
  0
ARC
  8
_0-3_躯体と製品
  6
CONTINUOUS
 62
    3
 10
2249.1519883350065
 20
2202.3202245686189
 40
2.4999999999999996
 50
90
 51
180
  0
ARC
  8
_0-3_躯体と製品
  6
CONTINUOUS
 62
    3
 10
2237.1519883350065
 20
2201.8202245686189
 40
2.4999999999999996
 50
270
 51
0.0000000000000127
  0
LINE
  8
_0-3_躯体と製品
  6
CONTINUOUS
 62
    3
 10
2239.6519883350065
 20
2201.8202245686189
 11
2239.6519883350065
 21
2202.3202245686189
  0
ARC
  8
_0-3_躯体と製品
  6
CONTINUOUS
 62
    3
 10
2237.1519883350065
 20
2202.3202245686189
 40
2.4999999999999996
 50
0.0000000000000052
 51
90.000000000000014
  0
ARC
  8
_0-3_躯体と製品
  6
CONTINUOUS
 62
    3
 10
2249.1519883350065
 20
2187.8202245686198
 40
2.4999999999999996
 50
180
 51
270
  0
LINE
  8
_0-3_躯体と製品
  6
CONTINUOUS
 62
    3
 10
2246.6519883350065
 20
2187.8202245686198
 11
2246.6519883350065
 21
2188.3202245686198
  0
ARC
  8
_0-3_躯体と製品
  6
CONTINUOUS
 62
    3
 10
2249.1519883350065
 20
2188.3202245686198
 40
2.4999999999999996
 50
90
 51
180
  0
ARC
  8
_0-3_躯体と製品
  6
CONTINUOUS
 62
    3
 10
2237.1519883350065
 20
2187.8202245686198
 40
2.4999999999999996
 50
270
 51
0.0000000000000127
  0
LINE
  8
_0-3_躯体と製品
  6
CONTINUOUS
 62
    3
 10
2239.6519883350065
 20
2187.8202245686198
 11
2239.6519883350065
 21
2188.3202245686198
  0
ARC
  8
_0-3_躯体と製品
  6
CONTINUOUS
 62
    3
 10
2237.1519883350065
 20
2188.3202245686198
 40
2.4999999999999996
 50
0.0000000000000052
 51
90.000000000000014
  0
ARC
  8
_0-3_躯体と製品
  6
CONTINUOUS
 62
    3
 10
2190.651988335007
 20
2230.3202245686189
 40
2.5000000000004547
 50
0.0000000000104271
 51
90.000000000010445
  0
LINE
  8
_0-3_躯体と製品
  6
CONTINUOUS
 62
    3
 10
2193.1519883350074
 20
2230.3202245686198
 11
2193.1519883350074
 21
2229.8202245686189
  0
ARC
  8
_0-3_躯体と製品
  6
CONTINUOUS
 62
    3
 10
2190.651988335007
 20
2229.8202245686189
 40
2.5000000000004547
 50
269.9999999999896
 51
359.9999999999896
  0
ARC
  8
_0-3_躯体と製品
  6
CONTINUOUS
 62
    3
 10
2190.651988335007
 20
2216.3202245686189
 40
2.5000000000004547
 50
0.0000000000104271
 51
90.000000000010445
  0
LINE
  8
_0-3_躯体と製品
  6
CONTINUOUS
 62
    3
 10
2193.1519883350074
 20
2216.3202245686198
 11
2193.1519883350074
 21
2215.8202245686198
  0
ARC
  8
_0-3_躯体と製品
  6
CONTINUOUS
 62
    3
 10
2190.651988335007
 20
2215.8202245686198
 40
2.5000000000004547
 50
269.9999999999896
 51
359.9999999999896
  0
ARC
  8
_0-3_躯体と製品
  6
CONTINUOUS
 62
    3
 10
2190.651988335007
 20
2202.320224568618
 40
2.5000000000004547
 50
0.0000000000104271
 51
90.000000000010445
  0
LINE
  8
_0-3_躯体と製品
  6
CONTINUOUS
 62
    3
 10
2193.1519883350074
 20
2202.3202245686189
 11
2193.1519883350074
 21
2201.8202245686189
  0
ARC
  8
_0-3_躯体と製品
  6
CONTINUOUS
 62
    3
 10
2190.651988335007
 20
2201.8202245686189
 40
2.5000000000004547
 50
269.9999999999896
 51
359.9999999999896
  0
ARC
  8
_0-3_躯体と製品
  6
CONTINUOUS
 62
    3
 10
2190.651988335007
 20
2188.3202245686189
 40
2.5000000000004547
 50
0.0000000000104271
 51
90.000000000010445
  0
LINE
  8
_0-3_躯体と製品
  6
CONTINUOUS
 62
    3
 10
2193.1519883350074
 20
2188.3202245686198
 11
2193.1519883350074
 21
2187.8202245686198
  0
ARC
  8
_0-3_躯体と製品
  6
CONTINUOUS
 62
    3
 10
2190.651988335007
 20
2187.8202245686198
 40
2.5000000000004547
 50
269.9999999999896
 51
359.9999999999896
  0
ARC
  8
_0-3_躯体と製品
  6
CONTINUOUS
 62
    3
 10
2214.6519883350065
 20
2230.3202245686189
 40
2.5000000000009095
 50
89.999999999979138
 51
179.99999999997914
  0
LINE
  8
_0-3_躯体と製品
  6
CONTINUOUS
 62
    3
 10
2212.1519883350056
 20
2230.3202245686198
 11
2212.1519883350056
 21
2229.8202245686189
  0
ARC
  8
_0-3_躯体と製品
  6
CONTINUOUS
 62
    3
 10
2214.6519883350065
 20
2229.8202245686198
 40
2.5000000000009095
 50
180.00000000002083
 51
270.00000000002086
  0
ARC
  8
_0-3_躯体と製品
  6
CONTINUOUS
 62
    3
 10
2214.6519883350065
 20
2216.3202245686189
 40
2.5000000000009095
 50
89.999999999979138
 51
179.99999999997914
  0
LINE
  8
_0-3_躯体と製品
  6
CONTINUOUS
 62
    3
 10
2212.1519883350056
 20
2216.3202245686198
 11
2212.1519883350056
 21
2215.8202245686198
  0
ARC
  8
_0-3_躯体と製品
  6
CONTINUOUS
 62
    3
 10
2214.6519883350065
 20
2215.8202245686207
 40
2.5000000000009095
 50
180.00000000002083
 51
270.00000000002086
  0
ARC
  8
_0-3_躯体と製品
  6
CONTINUOUS
 62
    3
 10
2214.6519883350065
 20
2202.320224568618
 40
2.5000000000009095
 50
89.999999999979138
 51
179.99999999997914
  0
LINE
  8
_0-3_躯体と製品
  6
CONTINUOUS
 62
    3
 10
2212.1519883350056
 20
2202.3202245686189
 11
2212.1519883350056
 21
2201.8202245686189
  0
ARC
  8
_0-3_躯体と製品
  6
CONTINUOUS
 62
    3
 10
2214.6519883350065
 20
2201.8202245686198
 40
2.5000000000009095
 50
180.00000000002083
 51
270.00000000002086
  0
ARC
  8
_0-3_躯体と製品
  6
CONTINUOUS
 62
    3
 10
2214.6519883350065
 20
2188.3202245686189
 40
2.5000000000009095
 50
89.999999999979138
 51
179.99999999997914
  0
LINE
  8
_0-3_躯体と製品
  6
CONTINUOUS
 62
    3
 10
2212.1519883350056
 20
2188.3202245686198
 11
2212.1519883350056
 21
2187.8202245686198
  0
ARC
  8
_0-3_躯体と製品
  6
CONTINUOUS
 62
    3
 10
2214.6519883350065
 20
2187.8202245686207
 40
2.5000000000009095
 50
180.00000000002083
 51
270.00000000002086
  0
LINE
  8
_0-3_躯体と製品
  6
CONTINUOUS
 62
    3
 10
2214.6519883350074
 20
2227.3202245686189
 11
2237.1519883350065
 21
2227.3202245686189
  0
LINE
  8
_0-3_躯体と製品
  6
CONTINUOUS
 62
    3
 10
2237.1519883350065
 20
2232.8202245686198
 11
2214.6519883350074
 21
2232.8202245686198
  0
LINE
  8
_0-3_躯体と製品
  6
CONTINUOUS
 62
    3
 10
2214.6519883350074
 20
2213.3202245686198
 11
2237.1519883350065
 21
2213.3202245686198
  0
LINE
  8
_0-3_躯体と製品
  6
CONTINUOUS
 62
    3
 10
2237.1519883350065
 20
2218.8202245686198
 11
2214.6519883350074
 21
2218.8202245686198
  0
LINE
  8
_0-3_躯体と製品
  6
CONTINUOUS
 62
    3
 10
2214.6519883350074
 20
2199.3202245686189
 11
2237.1519883350065
 21
2199.3202245686189
  0
LINE
  8
_0-3_躯体と製品
  6
CONTINUOUS
 62
    3
 10
2237.1519883350065
 20
2204.8202245686189
 11
2214.6519883350074
 21
2204.8202245686189
  0
LINE
  8
_0-3_躯体と製品
  6
CONTINUOUS
 62
    3
 10
2214.6519883350074
 20
2185.3202245686198
 11
2237.1519883350065
 21
2185.3202245686198
  0
LINE
  8
_0-3_躯体と製品
  6
CONTINUOUS
 62
    3
 10
2237.1519883350065
 20
2190.8202245686198
 11
2214.6519883350074
 21
2190.8202245686198
  0
ARC
  8
_0-3_躯体と製品
  6
CONTINUOUS
 62
    3
 10
2156.1519883350061
 20
2229.8202245686189
 40
2.5000000000004547
 50
269.9999999999896
 51
359.9999999999896
  0
LINE
  8
_0-3_躯体と製品
  6
CONTINUOUS
 62
    3
 10
2158.6519883350065
 20
2229.8202245686189
 11
2158.6519883350065
 21
2230.3202245686198
  0
ARC
  8
_0-3_躯体と製品
  6
CONTINUOUS
 62
    3
 10
2156.1519883350061
 20
2230.3202245686189
 40
2.5000000000004547
 50
0.0000000000104271
 51
90.000000000010445
  0
ARC
  8
_0-3_躯体と製品
  6
CONTINUOUS
 62
    3
 10
2168.1519883350074
 20
2229.8202245686189
 40
2.4999999999999996
 50
180
 51
270
  0
LINE
  8
_0-3_躯体と製品
  6
CONTINUOUS
 62
    3
 10
2165.6519883350074
 20
2229.8202245686189
 11
2165.6519883350074
 21
2230.3202245686198
  0
ARC
  8
_0-3_躯体と製品
  6
CONTINUOUS
 62
    3
 10
2168.1519883350074
 20
2230.3202245686198
 40
2.4999999999999996
 50
90
 51
180
  0
ARC
  8
_0-3_躯体と製品
  6
CONTINUOUS
 62
    3
 10
2156.1519883350061
 20
2215.8202245686198
 40
2.5000000000004547
 50
269.9999999999896
 51
359.9999999999896
  0
LINE
  8
_0-3_躯体と製品
  6
CONTINUOUS
 62
    3
 10
2158.6519883350065
 20
2215.8202245686198
 11
2158.6519883350065
 21
2216.3202245686198
  0
ARC
  8
_0-3_躯体と製品
  6
CONTINUOUS
 62
    3
 10
2156.1519883350061
 20
2216.3202245686189
 40
2.5000000000004547
 50
0.0000000000104271
 51
90.000000000010445
  0
ARC
  8
_0-3_躯体と製品
  6
CONTINUOUS
 62
    3
 10
2168.1519883350074
 20
2215.8202245686198
 40
2.4999999999999996
 50
180
 51
270
  0
LINE
  8
_0-3_躯体と製品
  6
CONTINUOUS
 62
    3
 10
2165.6519883350074
 20
2215.8202245686198
 11
2165.6519883350074
 21
2216.3202245686198
  0
ARC
  8
_0-3_躯体と製品
  6
CONTINUOUS
 62
    3
 10
2168.1519883350074
 20
2216.3202245686198
 40
2.4999999999999996
 50
90
 51
180
  0
ARC
  8
_0-3_躯体と製品
  6
CONTINUOUS
 62
    3
 10
2156.1519883350061
 20
2201.8202245686189
 40
2.5000000000004547
 50
269.9999999999896
 51
359.9999999999896
  0
LINE
  8
_0-3_躯体と製品
  6
CONTINUOUS
 62
    3
 10
2158.6519883350065
 20
2201.8202245686189
 11
2158.6519883350065
 21
2202.3202245686189
  0
ARC
  8
_0-3_躯体と製品
  6
CONTINUOUS
 62
    3
 10
2156.1519883350061
 20
2202.320224568618
 40
2.5000000000004547
 50
0.0000000000104271
 51
90.000000000010445
  0
ARC
  8
_0-3_躯体と製品
  6
CONTINUOUS
 62
    3
 10
2168.1519883350074
 20
2201.8202245686189
 40
2.4999999999999996
 50
180
 51
270
  0
LINE
  8
_0-3_躯体と製品
  6
CONTINUOUS
 62
    3
 10
2165.6519883350074
 20
2201.8202245686189
 11
2165.6519883350074
 21
2202.3202245686189
  0
ARC
  8
_0-3_躯体と製品
  6
CONTINUOUS
 62
    3
 10
2168.1519883350074
 20
2202.3202245686189
 40
2.4999999999999996
 50
90
 51
180
  0
ARC
  8
_0-3_躯体と製品
  6
CONTINUOUS
 62
    3
 10
2156.1519883350061
 20
2187.8202245686198
 40
2.5000000000004547
 50
269.9999999999896
 51
359.9999999999896
  0
LINE
  8
_0-3_躯体と製品
  6
CONTINUOUS
 62
    3
 10
2158.6519883350065
 20
2187.8202245686198
 11
2158.6519883350065
 21
2188.3202245686198
  0
ARC
  8
_0-3_躯体と製品
  6
CONTINUOUS
 62
    3
 10
2156.1519883350061
 20
2188.3202245686189
 40
2.5000000000004547
 50
0.0000000000104271
 51
90.000000000010445
  0
ARC
  8
_0-3_躯体と製品
  6
CONTINUOUS
 62
    3
 10
2168.1519883350074
 20
2187.8202245686198
 40
2.4999999999999996
 50
180
 51
270
  0
LINE
  8
_0-3_躯体と製品
  6
CONTINUOUS
 62
    3
 10
2165.6519883350074
 20
2187.8202245686198
 11
2165.6519883350074
 21
2188.3202245686198
  0
ARC
  8
_0-3_躯体と製品
  6
CONTINUOUS
 62
    3
 10
2168.1519883350074
 20
2188.3202245686198
 40
2.4999999999999996
 50
90
 51
180
  0
ARC
  8
_0-3_躯体と製品
  6
CONTINUOUS
 62
    3
 10
2133.6519883350065
 20
2230.3202245686198
 40
2.4999999999999996
 50
90
 51
180
  0
LINE
  8
_0-3_躯体と製品
  6
CONTINUOUS
 62
    3
 10
2131.1519883350065
 20
2230.3202245686198
 11
2131.1519883350065
 21
2229.8202245686189
  0
ARC
  8
_0-3_躯体と製品
  6
CONTINUOUS
 62
    3
 10
2133.6519883350065
 20
2229.8202245686189
 40
2.4999999999999996
 50
180
 51
270
  0
ARC
  8
_0-3_躯体と製品
  6
CONTINUOUS
 62
    3
 10
2133.6519883350065
 20
2216.3202245686198
 40
2.4999999999999996
 50
90
 51
180
  0
LINE
  8
_0-3_躯体と製品
  6
CONTINUOUS
 62
    3
 10
2131.1519883350065
 20
2216.3202245686198
 11
2131.1519883350065
 21
2215.8202245686198
  0
ARC
  8
_0-3_躯体と製品
  6
CONTINUOUS
 62
    3
 10
2133.6519883350065
 20
2215.8202245686198
 40
2.4999999999999996
 50
180
 51
270
  0
ARC
  8
_0-3_躯体と製品
  6
CONTINUOUS
 62
    3
 10
2133.6519883350065
 20
2202.3202245686189
 40
2.4999999999999996
 50
90
 51
180
  0
LINE
  8
_0-3_躯体と製品
  6
CONTINUOUS
 62
    3
 10
2131.1519883350065
 20
2202.3202245686189
 11
2131.1519883350065
 21
2201.8202245686189
  0
ARC
  8
_0-3_躯体と製品
  6
CONTINUOUS
 62
    3
 10
2133.6519883350065
 20
2201.8202245686189
 40
2.4999999999999996
 50
180
 51
270
  0
ARC
  8
_0-3_躯体と製品
  6
CONTINUOUS
 62
    3
 10
2133.6519883350065
 20
2188.3202245686198
 40
2.4999999999999996
 50
90
 51
180
  0
LINE
  8
_0-3_躯体と製品
  6
CONTINUOUS
 62
    3
 10
2131.1519883350065
 20
2188.3202245686198
 11
2131.1519883350065
 21
2187.8202245686198
  0
ARC
  8
_0-3_躯体と製品
  6
CONTINUOUS
 62
    3
 10
2133.6519883350065
 20
2187.8202245686198
 40
2.4999999999999996
 50
180
 51
270
  0
LINE
  8
_0-3_躯体と製品
  6
CONTINUOUS
 62
    3
 10
2133.6519883350065
 20
2227.3202245686189
 11
2156.1519883350056
 21
2227.3202245686189
  0
LINE
  8
_0-3_躯体と製品
  6
CONTINUOUS
 62
    3
 10
2156.1519883350056
 20
2232.8202245686198
 11
2133.6519883350065
 21
2232.8202245686198
  0
LINE
  8
_0-3_躯体と製品
  6
CONTINUOUS
 62
    3
 10
2133.6519883350065
 20
2213.3202245686198
 11
2156.1519883350056
 21
2213.3202245686198
  0
LINE
  8
_0-3_躯体と製品
  6
CONTINUOUS
 62
    3
 10
2156.1519883350056
 20
2218.8202245686198
 11
2133.6519883350065
 21
2218.8202245686198
  0
LINE
  8
_0-3_躯体と製品
  6
CONTINUOUS
 62
    3
 10
2133.6519883350065
 20
2199.3202245686189
 11
2156.1519883350056
 21
2199.3202245686189
  0
LINE
  8
_0-3_躯体と製品
  6
CONTINUOUS
 62
    3
 10
2156.1519883350056
 20
2204.8202245686189
 11
2133.6519883350065
 21
2204.8202245686189
  0
LINE
  8
_0-3_躯体と製品
  6
CONTINUOUS
 62
    3
 10
2133.6519883350065
 20
2185.3202245686198
 11
2156.1519883350056
 21
2185.3202245686198
  0
LINE
  8
_0-3_躯体と製品
  6
CONTINUOUS
 62
    3
 10
2156.1519883350056
 20
2190.8202245686198
 11
2133.6519883350065
 21
2190.8202245686198
  0
LINE
  8
_0-3_躯体と製品
  6
CONTINUOUS
 62
    3
 10
2190.6519883350065
 20
2227.3202245686189
 11
2168.1519883350074
 21
2227.3202245686189
  0
LINE
  8
_0-3_躯体と製品
  6
CONTINUOUS
 62
    3
 10
2168.1519883350074
 20
2232.8202245686198
 11
2190.6519883350065
 21
2232.8202245686198
  0
LINE
  8
_0-3_躯体と製品
  6
CONTINUOUS
 62
    3
 10
2190.6519883350065
 20
2213.3202245686198
 11
2168.1519883350074
 21
2213.3202245686198
  0
LINE
  8
_0-3_躯体と製品
  6
CONTINUOUS
 62
    3
 10
2168.1519883350074
 20
2218.8202245686198
 11
2190.6519883350065
 21
2218.8202245686198
  0
LINE
  8
_0-3_躯体と製品
  6
CONTINUOUS
 62
    3
 10
2190.6519883350065
 20
2199.3202245686189
 11
2168.1519883350074
 21
2199.3202245686189
  0
LINE
  8
_0-3_躯体と製品
  6
CONTINUOUS
 62
    3
 10
2168.1519883350074
 20
2204.8202245686189
 11
2190.6519883350065
 21
2204.8202245686189
  0
LINE
  8
_0-3_躯体と製品
  6
CONTINUOUS
 62
    3
 10
2190.6519883350065
 20
2185.3202245686198
 11
2168.1519883350074
 21
2185.3202245686198
  0
LINE
  8
_0-3_躯体と製品
  6
CONTINUOUS
 62
    3
 10
2168.1519883350074
 20
2190.8202245686198
 11
2190.6519883350065
 21
2190.8202245686198
  0
ARC
  8
_0-3_躯体と製品
  6
CONTINUOUS
 62
    3
 10
2249.1519883350065
 20
2173.8202245686198
 40
2.4999999999999996
 50
180
 51
270
  0
LINE
  8
_0-3_躯体と製品
  6
CONTINUOUS
 62
    3
 10
2246.6519883350065
 20
2173.8202245686198
 11
2246.6519883350065
 21
2174.3202245686189
  0
ARC
  8
_0-3_躯体と製品
  6
CONTINUOUS
 62
    3
 10
2249.1519883350065
 20
2174.3202245686189
 40
2.4999999999999996
 50
90
 51
180
  0
ARC
  8
_0-3_躯体と製品
  6
CONTINUOUS
 62
    3
 10
2237.1519883350065
 20
2173.8202245686198
 40
2.4999999999999996
 50
270
 51
0.0000000000000127
  0
LINE
  8
_0-3_躯体と製品
  6
CONTINUOUS
 62
    3
 10
2239.6519883350065
 20
2173.8202245686198
 11
2239.6519883350065
 21
2174.3202245686189
  0
ARC
  8
_0-3_躯体と製品
  6
CONTINUOUS
 62
    3
 10
2237.1519883350065
 20
2174.3202245686189
 40
2.4999999999999996
 50
0.0000000000000052
 51
90.000000000000014
  0
ARC
  8
_0-3_躯体と製品
  6
CONTINUOUS
 62
    3
 10
2249.1519883350065
 20
2159.8202245686189
 40
2.4999999999999996
 50
180
 51
270
  0
LINE
  8
_0-3_躯体と製品
  6
CONTINUOUS
 62
    3
 10
2246.6519883350065
 20
2159.8202245686189
 11
2246.6519883350065
 21
2160.3202245686198
  0
ARC
  8
_0-3_躯体と製品
  6
CONTINUOUS
 62
    3
 10
2249.1519883350065
 20
2160.3202245686198
 40
2.4999999999999996
 50
90
 51
180
  0
ARC
  8
_0-3_躯体と製品
  6
CONTINUOUS
 62
    3
 10
2237.1519883350065
 20
2159.8202245686189
 40
2.4999999999999996
 50
270
 51
0.0000000000000127
  0
LINE
  8
_0-3_躯体と製品
  6
CONTINUOUS
 62
    3
 10
2239.6519883350065
 20
2159.8202245686189
 11
2239.6519883350065
 21
2160.3202245686198
  0
ARC
  8
_0-3_躯体と製品
  6
CONTINUOUS
 62
    3
 10
2237.1519883350065
 20
2160.3202245686198
 40
2.4999999999999996
 50
0.0000000000000052
 51
90.000000000000014
  0
ARC
  8
_0-3_躯体と製品
  6
CONTINUOUS
 62
    3
 10
2249.1519883350065
 20
2145.8202245686198
 40
2.4999999999999996
 50
180
 51
270
  0
LINE
  8
_0-3_躯体と製品
  6
CONTINUOUS
 62
    3
 10
2246.6519883350065
 20
2145.8202245686198
 11
2246.6519883350065
 21
2146.3202245686198
  0
ARC
  8
_0-3_躯体と製品
  6
CONTINUOUS
 62
    3
 10
2249.1519883350065
 20
2146.3202245686198
 40
2.4999999999999996
 50
90
 51
180
  0
ARC
  8
_0-3_躯体と製品
  6
CONTINUOUS
 62
    3
 10
2237.1519883350065
 20
2145.8202245686198
 40
2.4999999999999996
 50
270
 51
0.0000000000000127
  0
LINE
  8
_0-3_躯体と製品
  6
CONTINUOUS
 62
    3
 10
2239.6519883350065
 20
2145.8202245686198
 11
2239.6519883350065
 21
2146.3202245686198
  0
ARC
  8
_0-3_躯体と製品
  6
CONTINUOUS
 62
    3
 10
2237.1519883350065
 20
2146.3202245686198
 40
2.4999999999999996
 50
0.0000000000000052
 51
90.000000000000014
  0
ARC
  8
_0-3_躯体と製品
  6
CONTINUOUS
 62
    3
 10
2249.1519883350065
 20
2131.8202245686189
 40
2.4999999999999996
 50
180
 51
270
  0
LINE
  8
_0-3_躯体と製品
  6
CONTINUOUS
 62
    3
 10
2246.6519883350065
 20
2131.8202245686189
 11
2246.6519883350065
 21
2132.3202245686189
  0
ARC
  8
_0-3_躯体と製品
  6
CONTINUOUS
 62
    3
 10
2249.1519883350065
 20
2132.3202245686189
 40
2.4999999999999996
 50
90
 51
180
  0
ARC
  8
_0-3_躯体と製品
  6
CONTINUOUS
 62
    3
 10
2237.1519883350065
 20
2131.8202245686189
 40
2.4999999999999996
 50
270
 51
0.0000000000000127
  0
LINE
  8
_0-3_躯体と製品
  6
CONTINUOUS
 62
    3
 10
2239.6519883350065
 20
2131.8202245686189
 11
2239.6519883350065
 21
2132.3202245686189
  0
ARC
  8
_0-3_躯体と製品
  6
CONTINUOUS
 62
    3
 10
2237.1519883350065
 20
2132.3202245686189
 40
2.4999999999999996
 50
0.0000000000000052
 51
90.000000000000014
  0
ARC
  8
_0-3_躯体と製品
  6
CONTINUOUS
 62
    3
 10
2190.651988335007
 20
2174.320224568618
 40
2.5000000000004547
 50
0.0000000000104271
 51
90.000000000010445
  0
LINE
  8
_0-3_躯体と製品
  6
CONTINUOUS
 62
    3
 10
2193.1519883350074
 20
2174.3202245686189
 11
2193.1519883350074
 21
2173.8202245686198
  0
ARC
  8
_0-3_躯体と製品
  6
CONTINUOUS
 62
    3
 10
2190.651988335007
 20
2173.8202245686198
 40
2.5000000000004547
 50
269.9999999999896
 51
359.9999999999896
  0
ARC
  8
_0-3_躯体と製品
  6
CONTINUOUS
 62
    3
 10
2190.651988335007
 20
2160.3202245686189
 40
2.5000000000004547
 50
0.0000000000104271
 51
90.000000000010445
  0
LINE
  8
_0-3_躯体と製品
  6
CONTINUOUS
 62
    3
 10
2193.1519883350074
 20
2160.3202245686198
 11
2193.1519883350074
 21
2159.8202245686189
  0
ARC
  8
_0-3_躯体と製品
  6
CONTINUOUS
 62
    3
 10
2190.651988335007
 20
2159.8202245686189
 40
2.5000000000004547
 50
269.9999999999896
 51
359.9999999999896
  0
ARC
  8
_0-3_躯体と製品
  6
CONTINUOUS
 62
    3
 10
2190.651988335007
 20
2146.3202245686189
 40
2.5000000000004547
 50
0.0000000000104271
 51
90.000000000010445
  0
LINE
  8
_0-3_躯体と製品
  6
CONTINUOUS
 62
    3
 10
2193.1519883350074
 20
2146.3202245686198
 11
2193.1519883350074
 21
2145.8202245686198
  0
ARC
  8
_0-3_躯体と製品
  6
CONTINUOUS
 62
    3
 10
2190.651988335007
 20
2145.8202245686198
 40
2.5000000000004547
 50
269.9999999999896
 51
359.9999999999896
  0
ARC
  8
_0-3_躯体と製品
  6
CONTINUOUS
 62
    3
 10
2190.651988335007
 20
2132.320224568618
 40
2.5000000000004547
 50
0.0000000000104271
 51
90.000000000010445
  0
LINE
  8
_0-3_躯体と製品
  6
CONTINUOUS
 62
    3
 10
2193.1519883350074
 20
2132.3202245686189
 11
2193.1519883350074
 21
2131.8202245686189
  0
ARC
  8
_0-3_躯体と製品
  6
CONTINUOUS
 62
    3
 10
2190.651988335007
 20
2131.8202245686189
 40
2.5000000000004547
 50
269.9999999999896
 51
359.9999999999896
  0
ARC
  8
_0-3_躯体と製品
  6
CONTINUOUS
 62
    3
 10
2214.6519883350065
 20
2174.320224568618
 40
2.5000000000009095
 50
89.999999999979138
 51
179.99999999997914
  0
LINE
  8
_0-3_躯体と製品
  6
CONTINUOUS
 62
    3
 10
2212.1519883350056
 20
2174.3202245686189
 11
2212.1519883350056
 21
2173.8202245686198
  0
ARC
  8
_0-3_躯体と製品
  6
CONTINUOUS
 62
    3
 10
2214.6519883350065
 20
2173.8202245686207
 40
2.5000000000009095
 50
180.00000000002083
 51
270.00000000002086
  0
ARC
  8
_0-3_躯体と製品
  6
CONTINUOUS
 62
    3
 10
2214.6519883350065
 20
2160.3202245686189
 40
2.5000000000009095
 50
89.999999999979138
 51
179.99999999997914
  0
LINE
  8
_0-3_躯体と製品
  6
CONTINUOUS
 62
    3
 10
2212.1519883350056
 20
2160.3202245686198
 11
2212.1519883350056
 21
2159.8202245686189
  0
ARC
  8
_0-3_躯体と製品
  6
CONTINUOUS
 62
    3
 10
2214.6519883350065
 20
2159.8202245686198
 40
2.5000000000009095
 50
180.00000000002083
 51
270.00000000002086
  0
ARC
  8
_0-3_躯体と製品
  6
CONTINUOUS
 62
    3
 10
2214.6519883350065
 20
2146.3202245686189
 40
2.5000000000009095
 50
89.999999999979138
 51
179.99999999997914
  0
LINE
  8
_0-3_躯体と製品
  6
CONTINUOUS
 62
    3
 10
2212.1519883350056
 20
2146.3202245686198
 11
2212.1519883350056
 21
2145.8202245686198
  0
ARC
  8
_0-3_躯体と製品
  6
CONTINUOUS
 62
    3
 10
2214.6519883350065
 20
2145.8202245686207
 40
2.5000000000009095
 50
180.00000000002083
 51
270.00000000002086
  0
ARC
  8
_0-3_躯体と製品
  6
CONTINUOUS
 62
    3
 10
2214.6519883350065
 20
2132.320224568618
 40
2.5000000000009095
 50
89.999999999979138
 51
179.99999999997914
  0
LINE
  8
_0-3_躯体と製品
  6
CONTINUOUS
 62
    3
 10
2212.1519883350056
 20
2132.3202245686189
 11
2212.1519883350056
 21
2131.8202245686189
  0
ARC
  8
_0-3_躯体と製品
  6
CONTINUOUS
 62
    3
 10
2214.6519883350065
 20
2131.8202245686198
 40
2.5000000000009095
 50
180.00000000002083
 51
270.00000000002086
  0
LINE
  8
_0-3_躯体と製品
  6
CONTINUOUS
 62
    3
 10
2214.6519883350074
 20
2171.3202245686198
 11
2237.1519883350065
 21
2171.3202245686198
  0
LINE
  8
_0-3_躯体と製品
  6
CONTINUOUS
 62
    3
 10
2237.1519883350065
 20
2176.8202245686189
 11
2214.6519883350074
 21
2176.8202245686189
  0
LINE
  8
_0-3_躯体と製品
  6
CONTINUOUS
 62
    3
 10
2214.6519883350074
 20
2157.3202245686189
 11
2237.1519883350065
 21
2157.3202245686189
  0
LINE
  8
_0-3_躯体と製品
  6
CONTINUOUS
 62
    3
 10
2237.1519883350065
 20
2162.8202245686198
 11
2214.6519883350074
 21
2162.8202245686198
  0
LINE
  8
_0-3_躯体と製品
  6
CONTINUOUS
 62
    3
 10
2214.6519883350074
 20
2143.3202245686198
 11
2237.1519883350065
 21
2143.3202245686198
  0
LINE
  8
_0-3_躯体と製品
  6
CONTINUOUS
 62
    3
 10
2237.1519883350065
 20
2148.8202245686198
 11
2214.6519883350074
 21
2148.8202245686198
  0
LINE
  8
_0-3_躯体と製品
  6
CONTINUOUS
 62
    3
 10
2214.6519883350074
 20
2129.3202245686189
 11
2237.1519883350065
 21
2129.3202245686189
  0
LINE
  8
_0-3_躯体と製品
  6
CONTINUOUS
 62
    3
 10
2237.1519883350065
 20
2134.8202245686189
 11
2214.6519883350074
 21
2134.8202245686189
  0
ARC
  8
_0-3_躯体と製品
  6
CONTINUOUS
 62
    3
 10
2249.1519883350065
 20
2117.8202245686198
 40
2.4999999999999996
 50
180
 51
270
  0
LINE
  8
_0-3_躯体と製品
  6
CONTINUOUS
 62
    3
 10
2246.6519883350065
 20
2117.8202245686198
 11
2246.6519883350065
 21
2118.3202245686198
  0
ARC
  8
_0-3_躯体と製品
  6
CONTINUOUS
 62
    3
 10
2249.1519883350065
 20
2118.3202245686198
 40
2.4999999999999996
 50
90
 51
180
  0
ARC
  8
_0-3_躯体と製品
  6
CONTINUOUS
 62
    3
 10
2237.1519883350065
 20
2117.8202245686198
 40
2.4999999999999996
 50
270
 51
0.0000000000000127
  0
LINE
  8
_0-3_躯体と製品
  6
CONTINUOUS
 62
    3
 10
2239.6519883350065
 20
2117.8202245686198
 11
2239.6519883350065
 21
2118.3202245686198
  0
ARC
  8
_0-3_躯体と製品
  6
CONTINUOUS
 62
    3
 10
2237.1519883350065
 20
2118.3202245686198
 40
2.4999999999999996
 50
0.0000000000000052
 51
90.000000000000014
  0
ARC
  8
_0-3_躯体と製品
  6
CONTINUOUS
 62
    3
 10
2249.1519883350065
 20
2103.8202245686198
 40
2.4999999999999996
 50
180
 51
270
  0
LINE
  8
_0-3_躯体と製品
  6
CONTINUOUS
 62
    3
 10
2246.6519883350065
 20
2103.8202245686198
 11
2246.6519883350065
 21
2104.3202245686189
  0
ARC
  8
_0-3_躯体と製品
  6
CONTINUOUS
 62
    3
 10
2249.1519883350065
 20
2104.3202245686189
 40
2.4999999999999996
 50
90
 51
180
  0
ARC
  8
_0-3_躯体と製品
  6
CONTINUOUS
 62
    3
 10
2237.1519883350065
 20
2103.8202245686198
 40
2.4999999999999996
 50
270
 51
0.0000000000000127
  0
LINE
  8
_0-3_躯体と製品
  6
CONTINUOUS
 62
    3
 10
2239.6519883350065
 20
2103.8202245686198
 11
2239.6519883350065
 21
2104.3202245686189
  0
ARC
  8
_0-3_躯体と製品
  6
CONTINUOUS
 62
    3
 10
2237.1519883350065
 20
2104.3202245686189
 40
2.4999999999999996
 50
0.0000000000000052
 51
90.000000000000014
  0
ARC
  8
_0-3_躯体と製品
  6
CONTINUOUS
 62
    3
 10
2190.651988335007
 20
2118.3202245686189
 40
2.5000000000004547
 50
0.0000000000104271
 51
90.000000000010445
  0
LINE
  8
_0-3_躯体と製品
  6
CONTINUOUS
 62
    3
 10
2193.1519883350074
 20
2118.3202245686198
 11
2193.1519883350074
 21
2117.8202245686198
  0
ARC
  8
_0-3_躯体と製品
  6
CONTINUOUS
 62
    3
 10
2190.651988335007
 20
2117.8202245686198
 40
2.5000000000004547
 50
269.9999999999896
 51
359.9999999999896
  0
ARC
  8
_0-3_躯体と製品
  6
CONTINUOUS
 62
    3
 10
2190.651988335007
 20
2104.320224568618
 40
2.5000000000004547
 50
0.0000000000104271
 51
90.000000000010445
  0
LINE
  8
_0-3_躯体と製品
  6
CONTINUOUS
 62
    3
 10
2193.1519883350074
 20
2104.3202245686189
 11
2193.1519883350074
 21
2103.8202245686198
  0
ARC
  8
_0-3_躯体と製品
  6
CONTINUOUS
 62
    3
 10
2190.651988335007
 20
2103.8202245686198
 40
2.5000000000004547
 50
269.9999999999896
 51
359.9999999999896
  0
ARC
  8
_0-3_躯体と製品
  6
CONTINUOUS
 62
    3
 10
2214.6519883350065
 20
2118.3202245686189
 40
2.5000000000009095
 50
89.999999999979138
 51
179.99999999997914
  0
LINE
  8
_0-3_躯体と製品
  6
CONTINUOUS
 62
    3
 10
2212.1519883350056
 20
2118.3202245686198
 11
2212.1519883350056
 21
2117.8202245686198
  0
ARC
  8
_0-3_躯体と製品
  6
CONTINUOUS
 62
    3
 10
2214.6519883350065
 20
2117.8202245686207
 40
2.5000000000009095
 50
180.00000000002083
 51
270.00000000002086
  0
ARC
  8
_0-3_躯体と製品
  6
CONTINUOUS
 62
    3
 10
2214.6519883350065
 20
2104.320224568618
 40
2.5000000000009095
 50
89.999999999979138
 51
179.99999999997914
  0
LINE
  8
_0-3_躯体と製品
  6
CONTINUOUS
 62
    3
 10
2212.1519883350056
 20
2104.3202245686189
 11
2212.1519883350056
 21
2103.8202245686198
  0
ARC
  8
_0-3_躯体と製品
  6
CONTINUOUS
 62
    3
 10
2214.6519883350065
 20
2103.8202245686207
 40
2.5000000000009095
 50
180.00000000002083
 51
270.00000000002086
  0
LINE
  8
_0-3_躯体と製品
  6
CONTINUOUS
 62
    3
 10
2214.6519883350074
 20
2115.3202245686198
 11
2237.1519883350065
 21
2115.3202245686198
  0
LINE
  8
_0-3_躯体と製品
  6
CONTINUOUS
 62
    3
 10
2237.1519883350065
 20
2120.8202245686198
 11
2214.6519883350074
 21
2120.8202245686198
  0
LINE
  8
_0-3_躯体と製品
  6
CONTINUOUS
 62
    3
 10
2214.6519883350074
 20
2101.3202245686198
 11
2237.1519883350065
 21
2101.3202245686198
  0
LINE
  8
_0-3_躯体と製品
  6
CONTINUOUS
 62
    3
 10
2237.1519883350065
 20
2106.8202245686189
 11
2214.6519883350074
 21
2106.8202245686189
  0
ARC
  8
_0-3_躯体と製品
  6
CONTINUOUS
 62
    3
 10
2156.1519883350061
 20
2173.8202245686198
 40
2.5000000000004547
 50
269.9999999999896
 51
359.9999999999896
  0
LINE
  8
_0-3_躯体と製品
  6
CONTINUOUS
 62
    3
 10
2158.6519883350065
 20
2173.8202245686198
 11
2158.6519883350065
 21
2174.3202245686189
  0
ARC
  8
_0-3_躯体と製品
  6
CONTINUOUS
 62
    3
 10
2156.1519883350061
 20
2174.320224568618
 40
2.5000000000004547
 50
0.0000000000104271
 51
90.000000000010445
  0
ARC
  8
_0-3_躯体と製品
  6
CONTINUOUS
 62
    3
 10
2168.1519883350074
 20
2173.8202245686198
 40
2.4999999999999996
 50
180
 51
270
  0
LINE
  8
_0-3_躯体と製品
  6
CONTINUOUS
 62
    3
 10
2165.6519883350074
 20
2173.8202245686198
 11
2165.6519883350074
 21
2174.3202245686189
  0
ARC
  8
_0-3_躯体と製品
  6
CONTINUOUS
 62
    3
 10
2168.1519883350074
 20
2174.3202245686189
 40
2.4999999999999996
 50
90
 51
180
  0
ARC
  8
_0-3_躯体と製品
  6
CONTINUOUS
 62
    3
 10
2156.1519883350061
 20
2159.8202245686189
 40
2.5000000000004547
 50
269.9999999999896
 51
359.9999999999896
  0
LINE
  8
_0-3_躯体と製品
  6
CONTINUOUS
 62
    3
 10
2158.6519883350065
 20
2159.8202245686189
 11
2158.6519883350065
 21
2160.3202245686198
  0
ARC
  8
_0-3_躯体と製品
  6
CONTINUOUS
 62
    3
 10
2156.1519883350061
 20
2160.3202245686189
 40
2.5000000000004547
 50
0.0000000000104271
 51
90.000000000010445
  0
ARC
  8
_0-3_躯体と製品
  6
CONTINUOUS
 62
    3
 10
2168.1519883350074
 20
2159.8202245686189
 40
2.4999999999999996
 50
180
 51
270
  0
LINE
  8
_0-3_躯体と製品
  6
CONTINUOUS
 62
    3
 10
2165.6519883350074
 20
2159.8202245686189
 11
2165.6519883350074
 21
2160.3202245686198
  0
ARC
  8
_0-3_躯体と製品
  6
CONTINUOUS
 62
    3
 10
2168.1519883350074
 20
2160.3202245686198
 40
2.4999999999999996
 50
90
 51
180
  0
ARC
  8
_0-3_躯体と製品
  6
CONTINUOUS
 62
    3
 10
2156.1519883350061
 20
2145.8202245686198
 40
2.5000000000004547
 50
269.9999999999896
 51
359.9999999999896
  0
LINE
  8
_0-3_躯体と製品
  6
CONTINUOUS
 62
    3
 10
2158.6519883350065
 20
2145.8202245686198
 11
2158.6519883350065
 21
2146.3202245686198
  0
ARC
  8
_0-3_躯体と製品
  6
CONTINUOUS
 62
    3
 10
2156.1519883350061
 20
2146.3202245686189
 40
2.5000000000004547
 50
0.0000000000104271
 51
90.000000000010445
  0
ARC
  8
_0-3_躯体と製品
  6
CONTINUOUS
 62
    3
 10
2168.1519883350074
 20
2145.8202245686198
 40
2.4999999999999996
 50
180
 51
270
  0
LINE
  8
_0-3_躯体と製品
  6
CONTINUOUS
 62
    3
 10
2165.6519883350074
 20
2145.8202245686198
 11
2165.6519883350074
 21
2146.3202245686198
  0
ARC
  8
_0-3_躯体と製品
  6
CONTINUOUS
 62
    3
 10
2168.1519883350074
 20
2146.3202245686198
 40
2.4999999999999996
 50
90
 51
180
  0
ARC
  8
_0-3_躯体と製品
  6
CONTINUOUS
 62
    3
 10
2156.1519883350061
 20
2131.8202245686189
 40
2.5000000000004547
 50
269.9999999999896
 51
359.9999999999896
  0
LINE
  8
_0-3_躯体と製品
  6
CONTINUOUS
 62
    3
 10
2158.6519883350065
 20
2131.8202245686189
 11
2158.6519883350065
 21
2132.3202245686189
  0
ARC
  8
_0-3_躯体と製品
  6
CONTINUOUS
 62
    3
 10
2156.1519883350061
 20
2132.320224568618
 40
2.5000000000004547
 50
0.0000000000104271
 51
90.000000000010445
  0
ARC
  8
_0-3_躯体と製品
  6
CONTINUOUS
 62
    3
 10
2168.1519883350074
 20
2131.8202245686189
 40
2.4999999999999996
 50
180
 51
270
  0
LINE
  8
_0-3_躯体と製品
  6
CONTINUOUS
 62
    3
 10
2165.6519883350074
 20
2131.8202245686189
 11
2165.6519883350074
 21
2132.3202245686189
  0
ARC
  8
_0-3_躯体と製品
  6
CONTINUOUS
 62
    3
 10
2168.1519883350074
 20
2132.3202245686189
 40
2.4999999999999996
 50
90
 51
180
  0
ARC
  8
_0-3_躯体と製品
  6
CONTINUOUS
 62
    3
 10
2133.6519883350065
 20
2174.3202245686189
 40
2.4999999999999996
 50
90
 51
180
  0
LINE
  8
_0-3_躯体と製品
  6
CONTINUOUS
 62
    3
 10
2131.1519883350065
 20
2174.3202245686189
 11
2131.1519883350065
 21
2173.8202245686198
  0
ARC
  8
_0-3_躯体と製品
  6
CONTINUOUS
 62
    3
 10
2133.6519883350065
 20
2173.8202245686198
 40
2.4999999999999996
 50
180
 51
270
  0
ARC
  8
_0-3_躯体と製品
  6
CONTINUOUS
 62
    3
 10
2133.6519883350065
 20
2160.3202245686198
 40
2.4999999999999996
 50
90
 51
180
  0
LINE
  8
_0-3_躯体と製品
  6
CONTINUOUS
 62
    3
 10
2131.1519883350065
 20
2160.3202245686198
 11
2131.1519883350065
 21
2159.8202245686189
  0
ARC
  8
_0-3_躯体と製品
  6
CONTINUOUS
 62
    3
 10
2133.6519883350065
 20
2159.8202245686189
 40
2.4999999999999996
 50
180
 51
270
  0
ARC
  8
_0-3_躯体と製品
  6
CONTINUOUS
 62
    3
 10
2133.6519883350065
 20
2146.3202245686198
 40
2.4999999999999996
 50
90
 51
180
  0
LINE
  8
_0-3_躯体と製品
  6
CONTINUOUS
 62
    3
 10
2131.1519883350065
 20
2146.3202245686198
 11
2131.1519883350065
 21
2145.8202245686198
  0
ARC
  8
_0-3_躯体と製品
  6
CONTINUOUS
 62
    3
 10
2133.6519883350065
 20
2145.8202245686198
 40
2.4999999999999996
 50
180
 51
270
  0
ARC
  8
_0-3_躯体と製品
  6
CONTINUOUS
 62
    3
 10
2133.6519883350065
 20
2132.3202245686189
 40
2.4999999999999996
 50
90
 51
180
  0
LINE
  8
_0-3_躯体と製品
  6
CONTINUOUS
 62
    3
 10
2131.1519883350065
 20
2132.3202245686189
 11
2131.1519883350065
 21
2131.8202245686189
  0
ARC
  8
_0-3_躯体と製品
  6
CONTINUOUS
 62
    3
 10
2133.6519883350065
 20
2131.8202245686189
 40
2.4999999999999996
 50
180
 51
270
  0
LINE
  8
_0-3_躯体と製品
  6
CONTINUOUS
 62
    3
 10
2133.6519883350065
 20
2171.3202245686198
 11
2156.1519883350056
 21
2171.3202245686198
  0
LINE
  8
_0-3_躯体と製品
  6
CONTINUOUS
 62
    3
 10
2156.1519883350056
 20
2176.8202245686189
 11
2133.6519883350065
 21
2176.8202245686189
  0
LINE
  8
_0-3_躯体と製品
  6
CONTINUOUS
 62
    3
 10
2133.6519883350065
 20
2157.3202245686189
 11
2156.1519883350056
 21
2157.3202245686189
  0
LINE
  8
_0-3_躯体と製品
  6
CONTINUOUS
 62
    3
 10
2156.1519883350056
 20
2162.8202245686198
 11
2133.6519883350065
 21
2162.8202245686198
  0
LINE
  8
_0-3_躯体と製品
  6
CONTINUOUS
 62
    3
 10
2133.6519883350065
 20
2143.3202245686198
 11
2156.1519883350056
 21
2143.3202245686198
  0
LINE
  8
_0-3_躯体と製品
  6
CONTINUOUS
 62
    3
 10
2156.1519883350056
 20
2148.8202245686198
 11
2133.6519883350065
 21
2148.8202245686198
  0
LINE
  8
_0-3_躯体と製品
  6
CONTINUOUS
 62
    3
 10
2133.6519883350065
 20
2129.3202245686189
 11
2156.1519883350056
 21
2129.3202245686189
  0
LINE
  8
_0-3_躯体と製品
  6
CONTINUOUS
 62
    3
 10
2156.1519883350056
 20
2134.8202245686189
 11
2133.6519883350065
 21
2134.8202245686189
  0
ARC
  8
_0-3_躯体と製品
  6
CONTINUOUS
 62
    3
 10
2156.1519883350061
 20
2117.8202245686198
 40
2.5000000000004547
 50
269.9999999999896
 51
359.9999999999896
  0
LINE
  8
_0-3_躯体と製品
  6
CONTINUOUS
 62
    3
 10
2158.6519883350065
 20
2117.8202245686198
 11
2158.6519883350065
 21
2118.3202245686198
  0
ARC
  8
_0-3_躯体と製品
  6
CONTINUOUS
 62
    3
 10
2156.1519883350061
 20
2118.3202245686189
 40
2.5000000000004547
 50
0.0000000000104271
 51
90.000000000010445
  0
ARC
  8
_0-3_躯体と製品
  6
CONTINUOUS
 62
    3
 10
2168.1519883350074
 20
2117.8202245686198
 40
2.4999999999999996
 50
180
 51
270
  0
LINE
  8
_0-3_躯体と製品
  6
CONTINUOUS
 62
    3
 10
2165.6519883350074
 20
2117.8202245686198
 11
2165.6519883350074
 21
2118.3202245686198
  0
ARC
  8
_0-3_躯体と製品
  6
CONTINUOUS
 62
    3
 10
2168.1519883350074
 20
2118.3202245686198
 40
2.4999999999999996
 50
90
 51
180
  0
ARC
  8
_0-3_躯体と製品
  6
CONTINUOUS
 62
    3
 10
2156.1519883350061
 20
2103.8202245686198
 40
2.5000000000004547
 50
269.9999999999896
 51
359.9999999999896
  0
LINE
  8
_0-3_躯体と製品
  6
CONTINUOUS
 62
    3
 10
2158.6519883350065
 20
2103.8202245686198
 11
2158.6519883350065
 21
2104.3202245686189
  0
ARC
  8
_0-3_躯体と製品
  6
CONTINUOUS
 62
    3
 10
2156.1519883350061
 20
2104.320224568618
 40
2.5000000000004547
 50
0.0000000000104271
 51
90.000000000010445
  0
ARC
  8
_0-3_躯体と製品
  6
CONTINUOUS
 62
    3
 10
2168.1519883350074
 20
2103.8202245686198
 40
2.4999999999999996
 50
180
 51
270
  0
LINE
  8
_0-3_躯体と製品
  6
CONTINUOUS
 62
    3
 10
2165.6519883350074
 20
2103.8202245686198
 11
2165.6519883350074
 21
2104.3202245686189
  0
ARC
  8
_0-3_躯体と製品
  6
CONTINUOUS
 62
    3
 10
2168.1519883350074
 20
2104.3202245686189
 40
2.4999999999999996
 50
90
 51
180
  0
ARC
  8
_0-3_躯体と製品
  6
CONTINUOUS
 62
    3
 10
2133.6519883350065
 20
2118.3202245686198
 40
2.4999999999999996
 50
90
 51
180
  0
LINE
  8
_0-3_躯体と製品
  6
CONTINUOUS
 62
    3
 10
2131.1519883350065
 20
2118.3202245686198
 11
2131.1519883350065
 21
2117.8202245686198
  0
ARC
  8
_0-3_躯体と製品
  6
CONTINUOUS
 62
    3
 10
2133.6519883350065
 20
2117.8202245686198
 40
2.4999999999999996
 50
180
 51
270
  0
ARC
  8
_0-3_躯体と製品
  6
CONTINUOUS
 62
    3
 10
2133.6519883350065
 20
2104.3202245686189
 40
2.4999999999999996
 50
90
 51
180
  0
LINE
  8
_0-3_躯体と製品
  6
CONTINUOUS
 62
    3
 10
2131.1519883350065
 20
2104.3202245686189
 11
2131.1519883350065
 21
2103.8202245686198
  0
ARC
  8
_0-3_躯体と製品
  6
CONTINUOUS
 62
    3
 10
2133.6519883350065
 20
2103.8202245686198
 40
2.4999999999999996
 50
180
 51
270
  0
LINE
  8
_0-3_躯体と製品
  6
CONTINUOUS
 62
    3
 10
2133.6519883350065
 20
2115.3202245686198
 11
2156.1519883350056
 21
2115.3202245686198
  0
LINE
  8
_0-3_躯体と製品
  6
CONTINUOUS
 62
    3
 10
2156.1519883350056
 20
2120.8202245686198
 11
2133.6519883350065
 21
2120.8202245686198
  0
LINE
  8
_0-3_躯体と製品
  6
CONTINUOUS
 62
    3
 10
2133.6519883350065
 20
2101.3202245686198
 11
2156.1519883350056
 21
2101.3202245686198
  0
LINE
  8
_0-3_躯体と製品
  6
CONTINUOUS
 62
    3
 10
2156.1519883350056
 20
2106.8202245686189
 11
2133.6519883350065
 21
2106.8202245686189
  0
LINE
  8
_0-3_躯体と製品
  6
CONTINUOUS
 62
    3
 10
2190.6519883350065
 20
2171.3202245686198
 11
2168.1519883350074
 21
2171.3202245686198
  0
LINE
  8
_0-3_躯体と製品
  6
CONTINUOUS
 62
    3
 10
2168.1519883350074
 20
2176.8202245686189
 11
2190.6519883350065
 21
2176.8202245686189
  0
LINE
  8
_0-3_躯体と製品
  6
CONTINUOUS
 62
    3
 10
2190.6519883350065
 20
2157.3202245686189
 11
2168.1519883350074
 21
2157.3202245686189
  0
LINE
  8
_0-3_躯体と製品
  6
CONTINUOUS
 62
    3
 10
2168.1519883350074
 20
2162.8202245686198
 11
2190.6519883350065
 21
2162.8202245686198
  0
LINE
  8
_0-3_躯体と製品
  6
CONTINUOUS
 62
    3
 10
2190.6519883350065
 20
2143.3202245686198
 11
2168.1519883350074
 21
2143.3202245686198
  0
LINE
  8
_0-3_躯体と製品
  6
CONTINUOUS
 62
    3
 10
2168.1519883350074
 20
2148.8202245686198
 11
2190.6519883350065
 21
2148.8202245686198
  0
LINE
  8
_0-3_躯体と製品
  6
CONTINUOUS
 62
    3
 10
2190.6519883350065
 20
2129.3202245686189
 11
2168.1519883350074
 21
2129.3202245686189
  0
LINE
  8
_0-3_躯体と製品
  6
CONTINUOUS
 62
    3
 10
2168.1519883350074
 20
2134.8202245686189
 11
2190.6519883350065
 21
2134.8202245686189
  0
LINE
  8
_0-3_躯体と製品
  6
CONTINUOUS
 62
    3
 10
2190.6519883350065
 20
2115.3202245686198
 11
2168.1519883350074
 21
2115.3202245686198
  0
LINE
  8
_0-3_躯体と製品
  6
CONTINUOUS
 62
    3
 10
2168.1519883350074
 20
2120.8202245686198
 11
2190.6519883350065
 21
2120.8202245686198
  0
LINE
  8
_0-3_躯体と製品
  6
CONTINUOUS
 62
    3
 10
2190.6519883350065
 20
2101.3202245686198
 11
2168.1519883350074
 21
2101.3202245686198
  0
LINE
  8
_0-3_躯体と製品
  6
CONTINUOUS
 62
    3
 10
2168.1519883350074
 20
2106.8202245686189
 11
2190.6519883350065
 21
2106.8202245686189
  0
LINE
  8
_0-3_躯体と製品
  6
CONTINUOUS
 62
    3
 10
2271.6519883350056
 20
2227.3202245686189
 11
2249.1519883350065
 21
2227.3202245686189
  0
LINE
  8
_0-3_躯体と製品
  6
CONTINUOUS
 62
    3
 10
2249.1519883350065
 20
2232.8202245686198
 11
2271.6519883350056
 21
2232.8202245686198
  0
LINE
  8
_0-3_躯体と製品
  6
CONTINUOUS
 62
    3
 10
2271.6519883350056
 20
2213.3202245686198
 11
2249.1519883350065
 21
2213.3202245686198
  0
LINE
  8
_0-3_躯体と製品
  6
CONTINUOUS
 62
    3
 10
2249.1519883350065
 20
2218.8202245686198
 11
2271.6519883350056
 21
2218.8202245686198
  0
LINE
  8
_0-3_躯体と製品
  6
CONTINUOUS
 62
    3
 10
2271.6519883350056
 20
2199.3202245686189
 11
2249.1519883350065
 21
2199.3202245686189
  0
LINE
  8
_0-3_躯体と製品
  6
CONTINUOUS
 62
    3
 10
2249.1519883350065
 20
2204.8202245686189
 11
2271.6519883350056
 21
2204.8202245686189
  0
LINE
  8
_0-3_躯体と製品
  6
CONTINUOUS
 62
    3
 10
2271.6519883350056
 20
2185.3202245686198
 11
2249.1519883350065
 21
2185.3202245686198
  0
LINE
  8
_0-3_躯体と製品
  6
CONTINUOUS
 62
    3
 10
2249.1519883350065
 20
2190.8202245686198
 11
2271.6519883350056
 21
2190.8202245686198
  0
LINE
  8
_0-3_躯体と製品
  6
CONTINUOUS
 62
    3
 10
2271.6519883350056
 20
2171.3202245686198
 11
2249.1519883350065
 21
2171.3202245686198
  0
LINE
  8
_0-3_躯体と製品
  6
CONTINUOUS
 62
    3
 10
2249.1519883350065
 20
2176.8202245686189
 11
2271.6519883350056
 21
2176.8202245686189
  0
LINE
  8
_0-3_躯体と製品
  6
CONTINUOUS
 62
    3
 10
2271.6519883350056
 20
2157.3202245686189
 11
2249.1519883350065
 21
2157.3202245686189
  0
LINE
  8
_0-3_躯体と製品
  6
CONTINUOUS
 62
    3
 10
2249.1519883350065
 20
2162.8202245686198
 11
2271.6519883350056
 21
2162.8202245686198
  0
LINE
  8
_0-3_躯体と製品
  6
CONTINUOUS
 62
    3
 10
2271.6519883350056
 20
2143.3202245686198
 11
2249.1519883350065
 21
2143.3202245686198
  0
LINE
  8
_0-3_躯体と製品
  6
CONTINUOUS
 62
    3
 10
2249.1519883350065
 20
2148.8202245686198
 11
2271.6519883350056
 21
2148.8202245686198
  0
LINE
  8
_0-3_躯体と製品
  6
CONTINUOUS
 62
    3
 10
2271.6519883350056
 20
2129.3202245686189
 11
2249.1519883350065
 21
2129.3202245686189
  0
LINE
  8
_0-3_躯体と製品
  6
CONTINUOUS
 62
    3
 10
2249.1519883350065
 20
2134.8202245686189
 11
2271.6519883350056
 21
2134.8202245686189
  0
LINE
  8
_0-3_躯体と製品
  6
CONTINUOUS
 62
    3
 10
2271.6519883350056
 20
2115.3202245686198
 11
2249.1519883350065
 21
2115.3202245686198
  0
LINE
  8
_0-3_躯体と製品
  6
CONTINUOUS
 62
    3
 10
2249.1519883350065
 20
2120.8202245686198
 11
2271.6519883350056
 21
2120.8202245686198
  0
LINE
  8
_0-3_躯体と製品
  6
CONTINUOUS
 62
    3
 10
2271.6519883350056
 20
2101.3202245686198
 11
2249.1519883350065
 21
2101.3202245686198
  0
LINE
  8
_0-3_躯体と製品
  6
CONTINUOUS
 62
    3
 10
2249.1519883350065
 20
2106.8202245686189
 11
2271.6519883350056
 21
2106.8202245686189
  0
LINE
  8
_0-3_躯体と製品
  6
CONTINUOUS
 62
    3
 10
1865.1519883350056
 20
2017.0182845686186
 11
1890.1519883350056
 21
2017.0182845686186
  0
LINE
  8
_0-3_躯体と製品
  6
CONTINUOUS
 62
    3
 10
1890.1519883350056
 20
2248.7076145686196
 11
1890.1519883350056
 21
1989.7698545686196
  0
LINE
  8
_0-3_躯体と製品
  6
CONTINUOUS
 62
    3
 10
1803.550588335007
 20
2003.5881045686206
 11
1865.1519883350056
 21
2065.1895045686197
  0
LINE
  8
_0-3_躯体と製品
  6
CONTINUOUS
 62
    3
 10
1803.550588335007
 20
1989.4459745686195
 11
1865.1519883350056
 21
2051.0473745686204
  0
LINE
  8
_0-3_躯体と製品
  6
CONTINUOUS
 62
    3
 10
1865.1519883350056
 20
2079.3316445686196
 11
1803.550588335007
 21
2017.7302445686196
  0
LINE
  8
_0-3_躯体と製品
  6
CONTINUOUS
 62
    4
 10
2322.6519883350047
 20
1849.0182845686206
 11
2322.6519883350047
 21
1867.0182845686206
  0
LINE
  8
_0-3_躯体と製品
  6
CONTINUOUS
 62
    4
 10
2302.6519883350065
 20
1867.0182845686206
 11
2302.6519883350065
 21
1849.0182845686206
  0
LINE
  8
_0-3_躯体と製品
  6
CONTINUOUS
 62
    4
 10
2302.6519883350065
 20
1849.0182845686206
 11
2322.6519883350047
 21
1849.0182845686206
  0
LINE
  8
_0-3_躯体と製品
  6
CONTINUOUS
 62
    6
 10
2302.6519883350065
 20
1849.8111445686195
 11
2319.8591283350052
 21
1867.0182845686206
  0
LINE
  8
_0-3_躯体と製品
  6
CONTINUOUS
 62
    6
 10
2302.6519883350065
 20
1856.8822145686206
 11
2312.7880583350052
 21
1867.0182845686206
  0
LINE
  8
_0-3_躯体と製品
  6
CONTINUOUS
 62
    6
 10
2302.6519883350065
 20
1863.9532745686206
 11
2305.716988335008
 21
1867.0182845686206
  0
LINE
  8
_0-3_躯体と製品
  6
CONTINUOUS
 62
    6
 10
2308.9301983350069
 20
1849.0182845686206
 11
2322.6519883350047
 21
1862.7400745686186
  0
LINE
  8
_0-3_躯体と製品
  6
CONTINUOUS
 62
    6
 10
2316.0012596420729
 20
1849.0182845686206
 11
2322.6519883350047
 21
1855.6690045686196
  0
LINE
  8
_0-3_躯体と製品
  6
CONTINUOUS
 62
    4
 10
2282.6516883350068
 20
1834.0182845686206
 11
2282.6516883350068
 21
1852.5182845686206
  0
LINE
  8
_0-3_躯体と製品
  6
CONTINUOUS
 62
    4
 10
2282.6516883350068
 20
1852.5182845686206
 11
2282.6516883350068
 21
1859.0182845686195
  0
LINE
  8
_0-3_躯体と製品
  6
CONTINUOUS
 62
    4
 10
2282.6516883350068
 20
1860.5182845686206
 11
2282.6516883350068
 21
1864.0182845686195
  0
LINE
  8
_0-3_躯体と製品
  6
CONTINUOUS
 62
    4
 10
2282.6516883350068
 20
1860.5182845686206
 11
2279.6516883350068
 21
1860.5182845686206
  0
LINE
  8
_0-3_躯体と製品
  6
CONTINUOUS
 62
    4
 10
2279.6516883350068
 20
1860.5182845686206
 11
2279.6516883350068
 21
1859.0182845686195
  0
LINE
  8
_0-3_躯体と製品
  6
CONTINUOUS
 62
    4
 10
2279.6516883350068
 20
1859.0182845686195
 11
2282.6516883350068
 21
1859.0182845686195
  0
LINE
  8
_0-3_躯体と製品
  6
CONTINUOUS
 62
    4
 10
2299.6519883350065
 20
1854.5182845686206
 11
2285.6516883350059
 21
1854.5182845686206
  0
LINE
  8
_0-3_躯体と製品
  6
CONTINUOUS
 62
    4
 10
2285.6516883350059
 20
1854.5182845686206
 11
2285.6516883350059
 21
1864.0182845686195
  0
LINE
  8
_0-3_躯体と製品
  6
CONTINUOUS
 62
    4
 10
2285.6516883350059
 20
1864.0182845686195
 11
2299.6519883350065
 21
1864.0182845686195
  0
LINE
  8
_0-3_躯体と製品
  6
CONTINUOUS
 62
    4
 10
2299.6519883350065
 20
1864.0182845686195
 11
2299.6519883350065
 21
1854.5182845686206
  0
LINE
  8
_0-3_躯体と製品
  6
CONTINUOUS
 62
    4
 10
2302.6519883350065
 20
1852.5182845686206
 11
2282.6516883350068
 21
1852.5182845686206
  0
LINE
  8
_0-3_躯体と製品
  6
CONTINUOUS
 62
    4
 10
2206.6519883350074
 20
1861.5182845686195
 11
2206.6519883350074
 21
1859.5182845686206
  0
LINE
  8
_0-3_躯体と製品
  6
CONTINUOUS
 62
    4
 10
2198.6519883350065
 20
1861.5182845686195
 11
2198.6519883350065
 21
1859.5182845686206
  0
LINE
  8
_0-3_躯体と製品
  6
CONTINUOUS
 62
    4
 10
2198.6519883350065
 20
1850.0182845686206
 11
2206.6519883350074
 21
1850.0182845686206
  0
LINE
  8
_0-3_躯体と製品
  6
CONTINUOUS
 62
    4
 10
2203.6519883350065
 20
1859.5182845686206
 11
2206.6519883350074
 21
1859.5182845686206
  0
LINE
  8
_0-3_躯体と製品
  6
CONTINUOUS
 62
    4
 10
2203.6519883350065
 20
1852.0182845686206
 11
2203.6519883350065
 21
1859.5182845686206
  0
LINE
  8
_0-3_躯体と製品
  6
CONTINUOUS
 62
    4
 10
2201.6519883350074
 20
1859.5182845686206
 11
2201.6519883350074
 21
1852.0182845686206
  0
LINE
  8
_0-3_躯体と製品
  6
CONTINUOUS
 62
    4
 10
2198.6519883350065
 20
1859.5182845686206
 11
2201.6519883350074
 21
1859.5182845686206
  0
LINE
  8
_0-3_躯体と製品
  6
CONTINUOUS
 62
    4
 10
2201.6519883350074
 20
1861.5182845686195
 11
2198.6519883350065
 21
1861.5182845686195
  0
LINE
  8
_0-3_躯体と製品
  6
CONTINUOUS
 62
    4
 10
2201.6519883350074
 20
1864.0182845686195
 11
2201.6519883350074
 21
1861.5182845686195
  0
LINE
  8
_0-3_躯体と製品
  6
CONTINUOUS
 62
    4
 10
2203.6519883350065
 20
1861.5182845686195
 11
2206.6519883350074
 21
1861.5182845686195
  0
LINE
  8
_0-3_躯体と製品
  6
CONTINUOUS
 62
    4
 10
2203.6519883350065
 20
1864.0182845686195
 11
2203.6519883350065
 21
1861.5182845686195
  0
LINE
  8
_0-3_躯体と製品
  6
CONTINUOUS
 62
    4
 10
2206.6519883350074
 20
1852.0182845686206
 11
2206.6519883350074
 21
1850.0182845686206
  0
LINE
  8
_0-3_躯体と製品
  6
CONTINUOUS
 62
    4
 10
2198.6519883350065
 20
1852.0182845686206
 11
2198.6519883350065
 21
1850.0182845686206
  0
LINE
  8
_0-3_躯体と製品
  6
CONTINUOUS
 62
    4
 10
2203.6519883350065
 20
1852.0182845686206
 11
2206.6519883350074
 21
1852.0182845686206
  0
LINE
  8
_0-3_躯体と製品
  6
CONTINUOUS
 62
    4
 10
2201.6519883350074
 20
1852.0182845686206
 11
2198.6519883350065
 21
1852.0182845686206
  0
LINE
  8
_0-3_躯体と製品
  6
CONTINUOUS
 62
    4
 10
2122.6522883350071
 20
1834.0182845686206
 11
2122.6522883350071
 21
1852.5182845686206
  0
LINE
  8
_0-3_躯体と製品
  6
CONTINUOUS
 62
    4
 10
2122.6522883350071
 20
1860.5182845686206
 11
2125.6522883350053
 21
1860.5182845686206
  0
LINE
  8
_0-3_躯体と製品
  6
CONTINUOUS
 62
    4
 10
2125.6522883350053
 20
1860.5182845686206
 11
2125.6522883350053
 21
1859.0182845686195
  0
LINE
  8
_0-3_躯体と製品
  6
CONTINUOUS
 62
    4
 10
2125.6522883350053
 20
1859.0182845686195
 11
2122.6522883350071
 21
1859.0182845686195
  0
LINE
  8
_0-3_躯体と製品
  6
CONTINUOUS
 62
    4
 10
2119.652288335009
 20
1854.5182845686206
 11
2119.652288335009
 21
1864.0182845686195
  0
LINE
  8
_0-3_躯体と製品
  6
CONTINUOUS
 62
    4
 10
2122.6522883350071
 20
1852.5182845686206
 11
2122.6522883350071
 21
1859.0182845686195
  0
LINE
  8
_0-3_躯体と製品
  6
CONTINUOUS
 62
    4
 10
2122.6522883350071
 20
1860.5182845686206
 11
2122.6522883350071
 21
1864.0182845686195
  0
LINE
  8
_0-3_躯体と製品
  6
CONTINUOUS
 62
    4
 10
2122.6522883350071
 20
1864.0182845686195
 11
2201.6519883350074
 21
1864.0182845686195
  0
LINE
  8
_0-3_躯体と製品
  6
CONTINUOUS
 62
    4
 10
2082.6519883350056
 20
1849.0182845686206
 11
2082.6519883350056
 21
1867.0182845686206
  0
LINE
  8
_0-3_躯体と製品
  6
CONTINUOUS
 62
    4
 10
2102.6519883350056
 20
1867.0182845686206
 11
2102.6519883350065
 21
1849.0182845686206
  0
LINE
  8
_0-3_躯体と製品
  6
CONTINUOUS
 62
    4
 10
2102.6519883350065
 20
1849.0182845686206
 11
2082.6519883350056
 21
1849.0182845686206
  0
LINE
  8
_0-3_躯体と製品
  6
CONTINUOUS
 62
    4
 10
2105.6519883350074
 20
1864.0182845686195
 11
2105.6519883350074
 21
1854.5182845686206
  0
LINE
  8
_0-3_躯体と製品
  6
CONTINUOUS
 62
    6
 10
2082.6519883350056
 20
1849.8111445686195
 11
2099.8591283350052
 21
1867.0182845686206
  0
LINE
  8
_0-3_躯体と製品
  6
CONTINUOUS
 62
    6
 10
2088.9301983350069
 20
1849.0182845686206
 11
2102.6519883350056
 21
1862.7400745686186
  0
LINE
  8
_0-3_躯体と製品
  6
CONTINUOUS
 62
    6
 10
2096.0012596420729
 20
1849.0182845686215
 11
2102.6519883350056
 21
1855.6690045686196
  0
LINE
  8
_0-3_躯体と製品
  6
CONTINUOUS
 62
    6
 10
2082.6519883350056
 20
1856.8822145686206
 11
2092.7880583350079
 21
1867.0182845686206
  0
LINE
  8
_0-3_躯体と製品
  6
CONTINUOUS
 62
    6
 10
2082.6519883350056
 20
1863.9532745686206
 11
2085.7169883350061
 21
1867.0182845686206
  0
LINE
  8
_0-3_躯体と製品
  6
CONTINUOUS
 62
    4
 10
2102.6519883350056
 20
1852.5182845686206
 11
2122.6522883350071
 21
1852.5182845686206
  0
LINE
  8
_0-3_躯体と製品
  6
CONTINUOUS
 62
    4
 10
2105.6519883350074
 20
1854.5182845686206
 11
2119.652288335009
 21
1854.5182845686206
  0
LINE
  8
_0-3_躯体と製品
  6
CONTINUOUS
 62
    4
 10
2119.652288335009
 20
1864.0182845686195
 11
2105.6519883350074
 21
1864.0182845686195
  0
LINE
  8
_0-3_躯体と製品
  6
CONTINUOUS
 62
    4
 10
2083.0088783350056
 20
2054.0702245686198
 11
2323.0088783350056
 21
2054.0702245686198
  0
LINE
  8
_0-3_躯体と製品
  6
CONTINUOUS
 62
    4
 10
2102.6519883350056
 20
2074.0702245686198
 11
2302.6519883350065
 21
2074.0702245686198
  0
LINE
  8
_0-3_躯体と製品
  6
CONTINUOUS
 62
    4
 10
2282.6519883350056
 20
1864.0182845686195
 11
2203.6519883350065
 21
1864.0182845686195
  0
LINE
  8
_0-3_躯体と製品
  6
CONTINUOUS
 62
    3
 10
2457.9081183350054
 20
1319.5590245686201
 11
2505.3673883350057
 21
1367.0182845686206
  0
LINE
  8
_0-3_躯体と製品
  6
CONTINUOUS
 62
    3
 10
2443.765988335007
 20
1319.5590245686201
 11
2491.2252483350048
 21
1367.0182845686206
  0
LINE
  8
_0-3_躯体と製品
  6
CONTINUOUS
 62
    3
 10
2477.0831083350049
 20
1367.0182845686206
 11
2429.6238483350035
 21
1319.5590245686201
  0
LINE
  8
_0-3_躯体と製品
  6
CONTINUOUS
 62
    3
 10
1865.1519883350056
 20
1963.8505445686205
 11
1890.1519883350056
 21
1963.8505445686205
  0
LINE
  8
_0-3_躯体と製品
  6
CONTINUOUS
 62
    3
 10
1865.1519883350056
 20
1943.8505445686196
 11
1890.1519883350056
 21
1943.8505445686196
  0
LINE
  8
_0-3_躯体と製品
  6
CONTINUOUS
 62
    3
 10
1865.1519883350056
 20
1890.5072345686197
 11
1890.1519883350056
 21
1890.5072345686197
  0
LINE
  8
_0-3_躯体と製品
  6
CONTINUOUS
 62
    3
 10
1865.1519883350056
 20
1943.8505445686196
 11
1890.1519883350056
 21
1890.5072345686197
  0
LINE
  8
_0-3_躯体と製品
  6
CONTINUOUS
 62
    4
 10
1890.1519883350056
 20
1805.0182845686206
 11
1890.1519883350056
 21
1849.0182845686206
  0
LINE
  8
_0-3_躯体と製品
  6
CONTINUOUS
 62
    3
 10
1803.550588335007
 20
1675.6877945686203
 11
1865.1519883350056
 21
1737.2891945686201
  0
LINE
  8
_0-3_躯体と製品
  6
CONTINUOUS
 62
    3
 10
1803.550588335007
 20
1661.5456645686202
 11
1865.1519883350056
 21
1723.1470645686206
  0
LINE
  8
_0-3_躯体と製品
  6
CONTINUOUS
 62
    3
 10
1865.1519883350056
 20
1751.4313345686198
 11
1803.550588335007
 21
1689.8299345686203
  0
LINE
  8
_0-3_躯体と製品
  6
CONTINUOUS
 62
    3
 10
2095.6511783350052
 20
1319.5590245686201
 11
2143.1104383350048
 21
1367.0182845686206
  0
LINE
  8
_0-3_躯体と製品
  6
CONTINUOUS
 62
    3
 10
2128.9683083350074
 20
1367.0182845686206
 11
2081.5090383350052
 21
1319.5590245686201
  0
LINE
  8
_0-3_躯体と製品
  6
CONTINUOUS
 62
    3
 10
1803.550588335007
 20
1404.6596245686194
 11
1865.1519883350056
 21
1466.2610245686203
  0
LINE
  8
_0-3_躯体と製品
  6
CONTINUOUS
 62
    3
 10
1803.550588335007
 20
1390.5174945686206
 11
1865.1519883350056
 21
1452.1188945686201
  0
LINE
  8
_0-3_躯体と製品
  6
CONTINUOUS
 62
    3
 10
1865.1519883350056
 20
1480.4031645686202
 11
1803.550588335007
 21
1418.8017645686207
  0
LINE
  8
_0-3_躯体と製品
  6
CONTINUOUS
 62
    3
 10
2109.7933083350053
 20
1319.5590245686201
 11
2157.2525783350056
 21
1367.0182845686206
  0
LINE
  8
_0-3_躯体と製品
  6
CONTINUOUS
 62
    4
 10
1865.1519883350056
 20
2248.7076145686196
 11
1865.1519883350056
 21
1367.0182845686206
  0
LINE
  8
_0-3_躯体と製品
  6
CONTINUOUS
 62
    3
 10
1890.1519883350056
 20
1963.8505445686205
 11
1865.1519883350056
 21
2017.0182845686186
  0
LINE
  8
_0-3_躯体と製品
  6
CONTINUOUS
 62
    4
 10
2083.0088783350056
 20
2248.7076145686196
 11
2083.0088783350056
 21
2054.0702245686198
  0
LINE
  8
_0-3_躯体と製品
  6
CONTINUOUS
 62
    4
 10
2323.0088783350056
 20
2054.0702245686198
 11
2323.0088783350056
 21
2248.7076145686196
  0
LINE
  8
_0-3_躯体と製品
  6
CONTINUOUS
 62
    4
 10
2102.6519883350056
 20
2248.7076145686196
 11
2102.6519883350056
 21
2074.0702245686198
  0
LINE
  8
_0-3_躯体と製品
  6
CONTINUOUS
 62
    4
 10
2302.6519883350065
 20
2074.0702245686198
 11
2302.6519883350065
 21
2248.7076145686196
  0
LINE
  8
_0-3_躯体と製品
  6
CONTINUOUS
 62
    4
 10
1865.1519883350056
 20
1367.0182845686206
 11
3188.7726983350067
 21
1367.0182845686206
  0
LINE
  8
_0-3_躯体と製品
  6
CONTINUOUS
 62
    3
 10
1039.123835086928
 20
1319.5590245686201
 11
1086.5830950869276
 21
1367.0182845686206
  0
LINE
  8
_0-3_躯体と製品
  6
CONTINUOUS
 62
    3
 10
1053.2659650869273
 20
1319.5590245686201
 11
1100.7252250869278
 21
1367.0182845686206
  0
LINE
  8
_0-3_躯体と製品
  6
CONTINUOUS
 62
    3
 10
1072.4409550869295
 20
1367.0182845686206
 11
1024.981695086929
 21
1319.5590245686201
  0
LINE
  8
_0-3_躯体と製品
  6
CONTINUOUS
 62
    3
 10
648.79804508692723
 20
1319.5590245686201
 11
696.25730508692868
 21
1367.0182845686206
  0
LINE
  8
_0-3_躯体と製品
  6
CONTINUOUS
 62
    3
 10
662.94018508692716
 20
1319.5590245686201
 11
710.3994450869277
 21
1367.0182845686206
  0
LINE
  8
_0-3_躯体と製品
  6
CONTINUOUS
 62
    3
 10
682.1151750869285
 20
1367.0182845686206
 11
634.65591508692796
 21
1319.5590245686201
  0
LINE
  8
_0-3_躯体と製品
  6
CONTINUOUS
 62
    4
 10
528.62741508692852
 20
1367.0182845686206
 11
1349.1853850869284
 21
1367.0182845686209
  0
LINE
  8
_0-3_躯体と製品
  6
CONTINUOUS
 62
    3
 10
-21.574141664995295
 20
2003.5881045686206
 11
40.027258335004262
 21
2065.1895045686197
  0
LINE
  8
_0-3_躯体と製品
  6
CONTINUOUS
 62
    3
 10
-21.574141664995295
 20
1989.4459745686195
 11
40.027258335004262
 21
2051.0473745686204
  0
LINE
  8
_0-3_躯体と製品
  6
CONTINUOUS
 62
    3
 10
40.027258335004262
 20
2079.3316445686196
 11
-21.574141664995295
 21
2017.7302445686196
  0
LINE
  8
_0-3_躯体と製品
  6
CONTINUOUS
 62
    4
 10
65.027258335005172
 20
1805.0182845686215
 11
65.027258335005172
 21
1849.0182845686206
  0
LINE
  8
_0-3_躯体と製品
  6
CONTINUOUS
 62
    3
 10
-21.574141664995295
 20
1675.6877945686203
 11
40.027258335004262
 21
1737.2891945686201
  0
LINE
  8
_0-3_躯体と製品
  6
CONTINUOUS
 62
    3
 10
-21.574141664995295
 20
1661.5456645686202
 11
40.027258335004262
 21
1723.1470645686206
  0
LINE
  8
_0-3_躯体と製品
  6
CONTINUOUS
 62
    3
 10
40.027258335004262
 20
1751.4313345686198
 11
-21.574141664995295
 21
1689.8299345686203
  0
LINE
  8
_0-3_躯体と製品
  6
CONTINUOUS
 62
    3
 10
270.52644833500563
 20
1319.5590245686201
 11
317.98570833500435
 21
1367.0182845686206
  0
LINE
  8
_0-3_躯体と製品
  6
CONTINUOUS
 62
    3
 10
303.84356833500442
 20
1367.0182845686206
 11
256.38430833500388
 21
1319.5590245686201
  0
LINE
  8
_0-3_躯体と製品
  6
CONTINUOUS
 62
    3
 10
-21.574141664995295
 20
1404.6596245686194
 11
40.027258335004262
 21
1466.2610245686203
  0
LINE
  8
_0-3_躯体と製品
  6
CONTINUOUS
 62
    3
 10
-21.574141664995295
 20
1390.5174945686206
 11
40.027258335004262
 21
1452.1188945686201
  0
LINE
  8
_0-3_躯体と製品
  6
CONTINUOUS
 62
    3
 10
40.027258335004262
 20
1480.4031645686202
 11
-21.574141664995295
 21
1418.8017645686207
  0
LINE
  8
_0-3_躯体と製品
  6
CONTINUOUS
 62
    4
 10
40.027258335004262
 20
2248.7076145686196
 11
40.027258335004262
 21
1367.0182845686206
  0
LINE
  8
_0-3_躯体と製品
  6
CONTINUOUS
 62
    4
 10
40.027258335004262
 20
1367.0182845686206
 11
471.42001833500399
 21
1367.0182845686206
  0
LINE
  8
_0-3_躯体と製品
  6
CONTINUOUS
 62
    3
 10
284.6685783350058
 20
1319.5590245686201
 11
332.12784833500518
 21
1367.0182845686206
  0
LINE
  8
_0-3_躯体と製品
  6
CONTINUOUS
 62
    3
 10
1122.4409550869304
 20
151.54036456862036
 11
1074.981695086929
 21
104.08109456862053
  0
LINE
  8
_0-3_躯体と製品
  6
CONTINUOUS
 62
    3
 10
1136.5830950869276
 20
151.54036456862036
 11
1087.2223550869285
 21
102.17962456862028
  0
LINE
  8
_0-3_躯体と製品
  6
CONTINUOUS
 62
    3
 10
1103.2659650869273
 20
104.08109456862053
 11
1150.7252250869278
 21
151.54036456862036
  0
LINE
  8
_0-3_躯体と製品
  6
CONTINUOUS
 62
    3
 10
744.11968508692735
 20
104.08109456862053
 11
791.5789450869288
 21
151.54036456862036
  0
LINE
  8
_0-3_躯体と製品
  6
CONTINUOUS
 62
    3
 10
758.26181508692753
 20
104.08109456862053
 11
805.72108508692691
 21
151.54036456862036
  0
LINE
  8
_0-3_躯体と製品
  6
CONTINUOUS
 62
    3
 10
777.43681508692862
 20
151.54036456862036
 11
729.97754508692833
 21
104.08109456862053
  0
LINE
  8
_0-3_躯体と製品
  6
CONTINUOUS
 62
    3
 10
334.6685783350049
 20
104.08109456862053
 11
382.12784833500427
 21
151.54036456862036
  0
LINE
  8
_0-3_躯体と製品
  6
CONTINUOUS
 62
    4
 10
471.42001833500217
 20
151.54036456862036
 11
40.027258335004262
 21
151.54036456862036
  0
LINE
  8
_0-3_躯体と製品
  6
CONTINUOUS
 62
    4
 10
1416.40302508693
 20
151.54036456862036
 11
528.62741508692761
 21
151.54036456862036
  0
LINE
  8
_0-3_躯体と製品
  6
CONTINUOUS
 62
    3
 10
-21.574141664995295
 20
788.11018456862053
 11
40.027258335004262
 21
849.71158456862008
  0
LINE
  8
_0-3_躯体と製品
  6
CONTINUOUS
 62
    3
 10
-21.574141664995295
 20
773.96805456862035
 11
40.027258335004262
 21
835.56944456862016
  0
LINE
  8
_0-3_躯体と製品
  6
CONTINUOUS
 62
    3
 10
40.027258335004262
 20
863.85372456862046
 11
-21.574141664995295
 21
802.25232456861954
  0
LINE
  8
_0-3_躯体と製品
  6
CONTINUOUS
 62
    4
 10
77.527258335005172
 20
633.54036456862025
 11
77.527258335005172
 21
618.54036456862025
  0
LINE
  8
_0-3_躯体と製品
  6
CONTINUOUS
 62
    4
 10
77.527258335005172
 20
587.54036456862048
 11
77.527258335005172
 21
537.54036456862036
  0
LINE
  8
_0-3_躯体と製品
  6
CONTINUOUS
 62
    3
 10
-21.574141664995295
 20
460.20987456862053
 11
40.027258335004262
 21
521.81127456862009
  0
LINE
  8
_0-3_躯体と製品
  6
CONTINUOUS
 62
    3
 10
-21.574141664995295
 20
446.06774456862036
 11
40.027258335004262
 21
507.66913456862017
  0
LINE
  8
_0-3_躯体と製品
  6
CONTINUOUS
 62
    3
 10
40.027258335004262
 20
535.95340456862027
 11
-21.574141664995295
 21
474.35201456861967
  0
LINE
  8
_0-3_躯体と製品
  6
CONTINUOUS
 62
    3
 10
-21.574141664995295
 20
189.18170456862003
 11
40.027258335004262
 21
250.78310456862005
  0
LINE
  8
_0-3_躯体と製品
  6
CONTINUOUS
 62
    3
 10
-21.574141664995295
 20
175.03957456862054
 11
40.027258335004262
 21
236.6409645686208
  0
LINE
  8
_0-3_躯体と製品
  6
CONTINUOUS
 62
    3
 10
40.027258335004262
 20
264.92523456862023
 11
-21.574141664995295
 21
203.32384456861996
  0
LINE
  8
_0-3_躯体と製品
  6
CONTINUOUS
 62
    4
 10
40.027258335004262
 20
1033.2296945686196
 11
40.027258335004262
 21
151.54036456862036
  0
LINE
  8
_0-3_躯体と製品
  6
CONTINUOUS
 62
    3
 10
367.98570833500435
 20
151.54036456862036
 11
318.62496833500427
 21
102.17962456862028
  0
LINE
  8
_0-3_躯体と製品
  6
CONTINUOUS
 62
    3
 10
353.84356833500442
 20
151.54036456862036
 11
306.38430833500479
 21
104.08109456862053
  0
TEXT
  8
_0-4_文字-記号
 62
    7
 10
844.79999492842217
 20
2378.5806311744936
 40
59.999999850000002
 41
0.8
 50
0
  1
スリーベース２０３標準床組（剣道場用：標準タイプ）
  0
LINE
  8
_0-4_文字-記号
  6
CONTINUOUS
 62
    3
 10
755.80279582839285
 20
2361.9967561089788
 11
755.80279582839285
 21
2463.2000442962785
  0
LINE
  8
_0-4_文字-記号
  6
CONTINUOUS
 62
    3
 10
755.80279582839285
 20
2463.2000442962785
 11
2325.1025047767425
 21
2463.2000442962785
  0
LINE
  8
_0-4_文字-記号
  6
CONTINUOUS
 62
    3
 10
2325.1025047767425
 20
2463.2000442962785
 11
2325.1025047767425
 21
2361.9967561089788
  0
LINE
  8
_0-4_文字-記号
  6
CONTINUOUS
 62
    3
 10
2325.1025047767425
 20
2361.9967561089788
 11
755.80279582839285
 21
2361.9967561089788
  0
LINE
  8
_0-3_躯体と製品
  6
CONTINUOUS
 62
    4
 10
285.52725833500426
 20
475.39821238999855
 11
285.52725833500426
 21
320.38252546787044
  0
LINE
  8
_0-3_躯体と製品
  6
CONTINUOUS
 62
    4
 10
269.52725833500517
 20
475.39821235049772
 11
269.52725833500517
 21
320.38252628412329
  0
LINE
  8
_0-3_躯体と製品
  6
CONTINUOUS
 62
    3
 10
284.02725833500426
 20
475.25018035716948
 11
284.02725833500426
 21
320.53055779310955
  0
LINE
  8
_0-3_躯体と製品
  6
CONTINUOUS
 62
    3
 10
271.02725833500426
 20
475.25018028866521
 11
271.02725833500426
 21
320.53055805354563
  0
LINE
  8
_0-3_躯体と製品
  6
CONTINUOUS
 62
    3
 10
287.52725733499119
 20
598.54039056862075
 11
287.52725733509214
 21
518.79405293232855
  0
LINE
  8
_0-3_躯体と製品
  6
CONTINUOUS
 62
    3
 10
267.52728283508532
 20
518.5401249323163
 11
267.52728283498618
 21
598.54039056860813
  0
LINE
  8
_0-3_躯体と製品
  6
CONTINUOUS
 62
    3
 10
257.52733483498741
 20
598.54039056860813
 11
257.52733483508473
 21
518.79405293231616
  0
LINE
  8
_0-3_躯体と製品
  6
CONTINUOUS
 62
    3
 10
297.52720733509159
 20
518.54012493232858
 11
297.52720733499336
 21
598.54039056862075
  0
LINE
  8
_0-3_躯体と製品
  6
CONTINUOUS
 62
    4
 10
302.52725833498971
 20
604.55316056862057
 11
302.52725833508975
 21
506.24036456862063
  0
LINE
  8
_0-3_躯体と製品
  6
CONTINUOUS
 62
    4
 10
252.52725833500517
 20
604.55316056862057
 11
252.52725833510522
 21
506.24036456862063
  0
LINE
  8
_0-3_躯体と製品
  6
CONTINUOUS
 62
    4
 10
302.52725833508975
 20
506.24036456862063
 11
252.52725833510522
 21
506.24036456862063
  0
LINE
  8
_0-3_躯体と製品
  6
CONTINUOUS
 62
    4
 10
250.52725833510431
 20
508.22835856862071
 11
250.52725833509976
 21
511.24036456862075
  0
LINE
  8
_0-3_躯体と製品
  6
CONTINUOUS
 62
    4
 10
258.94146624051245
 20
505.24036456862075
 11
296.11305042949789
 21
505.24036456862075
  0
ARC
  8
_0-3_躯体と製品
  6
CONTINUOUS
 62
    4
 10
252.51525433510483
 20
508.22835856862071
 40
1.9879939999999439
 50
179.99999999999864
 51
270.34596820554327
  0
ARC
  8
_0-3_躯体と製品
  6
CONTINUOUS
 62
    4
 10
258.941466240512
 20
506.74035656862122
 40
1.4999920000004454
 50
199.47100455758311
 51
270.00000000001472
  0
ARC
  8
_0-3_躯体と製品
  6
CONTINUOUS
 62
    4
 10
296.11305042949743
 20
506.74035656861986
 40
1.4999919999991593
 50
270.00000000002001
 51
340.52899544245167
  0
LINE
  8
_0-3_躯体と製品
  6
CONTINUOUS
 62
    4
 10
252.52725833509976
 20
511.24036456862075
 11
250.52725833509976
 21
511.24036456862075
  0
ARC
  8
_0-3_躯体と製品
  6
CONTINUOUS
 62
    3
 10
262.52730883508525
 20
518.5401249323163
 40
4.9999740000000967
 50
177.08893599999982
 51
0.0000000000002273
  0
ARC
  8
_0-3_躯体と製品
  6
CONTINUOUS
 62
    3
 10
292.52723133509221
 20
518.54012493232858
 40
4.9999740000005524
 50
177.08893599999993
 51
0.0000000000002842
  0
LINE
  8
_0-3_躯体と製品
  6
CONTINUOUS
 62
    4
 10
304.52725833508885
 20
508.22835856862071
 11
304.5272583350843
 21
511.24036456862075
  0
ARC
  8
_0-3_躯体と製品
  6
CONTINUOUS
 62
    4
 10
302.53926433508946
 20
508.22835856862025
 40
1.9879939999994751
 50
269.65397415162175
 51
0.0000000000140071
  0
LINE
  8
_0-3_躯体と製品
  6
CONTINUOUS
 62
    4
 10
302.5272583350843
 20
511.24036456862075
 11
304.5272583350843
 21
511.24036456862075
  0
LINE
  8
_0-3_躯体と製品
  6
CONTINUOUS
 62
    3
 10
297.52720733499336
 20
588.54036456862059
 11
302.52725833498971
 21
588.54036456862059
  0
LINE
  8
_0-3_躯体と製品
  6
CONTINUOUS
 62
    3
 10
297.52720733499336
 20
594.54036456862059
 11
302.52725833498971
 21
594.54036456862059
  0
ARC
  8
_0-3_躯体と製品
  6
CONTINUOUS
 62
    4
 10
298.52716907991226
 20
604.54027531209556
 40
4.0001092565689458
 50
0.0015649416988278
 51
90.000268493686008
  0
LINE
  8
_0-3_躯体と製品
  6
CONTINUOUS
 62
    3
 10
267.52728283498618
 20
588.5403645686082
 11
287.52725733499119
 21
588.54036456862059
  0
LINE
  8
_0-3_躯体と製品
  6
CONTINUOUS
 62
    3
 10
252.52725833500517
 20
588.54036456862059
 11
257.52733483498741
 21
588.5403645686082
  0
LINE
  8
_0-3_躯体と製品
  6
CONTINUOUS
 62
    3
 10
276.1875648414989
 20
594.54036456862059
 11
267.52728283498618
 21
594.5403645686082
  0
LINE
  8
_0-3_躯体と製品
  6
CONTINUOUS
 62
    4
 10
298.53992633500457
 20
608.54036456862059
 11
256.51446233500519
 21
608.54036456862059
  0
LINE
  8
_0-3_躯体と製品
  6
CONTINUOUS
 62
    3
 10
252.52725833500517
 20
594.54036456862059
 11
257.52733483498741
 21
594.5403645686082
  0
ARC
  8
_0-3_躯体と製品
  6
CONTINUOUS
 62
    4
 10
256.52723833500568
 20
604.54038456862065
 40
3.9999999999999427
 50
89.99999999999919
 51
179.99999999999918
  0
ARC
  8
_0-3_躯体と製品
  6
CONTINUOUS
 62
    3
 10
262.52730883498589
 20
598.54039056860813
 40
4.999974000000293
 50
0.000000000000007
 51
179.99999999999997
  0
LINE
  8
_0-3_躯体と製品
  6
CONTINUOUS
 62
    3
 10
278.86687233500561
 20
594.54036456862059
 11
287.52725733499119
 21
594.54036456862059
  0
LINE
  8
_0-3_躯体と製品
  6
CONTINUOUS
 62
    3
 10
277.52725833500517
 20
605.31383856862044
 11
282.52723233500546
 21
602.42710256862051
  0
LINE
  8
_0-3_躯体と製品
  6
CONTINUOUS
 62
    3
 10
272.52728233500602
 20
602.42710256862051
 11
277.52725833500517
 21
605.31383856862044
  0
CIRCLE
  8
_0-3_躯体と製品
  6
CONTINUOUS
 62
    3
 10
277.52725833500517
 20
599.54036456862059
 40
4.999973999999999
  0
LINE
  8
_0-3_躯体と製品
  6
CONTINUOUS
 62
    3
 10
277.52725833500517
 20
593.76689256862051
 11
272.52728233500602
 21
596.65362856862043
  0
CIRCLE
  8
_0-3_躯体と製品
  6
CONTINUOUS
 62
    3
 10
277.52725833500517
 20
599.54036456862059
 40
2.4999880000000001
  0
CIRCLE
  8
_0-3_躯体と製品
  6
CONTINUOUS
 62
    3
 10
277.52725833500517
 20
599.54036456862059
 40
2.9999839999999991
  0
LINE
  8
_0-3_躯体と製品
  6
CONTINUOUS
 62
    3
 10
272.52728233500602
 20
596.65362856862043
 11
272.52728233500602
 21
602.42710256862051
  0
LINE
  8
_0-3_躯体と製品
  6
CONTINUOUS
 62
    4
 10
272.02728633500556
 20
598.29037056862057
 11
272.42826433500431
 21
598.29037056862057
  0
ARC
  8
_0-3_躯体と製品
  6
CONTINUOUS
 62
    4
 10
272.02728633500487
 20
598.79036856862115
 40
0.4999980000005734
 50
180.00000000006514
 51
270.00000000006514
  0
LINE
  8
_0-3_躯体と製品
  6
CONTINUOUS
 62
    4
 10
271.52728833500441
 20
600.2903605686206
 11
271.52728833500441
 21
598.79036856862058
  0
ARC
  8
_0-3_躯体と製品
  6
CONTINUOUS
 62
    4
 10
272.02728633500487
 20
600.29036056862003
 40
0.4999980000005734
 50
89.999999999934857
 51
179.99999999993486
  0
LINE
  8
_0-3_躯体と製品
  6
CONTINUOUS
 62
    4
 10
272.42826433500431
 20
600.79035856862038
 11
272.02728633500556
 21
600.79035856862038
  0
LINE
  8
_0-3_躯体と製品
  6
CONTINUOUS
 62
    3
 10
282.52723233500546
 20
596.65362856862043
 11
277.52725833500517
 21
593.76689256862051
  0
LINE
  8
_0-3_躯体と製品
  6
CONTINUOUS
 62
    3
 10
282.52723233500546
 20
602.42710256862051
 11
282.52723233500546
 21
596.65362856862043
  0
LINE
  8
_0-3_躯体と製品
  6
CONTINUOUS
 62
    4
 10
283.02723033500479
 20
598.29037056862057
 11
282.62625033500444
 21
598.29037056862057
  0
ARC
  8
_0-3_躯体と製品
  6
CONTINUOUS
 62
    4
 10
283.02723033500411
 20
598.79036856861978
 40
0.4999979999992091
 50
270.00000000009118
 51
0.0000000000912055
  0
LINE
  8
_0-3_躯体と製品
  6
CONTINUOUS
 62
    4
 10
283.52722633500434
 20
600.2903605686206
 11
283.52722633500434
 21
598.79036856862058
  0
ARC
  8
_0-3_躯体と製品
  6
CONTINUOUS
 62
    4
 10
283.02723033500411
 20
600.2903605686214
 40
0.4999979999992091
 50
359.99999999990882
 51
89.999999999908823
  0
LINE
  8
_0-3_躯体と製品
  6
CONTINUOUS
 62
    4
 10
282.62625033500444
 20
600.79035856862038
 11
283.02723033500479
 21
600.79035856862038
  0
ARC
  8
_0-3_躯体と製品
  6
CONTINUOUS
 62
    3
 10
292.52723133499194
 20
598.54039056862075
 40
4.9999740000007478
 50
0.000000000000007
 51
179.99999999999997
  0
LINE
  8
_0-3_躯体と製品
  6
CONTINUOUS
 62
    4
 10
271.52669295328724
 20
492.24037241591566
 11
283.527258257418
 21
492.24037247895444
  0
LINE
  8
_0-3_躯体と製品
  6
CONTINUOUS
 62
    4
 10
263.52725829018891
 20
488.24037239286531
 11
291.52725832758642
 21
488.24037239286531
  0
LINE
  8
_0-3_躯体と製品
  6
CONTINUOUS
 62
    4
 10
291.52725832758642
 20
488.24037239286531
 11
291.52725832758642
 21
492.24037239286531
  0
LINE
  8
_0-3_躯体と製品
  6
CONTINUOUS
 62
    4
 10
291.52725832758642
 20
492.24037239286531
 11
263.52725829018891
 21
492.24037239286531
  0
LINE
  8
_0-3_躯体と製品
  6
CONTINUOUS
 62
    4
 10
263.52725829018891
 20
492.24037239286531
 11
263.52725829018891
 21
488.24037239286531
  0
LINE
  8
_0-3_躯体と製品
  6
CONTINUOUS
 62
    4
 10
265.52725829455358
 20
505.24037211882376
 11
265.52725829455358
 21
493.74037239286531
  0
ARC
  8
_0-3_躯体と製品
  6
CONTINUOUS
 62
    4
 10
271.52725827265294
 20
504.9903725075701
 40
12.750000090903935
 50
241.92751339355425
 51
298.07248660644575
  0
ARC
  8
_0-3_躯体と製品
  6
CONTINUOUS
 62
    4
 10
283.5272582726534
 20
504.99037321220192
 40
12.750000733250504
 50
241.927514709977
 51
298.072485290023
  0
LINE
  8
_0-3_躯体と製品
  6
CONTINUOUS
 62
    4
 10
289.52725829455449
 20
493.74037239286531
 11
289.52725829455449
 21
505.2403722910019
  0
LINE
  8
_0-3_躯体と製品
  6
CONTINUOUS
 62
    4
 10
271.52669310471538
 20
475.24037260386808
 11
283.52725840881521
 21
475.24037266690698
  0
LINE
  8
_0-3_躯体と製品
  6
CONTINUOUS
 62
    4
 10
265.52725844595261
 20
488.24037230677618
 11
265.52725844595261
 21
476.74037263538764
  0
ARC
  8
_0-3_躯体と製品
  6
CONTINUOUS
 62
    4
 10
271.52725841700931
 20
487.99037214524515
 40
12.749999553900915
 50
241.92751214239453
 51
298.07248785760549
  0
ARC
  8
_0-3_躯体と製品
  6
CONTINUOUS
 62
    4
 10
283.52725841700931
 20
487.99037301901569
 40
12.750000352115755
 50
241.92751376065095
 51
298.07248623934902
  0
LINE
  8
_0-3_躯体と製品
  6
CONTINUOUS
 62
    4
 10
289.52725844595261
 20
476.74037263538764
 11
289.52725844595261
 21
488.24037247895444
  0
LINE
  8
_0-3_躯体と製品
  6
CONTINUOUS
 62
    4
 10
277.52725825075231
 20
493.74037239286531
 11
277.52725815747544
 21
505.24037220491277
  0
LINE
  8
_0-3_躯体と製品
  6
CONTINUOUS
 62
    4
 10
277.52725837729668
 20
476.74037263538764
 11
277.52725829813426
 21
488.24037239286531
  0
LINE
  8
_0-3_躯体と製品
  6
CONTINUOUS
 62
    4
 10
1023.7679950869287
 20
475.39821238999934
 11
1023.7679950869287
 21
320.38252546787044
  0
LINE
  8
_0-3_躯体と製品
  6
CONTINUOUS
 62
    4
 10
1007.7679950869278
 20
475.3982123504984
 11
1007.7679950869278
 21
320.38252628412329
  0
LINE
  8
_0-3_躯体と製品
  6
CONTINUOUS
 62
    3
 10
1022.2679950869287
 20
475.25018035717039
 11
1022.2679950869287
 21
320.53055779310955
  0
LINE
  8
_0-3_躯体と製品
  6
CONTINUOUS
 62
    3
 10
1009.2679950869278
 20
475.25018028866589
 11
1009.2679950869278
 21
320.53055805354563
  0
LINE
  8
_0-3_躯体と製品
  6
CONTINUOUS
 62
    3
 10
1025.7679940869148
 20
598.54039056862155
 11
1025.7679940870148
 21
518.79405293232935
  0
LINE
  8
_0-3_躯体と製品
  6
CONTINUOUS
 62
    3
 10
1005.7680195870098
 20
518.54012493231721
 11
1005.7680195869098
 21
598.54039056860904
  0
LINE
  8
_0-3_躯体と製品
  6
CONTINUOUS
 62
    3
 10
995.76807158691099
 20
598.54039056860904
 11
995.76807158700831
 21
518.79405293231696
  0
LINE
  8
_0-3_躯体と製品
  6
CONTINUOUS
 62
    3
 10
1035.7679440870143
 20
518.54012493232949
 11
1035.7679440869169
 21
598.54039056862155
  0
LINE
  8
_0-3_躯体と製品
  6
CONTINUOUS
 62
    4
 10
1040.7679950869133
 20
604.55316056862148
 11
1040.7679950870115
 21
506.24036456862154
  0
LINE
  8
_0-3_躯体と製品
  6
CONTINUOUS
 62
    4
 10
990.76799508692784
 20
604.55316056862148
 11
990.76799508702788
 21
506.24036456862154
  0
LINE
  8
_0-3_躯体と製品
  6
CONTINUOUS
 62
    4
 10
1040.7679950870115
 20
506.24036456862154
 11
990.76799508702788
 21
506.24036456862154
  0
LINE
  8
_0-3_躯体と製品
  6
CONTINUOUS
 62
    4
 10
988.76799508702788
 20
508.22835856862162
 11
988.76799508702243
 21
511.24036456862154
  0
LINE
  8
_0-3_躯体と製品
  6
CONTINUOUS
 62
    4
 10
997.18220299243421
 20
505.24036456862154
 11
1034.3537871814206
 21
505.24036456862154
  0
ARC
  8
_0-3_躯体と製品
  6
CONTINUOUS
 62
    4
 10
990.75599108702716
 20
508.22835856862207
 40
1.9879940000003984
 50
180.00000000001165
 51
270.34596820555635
  0
ARC
  8
_0-3_躯体と製品
  6
CONTINUOUS
 62
    4
 10
997.18220299243478
 20
506.74035656862077
 40
1.4999919999992162
 50
199.47100455754529
 51
269.99999999997692
  0
ARC
  8
_0-3_躯体と製品
  6
CONTINUOUS
 62
    4
 10
1034.3537871814206
 20
506.74035656862145
 40
1.4999919999998592
 50
270.00000000000574
 51
340.52899544243735
  0
LINE
  8
_0-3_躯体と製品
  6
CONTINUOUS
 62
    4
 10
990.76799508702243
 20
511.24036456862154
 11
988.76799508702243
 21
511.24036456862154
  0
ARC
  8
_0-3_躯体と製品
  6
CONTINUOUS
 62
    3
 10
1000.7680455870088
 20
518.5401249323171
 40
4.9999740000010053
 50
177.08893600000073
 51
0.0000000000011368
  0
ARC
  8
_0-3_躯体と製品
  6
CONTINUOUS
 62
    3
 10
1030.7679680870153
 20
518.54012493232949
 40
4.9999740000000967
 50
177.08893599999982
 51
0.0000000000002273
  0
LINE
  8
_0-3_躯体と製品
  6
CONTINUOUS
 62
    4
 10
1042.7679950870115
 20
508.22835856862162
 11
1042.7679950870088
 21
511.24036456862154
  0
ARC
  8
_0-3_躯体と製品
  6
CONTINUOUS
 62
    4
 10
1040.7800010870114
 20
508.22835856862162
 40
1.9879939999999297
 50
269.65397415160874
 51
0.0000000000009796
  0
LINE
  8
_0-3_躯体と製品
  6
CONTINUOUS
 62
    4
 10
1040.7679950870079
 20
511.24036456862154
 11
1042.7679950870088
 21
511.24036456862154
  0
LINE
  8
_0-3_躯体と製品
  6
CONTINUOUS
 62
    3
 10
1035.7679440869169
 20
588.5403645686215
 11
1040.7679950869133
 21
588.5403645686215
  0
LINE
  8
_0-3_躯体と製品
  6
CONTINUOUS
 62
    3
 10
1035.7679440869169
 20
594.5403645686215
 11
1040.7679950869133
 21
594.5403645686215
  0
ARC
  8
_0-3_躯体と製品
  6
CONTINUOUS
 62
    4
 10
1036.7679058318358
 20
604.54027531209636
 40
4.0001092565690017
 50
0.0015649416980137
 51
90.000268493685198
  0
LINE
  8
_0-3_躯体と製品
  6
CONTINUOUS
 62
    3
 10
1005.7680195869098
 20
588.54036456860899
 11
1025.7679940869148
 21
588.5403645686215
  0
LINE
  8
_0-3_躯体と製品
  6
CONTINUOUS
 62
    3
 10
990.76799508692784
 20
588.5403645686215
 11
995.76807158691099
 21
588.54036456860899
  0
LINE
  8
_0-3_躯体と製品
  6
CONTINUOUS
 62
    3
 10
1014.4283015934216
 20
594.5403645686215
 11
1005.7680195869098
 21
594.54036456860911
  0
LINE
  8
_0-3_躯体と製品
  6
CONTINUOUS
 62
    4
 10
1036.7806630869263
 20
608.5403645686215
 11
994.75519908692877
 21
608.5403645686215
  0
LINE
  8
_0-3_躯体と製品
  6
CONTINUOUS
 62
    3
 10
990.76799508692784
 20
594.5403645686215
 11
995.76807158691099
 21
594.54036456860911
  0
ARC
  8
_0-3_躯体と製品
  6
CONTINUOUS
 62
    4
 10
994.76797508692835
 20
604.54038456862145
 40
3.9999999999999996
 50
90
 51
180
  0
ARC
  8
_0-3_躯体と製品
  6
CONTINUOUS
 62
    3
 10
1000.768045586909
 20
598.54039056860904
 40
4.9999740000007478
 50
0.000000000000007
 51
179.99999999999997
  0
LINE
  8
_0-3_躯体と製品
  6
CONTINUOUS
 62
    3
 10
1017.1076090869283
 20
594.5403645686215
 11
1025.7679940869148
 21
594.5403645686215
  0
LINE
  8
_0-3_躯体と製品
  6
CONTINUOUS
 62
    3
 10
1015.7679950869287
 20
605.31383856862135
 11
1020.7679690869272
 21
602.42710256862142
  0
LINE
  8
_0-3_躯体と製品
  6
CONTINUOUS
 62
    3
 10
1010.7680190869287
 20
602.42710256862142
 11
1015.7679950869287
 21
605.31383856862135
  0
CIRCLE
  8
_0-3_躯体と製品
  6
CONTINUOUS
 62
    3
 10
1015.7679950869287
 20
599.5403645686215
 40
4.999973999999999
  0
LINE
  8
_0-3_躯体と製品
  6
CONTINUOUS
 62
    3
 10
1015.7679950869287
 20
593.76689256862142
 11
1010.7680190869287
 21
596.65362856862134
  0
CIRCLE
  8
_0-3_躯体と製品
  6
CONTINUOUS
 62
    3
 10
1015.7679950869287
 20
599.5403645686215
 40
2.4999880000000001
  0
CIRCLE
  8
_0-3_躯体と製品
  6
CONTINUOUS
 62
    3
 10
1015.7679950869287
 20
599.5403645686215
 40
2.9999839999999991
  0
LINE
  8
_0-3_躯体と製品
  6
CONTINUOUS
 62
    3
 10
1010.7680190869287
 20
596.65362856862134
 11
1010.7680190869287
 21
602.42710256862142
  0
LINE
  8
_0-3_躯体と製品
  6
CONTINUOUS
 62
    4
 10
1010.2680230869282
 20
598.29037056862148
 11
1010.6690010869288
 21
598.29037056862148
  0
ARC
  8
_0-3_躯体と製品
  6
CONTINUOUS
 62
    4
 10
1010.2680230869272
 20
598.79036856862251
 40
0.4999980000010281
 50
180.00000000011724
 51
270.00000000011727
  0
LINE
  8
_0-3_躯体と製品
  6
CONTINUOUS
 62
    4
 10
1009.7680250869262
 20
600.29036056862151
 11
1009.7680250869262
 21
598.79036856862149
  0
ARC
  8
_0-3_躯体と製品
  6
CONTINUOUS
 62
    4
 10
1010.2680230869272
 20
600.29036056862049
 40
0.4999980000010281
 50
89.999999999882746
 51
179.99999999988276
  0
LINE
  8
_0-3_躯体と製品
  6
CONTINUOUS
 62
    4
 10
1010.6690010869288
 20
600.79035856862129
 11
1010.2680230869282
 21
600.79035856862129
  0
LINE
  8
_0-3_躯体と製品
  6
CONTINUOUS
 62
    3
 10
1020.7679690869272
 20
596.65362856862134
 11
1015.7679950869287
 21
593.76689256862142
  0
LINE
  8
_0-3_躯体と製品
  6
CONTINUOUS
 62
    3
 10
1020.7679690869272
 20
602.42710256862142
 11
1020.7679690869272
 21
596.65362856862134
  0
LINE
  8
_0-3_躯体と製品
  6
CONTINUOUS
 62
    4
 10
1021.2679670869275
 20
598.29037056862148
 11
1020.866987086928
 21
598.29037056862148
  0
ARC
  8
_0-3_躯体と製品
  6
CONTINUOUS
 62
    4
 10
1021.2679670869271
 20
598.79036856862115
 40
0.4999979999996639
 50
270.00000000003911
 51
0.0000000000390953
  0
LINE
  8
_0-3_躯体と製品
  6
CONTINUOUS
 62
    4
 10
1021.7679630869279
 20
600.29036056862151
 11
1021.7679630869279
 21
598.79036856862149
  0
ARC
  8
_0-3_躯体と製品
  6
CONTINUOUS
 62
    4
 10
1021.2679670869271
 20
600.29036056862185
 40
0.4999979999996639
 50
359.99999999996095
 51
89.999999999960934
  0
LINE
  8
_0-3_躯体と製品
  6
CONTINUOUS
 62
    4
 10
1020.866987086928
 20
600.79035856862129
 11
1021.2679670869275
 21
600.79035856862129
  0
ARC
  8
_0-3_躯体と製品
  6
CONTINUOUS
 62
    3
 10
1030.7679680869151
 20
598.54039056862155
 40
4.999974000000293
 50
0.000000000000007
 51
179.99999999999997
  0
LINE
  8
_0-3_躯体と製品
  6
CONTINUOUS
 62
    4
 10
1009.7674297052108
 20
492.24037241591645
 11
1021.7679950093407
 21
492.24037247895535
  0
LINE
  8
_0-3_躯体と製品
  6
CONTINUOUS
 62
    4
 10
1001.7679950421116
 20
488.24037239286622
 11
1029.7679950795109
 21
488.24037239286622
  0
LINE
  8
_0-3_躯体と製品
  6
CONTINUOUS
 62
    4
 10
1029.7679950795109
 20
488.24037239286622
 11
1029.7679950795109
 21
492.24037239286622
  0
LINE
  8
_0-3_躯体と製品
  6
CONTINUOUS
 62
    4
 10
1029.7679950795109
 20
492.24037239286622
 11
1001.7679950421116
 21
492.24037239286622
  0
LINE
  8
_0-3_躯体と製品
  6
CONTINUOUS
 62
    4
 10
1001.7679950421116
 20
492.24037239286622
 11
1001.7679950421116
 21
488.24037239286622
  0
LINE
  8
_0-3_躯体と製品
  6
CONTINUOUS
 62
    4
 10
1003.7679950464772
 20
505.24037211882455
 11
1003.7679950464772
 21
493.74037239286622
  0
ARC
  8
_0-3_躯体と製品
  6
CONTINUOUS
 62
    4
 10
1009.767995024577
 20
504.99037250757192
 40
12.750000090904901
 50
241.92751339355425
 51
298.07248660644575
  0
ARC
  8
_0-3_躯体と製品
  6
CONTINUOUS
 62
    4
 10
1021.767995024577
 20
504.99037321220112
 40
12.750000733248571
 50
241.927514709977
 51
298.072485290023
  0
LINE
  8
_0-3_躯体と製品
  6
CONTINUOUS
 62
    4
 10
1027.7679950464772
 20
493.74037239286622
 11
1027.7679950464772
 21
505.24037229100281
  0
LINE
  8
_0-3_躯体と製品
  6
CONTINUOUS
 62
    4
 10
1009.7674298566371
 20
475.24037260386899
 11
1021.7679951607388
 21
475.24037266690789
  0
LINE
  8
_0-3_躯体と製品
  6
CONTINUOUS
 62
    4
 10
1003.7679951978753
 20
488.24037230677709
 11
1003.7679951978753
 21
476.74037263538844
  0
ARC
  8
_0-3_躯体と製品
  6
CONTINUOUS
 62
    4
 10
1009.7679951689315
 20
487.99037214524503
 40
12.749999553899949
 50
241.92751214239453
 51
298.07248785760549
  0
ARC
  8
_0-3_躯体と製品
  6
CONTINUOUS
 62
    4
 10
1021.7679951689315
 20
487.9903730190174
 40
12.750000352116722
 50
241.92751376065095
 51
298.07248623934902
  0
LINE
  8
_0-3_躯体と製品
  6
CONTINUOUS
 62
    4
 10
1027.7679951978753
 20
476.74037263538844
 11
1027.7679951978753
 21
488.24037247895535
  0
LINE
  8
_0-3_躯体と製品
  6
CONTINUOUS
 62
    4
 10
1015.7679950026768
 20
493.74037239286622
 11
1015.767994909399
 21
505.24037220491368
  0
LINE
  8
_0-3_躯体と製品
  6
CONTINUOUS
 62
    4
 10
1015.7679951292193
 20
476.74037263538844
 11
1015.7679950500569
 21
488.24037239286622
  0
LINE
  8
_0-3_躯体と製品
  6
CONTINUOUS
 62
    4
 10
235.52725833500426
 20
1690.7182845686204
 11
235.52725833500426
 21
1536.0182852522987
  0
LINE
  8
_0-3_躯体と製品
  6
CONTINUOUS
 62
    4
 10
219.52725833500517
 20
1690.7182845686204
 11
219.52725833500517
 21
1536.0182852522987
  0
LINE
  8
_0-3_躯体と製品
  6
CONTINUOUS
 62
    3
 10
234.02725833500426
 20
1690.7182845686204
 11
234.02725833500426
 21
1536.0182852522987
  0
LINE
  8
_0-3_躯体と製品
  6
CONTINUOUS
 62
    3
 10
221.02725833500426
 20
1690.7182845686204
 11
221.02725833500426
 21
1536.0182852522987
  0
LINE
  8
_0-3_躯体と製品
  6
CONTINUOUS
 62
    4
 10
219.52725833500517
 20
1502.818284568609
 11
219.52725833500517
 21
1420.7194545686207
  0
LINE
  8
_0-3_躯体と製品
  6
CONTINUOUS
 62
    4
 10
235.52725833500426
 20
1502.818284568609
 11
235.52725833500426
 21
1420.7194545686207
  0
LINE
  8
_0-3_躯体と製品
  6
CONTINUOUS
 62
    3
 10
234.02725833500426
 20
1502.818284568609
 11
234.02725833500426
 21
1419.2194545686207
  0
LINE
  8
_0-3_躯体と製品
  6
CONTINUOUS
 62
    3
 10
221.02725833500426
 20
1502.818284568609
 11
221.02725833500426
 21
1419.2194545686207
  0
LINE
  8
_0-3_躯体と製品
  6
CONTINUOUS
 62
    4
 10
221.02725833500426
 20
1419.2194545686207
 11
234.02725833500426
 21
1419.2194545686207
  0
LINE
  8
_0-3_躯体と製品
  6
CONTINUOUS
 62
    4
 10
219.52725833500517
 20
1420.7194545686207
 11
221.02725833500426
 21
1419.2194545686207
  0
LINE
  8
_0-3_躯体と製品
  6
CONTINUOUS
 62
    4
 10
235.52725833500426
 20
1420.7194545686207
 11
234.02725833500426
 21
1419.2194545686207
  0
LINE
  8
_0-3_躯体と製品
  6
CONTINUOUS
 62
    3
 10
219.52725833500517
 20
1420.7194545686207
 11
235.52725833500426
 21
1420.7194545686207
  0
LINE
  8
_0-3_躯体と製品
  6
CONTINUOUS
 62
    4
 10
217.13495348958895
 20
1707.7182845686204
 11
237.91956318042139
 21
1707.7182845686204
  0
LINE
  8
_0-3_躯体と製品
  6
CONTINUOUS
 62
    4
 10
220.59905510474618
 20
1709.2182845686207
 11
220.59905510474618
 21
1720.7182845686207
  0
LINE
  8
_0-3_躯体と製品
  6
CONTINUOUS
 62
    4
 10
234.45546156529235
 20
1692.2182845686207
 11
234.45546156529235
 21
1703.7182845686207
  0
LINE
  8
_0-3_躯体と製品
  6
CONTINUOUS
 62
    4
 10
234.45546156529235
 20
1709.2182845686207
 11
234.45546156529235
 21
1720.7182845686207
  0
LINE
  8
_0-3_躯体と製品
  6
CONTINUOUS
 62
    4
 10
220.59905510474618
 20
1692.2182845686207
 11
220.59905510474618
 21
1703.7182845686207
  0
ARC
  8
_0-3_躯体と製品
  6
CONTINUOUS
 62
    4
 10
217.13495348960305
 20
1712.4682845686261
 40
4.7500000000077574
 50
223.17355110726379
 51
316.82644889273621
  0
ARC
  8
_0-3_躯体と製品
  6
CONTINUOUS
 62
    4
 10
227.52725833501927
 20
1724.4682842481816
 40
16.749999708255991
 50
245.56730186717647
 51
294.43269813282353
  0
ARC
  8
_0-3_躯体と製品
  6
CONTINUOUS
 62
    4
 10
237.91956318042139
 20
1712.4682845686134
 40
4.7499999999887379
 50
223.17355110726777
 51
316.82644889273217
  0
LINE
  8
_0-3_躯体と製品
  6
CONTINUOUS
 62
    4
 10
241.38366479555043
 20
1709.2182845686207
 11
241.38366479555043
 21
1720.7182845686207
  0
LINE
  8
_0-3_躯体と製品
  6
CONTINUOUS
 62
    4
 10
241.38366479555043
 20
1720.7182845686207
 11
213.67085187445991
 21
1720.7182845686207
  0
LINE
  8
_0-3_躯体と製品
  6
CONTINUOUS
 62
    4
 10
213.67085187445991
 20
1720.7182845686207
 11
213.67085187445991
 21
1709.2182845686207
  0
LINE
  8
_0-3_躯体と製品
  6
CONTINUOUS
 62
    4
 10
213.5272583306687
 20
1703.7182845686207
 11
241.52725836803802
 21
1703.7182845686207
  0
LINE
  8
_0-3_躯体と製品
  6
CONTINUOUS
 62
    4
 10
241.52725836803802
 20
1703.7182845686207
 11
241.52725836803802
 21
1707.7182845686204
  0
LINE
  8
_0-3_躯体と製品
  6
CONTINUOUS
 62
    4
 10
241.52725836803802
 20
1707.7182845686204
 11
213.5272583306687
 21
1707.7182845686204
  0
LINE
  8
_0-3_躯体と製品
  6
CONTINUOUS
 62
    4
 10
213.5272583306687
 20
1707.7182845686204
 11
213.5272583306687
 21
1703.7182845686207
  0
LINE
  8
_0-3_躯体と製品
  6
CONTINUOUS
 62
    4
 10
217.13495348958895
 20
1690.7182845686204
 11
237.91956318042139
 21
1690.7182845686204
  0
LINE
  8
_0-3_躯体と製品
  6
CONTINUOUS
 62
    4
 10
227.52725834935336
 20
1703.7182845686207
 11
231.52725834935245
 21
1707.7182845686204
  0
ARC
  8
_0-3_躯体と製品
  6
CONTINUOUS
 62
    4
 10
217.13495348960305
 20
1695.468284568627
 40
4.7500000000082343
 50
223.1735511072699
 51
316.82644889273007
  0
ARC
  8
_0-3_躯体と製品
  6
CONTINUOUS
 62
    4
 10
227.52725833501927
 20
1707.4682845686168
 40
16.749999999995538
 50
245.56730232054764
 51
294.43269767945236
  0
ARC
  8
_0-3_躯体と製品
  6
CONTINUOUS
 62
    4
 10
237.91956318042139
 20
1695.4682845686123
 40
4.749999999987951
 50
223.17355110725768
 51
316.82644889274235
  0
LINE
  8
_0-3_躯体と製品
  6
CONTINUOUS
 62
    4
 10
241.38366479555043
 20
1692.2182845686207
 11
241.38366479555043
 21
1703.7182845686207
  0
LINE
  8
_0-3_躯体と製品
  6
CONTINUOUS
 62
    4
 10
241.38366479555043
 20
1703.7182845686207
 11
213.67085187445991
 21
1703.7182845686207
  0
LINE
  8
_0-3_躯体と製品
  6
CONTINUOUS
 62
    4
 10
213.67085187445991
 20
1703.7182845686207
 11
213.67085187445991
 21
1692.2182845686207
  0
LINE
  8
_0-3_躯体と製品
  6
CONTINUOUS
 62
    4
 10
223.52725830197141
 20
1703.7182845399243
 11
227.52725830197141
 21
1707.7182845399243
  0
LINE
  8
_0-3_躯体と製品
  6
CONTINUOUS
 62
    3
 10
261.36782833500547
 20
1810.3339345686202
 11
261.66480433500419
 21
1810.3339345686202
  0
LINE
  8
_0-3_躯体と製品
  6
CONTINUOUS
 62
    3
 10
266.36782833500547
 20
1812.5182845686204
 11
275.22725833500499
 21
1812.5182845686206
  0
LINE
  8
_0-3_躯体と製品
  6
CONTINUOUS
 62
    3
 10
266.36782833500547
 20
1817.5182845686204
 11
275.22725833500499
 21
1817.5182845686206
  0
LINE
  8
_0-3_躯体と製品
  6
CONTINUOUS
 62
    3
 10
266.36782833500547
 20
1818.0182845686206
 11
275.22725833500499
 21
1818.0182845686206
  0
LINE
  8
_0-3_躯体と製品
  6
CONTINUOUS
 62
    3
 10
275.22725833500499
 20
1812.0182845686204
 11
266.36782833500547
 21
1812.0182845686204
  0
LINE
  8
_0-3_躯体と製品
  6
CONTINUOUS
 62
    4
 10
204.12731433500448
 20
1758.5182845686206
 11
204.12731433500448
 21
1797.5182845686206
  0
LINE
  8
_0-3_躯体と製品
  6
CONTINUOUS
 62
    4
 10
250.92731433500467
 20
1797.5182845686206
 11
250.92731433500467
 21
1758.5182845686206
  0
LINE
  8
_0-3_躯体と製品
  6
CONTINUOUS
 62
    4
 10
257.52725833500426
 20
1802.7482758951987
 11
257.52725833500426
 21
1726.3182845686206
  0
ARC
  8
_0-3_躯体と製品
  6
CONTINUOUS
 62
    4
 10
255.22725833500454
 20
1726.3182845686201
 40
2.2999999999996588
 50
270.00000000000961
 51
0.0000000000073673
  0
LINE
  8
_0-3_躯体と製品
  6
CONTINUOUS
 62
    4
 10
255.22725833500499
 20
1724.0182845686206
 11
252.52725833500517
 21
1724.0182845686206
  0
LINE
  8
_0-3_躯体と製品
  6
CONTINUOUS
 62
    3
 10
260.82725833500535
 20
1730.4324981309937
 11
260.82725833500535
 21
1817.6040710062475
  0
LINE
  8
_0-3_躯体と製品
  6
CONTINUOUS
 62
    4
 10
227.52725833500426
 20
1721.7182845686207
 11
199.82725833500444
 21
1721.7182845686207
  0
ARC
  8
_0-3_躯体と製品
  6
CONTINUOUS
 62
    4
 10
199.82725833500513
 20
1726.3182845686199
 40
4.5999999999992616
 50
179.99999999999196
 51
269.99999999999108
  0
LINE
  8
_0-3_躯体と製品
  6
CONTINUOUS
 62
    4
 10
195.2272583350059
 20
1726.3182845686206
 11
195.22725833228378
 21
1804.0182845674869
  0
LINE
  8
_0-3_躯体と製品
  6
CONTINUOUS
 62
    3
 10
194.227258334211
 20
1817.6040710063101
 11
194.22725833419463
 21
1730.4324981312457
  0
LINE
  8
_0-3_躯体と製品
  6
CONTINUOUS
 62
    4
 10
208.02731433500503
 20
1754.6182845686208
 11
217.52731433500503
 21
1754.6182845686208
  0
LINE
  8
_0-3_躯体と製品
  6
PLINE2
 62
    3
 10
202.52725833500517
 20
1724.0182845686206
 11
252.52725833500517
 21
1724.0182845686206
  0
LINE
  8
_0-3_躯体と製品
  6
CONTINUOUS
 62
    4
 10
259.82725833500444
 20
1804.0182845686202
 11
259.82725833500444
 21
1726.3182845686206
  0
ARC
  8
_0-3_躯体と製品
  6
CONTINUOUS
 62
    4
 10
255.22725833500476
 20
1726.3182845686204
 40
4.5999999999997163
 50
270.00000000000324
 51
0.0000000000023959
  0
LINE
  8
_0-3_躯体と製品
  6
CONTINUOUS
 62
    4
 10
255.22725833500499
 20
1721.7182845686207
 11
227.52725833500426
 21
1721.7182845686207
  0
LINE
  8
_0-3_躯体と製品
  6
CONTINUOUS
 62
    4
 10
201.94161189759143
 20
1720.7182845686207
 11
253.11290477241891
 21
1720.7182845686207
  0
LINE
  8
_0-3_躯体と製品
  6
CONTINUOUS
 62
    4
 10
204.82725833500535
 20
1726.7182845686207
 11
250.2272583350059
 21
1726.7182845686207
  0
LINE
  8
_0-3_躯体と製品
  6
CONTINUOUS
 62
    4
 10
202.52725833500517
 20
1724.3182845686206
 11
202.52725833500517
 21
1724.4182845686207
  0
LINE
  8
_0-3_躯体と製品
  6
CONTINUOUS
 62
    4
 10
202.52725833500517
 20
1724.0182845686206
 11
199.82725833500444
 21
1724.0182845686206
  0
ARC
  8
_0-3_躯体と製品
  6
CONTINUOUS
 62
    4
 10
199.82725833500444
 20
1726.3182845686206
 40
2.3000000000001135
 50
180.00000000000398
 51
270.00000000000171
  0
LINE
  8
_0-3_躯体と製品
  6
CONTINUOUS
 62
    4
 10
197.52725833500426
 20
1726.3182845686206
 11
197.52725833500426
 21
1802.7482758951626
  0
ARC
  8
_0-3_躯体と製品
  6
CONTINUOUS
 62
    4
 10
201.94161189759097
 20
1722.2184825686213
 40
1.5001980000007589
 50
199.47656789582967
 51
270.00000000002012
  0
LINE
  8
_0-3_躯体と製品
  6
CONTINUOUS
 62
    4
 10
202.52725833500517
 20
1724.3182845686206
 11
202.52725833500517
 21
1721.7182845686207
  0
ARC
  8
_0-3_躯体と製品
  6
CONTINUOUS
 62
    3
 10
195.72725833419463
 20
1730.4324981312457
 40
1.5000000000000804
 50
179.99999999999949
 51
250.52877939439557
  0
ARC
  8
_0-3_躯体と製品
  6
CONTINUOUS
 62
    4
 10
204.82725833500513
 20
1724.4182845686205
 40
2.3000000000000678
 50
89.999999999997144
 51
179.99999999999716
  0
ARC
  8
_0-3_躯体と製品
  6
CONTINUOUS
 62
    4
 10
208.02731433500412
 20
1758.5182845686215
 40
5.5000000000009095
 50
180.00000000000946
 51
270.00000000000949
  0
ARC
  8
_0-3_躯体と製品
  6
CONTINUOUS
 62
    4
 10
208.0273143350048
 20
1758.5182845686209
 40
3.9000000000003179
 50
180.00000000000333
 51
270.00000000000335
  0
LINE
  8
_0-3_躯体と製品
  6
CONTINUOUS
 62
    4
 10
252.52725833500517
 20
1724.3182845686206
 11
252.52725833500517
 21
1724.4182845686207
  0
ARC
  8
_0-3_躯体と製品
  6
CONTINUOUS
 62
    4
 10
253.11290477241846
 20
1722.2184825686202
 40
1.5001979999994726
 50
270.00000000001455
 51
340.52343210420503
  0
LINE
  8
_0-3_躯体と製品
  6
CONTINUOUS
 62
    4
 10
252.52725833500517
 20
1724.3182845686206
 11
252.52725833500517
 21
1721.7182845686207
  0
LINE
  8
_0-3_躯体と製品
  6
CONTINUOUS
 62
    4
 10
247.02731433500321
 20
1754.6182845686208
 11
237.52731433500321
 21
1754.6182845686208
  0
LINE
  8
_0-3_躯体と製品
  6
CONTINUOUS
 62
    4
 10
217.52725833500426
 20
1754.6182845686208
 11
217.52725833500426
 21
1753.0182845686206
  0
LINE
  8
_0-3_躯体と製品
  6
CONTINUOUS
 62
    4
 10
237.52725833500517
 20
1754.6182845686208
 11
237.52725833500517
 21
1753.0182845686206
  0
ARC
  8
_0-3_躯体と製品
  6
CONTINUOUS
 62
    4
 10
250.22725833500544
 20
1724.4182845686209
 40
2.2999999999996135
 50
359.99999999999153
 51
89.99999999999153
  0
ARC
  8
_0-3_躯体と製品
  6
CONTINUOUS
 62
    3
 10
259.32725833500467
 20
1730.4324981309942
 40
1.5000000000006155
 50
289.47122063447046
 51
359.99999999998022
  0
ARC
  8
_0-3_躯体と製品
  6
CONTINUOUS
 62
    4
 10
247.02731433500412
 20
1758.5182845686215
 40
5.5000000000009095
 50
269.99999999999056
 51
359.99999999999056
  0
ARC
  8
_0-3_躯体と製品
  6
CONTINUOUS
 62
    4
 10
247.02731433500389
 20
1758.5182845686213
 40
3.9000000000007735
 50
269.99999999999
 51
359.99999999999
  0
LINE
  8
_0-3_躯体と製品
  6
CONTINUOUS
 62
    4
 10
247.02731433500321
 20
1801.4182845686209
 11
208.02731433500503
 21
1801.4182845686209
  0
LINE
  8
_0-3_躯体と製品
  6
CONTINUOUS
 62
    4
 10
208.02731433500503
 20
1803.0182845686206
 11
247.02731433500321
 21
1803.0182845686206
  0
LINE
  8
_0-3_躯体と製品
  6
CONTINUOUS
 62
    4
 10
207.52725833500517
 20
1810.0182845686206
 11
247.52725833500426
 21
1810.0182845686206
  0
LINE
  8
_0-3_躯体と製品
  6
CONTINUOUS
 62
    3
 10
257.52725833500426
 20
1812.5182845686204
 11
197.52725833500426
 21
1812.5182845686206
  0
LINE
  8
_0-3_躯体と製品
  6
CONTINUOUS
 62
    3
 10
257.52725833500426
 20
1817.5182845686204
 11
197.52725833500426
 21
1817.5182845686206
  0
ARC
  8
_0-3_躯体と製品
  6
CONTINUOUS
 62
    4
 10
193.98887798376359
 20
1807.0182845686204
 40
3.2455486276350798
 50
292.43051456131434
 51
67.56948543868566
  0
ARC
  8
_0-3_躯体と製品
  6
CONTINUOUS
 62
    4
 10
193.98887798376199
 20
1807.0182845686204
 40
5.545548627634628
 50
309.64714376104513
 51
50.352856238954857
  0
LINE
  8
_0-3_躯体と製品
  6
CONTINUOUS
 62
    4
 10
207.52725833500517
 20
1810.0182845686206
 11
207.52725833500517
 21
1803.0182845686206
  0
ARC
  8
_0-3_躯体と製品
  6
CONTINUOUS
 62
    4
 10
208.02731433500412
 20
1797.5182845686197
 40
5.5000000000009095
 50
89.999999999990536
 51
179.99999999999054
  0
ARC
  8
_0-3_躯体と製品
  6
CONTINUOUS
 62
    4
 10
208.02731433500458
 20
1797.5182845686204
 40
3.9000000000002042
 50
89.999999999994955
 51
179.99999999999497
  0
LINE
  8
_0-3_躯体と製品
  6
CONTINUOUS
 62
    4
 10
207.52725833500517
 20
1805.0182845686206
 11
202.52725833500517
 21
1805.0182845686206
  0
LINE
  8
_0-3_躯体と製品
  6
CONTINUOUS
 62
    4
 10
197.52725833500426
 20
1824.0182845686206
 11
195.2272583350059
 21
1824.0182845686206
  0
LINE
  8
_0-3_躯体と製品
  6
CONTINUOUS
 62
    4
 10
195.22725833228378
 20
1810.0182845697541
 11
195.2272583350059
 21
1824.0182845686206
  0
ARC
  8
_0-3_躯体と製品
  6
CONTINUOUS
 62
    3
 10
195.72725833421123
 20
1817.6040710063101
 40
1.5000000000002744
 50
109.47122064168337
 51
179.99999999999974
  0
ARC
  8
_0-3_躯体と製品
  6
CONTINUOUS
 62
    3
 10
194.22725833427558
 20
1817.2682845686204
 40
3.0000000000001137
 50
90.000000000002188
 51
180.00000000000219
  0
LINE
  8
_0-3_躯体と製品
  6
CONTINUOUS
 62
    3
 10
191.22725833427558
 20
1817.2682845686204
 11
191.22725833505683
 21
1812.7683530195134
  0
LINE
  8
_0-3_躯体と製品
  6
CONTINUOUS
 62
    3
 10
195.22725833427648
 20
1820.2682845686206
 11
194.22725833427558
 21
1820.2682845686206
  0
LINE
  8
_0-3_躯体と製品
  6
CONTINUOUS
 62
    4
 10
197.52725833500426
 20
1811.2882932420785
 11
197.52725833500426
 21
1824.0182845686206
  0
LINE
  8
_0-3_躯体と製品
  6
CONTINUOUS
 62
    3
 10
202.52725833500517
 20
1808.0182845686206
 11
207.52725833500517
 21
1808.0182845686206
  0
LINE
  8
_0-3_躯体と製品
  6
CONTINUOUS
 62
    4
 10
198.93893816034233
 20
1809.5182873345593
 11
202.52725833500517
 21
1809.5183145686208
  0
LINE
  8
_0-3_躯体と製品
  6
CONTINUOUS
 62
    4
 10
202.52725833500517
 20
1809.5183145686208
 11
202.52725833500517
 21
1755.0182845686206
  0
ARC
  8
_0-3_躯体と製品
  6
CONTINUOUS
 62
    4
 10
204.52725833500472
 20
1755.0182845686202
 40
1.9999999999995453
 50
179.99999999998698
 51
269.99999999998698
  0
LINE
  8
_0-3_躯体と製品
  6
CONTINUOUS
 62
    4
 10
204.52725833500426
 20
1753.0182845686206
 11
250.52725833500426
 21
1753.0182845686206
  0
ARC
  8
_0-3_躯体と製品
  6
CONTINUOUS
 62
    4
 10
250.52725833500472
 20
1755.0182845686211
 40
2.0000000000004543
 50
269.99999999998698
 51
359.99999999998698
  0
LINE
  8
_0-3_躯体と製品
  6
CONTINUOUS
 62
    4
 10
252.52725833500517
 20
1755.0182845686206
 11
252.52725833500517
 21
1809.5182845686206
  0
LINE
  8
_0-3_躯体と製品
  6
CONTINUOUS
 62
    4
 10
252.52725833500517
 20
1809.5182845686206
 11
256.11556335855221
 21
1809.518257334674
  0
ARC
  8
_0-3_躯体と製品
  6
CONTINUOUS
 62
    4
 10
261.06563868635453
 20
1807.0182845686204
 40
3.2455486276761412
 50
112.43051456307036
 51
247.56948543692963
  0
ARC
  8
_0-3_躯体と製品
  6
CONTINUOUS
 62
    4
 10
261.06563868635408
 20
1807.0182845686204
 40
5.5455486276759514
 50
129.6471437621347
 51
230.35285623786527
  0
LINE
  8
_0-3_躯体と製品
  6
CONTINUOUS
 62
    4
 10
247.52725833500426
 20
1810.0182845686206
 11
247.52725833500426
 21
1803.0182845686206
  0
ARC
  8
_0-3_躯体と製品
  6
CONTINUOUS
 62
    4
 10
247.02731433500412
 20
1797.5182845686197
 40
5.5000000000009095
 50
0.000000000009478
 51
90.000000000009493
  0
ARC
  8
_0-3_躯体と製品
  6
CONTINUOUS
 62
    4
 10
247.02731433500412
 20
1797.5182845686199
 40
3.9000000000006589
 50
0.0000000000116955
 51
90.00000000001171
  0
LINE
  8
_0-3_躯体と製品
  6
CONTINUOUS
 62
    4
 10
252.52725833500517
 20
1805.0182845686206
 11
247.52725833500426
 21
1805.0182845686206
  0
LINE
  8
_0-3_躯体と製品
  6
CONTINUOUS
 62
    4
 10
257.52725833500426
 20
1824.0182845686206
 11
259.82725833500444
 21
1824.0182845686206
  0
LINE
  8
_0-3_躯体と製品
  6
CONTINUOUS
 62
    4
 10
257.52725833500426
 20
1811.2882932420423
 11
257.52725833500426
 21
1824.0182845686206
  0
LINE
  8
_0-3_躯体と製品
  6
CONTINUOUS
 62
    3
 10
252.22725833500499
 20
1818.0182845686206
 11
251.7272583350059
 21
1817.5182845686206
  0
LINE
  8
_0-3_躯体と製品
  6
CONTINUOUS
 62
    3
 10
252.22725833500499
 20
1812.0182845686204
 11
251.7272583350059
 21
1812.5182845686206
  0
LINE
  8
_0-3_躯体と製品
  6
CONTINUOUS
 62
    3
 10
247.52725833500426
 20
1808.0182845686206
 11
252.52725833500517
 21
1808.0182845686206
  0
LINE
  8
_0-3_躯体と製品
  6
CONTINUOUS
 62
    3
 10
257.52725833500426
 20
1818.0182845686206
 11
252.22725833500499
 21
1818.0182845686206
  0
LINE
  8
_0-3_躯体と製品
  6
CONTINUOUS
 62
    3
 10
257.52725833500426
 20
1812.0182845686204
 11
252.22725833500499
 21
1812.0182845686204
  0
LINE
  8
_0-3_躯体と製品
  6
CONTINUOUS
 62
    3
 10
252.22725833500499
 20
1812.0182845686204
 11
252.22725833500499
 21
1818.0182845686206
  0
LINE
  8
_0-3_躯体と製品
  6
CONTINUOUS
 62
    4
 10
259.82725833500444
 20
1824.0182845686206
 11
259.82725833500444
 21
1810.0182845686206
  0
LINE
  8
_0-3_躯体と製品
  6
CONTINUOUS
 62
    3
 10
266.36782833500547
 20
1810.6432845686204
 11
266.36782833500547
 21
1819.3932845686206
  0
LINE
  8
_0-3_躯体と製品
  6
CONTINUOUS
 62
    3
 10
266.36782833500547
 20
1819.3932845686206
 11
266.36782833500547
 21
1810.6432845686204
  0
LINE
  8
_0-3_躯体と製品
  6
CONTINUOUS
 62
    3
 10
261.36782833500547
 20
1810.6432845686204
 11
261.36782833500547
 21
1819.3932845686206
  0
LINE
  8
_0-3_躯体と製品
  6
CONTINUOUS
 62
    3
 10
261.36782833500547
 20
1821.1182845686205
 11
261.36782833500547
 21
1808.9182845686205
  0
LINE
  8
_0-3_躯体と製品
  6
CONTINUOUS
 62
    3
 10
265.7678283350042
 20
1817.5182845686204
 11
261.96782833500492
 21
1817.5182845686204
  0
LINE
  8
_0-3_躯体と製品
  6
CONTINUOUS
 62
    3
 10
265.7678283350042
 20
1812.5182845686204
 11
261.96782833500492
 21
1812.5182845686204
  0
LINE
  8
_0-3_躯体と製品
  6
CONTINUOUS
 62
    3
 10
265.7678283350042
 20
1810.0182845686206
 11
261.96782833500492
 21
1810.0182845686206
  0
ARC
  8
_0-3_躯体と製品
  6
CONTINUOUS
 62
    3
 10
262.96991233500557
 20
1818.7682845686204
 40
1.6020840000001881
 50
179.99999999998934
 51
231.2820119999943
  0
ARC
  8
_0-3_躯体と製品
  6
CONTINUOUS
 62
    3
 10
266.8761623350058
 20
1815.0182845686204
 40
5.5083340000001666
 50
153.00853300000176
 51
206.99146699999824
  0
ARC
  8
_0-3_躯体と製品
  6
CONTINUOUS
 62
    3
 10
262.96991233500557
 20
1811.2682845686204
 40
1.6020840000000096
 50
128.71798800000261
 51
180.00000000000557
  0
LINE
  8
_0-3_躯体と製品
  6
CONTINUOUS
 62
    3
 10
261.36782833500547
 20
1810.6432845686204
 11
261.96782833500492
 21
1810.0182845686206
  0
ARC
  8
_0-3_躯体と製品
  6
CONTINUOUS
 62
    3
 10
264.76574433500491
 20
1818.7682845686213
 40
1.6020840000004637
 50
308.71798799996873
 51
359.99999999997175
  0
ARC
  8
_0-3_躯体と製品
  6
CONTINUOUS
 62
    3
 10
260.85949433500514
 20
1815.0182845686204
 40
5.5083340000001666
 50
333.00853300000176
 51
26.991466999998252
  0
ARC
  8
_0-3_躯体と製品
  6
CONTINUOUS
 62
    3
 10
264.76574433500491
 20
1811.2682845686195
 40
1.6020840000004646
 50
0.0000000000283102
 51
51.282012000031273
  0
LINE
  8
_0-3_躯体と製品
  6
CONTINUOUS
 62
    3
 10
266.36782833500547
 20
1810.6432845686204
 11
265.7678283350042
 21
1810.0182845686206
  0
LINE
  8
_0-3_躯体と製品
  6
CONTINUOUS
 62
    3
 10
265.7678283350042
 20
1820.0182845686206
 11
261.96782833500492
 21
1820.0182845686206
  0
LINE
  8
_0-3_躯体と製品
  6
CONTINUOUS
 62
    3
 10
261.36782833500547
 20
1821.1182845686205
 11
259.82725833500444
 21
1821.1182845686205
  0
LINE
  8
_0-3_躯体と製品
  6
CONTINUOUS
 62
    3
 10
261.36782833500547
 20
1819.3932845686206
 11
261.96782833500492
 21
1820.0182845686206
  0
LINE
  8
_0-3_躯体と製品
  6
CONTINUOUS
 62
    3
 10
266.36782833500547
 20
1819.3932845686206
 11
265.7678283350042
 21
1820.0182845686206
  0
LINE
  8
_0-3_躯体と製品
  6
CONTINUOUS
 62
    3
 10
275.22725833500499
 20
1818.0182845686206
 11
275.22725833500499
 21
1812.0182845686204
  0
LINE
  8
_0-3_躯体と製品
  6
CONTINUOUS
 62
    4
 10
207.52731433500321
 20
1803.0182845686206
 11
247.52731433500321
 21
1803.0182845686206
  0
ARC
  8
_0-3_躯体と製品
  6
CONTINUOUS
 62
    3
 10
259.3272583350049
 20
1817.6040710062468
 40
1.5000000000004547
 50
0.000000000024134
 51
70.528779365533893
  0
LINE
  8
_0-3_躯体と製品
  6
CONTINUOUS
 62
    3
 10
261.36782833500547
 20
1808.9182845686205
 11
260.82725833500535
 21
1808.9182845686205
  0
ARC
  8
_0-3_躯体と製品
  6
CONTINUOUS
 62
    3
 10
194.22725833427512
 20
1812.7682845686204
 40
2.9999999999995439
 50
179.99999999998911
 51
269.61294971879431
  0
LINE
  8
_0-3_躯体と製品
  6
CONTINUOUS
 62
    3
 10
194.22725833420827
 20
1809.7683530195136
 11
194.20699258307741
 21
1809.7683530195136
  0
LINE
  8
_0-3_躯体と製品
  6
CONTINUOUS
 62
    4
 10
1023.7679950869287
 20
1690.7182845686204
 11
1023.7679950869287
 21
1536.0182852522987
  0
LINE
  8
_0-3_躯体と製品
  6
CONTINUOUS
 62
    4
 10
1007.7679950869278
 20
1690.7182845686204
 11
1007.7679950869278
 21
1536.0182852522987
  0
LINE
  8
_0-3_躯体と製品
  6
CONTINUOUS
 62
    3
 10
1022.2679950869287
 20
1690.7182845686204
 11
1022.2679950869287
 21
1536.0182852522987
  0
LINE
  8
_0-3_躯体と製品
  6
CONTINUOUS
 62
    3
 10
1009.2679950869278
 20
1690.7182845686204
 11
1009.2679950869278
 21
1536.0182852522987
  0
LINE
  8
_0-3_躯体と製品
  6
CONTINUOUS
 62
    4
 10
1007.7679950869278
 20
1502.818284568609
 11
1007.7679950869278
 21
1420.7194545686207
  0
LINE
  8
_0-3_躯体と製品
  6
CONTINUOUS
 62
    4
 10
1023.7679950869287
 20
1502.818284568609
 11
1023.7679950869287
 21
1420.7194545686207
  0
LINE
  8
_0-3_躯体と製品
  6
CONTINUOUS
 62
    3
 10
1022.2679950869287
 20
1502.818284568609
 11
1022.2679950869287
 21
1419.2194545686207
  0
LINE
  8
_0-3_躯体と製品
  6
CONTINUOUS
 62
    3
 10
1009.2679950869278
 20
1502.818284568609
 11
1009.2679950869278
 21
1419.2194545686207
  0
LINE
  8
_0-3_躯体と製品
  6
CONTINUOUS
 62
    4
 10
1009.2679950869278
 20
1419.2194545686207
 11
1022.2679950869287
 21
1419.2194545686207
  0
LINE
  8
_0-3_躯体と製品
  6
CONTINUOUS
 62
    4
 10
1007.7679950869278
 20
1420.7194545686207
 11
1009.2679950869278
 21
1419.2194545686207
  0
LINE
  8
_0-3_躯体と製品
  6
CONTINUOUS
 62
    4
 10
1023.7679950869287
 20
1420.7194545686207
 11
1022.2679950869287
 21
1419.2194545686207
  0
LINE
  8
_0-3_躯体と製品
  6
CONTINUOUS
 62
    3
 10
1007.7679950869278
 20
1420.7194545686207
 11
1023.7679950869287
 21
1420.7194545686207
  0
LINE
  8
_0-3_躯体と製品
  6
CONTINUOUS
 62
    4
 10
1005.3756902415116
 20
1707.7182845686204
 11
1026.1602999323432
 21
1707.7182845686204
  0
LINE
  8
_0-3_躯体と製品
  6
CONTINUOUS
 62
    4
 10
1008.8397918566698
 20
1709.2182845686207
 11
1008.8397918566698
 21
1720.7182845686207
  0
LINE
  8
_0-3_躯体と製品
  6
CONTINUOUS
 62
    4
 10
1022.696198317215
 20
1692.2182845686207
 11
1022.696198317215
 21
1703.7182845686207
  0
LINE
  8
_0-3_躯体と製品
  6
CONTINUOUS
 62
    4
 10
1022.696198317215
 20
1709.2182845686207
 11
1022.696198317215
 21
1720.7182845686207
  0
LINE
  8
_0-3_躯体と製品
  6
CONTINUOUS
 62
    4
 10
1008.8397918566698
 20
1692.2182845686207
 11
1008.8397918566698
 21
1703.7182845686207
  0
ARC
  8
_0-3_躯体と製品
  6
CONTINUOUS
 62
    4
 10
1005.3756902415262
 20
1712.4682845686266
 40
4.7500000000083809
 50
223.17355110726379
 51
316.82644889273621
  0
ARC
  8
_0-3_躯体と製品
  6
CONTINUOUS
 62
    4
 10
1015.7679950869424
 20
1724.4682842481807
 40
16.74999970825489
 50
245.56730186717647
 51
294.43269813282353
  0
ARC
  8
_0-3_躯体と製品
  6
CONTINUOUS
 62
    4
 10
1026.1602999323445
 20
1712.4682845686139
 40
4.7499999999893614
 50
223.17355110726777
 51
316.82644889273217
  0
LINE
  8
_0-3_躯体と製品
  6
CONTINUOUS
 62
    4
 10
1029.624401547474
 20
1709.2182845686207
 11
1029.624401547474
 21
1720.7182845686207
  0
LINE
  8
_0-3_躯体と製品
  6
CONTINUOUS
 62
    4
 10
1029.624401547474
 20
1720.7182845686207
 11
1001.9115886263826
 21
1720.7182845686207
  0
LINE
  8
_0-3_躯体と製品
  6
CONTINUOUS
 62
    4
 10
1001.9115886263826
 20
1720.7182845686207
 11
1001.9115886263826
 21
1709.2182845686207
  0
LINE
  8
_0-3_躯体と製品
  6
CONTINUOUS
 62
    4
 10
1001.7679950825914
 20
1703.7182845686207
 11
1029.7679951199607
 21
1703.7182845686207
  0
LINE
  8
_0-3_躯体と製品
  6
CONTINUOUS
 62
    4
 10
1029.7679951199607
 20
1703.7182845686207
 11
1029.7679951199607
 21
1707.7182845686204
  0
LINE
  8
_0-3_躯体と製品
  6
CONTINUOUS
 62
    4
 10
1029.7679951199607
 20
1707.7182845686204
 11
1001.7679950825914
 21
1707.7182845686204
  0
LINE
  8
_0-3_躯体と製品
  6
CONTINUOUS
 62
    4
 10
1001.7679950825914
 20
1707.7182845686204
 11
1001.7679950825914
 21
1703.7182845686207
  0
LINE
  8
_0-3_躯体と製品
  6
CONTINUOUS
 62
    4
 10
1005.3756902415116
 20
1690.7182845686204
 11
1026.1602999323432
 21
1690.7182845686204
  0
LINE
  8
_0-3_躯体と製品
  6
CONTINUOUS
 62
    4
 10
1015.767995101276
 20
1703.7182845686207
 11
1019.7679951012769
 21
1707.7182845686204
  0
ARC
  8
_0-3_躯体と製品
  6
CONTINUOUS
 62
    4
 10
1005.3756902415262
 20
1695.4682845686273
 40
4.7500000000088578
 50
223.1735511072699
 51
316.82644889273007
  0
ARC
  8
_0-3_躯体と製品
  6
CONTINUOUS
 62
    4
 10
1015.7679950869424
 20
1707.4682845686157
 40
16.749999999994436
 50
245.56730232054764
 51
294.43269767945236
  0
ARC
  8
_0-3_躯体と製品
  6
CONTINUOUS
 62
    4
 10
1026.1602999323445
 20
1695.4682845686127
 40
4.7499999999885745
 50
223.17355110725768
 51
316.82644889274235
  0
LINE
  8
_0-3_躯体と製品
  6
CONTINUOUS
 62
    4
 10
1029.624401547474
 20
1692.2182845686207
 11
1029.624401547474
 21
1703.7182845686207
  0
LINE
  8
_0-3_躯体と製品
  6
CONTINUOUS
 62
    4
 10
1029.624401547474
 20
1703.7182845686207
 11
1001.9115886263826
 21
1703.7182845686207
  0
LINE
  8
_0-3_躯体と製品
  6
CONTINUOUS
 62
    4
 10
1001.9115886263826
 20
1703.7182845686207
 11
1001.9115886263826
 21
1692.2182845686207
  0
LINE
  8
_0-3_躯体と製品
  6
CONTINUOUS
 62
    4
 10
1011.767995053895
 20
1703.7182845399243
 11
1015.7679950538959
 21
1707.7182845399243
  0
LINE
  8
_0-3_躯体と製品
  6
CONTINUOUS
 62
    3
 10
1049.6085650869272
 20
1810.3339345686202
 11
1049.9055410869278
 21
1810.3339345686202
  0
LINE
  8
_0-3_躯体と製品
  6
CONTINUOUS
 62
    3
 10
1054.6085650869272
 20
1812.5182845686204
 11
1063.4679950869286
 21
1812.5182845686206
  0
LINE
  8
_0-3_躯体と製品
  6
CONTINUOUS
 62
    3
 10
1054.6085650869272
 20
1817.5182845686204
 11
1063.4679950869286
 21
1817.5182845686206
  0
LINE
  8
_0-3_躯体と製品
  6
CONTINUOUS
 62
    3
 10
1054.6085650869272
 20
1818.0182845686206
 11
1063.4679950869286
 21
1818.0182845686206
  0
LINE
  8
_0-3_躯体と製品
  6
CONTINUOUS
 62
    3
 10
1063.4679950869286
 20
1812.0182845686204
 11
1054.6085650869272
 21
1812.0182845686204
  0
LINE
  8
_0-3_躯体と製品
  6
CONTINUOUS
 62
    4
 10
992.36805108692624
 20
1758.5182845686206
 11
992.36805108692624
 21
1797.5182845686206
  0
LINE
  8
_0-3_躯体と製品
  6
CONTINUOUS
 62
    4
 10
1039.1680510869273
 20
1797.5182845686206
 11
1039.1680510869273
 21
1758.5182845686206
  0
LINE
  8
_0-3_躯体と製品
  6
CONTINUOUS
 62
    4
 10
1045.7679950869278
 20
1802.7482758951987
 11
1045.7679950869278
 21
1726.3182845686206
  0
ARC
  8
_0-3_躯体と製品
  6
CONTINUOUS
 62
    4
 10
1043.4679950869277
 20
1726.3182845686206
 40
2.3000000000001135
 50
269.99999999999829
 51
359.99999999999602
  0
LINE
  8
_0-3_躯体と製品
  6
CONTINUOUS
 62
    4
 10
1043.4679950869277
 20
1724.0182845686206
 11
1040.7679950869278
 21
1724.0182845686206
  0
LINE
  8
_0-3_躯体と製品
  6
CONTINUOUS
 62
    3
 10
1049.067995086928
 20
1730.4324981309937
 11
1049.067995086928
 21
1817.6040710062475
  0
LINE
  8
_0-3_躯体と製品
  6
CONTINUOUS
 62
    4
 10
1015.7679950869287
 20
1721.7182845686207
 11
988.06799508692802
 21
1721.7182845686207
  0
ARC
  8
_0-3_躯体と製品
  6
CONTINUOUS
 62
    4
 10
988.06799508692779
 20
1726.3182845686208
 40
4.6000000000001702
 50
180.00000000000327
 51
270.00000000000239
  0
LINE
  8
_0-3_躯体と製品
  6
CONTINUOUS
 62
    4
 10
983.46799508692766
 20
1726.3182845686206
 11
983.46799508420736
 21
1804.0182845674869
  0
LINE
  8
_0-3_躯体と製品
  6
CONTINUOUS
 62
    3
 10
982.46799508613367
 20
1817.6040710063101
 11
982.4679950861173
 21
1730.4324981312457
  0
LINE
  8
_0-3_躯体と製品
  6
CONTINUOUS
 62
    4
 10
996.26805108692679
 20
1754.6182845686208
 11
1005.7680510869268
 21
1754.6182845686208
  0
LINE
  8
_0-3_躯体と製品
  6
PLINE2
 62
    3
 10
990.76799508692784
 20
1724.0182845686206
 11
1040.7679950869278
 21
1724.0182845686206
  0
LINE
  8
_0-3_躯体と製品
  6
CONTINUOUS
 62
    4
 10
1048.0679950869289
 20
1804.0182845686202
 11
1048.0679950869289
 21
1726.3182845686206
  0
ARC
  8
_0-3_躯体と製品
  6
CONTINUOUS
 62
    4
 10
1043.4679950869283
 20
1726.3182845686213
 40
4.6000000000006258
 50
269.99999999999193
 51
359.99999999999108
  0
LINE
  8
_0-3_躯体と製品
  6
CONTINUOUS
 62
    4
 10
1043.4679950869277
 20
1721.7182845686207
 11
1015.7679950869287
 21
1721.7182845686207
  0
LINE
  8
_0-3_躯体と製品
  6
CONTINUOUS
 62
    4
 10
990.18234864951319
 20
1720.7182845686207
 11
1041.3536415243416
 21
1720.7182845686207
  0
LINE
  8
_0-3_躯体と製品
  6
CONTINUOUS
 62
    4
 10
993.06799508692802
 20
1726.7182845686207
 11
1038.4679950869277
 21
1726.7182845686207
  0
LINE
  8
_0-3_躯体と製品
  6
CONTINUOUS
 62
    4
 10
990.76799508692784
 20
1724.3182845686206
 11
990.76799508692784
 21
1724.4182845686207
  0
LINE
  8
_0-3_躯体と製品
  6
CONTINUOUS
 62
    4
 10
990.76799508692784
 20
1724.0182845686206
 11
988.06799508692802
 21
1724.0182845686206
  0
ARC
  8
_0-3_躯体と製品
  6
CONTINUOUS
 62
    4
 10
988.06799508692791
 20
1726.3182845686206
 40
2.3000000000001135
 50
180.00000000000398
 51
270.00000000000171
  0
LINE
  8
_0-3_躯体と製品
  6
CONTINUOUS
 62
    4
 10
985.76799508692784
 20
1726.3182845686206
 11
985.76799508692784
 21
1802.7482758951626
  0
ARC
  8
_0-3_躯体と製品
  6
CONTINUOUS
 62
    4
 10
990.18234864951398
 20
1722.2184825686195
 40
1.5001979999988293
 50
199.47656789577758
 51
269.99999999996805
  0
LINE
  8
_0-3_躯体と製品
  6
CONTINUOUS
 62
    4
 10
990.76799508692784
 20
1724.3182845686206
 11
990.76799508692784
 21
1721.7182845686207
  0
ARC
  8
_0-3_躯体と製品
  6
CONTINUOUS
 62
    3
 10
983.96799508611741
 20
1730.4324981312457
 40
1.5000000000000804
 50
179.99999999999949
 51
250.52877939439557
  0
ARC
  8
_0-3_躯体と製品
  6
CONTINUOUS
 62
    4
 10
993.06799508692791
 20
1724.4182845686205
 40
2.3000000000000678
 50
89.999999999997144
 51
179.99999999999716
  0
ARC
  8
_0-3_躯体と製品
  6
CONTINUOUS
 62
    4
 10
996.26805108692724
 20
1758.5182845686202
 40
5.4999999999995444
 50
179.99999999999525
 51
269.99999999999528
  0
ARC
  8
_0-3_躯体と製品
  6
CONTINUOUS
 62
    4
 10
996.26805108692656
 20
1758.5182845686209
 40
3.9000000000003179
 50
180.00000000000333
 51
270.00000000000335
  0
LINE
  8
_0-3_躯体と製品
  6
CONTINUOUS
 62
    4
 10
1040.7679950869278
 20
1724.3182845686206
 11
1040.7679950869278
 21
1724.4182845686207
  0
ARC
  8
_0-3_躯体と製品
  6
CONTINUOUS
 62
    4
 10
1041.3536415243416
 20
1722.2184825686209
 40
1.5001980000001158
 50
269.99999999999721
 51
340.52343210418769
  0
LINE
  8
_0-3_躯体と製品
  6
CONTINUOUS
 62
    4
 10
1040.7679950869278
 20
1724.3182845686206
 11
1040.7679950869278
 21
1721.7182845686207
  0
LINE
  8
_0-3_躯体と製品
  6
CONTINUOUS
 62
    4
 10
1035.2680510869277
 20
1754.6182845686208
 11
1025.7680510869268
 21
1754.6182845686208
  0
LINE
  8
_0-3_躯体と製品
  6
CONTINUOUS
 62
    4
 10
1005.7679950869278
 20
1754.6182845686208
 11
1005.7679950869278
 21
1753.0182845686206
  0
LINE
  8
_0-3_躯体と製品
  6
CONTINUOUS
 62
    4
 10
1025.7679950869278
 20
1754.6182845686208
 11
1025.7679950869278
 21
1753.0182845686206
  0
ARC
  8
_0-3_躯体と製品
  6
CONTINUOUS
 62
    4
 10
1038.4679950869277
 20
1724.4182845686205
 40
2.3000000000000678
 50
0.0000000000028389
 51
90.000000000002856
  0
ARC
  8
_0-3_躯体と製品
  6
CONTINUOUS
 62
    3
 10
1047.5679950869285
 20
1730.4324981309928
 40
1.4999999999997058
 50
289.47122063451957
 51
0.0000000000293501
  0
ARC
  8
_0-3_躯体と製品
  6
CONTINUOUS
 62
    4
 10
1035.2680510869272
 20
1758.5182845686202
 40
5.4999999999995444
 50
270.00000000000472
 51
0.0000000000047453
  0
ARC
  8
_0-3_躯体と製品
  6
CONTINUOUS
 62
    4
 10
1035.2680510869275
 20
1758.5182845686204
 40
3.8999999999998631
 50
270.00000000000335
 51
0.0000000000033586
  0
LINE
  8
_0-3_躯体と製品
  6
CONTINUOUS
 62
    4
 10
1035.2680510869277
 20
1801.4182845686209
 11
996.26805108692679
 21
1801.4182845686209
  0
LINE
  8
_0-3_躯体と製品
  6
CONTINUOUS
 62
    4
 10
996.26805108692679
 20
1803.0182845686206
 11
1035.2680510869277
 21
1803.0182845686206
  0
LINE
  8
_0-3_躯体と製品
  6
CONTINUOUS
 62
    4
 10
995.76799508692784
 20
1810.0182845686206
 11
1035.7679950869278
 21
1810.0182845686206
  0
LINE
  8
_0-3_躯体と製品
  6
CONTINUOUS
 62
    3
 10
1045.7679950869278
 20
1812.5182845686204
 11
985.76799508692784
 21
1812.5182845686206
  0
LINE
  8
_0-3_躯体と製品
  6
CONTINUOUS
 62
    3
 10
1045.7679950869278
 20
1817.5182845686204
 11
985.76799508692784
 21
1817.5182845686206
  0
ARC
  8
_0-3_躯体と製品
  6
CONTINUOUS
 62
    4
 10
982.22961473568523
 20
1807.0182845686204
 40
3.2455486276350798
 50
292.43051456131434
 51
67.56948543868566
  0
ARC
  8
_0-3_躯体と製品
  6
CONTINUOUS
 62
    4
 10
982.22961473568557
 20
1807.0182845686204
 40
5.545548627634628
 50
309.64714376104513
 51
50.352856238954857
  0
LINE
  8
_0-3_躯体と製品
  6
CONTINUOUS
 62
    4
 10
995.76799508692784
 20
1810.0182845686206
 11
995.76799508692784
 21
1803.0182845686206
  0
ARC
  8
_0-3_躯体と製品
  6
CONTINUOUS
 62
    4
 10
996.26805108692724
 20
1797.5182845686211
 40
5.4999999999995444
 50
90.000000000004732
 51
180.00000000000472
  0
ARC
  8
_0-3_躯体と製品
  6
CONTINUOUS
 62
    4
 10
996.26805108692645
 20
1797.5182845686204
 40
3.9000000000002042
 50
89.999999999994955
 51
179.99999999999497
  0
LINE
  8
_0-3_躯体と製品
  6
CONTINUOUS
 62
    4
 10
995.76799508692784
 20
1805.0182845686206
 11
990.76799508692784
 21
1805.0182845686206
  0
LINE
  8
_0-3_躯体と製品
  6
CONTINUOUS
 62
    4
 10
985.76799508692784
 20
1824.0182845686206
 11
983.46799508692766
 21
1824.0182845686206
  0
LINE
  8
_0-3_躯体と製品
  6
CONTINUOUS
 62
    4
 10
983.46799508420736
 20
1810.0182845697541
 11
983.46799508692766
 21
1824.0182845686206
  0
ARC
  8
_0-3_躯体と製品
  6
CONTINUOUS
 62
    3
 10
983.9679950861339
 20
1817.6040710063101
 40
1.5000000000002744
 50
109.47122064168337
 51
179.99999999999974
  0
ARC
  8
_0-3_躯体と製品
  6
CONTINUOUS
 62
    3
 10
982.46799508619927
 20
1817.2682845686204
 40
3.0000000000001137
 50
90.000000000002188
 51
180.00000000000219
  0
LINE
  8
_0-3_躯体と製品
  6
CONTINUOUS
 62
    3
 10
979.46799508619915
 20
1817.2682845686204
 11
979.4679950869795
 21
1812.7683530195134
  0
LINE
  8
_0-3_躯体と製品
  6
CONTINUOUS
 62
    3
 10
983.46799508619824
 20
1820.2682845686206
 11
982.46799508619915
 21
1820.2682845686206
  0
LINE
  8
_0-3_躯体と製品
  6
CONTINUOUS
 62
    4
 10
985.76799508692784
 20
1811.2882932420785
 11
985.76799508692784
 21
1824.0182845686206
  0
LINE
  8
_0-3_躯体と製品
  6
CONTINUOUS
 62
    3
 10
990.76799508692784
 20
1808.0182845686206
 11
995.76799508692784
 21
1808.0182845686206
  0
LINE
  8
_0-3_躯体と製品
  6
CONTINUOUS
 62
    4
 10
987.17967491226682
 20
1809.5182873345593
 11
990.76799508692784
 21
1809.5183145686208
  0
LINE
  8
_0-3_躯体と製品
  6
CONTINUOUS
 62
    4
 10
990.76799508692784
 20
1809.5183145686208
 11
990.76799508692784
 21
1755.0182845686206
  0
ARC
  8
_0-3_躯体と製品
  6
CONTINUOUS
 62
    4
 10
992.76799508692784
 20
1755.0182845686206
 40
1.9999999999999998
 50
180
 51
270
  0
LINE
  8
_0-3_躯体と製品
  6
CONTINUOUS
 62
    4
 10
992.76799508692784
 20
1753.0182845686206
 11
1038.7679950869278
 21
1753.0182845686206
  0
ARC
  8
_0-3_躯体と製品
  6
CONTINUOUS
 62
    4
 10
1038.7679950869278
 20
1755.0182845686206
 40
1.9999999999999998
 50
270
 51
0.0000000000000127
  0
LINE
  8
_0-3_躯体と製品
  6
CONTINUOUS
 62
    4
 10
1040.7679950869278
 20
1755.0182845686206
 11
1040.7679950869278
 21
1809.5182845686206
  0
LINE
  8
_0-3_躯体と製品
  6
CONTINUOUS
 62
    4
 10
1040.7679950869278
 20
1809.5182845686206
 11
1044.3563001104767
 21
1809.518257334674
  0
ARC
  8
_0-3_躯体と製品
  6
CONTINUOUS
 62
    4
 10
1049.3063754382783
 20
1807.0182845686209
 40
3.2455486276761412
 50
112.43051456307907
 51
247.56948543693835
  0
ARC
  8
_0-3_躯体と製品
  6
CONTINUOUS
 62
    4
 10
1049.3063754382777
 20
1807.0182845686204
 40
5.5455486276759514
 50
129.6471437621347
 51
230.35285623786527
  0
LINE
  8
_0-3_躯体と製品
  6
CONTINUOUS
 62
    4
 10
1035.7679950869278
 20
1810.0182845686206
 11
1035.7679950869278
 21
1803.0182845686206
  0
ARC
  8
_0-3_躯体と製品
  6
CONTINUOUS
 62
    4
 10
1035.2680510869272
 20
1797.5182845686211
 40
5.4999999999995444
 50
359.99999999999528
 51
89.999999999995282
  0
ARC
  8
_0-3_躯体と製品
  6
CONTINUOUS
 62
    4
 10
1035.2680510869277
 20
1797.5182845686209
 40
3.8999999999997494
 50
359.99999999999835
 51
89.999999999998352
  0
LINE
  8
_0-3_躯体と製品
  6
CONTINUOUS
 62
    4
 10
1040.7679950869278
 20
1805.0182845686206
 11
1035.7679950869278
 21
1805.0182845686206
  0
LINE
  8
_0-3_躯体と製品
  6
CONTINUOUS
 62
    4
 10
1045.7679950869278
 20
1824.0182845686206
 11
1048.067995086928
 21
1824.0182845686206
  0
LINE
  8
_0-3_躯体と製品
  6
CONTINUOUS
 62
    4
 10
1045.7679950869278
 20
1811.2882932420423
 11
1045.7679950869278
 21
1824.0182845686206
  0
LINE
  8
_0-3_躯体と製品
  6
CONTINUOUS
 62
    3
 10
1040.4679950869277
 20
1818.0182845686206
 11
1039.9679950869277
 21
1817.5182845686206
  0
LINE
  8
_0-3_躯体と製品
  6
CONTINUOUS
 62
    3
 10
1040.4679950869277
 20
1812.0182845686204
 11
1039.9679950869277
 21
1812.5182845686206
  0
LINE
  8
_0-3_躯体と製品
  6
CONTINUOUS
 62
    3
 10
1035.7679950869278
 20
1808.0182845686206
 11
1040.7679950869278
 21
1808.0182845686206
  0
LINE
  8
_0-3_躯体と製品
  6
CONTINUOUS
 62
    3
 10
1045.7679950869278
 20
1818.0182845686206
 11
1040.4679950869277
 21
1818.0182845686206
  0
LINE
  8
_0-3_躯体と製品
  6
CONTINUOUS
 62
    3
 10
1045.7679950869278
 20
1812.0182845686204
 11
1040.4679950869277
 21
1812.0182845686204
  0
LINE
  8
_0-3_躯体と製品
  6
CONTINUOUS
 62
    3
 10
1040.4679950869277
 20
1812.0182845686204
 11
1040.4679950869277
 21
1818.0182845686206
  0
LINE
  8
_0-3_躯体と製品
  6
CONTINUOUS
 62
    4
 10
1048.067995086928
 20
1824.0182845686206
 11
1048.067995086928
 21
1810.0182845686206
  0
LINE
  8
_0-3_躯体と製品
  6
CONTINUOUS
 62
    3
 10
1054.6085650869272
 20
1810.6432845686204
 11
1054.6085650869272
 21
1819.3932845686206
  0
LINE
  8
_0-3_躯体と製品
  6
CONTINUOUS
 62
    3
 10
1054.6085650869272
 20
1819.3932845686206
 11
1054.6085650869272
 21
1810.6432845686204
  0
LINE
  8
_0-3_躯体と製品
  6
CONTINUOUS
 62
    3
 10
1049.6085650869272
 20
1810.6432845686204
 11
1049.6085650869272
 21
1819.3932845686206
  0
LINE
  8
_0-3_躯体と製品
  6
CONTINUOUS
 62
    3
 10
1049.6085650869272
 20
1821.1182845686205
 11
1049.6085650869272
 21
1808.9182845686205
  0
LINE
  8
_0-3_躯体と製品
  6
CONTINUOUS
 62
    3
 10
1054.0085650869287
 20
1817.5182845686204
 11
1050.2085650869276
 21
1817.5182845686204
  0
LINE
  8
_0-3_躯体と製品
  6
CONTINUOUS
 62
    3
 10
1054.0085650869287
 20
1812.5182845686204
 11
1050.2085650869276
 21
1812.5182845686204
  0
LINE
  8
_0-3_躯体と製品
  6
CONTINUOUS
 62
    3
 10
1054.0085650869287
 20
1810.0182845686206
 11
1050.2085650869276
 21
1810.0182845686206
  0
ARC
  8
_0-3_躯体と製品
  6
CONTINUOUS
 62
    3
 10
1051.2106490869282
 20
1818.7682845686222
 40
1.6020840000010974
 50
180.0000000000571
 51
231.28201200006205
  0
ARC
  8
_0-3_躯体と製品
  6
CONTINUOUS
 62
    3
 10
1055.1168990869285
 20
1815.0182845686204
 40
5.5083340000001666
 50
153.00853300000176
 51
206.99146699999824
  0
ARC
  8
_0-3_躯体と製品
  6
CONTINUOUS
 62
    3
 10
1051.2106490869282
 20
1811.2682845686186
 40
1.6020840000009191
 50
128.71798799993488
 51
179.99999999993784
  0
LINE
  8
_0-3_躯体と製品
  6
CONTINUOUS
 62
    3
 10
1049.6085650869272
 20
1810.6432845686204
 11
1050.2085650869276
 21
1810.0182845686206
  0
ARC
  8
_0-3_躯体と製品
  6
CONTINUOUS
 62
    3
 10
1053.0064810869271
 20
1818.7682845686204
 40
1.6020840000000087
 50
308.71798800000261
 51
0.0000000000056041
  0
ARC
  8
_0-3_躯体と製品
  6
CONTINUOUS
 62
    3
 10
1049.1002310869278
 20
1815.0182845686204
 40
5.5083340000001666
 50
333.00853300000176
 51
26.991466999998252
  0
ARC
  8
_0-3_躯体と製品
  6
CONTINUOUS
 62
    3
 10
1053.0064810869271
 20
1811.2682845686204
 40
1.6020840000000096
 50
359.99999999999443
 51
51.282011999997387
  0
LINE
  8
_0-3_躯体と製品
  6
CONTINUOUS
 62
    3
 10
1054.6085650869272
 20
1810.6432845686204
 11
1054.0085650869287
 21
1810.0182845686206
  0
LINE
  8
_0-3_躯体と製品
  6
CONTINUOUS
 62
    3
 10
1054.0085650869287
 20
1820.0182845686206
 11
1050.2085650869276
 21
1820.0182845686206
  0
LINE
  8
_0-3_躯体と製品
  6
CONTINUOUS
 62
    3
 10
1049.6085650869272
 20
1821.1182845686205
 11
1048.067995086928
 21
1821.1182845686205
  0
LINE
  8
_0-3_躯体と製品
  6
CONTINUOUS
 62
    3
 10
1049.6085650869272
 20
1819.3932845686206
 11
1050.2085650869276
 21
1820.0182845686206
  0
LINE
  8
_0-3_躯体と製品
  6
CONTINUOUS
 62
    3
 10
1054.6085650869272
 20
1819.3932845686206
 11
1054.0085650869287
 21
1820.0182845686206
  0
LINE
  8
_0-3_躯体と製品
  6
CONTINUOUS
 62
    3
 10
1063.4679950869286
 20
1818.0182845686206
 11
1063.4679950869286
 21
1812.0182845686204
  0
LINE
  8
_0-3_躯体と製品
  6
CONTINUOUS
 62
    4
 10
995.7680510869277
 20
1803.0182845686206
 11
1035.7680510869268
 21
1803.0182845686206
  0
ARC
  8
_0-3_躯体と製品
  6
CONTINUOUS
 62
    3
 10
1047.5679950869285
 20
1817.6040710062482
 40
1.499999999999545
 50
359.99999999997499
 51
70.528779365484766
  0
LINE
  8
_0-3_躯体と製品
  6
CONTINUOUS
 62
    3
 10
1049.6085650869272
 20
1808.9182845686205
 11
1049.067995086928
 21
1808.9182845686205
  0
ARC
  8
_0-3_躯体と製品
  6
CONTINUOUS
 62
    3
 10
982.4679950861987
 20
1812.7682845686204
 40
2.9999999999995439
 50
179.99999999998911
 51
269.61294971879431
  0
LINE
  8
_0-3_躯体と製品
  6
CONTINUOUS
 62
    3
 10
982.46799508613185
 20
1809.7683530195136
 11
982.44772933500099
 21
1809.7683530195136
  0
LINE
  8
_0-3_躯体と製品
  6
CONTINUOUS
 62
    4
 10
2060.6519883350047
 20
1690.7182845686204
 11
2060.6519883350047
 21
1536.0182852522987
  0
LINE
  8
_0-3_躯体と製品
  6
CONTINUOUS
 62
    4
 10
2044.6519883350056
 20
1690.7182845686204
 11
2044.6519883350056
 21
1536.0182852522987
  0
LINE
  8
_0-3_躯体と製品
  6
CONTINUOUS
 62
    3
 10
2059.1519883350047
 20
1690.7182845686204
 11
2059.1519883350047
 21
1536.0182852522987
  0
LINE
  8
_0-3_躯体と製品
  6
CONTINUOUS
 62
    3
 10
2046.1519883350047
 20
1690.7182845686204
 11
2046.1519883350047
 21
1536.0182852522987
  0
LINE
  8
_0-3_躯体と製品
  6
CONTINUOUS
 62
    4
 10
2044.6519883350056
 20
1502.818284568609
 11
2044.6519883350056
 21
1420.7194545686207
  0
LINE
  8
_0-3_躯体と製品
  6
CONTINUOUS
 62
    4
 10
2060.6519883350047
 20
1502.818284568609
 11
2060.6519883350047
 21
1420.7194545686207
  0
LINE
  8
_0-3_躯体と製品
  6
CONTINUOUS
 62
    3
 10
2059.1519883350047
 20
1502.818284568609
 11
2059.1519883350047
 21
1419.2194545686207
  0
LINE
  8
_0-3_躯体と製品
  6
CONTINUOUS
 62
    3
 10
2046.1519883350047
 20
1502.818284568609
 11
2046.1519883350047
 21
1419.2194545686207
  0
LINE
  8
_0-3_躯体と製品
  6
CONTINUOUS
 62
    4
 10
2046.1519883350047
 20
1419.2194545686207
 11
2059.1519883350047
 21
1419.2194545686207
  0
LINE
  8
_0-3_躯体と製品
  6
CONTINUOUS
 62
    4
 10
2044.6519883350056
 20
1420.7194545686207
 11
2046.1519883350047
 21
1419.2194545686207
  0
LINE
  8
_0-3_躯体と製品
  6
CONTINUOUS
 62
    4
 10
2060.6519883350047
 20
1420.7194545686207
 11
2059.1519883350047
 21
1419.2194545686207
  0
LINE
  8
_0-3_躯体と製品
  6
CONTINUOUS
 62
    3
 10
2044.6519883350056
 20
1420.7194545686207
 11
2060.6519883350047
 21
1420.7194545686207
  0
LINE
  8
_0-3_躯体と製品
  6
CONTINUOUS
 62
    4
 10
2042.2596834895885
 20
1707.7182845686204
 11
2063.0442931804218
 21
1707.7182845686204
  0
LINE
  8
_0-3_躯体と製品
  6
CONTINUOUS
 62
    4
 10
2045.7237851047466
 20
1709.2182845686207
 11
2045.7237851047466
 21
1720.7182845686207
  0
LINE
  8
_0-3_躯体と製品
  6
CONTINUOUS
 62
    4
 10
2059.5801915652928
 20
1692.2182845686207
 11
2059.5801915652928
 21
1703.7182845686207
  0
LINE
  8
_0-3_躯体と製品
  6
CONTINUOUS
 62
    4
 10
2059.5801915652928
 20
1709.2182845686207
 11
2059.5801915652928
 21
1720.7182845686207
  0
LINE
  8
_0-3_躯体と製品
  6
CONTINUOUS
 62
    4
 10
2045.7237851047466
 20
1692.2182845686207
 11
2045.7237851047466
 21
1703.7182845686207
  0
ARC
  8
_0-3_躯体と製品
  6
CONTINUOUS
 62
    4
 10
2042.259683489603
 20
1712.4682845686266
 40
4.7500000000083809
 50
223.17355110726379
 51
316.82644889273621
  0
ARC
  8
_0-3_躯体と製品
  6
CONTINUOUS
 62
    4
 10
2052.6519883350197
 20
1724.4682842481816
 40
16.749999708255991
 50
245.56730186717647
 51
294.43269813282353
  0
ARC
  8
_0-3_躯体と製品
  6
CONTINUOUS
 62
    4
 10
2063.0442931804218
 20
1712.4682845686134
 40
4.7499999999887379
 50
223.17355110726777
 51
316.82644889273217
  0
LINE
  8
_0-3_躯体と製品
  6
CONTINUOUS
 62
    4
 10
2066.5083947955509
 20
1709.2182845686207
 11
2066.5083947955509
 21
1720.7182845686207
  0
LINE
  8
_0-3_躯体と製品
  6
CONTINUOUS
 62
    4
 10
2066.5083947955509
 20
1720.7182845686207
 11
2038.7955818744595
 21
1720.7182845686207
  0
LINE
  8
_0-3_躯体と製品
  6
CONTINUOUS
 62
    4
 10
2038.7955818744595
 20
1720.7182845686207
 11
2038.7955818744595
 21
1709.2182845686207
  0
LINE
  8
_0-3_躯体と製品
  6
CONTINUOUS
 62
    4
 10
2038.6519883306682
 20
1703.7182845686207
 11
2066.6519883680367
 21
1703.7182845686207
  0
LINE
  8
_0-3_躯体と製品
  6
CONTINUOUS
 62
    4
 10
2066.6519883680367
 20
1703.7182845686207
 11
2066.6519883680367
 21
1707.7182845686204
  0
LINE
  8
_0-3_躯体と製品
  6
CONTINUOUS
 62
    4
 10
2066.6519883680367
 20
1707.7182845686204
 11
2038.6519883306682
 21
1707.7182845686204
  0
LINE
  8
_0-3_躯体と製品
  6
CONTINUOUS
 62
    4
 10
2038.6519883306682
 20
1707.7182845686204
 11
2038.6519883306682
 21
1703.7182845686207
  0
LINE
  8
_0-3_躯体と製品
  6
CONTINUOUS
 62
    4
 10
2042.2596834895885
 20
1690.7182845686204
 11
2063.0442931804218
 21
1690.7182845686204
  0
LINE
  8
_0-3_躯体と製品
  6
CONTINUOUS
 62
    4
 10
2052.6519883493529
 20
1703.7182845686207
 11
2056.6519883493529
 21
1707.7182845686204
  0
ARC
  8
_0-3_躯体と製品
  6
CONTINUOUS
 62
    4
 10
2042.259683489603
 20
1695.4682845686273
 40
4.7500000000088578
 50
223.1735511072699
 51
316.82644889273007
  0
ARC
  8
_0-3_躯体と製品
  6
CONTINUOUS
 62
    4
 10
2052.6519883350197
 20
1707.4682845686168
 40
16.749999999995538
 50
245.56730232054764
 51
294.43269767945236
  0
ARC
  8
_0-3_躯体と製品
  6
CONTINUOUS
 62
    4
 10
2063.0442931804218
 20
1695.4682845686123
 40
4.749999999987951
 50
223.17355110725768
 51
316.82644889274235
  0
LINE
  8
_0-3_躯体と製品
  6
CONTINUOUS
 62
    4
 10
2066.5083947955509
 20
1692.2182845686207
 11
2066.5083947955509
 21
1703.7182845686207
  0
LINE
  8
_0-3_躯体と製品
  6
CONTINUOUS
 62
    4
 10
2066.5083947955509
 20
1703.7182845686207
 11
2038.7955818744595
 21
1703.7182845686207
  0
LINE
  8
_0-3_躯体と製品
  6
CONTINUOUS
 62
    4
 10
2038.7955818744595
 20
1703.7182845686207
 11
2038.7955818744595
 21
1692.2182845686207
  0
LINE
  8
_0-3_躯体と製品
  6
CONTINUOUS
 62
    4
 10
2048.6519883019719
 20
1703.7182845399243
 11
2052.6519883019719
 21
1707.7182845399243
  0
LINE
  8
_0-3_躯体と製品
  6
CONTINUOUS
 62
    3
 10
2086.4925583350059
 20
1810.3339345686202
 11
2086.7895343350046
 21
1810.3339345686202
  0
LINE
  8
_0-3_躯体と製品
  6
CONTINUOUS
 62
    3
 10
2091.492558335005
 20
1812.5182845686204
 11
2100.3519883350045
 21
1812.5182845686206
  0
LINE
  8
_0-3_躯体と製品
  6
CONTINUOUS
 62
    3
 10
2091.492558335005
 20
1817.5182845686204
 11
2100.3519883350045
 21
1817.5182845686206
  0
LINE
  8
_0-3_躯体と製品
  6
CONTINUOUS
 62
    3
 10
2091.492558335005
 20
1818.0182845686206
 11
2100.3519883350045
 21
1818.0182845686206
  0
LINE
  8
_0-3_躯体と製品
  6
CONTINUOUS
 62
    3
 10
2100.3519883350045
 20
1812.0182845686204
 11
2091.492558335005
 21
1812.0182845686204
  0
LINE
  8
_0-3_躯体と製品
  6
CONTINUOUS
 62
    4
 10
2029.2520443350049
 20
1758.5182845686206
 11
2029.2520443350049
 21
1797.5182845686206
  0
LINE
  8
_0-3_躯体と製品
  6
CONTINUOUS
 62
    4
 10
2076.0520443350042
 20
1797.5182845686206
 11
2076.0520443350042
 21
1758.5182845686206
  0
LINE
  8
_0-3_躯体と製品
  6
CONTINUOUS
 62
    4
 10
2082.6519883350047
 20
1802.7482758951987
 11
2082.6519883350047
 21
1726.3182845686206
  0
ARC
  8
_0-3_躯体と製品
  6
CONTINUOUS
 62
    4
 10
2080.3519883350041
 20
1726.318284568621
 40
2.3000000000005683
 50
269.99999999998698
 51
359.99999999998471
  0
LINE
  8
_0-3_躯体と製品
  6
CONTINUOUS
 62
    4
 10
2080.3519883350036
 20
1724.0182845686206
 11
2077.6519883350047
 21
1724.0182845686206
  0
LINE
  8
_0-3_躯体と製品
  6
CONTINUOUS
 62
    3
 10
2085.9519883350049
 20
1730.4324981309937
 11
2085.9519883350049
 21
1817.6040710062475
  0
LINE
  8
_0-3_躯体と製品
  6
CONTINUOUS
 62
    4
 10
2052.6519883350047
 20
1721.7182845686207
 11
2024.9519883350049
 21
1721.7182845686207
  0
ARC
  8
_0-3_躯体と製品
  6
CONTINUOUS
 62
    4
 10
2024.9519883350051
 20
1726.3182845686204
 40
4.5999999999997163
 50
179.99999999999761
 51
269.99999999999676
  0
LINE
  8
_0-3_躯体と製品
  6
CONTINUOUS
 62
    4
 10
2020.3519883350054
 20
1726.3182845686206
 11
2020.3519883322833
 21
1804.0182845674869
  0
LINE
  8
_0-3_躯体と製品
  6
CONTINUOUS
 62
    3
 10
2019.3519883342105
 20
1817.6040710063101
 11
2019.3519883341933
 21
1730.4324981312457
  0
LINE
  8
_0-3_躯体と製品
  6
CONTINUOUS
 62
    4
 10
2033.1520443350037
 20
1754.6182845686208
 11
2042.6520443350037
 21
1754.6182845686208
  0
LINE
  8
_0-3_躯体と製品
  6
PLINE2
 62
    3
 10
2027.6519883350047
 20
1724.0182845686206
 11
2077.6519883350047
 21
1724.0182845686206
  0
LINE
  8
_0-3_躯体と製品
  6
CONTINUOUS
 62
    4
 10
2084.9519883350049
 20
1804.0182845686202
 11
2084.9519883350049
 21
1726.3182845686206
  0
ARC
  8
_0-3_躯体と製品
  6
CONTINUOUS
 62
    4
 10
2080.3519883350041
 20
1726.3182845686213
 40
4.6000000000006258
 50
269.99999999999193
 51
359.99999999999108
  0
LINE
  8
_0-3_躯体と製品
  6
CONTINUOUS
 62
    4
 10
2080.3519883350036
 20
1721.7182845686207
 11
2052.6519883350047
 21
1721.7182845686207
  0
LINE
  8
_0-3_躯体と製品
  6
CONTINUOUS
 62
    4
 10
2027.0663418975919
 20
1720.7182845686207
 11
2078.2376347724176
 21
1720.7182845686207
  0
LINE
  8
_0-3_躯体と製品
  6
CONTINUOUS
 62
    4
 10
2029.9519883350049
 20
1726.7182845686207
 11
2075.3519883350045
 21
1726.7182845686207
  0
LINE
  8
_0-3_躯体と製品
  6
CONTINUOUS
 62
    4
 10
2027.6519883350047
 20
1724.3182845686206
 11
2027.6519883350047
 21
1724.4182845686207
  0
LINE
  8
_0-3_躯体と製品
  6
CONTINUOUS
 62
    4
 10
2027.6519883350047
 20
1724.0182845686206
 11
2024.9519883350049
 21
1724.0182845686206
  0
ARC
  8
_0-3_躯体と製品
  6
CONTINUOUS
 62
    4
 10
2024.9519883350049
 20
1726.3182845686206
 40
2.3000000000001135
 50
180.00000000000398
 51
270.00000000000171
  0
LINE
  8
_0-3_躯体と製品
  6
CONTINUOUS
 62
    4
 10
2022.6519883350047
 20
1726.3182845686206
 11
2022.6519883350047
 21
1802.7482758951626
  0
ARC
  8
_0-3_躯体と製品
  6
CONTINUOUS
 62
    4
 10
2027.0663418975914
 20
1722.2184825686213
 40
1.5001980000007589
 50
199.47656789582967
 51
270.00000000002012
  0
LINE
  8
_0-3_躯体と製品
  6
CONTINUOUS
 62
    4
 10
2027.6519883350047
 20
1724.3182845686206
 11
2027.6519883350047
 21
1721.7182845686207
  0
ARC
  8
_0-3_躯体と製品
  6
CONTINUOUS
 62
    3
 10
2020.8519883341937
 20
1730.4324981312463
 40
1.5000000000005351
 50
180.00000000002407
 51
250.52877939442016
  0
ARC
  8
_0-3_躯体と製品
  6
CONTINUOUS
 62
    4
 10
2029.9519883350049
 20
1724.4182845686205
 40
2.3000000000000678
 50
89.999999999997144
 51
179.99999999999716
  0
ARC
  8
_0-3_躯体と製品
  6
CONTINUOUS
 62
    4
 10
2033.1520443350037
 20
1758.5182845686206
 40
5.5
 50
180
 51
270
  0
ARC
  8
_0-3_躯体と製品
  6
CONTINUOUS
 62
    4
 10
2033.1520443350043
 20
1758.5182845686199
 40
3.8999999999994084
 50
179.99999999998997
 51
269.99999999999
  0
LINE
  8
_0-3_躯体と製品
  6
CONTINUOUS
 62
    4
 10
2077.6519883350047
 20
1724.3182845686206
 11
2077.6519883350047
 21
1724.4182845686207
  0
ARC
  8
_0-3_躯体と製品
  6
CONTINUOUS
 62
    4
 10
2078.237634772418
 20
1722.2184825686213
 40
1.5001980000007589
 50
269.99999999997988
 51
340.5234321041703
  0
LINE
  8
_0-3_躯体と製品
  6
CONTINUOUS
 62
    4
 10
2077.6519883350047
 20
1724.3182845686206
 11
2077.6519883350047
 21
1721.7182845686207
  0
LINE
  8
_0-3_躯体と製品
  6
CONTINUOUS
 62
    4
 10
2072.1520443350037
 20
1754.6182845686208
 11
2062.6520443350037
 21
1754.6182845686208
  0
LINE
  8
_0-3_躯体と製品
  6
CONTINUOUS
 62
    4
 10
2042.6519883350047
 20
1754.6182845686208
 11
2042.6519883350047
 21
1753.0182845686206
  0
LINE
  8
_0-3_躯体と製品
  6
CONTINUOUS
 62
    4
 10
2062.6519883350056
 20
1754.6182845686208
 11
2062.6519883350056
 21
1753.0182845686206
  0
ARC
  8
_0-3_躯体と製品
  6
CONTINUOUS
 62
    4
 10
2075.3519883350045
 20
1724.4182845686205
 40
2.3000000000000678
 50
0.0000000000028389
 51
90.000000000002856
  0
ARC
  8
_0-3_躯体と製品
  6
CONTINUOUS
 62
    3
 10
2084.4519883350049
 20
1730.4324981309937
 40
1.5000000000001605
 50
289.47122063449501
 51
0.0000000000047835
  0
ARC
  8
_0-3_躯体と製品
  6
CONTINUOUS
 62
    4
 10
2072.1520443350041
 20
1758.5182845686211
 40
5.5000000000004539
 50
269.99999999999528
 51
359.99999999999528
  0
ARC
  8
_0-3_躯体と製品
  6
CONTINUOUS
 62
    4
 10
2072.1520443350037
 20
1758.5182845686209
 40
3.9000000000003179
 50
269.99999999999665
 51
359.99999999999665
  0
LINE
  8
_0-3_躯体と製品
  6
CONTINUOUS
 62
    4
 10
2072.1520443350037
 20
1801.4182845686209
 11
2033.1520443350037
 21
1801.4182845686209
  0
LINE
  8
_0-3_躯体と製品
  6
CONTINUOUS
 62
    4
 10
2033.1520443350037
 20
1803.0182845686206
 11
2072.1520443350037
 21
1803.0182845686206
  0
LINE
  8
_0-3_躯体と製品
  6
CONTINUOUS
 62
    4
 10
2032.6519883350047
 20
1810.0182845686206
 11
2072.6519883350038
 21
1810.0182845686206
  0
LINE
  8
_0-3_躯体と製品
  6
CONTINUOUS
 62
    3
 10
2082.6519883350047
 20
1812.5182845686204
 11
2022.6519883350047
 21
1812.5182845686206
  0
LINE
  8
_0-3_躯体と製品
  6
CONTINUOUS
 62
    3
 10
2082.6519883350047
 20
1817.5182845686204
 11
2022.6519883350047
 21
1817.5182845686206
  0
ARC
  8
_0-3_躯体と製品
  6
CONTINUOUS
 62
    4
 10
2019.1136079837629
 20
1807.0182845686204
 40
3.2455486276350798
 50
292.43051456131434
 51
67.56948543868566
  0
ARC
  8
_0-3_躯体と製品
  6
CONTINUOUS
 62
    4
 10
2019.1136079837624
 20
1807.0182845686204
 40
5.545548627634628
 50
309.64714376104513
 51
50.352856238954857
  0
LINE
  8
_0-3_躯体と製品
  6
CONTINUOUS
 62
    4
 10
2032.6519883350047
 20
1810.0182845686206
 11
2032.6519883350047
 21
1803.0182845686206
  0
ARC
  8
_0-3_躯体と製品
  6
CONTINUOUS
 62
    4
 10
2033.1520443350037
 20
1797.5182845686206
 40
5.5
 50
90
 51
180
  0
ARC
  8
_0-3_躯体と製品
  6
CONTINUOUS
 62
    4
 10
2033.1520443350041
 20
1797.5182845686213
 40
3.8999999999992947
 50
90.000000000008342
 51
180.00000000000836
  0
LINE
  8
_0-3_躯体と製品
  6
CONTINUOUS
 62
    4
 10
2032.6519883350047
 20
1805.0182845686206
 11
2027.6519883350047
 21
1805.0182845686206
  0
LINE
  8
_0-3_躯体と製品
  6
CONTINUOUS
 62
    4
 10
2022.6519883350047
 20
1824.0182845686206
 11
2020.3519883350054
 21
1824.0182845686206
  0
LINE
  8
_0-3_躯体と製品
  6
CONTINUOUS
 62
    4
 10
2020.3519883322833
 20
1810.0182845697541
 11
2020.3519883350054
 21
1824.0182845686206
  0
ARC
  8
_0-3_躯体と製品
  6
CONTINUOUS
 62
    3
 10
2020.8519883342108
 20
1817.6040710063101
 40
1.5000000000002744
 50
109.47122064168337
 51
179.99999999999974
  0
ARC
  8
_0-3_躯体と製品
  6
CONTINUOUS
 62
    3
 10
2019.351988334276
 20
1817.2682845686204
 40
3.0000000000001137
 50
90.000000000002188
 51
180.00000000000219
  0
LINE
  8
_0-3_躯体と製品
  6
CONTINUOUS
 62
    3
 10
2016.351988334276
 20
1817.2682845686204
 11
2016.3519883350564
 21
1812.7683530195134
  0
LINE
  8
_0-3_躯体と製品
  6
CONTINUOUS
 62
    3
 10
2020.351988334276
 20
1820.2682845686206
 11
2019.351988334276
 21
1820.2682845686206
  0
LINE
  8
_0-3_躯体と製品
  6
CONTINUOUS
 62
    4
 10
2022.6519883350047
 20
1811.2882932420785
 11
2022.6519883350047
 21
1824.0182845686206
  0
LINE
  8
_0-3_躯体と製品
  6
CONTINUOUS
 62
    3
 10
2027.6519883350047
 20
1808.0182845686206
 11
2032.6519883350047
 21
1808.0182845686206
  0
LINE
  8
_0-3_躯体と製品
  6
CONTINUOUS
 62
    4
 10
2024.0636681603428
 20
1809.5182873345593
 11
2027.6519883350047
 21
1809.5183145686208
  0
LINE
  8
_0-3_躯体と製品
  6
CONTINUOUS
 62
    4
 10
2027.6519883350047
 20
1809.5183145686208
 11
2027.6519883350047
 21
1755.0182845686206
  0
ARC
  8
_0-3_躯体と製品
  6
CONTINUOUS
 62
    4
 10
2029.6519883350047
 20
1755.0182845686206
 40
1.9999999999999998
 50
180
 51
270
  0
LINE
  8
_0-3_躯体と製品
  6
CONTINUOUS
 62
    4
 10
2029.6519883350047
 20
1753.0182845686206
 11
2075.6519883350047
 21
1753.0182845686206
  0
ARC
  8
_0-3_躯体と製品
  6
CONTINUOUS
 62
    4
 10
2075.6519883350047
 20
1755.0182845686206
 40
1.9999999999999998
 50
270
 51
0.0000000000000127
  0
LINE
  8
_0-3_躯体と製品
  6
CONTINUOUS
 62
    4
 10
2077.6519883350047
 20
1755.0182845686206
 11
2077.6519883350047
 21
1809.5182845686206
  0
LINE
  8
_0-3_躯体と製品
  6
CONTINUOUS
 62
    4
 10
2077.6519883350047
 20
1809.5182845686206
 11
2081.2402933585527
 21
1809.518257334674
  0
ARC
  8
_0-3_躯体と製品
  6
CONTINUOUS
 62
    4
 10
2086.1903686863543
 20
1807.0182845686209
 40
3.2455486276761412
 50
112.43051456307907
 51
247.56948543693835
  0
ARC
  8
_0-3_躯体と製品
  6
CONTINUOUS
 62
    4
 10
2086.1903686863543
 20
1807.0182845686204
 40
5.5455486276759514
 50
129.6471437621347
 51
230.35285623786527
  0
LINE
  8
_0-3_躯体と製品
  6
CONTINUOUS
 62
    4
 10
2072.6519883350038
 20
1810.0182845686206
 11
2072.6519883350038
 21
1803.0182845686206
  0
ARC
  8
_0-3_躯体と製品
  6
CONTINUOUS
 62
    4
 10
2072.1520443350041
 20
1797.5182845686202
 40
5.5000000000004539
 50
0.0000000000047416
 51
90.000000000004761
  0
ARC
  8
_0-3_躯体と製品
  6
CONTINUOUS
 62
    4
 10
2072.1520443350041
 20
1797.5182845686204
 40
3.9000000000002042
 50
0.000000000005016
 51
90.000000000005031
  0
LINE
  8
_0-3_躯体と製品
  6
CONTINUOUS
 62
    4
 10
2077.6519883350047
 20
1805.0182845686206
 11
2072.6519883350038
 21
1805.0182845686206
  0
LINE
  8
_0-3_躯体と製品
  6
CONTINUOUS
 62
    4
 10
2082.6519883350047
 20
1824.0182845686206
 11
2084.951988335004
 21
1824.0182845686206
  0
LINE
  8
_0-3_躯体と製品
  6
CONTINUOUS
 62
    4
 10
2082.6519883350047
 20
1811.2882932420423
 11
2082.6519883350047
 21
1824.0182845686206
  0
LINE
  8
_0-3_躯体と製品
  6
CONTINUOUS
 62
    3
 10
2077.3519883350045
 20
1818.0182845686206
 11
2076.8519883350045
 21
1817.5182845686206
  0
LINE
  8
_0-3_躯体と製品
  6
CONTINUOUS
 62
    3
 10
2077.3519883350045
 20
1812.0182845686204
 11
2076.8519883350045
 21
1812.5182845686206
  0
LINE
  8
_0-3_躯体と製品
  6
CONTINUOUS
 62
    3
 10
2072.6519883350038
 20
1808.0182845686206
 11
2077.6519883350047
 21
1808.0182845686206
  0
LINE
  8
_0-3_躯体と製品
  6
CONTINUOUS
 62
    3
 10
2082.6519883350047
 20
1818.0182845686206
 11
2077.3519883350045
 21
1818.0182845686206
  0
LINE
  8
_0-3_躯体と製品
  6
CONTINUOUS
 62
    3
 10
2082.6519883350047
 20
1812.0182845686204
 11
2077.3519883350045
 21
1812.0182845686204
  0
LINE
  8
_0-3_躯体と製品
  6
CONTINUOUS
 62
    3
 10
2077.3519883350045
 20
1812.0182845686204
 11
2077.3519883350045
 21
1818.0182845686206
  0
LINE
  8
_0-3_躯体と製品
  6
CONTINUOUS
 62
    4
 10
2084.951988335004
 20
1824.0182845686206
 11
2084.951988335004
 21
1810.0182845686206
  0
LINE
  8
_0-3_躯体と製品
  6
CONTINUOUS
 62
    3
 10
2091.492558335005
 20
1810.6432845686204
 11
2091.492558335005
 21
1819.3932845686206
  0
LINE
  8
_0-3_躯体と製品
  6
CONTINUOUS
 62
    3
 10
2091.492558335005
 20
1819.3932845686206
 11
2091.492558335005
 21
1810.6432845686204
  0
LINE
  8
_0-3_躯体と製品
  6
CONTINUOUS
 62
    3
 10
2086.4925583350059
 20
1810.6432845686204
 11
2086.4925583350059
 21
1819.3932845686206
  0
LINE
  8
_0-3_躯体と製品
  6
CONTINUOUS
 62
    3
 10
2086.4925583350059
 20
1821.1182845686205
 11
2086.4925583350059
 21
1808.9182845686205
  0
LINE
  8
_0-3_躯体と製品
  6
CONTINUOUS
 62
    3
 10
2090.8925583350047
 20
1817.5182845686204
 11
2087.0925583350045
 21
1817.5182845686204
  0
LINE
  8
_0-3_躯体と製品
  6
CONTINUOUS
 62
    3
 10
2090.8925583350047
 20
1812.5182845686204
 11
2087.0925583350045
 21
1812.5182845686204
  0
LINE
  8
_0-3_躯体と製品
  6
CONTINUOUS
 62
    3
 10
2090.8925583350047
 20
1810.0182845686206
 11
2087.0925583350045
 21
1810.0182845686206
  0
ARC
  8
_0-3_躯体と製品
  6
CONTINUOUS
 62
    3
 10
2088.094642335006
 20
1818.7682845686204
 40
1.6020840000001881
 50
179.99999999998934
 51
231.2820119999943
  0
ARC
  8
_0-3_躯体と製品
  6
CONTINUOUS
 62
    3
 10
2092.0008923350051
 20
1815.0182845686204
 40
5.5083340000001666
 50
153.00853300000176
 51
206.99146699999824
  0
ARC
  8
_0-3_躯体と製品
  6
CONTINUOUS
 62
    3
 10
2088.094642335006
 20
1811.2682845686204
 40
1.6020840000000096
 50
128.71798800000261
 51
180.00000000000557
  0
LINE
  8
_0-3_躯体と製品
  6
CONTINUOUS
 62
    3
 10
2086.4925583350059
 20
1810.6432845686204
 11
2087.0925583350045
 21
1810.0182845686206
  0
ARC
  8
_0-3_躯体と製品
  6
CONTINUOUS
 62
    3
 10
2089.890474335004
 20
1818.7682845686222
 40
1.6020840000009182
 50
308.71798799993485
 51
359.99999999993781
  0
ARC
  8
_0-3_躯体と製品
  6
CONTINUOUS
 62
    3
 10
2085.9842243350049
 20
1815.0182845686204
 40
5.5083340000001666
 50
333.00853300000176
 51
26.991466999998252
  0
ARC
  8
_0-3_躯体と製品
  6
CONTINUOUS
 62
    3
 10
2089.890474335004
 20
1811.2682845686186
 40
1.6020840000009191
 50
0.0000000000621959
 51
51.282012000065158
  0
LINE
  8
_0-3_躯体と製品
  6
CONTINUOUS
 62
    3
 10
2091.492558335005
 20
1810.6432845686204
 11
2090.8925583350047
 21
1810.0182845686206
  0
LINE
  8
_0-3_躯体と製品
  6
CONTINUOUS
 62
    3
 10
2090.8925583350047
 20
1820.0182845686206
 11
2087.0925583350045
 21
1820.0182845686206
  0
LINE
  8
_0-3_躯体と製品
  6
CONTINUOUS
 62
    3
 10
2086.4925583350059
 20
1821.1182845686205
 11
2084.951988335004
 21
1821.1182845686205
  0
LINE
  8
_0-3_躯体と製品
  6
CONTINUOUS
 62
    3
 10
2086.4925583350059
 20
1819.3932845686206
 11
2087.0925583350045
 21
1820.0182845686206
  0
LINE
  8
_0-3_躯体と製品
  6
CONTINUOUS
 62
    3
 10
2091.492558335005
 20
1819.3932845686206
 11
2090.8925583350047
 21
1820.0182845686206
  0
LINE
  8
_0-3_躯体と製品
  6
CONTINUOUS
 62
    3
 10
2100.3519883350045
 20
1818.0182845686206
 11
2100.3519883350045
 21
1812.0182845686204
  0
LINE
  8
_0-3_躯体と製品
  6
CONTINUOUS
 62
    4
 10
2032.6520443350037
 20
1803.0182845686206
 11
2072.6520443350037
 21
1803.0182845686206
  0
ARC
  8
_0-3_躯体と製品
  6
CONTINUOUS
 62
    3
 10
2084.4519883350049
 20
1817.6040710062475
 40
1.4999999999999998
 50
359.99999999999955
 51
70.528779365509322
  0
LINE
  8
_0-3_躯体と製品
  6
CONTINUOUS
 62
    3
 10
2086.4925583350059
 20
1808.9182845686205
 11
2085.9519883350049
 21
1808.9182845686205
  0
ARC
  8
_0-3_躯体と製品
  6
CONTINUOUS
 62
    3
 10
2019.3519883342756
 20
1812.7682845686204
 40
2.9999999999995439
 50
179.99999999998911
 51
269.61294971879431
  0
LINE
  8
_0-3_躯体と製品
  6
CONTINUOUS
 62
    3
 10
2019.3519883342087
 20
1809.7683530195136
 11
2019.3317225830779
 21
1809.7683530195136
  0
LINE
  8
_0-3_躯体と製品
  6
CONTINUOUS
 62
    4
 10
2810.6519883350047
 20
1690.7182845686204
 11
2810.6519883350047
 21
1536.0182852522987
  0
LINE
  8
_0-3_躯体と製品
  6
CONTINUOUS
 62
    4
 10
2794.6519883350056
 20
1690.7182845686204
 11
2794.6519883350056
 21
1536.0182852522987
  0
LINE
  8
_0-3_躯体と製品
  6
CONTINUOUS
 62
    3
 10
2809.1519883350047
 20
1690.7182845686204
 11
2809.1519883350047
 21
1536.0182852522987
  0
LINE
  8
_0-3_躯体と製品
  6
CONTINUOUS
 62
    3
 10
2796.1519883350056
 20
1690.7182845686204
 11
2796.1519883350056
 21
1536.0182852522987
  0
LINE
  8
_0-3_躯体と製品
  6
CONTINUOUS
 62
    4
 10
2794.6519883350056
 20
1502.818284568609
 11
2794.6519883350056
 21
1420.7194545686207
  0
LINE
  8
_0-3_躯体と製品
  6
CONTINUOUS
 62
    4
 10
2810.6519883350047
 20
1502.818284568609
 11
2810.6519883350047
 21
1420.7194545686207
  0
LINE
  8
_0-3_躯体と製品
  6
CONTINUOUS
 62
    3
 10
2809.1519883350047
 20
1502.818284568609
 11
2809.1519883350047
 21
1419.2194545686207
  0
LINE
  8
_0-3_躯体と製品
  6
CONTINUOUS
 62
    3
 10
2796.1519883350056
 20
1502.818284568609
 11
2796.1519883350056
 21
1419.2194545686207
  0
LINE
  8
_0-3_躯体と製品
  6
CONTINUOUS
 62
    4
 10
2796.1519883350056
 20
1419.2194545686207
 11
2809.1519883350047
 21
1419.2194545686207
  0
LINE
  8
_0-3_躯体と製品
  6
CONTINUOUS
 62
    4
 10
2794.6519883350056
 20
1420.7194545686207
 11
2796.1519883350056
 21
1419.2194545686207
  0
LINE
  8
_0-3_躯体と製品
  6
CONTINUOUS
 62
    4
 10
2810.6519883350047
 20
1420.7194545686207
 11
2809.1519883350047
 21
1419.2194545686207
  0
LINE
  8
_0-3_躯体と製品
  6
CONTINUOUS
 62
    3
 10
2794.6519883350056
 20
1420.7194545686207
 11
2810.6519883350047
 21
1420.7194545686207
  0
LINE
  8
_0-3_躯体と製品
  6
CONTINUOUS
 62
    4
 10
2792.2596834895885
 20
1707.7182845686204
 11
2813.0442931804218
 21
1707.7182845686204
  0
LINE
  8
_0-3_躯体と製品
  6
CONTINUOUS
 62
    4
 10
2795.7237851047466
 20
1709.2182845686207
 11
2795.7237851047466
 21
1720.7182845686207
  0
LINE
  8
_0-3_躯体と製品
  6
CONTINUOUS
 62
    4
 10
2809.5801915652919
 20
1692.2182845686207
 11
2809.5801915652919
 21
1703.7182845686207
  0
LINE
  8
_0-3_躯体と製品
  6
CONTINUOUS
 62
    4
 10
2809.5801915652919
 20
1709.2182845686207
 11
2809.5801915652919
 21
1720.7182845686207
  0
LINE
  8
_0-3_躯体と製品
  6
CONTINUOUS
 62
    4
 10
2795.7237851047466
 20
1692.2182845686207
 11
2795.7237851047466
 21
1703.7182845686207
  0
ARC
  8
_0-3_躯体と製品
  6
CONTINUOUS
 62
    4
 10
2792.2596834896035
 20
1712.4682845686261
 40
4.7500000000077574
 50
223.17355110726379
 51
316.82644889273621
  0
ARC
  8
_0-3_躯体と製品
  6
CONTINUOUS
 62
    4
 10
2802.6519883350193
 20
1724.4682842481807
 40
16.74999970825489
 50
245.56730186717647
 51
294.43269813282353
  0
ARC
  8
_0-3_躯体と製品
  6
CONTINUOUS
 62
    4
 10
2813.0442931804209
 20
1712.4682845686134
 40
4.7499999999887379
 50
223.17355110726777
 51
316.82644889273217
  0
LINE
  8
_0-3_躯体と製品
  6
CONTINUOUS
 62
    4
 10
2816.50839479555
 20
1709.2182845686207
 11
2816.50839479555
 21
1720.7182845686207
  0
LINE
  8
_0-3_躯体と製品
  6
CONTINUOUS
 62
    4
 10
2816.50839479555
 20
1720.7182845686207
 11
2788.7955818744604
 21
1720.7182845686207
  0
LINE
  8
_0-3_躯体と製品
  6
CONTINUOUS
 62
    4
 10
2788.7955818744604
 20
1720.7182845686207
 11
2788.7955818744604
 21
1709.2182845686207
  0
LINE
  8
_0-3_躯体と製品
  6
CONTINUOUS
 62
    4
 10
2788.6519883306673
 20
1703.7182845686207
 11
2816.6519883680376
 21
1703.7182845686207
  0
LINE
  8
_0-3_躯体と製品
  6
CONTINUOUS
 62
    4
 10
2816.6519883680376
 20
1703.7182845686207
 11
2816.6519883680376
 21
1707.7182845686204
  0
LINE
  8
_0-3_躯体と製品
  6
CONTINUOUS
 62
    4
 10
2816.6519883680376
 20
1707.7182845686204
 11
2788.6519883306673
 21
1707.7182845686204
  0
LINE
  8
_0-3_躯体と製品
  6
CONTINUOUS
 62
    4
 10
2788.6519883306673
 20
1707.7182845686204
 11
2788.6519883306673
 21
1703.7182845686207
  0
LINE
  8
_0-3_躯体と製品
  6
CONTINUOUS
 62
    4
 10
2792.2596834895885
 20
1690.7182845686204
 11
2813.0442931804218
 21
1690.7182845686204
  0
LINE
  8
_0-3_躯体と製品
  6
CONTINUOUS
 62
    4
 10
2802.6519883493538
 20
1703.7182845686207
 11
2806.6519883493529
 21
1707.7182845686204
  0
ARC
  8
_0-3_躯体と製品
  6
CONTINUOUS
 62
    4
 10
2792.2596834896035
 20
1695.468284568627
 40
4.7500000000082343
 50
223.1735511072699
 51
316.82644889273007
  0
ARC
  8
_0-3_躯体と製品
  6
CONTINUOUS
 62
    4
 10
2802.6519883350193
 20
1707.4682845686157
 40
16.749999999994436
 50
245.56730232054764
 51
294.43269767945236
  0
ARC
  8
_0-3_躯体と製品
  6
CONTINUOUS
 62
    4
 10
2813.0442931804209
 20
1695.4682845686123
 40
4.749999999987951
 50
223.17355110725768
 51
316.82644889274235
  0
LINE
  8
_0-3_躯体と製品
  6
CONTINUOUS
 62
    4
 10
2816.50839479555
 20
1692.2182845686207
 11
2816.50839479555
 21
1703.7182845686207
  0
LINE
  8
_0-3_躯体と製品
  6
CONTINUOUS
 62
    4
 10
2816.50839479555
 20
1703.7182845686207
 11
2788.7955818744604
 21
1703.7182845686207
  0
LINE
  8
_0-3_躯体と製品
  6
CONTINUOUS
 62
    4
 10
2788.7955818744604
 20
1703.7182845686207
 11
2788.7955818744604
 21
1692.2182845686207
  0
LINE
  8
_0-3_躯体と製品
  6
CONTINUOUS
 62
    4
 10
2798.6519883019728
 20
1703.7182845399243
 11
2802.6519883019719
 21
1707.7182845399243
  0
LINE
  8
_0-3_躯体と製品
  6
CONTINUOUS
 62
    3
 10
2836.492558335005
 20
1810.3339345686202
 11
2836.7895343350046
 21
1810.3339345686202
  0
LINE
  8
_0-3_躯体と製品
  6
CONTINUOUS
 62
    3
 10
2841.4925583350059
 20
1812.5182845686204
 11
2850.3519883350054
 21
1812.5182845686206
  0
LINE
  8
_0-3_躯体と製品
  6
CONTINUOUS
 62
    3
 10
2841.4925583350059
 20
1817.5182845686204
 11
2850.3519883350054
 21
1817.5182845686206
  0
LINE
  8
_0-3_躯体と製品
  6
CONTINUOUS
 62
    3
 10
2841.4925583350059
 20
1818.0182845686206
 11
2850.3519883350054
 21
1818.0182845686206
  0
LINE
  8
_0-3_躯体と製品
  6
CONTINUOUS
 62
    3
 10
2850.3519883350054
 20
1812.0182845686204
 11
2841.4925583350059
 21
1812.0182845686204
  0
LINE
  8
_0-3_躯体と製品
  6
CONTINUOUS
 62
    4
 10
2779.2520443350049
 20
1758.5182845686206
 11
2779.2520443350049
 21
1797.5182845686206
  0
LINE
  8
_0-3_躯体と製品
  6
CONTINUOUS
 62
    4
 10
2826.0520443350042
 20
1797.5182845686206
 11
2826.0520443350042
 21
1758.5182845686206
  0
LINE
  8
_0-3_躯体と製品
  6
CONTINUOUS
 62
    4
 10
2832.6519883350047
 20
1802.7482758951987
 11
2832.6519883350047
 21
1726.3182845686206
  0
ARC
  8
_0-3_躯体と製品
  6
CONTINUOUS
 62
    4
 10
2830.3519883350045
 20
1726.3182845686206
 40
2.3000000000001135
 50
269.99999999999829
 51
359.99999999999602
  0
LINE
  8
_0-3_躯体と製品
  6
CONTINUOUS
 62
    4
 10
2830.3519883350045
 20
1724.0182845686206
 11
2827.6519883350047
 21
1724.0182845686206
  0
LINE
  8
_0-3_躯体と製品
  6
CONTINUOUS
 62
    3
 10
2835.9519883350049
 20
1730.4324981309937
 11
2835.9519883350049
 21
1817.6040710062475
  0
LINE
  8
_0-3_躯体と製品
  6
CONTINUOUS
 62
    4
 10
2802.6519883350047
 20
1721.7182845686207
 11
2774.951988335004
 21
1721.7182845686207
  0
ARC
  8
_0-3_躯体と製品
  6
CONTINUOUS
 62
    4
 10
2774.951988335004
 20
1726.3182845686204
 40
4.5999999999997163
 50
179.99999999999761
 51
269.99999999999676
  0
LINE
  8
_0-3_躯体と製品
  6
CONTINUOUS
 62
    4
 10
2770.3519883350045
 20
1726.3182845686206
 11
2770.3519883322833
 21
1804.0182845674869
  0
LINE
  8
_0-3_躯体と製品
  6
CONTINUOUS
 62
    3
 10
2769.3519883342105
 20
1817.6040710063101
 11
2769.3519883341933
 21
1730.4324981312457
  0
LINE
  8
_0-3_躯体と製品
  6
CONTINUOUS
 62
    4
 10
2783.1520443350028
 20
1754.6182845686208
 11
2792.6520443350037
 21
1754.6182845686208
  0
LINE
  8
_0-3_躯体と製品
  6
PLINE2
 62
    3
 10
2777.6519883350047
 20
1724.0182845686206
 11
2827.6519883350047
 21
1724.0182845686206
  0
LINE
  8
_0-3_躯体と製品
  6
CONTINUOUS
 62
    4
 10
2834.9519883350058
 20
1804.0182845686202
 11
2834.9519883350058
 21
1726.3182845686206
  0
ARC
  8
_0-3_躯体と製品
  6
CONTINUOUS
 62
    4
 10
2830.3519883350054
 20
1726.3182845686213
 40
4.6000000000006258
 50
269.99999999999193
 51
359.99999999999108
  0
LINE
  8
_0-3_躯体と製品
  6
CONTINUOUS
 62
    4
 10
2830.3519883350045
 20
1721.7182845686207
 11
2802.6519883350047
 21
1721.7182845686207
  0
LINE
  8
_0-3_躯体と製品
  6
CONTINUOUS
 62
    4
 10
2777.0663418975919
 20
1720.7182845686207
 11
2828.2376347724176
 21
1720.7182845686207
  0
LINE
  8
_0-3_躯体と製品
  6
CONTINUOUS
 62
    4
 10
2779.9519883350049
 20
1726.7182845686207
 11
2825.3519883350045
 21
1726.7182845686207
  0
LINE
  8
_0-3_躯体と製品
  6
CONTINUOUS
 62
    4
 10
2777.6519883350047
 20
1724.3182845686206
 11
2777.6519883350047
 21
1724.4182845686207
  0
LINE
  8
_0-3_躯体と製品
  6
CONTINUOUS
 62
    4
 10
2777.6519883350047
 20
1724.0182845686206
 11
2774.951988335004
 21
1724.0182845686206
  0
ARC
  8
_0-3_躯体と製品
  6
CONTINUOUS
 62
    4
 10
2774.9519883350049
 20
1726.3182845686197
 40
2.2999999999992045
 50
179.99999999998127
 51
269.99999999997902
  0
LINE
  8
_0-3_躯体と製品
  6
CONTINUOUS
 62
    4
 10
2772.6519883350056
 20
1726.3182845686206
 11
2772.6519883350056
 21
1802.7482758951626
  0
ARC
  8
_0-3_躯体と製品
  6
CONTINUOUS
 62
    4
 10
2777.0663418975919
 20
1722.2184825686209
 40
1.5001980000001158
 50
199.47656789581231
 51
270.00000000000273
  0
LINE
  8
_0-3_躯体と製品
  6
CONTINUOUS
 62
    4
 10
2777.6519883350047
 20
1724.3182845686206
 11
2777.6519883350047
 21
1721.7182845686207
  0
ARC
  8
_0-3_躯体と製品
  6
CONTINUOUS
 62
    3
 10
2770.8519883341937
 20
1730.4324981312463
 40
1.5000000000005351
 50
180.00000000002407
 51
250.52877939442016
  0
ARC
  8
_0-3_躯体と製品
  6
CONTINUOUS
 62
    4
 10
2779.9519883350049
 20
1724.4182845686205
 40
2.3000000000000678
 50
89.999999999997144
 51
179.99999999999716
  0
ARC
  8
_0-3_躯体と製品
  6
CONTINUOUS
 62
    4
 10
2783.1520443350032
 20
1758.5182845686202
 40
5.4999999999995444
 50
179.99999999999525
 51
269.99999999999528
  0
ARC
  8
_0-3_躯体と製品
  6
CONTINUOUS
 62
    4
 10
2783.1520443350037
 20
1758.5182845686195
 40
3.8999999999989541
 50
179.99999999998332
 51
269.99999999998329
  0
LINE
  8
_0-3_躯体と製品
  6
CONTINUOUS
 62
    4
 10
2827.6519883350047
 20
1724.3182845686206
 11
2827.6519883350047
 21
1724.4182845686207
  0
ARC
  8
_0-3_躯体と製品
  6
CONTINUOUS
 62
    4
 10
2828.237634772418
 20
1722.2184825686213
 40
1.5001980000007589
 50
269.99999999997988
 51
340.5234321041703
  0
LINE
  8
_0-3_躯体と製品
  6
CONTINUOUS
 62
    4
 10
2827.6519883350047
 20
1724.3182845686206
 11
2827.6519883350047
 21
1721.7182845686207
  0
LINE
  8
_0-3_躯体と製品
  6
CONTINUOUS
 62
    4
 10
2822.1520443350028
 20
1754.6182845686208
 11
2812.6520443350037
 21
1754.6182845686208
  0
LINE
  8
_0-3_躯体と製品
  6
CONTINUOUS
 62
    4
 10
2792.6519883350056
 20
1754.6182845686208
 11
2792.6519883350056
 21
1753.0182845686206
  0
LINE
  8
_0-3_躯体と製品
  6
CONTINUOUS
 62
    4
 10
2812.6519883350047
 20
1754.6182845686208
 11
2812.6519883350047
 21
1753.0182845686206
  0
ARC
  8
_0-3_躯体と製品
  6
CONTINUOUS
 62
    4
 10
2825.3519883350045
 20
1724.4182845686205
 40
2.3000000000000678
 50
0.0000000000028389
 51
90.000000000002856
  0
ARC
  8
_0-3_躯体と製品
  6
CONTINUOUS
 62
    3
 10
2834.4519883350049
 20
1730.4324981309928
 40
1.4999999999997058
 50
289.47122063451957
 51
0.0000000000293501
  0
ARC
  8
_0-3_躯体と製品
  6
CONTINUOUS
 62
    4
 10
2822.1520443350037
 20
1758.5182845686215
 40
5.5000000000009095
 50
269.99999999999056
 51
359.99999999999056
  0
ARC
  8
_0-3_躯体と製品
  6
CONTINUOUS
 62
    4
 10
2822.1520443350037
 20
1758.5182845686213
 40
3.9000000000007735
 50
269.99999999999
 51
359.99999999999
  0
LINE
  8
_0-3_躯体と製品
  6
CONTINUOUS
 62
    4
 10
2822.1520443350028
 20
1801.4182845686209
 11
2783.1520443350028
 21
1801.4182845686209
  0
LINE
  8
_0-3_躯体と製品
  6
CONTINUOUS
 62
    4
 10
2783.1520443350028
 20
1803.0182845686206
 11
2822.1520443350028
 21
1803.0182845686206
  0
LINE
  8
_0-3_躯体と製品
  6
CONTINUOUS
 62
    4
 10
2782.6519883350047
 20
1810.0182845686206
 11
2822.6519883350047
 21
1810.0182845686206
  0
LINE
  8
_0-3_躯体と製品
  6
CONTINUOUS
 62
    3
 10
2832.6519883350047
 20
1812.5182845686204
 11
2772.6519883350056
 21
1812.5182845686206
  0
LINE
  8
_0-3_躯体と製品
  6
CONTINUOUS
 62
    3
 10
2832.6519883350047
 20
1817.5182845686204
 11
2772.6519883350056
 21
1817.5182845686206
  0
ARC
  8
_0-3_躯体と製品
  6
CONTINUOUS
 62
    4
 10
2769.1136079837624
 20
1807.0182845686204
 40
3.2455486276350798
 50
292.43051456131434
 51
67.56948543868566
  0
ARC
  8
_0-3_躯体と製品
  6
CONTINUOUS
 62
    4
 10
2769.1136079837634
 20
1807.0182845686204
 40
5.545548627634628
 50
309.64714376104513
 51
50.352856238954857
  0
LINE
  8
_0-3_躯体と製品
  6
CONTINUOUS
 62
    4
 10
2782.6519883350047
 20
1810.0182845686206
 11
2782.6519883350047
 21
1803.0182845686206
  0
ARC
  8
_0-3_躯体と製品
  6
CONTINUOUS
 62
    4
 10
2783.1520443350032
 20
1797.5182845686211
 40
5.4999999999995444
 50
90.000000000004732
 51
180.00000000000472
  0
ARC
  8
_0-3_躯体と製品
  6
CONTINUOUS
 62
    4
 10
2783.1520443350037
 20
1797.5182845686218
 40
3.8999999999988404
 50
90.000000000015007
 51
180.00000000001501
  0
LINE
  8
_0-3_躯体と製品
  6
CONTINUOUS
 62
    4
 10
2782.6519883350047
 20
1805.0182845686206
 11
2777.6519883350047
 21
1805.0182845686206
  0
LINE
  8
_0-3_躯体と製品
  6
CONTINUOUS
 62
    4
 10
2772.6519883350056
 20
1824.0182845686206
 11
2770.3519883350045
 21
1824.0182845686206
  0
LINE
  8
_0-3_躯体と製品
  6
CONTINUOUS
 62
    4
 10
2770.3519883322833
 20
1810.0182845697541
 11
2770.3519883350045
 21
1824.0182845686206
  0
ARC
  8
_0-3_躯体と製品
  6
CONTINUOUS
 62
    3
 10
2770.8519883342105
 20
1817.6040710063101
 40
1.5000000000002744
 50
109.47122064168337
 51
179.99999999999974
  0
ARC
  8
_0-3_躯体と製品
  6
CONTINUOUS
 62
    3
 10
2769.351988334276
 20
1817.2682845686204
 40
3.0000000000001137
 50
90.000000000002188
 51
180.00000000000219
  0
LINE
  8
_0-3_躯体と製品
  6
CONTINUOUS
 62
    3
 10
2766.351988334276
 20
1817.2682845686204
 11
2766.3519883350564
 21
1812.7683530195134
  0
LINE
  8
_0-3_躯体と製品
  6
CONTINUOUS
 62
    3
 10
2770.3519883342769
 20
1820.2682845686206
 11
2769.351988334276
 21
1820.2682845686206
  0
LINE
  8
_0-3_躯体と製品
  6
CONTINUOUS
 62
    4
 10
2772.6519883350056
 20
1811.2882932420785
 11
2772.6519883350056
 21
1824.0182845686206
  0
LINE
  8
_0-3_躯体と製品
  6
CONTINUOUS
 62
    3
 10
2777.6519883350047
 20
1808.0182845686206
 11
2782.6519883350047
 21
1808.0182845686206
  0
LINE
  8
_0-3_躯体と製品
  6
CONTINUOUS
 62
    4
 10
2774.0636681603437
 20
1809.5182873345593
 11
2777.6519883350047
 21
1809.5183145686208
  0
LINE
  8
_0-3_躯体と製品
  6
CONTINUOUS
 62
    4
 10
2777.6519883350047
 20
1809.5183145686208
 11
2777.6519883350047
 21
1755.0182845686206
  0
ARC
  8
_0-3_躯体と製品
  6
CONTINUOUS
 62
    4
 10
2779.6519883350047
 20
1755.0182845686206
 40
1.9999999999999998
 50
180
 51
270
  0
LINE
  8
_0-3_躯体と製品
  6
CONTINUOUS
 62
    4
 10
2779.6519883350047
 20
1753.0182845686206
 11
2825.6519883350047
 21
1753.0182845686206
  0
ARC
  8
_0-3_躯体と製品
  6
CONTINUOUS
 62
    4
 10
2825.6519883350047
 20
1755.0182845686206
 40
1.9999999999999998
 50
270
 51
0.0000000000000127
  0
LINE
  8
_0-3_躯体と製品
  6
CONTINUOUS
 62
    4
 10
2827.6519883350047
 20
1755.0182845686206
 11
2827.6519883350047
 21
1809.5182845686206
  0
LINE
  8
_0-3_躯体と製品
  6
CONTINUOUS
 62
    4
 10
2827.6519883350047
 20
1809.5182845686206
 11
2831.2402933585536
 21
1809.518257334674
  0
ARC
  8
_0-3_躯体と製品
  6
CONTINUOUS
 62
    4
 10
2836.1903686863552
 20
1807.0182845686209
 40
3.2455486276761412
 50
112.43051456308771
 51
247.56948543694699
  0
ARC
  8
_0-3_躯体と製品
  6
CONTINUOUS
 62
    4
 10
2836.1903686863543
 20
1807.0182845686204
 40
5.5455486276759514
 50
129.6471437621347
 51
230.35285623786527
  0
LINE
  8
_0-3_躯体と製品
  6
CONTINUOUS
 62
    4
 10
2822.6519883350047
 20
1810.0182845686206
 11
2822.6519883350047
 21
1803.0182845686206
  0
ARC
  8
_0-3_躯体と製品
  6
CONTINUOUS
 62
    4
 10
2822.1520443350037
 20
1797.5182845686197
 40
5.5000000000009095
 50
0.000000000009478
 51
90.000000000009493
  0
ARC
  8
_0-3_躯体と製品
  6
CONTINUOUS
 62
    4
 10
2822.1520443350037
 20
1797.5182845686199
 40
3.9000000000006589
 50
0.0000000000116955
 51
90.00000000001171
  0
LINE
  8
_0-3_躯体と製品
  6
CONTINUOUS
 62
    4
 10
2827.6519883350047
 20
1805.0182845686206
 11
2822.6519883350047
 21
1805.0182845686206
  0
LINE
  8
_0-3_躯体と製品
  6
CONTINUOUS
 62
    4
 10
2832.6519883350047
 20
1824.0182845686206
 11
2834.951988335004
 21
1824.0182845686206
  0
LINE
  8
_0-3_躯体と製品
  6
CONTINUOUS
 62
    4
 10
2832.6519883350047
 20
1811.2882932420423
 11
2832.6519883350047
 21
1824.0182845686206
  0
LINE
  8
_0-3_躯体と製品
  6
CONTINUOUS
 62
    3
 10
2827.3519883350045
 20
1818.0182845686206
 11
2826.8519883350036
 21
1817.5182845686206
  0
LINE
  8
_0-3_躯体と製品
  6
CONTINUOUS
 62
    3
 10
2827.3519883350045
 20
1812.0182845686204
 11
2826.8519883350036
 21
1812.5182845686206
  0
LINE
  8
_0-3_躯体と製品
  6
CONTINUOUS
 62
    3
 10
2822.6519883350047
 20
1808.0182845686206
 11
2827.6519883350047
 21
1808.0182845686206
  0
LINE
  8
_0-3_躯体と製品
  6
CONTINUOUS
 62
    3
 10
2832.6519883350047
 20
1818.0182845686206
 11
2827.3519883350045
 21
1818.0182845686206
  0
LINE
  8
_0-3_躯体と製品
  6
CONTINUOUS
 62
    3
 10
2832.6519883350047
 20
1812.0182845686204
 11
2827.3519883350045
 21
1812.0182845686204
  0
LINE
  8
_0-3_躯体と製品
  6
CONTINUOUS
 62
    3
 10
2827.3519883350045
 20
1812.0182845686204
 11
2827.3519883350045
 21
1818.0182845686206
  0
LINE
  8
_0-3_躯体と製品
  6
CONTINUOUS
 62
    4
 10
2834.951988335004
 20
1824.0182845686206
 11
2834.951988335004
 21
1810.0182845686206
  0
LINE
  8
_0-3_躯体と製品
  6
CONTINUOUS
 62
    3
 10
2841.4925583350059
 20
1810.6432845686204
 11
2841.4925583350059
 21
1819.3932845686206
  0
LINE
  8
_0-3_躯体と製品
  6
CONTINUOUS
 62
    3
 10
2841.4925583350059
 20
1819.3932845686206
 11
2841.4925583350059
 21
1810.6432845686204
  0
LINE
  8
_0-3_躯体と製品
  6
CONTINUOUS
 62
    3
 10
2836.492558335005
 20
1810.6432845686204
 11
2836.492558335005
 21
1819.3932845686206
  0
LINE
  8
_0-3_躯体と製品
  6
CONTINUOUS
 62
    3
 10
2836.492558335005
 20
1821.1182845686205
 11
2836.492558335005
 21
1808.9182845686205
  0
LINE
  8
_0-3_躯体と製品
  6
CONTINUOUS
 62
    3
 10
2840.8925583350037
 20
1817.5182845686204
 11
2837.0925583350045
 21
1817.5182845686204
  0
LINE
  8
_0-3_躯体と製品
  6
CONTINUOUS
 62
    3
 10
2840.8925583350037
 20
1812.5182845686204
 11
2837.0925583350045
 21
1812.5182845686204
  0
LINE
  8
_0-3_躯体と製品
  6
CONTINUOUS
 62
    3
 10
2840.8925583350037
 20
1810.0182845686206
 11
2837.0925583350045
 21
1810.0182845686206
  0
ARC
  8
_0-3_躯体と製品
  6
CONTINUOUS
 62
    3
 10
2838.0946423350056
 20
1818.7682845686213
 40
1.6020840000006424
 50
180.00000000002322
 51
231.2820120000282
  0
ARC
  8
_0-3_躯体と製品
  6
CONTINUOUS
 62
    3
 10
2842.0008923350042
 20
1815.0182845686204
 40
5.5083340000001666
 50
153.00853300000176
 51
206.99146699999824
  0
ARC
  8
_0-3_躯体と製品
  6
CONTINUOUS
 62
    3
 10
2838.0946423350056
 20
1811.2682845686195
 40
1.6020840000004646
 50
128.71798799996878
 51
179.99999999997172
  0
LINE
  8
_0-3_躯体と製品
  6
CONTINUOUS
 62
    3
 10
2836.492558335005
 20
1810.6432845686204
 11
2837.0925583350045
 21
1810.0182845686206
  0
ARC
  8
_0-3_躯体と製品
  6
CONTINUOUS
 62
    3
 10
2839.8904743350045
 20
1818.7682845686234
 40
1.6020840000013732
 50
308.71798799990097
 51
359.99999999990393
  0
ARC
  8
_0-3_躯体と製品
  6
CONTINUOUS
 62
    3
 10
2835.9842243350049
 20
1815.0182845686204
 40
5.5083340000001666
 50
333.00853300000176
 51
26.991466999998252
  0
ARC
  8
_0-3_躯体と製品
  6
CONTINUOUS
 62
    3
 10
2839.8904743350045
 20
1811.2682845686177
 40
1.6020840000013741
 50
0.000000000096076
 51
51.282012000099037
  0
LINE
  8
_0-3_躯体と製品
  6
CONTINUOUS
 62
    3
 10
2841.4925583350059
 20
1810.6432845686204
 11
2840.8925583350037
 21
1810.0182845686206
  0
LINE
  8
_0-3_躯体と製品
  6
CONTINUOUS
 62
    3
 10
2840.8925583350037
 20
1820.0182845686206
 11
2837.0925583350045
 21
1820.0182845686206
  0
LINE
  8
_0-3_躯体と製品
  6
CONTINUOUS
 62
    3
 10
2836.492558335005
 20
1821.1182845686205
 11
2834.951988335004
 21
1821.1182845686205
  0
LINE
  8
_0-3_躯体と製品
  6
CONTINUOUS
 62
    3
 10
2836.492558335005
 20
1819.3932845686206
 11
2837.0925583350045
 21
1820.0182845686206
  0
LINE
  8
_0-3_躯体と製品
  6
CONTINUOUS
 62
    3
 10
2841.4925583350059
 20
1819.3932845686206
 11
2840.8925583350037
 21
1820.0182845686206
  0
LINE
  8
_0-3_躯体と製品
  6
CONTINUOUS
 62
    3
 10
2850.3519883350054
 20
1818.0182845686206
 11
2850.3519883350054
 21
1812.0182845686204
  0
LINE
  8
_0-3_躯体と製品
  6
CONTINUOUS
 62
    4
 10
2782.6520443350037
 20
1803.0182845686206
 11
2822.6520443350046
 21
1803.0182845686206
  0
ARC
  8
_0-3_躯体と製品
  6
CONTINUOUS
 62
    3
 10
2834.4519883350054
 20
1817.6040710062482
 40
1.499999999999545
 50
359.99999999997499
 51
70.528779365484766
  0
LINE
  8
_0-3_躯体と製品
  6
CONTINUOUS
 62
    3
 10
2836.492558335005
 20
1808.9182845686205
 11
2835.9519883350049
 21
1808.9182845686205
  0
ARC
  8
_0-3_躯体と製品
  6
CONTINUOUS
 62
    3
 10
2769.351988334276
 20
1812.7682845686209
 40
2.9999999999999991
 50
179.99999999999787
 51
269.61294971880307
  0
LINE
  8
_0-3_躯体と製品
  6
CONTINUOUS
 62
    3
 10
2769.3519883342087
 20
1809.7683530195136
 11
2769.3317225830788
 21
1809.7683530195136
  0
TEXT
  8
_0-4_文字-記号
 62
    7
 10
158.56959647421718
 20
1955.9959776101136
 40
45
 41
0.8
 50
0
  1
または巾木のみ込み
  0
LINE
  8
_0-4_文字-記号
  6
CONTINUOUS
 62
    7
 10
107.75478640550227
 20
1880.4343263119695
 11
93.11377029623327
 21
1865.7933101362805
  0
LINE
  8
_0-4_文字-記号
  6
CONTINUOUS
 62
    7
 10
93.11377029623327
 20
1865.7933101362805
 11
98.472754186963357
 21
1885.7933101119695
  0
LINE
  8
_0-4_文字-記号
  6
CONTINUOUS
 62
    7
 10
93.11377029623327
 20
1865.7933101362805
 11
103.11377029623236
 21
1883.1138182119696
  0
LINE
  8
_0-4_文字-記号
  6
CONTINUOUS
 62
    7
 10
103.11377029623236
 20
1883.1138182119696
 11
140.82002821662991
 21
1948.4229726933906
  0
LINE
  8
_0-4_文字-記号
  6
CONTINUOUS
 62
    7
 10
140.82002821662991
 20
1948.4229726933906
 11
533.29700482394946
 21
1948.4229726933906
  0
TEXT
  8
_0-4_文字-記号
 62
    7
 10
166.05937486702715
 20
2009.6083794078577
 40
45
 41
0.8
 50
0
  1
ｴｷｽﾊﾟﾝｼｮﾝｺﾞﾑ取付
  0
TEXT
  8
_0-4_文字-記号
 62
    7
 10
158.56959647421718
 20
740.51805761011065
 40
45
 41
0.8
 50
0
  1
または巾木のみ込み
  0
LINE
  8
_0-4_文字-記号
  6
CONTINUOUS
 62
    7
 10
107.75478640550227
 20
664.95640631196648
 11
93.11377029623327
 21
650.31539013627764
  0
LINE
  8
_0-4_文字-記号
  6
CONTINUOUS
 62
    7
 10
93.11377029623327
 20
650.31539013627764
 11
98.472754186963357
 21
670.31539011196628
  0
LINE
  8
_0-4_文字-記号
  6
CONTINUOUS
 62
    7
 10
93.11377029623327
 20
650.31539013627764
 11
103.11377029623236
 21
667.63589821196638
  0
LINE
  8
_0-4_文字-記号
  6
CONTINUOUS
 62
    7
 10
103.11377029623236
 20
667.63589821196638
 11
140.82002821662991
 21
732.94505269338788
  0
LINE
  8
_0-4_文字-記号
  6
CONTINUOUS
 62
    7
 10
140.82002821662991
 20
732.94505269338788
 11
533.29700482394946
 21
732.94505269338788
  0
TEXT
  8
_0-4_文字-記号
 62
    7
 10
166.05937486702715
 20
794.13045940785423
 40
45
 41
0.8
 50
0
  1
ｴｷｽﾊﾟﾝｼｮﾝｺﾞﾑ取付
  0
TEXT
  8
_0-4_文字-記号
 62
    7
 10
180.08483873124715
 20
860.05992024655575
 40
45
 41
0.8
 50
0
  1
巾木
  0
LINE
  8
_0-4_文字-記号
  6
CONTINUOUS
 62
    7
 10
104.66827444427418
 20
746.4888634633578
 11
90.027258335005172
 21
731.84784728766908
  0
LINE
  8
_0-4_文字-記号
  6
CONTINUOUS
 62
    7
 10
90.027258335005172
 20
731.84784728766908
 11
95.386242225735259
 21
751.84784726335783
  0
LINE
  8
_0-4_文字-記号
  6
CONTINUOUS
 62
    7
 10
90.027258335002443
 20
731.84784728766681
 11
159.62739791725198
 21
852.39882525800363
  0
LINE
  8
_0-4_文字-記号
  6
CONTINUOUS
 62
    7
 10
159.62739791725198
 20
852.39882525800363
 11
280.55013057766064
 21
852.39882525800363
  0
TEXT
  8
_0-4_文字-記号
 62
    7
 10
2636.0035172605867
 20
1989.6718423556176
 40
45
 41
0.8
 50
0
  1
２００×１０００
  0
ENDSEC
  0
EOF
