  0
SECTION
  2
HEADER
  9
$ACADVER
  1
AC1009
  9
$INSBASE
 10
0
 20
0
 30
0
  9
$EXTMIN
 10
0
 20
0
  9
$EXTMAX
 10
8410
 20
5940
  9
$LIMMIN
 10
0
 20
0
  9
$LIMMAX
 10
8410
 20
5940
  9
$LTSCALE
 40
10
  0
ENDSEC
  0
SECTION
  2
TABLES
  0
TABLE
  2
LTYPE
 70
     9
  0
LTYPE
  2
CONTINUOUS
 70
    64
  3
実線
 72
    65
 73
     0
 40
0.0
  0
LTYPE
  2
DASHED1
 70
    64
  3
--  --  --  --  --  --  --  --  
 72
    65
 73
     2
 40
2.5
 49
1.25
 49
-1.25
  0
LTYPE
  2
DASHED2
 70
    64
  3
----    ----    ----    ----    
 72
    65
 73
     2
 40
5.0
 49
2.5
 49
-2.5
  0
LTYPE
  2
DASHED3
 70
    64
  3
------  ------  ------  ------  
 72
    65
 73
     2
 40
5.0
 49
3.75
 49
-1.25
  0
LTYPE
  2
CENTER1
 70
    64
  3
----- - ----- - ----- - ----- - 
 72
    65
 73
     4
 40
10.0
 49
6.25
 49
-1.25
 49
1.25
 49
-1.25
  0
LTYPE
  2
CENTER2
 70
    64
  3
----------  --  ----------  --  
 72
    65
 73
     4
 40
20.0
 49
12.5
 49
-2.5
 49
2.5
 49
-2.5
  0
LTYPE
  2
PHANTOM1
 70
    64
  3
--- - - --- - - --- - - --- - - 
 72
    65
 73
     6
 40
10.0
 49
3.25
 49
-1.25
 49
1.25
 49
-1.25
 49
1.25
 49
-1.25
  0
LTYPE
  2
PHANTOM2
 70
    64
  3
--------  -  -  --------  -  -  
 72
    65
 73
     6
 40
20.0
 49
10.0
 49
-2.5
 49
1.25
 49
-2.5
 49
1.25
 49
-2.5
  0
LTYPE
  2
DOT
 70
    64
  3
-   -   -   -   -   -   -   -   
 72
    65
 73
     2
 40
2.5
 49
0.625
 49
-1.875
  0
LTYPE
  2
DUMMY
 70
    64
  3
ダミー
 72
    65
 73
     0
 40
0.0
  0
LTYPE
  2
RAND1
 70
    64
  3
ランダム線1
 72
    65
 73
     4
 40
10.0
 49
1.0
 49
-2.0
 49
3.0
 49
-4.0
  0
LTYPE
  2
RAND2
 70
    64
  3
ランダム線2
 72
    65
 73
     4
 40
14.0
 49
2.0
 49
-3.0
 49
4.0
 49
-5.0
  0
LTYPE
  2
RAND3
 70
    64
  3
ランダム線3
 72
    65
 73
     4
 40
18.0
 49
3.0
 49
-4.0
 49
5.0
 49
-6.0
  0
LTYPE
  2
RAND4
 70
    64
  3
ランダム線4
 72
    65
 73
     4
 40
22.0
 49
4.0
 49
-5.0
 49
6.0
 49
-7.0
  0
LTYPE
  2
RAND5
 70
    64
  3
ランダム線5
 72
    65
 73
     4
 40
26.0
 49
5.0
 49
-6.0
 49
7.0
 49
-8.0
  0
LTYPE
  2
LONG1
 70
    64
  3
----------  --  ----------  --  
 72
    65
 73
     4
 40
40.0
 49
32.5
 49
-2.5
 49
2.5
 49
-2.5
  0
LTYPE
  2
LONG2
 70
    64
  3
--------  -  -  --------  -  -  
 72
    65
 73
     6
 40
40.0
 49
30.0
 49
-2.5
 49
1.25
 49
-2.5
 49
1.25
 49
-2.5
  0
LTYPE
  2
LONG3
 70
    64
  3
+++++++++++++++..+++++++++++++++
 72
    65
 73
     2
 40
40.0
 49
37.5
 49
-2.5
  0
LTYPE
  2
LONG4
 70
    64
  3
+++++++++++++++..+++++++++++++++
 72
    65
 73
     2
 40
80.0
 49
75.0
 49
-5.0
  0
LTYPE
  2
LONG5
 70
    64
  3
----------  --  ----------  --  
 72
    65
 73
     4
 40
60.0
 49
37.5
 49
-7.5
 49
7.5
 49
-7.5
  0
LTYPE
  2
dashed
 70
   64
  3
-------   -------------   ------
 72
   65
 73
    2
 40
7.5
 49
6
 49
-1.5
  0
LTYPE
  2
dashed_spaced
 70
   64
  3
----        --------        ----
 72
   65
 73
    2
 40
12
 49
6
 49
-6
  0
LTYPE
  2
long_dashed_dotted
 70
   64
  3
------------- --- --------------
 72
   65
 73
    4
 40
15.25
 49
12
 49
-1.5
 49
0.25
 49
-1.5
  0
LTYPE
  2
long_dashed_double-dotted
 70
   64
  3
----------- --- --- ------------
 72
   65
 73
    6
 40
17
 49
12
 49
-1.5
 49
0.25
 49
-1.5
 49
0.25
 49
-1.5
  0
LTYPE
  2
long_dashed_triplicate-dotted
 70
   64
  3
--------- --- --- --- ----------
 72
   65
 73
    8
 40
18.75
 49
12
 49
-1.5
 49
0.25
 49
-1.5
 49
0.25
 49
-1.5
 49
0.25
 49
-1.5
  0
LTYPE
  2
dotted
 70
   64
  3
   -       -       -       -    
 72
   65
 73
    2
 40
1.75
 49
0.25
 49
-1.5
  0
LTYPE
  2
chain
 70
   64
  3
-------------- -- --------------
 72
   65
 73
    4
 40
18.5
 49
12
 49
-1.5
 49
3.5
 49
-1.5
  0
LTYPE
  2
chain_double_dash
 70
   64
  3
------------ -- -- -------------
 72
   65
 73
    6
 40
23.5
 49
12
 49
-1.5
 49
3.5
 49
-1.5
 49
3.5
 49
-1.5
  0
LTYPE
  2
dashed_dotted
 70
   64
  3
-----------     -     ----------
 72
   65
 73
    4
 40
9.25
 49
6
 49
-1.5
 49
0.25
 49
-1.5
  0
LTYPE
  2
double-dashed_dotted
 70
   64
  3
------   -----------   -   -----
 72
   65
 73
    6
 40
16.75
 49
6
 49
-1.5
 49
6
 49
-1.5
 49
0.25
 49
-1.5
  0
LTYPE
  2
dashed_double-dotted
 70
   64
  3
---------    -    -    ---------
 72
   65
 73
    6
 40
11
 49
6
 49
-1.5
 49
0.25
 49
-1.5
 49
0.25
 49
-1.5
  0
LTYPE
  2
double-dashed_double-dotted
 70
   64
  3
-----   ---------   -   -   ----
 72
   65
 73
    8
 40
18.5
 49
6
 49
-1.5
 49
6
 49
-1.5
 49
0.25
 49
-1.5
 49
0.25
 49
-1.5
  0
LTYPE
  2
dashed_triplicate-dotted
 70
   64
  3
-------    -    -    -    ------
 72
   65
 73
    8
 40
12.75
 49
6
 49
-1.5
 49
0.25
 49
-1.5
 49
0.25
 49
-1.5
 49
0.25
 49
-1.5
  0
LTYPE
  2
double-dashed_triplicate-dotted
 70
   64
  3
-----  ---------  -  -  -  -----
 72
   65
 73
   10
 40
20.25
 49
6
 49
-1.5
 49
6
 49
-1.5
 49
0.25
 49
-1.5
 49
0.25
 49
-1.5
 49
0.25
 49
-1.5
  0
LTYPE
  2
undefined
 70
   64
  3
--------------------------------
 72
   65
 73
    0
 40
0
  0
ENDTAB
  0
TABLE
  2
STYLE
  5
3
100
AcDbSymbolTable
 70
     1
  0
STYLE
  5
10
100
AcDbSymbolTableRecord
100
AcDbTextStyleTableRecord
  2
STANDARD
 70
     0
 40
0.0
 41
1.0
 50
0.0
 71
     0
 42
0.2
  3
txt
  4
bigfont.shx
  0
STYLE
  5
26
100
AcDbSymbolTableRecord
100
AcDbTextStyleTableRecord
  2
TATEGAKI
 70
    68
 40
0.0
 41
1.0
 50
0.0
 71
     0
 42
1.0
  3
txt
  4
bigfont.shx
  0
ENDTAB
  0
TABLE
  2
LAYER
 70
    2
  0
LAYER
  2
_0-0_
 70
   64
 62
    7
  6
CONTINUOUS
  0
LAYER
  2
ADD_LINE
 70
   64
 62
    7
  6
CONTINUOUS
  0
ENDTAB
  0
ENDSEC
  0
SECTION
  2
BLOCKS
  0
ENDSEC
  0
SECTION
  2
ENTITIES
  0
LINE
  8
_0-0_
  6
CONTINUOUS
 62
    7
 10
4682.4044159369732
 20
1440.2963079147528
 11
4670.4044159369678
 21
1440.2963079147528
  0
LINE
  8
_0-0_
  6
CONTINUOUS
 62
    7
 10
4670.4044159369678
 20
1440.2963079147528
 11
4670.4044159369678
 21
1402.2963079147532
  0
LINE
  8
_0-0_
  6
CONTINUOUS
 62
    7
 10
4682.4044159369732
 20
1438.6963079147513
 11
4672.00441593697
 21
1438.6963079147513
  0
LINE
  8
_0-0_
  6
CONTINUOUS
 62
    7
 10
4672.00441593697
 20
1438.6963079147513
 11
4672.00441593697
 21
1403.8963079147504
  0
LINE
  8
_0-0_
  6
CONTINUOUS
 62
    7
 10
4682.4044159369732
 20
1440.2963079147528
 11
4682.4044159369732
 21
1438.6963079147513
  0
LINE
  8
_0-0_
  6
CONTINUOUS
 62
    7
 10
4682.4044159369732
 20
1403.8963079147504
 11
4682.4044159369732
 21
1402.2963079147532
  0
LINE
  8
_0-0_
  6
CONTINUOUS
 62
    7
 10
4682.4044159369732
 20
1403.8963079147504
 11
4672.00441593697
 21
1403.8963079147504
  0
LINE
  8
_0-0_
  6
CONTINUOUS
 62
    7
 10
4551.4044159369732
 20
1383.2963079147539
 11
4551.4044159369732
 21
1363.2963079147498
  0
LINE
  8
_0-0_
  6
CONTINUOUS
 62
    7
 10
4566.404415936976
 20
1363.2963079147498
 11
4566.404415936976
 21
1355.2963079147537
  0
LINE
  8
_0-0_
  6
CONTINUOUS
 62
    7
 10
4541.4044159369651
 20
1393.2963079147532
 11
4566.404415936976
 21
1393.2963079147532
  0
LINE
  8
_0-0_
  6
CONTINUOUS
 62
    7
 10
4566.404415936976
 20
1393.2963079147532
 11
4566.404415936976
 21
1383.2963079147539
  0
LINE
  8
_0-0_
  6
CONTINUOUS
 62
    7
 10
4570.4044159369723
 20
1402.2963079147532
 11
4570.4044159369723
 21
1383.2963079147539
  0
LINE
  8
_0-0_
  6
CONTINUOUS
 62
    7
 10
4682.4044159369732
 20
1440.2963079147528
 11
4718.2001259369754
 21
1502.2963079147512
  0
LINE
  8
_0-0_
  6
CONTINUOUS
 62
    7
 10
4566.404415936976
 20
1355.2963079147537
 11
3936.4044159369701
 21
1355.2963079147537
  0
LINE
  8
_0-0_
  6
CONTINUOUS
 62
    7
 10
3513.6920359369628
 20
1496.2963079147535
 11
3541.9044159369705
 21
1496.2963079147535
  0
LINE
  8
_0-0_
  6
CONTINUOUS
 62
    7
 10
3513.6920359369628
 20
1498.2963079147517
 11
3541.9044159369705
 21
1498.2963079147517
  0
LINE
  8
_0-0_
  6
CONTINUOUS
 62
    7
 10
3513.6920359369628
 20
1498.2963079147517
 11
3513.6920359369628
 21
1496.2963079147535
  0
LINE
  8
_0-0_
  6
CONTINUOUS
 62
    7
 10
3951.4044159369732
 20
1363.2963079147498
 11
3951.4044159369732
 21
1383.2963079147539
  0
LINE
  8
_0-0_
  6
CONTINUOUS
 62
    7
 10
3555.4899359369747
 20
1438.6963079147513
 11
3547.0044159369695
 21
1438.6963079147513
  0
LINE
  8
_0-0_
  6
CONTINUOUS
 62
    7
 10
3547.0044159369695
 20
1438.6963079147513
 11
3547.0044159369695
 21
1403.8963079147504
  0
LINE
  8
_0-0_
  6
CONTINUOUS
 62
    7
 10
3547.0044159369695
 20
1403.8963079147504
 11
3557.4044159369737
 21
1403.8963079147504
  0
LINE
  8
_0-0_
  6
CONTINUOUS
 62
    7
 10
3557.4044159369737
 20
1403.8963079147504
 11
3557.4044159369737
 21
1402.3598079147498
  0
ARC
  8
_0-0_
  6
CONTINUOUS
 62
    7
 10
3527.7982259369755
 20
1502.5463079147512
 40
14.249999999999998
 50
250.52877900000004
 51
289.47122100000007
  0
ARC
  8
_0-0_
  6
CONTINUOUS
 62
    7
 10
3520.7568559369738
 20
1491.9249779147531
 40
3.6286800000000001
 50
270
 51
309.15794499999998
  0
LINE
  8
_0-0_
  6
CONTINUOUS
 62
    7
 10
3518.2982259369669
 20
1489.1112779147511
 11
3518.2982259369669
 21
1496.2963079147535
  0
LINE
  8
_0-0_
  6
CONTINUOUS
 62
    7
 10
3518.2982259369669
 20
1489.1112779147511
 11
3519.7097959369603
 21
1488.2963079147521
  0
LINE
  8
_0-0_
  6
CONTINUOUS
 62
    7
 10
3519.7097959369603
 20
1488.2963079147521
 11
3535.8866559369735
 21
1488.2963079147521
  0
LINE
  8
_0-0_
  6
CONTINUOUS
 62
    7
 10
3535.8866559369735
 20
1488.2963079147521
 11
3537.2982259369664
 21
1489.1112779147511
  0
LINE
  8
_0-0_
  6
CONTINUOUS
 62
    7
 10
3532.548225936971
 20
1489.1112779147511
 11
3532.548225936971
 21
1496.2963079147535
  0
LINE
  8
_0-0_
  6
CONTINUOUS
 62
    7
 10
3523.0482259369628
 20
1496.2963079147535
 11
3523.0482259369628
 21
1489.1112779147511
  0
ARC
  8
_0-0_
  6
CONTINUOUS
 62
    7
 10
3534.8395959369773
 20
1491.9249779147531
 40
3.6286800000000001
 50
230.84205500000002
 51
270
  0
LINE
  8
_0-0_
  6
CONTINUOUS
 62
    7
 10
3537.2982259369664
 20
1489.1112779147511
 11
3537.2982259369664
 21
1496.2963079147535
  0
ARC
  8
_0-0_
  6
CONTINUOUS
 62
    7
 10
3527.7982259369755
 20
1492.0463079147521
 40
14.249999999999998
 50
70.528779
 51
109.471221
  0
ARC
  8
_0-0_
  6
CONTINUOUS
 62
    7
 10
3520.7568559369738
 20
1502.6676279147534
 40
3.6286800000000001
 50
50.842054999999995
 51
90
  0
LINE
  8
_0-0_
  6
CONTINUOUS
 62
    7
 10
3518.2982259369669
 20
1505.481327914752
 11
3518.2982259369669
 21
1498.2963079147517
  0
LINE
  8
_0-0_
  6
CONTINUOUS
 62
    7
 10
3518.2982259369669
 20
1505.481327914752
 11
3519.7097959369603
 21
1506.2963079147528
  0
LINE
  8
_0-0_
  6
CONTINUOUS
 62
    7
 10
3519.7097959369603
 20
1506.2963079147528
 11
3535.8866559369735
 21
1506.2963079147528
  0
LINE
  8
_0-0_
  6
CONTINUOUS
 62
    7
 10
3535.8866559369735
 20
1506.2963079147528
 11
3537.2982259369664
 21
1505.481327914752
  0
LINE
  8
_0-0_
  6
CONTINUOUS
 62
    7
 10
3532.548225936971
 20
1505.481327914752
 11
3532.548225936971
 21
1498.2963079147517
  0
LINE
  8
_0-0_
  6
CONTINUOUS
 62
    7
 10
3523.0482259369628
 20
1498.2963079147517
 11
3523.0482259369628
 21
1505.481327914752
  0
ARC
  8
_0-0_
  6
CONTINUOUS
 62
    7
 10
3534.8395959369773
 20
1502.6676279147534
 40
3.6286800000000001
 50
90
 51
129.15794499999998
  0
LINE
  8
_0-0_
  6
CONTINUOUS
 62
    7
 10
3537.2982259369664
 20
1505.481327914752
 11
3537.2982259369664
 21
1498.2963079147517
  0
LINE
  8
_0-0_
  6
CONTINUOUS
 62
    7
 10
3523.0482259369628
 20
1488.2963079147521
 11
3523.0482259369628
 21
1473.2963079147521
  0
LINE
  8
_0-0_
  6
CONTINUOUS
 62
    7
 10
3523.0482259369628
 20
1473.2963079147521
 11
3532.548225936971
 21
1473.2963079147521
  0
LINE
  8
_0-0_
  6
CONTINUOUS
 62
    7
 10
3532.548225936971
 20
1473.2963079147521
 11
3532.548225936971
 21
1488.2963079147521
  0
LINE
  8
_0-0_
  6
CONTINUOUS
 62
    7
 10
3547.404415936966
 20
1400.2963079147503
 11
3556.9044159369741
 21
1400.2963079147503
  0
ARC
  8
_0-0_
  6
CONTINUOUS
 62
    7
 10
3547.404415936966
 20
1404.2963079147514
 40
4
 50
180
 51
270
  0
ARC
  8
_0-0_
  6
CONTINUOUS
 62
    7
 10
3556.9044159369741
 20
1404.2963079147514
 40
4
 50
270
 51
0
  0
ARC
  8
_0-0_
  6
CONTINUOUS
 62
    7
 10
3560.404415936971
 20
1440.2963079147528
 40
7
 50
123.001744
 51
180
  0
LINE
  8
_0-0_
  6
CONTINUOUS
 62
    7
 10
3556.9044159369741
 20
1402.2963079147532
 11
3547.404415936966
 21
1402.2963079147532
  0
ARC
  8
_0-0_
  6
CONTINUOUS
 62
    7
 10
3560.404415936971
 20
1440.2963079147528
 40
5
 50
123.00174500000001
 51
180
  0
LINE
  8
_0-0_
  6
CONTINUOUS
 62
    7
 10
3560.9044159369705
 20
1404.2963079147514
 11
3560.9044159369705
 21
1424.7963079147532
  0
LINE
  8
_0-0_
  6
CONTINUOUS
 62
    7
 10
3558.9044159369723
 20
1404.2963079147514
 11
3558.9044159369723
 21
1424.7963079147532
  0
ARC
  8
_0-0_
  6
CONTINUOUS
 62
    7
 10
3556.9044159369741
 20
1404.2963079147514
 40
2
 50
270
 51
0
  0
ARC
  8
_0-0_
  6
CONTINUOUS
 62
    7
 10
3560.0381759369711
 20
1441.847027914753
 40
3.5
 50
123.053365
 51
206.29589000000001
  0
LINE
  8
_0-0_
  6
CONTINUOUS
 62
    7
 10
3562.9744059369659
 20
1450.3120979147536
 11
3564.420205936965
 21
1448.8662979147512
  0
LINE
  8
_0-0_
  6
CONTINUOUS
 62
    7
 10
3564.420205936965
 20
1448.8662979147512
 11
3557.6810859369675
 21
1444.4895779147528
  0
LINE
  8
_0-0_
  6
CONTINUOUS
 62
    7
 10
3562.9744059369659
 20
1450.3120979147536
 11
3556.5917559369655
 21
1446.1668779147521
  0
ARC
  8
_0-0_
  6
CONTINUOUS
 62
    7
 10
3528.9044159369655
 20
1424.7963079147532
 40
32
 50
0
 51
28.971532
  0
ARC
  8
_0-0_
  6
CONTINUOUS
 62
    7
 10
3528.9044159369655
 20
1424.7963079147532
 40
30
 50
0
 51
31.108922999999997
  0
ARC
  8
_0-0_
  6
CONTINUOUS
 62
    7
 10
3559.765045936972
 20
1433.6220979147538
 40
16.504470000000001
 50
158.54347300000001
 51
172.43016700000001
  0
ARC
  8
_0-0_
  6
CONTINUOUS
 62
    7
 10
3559.765045936972
 20
1450.9705079147507
 40
16.504470000000001
 50
187.56983300000002
 51
201.45652700000002
  0
ARC
  8
_0-0_
  6
CONTINUOUS
 62
    7
 10
3537.7008859369698
 20
1442.296307914751
 40
7.203520000000001
 50
338.52689500000002
 51
21.473104999999975
  0
LINE
  8
_0-0_
  6
CONTINUOUS
 62
    7
 10
3543.4044159369696
 20
1494.7963079147548
 11
3543.4044159369696
 21
1448.7963079147539
  0
LINE
  8
_0-0_
  6
CONTINUOUS
 62
    7
 10
3543.4044159369696
 20
1435.7963079147521
 11
3543.4044159369696
 21
1404.2963079147514
  0
ARC
  8
_0-0_
  6
CONTINUOUS
 62
    7
 10
3541.9044159369705
 20
1494.7963079147548
 40
1.5000000000000002
 50
0
 51
90
  0
ARC
  8
_0-0_
  6
CONTINUOUS
 62
    7
 10
3541.9044159369705
 20
1494.7963079147548
 40
3.5
 50
0
 51
90
  0
LINE
  8
_0-0_
  6
CONTINUOUS
 62
    7
 10
3545.4044159369678
 20
1494.7963079147548
 11
3545.4044159369678
 21
1448.7963079147539
  0
LINE
  8
_0-0_
  6
CONTINUOUS
 62
    7
 10
3545.4044159369678
 20
1435.7963079147521
 11
3545.4044159369678
 21
1404.2963079147514
  0
ARC
  8
_0-0_
  6
CONTINUOUS
 62
    7
 10
3547.404415936966
 20
1404.2963079147514
 40
2
 50
180
 51
270
  0
ARC
  8
_0-0_
  6
CONTINUOUS
 62
    7
 10
3537.3622759369755
 20
1490.254167914751
 40
7.2695399999999992
 50
33.782170999999998
 51
56.217829000000002
  0
ARC
  8
_0-0_
  6
CONTINUOUS
 62
    7
 10
3561.7650459369702
 20
1433.6220979147538
 40
16.504470000000001
 50
158.54347300000001
 51
172.43016700000001
  0
ARC
  8
_0-0_
  6
CONTINUOUS
 62
    7
 10
3561.7650459369702
 20
1450.9705079147507
 40
16.504470000000001
 50
187.56983300000002
 51
201.45652700000002
  0
ARC
  8
_0-0_
  6
CONTINUOUS
 62
    7
 10
3539.700885936968
 20
1442.296307914751
 40
7.203520000000001
 50
338.52689500000002
 51
21.473104999999975
  0
LINE
  8
_0-0_
  6
CONTINUOUS
 62
    7
 10
3523.0482259369628
 20
1506.2963079147528
 11
3523.0482259369628
 21
1602.2963079147507
  0
LINE
  8
_0-0_
  6
CONTINUOUS
 62
    7
 10
3532.548225936971
 20
1602.2963079147507
 11
3532.548225936971
 21
1506.2963079147528
  0
LINE
  8
_0-0_
  6
CONTINUOUS
 62
    7
 10
3555.4044159369755
 20
1440.2963079147528
 11
3546.6212059369682
 21
1440.2963079147528
  0
LINE
  8
_0-0_
  6
CONTINUOUS
 62
    7
 10
3932.4044159369737
 20
1402.2963079147532
 11
3932.4044159369737
 21
1383.2963079147539
  0
LINE
  8
_0-0_
  6
CONTINUOUS
 62
    7
 10
3832.4044159369623
 20
1440.2963079147528
 11
3820.4044159369732
 21
1440.2963079147528
  0
LINE
  8
_0-0_
  6
CONTINUOUS
 62
    7
 10
3820.4044159369732
 20
1440.2963079147528
 11
3820.4044159369732
 21
1402.2963079147532
  0
LINE
  8
_0-0_
  6
CONTINUOUS
 62
    7
 10
3832.4044159369623
 20
1438.6963079147513
 11
3822.0044159369754
 21
1438.6963079147513
  0
LINE
  8
_0-0_
  6
CONTINUOUS
 62
    7
 10
3822.0044159369754
 20
1438.6963079147513
 11
3822.0044159369754
 21
1403.8963079147504
  0
LINE
  8
_0-0_
  6
CONTINUOUS
 62
    7
 10
3832.4044159369623
 20
1440.2963079147528
 11
3832.4044159369623
 21
1438.6963079147513
  0
LINE
  8
_0-0_
  6
CONTINUOUS
 62
    7
 10
3832.4044159369623
 20
1403.8963079147504
 11
3832.4044159369623
 21
1402.2963079147532
  0
LINE
  8
_0-0_
  6
CONTINUOUS
 62
    7
 10
3832.4044159369623
 20
1403.8963079147504
 11
3822.0044159369754
 21
1403.8963079147504
  0
LINE
  8
_0-0_
  6
CENTER1
 62
    7
 10
4101.4044159369732
 20
1602.2963079147507
 11
4101.4044159369732
 21
1432.578337914754
  0
LINE
  8
_0-0_
  6
CENTER1
 62
    7
 10
4401.4044159369732
 20
1602.2963079147507
 11
4401.4044159369732
 21
1432.578337914754
  0
LINE
  8
_0-0_
  6
CENTER1
 62
    7
 10
3936.4044159369701
 20
1393.2963079147532
 11
3961.4044159369641
 21
1393.2963079147532
  0
LINE
  8
_0-0_
  6
CENTER1
 62
    7
 10
3936.4044159369701
 20
1393.2963079147532
 11
3936.4044159369701
 21
1383.2963079147539
  0
LINE
  8
_0-0_
  6
CENTER1
 62
    7
 10
3961.4044159369641
 20
1393.2963079147532
 11
3961.4044159369641
 21
1363.2963079147498
  0
LINE
  8
_0-0_
  6
CENTER1
 62
    7
 10
3961.4044159369641
 20
1363.2963079147498
 11
3981.4044159369632
 21
1363.2963079147498
  0
LINE
  8
_0-0_
  6
CENTER1
 62
    7
 10
3936.4044159369701
 20
1355.2963079147537
 11
3936.4044159369701
 21
1363.2963079147498
  0
LINE
  8
_0-0_
  6
CENTER1
 62
    7
 10
4566.404415936976
 20
1393.2963079147532
 11
4541.4044159369651
 21
1393.2963079147532
  0
LINE
  8
_0-0_
  6
CENTER1
 62
    7
 10
4566.404415936976
 20
1393.2963079147532
 11
4566.404415936976
 21
1383.2963079147539
  0
LINE
  8
_0-0_
  6
CENTER1
 62
    7
 10
4541.4044159369651
 20
1363.2963079147498
 11
4541.4044159369651
 21
1393.2963079147532
  0
LINE
  8
_0-0_
  6
CENTER1
 62
    7
 10
4521.404415936966
 20
1363.2963079147498
 11
4541.4044159369651
 21
1363.2963079147498
  0
LINE
  8
_0-0_
  6
CENTER1
 62
    7
 10
4566.404415936976
 20
1355.2963079147537
 11
4566.404415936976
 21
1363.2963079147498
  0
LINE
  8
_0-0_
  6
CENTER1
 62
    7
 10
4566.404415936976
 20
1355.2963079147537
 11
3936.4044159369701
 21
1355.2963079147537
  0
LINE
  8
_0-0_
  6
CENTER1
 62
    7
 10
4101.4044159369732
 20
1432.578337914754
 11
3981.4044159369632
 21
1363.2963079147498
  0
LINE
  8
_0-0_
  6
CENTER1
 62
    7
 10
4521.404415936966
 20
1363.2963079147498
 11
4401.4044159369732
 21
1432.578337914754
  0
LINE
  8
_0-0_
  6
CONTINUOUS
 62
    7
 10
5313.6920359369633
 20
1496.2963079147535
 11
5341.9044159369705
 21
1496.2963079147535
  0
LINE
  8
_0-0_
  6
CONTINUOUS
 62
    7
 10
5313.6920359369633
 20
1498.2963079147517
 11
5341.9044159369705
 21
1498.2963079147517
  0
LINE
  8
_0-0_
  6
CONTINUOUS
 62
    7
 10
5313.6920359369633
 20
1498.2963079147517
 11
5313.6920359369633
 21
1496.2963079147535
  0
LINE
  8
_0-0_
  6
CONTINUOUS
 62
    7
 10
5355.4899359369747
 20
1438.6963079147513
 11
5347.00441593697
 21
1438.6963079147513
  0
LINE
  8
_0-0_
  6
CONTINUOUS
 62
    7
 10
5347.00441593697
 20
1438.6963079147513
 11
5347.00441593697
 21
1403.8963079147504
  0
LINE
  8
_0-0_
  6
CONTINUOUS
 62
    7
 10
5347.00441593697
 20
1403.8963079147504
 11
5357.4044159369732
 21
1403.8963079147504
  0
LINE
  8
_0-0_
  6
CONTINUOUS
 62
    7
 10
5357.4044159369732
 20
1403.8963079147504
 11
5357.4044159369732
 21
1402.3598079147498
  0
ARC
  8
_0-0_
  6
CONTINUOUS
 62
    7
 10
5327.7982259369755
 20
1502.5463079147512
 40
14.249999999999998
 50
250.52877900000004
 51
289.47122100000007
  0
ARC
  8
_0-0_
  6
CONTINUOUS
 62
    7
 10
5320.7568559369738
 20
1491.9249779147531
 40
3.6286800000000001
 50
270
 51
309.15794499999998
  0
LINE
  8
_0-0_
  6
CONTINUOUS
 62
    7
 10
5318.2982259369674
 20
1489.1112779147511
 11
5318.2982259369674
 21
1496.2963079147535
  0
LINE
  8
_0-0_
  6
CONTINUOUS
 62
    7
 10
5318.2982259369674
 20
1489.1112779147511
 11
5319.7097959369603
 21
1488.2963079147521
  0
LINE
  8
_0-0_
  6
CONTINUOUS
 62
    7
 10
5319.7097959369603
 20
1488.2963079147521
 11
5335.8866559369735
 21
1488.2963079147521
  0
LINE
  8
_0-0_
  6
CONTINUOUS
 62
    7
 10
5335.8866559369735
 20
1488.2963079147521
 11
5337.2982259369664
 21
1489.1112779147511
  0
LINE
  8
_0-0_
  6
CONTINUOUS
 62
    7
 10
5332.548225936971
 20
1489.1112779147511
 11
5332.548225936971
 21
1496.2963079147535
  0
LINE
  8
_0-0_
  6
CONTINUOUS
 62
    7
 10
5323.0482259369628
 20
1496.2963079147535
 11
5323.0482259369628
 21
1489.1112779147511
  0
ARC
  8
_0-0_
  6
CONTINUOUS
 62
    7
 10
5334.8395959369773
 20
1491.9249779147531
 40
3.6286800000000001
 50
230.84205500000002
 51
270
  0
LINE
  8
_0-0_
  6
CONTINUOUS
 62
    7
 10
5337.2982259369664
 20
1489.1112779147511
 11
5337.2982259369664
 21
1496.2963079147535
  0
ARC
  8
_0-0_
  6
CONTINUOUS
 62
    7
 10
5327.7982259369755
 20
1492.0463079147521
 40
14.249999999999998
 50
70.528779
 51
109.471221
  0
ARC
  8
_0-0_
  6
CONTINUOUS
 62
    7
 10
5320.7568559369738
 20
1502.6676279147534
 40
3.6286800000000001
 50
50.842054999999995
 51
90
  0
LINE
  8
_0-0_
  6
CONTINUOUS
 62
    7
 10
5318.2982259369674
 20
1505.481327914752
 11
5318.2982259369674
 21
1498.2963079147517
  0
LINE
  8
_0-0_
  6
CONTINUOUS
 62
    7
 10
5318.2982259369674
 20
1505.481327914752
 11
5319.7097959369603
 21
1506.2963079147528
  0
LINE
  8
_0-0_
  6
CONTINUOUS
 62
    7
 10
5319.7097959369603
 20
1506.2963079147528
 11
5335.8866559369735
 21
1506.2963079147528
  0
LINE
  8
_0-0_
  6
CONTINUOUS
 62
    7
 10
5335.8866559369735
 20
1506.2963079147528
 11
5337.2982259369664
 21
1505.481327914752
  0
LINE
  8
_0-0_
  6
CONTINUOUS
 62
    7
 10
5332.548225936971
 20
1505.481327914752
 11
5332.548225936971
 21
1498.2963079147517
  0
LINE
  8
_0-0_
  6
CONTINUOUS
 62
    7
 10
5323.0482259369628
 20
1498.2963079147517
 11
5323.0482259369628
 21
1505.481327914752
  0
ARC
  8
_0-0_
  6
CONTINUOUS
 62
    7
 10
5334.8395959369773
 20
1502.6676279147534
 40
3.6286800000000001
 50
90
 51
129.15794499999998
  0
LINE
  8
_0-0_
  6
CONTINUOUS
 62
    7
 10
5337.2982259369664
 20
1505.481327914752
 11
5337.2982259369664
 21
1498.2963079147517
  0
LINE
  8
_0-0_
  6
CONTINUOUS
 62
    7
 10
5323.0482259369628
 20
1488.2963079147521
 11
5323.0482259369628
 21
1473.2963079147521
  0
LINE
  8
_0-0_
  6
CONTINUOUS
 62
    7
 10
5323.0482259369628
 20
1473.2963079147521
 11
5332.548225936971
 21
1473.2963079147521
  0
LINE
  8
_0-0_
  6
CONTINUOUS
 62
    7
 10
5332.548225936971
 20
1473.2963079147521
 11
5332.548225936971
 21
1488.2963079147521
  0
LINE
  8
_0-0_
  6
CONTINUOUS
 62
    7
 10
5347.404415936966
 20
1400.2963079147503
 11
5356.9044159369741
 21
1400.2963079147503
  0
ARC
  8
_0-0_
  6
CONTINUOUS
 62
    7
 10
5347.404415936966
 20
1404.2963079147514
 40
4
 50
180
 51
270
  0
ARC
  8
_0-0_
  6
CONTINUOUS
 62
    7
 10
5356.9044159369741
 20
1404.2963079147514
 40
4
 50
270
 51
0
  0
ARC
  8
_0-0_
  6
CONTINUOUS
 62
    7
 10
5360.4044159369714
 20
1440.2963079147528
 40
7
 50
123.001744
 51
180
  0
LINE
  8
_0-0_
  6
CONTINUOUS
 62
    7
 10
5356.9044159369741
 20
1402.2963079147532
 11
5347.404415936966
 21
1402.2963079147532
  0
ARC
  8
_0-0_
  6
CONTINUOUS
 62
    7
 10
5360.4044159369714
 20
1440.2963079147528
 40
5
 50
123.00174500000001
 51
180
  0
LINE
  8
_0-0_
  6
CONTINUOUS
 62
    7
 10
5360.9044159369705
 20
1404.2963079147514
 11
5360.9044159369705
 21
1424.7963079147532
  0
LINE
  8
_0-0_
  6
CONTINUOUS
 62
    7
 10
5358.9044159369723
 20
1404.2963079147514
 11
5358.9044159369723
 21
1424.7963079147532
  0
ARC
  8
_0-0_
  6
CONTINUOUS
 62
    7
 10
5356.9044159369741
 20
1404.2963079147514
 40
2
 50
270
 51
0
  0
ARC
  8
_0-0_
  6
CONTINUOUS
 62
    7
 10
5360.0381759369711
 20
1441.847027914753
 40
3.5
 50
123.053365
 51
206.29589000000001
  0
LINE
  8
_0-0_
  6
CONTINUOUS
 62
    7
 10
5362.9744059369659
 20
1450.3120979147536
 11
5364.4202059369654
 21
1448.8662979147512
  0
LINE
  8
_0-0_
  6
CONTINUOUS
 62
    7
 10
5364.4202059369654
 20
1448.8662979147512
 11
5357.6810859369671
 21
1444.4895779147528
  0
LINE
  8
_0-0_
  6
CONTINUOUS
 62
    7
 10
5362.9744059369659
 20
1450.3120979147536
 11
5356.5917559369655
 21
1446.1668779147521
  0
ARC
  8
_0-0_
  6
CONTINUOUS
 62
    7
 10
5328.904415936966
 20
1424.7963079147532
 40
32
 50
0
 51
28.971532
  0
ARC
  8
_0-0_
  6
CONTINUOUS
 62
    7
 10
5328.904415936966
 20
1424.7963079147532
 40
30
 50
0
 51
31.108922999999997
  0
ARC
  8
_0-0_
  6
CONTINUOUS
 62
    7
 10
5359.7650459369725
 20
1433.6220979147538
 40
16.504470000000001
 50
158.54347300000001
 51
172.43016700000001
  0
ARC
  8
_0-0_
  6
CONTINUOUS
 62
    7
 10
5359.7650459369725
 20
1450.9705079147507
 40
16.504470000000001
 50
187.56983300000002
 51
201.45652700000002
  0
ARC
  8
_0-0_
  6
CONTINUOUS
 62
    7
 10
5337.7008859369698
 20
1442.296307914751
 40
7.203520000000001
 50
338.52689500000002
 51
21.473104999999975
  0
LINE
  8
_0-0_
  6
CONTINUOUS
 62
    7
 10
5343.4044159369696
 20
1494.7963079147548
 11
5343.4044159369696
 21
1448.7963079147539
  0
LINE
  8
_0-0_
  6
CONTINUOUS
 62
    7
 10
5343.4044159369696
 20
1435.7963079147521
 11
5343.4044159369696
 21
1404.2963079147514
  0
ARC
  8
_0-0_
  6
CONTINUOUS
 62
    7
 10
5341.9044159369705
 20
1494.7963079147548
 40
1.5000000000000002
 50
0
 51
90
  0
ARC
  8
_0-0_
  6
CONTINUOUS
 62
    7
 10
5341.9044159369705
 20
1494.7963079147548
 40
3.5
 50
0
 51
90
  0
LINE
  8
_0-0_
  6
CONTINUOUS
 62
    7
 10
5345.4044159369678
 20
1494.7963079147548
 11
5345.4044159369678
 21
1448.7963079147539
  0
LINE
  8
_0-0_
  6
CONTINUOUS
 62
    7
 10
5345.4044159369678
 20
1435.7963079147521
 11
5345.4044159369678
 21
1404.2963079147514
  0
ARC
  8
_0-0_
  6
CONTINUOUS
 62
    7
 10
5347.404415936966
 20
1404.2963079147514
 40
2
 50
180
 51
270
  0
ARC
  8
_0-0_
  6
CONTINUOUS
 62
    7
 10
5337.3622759369755
 20
1490.254167914751
 40
7.2695399999999992
 50
33.782170999999998
 51
56.217829000000002
  0
ARC
  8
_0-0_
  6
CONTINUOUS
 62
    7
 10
5361.7650459369706
 20
1433.6220979147538
 40
16.504470000000001
 50
158.54347300000001
 51
172.43016700000001
  0
ARC
  8
_0-0_
  6
CONTINUOUS
 62
    7
 10
5361.7650459369706
 20
1450.9705079147507
 40
16.504470000000001
 50
187.56983300000002
 51
201.45652700000002
  0
ARC
  8
_0-0_
  6
CONTINUOUS
 62
    7
 10
5339.700885936968
 20
1442.296307914751
 40
7.203520000000001
 50
338.52689500000002
 51
21.473104999999975
  0
LINE
  8
_0-0_
  6
CONTINUOUS
 62
    7
 10
5323.0482259369628
 20
1506.2963079147528
 11
5323.0482259369628
 21
1602.2963079147507
  0
LINE
  8
_0-0_
  6
CONTINUOUS
 62
    7
 10
5332.548225936971
 20
1602.2963079147507
 11
5332.548225936971
 21
1506.2963079147528
  0
LINE
  8
_0-0_
  6
CONTINUOUS
 62
    7
 10
5355.4044159369751
 20
1440.2963079147528
 11
5346.6212059369682
 21
1440.2963079147528
  0
LINE
  8
_0-0_
  6
CONTINUOUS
 62
    7
 10
5474.255877175272
 20
1402.2963079147532
 11
4570.4044159369723
 21
1402.2963079147532
  0
LINE
  8
_0-0_
  6
CONTINUOUS
 62
    7
 10
5474.255877175272
 20
1383.2963079147539
 11
4551.4044159369732
 21
1383.2963079147539
  0
LINE
  8
_0-0_
  6
CONTINUOUS
 62
    7
 10
4551.4044159369732
 20
1373.2963079147544
 11
5474.255877175272
 21
1373.2963079147544
  0
LINE
  8
_0-0_
  6
CONTINUOUS
 62
    7
 10
4551.4044159369732
 20
1363.2963079147498
 11
5474.255877175272
 21
1363.2963079147498
  0
LINE
  8
_0-0_
  6
CONTINUOUS
 62
    7
 10
3161.7142325440636
 20
1402.2963079147532
 11
3932.4044159369737
 21
1402.2963079147532
  0
LINE
  8
_0-0_
  6
CONTINUOUS
 62
    7
 10
3161.7142325440636
 20
1383.2963079147539
 11
3951.4044159369732
 21
1383.2963079147539
  0
LINE
  8
_0-0_
  6
CONTINUOUS
 62
    7
 10
3161.7142325440636
 20
1363.2963079147498
 11
3951.4044159369732
 21
1363.2963079147498
  0
LINE
  8
_0-0_
  6
CONTINUOUS
 62
    7
 10
3951.4044159369732
 20
1373.2963079147544
 11
3161.7142325440636
 21
1373.2963079147544
  0
LINE
  8
_0-0_
  6
CONTINUOUS
 62
    7
 10
4570.4044159369723
 20
2373.0681357782241
 11
4661.404415936976
 21
2373.0681357782241
  0
LINE
  8
_0-0_
  6
CONTINUOUS
 62
    7
 10
4570.4044159369723
 20
2373.0681357782241
 11
4570.4044159369723
 21
2335.0681357782246
  0
LINE
  8
_0-0_
  6
CONTINUOUS
 62
    7
 10
4570.4044159369723
 20
2335.0681357782246
 11
4670.1544159369678
 21
2335.0681357782246
  0
LINE
  8
_0-0_
  6
CONTINUOUS
 62
    7
 10
4941.4044159369769
 20
2373.0681357782241
 11
4941.4044159369769
 21
2347.8681357782234
  0
ARC
  8
_0-0_
  6
CONTINUOUS
 62
    7
 10
4935.6544159369651
 20
2328.3681357782239
 40
2
 50
270
 51
0
  0
LINE
  8
_0-0_
  6
CONTINUOUS
 62
    7
 10
4941.4044159369769
 20
2347.8681357782234
 11
4932.6544159369678
 21
2344.6833957782251
  0
LINE
  8
_0-0_
  6
CONTINUOUS
 62
    7
 10
4932.6544159369678
 20
2332.3681357782252
 11
4932.6544159369678
 21
2344.6833957782251
  0
ARC
  8
_0-0_
  6
CONTINUOUS
 62
    7
 10
4934.154415936966
 20
2332.3681357782252
 40
1.5000000000000002
 50
180
 51
344.32172400000002
  0
ARC
  8
_0-0_
  6
CONTINUOUS
 62
    7
 10
4937.4044159369632
 20
2333.568135778226
 40
1
 50
0
 51
90
  0
LINE
  8
_0-0_
  6
CONTINUOUS
 62
    7
 10
4937.4044159369632
 20
2334.568135778225
 11
4936.4044159369641
 21
2334.568135778225
  0
ARC
  8
_0-0_
  6
CONTINUOUS
 62
    7
 10
4936.4044159369641
 20
2333.568135778226
 40
1
 50
90
 51
180
  0
LINE
  8
_0-0_
  6
CONTINUOUS
 62
    7
 10
4935.4044159369651
 20
2333.568135778226
 11
4935.4044159369651
 21
2332.0681357782241
  0
LINE
  8
_0-0_
  6
CONTINUOUS
 62
    7
 10
4935.4044159369651
 20
2332.0681357782241
 11
4934.904415936966
 21
2332.0681357782241
  0
LINE
  8
_0-0_
  6
CONTINUOUS
 62
    7
 10
4934.904415936966
 20
2332.0681357782241
 11
4934.904415936966
 21
2333.568135778226
  0
ARC
  8
_0-0_
  6
CONTINUOUS
 62
    7
 10
4936.4044159369641
 20
2333.568135778226
 40
1.5000000000000002
 50
90
 51
180
  0
ARC
  8
_0-0_
  6
CONTINUOUS
 62
    7
 10
4937.4044159369632
 20
2333.568135778226
 40
1.5000000000000002
 50
0
 51
90
  0
LINE
  8
_0-0_
  6
CONTINUOUS
 62
    7
 10
4934.904415936966
 20
2316.5681357782246
 11
4933.9044159369669
 21
2317.0681357782241
  0
LINE
  8
_0-0_
  6
CONTINUOUS
 62
    7
 10
4933.9044159369669
 20
2317.0681357782241
 11
4932.4044159369678
 21
2316.5681357782246
  0
LINE
  8
_0-0_
  6
CONTINUOUS
 62
    7
 10
4932.4044159369678
 20
2316.5681357782246
 11
4930.9044159369696
 21
2317.0681357782241
  0
LINE
  8
_0-0_
  6
CONTINUOUS
 62
    7
 10
4930.9044159369696
 20
2317.0681357782241
 11
4929.4044159369705
 21
2316.5681357782246
  0
LINE
  8
_0-0_
  6
CONTINUOUS
 62
    7
 10
4929.4044159369705
 20
2316.5681357782246
 11
4927.9044159369723
 21
2317.0681357782241
  0
LINE
  8
_0-0_
  6
CONTINUOUS
 62
    7
 10
4927.9044159369723
 20
2317.0681357782241
 11
4926.4044159369732
 21
2316.5681357782246
  0
LINE
  8
_0-0_
  6
CONTINUOUS
 62
    7
 10
4934.904415936966
 20
2316.068135778225
 11
4933.9044159369669
 21
2316.5681357782246
  0
LINE
  8
_0-0_
  6
CONTINUOUS
 62
    7
 10
4933.9044159369669
 20
2316.5681357782246
 11
4932.4044159369678
 21
2316.068135778225
  0
LINE
  8
_0-0_
  6
CONTINUOUS
 62
    7
 10
4932.4044159369678
 20
2316.068135778225
 11
4930.9044159369696
 21
2316.5681357782246
  0
LINE
  8
_0-0_
  6
CONTINUOUS
 62
    7
 10
4930.9044159369696
 20
2316.5681357782246
 11
4929.4044159369705
 21
2316.068135778225
  0
LINE
  8
_0-0_
  6
CONTINUOUS
 62
    7
 10
4929.4044159369705
 20
2316.068135778225
 11
4927.9044159369723
 21
2316.5681357782246
  0
LINE
  8
_0-0_
  6
CONTINUOUS
 62
    7
 10
4927.9044159369723
 20
2316.5681357782246
 11
4926.4044159369732
 21
2316.068135778225
  0
LINE
  8
_0-0_
  6
CONTINUOUS
 62
    7
 10
4938.9044159369623
 20
2319.0681357782223
 11
4938.9044159369623
 21
2333.568135778226
  0
ARC
  8
_0-0_
  6
CONTINUOUS
 62
    7
 10
4935.9044159369651
 20
2319.0681357782223
 40
3.0000000000000004
 50
270
 51
0
  0
LINE
  8
_0-0_
  6
CONTINUOUS
 62
    7
 10
4935.9044159369651
 20
2316.068135778225
 11
4934.904415936966
 21
2316.068135778225
  0
LINE
  8
_0-0_
  6
CONTINUOUS
 62
    7
 10
4938.4044159369623
 20
2319.0681357782223
 11
4938.4044159369623
 21
2333.568135778226
  0
ARC
  8
_0-0_
  6
CONTINUOUS
 62
    7
 10
4935.9044159369651
 20
2319.0681357782223
 40
2.5
 50
270
 51
0
  0
LINE
  8
_0-0_
  6
CONTINUOUS
 62
    7
 10
4935.9044159369651
 20
2316.5681357782246
 11
4934.904415936966
 21
2316.5681357782246
  0
LINE
  8
_0-0_
  6
CONTINUOUS
 62
    7
 10
4935.5986059369734
 20
2331.9627857782257
 11
4936.3298659369648
 21
2334.568135778225
  0
LINE
  8
_0-0_
  6
CONTINUOUS
 62
    7
 10
4937.6544159369632
 20
2328.3681357782239
 11
4937.6544159369632
 21
2334.5363857782249
  0
LINE
  8
_0-0_
  6
CONTINUOUS
 62
    7
 10
4941.4044159369769
 20
2373.0681357782241
 11
4941.4044159369769
 21
2373.6681357782236
  0
LINE
  8
_0-0_
  6
CONTINUOUS
 62
    7
 10
4941.4044159369769
 20
2373.6681357782236
 11
4911.4044159369696
 21
2373.6681357782236
  0
LINE
  8
_0-0_
  6
CONTINUOUS
 62
    7
 10
4918.9044159369632
 20
2317.0681357782241
 11
4920.4044159369623
 21
2316.5681357782246
  0
LINE
  8
_0-0_
  6
CONTINUOUS
 62
    7
 10
4920.4044159369623
 20
2316.5681357782246
 11
4921.9044159369605
 21
2317.0681357782241
  0
LINE
  8
_0-0_
  6
CONTINUOUS
 62
    7
 10
4921.9044159369605
 20
2317.0681357782241
 11
4923.404415936976
 21
2316.5681357782246
  0
LINE
  8
_0-0_
  6
CONTINUOUS
 62
    7
 10
4923.404415936976
 20
2316.5681357782246
 11
4924.9044159369751
 21
2317.0681357782241
  0
LINE
  8
_0-0_
  6
CONTINUOUS
 62
    7
 10
4924.9044159369751
 20
2317.0681357782241
 11
4926.4044159369732
 21
2316.5681357782246
  0
LINE
  8
_0-0_
  6
CONTINUOUS
 62
    7
 10
4917.9044159369641
 20
2316.068135778225
 11
4918.9044159369632
 21
2316.5681357782246
  0
LINE
  8
_0-0_
  6
CONTINUOUS
 62
    7
 10
4918.9044159369632
 20
2316.5681357782246
 11
4920.4044159369623
 21
2316.068135778225
  0
LINE
  8
_0-0_
  6
CONTINUOUS
 62
    7
 10
4920.4044159369623
 20
2316.068135778225
 11
4921.9044159369605
 21
2316.5681357782246
  0
LINE
  8
_0-0_
  6
CONTINUOUS
 62
    7
 10
4921.9044159369605
 20
2316.5681357782246
 11
4923.404415936976
 21
2316.068135778225
  0
LINE
  8
_0-0_
  6
CONTINUOUS
 62
    7
 10
4923.404415936976
 20
2316.068135778225
 11
4924.9044159369751
 21
2316.5681357782246
  0
LINE
  8
_0-0_
  6
CONTINUOUS
 62
    7
 10
4924.9044159369751
 20
2316.5681357782246
 11
4926.4044159369732
 21
2316.068135778225
  0
LINE
  8
_0-0_
  6
CONTINUOUS
 62
    7
 10
4917.1544159369651
 20
2326.3681357782257
 11
4935.6544159369651
 21
2326.3681357782257
  0
LINE
  8
_0-0_
  6
CONTINUOUS
 62
    7
 10
4911.4044159369696
 20
2373.0681357782241
 11
4911.4044159369696
 21
2347.8681357782234
  0
ARC
  8
_0-0_
  6
CONTINUOUS
 62
    7
 10
4917.1544159369651
 20
2328.3681357782239
 40
2
 50
180
 51
270
  0
LINE
  8
_0-0_
  6
CONTINUOUS
 62
    7
 10
4911.4044159369696
 20
2347.8681357782234
 11
4920.1544159369623
 21
2344.6833957782251
  0
LINE
  8
_0-0_
  6
CONTINUOUS
 62
    7
 10
4911.4044159369696
 20
2373.6681357782236
 11
4911.4044159369696
 21
2373.0681357782241
  0
LINE
  8
_0-0_
  6
CONTINUOUS
 62
    7
 10
4920.1544159369623
 20
2332.3681357782252
 11
4920.1544159369623
 21
2344.6833957782251
  0
ARC
  8
_0-0_
  6
CONTINUOUS
 62
    7
 10
4918.6544159369632
 20
2332.3681357782252
 40
1.5000000000000002
 50
195.67827599999998
 51
0
  0
ARC
  8
_0-0_
  6
CONTINUOUS
 62
    7
 10
4915.404415936966
 20
2333.568135778226
 40
1
 50
90
 51
180
  0
LINE
  8
_0-0_
  6
CONTINUOUS
 62
    7
 10
4915.404415936966
 20
2334.568135778225
 11
4916.404415936966
 21
2334.568135778225
  0
ARC
  8
_0-0_
  6
CONTINUOUS
 62
    7
 10
4916.404415936966
 20
2333.568135778226
 40
1
 50
0
 51
90
  0
LINE
  8
_0-0_
  6
CONTINUOUS
 62
    7
 10
4917.4044159369641
 20
2333.568135778226
 11
4917.4044159369641
 21
2332.0681357782241
  0
LINE
  8
_0-0_
  6
CONTINUOUS
 62
    7
 10
4917.4044159369641
 20
2332.0681357782241
 11
4917.9044159369641
 21
2332.0681357782241
  0
LINE
  8
_0-0_
  6
CONTINUOUS
 62
    7
 10
4917.9044159369641
 20
2332.0681357782241
 11
4917.9044159369641
 21
2333.568135778226
  0
ARC
  8
_0-0_
  6
CONTINUOUS
 62
    7
 10
4916.404415936966
 20
2333.568135778226
 40
1.5000000000000002
 50
0
 51
90
  0
ARC
  8
_0-0_
  6
CONTINUOUS
 62
    7
 10
4915.404415936966
 20
2333.568135778226
 40
1.5000000000000002
 50
90
 51
180
  0
ARC
  8
_0-0_
  6
CONTINUOUS
 62
    7
 10
4916.9044159369651
 20
2319.0681357782223
 40
3.0000000000000004
 50
180
 51
270
  0
ARC
  8
_0-0_
  6
CONTINUOUS
 62
    7
 10
4916.9044159369651
 20
2319.0681357782223
 40
2.5
 50
180
 51
270
  0
LINE
  8
_0-0_
  6
CONTINUOUS
 62
    7
 10
4913.9044159369678
 20
2319.0681357782223
 11
4913.9044159369678
 21
2333.568135778226
  0
LINE
  8
_0-0_
  6
CONTINUOUS
 62
    7
 10
4914.4044159369678
 20
2319.0681357782223
 11
4914.4044159369678
 21
2333.568135778226
  0
LINE
  8
_0-0_
  6
CONTINUOUS
 62
    7
 10
4917.9044159369641
 20
2316.5681357782246
 11
4918.9044159369632
 21
2317.0681357782241
  0
LINE
  8
_0-0_
  6
CONTINUOUS
 62
    7
 10
4916.9044159369651
 20
2316.068135778225
 11
4917.9044159369641
 21
2316.068135778225
  0
LINE
  8
_0-0_
  6
CONTINUOUS
 62
    7
 10
4916.9044159369651
 20
2316.5681357782246
 11
4917.9044159369641
 21
2316.5681357782246
  0
LINE
  8
_0-0_
  6
CONTINUOUS
 62
    7
 10
4917.2102159369606
 20
2331.9627857782257
 11
4916.4789559369683
 21
2334.568135778225
  0
LINE
  8
_0-0_
  6
CONTINUOUS
 62
    7
 10
4915.1544159369669
 20
2328.3681357782239
 11
4915.1544159369669
 21
2334.5363857782249
  0
LINE
  8
_0-0_
  6
CONTINUOUS
 62
    7
 10
5126.4044159369623
 20
2335.0681357782246
 11
4932.6544159369678
 21
2335.0681357782246
  0
LINE
  8
_0-0_
  6
CONTINUOUS
 62
    7
 10
4941.4044159369769
 20
2373.0681357782241
 11
5126.4044159369623
 21
2373.0681357782241
  0
LINE
  8
_0-0_
  6
CONTINUOUS
 62
    7
 10
4837.9044159369687
 20
2335.0681357782246
 11
4920.1544159369623
 21
2335.0681357782246
  0
LINE
  8
_0-0_
  6
CONTINUOUS
 62
    7
 10
4911.4044159369696
 20
2373.0681357782241
 11
4837.9044159369687
 21
2373.0681357782241
  0
LINE
  8
_0-0_
  6
CONTINUOUS
 62
    7
 10
4661.404415936976
 20
2373.0681357782241
 11
4661.404415936976
 21
2347.8681357782234
  0
ARC
  8
_0-0_
  6
CONTINUOUS
 62
    7
 10
4667.1544159369705
 20
2328.3681357782239
 40
2
 50
180
 51
270
  0
LINE
  8
_0-0_
  6
CONTINUOUS
 62
    7
 10
4661.404415936976
 20
2347.8681357782234
 11
4670.1544159369678
 21
2344.6833957782251
  0
LINE
  8
_0-0_
  6
CONTINUOUS
 62
    7
 10
4670.1544159369678
 20
2332.3681357782252
 11
4670.1544159369678
 21
2344.6833957782251
  0
ARC
  8
_0-0_
  6
CONTINUOUS
 62
    7
 10
4668.6544159369696
 20
2332.3681357782252
 40
1.5000000000000002
 50
195.67827599999998
 51
0
  0
ARC
  8
_0-0_
  6
CONTINUOUS
 62
    7
 10
4665.4044159369723
 20
2333.568135778226
 40
1
 50
90
 51
180
  0
LINE
  8
_0-0_
  6
CONTINUOUS
 62
    7
 10
4665.4044159369723
 20
2334.568135778225
 11
4666.4044159369714
 21
2334.568135778225
  0
ARC
  8
_0-0_
  6
CONTINUOUS
 62
    7
 10
4666.4044159369714
 20
2333.568135778226
 40
1
 50
0
 51
90
  0
LINE
  8
_0-0_
  6
CONTINUOUS
 62
    7
 10
4667.4044159369705
 20
2333.568135778226
 11
4667.4044159369705
 21
2332.0681357782241
  0
LINE
  8
_0-0_
  6
CONTINUOUS
 62
    7
 10
4667.4044159369705
 20
2332.0681357782241
 11
4667.9044159369696
 21
2332.0681357782241
  0
LINE
  8
_0-0_
  6
CONTINUOUS
 62
    7
 10
4667.9044159369696
 20
2332.0681357782241
 11
4667.9044159369696
 21
2333.568135778226
  0
ARC
  8
_0-0_
  6
CONTINUOUS
 62
    7
 10
4666.4044159369714
 20
2333.568135778226
 40
1.5000000000000002
 50
0
 51
90
  0
ARC
  8
_0-0_
  6
CONTINUOUS
 62
    7
 10
4665.4044159369723
 20
2333.568135778226
 40
1.5000000000000002
 50
90
 51
180
  0
LINE
  8
_0-0_
  6
CONTINUOUS
 62
    7
 10
4667.9044159369696
 20
2316.5681357782246
 11
4668.9044159369687
 21
2317.0681357782241
  0
LINE
  8
_0-0_
  6
CONTINUOUS
 62
    7
 10
4668.9044159369687
 20
2317.0681357782241
 11
4670.4044159369678
 21
2316.5681357782246
  0
LINE
  8
_0-0_
  6
CONTINUOUS
 62
    7
 10
4670.4044159369678
 20
2316.5681357782246
 11
4671.904415936966
 21
2317.0681357782241
  0
LINE
  8
_0-0_
  6
CONTINUOUS
 62
    7
 10
4671.904415936966
 20
2317.0681357782241
 11
4673.4044159369651
 21
2316.5681357782246
  0
LINE
  8
_0-0_
  6
CONTINUOUS
 62
    7
 10
4673.4044159369651
 20
2316.5681357782246
 11
4674.9044159369632
 21
2317.0681357782241
  0
LINE
  8
_0-0_
  6
CONTINUOUS
 62
    7
 10
4674.9044159369632
 20
2317.0681357782241
 11
4676.4044159369623
 21
2316.5681357782246
  0
LINE
  8
_0-0_
  6
CONTINUOUS
 62
    7
 10
4667.9044159369696
 20
2316.068135778225
 11
4668.9044159369687
 21
2316.5681357782246
  0
LINE
  8
_0-0_
  6
CONTINUOUS
 62
    7
 10
4668.9044159369687
 20
2316.5681357782246
 11
4670.4044159369678
 21
2316.068135778225
  0
LINE
  8
_0-0_
  6
CONTINUOUS
 62
    7
 10
4670.4044159369678
 20
2316.068135778225
 11
4671.904415936966
 21
2316.5681357782246
  0
LINE
  8
_0-0_
  6
CONTINUOUS
 62
    7
 10
4671.904415936966
 20
2316.5681357782246
 11
4673.4044159369651
 21
2316.068135778225
  0
LINE
  8
_0-0_
  6
CONTINUOUS
 62
    7
 10
4673.4044159369651
 20
2316.068135778225
 11
4674.9044159369632
 21
2316.5681357782246
  0
LINE
  8
_0-0_
  6
CONTINUOUS
 62
    7
 10
4674.9044159369632
 20
2316.5681357782246
 11
4676.4044159369623
 21
2316.068135778225
  0
LINE
  8
_0-0_
  6
CONTINUOUS
 62
    7
 10
4663.9044159369732
 20
2319.0681357782223
 11
4663.9044159369732
 21
2333.568135778226
  0
ARC
  8
_0-0_
  6
CONTINUOUS
 62
    7
 10
4666.9044159369705
 20
2319.0681357782223
 40
3.0000000000000004
 50
180
 51
270
  0
LINE
  8
_0-0_
  6
CONTINUOUS
 62
    7
 10
4666.9044159369705
 20
2316.068135778225
 11
4667.9044159369696
 21
2316.068135778225
  0
LINE
  8
_0-0_
  6
CONTINUOUS
 62
    7
 10
4664.4044159369732
 20
2319.0681357782223
 11
4664.4044159369732
 21
2333.568135778226
  0
ARC
  8
_0-0_
  6
CONTINUOUS
 62
    7
 10
4666.9044159369705
 20
2319.0681357782223
 40
2.5
 50
180
 51
270
  0
LINE
  8
_0-0_
  6
CONTINUOUS
 62
    7
 10
4666.9044159369705
 20
2316.5681357782246
 11
4667.9044159369696
 21
2316.5681357782246
  0
LINE
  8
_0-0_
  6
CONTINUOUS
 62
    7
 10
4667.2102159369661
 20
2331.9627857782257
 11
4666.4789559369738
 21
2334.568135778225
  0
LINE
  8
_0-0_
  6
CONTINUOUS
 62
    7
 10
4665.1544159369723
 20
2328.3681357782239
 11
4665.1544159369723
 21
2334.5363857782249
  0
LINE
  8
_0-0_
  6
CONTINUOUS
 62
    7
 10
4661.404415936976
 20
2373.0681357782241
 11
4661.404415936976
 21
2373.6681357782236
  0
LINE
  8
_0-0_
  6
CONTINUOUS
 62
    7
 10
4661.404415936976
 20
2373.6681357782236
 11
4691.404415936966
 21
2373.6681357782236
  0
LINE
  8
_0-0_
  6
CONTINUOUS
 62
    7
 10
4683.9044159369723
 20
2317.0681357782241
 11
4682.4044159369732
 21
2316.5681357782246
  0
LINE
  8
_0-0_
  6
CONTINUOUS
 62
    7
 10
4682.4044159369732
 20
2316.5681357782246
 11
4680.9044159369751
 21
2317.0681357782241
  0
LINE
  8
_0-0_
  6
CONTINUOUS
 62
    7
 10
4680.9044159369751
 20
2317.0681357782241
 11
4679.4044159369769
 21
2316.5681357782246
  0
LINE
  8
_0-0_
  6
CONTINUOUS
 62
    7
 10
4679.4044159369769
 20
2316.5681357782246
 11
4677.9044159369605
 21
2317.0681357782241
  0
LINE
  8
_0-0_
  6
CONTINUOUS
 62
    7
 10
4677.9044159369605
 20
2317.0681357782241
 11
4676.4044159369623
 21
2316.5681357782246
  0
LINE
  8
_0-0_
  6
CONTINUOUS
 62
    7
 10
4684.9044159369714
 20
2316.068135778225
 11
4683.9044159369723
 21
2316.5681357782246
  0
LINE
  8
_0-0_
  6
CONTINUOUS
 62
    7
 10
4683.9044159369723
 20
2316.5681357782246
 11
4682.4044159369732
 21
2316.068135778225
  0
LINE
  8
_0-0_
  6
CONTINUOUS
 62
    7
 10
4682.4044159369732
 20
2316.068135778225
 11
4680.9044159369751
 21
2316.5681357782246
  0
LINE
  8
_0-0_
  6
CONTINUOUS
 62
    7
 10
4680.9044159369751
 20
2316.5681357782246
 11
4679.4044159369769
 21
2316.068135778225
  0
LINE
  8
_0-0_
  6
CONTINUOUS
 62
    7
 10
4679.4044159369769
 20
2316.068135778225
 11
4677.9044159369605
 21
2316.5681357782246
  0
LINE
  8
_0-0_
  6
CONTINUOUS
 62
    7
 10
4677.9044159369605
 20
2316.5681357782246
 11
4676.4044159369623
 21
2316.068135778225
  0
LINE
  8
_0-0_
  6
CONTINUOUS
 62
    7
 10
4682.6544159369732
 20
2335.0681357782246
 11
4814.9044159369723
 21
2335.0681357782246
  0
LINE
  8
_0-0_
  6
CONTINUOUS
 62
    7
 10
4685.6544159369705
 20
2326.3681357782257
 11
4667.1544159369705
 21
2326.3681357782257
  0
LINE
  8
_0-0_
  6
CONTINUOUS
 62
    7
 10
4691.404415936966
 20
2373.0681357782241
 11
4691.404415936966
 21
2347.8681357782234
  0
ARC
  8
_0-0_
  6
CONTINUOUS
 62
    7
 10
4685.6544159369705
 20
2328.3681357782239
 40
2
 50
270
 51
0
  0
LINE
  8
_0-0_
  6
CONTINUOUS
 62
    7
 10
4691.404415936966
 20
2347.8681357782234
 11
4682.6544159369732
 21
2344.6833957782251
  0
LINE
  8
_0-0_
  6
CONTINUOUS
 62
    7
 10
4691.404415936966
 20
2373.6681357782236
 11
4691.404415936966
 21
2373.0681357782241
  0
LINE
  8
_0-0_
  6
CONTINUOUS
 62
    7
 10
4682.6544159369732
 20
2332.3681357782252
 11
4682.6544159369732
 21
2344.6833957782251
  0
ARC
  8
_0-0_
  6
CONTINUOUS
 62
    7
 10
4684.1544159369723
 20
2332.3681357782252
 40
1.5000000000000002
 50
180
 51
344.32172400000002
  0
ARC
  8
_0-0_
  6
CONTINUOUS
 62
    7
 10
4687.4044159369696
 20
2333.568135778226
 40
1
 50
0
 51
90
  0
LINE
  8
_0-0_
  6
CONTINUOUS
 62
    7
 10
4687.4044159369696
 20
2334.568135778225
 11
4686.4044159369696
 21
2334.568135778225
  0
ARC
  8
_0-0_
  6
CONTINUOUS
 62
    7
 10
4686.4044159369696
 20
2333.568135778226
 40
1
 50
90
 51
180
  0
LINE
  8
_0-0_
  6
CONTINUOUS
 62
    7
 10
4685.4044159369714
 20
2333.568135778226
 11
4685.4044159369714
 21
2332.0681357782241
  0
LINE
  8
_0-0_
  6
CONTINUOUS
 62
    7
 10
4685.4044159369714
 20
2332.0681357782241
 11
4684.9044159369714
 21
2332.0681357782241
  0
LINE
  8
_0-0_
  6
CONTINUOUS
 62
    7
 10
4684.9044159369714
 20
2332.0681357782241
 11
4684.9044159369714
 21
2333.568135778226
  0
ARC
  8
_0-0_
  6
CONTINUOUS
 62
    7
 10
4686.4044159369696
 20
2333.568135778226
 40
1.5000000000000002
 50
90
 51
180
  0
ARC
  8
_0-0_
  6
CONTINUOUS
 62
    7
 10
4687.4044159369696
 20
2333.568135778226
 40
1.5000000000000002
 50
0
 51
90
  0
ARC
  8
_0-0_
  6
CONTINUOUS
 62
    7
 10
4685.9044159369705
 20
2319.0681357782223
 40
3.0000000000000004
 50
270
 51
0
  0
ARC
  8
_0-0_
  6
CONTINUOUS
 62
    7
 10
4685.9044159369705
 20
2319.0681357782223
 40
2.5
 50
270
 51
0
  0
LINE
  8
_0-0_
  6
CONTINUOUS
 62
    7
 10
4688.9044159369678
 20
2319.0681357782223
 11
4688.9044159369678
 21
2333.568135778226
  0
LINE
  8
_0-0_
  6
CONTINUOUS
 62
    7
 10
4688.4044159369678
 20
2319.0681357782223
 11
4688.4044159369678
 21
2333.568135778226
  0
LINE
  8
_0-0_
  6
CONTINUOUS
 62
    7
 10
4684.9044159369714
 20
2316.5681357782246
 11
4683.9044159369723
 21
2317.0681357782241
  0
LINE
  8
_0-0_
  6
CONTINUOUS
 62
    7
 10
4685.9044159369705
 20
2316.068135778225
 11
4684.9044159369714
 21
2316.068135778225
  0
LINE
  8
_0-0_
  6
CONTINUOUS
 62
    7
 10
4685.9044159369705
 20
2316.5681357782246
 11
4684.9044159369714
 21
2316.5681357782246
  0
LINE
  8
_0-0_
  6
CONTINUOUS
 62
    7
 10
4814.9044159369723
 20
2373.0681357782241
 11
4691.404415936966
 21
2373.0681357782241
  0
LINE
  8
_0-0_
  6
CONTINUOUS
 62
    7
 10
4814.9044159369723
 20
2333.0681357782232
 11
4837.9044159369687
 21
2333.0681357782232
  0
LINE
  8
_0-0_
  6
CONTINUOUS
 62
    7
 10
4837.9044159369687
 20
2333.0681357782232
 11
4837.9044159369687
 21
2431.0681357782228
  0
LINE
  8
_0-0_
  6
CONTINUOUS
 62
    7
 10
4837.9044159369687
 20
2431.0681357782228
 11
4814.9044159369723
 21
2431.0681357782228
  0
LINE
  8
_0-0_
  6
CONTINUOUS
 62
    7
 10
4814.9044159369723
 20
2431.0681357782228
 11
4814.9044159369723
 21
2333.0681357782232
  0
LINE
  8
_0-0_
  6
CONTINUOUS
 62
    7
 10
4685.5986059369616
 20
2331.9627857782257
 11
4686.3298659369702
 21
2334.568135778225
  0
LINE
  8
_0-0_
  6
CONTINUOUS
 62
    7
 10
4687.6544159369687
 20
2328.3681357782239
 11
4687.6544159369687
 21
2334.5363857782249
  0
LINE
  8
_0-0_
  6
CONTINUOUS
 62
    7
 10
4821.654415936966
 20
2431.0681357782228
 11
4821.654415936966
 21
2612.068135778225
  0
LINE
  8
_0-0_
  6
CONTINUOUS
 62
    7
 10
4831.1544159369751
 20
2612.068135778225
 11
4831.1544159369751
 21
2431.0681357782228
  0
LINE
  8
_0-0_
  6
CONTINUOUS
 62
    7
 10
5126.4044159369623
 20
2316.068135778225
 11
4551.4044159369732
 21
2316.068135778225
  0
LINE
  8
_0-0_
  6
CONTINUOUS
 62
    7
 10
4551.4044159369732
 20
2306.0681357782255
 11
5126.4044159369623
 21
2306.0681357782255
  0
LINE
  8
_0-0_
  6
CONTINUOUS
 62
    7
 10
4551.4044159369732
 20
2296.068135778226
 11
5126.4044159369623
 21
2296.068135778226
  0
LINE
  8
_0-0_
  6
CONTINUOUS
 62
    7
 10
4676.4044159369623
 20
2377.2181357782256
 11
4676.4044159369623
 21
2296.068135778226
  0
LINE
  8
_0-0_
  6
CONTINUOUS
 62
    7
 10
4551.4044159369732
 20
2316.068135778225
 11
4551.4044159369732
 21
2296.068135778226
  0
LINE
  8
_0-0_
  6
CONTINUOUS
 62
    7
 10
4566.404415936976
 20
2296.068135778226
 11
4566.404415936976
 21
2288.068135778225
  0
LINE
  8
_0-0_
  6
CONTINUOUS
 62
    7
 10
4541.4044159369651
 20
2326.0681357782241
 11
4566.404415936976
 21
2326.0681357782241
  0
LINE
  8
_0-0_
  6
CONTINUOUS
 62
    7
 10
4566.404415936976
 20
2326.0681357782241
 11
4566.404415936976
 21
2316.068135778225
  0
LINE
  8
_0-0_
  6
CONTINUOUS
 62
    7
 10
4541.4044159369651
 20
2326.0681357782241
 11
4541.4044159369651
 21
2296.068135778226
  0
LINE
  8
_0-0_
  6
CONTINUOUS
 62
    7
 10
4541.4044159369651
 20
2296.068135778226
 11
4521.404415936966
 21
2296.068135778226
  0
LINE
  8
_0-0_
  6
CONTINUOUS
 62
    7
 10
4401.4044159369732
 20
2365.3501657782253
 11
4521.404415936966
 21
2296.068135778226
  0
LINE
  8
_0-0_
  6
CONTINUOUS
 62
    7
 10
4401.4044159369732
 20
2488.0681357782269
 11
4401.4044159369732
 21
2365.3501657782253
  0
LINE
  8
_0-0_
  6
CONTINUOUS
 62
    7
 10
4566.404415936976
 20
2288.068135778225
 11
3936.4044159369701
 21
2288.068135778225
  0
LINE
  8
_0-0_
  6
CONTINUOUS
 62
    7
 10
3932.4044159369737
 20
2373.0681357782241
 11
3841.4044159369714
 21
2373.0681357782241
  0
LINE
  8
_0-0_
  6
CONTINUOUS
 62
    7
 10
3932.4044159369737
 20
2373.0681357782241
 11
3932.4044159369737
 21
2335.0681357782246
  0
LINE
  8
_0-0_
  6
CONTINUOUS
 62
    7
 10
3932.4044159369737
 20
2335.0681357782246
 11
3832.6544159369623
 21
2335.0681357782246
  0
LINE
  8
_0-0_
  6
CONTINUOUS
 62
    7
 10
3561.4044159369701
 20
2373.0681357782241
 11
3561.4044159369701
 21
2347.8681357782234
  0
ARC
  8
_0-0_
  6
CONTINUOUS
 62
    7
 10
3567.1544159369651
 20
2328.3681357782239
 40
2
 50
180
 51
270
  0
LINE
  8
_0-0_
  6
CONTINUOUS
 62
    7
 10
3561.4044159369701
 20
2347.8681357782234
 11
3570.1544159369623
 21
2344.6833957782251
  0
LINE
  8
_0-0_
  6
CONTINUOUS
 62
    7
 10
3570.1544159369623
 20
2332.3681357782252
 11
3570.1544159369623
 21
2344.6833957782251
  0
ARC
  8
_0-0_
  6
CONTINUOUS
 62
    7
 10
3568.6544159369632
 20
2332.3681357782252
 40
1.5000000000000002
 50
195.67827599999998
 51
0
  0
ARC
  8
_0-0_
  6
CONTINUOUS
 62
    7
 10
3565.4044159369664
 20
2333.568135778226
 40
1
 50
90
 51
180
  0
LINE
  8
_0-0_
  6
CONTINUOUS
 62
    7
 10
3565.4044159369664
 20
2334.568135778225
 11
3566.4044159369655
 21
2334.568135778225
  0
ARC
  8
_0-0_
  6
CONTINUOUS
 62
    7
 10
3566.4044159369655
 20
2333.568135778226
 40
1
 50
0
 51
90
  0
LINE
  8
_0-0_
  6
CONTINUOUS
 62
    7
 10
3567.4044159369646
 20
2333.568135778226
 11
3567.4044159369646
 21
2332.0681357782241
  0
LINE
  8
_0-0_
  6
CONTINUOUS
 62
    7
 10
3567.4044159369646
 20
2332.0681357782241
 11
3567.9044159369641
 21
2332.0681357782241
  0
LINE
  8
_0-0_
  6
CONTINUOUS
 62
    7
 10
3567.9044159369641
 20
2332.0681357782241
 11
3567.9044159369641
 21
2333.568135778226
  0
ARC
  8
_0-0_
  6
CONTINUOUS
 62
    7
 10
3566.4044159369655
 20
2333.568135778226
 40
1.5000000000000002
 50
0
 51
90
  0
ARC
  8
_0-0_
  6
CONTINUOUS
 62
    7
 10
3565.4044159369664
 20
2333.568135778226
 40
1.5000000000000002
 50
90
 51
180
  0
LINE
  8
_0-0_
  6
CONTINUOUS
 62
    7
 10
3567.9044159369641
 20
2316.5681357782246
 11
3568.9044159369632
 21
2317.0681357782241
  0
LINE
  8
_0-0_
  6
CONTINUOUS
 62
    7
 10
3568.9044159369632
 20
2317.0681357782241
 11
3570.4044159369619
 21
2316.5681357782246
  0
LINE
  8
_0-0_
  6
CONTINUOUS
 62
    7
 10
3570.4044159369619
 20
2316.5681357782246
 11
3571.9044159369605
 21
2317.0681357782241
  0
LINE
  8
_0-0_
  6
CONTINUOUS
 62
    7
 10
3571.9044159369605
 20
2317.0681357782241
 11
3573.404415936976
 21
2316.5681357782246
  0
LINE
  8
_0-0_
  6
CONTINUOUS
 62
    7
 10
3573.404415936976
 20
2316.5681357782246
 11
3574.9044159369751
 21
2317.0681357782241
  0
LINE
  8
_0-0_
  6
CONTINUOUS
 62
    7
 10
3574.9044159369751
 20
2317.0681357782241
 11
3576.4044159369732
 21
2316.5681357782246
  0
LINE
  8
_0-0_
  6
CONTINUOUS
 62
    7
 10
3567.9044159369641
 20
2316.068135778225
 11
3568.9044159369632
 21
2316.5681357782246
  0
LINE
  8
_0-0_
  6
CONTINUOUS
 62
    7
 10
3568.9044159369632
 20
2316.5681357782246
 11
3570.4044159369619
 21
2316.068135778225
  0
LINE
  8
_0-0_
  6
CONTINUOUS
 62
    7
 10
3570.4044159369619
 20
2316.068135778225
 11
3571.9044159369605
 21
2316.5681357782246
  0
LINE
  8
_0-0_
  6
CONTINUOUS
 62
    7
 10
3571.9044159369605
 20
2316.5681357782246
 11
3573.404415936976
 21
2316.068135778225
  0
LINE
  8
_0-0_
  6
CONTINUOUS
 62
    7
 10
3573.404415936976
 20
2316.068135778225
 11
3574.9044159369751
 21
2316.5681357782246
  0
LINE
  8
_0-0_
  6
CONTINUOUS
 62
    7
 10
3574.9044159369751
 20
2316.5681357782246
 11
3576.4044159369732
 21
2316.068135778225
  0
LINE
  8
_0-0_
  6
CONTINUOUS
 62
    7
 10
3563.9044159369678
 20
2319.0681357782223
 11
3563.9044159369678
 21
2333.568135778226
  0
ARC
  8
_0-0_
  6
CONTINUOUS
 62
    7
 10
3566.9044159369651
 20
2319.0681357782223
 40
3.0000000000000004
 50
180
 51
270
  0
LINE
  8
_0-0_
  6
CONTINUOUS
 62
    7
 10
3566.9044159369651
 20
2316.068135778225
 11
3567.9044159369641
 21
2316.068135778225
  0
LINE
  8
_0-0_
  6
CONTINUOUS
 62
    7
 10
3564.4044159369673
 20
2319.0681357782223
 11
3564.4044159369673
 21
2333.568135778226
  0
ARC
  8
_0-0_
  6
CONTINUOUS
 62
    7
 10
3566.9044159369651
 20
2319.0681357782223
 40
2.5
 50
180
 51
270
  0
LINE
  8
_0-0_
  6
CONTINUOUS
 62
    7
 10
3566.9044159369651
 20
2316.5681357782246
 11
3567.9044159369641
 21
2316.5681357782246
  0
LINE
  8
_0-0_
  6
CONTINUOUS
 62
    7
 10
3567.2102159369606
 20
2331.9627857782257
 11
3566.4789559369683
 21
2334.568135778225
  0
LINE
  8
_0-0_
  6
CONTINUOUS
 62
    7
 10
3565.1544159369669
 20
2328.3681357782239
 11
3565.1544159369669
 21
2334.5363857782249
  0
LINE
  8
_0-0_
  6
CONTINUOUS
 62
    7
 10
3561.4044159369701
 20
2373.0681357782241
 11
3561.4044159369701
 21
2373.6681357782236
  0
LINE
  8
_0-0_
  6
CONTINUOUS
 62
    7
 10
3561.4044159369701
 20
2373.6681357782236
 11
3591.4044159369769
 21
2373.6681357782236
  0
LINE
  8
_0-0_
  6
CONTINUOUS
 62
    7
 10
3583.9044159369669
 20
2317.0681357782241
 11
3582.4044159369678
 21
2316.5681357782246
  0
LINE
  8
_0-0_
  6
CONTINUOUS
 62
    7
 10
3582.4044159369678
 20
2316.5681357782246
 11
3580.9044159369696
 21
2317.0681357782241
  0
LINE
  8
_0-0_
  6
CONTINUOUS
 62
    7
 10
3580.9044159369696
 20
2317.0681357782241
 11
3579.4044159369705
 21
2316.5681357782246
  0
LINE
  8
_0-0_
  6
CONTINUOUS
 62
    7
 10
3579.4044159369705
 20
2316.5681357782246
 11
3577.9044159369723
 21
2317.0681357782241
  0
LINE
  8
_0-0_
  6
CONTINUOUS
 62
    7
 10
3577.9044159369723
 20
2317.0681357782241
 11
3576.4044159369732
 21
2316.5681357782246
  0
LINE
  8
_0-0_
  6
CONTINUOUS
 62
    7
 10
3584.904415936966
 20
2316.068135778225
 11
3583.9044159369669
 21
2316.5681357782246
  0
LINE
  8
_0-0_
  6
CONTINUOUS
 62
    7
 10
3583.9044159369669
 20
2316.5681357782246
 11
3582.4044159369678
 21
2316.068135778225
  0
LINE
  8
_0-0_
  6
CONTINUOUS
 62
    7
 10
3582.4044159369678
 20
2316.068135778225
 11
3580.9044159369696
 21
2316.5681357782246
  0
LINE
  8
_0-0_
  6
CONTINUOUS
 62
    7
 10
3580.9044159369696
 20
2316.5681357782246
 11
3579.4044159369705
 21
2316.068135778225
  0
LINE
  8
_0-0_
  6
CONTINUOUS
 62
    7
 10
3579.4044159369705
 20
2316.068135778225
 11
3577.9044159369723
 21
2316.5681357782246
  0
LINE
  8
_0-0_
  6
CONTINUOUS
 62
    7
 10
3577.9044159369723
 20
2316.5681357782246
 11
3576.4044159369732
 21
2316.068135778225
  0
LINE
  8
_0-0_
  6
CONTINUOUS
 62
    7
 10
3585.6544159369651
 20
2326.3681357782257
 11
3567.1544159369651
 21
2326.3681357782257
  0
LINE
  8
_0-0_
  6
CONTINUOUS
 62
    7
 10
3591.4044159369769
 20
2373.0681357782241
 11
3591.4044159369769
 21
2347.8681357782234
  0
ARC
  8
_0-0_
  6
CONTINUOUS
 62
    7
 10
3585.6544159369651
 20
2328.3681357782239
 40
2
 50
270
 51
0
  0
LINE
  8
_0-0_
  6
CONTINUOUS
 62
    7
 10
3591.4044159369769
 20
2347.8681357782234
 11
3582.6544159369678
 21
2344.6833957782251
  0
LINE
  8
_0-0_
  6
CONTINUOUS
 62
    7
 10
3591.4044159369769
 20
2373.6681357782236
 11
3591.4044159369769
 21
2373.0681357782241
  0
LINE
  8
_0-0_
  6
CONTINUOUS
 62
    7
 10
3582.6544159369678
 20
2332.3681357782252
 11
3582.6544159369678
 21
2344.6833957782251
  0
ARC
  8
_0-0_
  6
CONTINUOUS
 62
    7
 10
3584.1544159369664
 20
2332.3681357782252
 40
1.5000000000000002
 50
180
 51
344.32172400000002
  0
ARC
  8
_0-0_
  6
CONTINUOUS
 62
    7
 10
3587.4044159369632
 20
2333.568135778226
 40
1
 50
0
 51
90
  0
LINE
  8
_0-0_
  6
CONTINUOUS
 62
    7
 10
3587.4044159369632
 20
2334.568135778225
 11
3586.4044159369641
 21
2334.568135778225
  0
ARC
  8
_0-0_
  6
CONTINUOUS
 62
    7
 10
3586.4044159369641
 20
2333.568135778226
 40
1
 50
90
 51
180
  0
LINE
  8
_0-0_
  6
CONTINUOUS
 62
    7
 10
3585.4044159369651
 20
2333.568135778226
 11
3585.4044159369651
 21
2332.0681357782241
  0
LINE
  8
_0-0_
  6
CONTINUOUS
 62
    7
 10
3585.4044159369651
 20
2332.0681357782241
 11
3584.904415936966
 21
2332.0681357782241
  0
LINE
  8
_0-0_
  6
CONTINUOUS
 62
    7
 10
3584.904415936966
 20
2332.0681357782241
 11
3584.904415936966
 21
2333.568135778226
  0
ARC
  8
_0-0_
  6
CONTINUOUS
 62
    7
 10
3586.4044159369641
 20
2333.568135778226
 40
1.5000000000000002
 50
90
 51
180
  0
ARC
  8
_0-0_
  6
CONTINUOUS
 62
    7
 10
3587.4044159369632
 20
2333.568135778226
 40
1.5000000000000002
 50
0
 51
90
  0
ARC
  8
_0-0_
  6
CONTINUOUS
 62
    7
 10
3585.9044159369651
 20
2319.0681357782223
 40
3.0000000000000004
 50
270
 51
0
  0
ARC
  8
_0-0_
  6
CONTINUOUS
 62
    7
 10
3585.9044159369651
 20
2319.0681357782223
 40
2.5
 50
270
 51
0
  0
LINE
  8
_0-0_
  6
CONTINUOUS
 62
    7
 10
3588.9044159369623
 20
2319.0681357782223
 11
3588.9044159369623
 21
2333.568135778226
  0
LINE
  8
_0-0_
  6
CONTINUOUS
 62
    7
 10
3588.4044159369623
 20
2319.0681357782223
 11
3588.4044159369623
 21
2333.568135778226
  0
LINE
  8
_0-0_
  6
CONTINUOUS
 62
    7
 10
3584.904415936966
 20
2316.5681357782246
 11
3583.9044159369669
 21
2317.0681357782241
  0
LINE
  8
_0-0_
  6
CONTINUOUS
 62
    7
 10
3585.9044159369651
 20
2316.068135778225
 11
3584.904415936966
 21
2316.068135778225
  0
LINE
  8
_0-0_
  6
CONTINUOUS
 62
    7
 10
3585.9044159369651
 20
2316.5681357782246
 11
3584.904415936966
 21
2316.5681357782246
  0
LINE
  8
_0-0_
  6
CONTINUOUS
 62
    7
 10
3585.5986059369729
 20
2331.9627857782257
 11
3586.3298659369648
 21
2334.568135778225
  0
LINE
  8
_0-0_
  6
CONTINUOUS
 62
    7
 10
3587.6544159369632
 20
2328.3681357782239
 11
3587.6544159369632
 21
2334.5363857782249
  0
LINE
  8
_0-0_
  6
CONTINUOUS
 62
    7
 10
3376.4044159369678
 20
2335.0681357782246
 11
3570.1544159369623
 21
2335.0681357782246
  0
LINE
  8
_0-0_
  6
CONTINUOUS
 62
    7
 10
3561.4044159369701
 20
2373.0681357782241
 11
3376.4044159369678
 21
2373.0681357782241
  0
LINE
  8
_0-0_
  6
CONTINUOUS
 62
    7
 10
3664.9044159369614
 20
2335.0681357782246
 11
3582.6544159369678
 21
2335.0681357782246
  0
LINE
  8
_0-0_
  6
CONTINUOUS
 62
    7
 10
3591.4044159369769
 20
2373.0681357782241
 11
3664.9044159369614
 21
2373.0681357782241
  0
LINE
  8
_0-0_
  6
CONTINUOUS
 62
    7
 10
3841.4044159369714
 20
2373.0681357782241
 11
3841.4044159369714
 21
2347.8681357782234
  0
ARC
  8
_0-0_
  6
CONTINUOUS
 62
    7
 10
3835.6544159369764
 20
2328.3681357782239
 40
2
 50
270
 51
0
  0
LINE
  8
_0-0_
  6
CONTINUOUS
 62
    7
 10
3841.4044159369714
 20
2347.8681357782234
 11
3832.6544159369623
 21
2344.6833957782251
  0
LINE
  8
_0-0_
  6
CONTINUOUS
 62
    7
 10
3832.6544159369623
 20
2332.3681357782252
 11
3832.6544159369623
 21
2344.6833957782251
  0
ARC
  8
_0-0_
  6
CONTINUOUS
 62
    7
 10
3834.1544159369605
 20
2332.3681357782252
 40
1.5000000000000002
 50
180
 51
344.32172400000002
  0
ARC
  8
_0-0_
  6
CONTINUOUS
 62
    7
 10
3837.4044159369751
 20
2333.568135778226
 40
1
 50
0
 51
90
  0
LINE
  8
_0-0_
  6
CONTINUOUS
 62
    7
 10
3837.4044159369751
 20
2334.568135778225
 11
3836.404415936976
 21
2334.568135778225
  0
ARC
  8
_0-0_
  6
CONTINUOUS
 62
    7
 10
3836.404415936976
 20
2333.568135778226
 40
1
 50
90
 51
180
  0
LINE
  8
_0-0_
  6
CONTINUOUS
 62
    7
 10
3835.4044159369769
 20
2333.568135778226
 11
3835.4044159369769
 21
2332.0681357782241
  0
LINE
  8
_0-0_
  6
CONTINUOUS
 62
    7
 10
3835.4044159369769
 20
2332.0681357782241
 11
3834.9044159369769
 21
2332.0681357782241
  0
LINE
  8
_0-0_
  6
CONTINUOUS
 62
    7
 10
3834.9044159369769
 20
2332.0681357782241
 11
3834.9044159369769
 21
2333.568135778226
  0
ARC
  8
_0-0_
  6
CONTINUOUS
 62
    7
 10
3836.404415936976
 20
2333.568135778226
 40
1.5000000000000002
 50
90
 51
180
  0
ARC
  8
_0-0_
  6
CONTINUOUS
 62
    7
 10
3837.4044159369751
 20
2333.568135778226
 40
1.5000000000000002
 50
0
 51
90
  0
LINE
  8
_0-0_
  6
CONTINUOUS
 62
    7
 10
3834.9044159369769
 20
2316.5681357782246
 11
3833.904415936961
 21
2317.0681357782241
  0
LINE
  8
_0-0_
  6
CONTINUOUS
 62
    7
 10
3833.904415936961
 20
2317.0681357782241
 11
3832.4044159369623
 21
2316.5681357782246
  0
LINE
  8
_0-0_
  6
CONTINUOUS
 62
    7
 10
3832.4044159369623
 20
2316.5681357782246
 11
3830.9044159369637
 21
2317.0681357782241
  0
LINE
  8
_0-0_
  6
CONTINUOUS
 62
    7
 10
3830.9044159369637
 20
2317.0681357782241
 11
3829.4044159369651
 21
2316.5681357782246
  0
LINE
  8
_0-0_
  6
CONTINUOUS
 62
    7
 10
3829.4044159369651
 20
2316.5681357782246
 11
3827.9044159369664
 21
2317.0681357782241
  0
LINE
  8
_0-0_
  6
CONTINUOUS
 62
    7
 10
3827.9044159369664
 20
2317.0681357782241
 11
3826.4044159369678
 21
2316.5681357782246
  0
LINE
  8
_0-0_
  6
CONTINUOUS
 62
    7
 10
3834.9044159369769
 20
2316.068135778225
 11
3833.904415936961
 21
2316.5681357782246
  0
LINE
  8
_0-0_
  6
CONTINUOUS
 62
    7
 10
3833.904415936961
 20
2316.5681357782246
 11
3832.4044159369623
 21
2316.068135778225
  0
LINE
  8
_0-0_
  6
CONTINUOUS
 62
    7
 10
3832.4044159369623
 20
2316.068135778225
 11
3830.9044159369637
 21
2316.5681357782246
  0
LINE
  8
_0-0_
  6
CONTINUOUS
 62
    7
 10
3830.9044159369637
 20
2316.5681357782246
 11
3829.4044159369651
 21
2316.068135778225
  0
LINE
  8
_0-0_
  6
CONTINUOUS
 62
    7
 10
3829.4044159369651
 20
2316.068135778225
 11
3827.9044159369664
 21
2316.5681357782246
  0
LINE
  8
_0-0_
  6
CONTINUOUS
 62
    7
 10
3827.9044159369664
 20
2316.5681357782246
 11
3826.4044159369678
 21
2316.068135778225
  0
LINE
  8
_0-0_
  6
CONTINUOUS
 62
    7
 10
3838.9044159369732
 20
2319.0681357782223
 11
3838.9044159369732
 21
2333.568135778226
  0
ARC
  8
_0-0_
  6
CONTINUOUS
 62
    7
 10
3835.904415936976
 20
2319.0681357782223
 40
3.0000000000000004
 50
270
 51
0
  0
LINE
  8
_0-0_
  6
CONTINUOUS
 62
    7
 10
3835.904415936976
 20
2316.068135778225
 11
3834.9044159369769
 21
2316.068135778225
  0
LINE
  8
_0-0_
  6
CONTINUOUS
 62
    7
 10
3838.4044159369741
 20
2319.0681357782223
 11
3838.4044159369741
 21
2333.568135778226
  0
ARC
  8
_0-0_
  6
CONTINUOUS
 62
    7
 10
3835.904415936976
 20
2319.0681357782223
 40
2.5
 50
270
 51
0
  0
LINE
  8
_0-0_
  6
CONTINUOUS
 62
    7
 10
3835.904415936976
 20
2316.5681357782246
 11
3834.9044159369769
 21
2316.5681357782246
  0
LINE
  8
_0-0_
  6
CONTINUOUS
 62
    7
 10
3835.598605936967
 20
2331.9627857782257
 11
3836.3298659369766
 21
2334.568135778225
  0
LINE
  8
_0-0_
  6
CONTINUOUS
 62
    7
 10
3837.6544159369746
 20
2328.3681357782239
 11
3837.6544159369746
 21
2334.5363857782249
  0
LINE
  8
_0-0_
  6
CONTINUOUS
 62
    7
 10
3841.4044159369714
 20
2373.0681357782241
 11
3841.4044159369714
 21
2373.6681357782236
  0
LINE
  8
_0-0_
  6
CONTINUOUS
 62
    7
 10
3841.4044159369714
 20
2373.6681357782236
 11
3811.4044159369641
 21
2373.6681357782236
  0
LINE
  8
_0-0_
  6
CONTINUOUS
 62
    7
 10
3818.9044159369746
 20
2317.0681357782241
 11
3820.4044159369732
 21
2316.5681357782246
  0
LINE
  8
_0-0_
  6
CONTINUOUS
 62
    7
 10
3820.4044159369732
 20
2316.5681357782246
 11
3821.9044159369719
 21
2317.0681357782241
  0
LINE
  8
_0-0_
  6
CONTINUOUS
 62
    7
 10
3821.9044159369719
 20
2317.0681357782241
 11
3823.4044159369705
 21
2316.5681357782246
  0
LINE
  8
_0-0_
  6
CONTINUOUS
 62
    7
 10
3823.4044159369705
 20
2316.5681357782246
 11
3824.9044159369691
 21
2317.0681357782241
  0
LINE
  8
_0-0_
  6
CONTINUOUS
 62
    7
 10
3824.9044159369691
 20
2317.0681357782241
 11
3826.4044159369678
 21
2316.5681357782246
  0
LINE
  8
_0-0_
  6
CONTINUOUS
 62
    7
 10
3817.9044159369755
 20
2316.068135778225
 11
3818.9044159369746
 21
2316.5681357782246
  0
LINE
  8
_0-0_
  6
CONTINUOUS
 62
    7
 10
3818.9044159369746
 20
2316.5681357782246
 11
3820.4044159369732
 21
2316.068135778225
  0
LINE
  8
_0-0_
  6
CONTINUOUS
 62
    7
 10
3820.4044159369732
 20
2316.068135778225
 11
3821.9044159369719
 21
2316.5681357782246
  0
LINE
  8
_0-0_
  6
CONTINUOUS
 62
    7
 10
3821.9044159369719
 20
2316.5681357782246
 11
3823.4044159369705
 21
2316.068135778225
  0
LINE
  8
_0-0_
  6
CONTINUOUS
 62
    7
 10
3823.4044159369705
 20
2316.068135778225
 11
3824.9044159369691
 21
2316.5681357782246
  0
LINE
  8
_0-0_
  6
CONTINUOUS
 62
    7
 10
3824.9044159369691
 20
2316.5681357782246
 11
3826.4044159369678
 21
2316.068135778225
  0
LINE
  8
_0-0_
  6
CONTINUOUS
 62
    7
 10
3820.1544159369732
 20
2335.0681357782246
 11
3687.9044159369741
 21
2335.0681357782246
  0
LINE
  8
_0-0_
  6
CONTINUOUS
 62
    7
 10
3817.154415936976
 20
2326.3681357782257
 11
3835.6544159369764
 21
2326.3681357782257
  0
LINE
  8
_0-0_
  6
CONTINUOUS
 62
    7
 10
3811.4044159369641
 20
2373.0681357782241
 11
3811.4044159369641
 21
2347.8681357782234
  0
ARC
  8
_0-0_
  6
CONTINUOUS
 62
    7
 10
3817.154415936976
 20
2328.3681357782239
 40
2
 50
180
 51
270
  0
LINE
  8
_0-0_
  6
CONTINUOUS
 62
    7
 10
3811.4044159369641
 20
2347.8681357782234
 11
3820.1544159369732
 21
2344.6833957782251
  0
LINE
  8
_0-0_
  6
CONTINUOUS
 62
    7
 10
3811.4044159369641
 20
2373.6681357782236
 11
3811.4044159369641
 21
2373.0681357782241
  0
LINE
  8
_0-0_
  6
CONTINUOUS
 62
    7
 10
3820.1544159369732
 20
2332.3681357782252
 11
3820.1544159369732
 21
2344.6833957782251
  0
ARC
  8
_0-0_
  6
CONTINUOUS
 62
    7
 10
3818.6544159369751
 20
2332.3681357782252
 40
1.5000000000000002
 50
195.67827599999998
 51
0
  0
ARC
  8
_0-0_
  6
CONTINUOUS
 62
    7
 10
3815.4044159369605
 20
2333.568135778226
 40
1
 50
90
 51
180
  0
LINE
  8
_0-0_
  6
CONTINUOUS
 62
    7
 10
3815.4044159369605
 20
2334.568135778225
 11
3816.4044159369769
 21
2334.568135778225
  0
ARC
  8
_0-0_
  6
CONTINUOUS
 62
    7
 10
3816.4044159369769
 20
2333.568135778226
 40
1
 50
0
 51
90
  0
LINE
  8
_0-0_
  6
CONTINUOUS
 62
    7
 10
3817.404415936976
 20
2333.568135778226
 11
3817.404415936976
 21
2332.0681357782241
  0
LINE
  8
_0-0_
  6
CONTINUOUS
 62
    7
 10
3817.404415936976
 20
2332.0681357782241
 11
3817.9044159369755
 21
2332.0681357782241
  0
LINE
  8
_0-0_
  6
CONTINUOUS
 62
    7
 10
3817.9044159369755
 20
2332.0681357782241
 11
3817.9044159369755
 21
2333.568135778226
  0
ARC
  8
_0-0_
  6
CONTINUOUS
 62
    7
 10
3816.4044159369769
 20
2333.568135778226
 40
1.5000000000000002
 50
0
 51
90
  0
ARC
  8
_0-0_
  6
CONTINUOUS
 62
    7
 10
3815.4044159369605
 20
2333.568135778226
 40
1.5000000000000002
 50
90
 51
180
  0
ARC
  8
_0-0_
  6
CONTINUOUS
 62
    7
 10
3816.9044159369764
 20
2319.0681357782223
 40
3.0000000000000004
 50
180
 51
270
  0
ARC
  8
_0-0_
  6
CONTINUOUS
 62
    7
 10
3816.9044159369764
 20
2319.0681357782223
 40
2.5
 50
180
 51
270
  0
LINE
  8
_0-0_
  6
CONTINUOUS
 62
    7
 10
3813.9044159369623
 20
2319.0681357782223
 11
3813.9044159369623
 21
2333.568135778226
  0
LINE
  8
_0-0_
  6
CONTINUOUS
 62
    7
 10
3814.4044159369614
 20
2319.0681357782223
 11
3814.4044159369614
 21
2333.568135778226
  0
LINE
  8
_0-0_
  6
CONTINUOUS
 62
    7
 10
3817.9044159369755
 20
2316.5681357782246
 11
3818.9044159369746
 21
2317.0681357782241
  0
LINE
  8
_0-0_
  6
CONTINUOUS
 62
    7
 10
3816.9044159369764
 20
2316.068135778225
 11
3817.9044159369755
 21
2316.068135778225
  0
LINE
  8
_0-0_
  6
CONTINUOUS
 62
    7
 10
3816.9044159369764
 20
2316.5681357782246
 11
3817.9044159369755
 21
2316.5681357782246
  0
LINE
  8
_0-0_
  6
CONTINUOUS
 62
    7
 10
3687.9044159369741
 20
2373.0681357782241
 11
3811.4044159369641
 21
2373.0681357782241
  0
LINE
  8
_0-0_
  6
CONTINUOUS
 62
    7
 10
3687.9044159369741
 20
2333.0681357782232
 11
3664.9044159369614
 21
2333.0681357782232
  0
LINE
  8
_0-0_
  6
CONTINUOUS
 62
    7
 10
3664.9044159369614
 20
2333.0681357782232
 11
3664.9044159369614
 21
2431.0681357782228
  0
LINE
  8
_0-0_
  6
CONTINUOUS
 62
    7
 10
3664.9044159369614
 20
2431.0681357782228
 11
3687.9044159369741
 21
2431.0681357782228
  0
LINE
  8
_0-0_
  6
CONTINUOUS
 62
    7
 10
3687.9044159369741
 20
2431.0681357782228
 11
3687.9044159369741
 21
2333.0681357782232
  0
LINE
  8
_0-0_
  6
CONTINUOUS
 62
    7
 10
3817.2102159369715
 20
2331.9627857782257
 11
3816.4789559369628
 21
2334.568135778225
  0
LINE
  8
_0-0_
  6
CONTINUOUS
 62
    7
 10
3815.154415936961
 20
2328.3681357782239
 11
3815.154415936961
 21
2334.5363857782249
  0
LINE
  8
_0-0_
  6
CONTINUOUS
 62
    7
 10
3681.1544159369632
 20
2431.0681357782228
 11
3681.1544159369632
 21
2612.068135778225
  0
LINE
  8
_0-0_
  6
CONTINUOUS
 62
    7
 10
3671.6544159369723
 20
2612.068135778225
 11
3671.6544159369723
 21
2431.0681357782228
  0
LINE
  8
_0-0_
  6
CONTINUOUS
 62
    7
 10
3376.4044159369678
 20
2316.068135778225
 11
3951.4044159369732
 21
2316.068135778225
  0
LINE
  8
_0-0_
  6
CONTINUOUS
 62
    7
 10
3951.4044159369732
 20
2306.0681357782255
 11
3376.4044159369678
 21
2306.0681357782255
  0
LINE
  8
_0-0_
  6
CONTINUOUS
 62
    7
 10
3951.4044159369732
 20
2296.068135778226
 11
3376.4044159369678
 21
2296.068135778226
  0
LINE
  8
_0-0_
  6
CONTINUOUS
 62
    7
 10
3826.4044159369678
 20
2377.2181357782256
 11
3826.4044159369678
 21
2296.068135778226
  0
LINE
  8
_0-0_
  6
CONTINUOUS
 62
    7
 10
3951.4044159369732
 20
2296.068135778226
 11
3951.4044159369732
 21
2316.068135778225
  0
LINE
  8
_0-0_
  6
CONTINUOUS
 62
    7
 10
3961.4044159369641
 20
2326.0681357782241
 11
3936.4044159369701
 21
2326.0681357782241
  0
LINE
  8
_0-0_
  6
CONTINUOUS
 62
    7
 10
3936.4044159369701
 20
2326.0681357782241
 11
3936.4044159369701
 21
2316.068135778225
  0
LINE
  8
_0-0_
  6
CONTINUOUS
 62
    7
 10
3936.4044159369701
 20
2296.068135778226
 11
3936.4044159369701
 21
2288.068135778225
  0
LINE
  8
_0-0_
  6
CONTINUOUS
 62
    7
 10
3961.4044159369641
 20
2326.0681357782241
 11
3961.4044159369641
 21
2296.068135778226
  0
LINE
  8
_0-0_
  6
CONTINUOUS
 62
    7
 10
3961.4044159369641
 20
2296.068135778226
 11
3981.4044159369632
 21
2296.068135778226
  0
LINE
  8
_0-0_
  6
CONTINUOUS
 62
    7
 10
4101.4044159369732
 20
2488.0681357782269
 11
4101.4044159369732
 21
2365.3501657782253
  0
LINE
  8
_0-0_
  6
CONTINUOUS
 62
    7
 10
4101.4044159369732
 20
2365.3501657782253
 11
3981.4044159369632
 21
2296.068135778226
  0
LINE
  8
_0-0_
  6
CONTINUOUS
 62
    7
 10
3732.4044159369678
 20
2373.0681357782241
 11
3847.8744659369727
 21
2573.0681357782264
  0
LINE
  8
_0-0_
  6
CONTINUOUS
 62
    7
 10
3838.9044159369732
 20
2325.568135778225
 11
3924.0635759369684
 21
2473.0681357782237
  0
LINE
  8
_0-0_
  6
CENTER1
 62
    7
 10
4101.4044159369732
 20
2488.0681357782269
 11
4101.4044159369732
 21
2365.3501657782253
  0
LINE
  8
_0-0_
  6
CENTER1
 62
    7
 10
4401.4044159369732
 20
2488.0681357782269
 11
4401.4044159369732
 21
2365.3501657782253
  0
LINE
  8
_0-0_
  6
CENTER1
 62
    7
 10
4566.404415936976
 20
2326.0681357782241
 11
4566.404415936976
 21
2316.068135778225
  0
LINE
  8
_0-0_
  6
CENTER1
 62
    7
 10
4566.404415936976
 20
2326.0681357782241
 11
4541.4044159369651
 21
2326.0681357782241
  0
LINE
  8
_0-0_
  6
CENTER1
 62
    7
 10
4541.4044159369651
 20
2326.0681357782241
 11
4541.4044159369651
 21
2296.068135778226
  0
LINE
  8
_0-0_
  6
CENTER1
 62
    7
 10
4541.4044159369651
 20
2296.068135778226
 11
4521.404415936966
 21
2296.068135778226
  0
LINE
  8
_0-0_
  6
CENTER1
 62
    7
 10
4566.404415936976
 20
2288.068135778225
 11
4566.404415936976
 21
2296.068135778226
  0
LINE
  8
_0-0_
  6
CENTER1
 62
    7
 10
4566.404415936976
 20
2288.068135778225
 11
3936.4044159369701
 21
2288.068135778225
  0
LINE
  8
_0-0_
  6
CENTER1
 62
    7
 10
3936.4044159369701
 20
2288.068135778225
 11
3936.4044159369701
 21
2296.068135778226
  0
LINE
  8
_0-0_
  6
CENTER1
 62
    7
 10
3961.4044159369641
 20
2296.068135778226
 11
3981.4044159369632
 21
2296.068135778226
  0
LINE
  8
_0-0_
  6
CENTER1
 62
    7
 10
3961.4044159369641
 20
2296.068135778226
 11
3961.4044159369641
 21
2326.0681357782241
  0
LINE
  8
_0-0_
  6
CENTER1
 62
    7
 10
3961.4044159369641
 20
2326.0681357782241
 11
3936.4044159369701
 21
2326.0681357782241
  0
LINE
  8
_0-0_
  6
CENTER1
 62
    7
 10
3936.4044159369701
 20
2326.0681357782241
 11
3936.4044159369701
 21
2316.068135778225
  0
LINE
  8
_0-0_
  6
CENTER1
 62
    7
 10
4101.4044159369732
 20
2365.3501657782253
 11
3981.4044159369632
 21
2296.068135778226
  0
LINE
  8
_0-0_
  6
CENTER1
 62
    7
 10
4401.4044159369732
 20
2365.3501657782253
 11
4521.404415936966
 21
2296.068135778226
  0
LINE
  8
_0-0_
  6
CENTER1
 62
    7
 10
4251.4044159369732
 20
2766.1077020688685
 11
4251.4044159369732
 21
2113.1835150330885
  0
LINE
  8
_0-0_
  6
CENTER1
 62
    7
 10
4251.4044159369732
 20
1799.9641277763044
 11
4251.4044159369732
 21
1113.1835150330892
  0
CIRCLE
  8
_0-0_
  6
CONTINUOUS
 62
    7
 10
4251.4044159369732
 20
4017.4629848930899
 40
300
  0
LINE
  8
_0-0_
  6
CONTINUOUS
 62
    7
 10
3099.2196159369701
 20
3354.9629848930899
 11
5551.4044159369678
 21
3354.9629848930899
  0
CIRCLE
  8
_0-0_
  6
CONTINUOUS
 62
    7
 10
5351.4044159369623
 20
4592.4629848930899
 40
10
  0
LINE
  8
_0-0_
  6
CONTINUOUS
 62
    7
 10
5358.4754759369607
 20
4599.5340548930908
 11
5344.3333459369669
 21
4585.3919148930872
  0
LINE
  8
_0-0_
  6
CONTINUOUS
 62
    7
 10
4751.4044159369623
 20
4442.4629848930899
 11
4809.1394359369751
 21
4542.4629848930899
  0
LINE
  8
_0-0_
  6
CONTINUOUS
 62
    7
 10
4451.4044159369614
 20
4592.4629848930899
 11
4581.308225936963
 21
4817.4629848930899
  0
LINE
  8
_0-0_
  6
CONTINUOUS
 62
    7
 10
4551.4044159369732
 20
4229.9629848930872
 11
5551.4044159369678
 21
4229.9629848930872
  0
LINE
  8
_0-0_
  6
CONTINUOUS
 62
    7
 10
4551.4044159369732
 20
4254.9629848930899
 11
5551.4044159369678
 21
4254.9629848930899
  0
LINE
  8
_0-0_
  6
CONTINUOUS
 62
    7
 10
4457.4044159369732
 20
4317.4629848930899
 11
4457.4044159369732
 21
4429.9629848930899
  0
LINE
  8
_0-0_
  6
CONTINUOUS
 62
    7
 10
4457.4044159369732
 20
4454.9629848930872
 11
4457.4044159369732
 21
4679.9629848930872
  0
LINE
  8
_0-0_
  6
CONTINUOUS
 62
    7
 10
4457.4044159369732
 20
4704.9629848930899
 11
4457.4044159369732
 21
4892.4629848930899
  0
LINE
  8
_0-0_
  6
CONTINUOUS
 62
    7
 10
4445.4044159369669
 20
4892.4629848930899
 11
4445.4044159369669
 21
4704.9629848930899
  0
LINE
  8
_0-0_
  6
CONTINUOUS
 62
    7
 10
4445.4044159369669
 20
4679.9629848930872
 11
4445.4044159369669
 21
4454.9629848930872
  0
LINE
  8
_0-0_
  6
CONTINUOUS
 62
    7
 10
4445.4044159369669
 20
4429.9629848930899
 11
4445.4044159369669
 21
4317.4629848930899
  0
LINE
  8
_0-0_
  6
CONTINUOUS
 62
    7
 10
4670.4044159369678
 20
4792.4629848930872
 11
4682.4044159369732
 21
4792.4629848930872
  0
LINE
  8
_0-0_
  6
CONTINUOUS
 62
    7
 10
4445.4044159369669
 20
4317.4629848930899
 11
4457.4044159369732
 21
4317.4629848930899
  0
LINE
  8
_0-0_
  6
CONTINUOUS
 62
    7
 10
4801.4044159369678
 20
4454.9629848930872
 11
4801.4044159369678
 21
4429.9629848930899
  0
LINE
  8
_0-0_
  6
CONTINUOUS
 62
    7
 10
5344.3333459369669
 20
4599.5340548930908
 11
5358.4754759369607
 21
4585.3919148930872
  0
CIRCLE
  8
_0-0_
  6
CONTINUOUS
 62
    7
 10
4451.4044159369614
 20
4592.4629848930899
 40
10
  0
LINE
  8
_0-0_
  6
CONTINUOUS
 62
    7
 10
4458.4754759369598
 20
4599.5340548930908
 11
4444.3333459369669
 21
4585.3919148930872
  0
LINE
  8
_0-0_
  6
CONTINUOUS
 62
    7
 10
4444.3333459369669
 20
4599.5340548930908
 11
4458.4754759369598
 21
4585.3919148930872
  0
LINE
  8
_0-0_
  6
CONTINUOUS
 62
    7
 10
5151.4044159369732
 20
4017.4629848930899
 11
4751.4044159369623
 21
4017.4629848930899
  0
LINE
  8
_0-0_
  6
CONTINUOUS
 62
    7
 10
3751.4044159369678
 20
4017.4629848930899
 11
3351.4044159369732
 21
4017.4629848930899
  0
LINE
  8
_0-0_
  6
CONTINUOUS
 62
    7
 10
3701.4044159369623
 20
3579.9629848930899
 11
4801.4044159369678
 21
3579.9629848930899
  0
LINE
  8
_0-0_
  6
CONTINUOUS
 62
    7
 10
3701.4044159369623
 20
3604.9629848930899
 11
4801.4044159369678
 21
3604.9629848930899
  0
LINE
  8
_0-0_
  6
CONTINUOUS
 62
    7
 10
3099.2196159369701
 20
3329.9629848930872
 11
5551.4044159369678
 21
3329.9629848930872
  0
LINE
  8
_0-0_
  6
CONTINUOUS
 62
    7
 10
4670.4044159369678
 20
3242.4629848930899
 11
4682.4044159369732
 21
3242.4629848930899
  0
LINE
  8
_0-0_
  6
CONTINUOUS
 62
    7
 10
4445.4044159369669
 20
3717.4629848930899
 11
4457.4044159369732
 21
3717.4629848930899
  0
LINE
  8
_0-0_
  6
CONTINUOUS
 62
    7
 10
4801.4044159369678
 20
3604.9629848930899
 11
4801.4044159369678
 21
3579.9629848930899
  0
LINE
  8
_0-0_
  6
CONTINUOUS
 62
    7
 10
4551.4044159369732
 20
3779.9629848930872
 11
5551.4044159369678
 21
3779.9629848930872
  0
LINE
  8
_0-0_
  6
CONTINUOUS
 62
    7
 10
4551.4044159369732
 20
3804.9629848930899
 11
5551.4044159369678
 21
3804.9629848930899
  0
CIRCLE
  8
_0-0_
  6
CONTINUOUS
 62
    7
 10
5351.4044159369623
 20
3442.4629848930872
 40
10
  0
LINE
  8
_0-0_
  6
CONTINUOUS
 62
    7
 10
5358.4754759369607
 20
3435.3919148930891
 11
5344.3333459369669
 21
3449.5340548930903
  0
LINE
  8
_0-0_
  6
CONTINUOUS
 62
    7
 10
5344.3333459369669
 20
3435.3919148930891
 11
5358.4754759369607
 21
3449.5340548930903
  0
CIRCLE
  8
_0-0_
  6
CONTINUOUS
 62
    7
 10
4451.4044159369614
 20
3442.4629848930872
 40
10
  0
LINE
  8
_0-0_
  6
CONTINUOUS
 62
    7
 10
4458.4754759369598
 20
3435.3919148930891
 11
4444.3333459369669
 21
3449.5340548930903
  0
LINE
  8
_0-0_
  6
CONTINUOUS
 62
    7
 10
4444.3333459369669
 20
3435.3919148930891
 11
4458.4754759369598
 21
3449.5340548930903
  0
LINE
  8
_0-0_
  6
CONTINUOUS
 62
    7
 10
4251.4044159369732
 20
4817.4629848930899
 11
4251.4044159369732
 21
4517.4629848930899
  0
LINE
  8
_0-0_
  6
CONTINUOUS
 62
    7
 10
4251.4044159369732
 20
3517.4629848930872
 11
4251.4044159369732
 21
3217.4629848930872
  0
LINE
  8
_0-0_
  6
CONTINUOUS
 62
    7
 10
3832.4044159369623
 20
4792.4629848930872
 11
3832.4044159369623
 21
4704.9629848930899
  0
LINE
  8
_0-0_
  6
CONTINUOUS
 62
    7
 10
3832.4044159369623
 20
4679.9629848930872
 11
3832.4044159369623
 21
4454.9629848930872
  0
LINE
  8
_0-0_
  6
CONTINUOUS
 62
    7
 10
3832.4044159369623
 20
4429.9629848930899
 11
3832.4044159369623
 21
4254.9629848930899
  0
LINE
  8
_0-0_
  6
CONTINUOUS
 62
    7
 10
3832.4044159369623
 20
4229.9629848930872
 11
3832.4044159369623
 21
3804.9629848930899
  0
LINE
  8
_0-0_
  6
CONTINUOUS
 62
    7
 10
3832.4044159369623
 20
3779.9629848930872
 11
3832.4044159369623
 21
3604.9629848930899
  0
LINE
  8
_0-0_
  6
CONTINUOUS
 62
    7
 10
3832.4044159369623
 20
3579.9629848930899
 11
3832.4044159369623
 21
3354.9629848930899
  0
LINE
  8
_0-0_
  6
CONTINUOUS
 62
    7
 10
3832.4044159369623
 20
3329.9629848930872
 11
3832.4044159369623
 21
3242.4629848930899
  0
LINE
  8
_0-0_
  6
CONTINUOUS
 62
    7
 10
3820.4044159369732
 20
4792.4629848930872
 11
3820.4044159369732
 21
4704.9629848930899
  0
LINE
  8
_0-0_
  6
CONTINUOUS
 62
    7
 10
3820.4044159369732
 20
4679.9629848930872
 11
3820.4044159369732
 21
4454.9629848930872
  0
LINE
  8
_0-0_
  6
CONTINUOUS
 62
    7
 10
3820.4044159369732
 20
4429.9629848930899
 11
3820.4044159369732
 21
4254.9629848930899
  0
LINE
  8
_0-0_
  6
CONTINUOUS
 62
    7
 10
3820.4044159369732
 20
4229.9629848930872
 11
3820.4044159369732
 21
3804.9629848930899
  0
LINE
  8
_0-0_
  6
CONTINUOUS
 62
    7
 10
3820.4044159369732
 20
3779.9629848930872
 11
3820.4044159369732
 21
3604.9629848930899
  0
LINE
  8
_0-0_
  6
CONTINUOUS
 62
    7
 10
3820.4044159369732
 20
3579.9629848930899
 11
3820.4044159369732
 21
3354.9629848930899
  0
LINE
  8
_0-0_
  6
CONTINUOUS
 62
    7
 10
3820.4044159369732
 20
3329.9629848930872
 11
3820.4044159369732
 21
3242.4629848930899
  0
LINE
  8
_0-0_
  6
CONTINUOUS
 62
    7
 10
3951.4044159369732
 20
4254.9629848930899
 11
3951.4044159369732
 21
4229.9629848930872
  0
LINE
  8
_0-0_
  6
CONTINUOUS
 62
    7
 10
3951.4044159369732
 20
3804.9629848930899
 11
3951.4044159369732
 21
3779.9629848930872
  0
LINE
  8
_0-0_
  6
CONTINUOUS
 62
    7
 10
4151.4044159369623
 20
3217.4629848930872
 11
4251.4044159369732
 21
3217.4629848930872
  0
LINE
  8
_0-0_
  6
CONTINUOUS
 62
    7
 10
3701.4044159369623
 20
3604.9629848930899
 11
3701.4044159369623
 21
3579.9629848930899
  0
LINE
  8
_0-0_
  6
CONTINUOUS
 62
    7
 10
3101.4044159369623
 20
3779.9629848930872
 11
3951.4044159369732
 21
3779.9629848930872
  0
LINE
  8
_0-0_
  6
CONTINUOUS
 62
    7
 10
3101.4044159369623
 20
3804.9629848930899
 11
3951.4044159369732
 21
3804.9629848930899
  0
LINE
  8
_0-0_
  6
CONTINUOUS
 62
    7
 10
3820.4044159369732
 20
3242.4629848930899
 11
3832.4044159369623
 21
3242.4629848930899
  0
CIRCLE
  8
_0-0_
  6
CONTINUOUS
 62
    7
 10
3551.4044159369623
 20
3442.4629848930872
 40
10
  0
LINE
  8
_0-0_
  6
CONTINUOUS
 62
    7
 10
3558.4754759369607
 20
3435.3919148930891
 11
3544.3333459369669
 21
3449.5340548930903
  0
LINE
  8
_0-0_
  6
CONTINUOUS
 62
    7
 10
3544.3333459369669
 20
3435.3919148930891
 11
3558.4754759369607
 21
3449.5340548930903
  0
LINE
  8
_0-0_
  6
CONTINUOUS
 62
    7
 10
3701.4044159369623
 20
4454.9629848930872
 11
3701.4044159369623
 21
4429.9629848930899
  0
LINE
  8
_0-0_
  6
CONTINUOUS
 62
    7
 10
3820.4044159369732
 20
4792.4629848930872
 11
3832.4044159369623
 21
4792.4629848930872
  0
LINE
  8
_0-0_
  6
CONTINUOUS
 62
    7
 10
3114.5132159369655
 20
4229.9629848930872
 11
3951.4044159369732
 21
4229.9629848930872
  0
LINE
  8
_0-0_
  6
CONTINUOUS
 62
    7
 10
3114.5132159369655
 20
4254.9629848930899
 11
3951.4044159369732
 21
4254.9629848930899
  0
LINE
  8
_0-0_
  6
CONTINUOUS
 62
    7
 10
3251.4044159369623
 20
4692.4629848930899
 11
3323.5731959369718
 21
4817.4629848930899
  0
CIRCLE
  8
_0-0_
  6
CONTINUOUS
 62
    7
 10
3551.4044159369623
 20
4592.4629848930899
 40
10
  0
LINE
  8
_0-0_
  6
CONTINUOUS
 62
    7
 10
3558.4754759369607
 20
4599.5340548930908
 11
3544.3333459369669
 21
4585.3919148930872
  0
LINE
  8
_0-0_
  6
CONTINUOUS
 62
    7
 10
3544.3333459369669
 20
4599.5340548930908
 11
3558.4754759369607
 21
4585.3919148930872
  0
LINE
  8
_0-0_
  6
CONTINUOUS
 62
    7
 10
4151.4044159369623
 20
4817.4629848930899
 11
4251.4044159369732
 21
4817.4629848930899
  0
LINE
  8
_0-0_
  6
CONTINUOUS
 62
    7
 10
3551.4044159369623
 20
4467.4629848930899
 11
3753.4770059369739
 21
4817.4629848930899
  0
LINE
  8
_0-0_
  6
CONTINUOUS
 62
    7
 10
4676.4044159369623
 20
4017.4629848930899
 11
4734.1394359369751
 21
4117.4629848930872
  0
LINE
  8
_0-0_
  6
CONTINUOUS
 62
    7
 10
4682.4044159369732
 20
4792.4629848930872
 11
4682.4044159369732
 21
4704.9629848930899
  0
LINE
  8
_0-0_
  6
CONTINUOUS
 62
    7
 10
4682.4044159369732
 20
4679.9629848930872
 11
4682.4044159369732
 21
4454.9629848930872
  0
LINE
  8
_0-0_
  6
CONTINUOUS
 62
    7
 10
4682.4044159369732
 20
4429.9629848930899
 11
4682.4044159369732
 21
4254.9629848930899
  0
LINE
  8
_0-0_
  6
CONTINUOUS
 62
    7
 10
4682.4044159369732
 20
4229.9629848930872
 11
4682.4044159369732
 21
3804.9629848930899
  0
LINE
  8
_0-0_
  6
CONTINUOUS
 62
    7
 10
4682.4044159369732
 20
3779.9629848930872
 11
4682.4044159369732
 21
3604.9629848930899
  0
LINE
  8
_0-0_
  6
CONTINUOUS
 62
    7
 10
4682.4044159369732
 20
3579.9629848930899
 11
4682.4044159369732
 21
3354.9629848930899
  0
LINE
  8
_0-0_
  6
CONTINUOUS
 62
    7
 10
4682.4044159369732
 20
3329.9629848930872
 11
4682.4044159369732
 21
3242.4629848930899
  0
LINE
  8
_0-0_
  6
CONTINUOUS
 62
    7
 10
4670.4044159369678
 20
4792.4629848930872
 11
4670.4044159369678
 21
4704.9629848930899
  0
LINE
  8
_0-0_
  6
CONTINUOUS
 62
    7
 10
4670.4044159369678
 20
4679.9629848930872
 11
4670.4044159369678
 21
4454.9629848930872
  0
LINE
  8
_0-0_
  6
CONTINUOUS
 62
    7
 10
4670.4044159369678
 20
4429.9629848930899
 11
4670.4044159369678
 21
4254.9629848930899
  0
LINE
  8
_0-0_
  6
CONTINUOUS
 62
    7
 10
4670.4044159369678
 20
4229.9629848930872
 11
4670.4044159369678
 21
3804.9629848930899
  0
LINE
  8
_0-0_
  6
CONTINUOUS
 62
    7
 10
4670.4044159369678
 20
3779.9629848930872
 11
4670.4044159369678
 21
3604.9629848930899
  0
LINE
  8
_0-0_
  6
CONTINUOUS
 62
    7
 10
4670.4044159369678
 20
3579.9629848930899
 11
4670.4044159369678
 21
3354.9629848930899
  0
LINE
  8
_0-0_
  6
CONTINUOUS
 62
    7
 10
4670.4044159369678
 20
3329.9629848930872
 11
4670.4044159369678
 21
3242.4629848930899
  0
LINE
  8
_0-0_
  6
CONTINUOUS
 62
    7
 10
4551.4044159369732
 20
4254.9629848930899
 11
4551.4044159369732
 21
4229.9629848930872
  0
LINE
  8
_0-0_
  6
CONTINUOUS
 62
    7
 10
4551.4044159369732
 20
3804.9629848930899
 11
4551.4044159369732
 21
3779.9629848930872
  0
LINE
  8
_0-0_
  6
CONTINUOUS
 62
    7
 10
5345.4044159369678
 20
3142.4629848930872
 11
5345.4044159369678
 21
3329.9629848930872
  0
LINE
  8
_0-0_
  6
CONTINUOUS
 62
    7
 10
5345.4044159369678
 20
3354.9629848930899
 11
5345.4044159369678
 21
3779.9629848930872
  0
LINE
  8
_0-0_
  6
CONTINUOUS
 62
    7
 10
5345.4044159369678
 20
3804.9629848930899
 11
5345.4044159369678
 21
4229.9629848930872
  0
LINE
  8
_0-0_
  6
CONTINUOUS
 62
    7
 10
5345.4044159369678
 20
4254.9629848930899
 11
5345.4044159369678
 21
4679.9629848930872
  0
LINE
  8
_0-0_
  6
CONTINUOUS
 62
    7
 10
5345.4044159369678
 20
4704.9629848930899
 11
5345.4044159369678
 21
4892.4629848930899
  0
LINE
  8
_0-0_
  6
CONTINUOUS
 62
    7
 10
5357.4044159369732
 20
4892.4629848930899
 11
5357.4044159369732
 21
4704.9629848930899
  0
LINE
  8
_0-0_
  6
CONTINUOUS
 62
    7
 10
5357.4044159369732
 20
4679.9629848930872
 11
5357.4044159369732
 21
4254.9629848930899
  0
LINE
  8
_0-0_
  6
CONTINUOUS
 62
    7
 10
5357.4044159369732
 20
4229.9629848930872
 11
5357.4044159369732
 21
3804.9629848930899
  0
LINE
  8
_0-0_
  6
CONTINUOUS
 62
    7
 10
5357.4044159369732
 20
3779.9629848930872
 11
5357.4044159369732
 21
3354.9629848930899
  0
LINE
  8
_0-0_
  6
CONTINUOUS
 62
    7
 10
5357.4044159369732
 20
3329.9629848930872
 11
5357.4044159369732
 21
3142.4629848930872
  0
LINE
  8
_0-0_
  6
CONTINUOUS
 62
    7
 10
4457.4044159369732
 20
3142.4629848930872
 11
4457.4044159369732
 21
3329.9629848930872
  0
LINE
  8
_0-0_
  6
CONTINUOUS
 62
    7
 10
4457.4044159369732
 20
3354.9629848930899
 11
4457.4044159369732
 21
3579.9629848930899
  0
LINE
  8
_0-0_
  6
CONTINUOUS
 62
    7
 10
4457.4044159369732
 20
3604.9629848930899
 11
4457.4044159369732
 21
3717.4629848930899
  0
LINE
  8
_0-0_
  6
CONTINUOUS
 62
    7
 10
4445.4044159369669
 20
3717.4629848930899
 11
4445.4044159369669
 21
3604.9629848930899
  0
LINE
  8
_0-0_
  6
CONTINUOUS
 62
    7
 10
4445.4044159369669
 20
3579.9629848930899
 11
4445.4044159369669
 21
3354.9629848930899
  0
LINE
  8
_0-0_
  6
CONTINUOUS
 62
    7
 10
4445.4044159369669
 20
3329.9629848930872
 11
4445.4044159369669
 21
3142.4629848930872
  0
LINE
  8
_0-0_
  6
CONTINUOUS
 62
    7
 10
3116.6980159369746
 20
4679.9629848930872
 11
5551.4044159369678
 21
4679.9629848930872
  0
LINE
  8
_0-0_
  6
CONTINUOUS
 62
    7
 10
3116.6980159369746
 20
4704.9629848930899
 11
5551.4044159369678
 21
4704.9629848930899
  0
LINE
  8
_0-0_
  6
CONTINUOUS
 62
    7
 10
3701.4044159369623
 20
4429.9629848930899
 11
4801.4044159369678
 21
4429.9629848930899
  0
LINE
  8
_0-0_
  6
CONTINUOUS
 62
    7
 10
3701.4044159369623
 20
4454.9629848930872
 11
4801.4044159369678
 21
4454.9629848930872
  0
LINE
  8
_0-0_
  6
CONTINUOUS
 62
    7
 10
3557.4044159369737
 20
3142.4629848930872
 11
3557.4044159369737
 21
3329.9629848930872
  0
LINE
  8
_0-0_
  6
CONTINUOUS
 62
    7
 10
3557.4044159369737
 20
3354.9629848930899
 11
3557.4044159369737
 21
3779.9629848930872
  0
LINE
  8
_0-0_
  6
CONTINUOUS
 62
    7
 10
3557.4044159369737
 20
3804.9629848930899
 11
3557.4044159369737
 21
4229.9629848930872
  0
LINE
  8
_0-0_
  6
CONTINUOUS
 62
    7
 10
3557.4044159369737
 20
4254.9629848930899
 11
3557.4044159369737
 21
4679.9629848930872
  0
LINE
  8
_0-0_
  6
CONTINUOUS
 62
    7
 10
3557.4044159369737
 20
4704.9629848930899
 11
3557.4044159369737
 21
4892.4629848930899
  0
LINE
  8
_0-0_
  6
CONTINUOUS
 62
    7
 10
3545.4044159369678
 20
4892.4629848930899
 11
3545.4044159369678
 21
4704.9629848930899
  0
LINE
  8
_0-0_
  6
CONTINUOUS
 62
    7
 10
3545.4044159369678
 20
4679.9629848930872
 11
3545.4044159369678
 21
4254.9629848930899
  0
LINE
  8
_0-0_
  6
CONTINUOUS
 62
    7
 10
3545.4044159369678
 20
4229.9629848930872
 11
3545.4044159369678
 21
3804.9629848930899
  0
LINE
  8
_0-0_
  6
CONTINUOUS
 62
    7
 10
3545.4044159369678
 20
3779.9629848930872
 11
3545.4044159369678
 21
3354.9629848930899
  0
LINE
  8
_0-0_
  6
CONTINUOUS
 62
    7
 10
3545.4044159369678
 20
3329.9629848930872
 11
3545.4044159369678
 21
3142.4629848930872
  0
CIRCLE
  8
_0-0_
  6
CENTER1
 62
    7
 10
4251.4044159369732
 20
4017.4629848930899
 40
150
  0
LINE
  8
_0-0_
  6
CONTINUOUS
 62
    7
 10
4215.9594861106552
 20
4849.7405199799241
 11
4151.4044159369623
 21
4817.4629848930899
  0
LINE
  8
_0-0_
  6
CONTINUOUS
 62
    7
 10
4215.9594861106552
 20
4785.1854498062303
 11
4151.4044159369623
 21
4817.4629848930899
  0
LINE
  8
_0-0_
  6
CONTINUOUS
 62
    7
 10
4215.9594861106552
 20
3249.7405199799209
 11
4151.4044159369623
 21
3217.4629848930872
  0
LINE
  8
_0-0_
  6
CONTINUOUS
 62
    7
 10
4215.9594861106552
 20
3185.1854498062276
 11
4151.4044159369623
 21
3217.4629848930872
  0
LINE
  8
_0-0_
  6
CENTER1
 62
    7
 10
4251.4044159369732
 20
4517.4629848930899
 11
4251.4044159369732
 21
3517.4629848930872
  0
LINE
  8
_0-0_
  6
CENTER1
 62
    7
 10
3751.4044159369678
 20
4017.4629848930899
 11
4751.4044159369623
 21
4017.4629848930899
  0
LINE
  8
_0-0_
  6
CONTINUOUS
 62
    7
 10
3319.1268808501395
 20
4052.9079147193952
 11
3351.4044159369732
 21
4117.462984893089
  0
LINE
  8
_0-0_
  6
CONTINUOUS
 62
    7
 10
3351.4044159369732
 20
4017.4629848930899
 11
3351.4044159369732
 21
4117.462984893089
  0
LINE
  8
_0-0_
  6
CONTINUOUS
 62
    7
 10
3383.6819510238329
 20
4052.9079147193952
 11
3351.4044159369732
 21
4117.462984893089
  0
LINE
  8
_0-0_
  6
CONTINUOUS
 62
    7
 10
5119.1268808501391
 20
4052.9079147193952
 11
5151.4044159369732
 21
4117.462984893089
  0
LINE
  8
_0-0_
  6
CONTINUOUS
 62
    7
 10
5151.4044159369732
 20
4017.4629848930899
 11
5151.4044159369732
 21
4117.462984893089
  0
LINE
  8
_0-0_
  6
CONTINUOUS
 62
    7
 10
5183.6819510238329
 20
4052.9079147193952
 11
5151.4044159369732
 21
4117.462984893089
  0
LINE
  8
_0-0_
  6
CONTINUOUS
 62
    7
 10
4809.1394359369751
 20
4542.4629848930899
 11
5094.4210007511338
 21
4542.4629848930899
  0
LINE
  8
_0-0_
  6
CONTINUOUS
 62
    7
 10
4581.308225936963
 20
4817.4629848930899
 11
5020.8667036130037
 21
4817.4629848930899
  0
LINE
  8
_0-0_
  6
CONTINUOUS
 62
    7
 10
3753.4770059369739
 20
4817.4629848930899
 11
4040.1427417712712
 21
4817.4629848930899
  0
LINE
  8
_0-0_
  6
CONTINUOUS
 62
    7
 10
3323.5731959369718
 20
4817.4629848930899
 11
3455.2109502442372
 21
4817.4629848930899
  0
TEXT
  8
_0-0_
 62
    7
 10
3781.4044159369732
 20
1988.1835150330883
 40
100
 41
1
 50
0
  1
A-A'野縁受け方向
  0
TEXT
  8
_0-0_
 62
    7
 10
3661.4044159369732
 20
988.18351503308918
 40
100
 41
1
 50
0
  1
B-B'野縁受け直交方向
  0
TEXT
  8
_0-0_
 62
    7
 10
4718.2001259369754
 20
1502.2963079147512
 40
50
 41
1
 50
0
  1
補強野縁受け
  0
TEXT
  8
_0-0_
 62
    7
 10
3924.0635759369684
 20
2473.0681357782237
 40
50
 41
1
 50
0
  1
野縁
  0
TEXT
  8
_0-0_
 62
    7
 10
3847.8744659369727
 20
2573.0681357782264
 40
50
 41
1
 50
0
  1
野縁受け
  0
TEXT
  8
_0-0_
 62
    7
 10
4734.1394359369751
 20
4117.4629848930872
 40
70
 41
1
 50
0
  1
補強野縁受け
  0
TEXT
  8
_0-0_
 62
    7
 10
4228.8378684807249
 20
3117.7947845804988
 40
70
 41
1
 50
0
  1
A
  0
TEXT
  8
_0-0_
 62
    7
 10
4229.3943760269085
 20
4826.7806370696162
 40
70
 41
1
 50
0
  1
A'
  0
TEXT
  8
_0-0_
 62
    7
 10
4809.1394359369751
 20
4542.4629848930899
 40
70
 41
1
 50
0
  1
補強野縁
  0
TEXT
  8
_0-0_
 62
    7
 10
4581.308225936963
 20
4817.4629848930899
 40
70
 41
1
 50
0
  1
吊りﾎﾞﾙﾄ位置
  0
TEXT
  8
_0-0_
 62
    7
 10
3753.4770059369739
 20
4817.4629848930899
 40
70
 41
1
 50
0
  1
野縁受け
  0
TEXT
  8
_0-0_
 62
    7
 10
3323.5731959369718
 20
4817.4629848930899
 40
70
 41
1
 50
0
  1
野縁
  0
TEXT
  8
_0-0_
 62
    7
 10
3302.6376990445906
 20
3966.9718979891186
 40
70
 41
1
 50
0
  1
B
  0
TEXT
  8
_0-0_
 62
    7
 10
5161.5955571240565
 20
3970.7577256287832
 40
70
 41
1
 50
0
  1
B'
  0
LINE
  8
_0-0_
  6
CONTINUOUS
 62
    7
 10
4718.2001259369754
 20
1502.2963079147512
 11
5018.2001259369754
 21
1502.2963079147512
  0
LINE
  8
_0-0_
  6
CONTINUOUS
 62
    7
 10
3924.0635759369684
 20
2473.0681357782237
 11
4024.0635759369684
 21
2473.0681357782237
  0
LINE
  8
_0-0_
  6
CONTINUOUS
 62
    7
 10
3847.8744659369727
 20
2573.0681357782264
 11
4047.8744659369727
 21
2573.0681357782264
  0
LINE
  8
_0-0_
  6
CONTINUOUS
 62
    7
 10
4734.1394359369751
 20
4117.4629848930872
 11
5151.4044159369732
 21
4117.4629848930872
  0
ENDSEC
  0
EOF
