  0
SECTION
  2
HEADER
  9
$ACADVER
  1
AC1009
  9
$INSBASE
 10
0
 20
0
 30
0
  9
$EXTMIN
 10
0
 20
0
  9
$EXTMAX
 10
420
 20
297
  9
$LIMMIN
 10
0
 20
0
  9
$LIMMAX
 10
420
 20
297
  9
$LTSCALE
 40
1
  0
ENDSEC
  0
SECTION
  2
TABLES
  0
TABLE
  2
LTYPE
 70
     9
  0
LTYPE
  2
CONTINUOUS
 70
    64
  3
実線
 72
    65
 73
     0
 40
0.0
  0
LTYPE
  2
DASHED1
 70
    64
  3
--  --  --  --  --  --  --  --  
 72
    65
 73
     2
 40
2.5
 49
1.25
 49
-1.25
  0
LTYPE
  2
DASHED2
 70
    64
  3
----    ----    ----    ----    
 72
    65
 73
     2
 40
5.0
 49
2.5
 49
-2.5
  0
LTYPE
  2
DASHED3
 70
    64
  3
------  ------  ------  ------  
 72
    65
 73
     2
 40
5.0
 49
3.75
 49
-1.25
  0
LTYPE
  2
CENTER1
 70
    64
  3
----- - ----- - ----- - ----- - 
 72
    65
 73
     4
 40
10.0
 49
6.25
 49
-1.25
 49
1.25
 49
-1.25
  0
LTYPE
  2
CENTER2
 70
    64
  3
----------  --  ----------  --  
 72
    65
 73
     4
 40
20.0
 49
12.5
 49
-2.5
 49
2.5
 49
-2.5
  0
LTYPE
  2
PHANTOM1
 70
    64
  3
--- - - --- - - --- - - --- - - 
 72
    65
 73
     6
 40
10.0
 49
3.25
 49
-1.25
 49
1.25
 49
-1.25
 49
1.25
 49
-1.25
  0
LTYPE
  2
PHANTOM2
 70
    64
  3
--------  -  -  --------  -  -  
 72
    65
 73
     6
 40
20.0
 49
10.0
 49
-2.5
 49
1.25
 49
-2.5
 49
1.25
 49
-2.5
  0
LTYPE
  2
DOT
 70
    64
  3
-   -   -   -   -   -   -   -   
 72
    65
 73
     2
 40
2.5
 49
0.625
 49
-1.875
  0
LTYPE
  2
DUMMY
 70
    64
  3
ダミー
 72
    65
 73
     0
 40
0.0
  0
LTYPE
  2
RAND1
 70
    64
  3
ランダム線1
 72
    65
 73
     4
 40
10.0
 49
1.0
 49
-2.0
 49
3.0
 49
-4.0
  0
LTYPE
  2
RAND2
 70
    64
  3
ランダム線2
 72
    65
 73
     4
 40
14.0
 49
2.0
 49
-3.0
 49
4.0
 49
-5.0
  0
LTYPE
  2
RAND3
 70
    64
  3
ランダム線3
 72
    65
 73
     4
 40
18.0
 49
3.0
 49
-4.0
 49
5.0
 49
-6.0
  0
LTYPE
  2
RAND4
 70
    64
  3
ランダム線4
 72
    65
 73
     4
 40
22.0
 49
4.0
 49
-5.0
 49
6.0
 49
-7.0
  0
LTYPE
  2
RAND5
 70
    64
  3
ランダム線5
 72
    65
 73
     4
 40
26.0
 49
5.0
 49
-6.0
 49
7.0
 49
-8.0
  0
LTYPE
  2
LONG1
 70
    64
  3
----------  --  ----------  --  
 72
    65
 73
     4
 40
40.0
 49
32.5
 49
-2.5
 49
2.5
 49
-2.5
  0
LTYPE
  2
LONG2
 70
    64
  3
--------  -  -  --------  -  -  
 72
    65
 73
     6
 40
40.0
 49
30.0
 49
-2.5
 49
1.25
 49
-2.5
 49
1.25
 49
-2.5
  0
LTYPE
  2
LONG3
 70
    64
  3
+++++++++++++++..+++++++++++++++
 72
    65
 73
     2
 40
40.0
 49
37.5
 49
-2.5
  0
LTYPE
  2
LONG4
 70
    64
  3
+++++++++++++++..+++++++++++++++
 72
    65
 73
     2
 40
80.0
 49
75.0
 49
-5.0
  0
LTYPE
  2
LONG5
 70
    64
  3
----------  --  ----------  --  
 72
    65
 73
     4
 40
60.0
 49
37.5
 49
-7.5
 49
7.5
 49
-7.5
  0
LTYPE
  2
dashed
 70
   64
  3
-------   -------------   ------
 72
   65
 73
    2
 40
7.5
 49
6
 49
-1.5
  0
LTYPE
  2
dashed_spaced
 70
   64
  3
----        --------        ----
 72
   65
 73
    2
 40
12
 49
6
 49
-6
  0
LTYPE
  2
long_dashed_dotted
 70
   64
  3
------------- --- --------------
 72
   65
 73
    4
 40
15.25
 49
12
 49
-1.5
 49
0.25
 49
-1.5
  0
LTYPE
  2
long_dashed_double-dotted
 70
   64
  3
----------- --- --- ------------
 72
   65
 73
    6
 40
17
 49
12
 49
-1.5
 49
0.25
 49
-1.5
 49
0.25
 49
-1.5
  0
LTYPE
  2
long_dashed_triplicate-dotted
 70
   64
  3
--------- --- --- --- ----------
 72
   65
 73
    8
 40
18.75
 49
12
 49
-1.5
 49
0.25
 49
-1.5
 49
0.25
 49
-1.5
 49
0.25
 49
-1.5
  0
LTYPE
  2
dotted
 70
   64
  3
   -       -       -       -    
 72
   65
 73
    2
 40
1.75
 49
0.25
 49
-1.5
  0
LTYPE
  2
chain
 70
   64
  3
-------------- -- --------------
 72
   65
 73
    4
 40
18.5
 49
12
 49
-1.5
 49
3.5
 49
-1.5
  0
LTYPE
  2
chain_double_dash
 70
   64
  3
------------ -- -- -------------
 72
   65
 73
    6
 40
23.5
 49
12
 49
-1.5
 49
3.5
 49
-1.5
 49
3.5
 49
-1.5
  0
LTYPE
  2
dashed_dotted
 70
   64
  3
-----------     -     ----------
 72
   65
 73
    4
 40
9.25
 49
6
 49
-1.5
 49
0.25
 49
-1.5
  0
LTYPE
  2
double-dashed_dotted
 70
   64
  3
------   -----------   -   -----
 72
   65
 73
    6
 40
16.75
 49
6
 49
-1.5
 49
6
 49
-1.5
 49
0.25
 49
-1.5
  0
LTYPE
  2
dashed_double-dotted
 70
   64
  3
---------    -    -    ---------
 72
   65
 73
    6
 40
11
 49
6
 49
-1.5
 49
0.25
 49
-1.5
 49
0.25
 49
-1.5
  0
LTYPE
  2
double-dashed_double-dotted
 70
   64
  3
-----   ---------   -   -   ----
 72
   65
 73
    8
 40
18.5
 49
6
 49
-1.5
 49
6
 49
-1.5
 49
0.25
 49
-1.5
 49
0.25
 49
-1.5
  0
LTYPE
  2
dashed_triplicate-dotted
 70
   64
  3
-------    -    -    -    ------
 72
   65
 73
    8
 40
12.75
 49
6
 49
-1.5
 49
0.25
 49
-1.5
 49
0.25
 49
-1.5
 49
0.25
 49
-1.5
  0
LTYPE
  2
double-dashed_triplicate-dotted
 70
   64
  3
-----  ---------  -  -  -  -----
 72
   65
 73
   10
 40
20.25
 49
6
 49
-1.5
 49
6
 49
-1.5
 49
0.25
 49
-1.5
 49
0.25
 49
-1.5
 49
0.25
 49
-1.5
  0
LTYPE
  2
undefined
 70
   64
  3
--------------------------------
 72
   65
 73
    0
 40
0
  0
LTYPE
  2
PLINE2
 70
   64
  3
------     -----------     -----
 72
   65
 73
    2
 40
3
 49
2.1000000000000001
 49
-0.9
  0
LTYPE
  2
PLINE3
 70
   64
  3
------------   ---   -----------
 72
   65
 73
    4
 40
10
 49
7
 49
-1
 49
1
 49
-1
  0
LTYPE
  2
PLINE4
 70
   64
  3
---------   ---   ---   --------
 72
   65
 73
    6
 40
10
 49
5
 49
-1
 49
1
 49
-1
 49
1
 49
-1
  0
LTYPE
  2
PLINE5
 70
   64
  3
------     -----------     -----
 72
   65
 73
    2
 40
5
 49
3.5
 49
-1.5
  0
LTYPE
  2
PLINE6
 70
   64
  3
------------   ---   -----------
 72
   65
 73
    4
 40
15
 49
10.5
 49
-1.5
 49
1.5
 49
-1.5
  0
LTYPE
  2
PLINE7
 70
   64
  3
---------   ---   ---   --------
 72
   65
 73
    6
 40
15
 49
7.5
 49
-1.5
 49
1.5
 49
-1.5
 49
1.5
 49
-1.5
  0
LTYPE
  2
PLINE8
 70
   64
  3
------     -----------     -----
 72
   65
 73
    2
 40
7
 49
4.9000000000000004
 49
-2.1000000000000001
  0
LTYPE
  2
PLINE9
 70
   64
  3
------------   ---   -----------
 72
   65
 73
    4
 40
20
 49
14
 49
-2
 49
2
 49
-2
  0
LTYPE
  2
PLINE10
 70
   64
  3
---------   ---   ---   --------
 72
   65
 73
    6
 40
20
 49
10
 49
-2
 49
2
 49
-2
 49
2
 49
-2
  0
LTYPE
  2
PLINE11
 70
   64
  3
------     -----------     -----
 72
   65
 73
    2
 40
9
 49
6.2999999999999989
 49
-2.7000000000000002
  0
LTYPE
  2
PLINE12
 70
   64
  3
------------   ---   -----------
 72
   65
 73
    4
 40
25
 49
17.5
 49
-2.5
 49
2.5
 49
-2.5
  0
LTYPE
  2
PLINE13
 70
   64
  3
---------   ---   ---   --------
 72
   65
 73
    6
 40
25
 49
12.5
 49
-2.5
 49
2.5
 49
-2.5
 49
2.5
 49
-2.5
  0
LTYPE
  2
PLINE14
 70
   64
  3
------     -----------     -----
 72
   65
 73
    2
 40
11
 49
7.7000000000000002
 49
-3.2999999999999989
  0
LTYPE
  2
PLINE15
 70
   64
  3
------------   ---   -----------
 72
   65
 73
    4
 40
30
 49
21
 49
-3
 49
3
 49
-3
  0
LTYPE
  2
PLINE16
 70
   64
  3
---------   ---   ---   --------
 72
   65
 73
    6
 40
30
 49
15
 49
-3
 49
3
 49
-3
 49
3
 49
-3
  0
ENDTAB
  0
TABLE
  2
STYLE
  5
3
100
AcDbSymbolTable
 70
     1
  0
STYLE
  5
10
100
AcDbSymbolTableRecord
100
AcDbTextStyleTableRecord
  2
STANDARD
 70
     0
 40
0.0
 41
1.0
 50
0.0
 71
     0
 42
0.2
  3
txt
  4
bigfont.shx
  0
STYLE
  5
26
100
AcDbSymbolTableRecord
100
AcDbTextStyleTableRecord
  2
TATEGAKI
 70
    68
 40
0.0
 41
1.0
 50
0.0
 71
     0
 42
1.0
  3
txt
  4
bigfont.shx
  0
ENDTAB
  0
TABLE
  2
LAYER
 70
    4
  0
LAYER
  2
_0-2_製品
 70
   64
 62
    7
  6
CONTINUOUS
  0
LAYER
  2
_0-3_図面枠
 70
   64
 62
    7
  6
CONTINUOUS
  0
LAYER
  2
_0-4_寸法
 70
   64
 62
    7
  6
CONTINUOUS
  0
LAYER
  2
ADD_LINE
 70
   64
 62
    7
  6
CONTINUOUS
  0
ENDTAB
  0
ENDSEC
  0
SECTION
  2
BLOCKS
  0
BLOCK
  2
-000-_Dot
 70
   64
 10
0
 20
0
 30
0
  0
CIRCLE
  8
_0-0_0
  6
CONTINUOUS
 62
    7
 10
0
 20
0
 40
1
  0
LINE
  8
_0-0_0
  6
CONTINUOUS
 62
    7
 10
1
 20
0
 11
-1
 21
0
  0
LINE
  8
_0-0_0
  6
CONTINUOUS
 62
    7
 10
-2
 20
0
 11
-4
 21
0
  0
ENDBLK
  0
BLOCK
  2
-001-_D5
 70
   64
 10
0
 20
0
 30
0
  0
LINE
  8
_0-4_寸法
  6
CONTINUOUS
 62
    4
 10
1110.7823646286879
 20
570.68214021908523
 11
1110.7823646286879
 21
606.68214021908523
  0
LINE
  8
_0-4_寸法
  6
CONTINUOUS
 62
    4
 10
1361.9823646286889
 20
570.68214021908523
 11
1361.9823646286889
 21
606.68214021908523
  0
LINE
  8
_0-4_寸法
  6
CONTINUOUS
 62
    4
 10
1114.7823646286884
 20
606.68214021908523
 11
1357.9823646286889
 21
606.68214021908523
  0
INSERT
  2
-000-_Dot
  8
_0-4_寸法
 10
1110.7823646286879
 20
606.68214021908523
 41
1
 42
1
 50
180
  0
INSERT
  2
-000-_Dot
  8
_0-4_寸法
 10
1361.9823646286889
 20
606.68214021908523
 41
1
 42
1
 50
0
  0
TEXT
  8
_0-4_寸法
 62
    7
 10
1231.3823646286885
 20
610.68214021908523
 40
20
 41
1
 50
0
  1
L
  0
POINT
  8
_0-1_Defpoints
 62
    7
 10
1110.7823646286879
 20
570.68214021908523
  0
POINT
  8
_0-1_Defpoints
 62
    7
 10
1361.9823646286889
 20
570.68214021908523
  0
POINT
  8
_0-1_Defpoints
 62
    7
 10
1361.9823646286889
 20
606.68214021908523
  0
ENDBLK
  0
BLOCK
  2
-002-_D6
 70
   64
 10
0
 20
0
 30
0
  0
LINE
  8
_0-4_寸法
  6
CONTINUOUS
 62
    4
 10
1176.3823646286885
 20
880.5870042190852
 11
1176.3823646286885
 21
935.38700421908516
  0
LINE
  8
_0-4_寸法
  6
CONTINUOUS
 62
    4
 10
1296.3823646286885
 20
880.5870042190852
 11
1296.3823646286885
 21
935.38700421908516
  0
LINE
  8
_0-4_寸法
  6
CONTINUOUS
 62
    4
 10
1180.3823646286885
 20
935.38700421908516
 11
1292.3823646286885
 21
935.38700421908516
  0
INSERT
  2
-000-_Dot
  8
_0-4_寸法
 10
1176.3823646286885
 20
935.38700421908516
 41
1
 42
1
 50
180
  0
INSERT
  2
-000-_Dot
  8
_0-4_寸法
 10
1296.3823646286885
 20
935.38700421908516
 41
1
 42
1
 50
0
  0
TEXT
  8
_0-4_寸法
 62
    7
 10
1231.3823646286885
 20
939.38700421908516
 40
20
 41
1
 50
0
  1
W
  0
POINT
  8
_0-1_Defpoints
 62
    7
 10
1176.3823646286885
 20
880.5870042190852
  0
POINT
  8
_0-1_Defpoints
 62
    7
 10
1296.3823646286885
 20
880.5870042190852
  0
POINT
  8
_0-1_Defpoints
 62
    7
 10
1296.3823646286885
 20
935.38700421908516
  0
ENDBLK
  0
ENDSEC
  0
SECTION
  2
ENTITIES
  0
LINE
  8
_0-3_図面枠
  6
CONTINUOUS
 62
    2
 10
219.1364531947815
 20
208.13451886624881
 11
261.27645319478188
 21
208.13451886624881
  0
TEXT
  8
_0-3_図面枠
 62
    7
 10
219.13645819478188
 20
209.13452386624959
 40
3
 41
0.8000000000000001
 50
0
  1
照明器具用吊りボルト（別途）
  0
LINE
  8
_0-2_製品
  6
CONTINUOUS
 62
    4
 10
228.62619919478175
 20
172.03451886624941
 11
261.85119919478154
 21
172.03451886624941
  0
LINE
  8
_0-2_製品
  6
CONTINUOUS
 62
    4
 10
261.85119919478154
 20
175.8345188662496
 11
229.50119919478175
 21
175.8345188662496
  0
LINE
  8
_0-2_製品
  6
CONTINUOUS
 62
    4
 10
283.00119919478169
 20
170.13451886624881
 11
225.00119919478169
 21
170.13451886624881
  0
LINE
  8
_0-2_製品
  6
CONTINUOUS
 62
    4
 10
225.00119919478169
 20
169.1345188662489
 11
283.00119919478169
 21
169.1345188662489
  0
LINE
  8
_0-2_製品
  6
CONTINUOUS
 62
    4
 10
225.00119919478169
 20
168.13451886624881
 11
283.00119919478169
 21
168.13451886624881
  0
LINE
  8
_0-2_製品
  6
CONTINUOUS
 62
    4
 10
241.40119919478178
 20
85.658302866248789
 11
280.00119919478169
 21
85.658302866248789
  0
LINE
  8
_0-2_製品
  6
CONTINUOUS
 62
    4
 10
280.00119919478169
 20
87.658302866248789
 11
241.40119919478178
 21
87.658302866248789
  0
LINE
  8
_0-2_製品
  6
CONTINUOUS
 62
    4
 10
241.40119919478178
 20
86.658302866248789
 11
280.00119919478169
 21
86.658302866248789
  0
LINE
  8
_0-2_製品
  6
CONTINUOUS
 62
    4
 10
280.00119919478169
 20
89.558302866249392
 11
241.90119919478178
 21
89.558302866249392
  0
TEXT
  8
_0-3_図面枠
 62
    7
 10
199.13645819478177
 20
126.65831186624911
 40
3
 41
0.8000000000000001
 50
0
  1
照明器具用吊りボルト（別途）
  0
LINE
  8
_0-2_製品
  6
CONTINUOUS
 62
    4
 10
191.37619919478169
 20
172.03451886624941
 11
158.15119919478178
 21
172.03451886624941
  0
LINE
  8
_0-2_製品
  6
CONTINUOUS
 62
    4
 10
158.15119919478178
 20
175.8345188662496
 11
190.50119919478169
 21
175.8345188662496
  0
LINE
  8
_0-2_製品
  6
CONTINUOUS
 62
    4
 10
195.00119919478169
 20
169.1345188662489
 11
137.00119919478166
 21
169.1345188662489
  0
LINE
  8
_0-2_製品
  6
CONTINUOUS
 62
    4
 10
137.00119919478166
 20
170.13451886624881
 11
195.00119919478169
 21
170.13451886624881
  0
LINE
  8
_0-2_製品
  6
CONTINUOUS
 62
    4
 10
195.00119919478169
 20
168.13451886624881
 11
137.00119919478166
 21
168.13451886624881
  0
LINE
  8
_0-3_図面枠
  6
CONTINUOUS
 62
    2
 10
171.8465791947819
 20
125.65830286624879
 11
183.88657919478186
 21
125.65830286624879
  0
TEXT
  8
_0-3_図面枠
 62
    7
 10
171.84662519478155
 20
126.65829686624951
 40
3
 41
0.8000000000000001
 50
0
  1
野縁受け
  0
TEXT
  8
_0-3_図面枠
 62
    7
 10
175.61855219478178
 20
116.658308866249
 40
3
 41
0.8000000000000001
 50
0
  1
野縁
  0
LINE
  8
_0-2_製品
  6
PLINE2
 62
    2
 10
185.10119919478154
 20
85.25830286624921
 11
182.60119919478154
 21
85.25830286624921
  0
LINE
  8
_0-2_製品
  6
PLINE2
 62
    2
 10
237.40119919478178
 20
88.25830286624921
 11
182.60119919478154
 21
88.25830286624921
  0
LINE
  8
_0-2_製品
  6
PLINE2
 62
    2
 10
241.40119919478178
 20
97.25830286624921
 11
178.60119919478154
 21
97.25830286624921
  0
LINE
  8
_0-2_製品
  6
PLINE2
 62
    2
 10
177.20119919478157
 20
84.858302866249602
 11
242.80119919478187
 21
84.858302866249602
  0
LINE
  8
_0-2_製品
  6
CONTINUOUS
 62
    4
 10
178.60119919478154
 20
85.658302866248789
 11
140.00119919478178
 21
85.658302866248789
  0
LINE
  8
_0-2_製品
  6
CONTINUOUS
 62
    4
 10
140.00119919478178
 20
87.658302866248789
 11
178.60119919478154
 21
87.658302866248789
  0
LINE
  8
_0-2_製品
  6
CONTINUOUS
 62
    4
 10
178.60119919478154
 20
86.658302866248789
 11
140.00119919478178
 21
86.658302866248789
  0
LINE
  8
_0-2_製品
  6
CONTINUOUS
 62
    4
 10
140.00119919478178
 20
89.558302866249392
 11
178.10119919478154
 21
89.558302866249392
  0
LINE
  8
_0-3_図面枠
  6
CONTINUOUS
 62
    2
 10
175.61852419478186
 20
115.65830286624879
 11
181.63852419478189
 21
115.65830286624879
  0
LINE
  8
_0-2_製品
  6
CONTINUOUS
 62
    2
 10
150.53504219478188
 20
99.958302866248999
 11
150.67619919478187
 21
99.8768048662495
  0
LINE
  8
_0-2_製品
  6
CONTINUOUS
 62
    2
 10
150.20119919478157
 20
99.8768048662495
 11
150.20119919478157
 21
99.158302866248789
  0
ARC
  8
_0-2_製品
  6
CONTINUOUS
 62
    2
 10
150.43033619478177
 20
99.595434866248809
 40
0.362868
 50
90
 51
129.15794499996929
  0
LINE
  8
_0-2_製品
  6
CONTINUOUS
 62
    2
 10
150.67619919478187
 20
99.8768048662495
 11
150.67619919478187
 21
99.158302866248789
  0
LINE
  8
_0-2_製品
  6
CONTINUOUS
 62
    2
 10
150.53504219478188
 20
98.158302866248789
 11
150.67619919478187
 21
98.239799866249001
  0
LINE
  8
_0-2_製品
  6
CONTINUOUS
 62
    2
 10
150.20119919478157
 20
98.239799866249001
 11
150.20119919478157
 21
98.958302866248999
  0
ARC
  8
_0-2_製品
  6
CONTINUOUS
 62
    2
 10
150.43033619478177
 20
98.521169866249608
 40
0.362868
 50
230.8420550000306
 51
270
  0
LINE
  8
_0-2_製品
  6
CONTINUOUS
 62
    2
 10
150.67619919478187
 20
98.239799866249001
 11
150.67619919478187
 21
98.958302866248999
  0
LINE
  8
_0-2_製品
  6
CONTINUOUS
 62
    2
 10
150.20119919478157
 20
96.658302866248789
 11
150.20119919478157
 21
98.158302866248789
  0
ARC
  8
_0-2_製品
  6
CONTINUOUS
 62
    2
 10
151.15119919478178
 20
98.808302866249392
 40
0.1499999999999999
 50
0
 51
90
  0
ARC
  8
_0-2_製品
  6
CONTINUOUS
 62
    2
 10
150.69698619478177
 20
98.3540888662491
 40
0.7269540000000001
 50
33.782171000009079
 51
56.217828999976923
  0
LINE
  8
_0-2_製品
  6
CONTINUOUS
 62
    2
 10
153.25819919478178
 20
94.35988186624931
 11
153.40277919478186
 21
94.215301866249206
  0
LINE
  8
_0-2_製品
  6
CONTINUOUS
 62
    2
 10
153.40277919478186
 20
94.215301866249206
 11
152.72886719478166
 21
93.777629866249214
  0
LINE
  8
_0-2_製品
  6
CONTINUOUS
 62
    2
 10
153.25819919478178
 20
94.35988186624931
 11
152.61993419478168
 21
93.945359866249305
  0
LINE
  8
_0-2_製品
  6
CONTINUOUS
 62
    2
 10
152.50975219478187
 20
93.198302866249691
 11
151.66119919478157
 21
93.198302866249691
  0
ARC
  8
_0-2_製品
  6
CONTINUOUS
 62
    2
 10
152.93726319478168
 20
92.690881866249498
 40
1.650447
 50
158.54347300002581
 51
172.43016699998569
  0
ARC
  8
_0-2_製品
  6
CONTINUOUS
 62
    2
 10
152.93726319478168
 20
94.425722866249004
 40
1.650447
 50
187.5698330000142
 51
201.45652699997413
  0
ARC
  8
_0-2_製品
  6
CONTINUOUS
 62
    2
 10
150.73084719478166
 20
93.558302866249392
 40
0.7203520000000001
 50
338.52689499997399
 51
21.473105000025935
  0
ARC
  8
_0-2_製品
  6
CONTINUOUS
 62
    2
 10
153.13726319478147
 20
92.690881866249498
 40
1.650447
 50
158.54347300002581
 51
172.43016699998569
  0
ARC
  8
_0-2_製品
  6
CONTINUOUS
 62
    2
 10
153.13726319478147
 20
94.425722866249004
 40
1.650447
 50
187.5698330000142
 51
201.45652699997413
  0
ARC
  8
_0-2_製品
  6
CONTINUOUS
 62
    2
 10
150.93084719478156
 20
93.558302866249392
 40
0.7203520000000001
 50
338.52689499997399
 51
21.473105000025935
  0
LINE
  8
_0-2_製品
  6
CONTINUOUS
 62
    2
 10
152.50119919478178
 20
93.358302866249602
 11
151.62287919478186
 21
93.358302866249602
  0
ARC
  8
_0-2_製品
  6
CONTINUOUS
 62
    2
 10
153.00119919478166
 20
93.358302866249602
 40
0.6999999999999999
 50
123.0017439999841
 51
180
  0
ARC
  8
_0-2_製品
  6
CONTINUOUS
 62
    2
 10
153.00119919478166
 20
93.358302866249602
 40
0.5
 50
123.00174500001282
 51
180
  0
ARC
  8
_0-2_製品
  6
CONTINUOUS
 62
    2
 10
152.96457519478187
 20
93.513374866249109
 40
0.3499999999999999
 50
123.05336499999291
 51
206.29588999996841
  0
LINE
  8
_0-2_製品
  6
CONTINUOUS
 62
    2
 10
151.30119919478187
 20
98.808302866249392
 11
151.30119919478187
 21
94.208302866248999
  0
LINE
  8
_0-2_製品
  6
CONTINUOUS
 62
    2
 10
151.50119919478166
 20
98.808302866249392
 11
151.50119919478166
 21
94.208302866248999
  0
ARC
  8
_0-2_製品
  6
CONTINUOUS
 62
    2
 10
151.15119919478178
 20
98.808302866249392
 40
0.3499999999999999
 50
0
 51
90
  0
ARC
  8
_0-2_製品
  6
CONTINUOUS
 62
    2
 10
149.02206319478177
 20
99.595434866248809
 40
0.362868
 50
50.842055000030633
 51
90
  0
LINE
  8
_0-2_製品
  6
CONTINUOUS
 62
    2
 10
148.77619919478178
 20
99.8768048662495
 11
148.77619919478178
 21
99.158302866248789
  0
LINE
  8
_0-2_製品
  6
CONTINUOUS
 62
    2
 10
148.77619919478178
 20
99.8768048662495
 11
148.91735719478166
 21
99.958302866248999
  0
LINE
  8
_0-2_製品
  6
CONTINUOUS
 62
    2
 10
149.25119919478166
 20
99.158302866248789
 11
149.25119919478166
 21
99.8768048662495
  0
ARC
  8
_0-2_製品
  6
CONTINUOUS
 62
    2
 10
149.02206319478177
 20
98.521169866249608
 40
0.362868
 50
270
 51
309.15794499996929
  0
LINE
  8
_0-2_製品
  6
CONTINUOUS
 62
    2
 10
148.77619919478178
 20
98.239799866249001
 11
148.77619919478178
 21
98.958302866248999
  0
LINE
  8
_0-2_製品
  6
CONTINUOUS
 62
    2
 10
148.77619919478178
 20
98.239799866249001
 11
148.91735719478166
 21
98.158302866248789
  0
LINE
  8
_0-2_製品
  6
CONTINUOUS
 62
    2
 10
149.25119919478166
 20
98.958302866248999
 11
149.25119919478166
 21
98.239799866249001
  0
LINE
  8
_0-2_製品
  6
CONTINUOUS
 62
    2
 10
149.25119919478166
 20
98.158302866248789
 11
149.25119919478166
 21
96.658302866248789
  0
LINE
  8
_0-2_製品
  6
CONTINUOUS
 62
    2
 10
148.30119919478187
 20
99.158302866248789
 11
148.30119919478187
 21
98.958302866248999
  0
ARC
  8
_0-2_製品
  6
CONTINUOUS
 62
    2
 10
149.72619919478157
 20
99.583302866248999
 40
1.425
 50
250.52877899999663
 51
289.47122100000331
  0
LINE
  8
_0-2_製品
  6
CONTINUOUS
 62
    2
 10
148.91735719478166
 20
98.158302866248789
 11
150.53504219478188
 21
98.158302866248789
  0
ARC
  8
_0-2_製品
  6
CONTINUOUS
 62
    2
 10
149.72619919478157
 20
98.533302866248789
 40
1.425
 50
70.528778999996675
 51
109.4712210000033
  0
LINE
  8
_0-2_製品
  6
CONTINUOUS
 62
    2
 10
148.91735719478166
 20
99.958302866248999
 11
150.53504219478188
 21
99.958302866248999
  0
LINE
  8
_0-2_製品
  6
CONTINUOUS
 62
    2
 10
149.25119919478166
 20
96.658302866248789
 11
150.20119919478157
 21
96.658302866248789
  0
LINE
  8
_0-2_製品
  6
CONTINUOUS
 62
    2
 10
148.30119919478187
 20
99.158302866248789
 11
151.15119919478178
 21
99.158302866248789
  0
LINE
  8
_0-2_製品
  6
CONTINUOUS
 62
    2
 10
148.30119919478187
 20
98.958302866248999
 11
151.15119919478178
 21
98.958302866248999
  0
LINE
  8
_0-2_製品
  6
PLINE3
 62
    2
 10
149.72619919478157
 20
96.658302866248789
 11
149.72619919478157
 21
117.25830286624921
  0
LINE
  8
_0-2_製品
  6
CONTINUOUS
 62
    2
 10
149.25119919478166
 20
99.958302866248999
 11
149.25119919478166
 21
117.25830286624921
  0
LINE
  8
_0-2_製品
  6
CONTINUOUS
 62
    2
 10
150.20119919478157
 20
117.25830286624921
 11
150.20119919478157
 21
99.958302866248999
  0
LINE
  8
_0-2_製品
  6
PLINE2
 62
    2
 10
182.60119919478154
 20
88.25830286624921
 11
182.60119919478154
 21
85.25830286624921
  0
LINE
  8
_0-2_製品
  6
CONTINUOUS
 62
    4
 10
178.60119919478154
 20
87.658302866248789
 11
178.60119919478154
 21
85.658302866248789
  0
LINE
  8
_0-2_製品
  6
PLINE2
 62
    2
 10
177.20119919478157
 20
84.858302866249602
 11
177.20119919478157
 21
85.658302866248789
  0
LINE
  8
_0-2_製品
  6
PLINE2
 62
    2
 10
177.20119919478157
 20
84.858302866249602
 11
177.20119919478157
 21
85.658302866248789
  0
LINE
  8
_0-2_製品
  6
CONTINUOUS
 62
    4
 10
178.10119919478154
 20
89.558302866249392
 11
178.10119919478154
 21
87.658302866248789
  0
LINE
  8
_0-2_製品
  6
PLINE2
 62
    2
 10
182.60119919478154
 20
85.658302866248789
 11
178.60119919478154
 21
85.658302866248789
  0
CIRCLE
  8
_0-3_図面枠
  6
CONTINUOUS
 62
    2
 10
160.00119919478169
 20
88.608302866249517
 40
0.2999999999999999
  0
LINE
  8
_0-2_製品
  6
CONTINUOUS
 62
    2
 10
152.70119919478157
 20
89.718302866249189
 11
152.70119919478157
 21
89.564652866248991
  0
ARC
  8
_0-2_製品
  6
CONTINUOUS
 62
    2
 10
152.65119919478178
 20
89.75830286624921
 40
0.4
 50
270
 51
0
  0
LINE
  8
_0-2_製品
  6
CONTINUOUS
 62
    2
 10
153.05119919478187
 20
89.75830286624921
 11
153.05119919478187
 21
91.808302866249392
  0
LINE
  8
_0-2_製品
  6
CONTINUOUS
 62
    2
 10
152.85119919478157
 20
89.75830286624921
 11
152.85119919478157
 21
91.808302866249392
  0
ARC
  8
_0-2_製品
  6
CONTINUOUS
 62
    2
 10
152.65119919478178
 20
89.75830286624921
 40
0.2
 50
270
 51
0
  0
ARC
  8
_0-2_製品
  6
CONTINUOUS
 62
    2
 10
151.70119919478148
 20
89.75830286624921
 40
0.4
 50
180
 51
270
  0
ARC
  8
_0-2_製品
  6
CONTINUOUS
 62
    2
 10
151.70119919478148
 20
89.75830286624921
 40
0.2
 50
180
 51
270
  0
CIRCLE
  8
_0-3_図面枠
  6
CONTINUOUS
 62
    2
 10
152.10119919478166
 20
91.458302866248999
 40
0.2999999999999999
  0
LINE
  8
_0-2_製品
  6
CONTINUOUS
 62
    2
 10
151.66119919478157
 20
89.718302866249189
 11
152.70119919478157
 21
89.718302866249189
  0
LINE
  8
_0-2_製品
  6
CONTINUOUS
 62
    2
 10
151.70119919478148
 20
89.358302866249517
 11
152.65119919478178
 21
89.358302866249517
  0
LINE
  8
_0-2_製品
  6
CONTINUOUS
 62
    2
 10
152.65119919478178
 20
89.558302866249392
 11
151.70119919478148
 21
89.558302866249392
  0
LINE
  8
_0-2_製品
  6
CONTINUOUS
 62
    2
 10
151.66119919478157
 20
93.198302866249691
 11
151.66119919478157
 21
89.718302866249189
  0
ARC
  8
_0-2_製品
  6
CONTINUOUS
 62
    2
 10
149.85119919478157
 20
91.808302866249392
 40
3.2000000000000002
 50
0
 51
28.971531999992614
  0
ARC
  8
_0-2_製品
  6
CONTINUOUS
 62
    2
 10
149.85119919478157
 20
91.808302866249392
 40
3
 50
0
 51
31.108922999969469
  0
LINE
  8
_0-2_製品
  6
CONTINUOUS
 62
    2
 10
151.30119919478187
 20
92.908302866248789
 11
151.30119919478187
 21
89.75830286624921
  0
LINE
  8
_0-2_製品
  6
CONTINUOUS
 62
    2
 10
151.50119919478166
 20
92.908302866248789
 11
151.50119919478166
 21
89.75830286624921
  0
LINE
  8
_0-3_図面枠
  6
CONTINUOUS
 62
    2
 10
152.10119919478166
 20
91.458302866248999
 11
171.8465791947819
 21
125.65830286624879
  0
LINE
  8
_0-3_図面枠
  6
CONTINUOUS
 62
    2
 10
160.00119919478169
 20
88.608302866249517
 11
175.61852419478186
 21
115.65830286624879
  0
LINE
  8
_0-2_製品
  6
PLINE2
 62
    2
 10
178.60119919478154
 20
97.25830286624921
 11
178.60119919478154
 21
87.658302866248789
  0
LINE
  8
_0-2_製品
  6
CONTINUOUS
 62
    4
 10
137.00119919478166
 20
172.03451886624941
 11
146.37619919478166
 21
172.03451886624941
  0
LINE
  8
_0-2_製品
  6
CONTINUOUS
 62
    4
 10
145.50119919478166
 20
175.8345188662496
 11
137.00119919478166
 21
175.8345188662496
  0
LINE
  8
_0-2_製品
  6
CONTINUOUS
 62
    4
 10
155.85119919478157
 20
181.6345188662489
 11
158.15119919478178
 21
181.6345188662489
  0
LINE
  8
_0-2_製品
  6
CONTINUOUS
 62
    4
 10
157.47619919478166
 20
181.6345188662489
 11
157.47619919478166
 21
199.7345188662492
  0
LINE
  8
_0-2_製品
  6
CONTINUOUS
 62
    4
 10
156.52619919478178
 20
199.7345188662492
 11
156.52619919478178
 21
181.6345188662489
  0
LINE
  8
_0-2_製品
  6
PLINE3
 62
    2
 10
157.00119919478169
 20
181.6345188662489
 11
157.00119919478169
 21
199.7345188662492
  0
LINE
  8
_0-2_製品
  6
CONTINUOUS
 62
    2
 10
155.85119919478157
 20
175.93451886624899
 11
158.15119919478178
 21
175.93451886624899
  0
LINE
  8
_0-2_製品
  6
CONTINUOUS
 62
    4
 10
158.15119919478178
 20
171.8345188662496
 11
155.85119919478157
 21
171.8345188662496
  0
LINE
  8
_0-2_製品
  6
CONTINUOUS
 62
    2
 10
148.50119919478178
 20
175.894518866249
 11
148.50119919478178
 21
175.8345188662496
  0
LINE
  8
_0-2_製品
  6
CONTINUOUS
 62
    2
 10
145.50119919478166
 20
175.8345188662496
 11
145.50119919478166
 21
175.894518866249
  0
LINE
  8
_0-2_製品
  6
CONTINUOUS
 62
    2
 10
145.50119919478166
 20
175.894518866249
 11
148.50119919478178
 21
175.894518866249
  0
LINE
  8
_0-2_製品
  6
CONTINUOUS
 62
    2
 10
148.50119919478178
 20
173.31451886624922
 11
147.62619919478166
 21
172.99604486624949
  0
LINE
  8
_0-2_製品
  6
CONTINUOUS
 62
    2
 10
147.62619919478166
 20
171.76451886624889
 11
147.62619919478166
 21
172.99604486624949
  0
ARC
  8
_0-2_製品
  6
CONTINUOUS
 62
    2
 10
147.77619919478178
 20
171.76451886624889
 40
0.1499999999999999
 50
180
 51
344.32172399999808
  0
ARC
  8
_0-2_製品
  6
CONTINUOUS
 62
    2
 10
148.10119919478166
 20
171.88451886624881
 40
0.1
 50
0
 51
90
  0
LINE
  8
_0-2_製品
  6
CONTINUOUS
 62
    2
 10
148.10119919478166
 20
171.9845188662492
 11
148.00119919478166
 21
171.9845188662492
  0
ARC
  8
_0-2_製品
  6
CONTINUOUS
 62
    2
 10
148.00119919478166
 20
171.88451886624881
 40
0.1
 50
90
 51
180
  0
LINE
  8
_0-2_製品
  6
CONTINUOUS
 62
    2
 10
147.90119919478178
 20
171.88451886624881
 11
147.90119919478178
 21
171.7345188662492
  0
LINE
  8
_0-2_製品
  6
CONTINUOUS
 62
    2
 10
147.90119919478178
 20
171.7345188662492
 11
147.85119919478157
 21
171.7345188662492
  0
LINE
  8
_0-2_製品
  6
CONTINUOUS
 62
    2
 10
147.85119919478157
 20
171.7345188662492
 11
147.85119919478157
 21
171.88451886624881
  0
ARC
  8
_0-2_製品
  6
CONTINUOUS
 62
    2
 10
148.00119919478166
 20
171.88451886624881
 40
0.1499999999999999
 50
90
 51
180
  0
ARC
  8
_0-2_製品
  6
CONTINUOUS
 62
    2
 10
148.10119919478166
 20
171.88451886624881
 40
0.1499999999999999
 50
0
 51
90
  0
LINE
  8
_0-2_製品
  6
CONTINUOUS
 62
    2
 10
147.92061919478186
 20
171.72398386624891
 11
147.99374519478167
 21
171.9845188662492
  0
LINE
  8
_0-2_製品
  6
CONTINUOUS
 62
    2
 10
145.50119919478166
 20
173.31451886624922
 11
146.37619919478166
 21
172.99604486624949
  0
LINE
  8
_0-2_製品
  6
CONTINUOUS
 62
    2
 10
146.37619919478166
 20
171.76451886624889
 11
146.37619919478166
 21
172.99604486624949
  0
ARC
  8
_0-2_製品
  6
CONTINUOUS
 62
    2
 10
146.22619919478157
 20
171.76451886624889
 40
0.1499999999999999
 50
195.6782760000018
 51
0
  0
ARC
  8
_0-2_製品
  6
CONTINUOUS
 62
    2
 10
145.90119919478178
 20
171.88451886624881
 40
0.1
 50
90
 51
180
  0
LINE
  8
_0-2_製品
  6
CONTINUOUS
 62
    2
 10
145.90119919478178
 20
171.9845188662492
 11
146.00119919478166
 21
171.9845188662492
  0
ARC
  8
_0-2_製品
  6
CONTINUOUS
 62
    2
 10
146.00119919478166
 20
171.88451886624881
 40
0.1
 50
0
 51
90
  0
LINE
  8
_0-2_製品
  6
CONTINUOUS
 62
    2
 10
146.10119919478166
 20
171.88451886624881
 11
146.10119919478166
 21
171.7345188662492
  0
LINE
  8
_0-2_製品
  6
CONTINUOUS
 62
    2
 10
146.10119919478166
 20
171.7345188662492
 11
146.15119919478178
 21
171.7345188662492
  0
LINE
  8
_0-2_製品
  6
CONTINUOUS
 62
    2
 10
146.15119919478178
 20
171.7345188662492
 11
146.15119919478178
 21
171.88451886624881
  0
ARC
  8
_0-2_製品
  6
CONTINUOUS
 62
    2
 10
146.00119919478166
 20
171.88451886624881
 40
0.1499999999999999
 50
0
 51
90
  0
ARC
  8
_0-2_製品
  6
CONTINUOUS
 62
    2
 10
145.90119919478178
 20
171.88451886624881
 40
0.1499999999999999
 50
90
 51
180
  0
LINE
  8
_0-2_製品
  6
CONTINUOUS
 62
    2
 10
146.08178019478186
 20
171.72398386624891
 11
146.00865419478166
 21
171.9845188662492
  0
LINE
  8
_0-2_製品
  6
CONTINUOUS
 62
    2
 10
145.50119919478166
 20
175.8345188662496
 11
145.50119919478166
 21
173.31451886624922
  0
LINE
  8
_0-2_製品
  6
CONTINUOUS
 62
    2
 10
148.50119919478178
 20
175.8345188662496
 11
148.50119919478178
 21
173.31451886624922
  0
LINE
  8
_0-2_製品
  6
CONTINUOUS
 62
    2
 10
147.75119919478166
 20
170.2345188662492
 11
147.60119919478157
 21
170.18451886624899
  0
LINE
  8
_0-2_製品
  6
CONTINUOUS
 62
    2
 10
147.60119919478157
 20
170.18451886624899
 11
147.45119919478148
 21
170.2345188662492
  0
LINE
  8
_0-2_製品
  6
CONTINUOUS
 62
    2
 10
147.45119919478148
 20
170.2345188662492
 11
147.30119919478187
 21
170.18451886624899
  0
LINE
  8
_0-2_製品
  6
CONTINUOUS
 62
    2
 10
147.85119919478157
 20
170.13451886624881
 11
147.75119919478166
 21
170.18451886624899
  0
LINE
  8
_0-2_製品
  6
CONTINUOUS
 62
    2
 10
147.75119919478166
 20
170.18451886624899
 11
147.60119919478157
 21
170.13451886624881
  0
LINE
  8
_0-2_製品
  6
CONTINUOUS
 62
    2
 10
147.60119919478157
 20
170.13451886624881
 11
147.45119919478148
 21
170.18451886624899
  0
LINE
  8
_0-2_製品
  6
CONTINUOUS
 62
    2
 10
147.45119919478148
 20
170.18451886624899
 11
147.30119919478187
 21
170.13451886624881
  0
ARC
  8
_0-2_製品
  6
CONTINUOUS
 62
    2
 10
147.92619919478187
 20
171.36451886624931
 40
0.2
 50
270
 51
0
  0
ARC
  8
_0-2_製品
  6
CONTINUOUS
 62
    2
 10
147.95119919478157
 20
170.43451886624899
 40
0.2999999999999999
 50
270
 51
0
  0
ARC
  8
_0-2_製品
  6
CONTINUOUS
 62
    2
 10
147.95119919478157
 20
170.43451886624899
 40
0.25
 50
270
 51
0
  0
LINE
  8
_0-2_製品
  6
CONTINUOUS
 62
    2
 10
147.85119919478157
 20
170.18451886624899
 11
147.75119919478166
 21
170.2345188662492
  0
LINE
  8
_0-2_製品
  6
CONTINUOUS
 62
    2
 10
147.95119919478157
 20
170.13451886624881
 11
147.85119919478157
 21
170.13451886624881
  0
LINE
  8
_0-2_製品
  6
CONTINUOUS
 62
    2
 10
147.95119919478157
 20
170.18451886624899
 11
147.85119919478157
 21
170.18451886624899
  0
ARC
  8
_0-2_製品
  6
CONTINUOUS
 62
    2
 10
146.07619919478148
 20
171.36451886624931
 40
0.2
 50
180
 51
270
  0
LINE
  8
_0-2_製品
  6
CONTINUOUS
 62
    2
 10
146.15119919478178
 20
170.18451886624899
 11
146.25119919478178
 21
170.2345188662492
  0
LINE
  8
_0-2_製品
  6
CONTINUOUS
 62
    2
 10
146.25119919478178
 20
170.2345188662492
 11
146.40119919478178
 21
170.18451886624899
  0
LINE
  8
_0-2_製品
  6
CONTINUOUS
 62
    2
 10
146.40119919478178
 20
170.18451886624899
 11
146.55119919478187
 21
170.2345188662492
  0
LINE
  8
_0-2_製品
  6
CONTINUOUS
 62
    2
 10
146.55119919478187
 20
170.2345188662492
 11
146.70119919478148
 21
170.18451886624899
  0
LINE
  8
_0-2_製品
  6
CONTINUOUS
 62
    2
 10
146.70119919478148
 20
170.18451886624899
 11
146.85119919478157
 21
170.2345188662492
  0
LINE
  8
_0-2_製品
  6
CONTINUOUS
 62
    2
 10
146.85119919478157
 20
170.2345188662492
 11
147.00119919478166
 21
170.18451886624899
  0
LINE
  8
_0-2_製品
  6
CONTINUOUS
 62
    2
 10
146.15119919478178
 20
170.13451886624881
 11
146.25119919478178
 21
170.18451886624899
  0
LINE
  8
_0-2_製品
  6
CONTINUOUS
 62
    2
 10
146.25119919478178
 20
170.18451886624899
 11
146.40119919478178
 21
170.13451886624881
  0
LINE
  8
_0-2_製品
  6
CONTINUOUS
 62
    2
 10
146.40119919478178
 20
170.13451886624881
 11
146.55119919478187
 21
170.18451886624899
  0
LINE
  8
_0-2_製品
  6
CONTINUOUS
 62
    2
 10
146.55119919478187
 20
170.18451886624899
 11
146.70119919478148
 21
170.13451886624881
  0
LINE
  8
_0-2_製品
  6
CONTINUOUS
 62
    2
 10
146.70119919478148
 20
170.13451886624881
 11
146.85119919478157
 21
170.18451886624899
  0
LINE
  8
_0-2_製品
  6
CONTINUOUS
 62
    2
 10
146.85119919478157
 20
170.18451886624899
 11
147.00119919478166
 21
170.13451886624881
  0
ARC
  8
_0-2_製品
  6
CONTINUOUS
 62
    2
 10
146.05119919478187
 20
170.43451886624899
 40
0.2999999999999999
 50
180
 51
270
  0
LINE
  8
_0-2_製品
  6
CONTINUOUS
 62
    2
 10
146.05119919478187
 20
170.13451886624881
 11
146.15119919478178
 21
170.13451886624881
  0
ARC
  8
_0-2_製品
  6
CONTINUOUS
 62
    2
 10
146.05119919478187
 20
170.43451886624899
 40
0.25
 50
180
 51
270
  0
LINE
  8
_0-2_製品
  6
CONTINUOUS
 62
    2
 10
146.05119919478187
 20
170.18451886624899
 11
146.15119919478178
 21
170.18451886624899
  0
LINE
  8
_0-2_製品
  6
CONTINUOUS
 62
    2
 10
147.15119919478178
 20
170.2345188662492
 11
147.00119919478166
 21
170.18451886624899
  0
LINE
  8
_0-2_製品
  6
CONTINUOUS
 62
    2
 10
147.15119919478178
 20
170.18451886624899
 11
147.00119919478166
 21
170.13451886624881
  0
LINE
  8
_0-2_製品
  6
CONTINUOUS
 62
    2
 10
147.30119919478187
 20
170.18451886624899
 11
147.15119919478178
 21
170.2345188662492
  0
LINE
  8
_0-2_製品
  6
CONTINUOUS
 62
    2
 10
147.30119919478187
 20
170.13451886624881
 11
147.15119919478178
 21
170.18451886624899
  0
LINE
  8
_0-2_製品
  6
CONTINUOUS
 62
    2
 10
147.92619919478187
 20
171.16451886624949
 11
146.07619919478148
 21
171.16451886624949
  0
LINE
  8
_0-2_製品
  6
CONTINUOUS
 62
    2
 10
145.75119919478166
 20
170.43451886624899
 11
145.75119919478166
 21
171.88451886624881
  0
LINE
  8
_0-2_製品
  6
CONTINUOUS
 62
    2
 10
145.80119919478187
 20
170.43451886624899
 11
145.80119919478187
 21
171.88451886624881
  0
LINE
  8
_0-2_製品
  6
CONTINUOUS
 62
    2
 10
145.87619919478166
 20
171.36451886624931
 11
145.87619919478166
 21
171.9813438662494
  0
LINE
  8
_0-2_製品
  6
CONTINUOUS
 62
    2
 10
148.25119919478178
 20
170.43451886624899
 11
148.25119919478178
 21
171.88451886624881
  0
LINE
  8
_0-2_製品
  6
CONTINUOUS
 62
    2
 10
148.20119919478157
 20
170.43451886624899
 11
148.20119919478157
 21
171.88451886624881
  0
LINE
  8
_0-2_製品
  6
CONTINUOUS
 62
    2
 10
148.12619919478166
 20
171.36451886624931
 11
148.12619919478166
 21
171.9813438662494
  0
LINE
  8
_0-2_製品
  6
PLINE3
 62
    2
 10
147.00119919478166
 20
176.24951886624962
 11
147.00119919478166
 21
168.13451886624881
  0
LINE
  8
_0-2_製品
  6
CONTINUOUS
 62
    4
 10
155.85119919478157
 20
172.03451886624941
 11
147.62619919478166
 21
172.03451886624941
  0
LINE
  8
_0-2_製品
  6
CONTINUOUS
 62
    4
 10
148.50119919478178
 20
175.8345188662496
 11
155.85119919478157
 21
175.8345188662496
  0
LINE
  8
_0-2_製品
  6
CONTINUOUS
 62
    4
 10
155.85119919478157
 20
171.8345188662496
 11
155.85119919478157
 21
181.6345188662489
  0
LINE
  8
_0-2_製品
  6
CONTINUOUS
 62
    4
 10
158.15119919478178
 20
181.6345188662489
 11
158.15119919478178
 21
171.8345188662496
  0
LINE
  8
_0-2_製品
  6
PLINE2
 62
    2
 10
234.90119919478178
 20
88.058302866249392
 11
185.10119919478154
 21
88.058302866249392
  0
LINE
  8
_0-2_製品
  6
PLINE2
 62
    2
 10
185.12575019478157
 20
85.058302866249392
 11
234.90119919478178
 21
85.058302866249392
  0
LINE
  8
_0-3_図面枠
  6
CONTINUOUS
 62
    2
 10
199.1364531947815
 20
125.65830286624879
 11
241.27645319478188
 21
125.65830286624879
  0
ARC
  8
_0-2_製品
  6
CONTINUOUS
 62
    2
 10
210.00119919478169
 20
98.533302866248789
 40
1.425
 50
70.528778999996675
 51
109.4712210000033
  0
ARC
  8
_0-2_製品
  6
CONTINUOUS
 62
    2
 10
209.29706319478186
 20
99.595434866248809
 40
0.362868
 50
50.842055000030633
 51
90
  0
LINE
  8
_0-2_製品
  6
CONTINUOUS
 62
    2
 10
209.05119919478187
 20
99.8768048662495
 11
209.05119919478187
 21
99.158302866248789
  0
LINE
  8
_0-2_製品
  6
CONTINUOUS
 62
    2
 10
209.05119919478187
 20
99.8768048662495
 11
209.19235719478178
 21
99.958302866248999
  0
LINE
  8
_0-2_製品
  6
CONTINUOUS
 62
    2
 10
209.19235719478178
 20
99.958302866248999
 11
210.81004219478149
 21
99.958302866248999
  0
LINE
  8
_0-2_製品
  6
CONTINUOUS
 62
    2
 10
210.81004219478149
 20
99.958302866248999
 11
210.95119919478157
 21
99.8768048662495
  0
LINE
  8
_0-2_製品
  6
CONTINUOUS
 62
    2
 10
210.47619919478154
 20
99.8768048662495
 11
210.47619919478154
 21
99.158302866248789
  0
LINE
  8
_0-2_製品
  6
CONTINUOUS
 62
    2
 10
209.52619919478178
 20
99.158302866248789
 11
209.52619919478178
 21
99.8768048662495
  0
ARC
  8
_0-2_製品
  6
CONTINUOUS
 62
    2
 10
210.70533619478186
 20
99.595434866248809
 40
0.362868
 50
90
 51
129.15794499996929
  0
LINE
  8
_0-2_製品
  6
CONTINUOUS
 62
    2
 10
210.95119919478157
 20
99.8768048662495
 11
210.95119919478157
 21
99.158302866248789
  0
LINE
  8
_0-2_製品
  6
CONTINUOUS
 62
    2
 10
211.15119919478178
 20
99.158302866248789
 11
209.00119919478169
 21
99.158302866248789
  0
LINE
  8
_0-2_製品
  6
CONTINUOUS
 62
    2
 10
211.30119919478187
 20
98.808302866249392
 11
211.30119919478187
 21
97.25830286624921
  0
LINE
  8
_0-2_製品
  6
CONTINUOUS
 62
    2
 10
211.50119919478169
 20
98.808302866249392
 11
211.50119919478169
 21
97.25830286624921
  0
ARC
  8
_0-2_製品
  6
CONTINUOUS
 62
    2
 10
211.15119919478178
 20
98.808302866249392
 40
0.1499999999999999
 50
0
 51
90
  0
ARC
  8
_0-2_製品
  6
CONTINUOUS
 62
    2
 10
210.69698619478186
 20
98.3540888662491
 40
0.7269540000000001
 50
33.782171000009079
 51
56.217828999976923
  0
LINE
  8
_0-2_製品
  6
CONTINUOUS
 62
    2
 10
210.47619919478154
 20
97.25830286624921
 11
210.47619919478154
 21
98.158302866248789
  0
LINE
  8
_0-2_製品
  6
CONTINUOUS
 62
    2
 10
209.52619919478178
 20
98.158302866248789
 11
209.52619919478178
 21
97.25830286624921
  0
ARC
  8
_0-2_製品
  6
CONTINUOUS
 62
    2
 10
210.00119919478169
 20
99.583302866248999
 40
1.425
 50
250.52877899999663
 51
289.47122100000331
  0
ARC
  8
_0-2_製品
  6
CONTINUOUS
 62
    2
 10
209.29706319478186
 20
98.521169866249608
 40
0.362868
 50
270
 51
309.15794499996929
  0
LINE
  8
_0-2_製品
  6
CONTINUOUS
 62
    2
 10
209.05119919478187
 20
98.239799866249001
 11
209.05119919478187
 21
98.958302866248999
  0
LINE
  8
_0-2_製品
  6
CONTINUOUS
 62
    2
 10
209.05119919478187
 20
98.239799866249001
 11
209.19235719478178
 21
98.158302866248789
  0
LINE
  8
_0-2_製品
  6
CONTINUOUS
 62
    2
 10
209.19235719478178
 20
98.158302866248789
 11
210.81004219478149
 21
98.158302866248789
  0
LINE
  8
_0-2_製品
  6
CONTINUOUS
 62
    2
 10
210.81004219478149
 20
98.158302866248789
 11
210.95119919478157
 21
98.239799866249001
  0
LINE
  8
_0-2_製品
  6
CONTINUOUS
 62
    2
 10
210.47619919478154
 20
98.239799866249001
 11
210.47619919478154
 21
98.958302866248999
  0
LINE
  8
_0-2_製品
  6
CONTINUOUS
 62
    2
 10
209.52619919478178
 20
98.958302866248999
 11
209.52619919478178
 21
98.239799866249001
  0
ARC
  8
_0-2_製品
  6
CONTINUOUS
 62
    2
 10
210.70533619478186
 20
98.521169866249608
 40
0.362868
 50
230.8420550000306
 51
270
  0
LINE
  8
_0-2_製品
  6
CONTINUOUS
 62
    2
 10
210.95119919478157
 20
98.239799866249001
 11
210.95119919478157
 21
98.958302866248999
  0
LINE
  8
_0-2_製品
  6
CONTINUOUS
 62
    2
 10
211.15119919478178
 20
98.958302866248999
 11
209.00119919478169
 21
98.958302866248999
  0
ARC
  8
_0-2_製品
  6
CONTINUOUS
 62
    2
 10
211.15119919478178
 20
98.808302866249392
 40
0.3499999999999999
 50
0
 51
90
  0
LINE
  8
_0-2_製品
  6
CONTINUOUS
 62
    2
 10
209.00119919478169
 20
99.158302866248789
 11
209.00119919478169
 21
98.958302866248999
  0
LINE
  8
_0-2_製品
  6
PLINE3
 62
    2
 10
210.00119919478169
 20
97.25830286624921
 11
210.00119919478169
 21
117.25830286624921
  0
LINE
  8
_0-2_製品
  6
CONTINUOUS
 62
    2
 10
209.52619919478178
 20
99.958302866248999
 11
209.52619919478178
 21
117.25830286624921
  0
LINE
  8
_0-2_製品
  6
CONTINUOUS
 62
    2
 10
210.47619919478154
 20
117.25830286624921
 11
210.47619919478154
 21
99.958302866248999
  0
CIRCLE
  8
_0-3_図面枠
  6
CONTINUOUS
 62
    2
 10
190.47619919478154
 20
110.65830286624879
 40
0.2999999999999999
  0
LINE
  8
_0-2_製品
  6
PLINE2
 62
    2
 10
189.52619919478178
 20
117.25830286624921
 11
189.52619919478178
 21
97.25830286624921
  0
LINE
  8
_0-2_製品
  6
PLINE2
 62
    2
 10
190.47619919478154
 20
97.25830286624921
 11
190.47619919478154
 21
117.25830286624921
  0
LINE
  8
_0-3_図面枠
  6
CONTINUOUS
 62
    2
 10
190.47619919478154
 20
110.65830286624879
 11
199.1364531947815
 21
125.65830286624879
  0
LINE
  8
_0-2_製品
  6
PLINE2
 62
    2
 10
185.10119919478154
 20
88.058302866249392
 11
185.10119919478154
 21
85.058302866249392
  0
LINE
  8
_0-2_製品
  6
PLINE2
 62
    2
 10
184.10119919478154
 20
88.25830286624921
 11
184.10119919478154
 21
85.25830286624921
  0
LINE
  8
_0-2_製品
  6
PLINE2
 62
    2
 10
185.10119919478154
 20
87.858302866249602
 11
184.10119919478154
 21
87.858302866249602
  0
LINE
  8
_0-2_製品
  6
PLINE2
 62
    2
 10
230.47619919478166
 20
117.25830286624921
 11
230.47619919478166
 21
97.25830286624921
  0
LINE
  8
_0-2_製品
  6
PLINE2
 62
    2
 10
229.52619919478178
 20
97.25830286624921
 11
229.52619919478178
 21
117.25830286624921
  0
LINE
  8
_0-2_製品
  6
CONTINUOUS
 62
    4
 10
241.40119919478178
 20
87.658302866248789
 11
241.40119919478178
 21
85.658302866248789
  0
LINE
  8
_0-2_製品
  6
PLINE2
 62
    2
 10
242.80119919478187
 20
84.858302866249602
 11
242.80119919478187
 21
85.658302866248789
  0
LINE
  8
_0-2_製品
  6
PLINE2
 62
    2
 10
242.80119919478187
 20
84.858302866249602
 11
242.80119919478187
 21
85.658302866248789
  0
LINE
  8
_0-2_製品
  6
CONTINUOUS
 62
    4
 10
241.90119919478178
 20
89.558302866249392
 11
241.90119919478178
 21
87.658302866248789
  0
LINE
  8
_0-2_製品
  6
PLINE2
 62
    2
 10
237.40119919478178
 20
85.25830286624921
 11
237.40119919478178
 21
88.25830286624921
  0
LINE
  8
_0-2_製品
  6
PLINE2
 62
    2
 10
235.90119919478178
 20
88.25830286624921
 11
235.90119919478178
 21
85.25830286624921
  0
LINE
  8
_0-2_製品
  6
PLINE2
 62
    2
 10
237.40119919478178
 20
85.658302866248789
 11
241.40119919478178
 21
85.658302866248789
  0
LINE
  8
_0-2_製品
  6
PLINE2
 62
    2
 10
234.90119919478178
 20
85.058302866249392
 11
234.90119919478178
 21
88.058302866249392
  0
LINE
  8
_0-2_製品
  6
PLINE2
 62
    2
 10
234.90119919478178
 20
85.25830286624921
 11
237.40119919478178
 21
85.25830286624921
  0
LINE
  8
_0-2_製品
  6
PLINE2
 62
    2
 10
234.90119919478178
 20
87.858302866249602
 11
235.90119919478178
 21
87.858302866249602
  0
LINE
  8
_0-2_製品
  6
PLINE2
 62
    2
 10
241.40119919478178
 20
97.25830286624921
 11
241.40119919478178
 21
87.658302866248789
  0
LINE
  8
_0-2_製品
  6
PLINE2
 62
    2
 10
225.00119919478169
 20
168.13451886624881
 11
221.00119919478169
 21
168.13451886624881
  0
LINE
  8
_0-2_製品
  6
PLINE2
 62
    2
 10
220.00119919478169
 20
179.7345188662492
 11
225.00119919478169
 21
174.7345188662492
  0
LINE
  8
_0-2_製品
  6
PLINE2
 62
    2
 10
193.60119919478154
 20
167.3345188662496
 11
226.40119919478178
 21
167.3345188662496
  0
CIRCLE
  8
_0-3_図面枠
  6
CONTINUOUS
 62
    2
 10
210.47619919478154
 20
193.13451886624881
 40
0.2999999999999999
  0
LINE
  8
_0-2_製品
  6
PLINE2
 62
    2
 10
210.47619919478154
 20
199.7345188662492
 11
210.47619919478154
 21
179.7345188662492
  0
LINE
  8
_0-2_製品
  6
PLINE2
 62
    2
 10
209.52619919478178
 20
179.7345188662492
 11
209.52619919478178
 21
199.7345188662492
  0
LINE
  8
_0-2_製品
  6
PLINE2
 62
    2
 10
210.00119919478169
 20
180.7345188662492
 11
210.00119919478169
 21
199.7345188662492
  0
LINE
  8
_0-2_製品
  6
PLINE2
 62
    2
 10
219.50008919478159
 20
170.7345188662492
 11
221.00119919478169
 21
168.13451886624881
  0
CIRCLE
  8
_0-2_製品
  6
PLINE2
 62
    2
 10
205.00119919478169
 20
169.03451886624941
 40
1.5
  0
CIRCLE
  8
_0-2_製品
  6
PLINE2
 62
    2
 10
215.00119919478175
 20
169.03451886624941
 40
1.5
  0
LINE
  8
_0-2_製品
  6
PLINE3
 62
    2
 10
210.00119919478169
 20
199.7345188662492
 11
210.00119919478169
 21
164.3345188662496
  0
LINE
  8
_0-3_図面枠
  6
CONTINUOUS
 62
    2
 10
210.47619919478154
 20
193.13451886624881
 11
219.1364531947815
 21
208.13451886624881
  0
LINE
  8
_0-2_製品
  6
CONTINUOUS
 62
    2
 10
193.50119919478169
 20
175.8345188662496
 11
193.50119919478169
 21
175.894518866249
  0
LINE
  8
_0-2_製品
  6
CONTINUOUS
 62
    4
 10
193.50119919478169
 20
175.8345188662496
 11
194.50119919478169
 21
175.8345188662496
  0
LINE
  8
_0-2_製品
  6
CONTINUOUS
 62
    2
 10
193.50119919478169
 20
173.31451886624922
 11
192.62619919478169
 21
172.99604486624949
  0
LINE
  8
_0-2_製品
  6
CONTINUOUS
 62
    2
 10
192.62619919478169
 20
171.76451886624889
 11
192.62619919478169
 21
172.99604486624949
  0
ARC
  8
_0-2_製品
  6
CONTINUOUS
 62
    2
 10
192.77619919478178
 20
171.76451886624889
 40
0.1499999999999999
 50
180
 51
344.32172399999808
  0
ARC
  8
_0-2_製品
  6
CONTINUOUS
 62
    2
 10
193.10119919478154
 20
171.88451886624881
 40
0.1
 50
0
 51
90
  0
LINE
  8
_0-2_製品
  6
CONTINUOUS
 62
    2
 10
193.10119919478154
 20
171.9845188662492
 11
193.00119919478169
 21
171.9845188662492
  0
ARC
  8
_0-2_製品
  6
CONTINUOUS
 62
    2
 10
193.00119919478169
 20
171.88451886624881
 40
0.1
 50
90
 51
180
  0
LINE
  8
_0-2_製品
  6
CONTINUOUS
 62
    2
 10
192.90119919478178
 20
171.88451886624881
 11
192.90119919478178
 21
171.7345188662492
  0
LINE
  8
_0-2_製品
  6
CONTINUOUS
 62
    2
 10
192.90119919478178
 20
171.7345188662492
 11
192.85119919478154
 21
171.7345188662492
  0
LINE
  8
_0-2_製品
  6
CONTINUOUS
 62
    2
 10
192.85119919478154
 20
171.7345188662492
 11
192.85119919478154
 21
171.88451886624881
  0
ARC
  8
_0-2_製品
  6
CONTINUOUS
 62
    2
 10
193.00119919478169
 20
171.88451886624881
 40
0.1499999999999999
 50
90
 51
180
  0
ARC
  8
_0-2_製品
  6
CONTINUOUS
 62
    2
 10
193.10119919478154
 20
171.88451886624881
 40
0.1499999999999999
 50
0
 51
90
  0
LINE
  8
_0-2_製品
  6
CONTINUOUS
 62
    2
 10
192.92061919478186
 20
171.72398386624891
 11
192.9937451947817
 21
171.9845188662492
  0
LINE
  8
_0-2_製品
  6
CONTINUOUS
 62
    4
 10
194.50119919478169
 20
172.03451886624941
 11
192.62619919478169
 21
172.03451886624941
  0
LINE
  8
_0-2_製品
  6
CONTINUOUS
 62
    2
 10
193.50119919478169
 20
175.8345188662496
 11
193.50119919478169
 21
173.31451886624922
  0
LINE
  8
_0-2_製品
  6
CONTINUOUS
 62
    4
 10
194.50119919478169
 20
175.8345188662496
 11
194.50119919478169
 21
172.03451886624941
  0
LINE
  8
_0-2_製品
  6
PLINE2
 62
    2
 10
200.50231019478178
 20
170.7345188662492
 11
199.00119919478169
 21
168.13451886624881
  0
ARC
  8
_0-2_製品
  6
CONTINUOUS
 62
    2
 10
192.92619919478187
 20
171.36451886624931
 40
0.2
 50
270
 51
0
  0
LINE
  8
_0-2_製品
  6
CONTINUOUS
 62
    2
 10
192.85119919478154
 20
170.18451886624899
 11
192.75119919478169
 21
170.2345188662492
  0
LINE
  8
_0-2_製品
  6
CONTINUOUS
 62
    2
 10
192.75119919478169
 20
170.2345188662492
 11
192.60119919478154
 21
170.18451886624899
  0
LINE
  8
_0-2_製品
  6
CONTINUOUS
 62
    2
 10
192.60119919478154
 20
170.18451886624899
 11
192.45119919478157
 21
170.2345188662492
  0
LINE
  8
_0-2_製品
  6
CONTINUOUS
 62
    2
 10
192.85119919478154
 20
170.13451886624881
 11
192.75119919478169
 21
170.18451886624899
  0
LINE
  8
_0-2_製品
  6
CONTINUOUS
 62
    2
 10
192.75119919478169
 20
170.18451886624899
 11
192.60119919478154
 21
170.13451886624881
  0
LINE
  8
_0-2_製品
  6
CONTINUOUS
 62
    2
 10
192.60119919478154
 20
170.13451886624881
 11
192.45119919478157
 21
170.18451886624899
  0
ARC
  8
_0-2_製品
  6
CONTINUOUS
 62
    2
 10
192.95119919478145
 20
170.43451886624899
 40
0.2999999999999999
 50
270
 51
0
  0
LINE
  8
_0-2_製品
  6
CONTINUOUS
 62
    2
 10
192.95119919478145
 20
170.13451886624881
 11
192.85119919478154
 21
170.13451886624881
  0
ARC
  8
_0-2_製品
  6
CONTINUOUS
 62
    2
 10
192.95119919478145
 20
170.43451886624899
 40
0.25
 50
270
 51
0
  0
LINE
  8
_0-2_製品
  6
CONTINUOUS
 62
    2
 10
192.95119919478145
 20
170.18451886624899
 11
192.85119919478154
 21
170.18451886624899
  0
LINE
  8
_0-2_製品
  6
CONTINUOUS
 62
    4
 10
195.00119919478169
 20
170.13451886624881
 11
195.00119919478169
 21
168.13451886624881
  0
LINE
  8
_0-2_製品
  6
PLINE2
 62
    2
 10
197.50119919478169
 20
168.13451886624881
 11
197.50119919478169
 21
167.3345188662496
  0
LINE
  8
_0-2_製品
  6
PLINE2
 62
    2
 10
193.60119919478154
 20
168.13451886624881
 11
193.60119919478154
 21
167.3345188662496
  0
LINE
  8
_0-2_製品
  6
PLINE2
 62
    2
 10
193.60119919478154
 20
167.3345188662496
 11
193.60119919478154
 21
168.13451886624881
  0
LINE
  8
_0-2_製品
  6
PLINE2
 62
    2
 10
195.00119919478169
 20
168.13451886624881
 11
199.00119919478169
 21
168.13451886624881
  0
LINE
  8
_0-2_製品
  6
CONTINUOUS
 62
    2
 10
193.25119919478169
 20
170.43451886624899
 11
193.25119919478169
 21
171.88451886624881
  0
LINE
  8
_0-2_製品
  6
CONTINUOUS
 62
    2
 10
193.20119919478145
 20
170.43451886624899
 11
193.20119919478145
 21
171.88451886624881
  0
LINE
  8
_0-2_製品
  6
CONTINUOUS
 62
    2
 10
193.12619919478175
 20
171.36451886624931
 11
193.12619919478175
 21
171.9813438662494
  0
LINE
  8
_0-2_製品
  6
PLINE2
 62
    2
 10
195.00119919478169
 20
170.13451886624881
 11
195.00119919478169
 21
174.7345188662492
  0
LINE
  8
_0-2_製品
  6
CONTINUOUS
 62
    2
 10
190.50119919478169
 20
175.894518866249
 11
190.50119919478169
 21
175.8345188662496
  0
LINE
  8
_0-2_製品
  6
CONTINUOUS
 62
    2
 10
190.50119919478169
 20
173.31451886624922
 11
191.37619919478169
 21
172.99604486624949
  0
LINE
  8
_0-2_製品
  6
CONTINUOUS
 62
    2
 10
191.37619919478169
 20
171.76451886624889
 11
191.37619919478169
 21
172.99604486624949
  0
ARC
  8
_0-2_製品
  6
CONTINUOUS
 62
    2
 10
191.22619919478166
 20
171.76451886624889
 40
0.1499999999999999
 50
195.6782760000018
 51
0
  0
ARC
  8
_0-2_製品
  6
CONTINUOUS
 62
    2
 10
190.90119919478178
 20
171.88451886624881
 40
0.1
 50
90
 51
180
  0
LINE
  8
_0-2_製品
  6
CONTINUOUS
 62
    2
 10
190.90119919478178
 20
171.9845188662492
 11
191.00119919478169
 21
171.9845188662492
  0
ARC
  8
_0-2_製品
  6
CONTINUOUS
 62
    2
 10
191.00119919478169
 20
171.88451886624881
 40
0.1
 50
0
 51
90
  0
LINE
  8
_0-2_製品
  6
CONTINUOUS
 62
    2
 10
191.10119919478154
 20
171.88451886624881
 11
191.10119919478154
 21
171.7345188662492
  0
LINE
  8
_0-2_製品
  6
CONTINUOUS
 62
    2
 10
191.10119919478154
 20
171.7345188662492
 11
191.15119919478178
 21
171.7345188662492
  0
LINE
  8
_0-2_製品
  6
CONTINUOUS
 62
    2
 10
191.15119919478178
 20
171.7345188662492
 11
191.15119919478178
 21
171.88451886624881
  0
ARC
  8
_0-2_製品
  6
CONTINUOUS
 62
    2
 10
191.00119919478169
 20
171.88451886624881
 40
0.1499999999999999
 50
0
 51
90
  0
ARC
  8
_0-2_製品
  6
CONTINUOUS
 62
    2
 10
190.90119919478178
 20
171.88451886624881
 40
0.1499999999999999
 50
90
 51
180
  0
LINE
  8
_0-2_製品
  6
CONTINUOUS
 62
    2
 10
191.08178019478186
 20
171.72398386624891
 11
191.00865419478168
 21
171.9845188662492
  0
LINE
  8
_0-2_製品
  6
CONTINUOUS
 62
    2
 10
190.50119919478169
 20
175.8345188662496
 11
190.50119919478169
 21
173.31451886624922
  0
LINE
  8
_0-2_製品
  6
CONTINUOUS
 62
    2
 10
192.30119919478187
 20
170.18451886624899
 11
192.15119919478178
 21
170.2345188662492
  0
LINE
  8
_0-2_製品
  6
CONTINUOUS
 62
    2
 10
192.15119919478178
 20
170.2345188662492
 11
192.00119919478175
 21
170.18451886624899
  0
LINE
  8
_0-2_製品
  6
CONTINUOUS
 62
    2
 10
192.30119919478187
 20
170.13451886624881
 11
192.15119919478178
 21
170.18451886624899
  0
LINE
  8
_0-2_製品
  6
CONTINUOUS
 62
    2
 10
192.15119919478178
 20
170.18451886624899
 11
192.00119919478175
 21
170.13451886624881
  0
LINE
  8
_0-2_製品
  6
CONTINUOUS
 62
    2
 10
191.25119919478169
 20
170.2345188662492
 11
191.40119919478178
 21
170.18451886624899
  0
LINE
  8
_0-2_製品
  6
CONTINUOUS
 62
    2
 10
191.40119919478178
 20
170.18451886624899
 11
191.55119919478187
 21
170.2345188662492
  0
LINE
  8
_0-2_製品
  6
CONTINUOUS
 62
    2
 10
191.55119919478187
 20
170.2345188662492
 11
191.70119919478157
 21
170.18451886624899
  0
LINE
  8
_0-2_製品
  6
CONTINUOUS
 62
    2
 10
191.70119919478157
 20
170.18451886624899
 11
191.85119919478166
 21
170.2345188662492
  0
LINE
  8
_0-2_製品
  6
CONTINUOUS
 62
    2
 10
191.85119919478166
 20
170.2345188662492
 11
192.00119919478175
 21
170.18451886624899
  0
LINE
  8
_0-2_製品
  6
CONTINUOUS
 62
    2
 10
191.15119919478178
 20
170.13451886624881
 11
191.25119919478169
 21
170.18451886624899
  0
LINE
  8
_0-2_製品
  6
CONTINUOUS
 62
    2
 10
191.25119919478169
 20
170.18451886624899
 11
191.40119919478178
 21
170.13451886624881
  0
LINE
  8
_0-2_製品
  6
CONTINUOUS
 62
    2
 10
191.40119919478178
 20
170.13451886624881
 11
191.55119919478187
 21
170.18451886624899
  0
LINE
  8
_0-2_製品
  6
CONTINUOUS
 62
    2
 10
191.55119919478187
 20
170.18451886624899
 11
191.70119919478157
 21
170.13451886624881
  0
LINE
  8
_0-2_製品
  6
CONTINUOUS
 62
    2
 10
191.70119919478157
 20
170.13451886624881
 11
191.85119919478166
 21
170.18451886624899
  0
LINE
  8
_0-2_製品
  6
CONTINUOUS
 62
    2
 10
191.85119919478166
 20
170.18451886624899
 11
192.00119919478175
 21
170.13451886624881
  0
ARC
  8
_0-2_製品
  6
CONTINUOUS
 62
    2
 10
191.07619919478157
 20
171.36451886624931
 40
0.2
 50
180
 51
270
  0
ARC
  8
_0-2_製品
  6
CONTINUOUS
 62
    2
 10
191.05119919478187
 20
170.43451886624899
 40
0.2999999999999999
 50
180
 51
270
  0
ARC
  8
_0-2_製品
  6
CONTINUOUS
 62
    2
 10
191.05119919478187
 20
170.43451886624899
 40
0.25
 50
180
 51
270
  0
LINE
  8
_0-2_製品
  6
CONTINUOUS
 62
    2
 10
191.15119919478178
 20
170.18451886624899
 11
191.25119919478169
 21
170.2345188662492
  0
LINE
  8
_0-2_製品
  6
CONTINUOUS
 62
    2
 10
191.05119919478187
 20
170.13451886624881
 11
191.15119919478178
 21
170.13451886624881
  0
LINE
  8
_0-2_製品
  6
CONTINUOUS
 62
    2
 10
191.05119919478187
 20
170.18451886624899
 11
191.15119919478178
 21
170.18451886624899
  0
LINE
  8
_0-2_製品
  6
CONTINUOUS
 62
    2
 10
190.75119919478169
 20
170.43451886624899
 11
190.75119919478169
 21
171.88451886624881
  0
LINE
  8
_0-2_製品
  6
CONTINUOUS
 62
    2
 10
190.80119919478187
 20
170.43451886624899
 11
190.80119919478187
 21
171.88451886624881
  0
LINE
  8
_0-2_製品
  6
CONTINUOUS
 62
    2
 10
190.87619919478169
 20
171.36451886624931
 11
190.87619919478169
 21
171.9813438662494
  0
LINE
  8
_0-2_製品
  6
PLINE3
 62
    2
 10
192.00119919478175
 20
176.24951886624962
 11
192.00119919478175
 21
168.13451886624881
  0
LINE
  8
_0-2_製品
  6
CONTINUOUS
 62
    2
 10
192.45119919478157
 20
170.2345188662492
 11
192.30119919478187
 21
170.18451886624899
  0
LINE
  8
_0-2_製品
  6
CONTINUOUS
 62
    2
 10
192.45119919478157
 20
170.18451886624899
 11
192.30119919478187
 21
170.13451886624881
  0
LINE
  8
_0-2_製品
  6
CONTINUOUS
 62
    2
 10
193.50119919478169
 20
175.894518866249
 11
190.50119919478169
 21
175.894518866249
  0
LINE
  8
_0-2_製品
  6
CONTINUOUS
 62
    2
 10
191.07619919478157
 20
171.16451886624949
 11
192.92619919478187
 21
171.16451886624949
  0
LINE
  8
_0-2_製品
  6
PLINE2
 62
    2
 10
200.00119919478169
 20
179.7345188662492
 11
195.00119919478169
 21
174.7345188662492
  0
LINE
  8
_0-2_製品
  6
PLINE2
 62
    2
 10
200.00119919478169
 20
179.7345188662492
 11
220.00119919478169
 21
179.7345188662492
  0
LINE
  8
_0-2_製品
  6
PLINE2
 62
    2
 10
219.50008919478159
 20
170.7345188662492
 11
200.50231019478178
 21
170.7345188662492
  0
TEXT
  8
_0-3_図面枠
 62
    7
 10
245.79232619478165
 20
200.73452986624929
 40
3
 41
0.8000000000000001
 50
0
  1
野縁
  0
LINE
  8
_0-3_図面枠
  6
CONTINUOUS
 62
    2
 10
245.79228519478187
 20
199.7345188662492
 11
251.81228519478185
 21
199.7345188662492
  0
LINE
  8
_0-2_製品
  6
CONTINUOUS
 62
    2
 10
229.50119919478175
 20
175.894518866249
 11
229.50119919478175
 21
175.8345188662496
  0
LINE
  8
_0-2_製品
  6
CONTINUOUS
 62
    2
 10
226.50119919478169
 20
175.8345188662496
 11
226.50119919478169
 21
175.894518866249
  0
LINE
  8
_0-2_製品
  6
CONTINUOUS
 62
    4
 10
226.50119919478169
 20
175.8345188662496
 11
225.50119919478175
 21
175.8345188662496
  0
LINE
  8
_0-2_製品
  6
CONTINUOUS
 62
    2
 10
226.50119919478169
 20
175.894518866249
 11
229.50119919478175
 21
175.894518866249
  0
LINE
  8
_0-2_製品
  6
CONTINUOUS
 62
    2
 10
227.37619919478169
 20
171.76451886624889
 11
227.37619919478169
 21
172.99604486624949
  0
ARC
  8
_0-2_製品
  6
CONTINUOUS
 62
    2
 10
227.22619919478154
 20
171.76451886624889
 40
0.1499999999999999
 50
195.6782760000018
 51
0
  0
ARC
  8
_0-2_製品
  6
CONTINUOUS
 62
    2
 10
227.00119919478169
 20
171.88451886624881
 40
0.1
 50
0
 51
90
  0
LINE
  8
_0-2_製品
  6
CONTINUOUS
 62
    2
 10
227.10119919478166
 20
171.88451886624881
 11
227.10119919478166
 21
171.7345188662492
  0
LINE
  8
_0-2_製品
  6
CONTINUOUS
 62
    2
 10
227.10119919478166
 20
171.7345188662492
 11
227.15119919478178
 21
171.7345188662492
  0
LINE
  8
_0-2_製品
  6
CONTINUOUS
 62
    2
 10
227.15119919478178
 20
171.7345188662492
 11
227.15119919478178
 21
171.88451886624881
  0
ARC
  8
_0-2_製品
  6
CONTINUOUS
 62
    2
 10
227.00119919478169
 20
171.88451886624881
 40
0.1499999999999999
 50
0
 51
90
  0
LINE
  8
_0-2_製品
  6
CONTINUOUS
 62
    2
 10
227.08178019478186
 20
171.72398386624891
 11
227.00865419478168
 21
171.9845188662492
  0
LINE
  8
_0-2_製品
  6
CONTINUOUS
 62
    2
 10
229.50119919478175
 20
173.31451886624922
 11
228.62619919478175
 21
172.99604486624949
  0
LINE
  8
_0-2_製品
  6
CONTINUOUS
 62
    2
 10
228.62619919478175
 20
171.76451886624889
 11
228.62619919478175
 21
172.99604486624949
  0
ARC
  8
_0-2_製品
  6
CONTINUOUS
 62
    2
 10
228.77619919478178
 20
171.76451886624889
 40
0.1499999999999999
 50
180
 51
344.32172399999808
  0
ARC
  8
_0-2_製品
  6
CONTINUOUS
 62
    2
 10
229.10119919478166
 20
171.88451886624881
 40
0.1
 50
0
 51
90
  0
LINE
  8
_0-2_製品
  6
CONTINUOUS
 62
    2
 10
229.10119919478166
 20
171.9845188662492
 11
229.00119919478169
 21
171.9845188662492
  0
ARC
  8
_0-2_製品
  6
CONTINUOUS
 62
    2
 10
229.00119919478169
 20
171.88451886624881
 40
0.1
 50
90
 51
180
  0
LINE
  8
_0-2_製品
  6
CONTINUOUS
 62
    2
 10
228.90119919478178
 20
171.88451886624881
 11
228.90119919478178
 21
171.7345188662492
  0
LINE
  8
_0-2_製品
  6
CONTINUOUS
 62
    2
 10
228.90119919478178
 20
171.7345188662492
 11
228.85119919478154
 21
171.7345188662492
  0
LINE
  8
_0-2_製品
  6
CONTINUOUS
 62
    2
 10
228.85119919478154
 20
171.7345188662492
 11
228.85119919478154
 21
171.88451886624881
  0
ARC
  8
_0-2_製品
  6
CONTINUOUS
 62
    2
 10
229.00119919478169
 20
171.88451886624881
 40
0.1499999999999999
 50
90
 51
180
  0
ARC
  8
_0-2_製品
  6
CONTINUOUS
 62
    2
 10
229.10119919478166
 20
171.88451886624881
 40
0.1499999999999999
 50
0
 51
90
  0
LINE
  8
_0-2_製品
  6
CONTINUOUS
 62
    2
 10
228.92061919478186
 20
171.72398386624891
 11
228.9937451947817
 21
171.9845188662492
  0
ARC
  8
_0-2_製品
  6
CONTINUOUS
 62
    2
 10
226.90119919478178
 20
171.88451886624881
 40
0.1
 50
90
 51
180
  0
ARC
  8
_0-2_製品
  6
CONTINUOUS
 62
    2
 10
226.90119919478178
 20
171.88451886624881
 40
0.1499999999999999
 50
90
 51
180
  0
LINE
  8
_0-2_製品
  6
CONTINUOUS
 62
    2
 10
226.50119919478169
 20
173.31451886624922
 11
227.37619919478169
 21
172.99604486624949
  0
LINE
  8
_0-2_製品
  6
CONTINUOUS
 62
    2
 10
226.90119919478178
 20
171.9845188662492
 11
227.00119919478169
 21
171.9845188662492
  0
LINE
  8
_0-2_製品
  6
CONTINUOUS
 62
    4
 10
225.50119919478175
 20
172.03451886624941
 11
227.37619919478169
 21
172.03451886624941
  0
LINE
  8
_0-2_製品
  6
CONTINUOUS
 62
    2
 10
226.50119919478169
 20
175.8345188662496
 11
226.50119919478169
 21
173.31451886624922
  0
LINE
  8
_0-2_製品
  6
CONTINUOUS
 62
    2
 10
229.50119919478175
 20
175.8345188662496
 11
229.50119919478175
 21
173.31451886624922
  0
LINE
  8
_0-2_製品
  6
CONTINUOUS
 62
    4
 10
225.50119919478175
 20
175.8345188662496
 11
225.50119919478175
 21
172.03451886624941
  0
LINE
  8
_0-2_製品
  6
CONTINUOUS
 62
    2
 10
227.15119919478178
 20
170.18451886624899
 11
227.25119919478169
 21
170.2345188662492
  0
LINE
  8
_0-2_製品
  6
CONTINUOUS
 62
    2
 10
227.25119919478169
 20
170.2345188662492
 11
227.40119919478178
 21
170.18451886624899
  0
LINE
  8
_0-2_製品
  6
CONTINUOUS
 62
    2
 10
227.40119919478178
 20
170.18451886624899
 11
227.55119919478187
 21
170.2345188662492
  0
LINE
  8
_0-2_製品
  6
CONTINUOUS
 62
    2
 10
227.55119919478187
 20
170.2345188662492
 11
227.70119919478157
 21
170.18451886624899
  0
LINE
  8
_0-2_製品
  6
CONTINUOUS
 62
    2
 10
227.70119919478157
 20
170.18451886624899
 11
227.85119919478154
 21
170.2345188662492
  0
LINE
  8
_0-2_製品
  6
CONTINUOUS
 62
    2
 10
227.85119919478154
 20
170.2345188662492
 11
228.00119919478169
 21
170.18451886624899
  0
LINE
  8
_0-2_製品
  6
CONTINUOUS
 62
    2
 10
227.15119919478178
 20
170.13451886624881
 11
227.25119919478169
 21
170.18451886624899
  0
LINE
  8
_0-2_製品
  6
CONTINUOUS
 62
    2
 10
227.25119919478169
 20
170.18451886624899
 11
227.40119919478178
 21
170.13451886624881
  0
LINE
  8
_0-2_製品
  6
CONTINUOUS
 62
    2
 10
227.40119919478178
 20
170.13451886624881
 11
227.55119919478187
 21
170.18451886624899
  0
LINE
  8
_0-2_製品
  6
CONTINUOUS
 62
    2
 10
227.55119919478187
 20
170.18451886624899
 11
227.70119919478157
 21
170.13451886624881
  0
LINE
  8
_0-2_製品
  6
CONTINUOUS
 62
    2
 10
227.70119919478157
 20
170.13451886624881
 11
227.85119919478154
 21
170.18451886624899
  0
LINE
  8
_0-2_製品
  6
CONTINUOUS
 62
    2
 10
227.85119919478154
 20
170.18451886624899
 11
228.00119919478169
 21
170.13451886624881
  0
LINE
  8
_0-2_製品
  6
CONTINUOUS
 62
    2
 10
227.05119919478187
 20
170.13451886624881
 11
227.15119919478178
 21
170.13451886624881
  0
LINE
  8
_0-2_製品
  6
CONTINUOUS
 62
    2
 10
227.05119919478187
 20
170.18451886624899
 11
227.15119919478178
 21
170.18451886624899
  0
LINE
  8
_0-2_製品
  6
CONTINUOUS
 62
    2
 10
228.75119919478169
 20
170.2345188662492
 11
228.60119919478154
 21
170.18451886624899
  0
LINE
  8
_0-2_製品
  6
CONTINUOUS
 62
    2
 10
228.60119919478154
 20
170.18451886624899
 11
228.45119919478145
 21
170.2345188662492
  0
LINE
  8
_0-2_製品
  6
CONTINUOUS
 62
    2
 10
228.45119919478145
 20
170.2345188662492
 11
228.30119919478187
 21
170.18451886624899
  0
LINE
  8
_0-2_製品
  6
CONTINUOUS
 62
    2
 10
228.30119919478187
 20
170.18451886624899
 11
228.15119919478178
 21
170.2345188662492
  0
LINE
  8
_0-2_製品
  6
CONTINUOUS
 62
    2
 10
228.15119919478178
 20
170.2345188662492
 11
228.00119919478169
 21
170.18451886624899
  0
LINE
  8
_0-2_製品
  6
CONTINUOUS
 62
    2
 10
228.85119919478154
 20
170.13451886624881
 11
228.75119919478169
 21
170.18451886624899
  0
LINE
  8
_0-2_製品
  6
CONTINUOUS
 62
    2
 10
228.75119919478169
 20
170.18451886624899
 11
228.60119919478154
 21
170.13451886624881
  0
LINE
  8
_0-2_製品
  6
CONTINUOUS
 62
    2
 10
228.60119919478154
 20
170.13451886624881
 11
228.45119919478145
 21
170.18451886624899
  0
LINE
  8
_0-2_製品
  6
CONTINUOUS
 62
    2
 10
228.45119919478145
 20
170.18451886624899
 11
228.30119919478187
 21
170.13451886624881
  0
LINE
  8
_0-2_製品
  6
CONTINUOUS
 62
    2
 10
228.30119919478187
 20
170.13451886624881
 11
228.15119919478178
 21
170.18451886624899
  0
LINE
  8
_0-2_製品
  6
CONTINUOUS
 62
    2
 10
228.15119919478178
 20
170.18451886624899
 11
228.00119919478169
 21
170.13451886624881
  0
LINE
  8
_0-2_製品
  6
CONTINUOUS
 62
    2
 10
228.92619919478187
 20
171.16451886624949
 11
227.07619919478145
 21
171.16451886624949
  0
ARC
  8
_0-2_製品
  6
CONTINUOUS
 62
    2
 10
228.92619919478187
 20
171.36451886624931
 40
0.2
 50
270
 51
0
  0
ARC
  8
_0-2_製品
  6
CONTINUOUS
 62
    2
 10
228.95119919478157
 20
170.43451886624899
 40
0.2999999999999999
 50
270
 51
0
  0
ARC
  8
_0-2_製品
  6
CONTINUOUS
 62
    2
 10
228.95119919478157
 20
170.43451886624899
 40
0.25
 50
270
 51
0
  0
LINE
  8
_0-2_製品
  6
CONTINUOUS
 62
    2
 10
228.85119919478154
 20
170.18451886624899
 11
228.75119919478169
 21
170.2345188662492
  0
LINE
  8
_0-2_製品
  6
CONTINUOUS
 62
    2
 10
228.95119919478157
 20
170.13451886624881
 11
228.85119919478154
 21
170.13451886624881
  0
LINE
  8
_0-2_製品
  6
CONTINUOUS
 62
    2
 10
228.95119919478157
 20
170.18451886624899
 11
228.85119919478154
 21
170.18451886624899
  0
CIRCLE
  8
_0-3_図面枠
  6
CONTINUOUS
 62
    2
 10
229.25119919478169
 20
171.0845188662496
 40
0.2999999999999999
  0
LINE
  8
_0-2_製品
  6
CONTINUOUS
 62
    4
 10
225.00119919478169
 20
170.13451886624881
 11
225.00119919478169
 21
168.13451886624881
  0
ARC
  8
_0-2_製品
  6
CONTINUOUS
 62
    2
 10
227.07619919478145
 20
171.36451886624931
 40
0.2
 50
180
 51
270
  0
ARC
  8
_0-2_製品
  6
CONTINUOUS
 62
    2
 10
227.05119919478187
 20
170.43451886624899
 40
0.2999999999999999
 50
180
 51
270
  0
ARC
  8
_0-2_製品
  6
CONTINUOUS
 62
    2
 10
227.05119919478187
 20
170.43451886624899
 40
0.25
 50
180
 51
270
  0
LINE
  8
_0-2_製品
  6
PLINE2
 62
    2
 10
226.40119919478178
 20
168.13451886624881
 11
226.40119919478178
 21
167.3345188662496
  0
LINE
  8
_0-2_製品
  6
PLINE2
 62
    2
 10
226.40119919478178
 20
167.3345188662496
 11
226.40119919478178
 21
168.13451886624881
  0
LINE
  8
_0-2_製品
  6
CONTINUOUS
 62
    2
 10
226.75119919478169
 20
170.43451886624899
 11
226.75119919478169
 21
171.88451886624881
  0
LINE
  8
_0-2_製品
  6
CONTINUOUS
 62
    2
 10
226.80119919478187
 20
170.43451886624899
 11
226.80119919478187
 21
171.88451886624881
  0
LINE
  8
_0-2_製品
  6
CONTINUOUS
 62
    2
 10
226.87619919478169
 20
171.36451886624931
 11
226.87619919478169
 21
171.9813438662494
  0
LINE
  8
_0-2_製品
  6
CONTINUOUS
 62
    2
 10
229.25119919478169
 20
170.43451886624899
 11
229.25119919478169
 21
171.88451886624881
  0
LINE
  8
_0-2_製品
  6
CONTINUOUS
 62
    2
 10
229.20119919478157
 20
170.43451886624899
 11
229.20119919478157
 21
171.88451886624881
  0
LINE
  8
_0-2_製品
  6
CONTINUOUS
 62
    2
 10
229.12619919478169
 20
171.36451886624931
 11
229.12619919478169
 21
171.9813438662494
  0
LINE
  8
_0-2_製品
  6
PLINE2
 62
    2
 10
225.00119919478169
 20
174.7345188662492
 11
225.00119919478169
 21
170.13451886624881
  0
LINE
  8
_0-2_製品
  6
PLINE3
 62
    2
 10
228.00119919478169
 20
176.24951886624962
 11
228.00119919478169
 21
168.13451886624881
  0
LINE
  8
_0-2_製品
  6
PLINE2
 62
    2
 10
222.50119919478169
 20
168.13451886624881
 11
222.50119919478169
 21
167.3345188662496
  0
LINE
  8
_0-3_図面枠
  6
CONTINUOUS
 62
    2
 10
229.25119919478169
 20
171.0845188662496
 11
245.79228519478187
 21
199.7345188662492
  0
LINE
  8
_0-2_製品
  6
CONTINUOUS
 62
    2
 10
270.53504219478185
 20
99.958302866248999
 11
270.67619919478187
 21
99.8768048662495
  0
LINE
  8
_0-2_製品
  6
CONTINUOUS
 62
    2
 10
270.20119919478145
 20
99.8768048662495
 11
270.20119919478145
 21
99.158302866248789
  0
ARC
  8
_0-2_製品
  6
CONTINUOUS
 62
    2
 10
270.43033619478177
 20
99.595434866248809
 40
0.362868
 50
90
 51
129.15794499996929
  0
LINE
  8
_0-2_製品
  6
CONTINUOUS
 62
    2
 10
270.67619919478187
 20
99.8768048662495
 11
270.67619919478187
 21
99.158302866248789
  0
ARC
  8
_0-2_製品
  6
CONTINUOUS
 62
    2
 10
269.02206319478177
 20
99.595434866248809
 40
0.362868
 50
50.842055000030633
 51
90
  0
LINE
  8
_0-2_製品
  6
CONTINUOUS
 62
    2
 10
268.77619919478178
 20
99.8768048662495
 11
268.77619919478178
 21
99.158302866248789
  0
LINE
  8
_0-2_製品
  6
CONTINUOUS
 62
    2
 10
268.77619919478178
 20
99.8768048662495
 11
268.91735719478169
 21
99.958302866248999
  0
LINE
  8
_0-2_製品
  6
CONTINUOUS
 62
    2
 10
269.25119919478175
 20
99.158302866248789
 11
269.25119919478175
 21
99.8768048662495
  0
ARC
  8
_0-2_製品
  6
CONTINUOUS
 62
    2
 10
269.72619919478166
 20
98.533302866248789
 40
1.425
 50
70.528778999996675
 51
109.4712210000033
  0
LINE
  8
_0-2_製品
  6
CONTINUOUS
 62
    2
 10
268.91735719478169
 20
99.958302866248999
 11
270.53504219478185
 21
99.958302866248999
  0
LINE
  8
_0-2_製品
  6
CONTINUOUS
 62
    2
 10
268.30119919478187
 20
99.158302866248789
 11
271.15119919478178
 21
99.158302866248789
  0
ARC
  8
_0-2_製品
  6
CONTINUOUS
 62
    2
 10
273.00119919478169
 20
93.358302866249602
 40
0.6999999999999999
 50
123.0017439999841
 51
180
  0
ARC
  8
_0-2_製品
  6
CONTINUOUS
 62
    2
 10
273.00119919478169
 20
93.358302866249602
 40
0.5
 50
123.00174500001282
 51
180
  0
ARC
  8
_0-2_製品
  6
CONTINUOUS
 62
    2
 10
272.96457519478184
 20
93.513374866249109
 40
0.3499999999999999
 50
123.05336499999291
 51
206.29588999996841
  0
LINE
  8
_0-2_製品
  6
CONTINUOUS
 62
    2
 10
273.25819919478175
 20
94.35988186624931
 11
273.40277919478189
 21
94.215301866249206
  0
LINE
  8
_0-2_製品
  6
CONTINUOUS
 62
    2
 10
273.40277919478189
 20
94.215301866249206
 11
272.72886719478169
 21
93.777629866249214
  0
LINE
  8
_0-2_製品
  6
CONTINUOUS
 62
    2
 10
273.25819919478175
 20
94.35988186624931
 11
272.61993419478176
 21
93.945359866249305
  0
ARC
  8
_0-2_製品
  6
CONTINUOUS
 62
    2
 10
271.15119919478178
 20
98.808302866249392
 40
0.1499999999999999
 50
0
 51
90
  0
ARC
  8
_0-2_製品
  6
CONTINUOUS
 62
    2
 10
270.69698619478186
 20
98.3540888662491
 40
0.7269540000000001
 50
33.782171000009079
 51
56.217828999976923
  0
LINE
  8
_0-2_製品
  6
CONTINUOUS
 62
    2
 10
270.53504219478185
 20
98.158302866248789
 11
270.67619919478187
 21
98.239799866249001
  0
LINE
  8
_0-2_製品
  6
CONTINUOUS
 62
    2
 10
270.20119919478145
 20
98.239799866249001
 11
270.20119919478145
 21
98.958302866248999
  0
ARC
  8
_0-2_製品
  6
CONTINUOUS
 62
    2
 10
270.43033619478177
 20
98.521169866249608
 40
0.362868
 50
230.8420550000306
 51
270
  0
LINE
  8
_0-2_製品
  6
CONTINUOUS
 62
    2
 10
270.67619919478187
 20
98.239799866249001
 11
270.67619919478187
 21
98.958302866248999
  0
LINE
  8
_0-2_製品
  6
CONTINUOUS
 62
    2
 10
270.20119919478145
 20
96.658302866248789
 11
270.20119919478145
 21
98.158302866248789
  0
ARC
  8
_0-2_製品
  6
CONTINUOUS
 62
    2
 10
269.02206319478177
 20
98.521169866249608
 40
0.362868
 50
270
 51
309.15794499996929
  0
LINE
  8
_0-2_製品
  6
CONTINUOUS
 62
    2
 10
268.77619919478178
 20
98.239799866249001
 11
268.77619919478178
 21
98.958302866248999
  0
LINE
  8
_0-2_製品
  6
CONTINUOUS
 62
    2
 10
268.77619919478178
 20
98.239799866249001
 11
268.91735719478169
 21
98.158302866248789
  0
LINE
  8
_0-2_製品
  6
CONTINUOUS
 62
    2
 10
269.25119919478175
 20
98.958302866248999
 11
269.25119919478175
 21
98.239799866249001
  0
LINE
  8
_0-2_製品
  6
CONTINUOUS
 62
    2
 10
269.25119919478175
 20
98.158302866248789
 11
269.25119919478175
 21
96.658302866248789
  0
ARC
  8
_0-2_製品
  6
CONTINUOUS
 62
    2
 10
269.72619919478166
 20
99.583302866248999
 40
1.425
 50
250.52877899999663
 51
289.47122100000331
  0
LINE
  8
_0-2_製品
  6
CONTINUOUS
 62
    2
 10
268.91735719478169
 20
98.158302866248789
 11
270.53504219478185
 21
98.158302866248789
  0
LINE
  8
_0-2_製品
  6
CONTINUOUS
 62
    2
 10
269.25119919478175
 20
96.658302866248789
 11
270.20119919478145
 21
96.658302866248789
  0
LINE
  8
_0-2_製品
  6
CONTINUOUS
 62
    2
 10
268.30119919478187
 20
98.958302866248999
 11
271.15119919478178
 21
98.958302866248999
  0
ARC
  8
_0-2_製品
  6
CONTINUOUS
 62
    2
 10
272.93726319478168
 20
92.690881866249498
 40
1.650447
 50
158.54347300002581
 51
172.43016699998569
  0
ARC
  8
_0-2_製品
  6
CONTINUOUS
 62
    2
 10
272.93726319478168
 20
94.425722866249004
 40
1.650447
 50
187.5698330000142
 51
201.45652699997413
  0
ARC
  8
_0-2_製品
  6
CONTINUOUS
 62
    2
 10
270.73084719478169
 20
93.558302866249392
 40
0.7203520000000001
 50
338.52689499997399
 51
21.473105000025935
  0
ARC
  8
_0-2_製品
  6
CONTINUOUS
 62
    2
 10
273.13726319478155
 20
92.690881866249498
 40
1.650447
 50
158.54347300002581
 51
172.43016699998569
  0
ARC
  8
_0-2_製品
  6
CONTINUOUS
 62
    2
 10
273.13726319478155
 20
94.425722866249004
 40
1.650447
 50
187.5698330000142
 51
201.45652699997413
  0
ARC
  8
_0-2_製品
  6
CONTINUOUS
 62
    2
 10
270.93084719478145
 20
93.558302866249392
 40
0.7203520000000001
 50
338.52689499997399
 51
21.473105000025935
  0
LINE
  8
_0-2_製品
  6
CONTINUOUS
 62
    2
 10
271.30119919478187
 20
98.808302866249392
 11
271.30119919478187
 21
94.208302866248999
  0
LINE
  8
_0-2_製品
  6
CONTINUOUS
 62
    2
 10
271.50119919478169
 20
98.808302866249392
 11
271.50119919478169
 21
94.208302866248999
  0
LINE
  8
_0-2_製品
  6
CONTINUOUS
 62
    2
 10
272.50975219478175
 20
93.198302866249691
 11
271.66119919478155
 21
93.198302866249691
  0
LINE
  8
_0-2_製品
  6
CONTINUOUS
 62
    2
 10
272.50119919478169
 20
93.358302866249602
 11
271.62287919478189
 21
93.358302866249602
  0
ARC
  8
_0-2_製品
  6
CONTINUOUS
 62
    2
 10
271.15119919478178
 20
98.808302866249392
 40
0.3499999999999999
 50
0
 51
90
  0
LINE
  8
_0-2_製品
  6
CONTINUOUS
 62
    2
 10
268.30119919478187
 20
99.158302866248789
 11
268.30119919478187
 21
98.958302866248999
  0
LINE
  8
_0-2_製品
  6
PLINE3
 62
    2
 10
269.72619919478166
 20
96.658302866248789
 11
269.72619919478166
 21
117.25830286624921
  0
LINE
  8
_0-2_製品
  6
CONTINUOUS
 62
    2
 10
269.25119919478175
 20
99.958302866248999
 11
269.25119919478175
 21
117.25830286624921
  0
LINE
  8
_0-2_製品
  6
CONTINUOUS
 62
    2
 10
270.20119919478145
 20
117.25830286624921
 11
270.20119919478145
 21
99.958302866248999
  0
LINE
  8
_0-2_製品
  6
CONTINUOUS
 62
    2
 10
272.70119919478157
 20
89.718302866249189
 11
272.70119919478157
 21
89.564652866248991
  0
ARC
  8
_0-2_製品
  6
CONTINUOUS
 62
    2
 10
272.65119919478178
 20
89.75830286624921
 40
0.4
 50
270
 51
0
  0
LINE
  8
_0-2_製品
  6
CONTINUOUS
 62
    2
 10
273.05119919478187
 20
89.75830286624921
 11
273.05119919478187
 21
91.808302866249392
  0
LINE
  8
_0-2_製品
  6
CONTINUOUS
 62
    2
 10
272.85119919478166
 20
89.75830286624921
 11
272.85119919478166
 21
91.808302866249392
  0
ARC
  8
_0-2_製品
  6
CONTINUOUS
 62
    2
 10
272.65119919478178
 20
89.75830286624921
 40
0.2
 50
270
 51
0
  0
ARC
  8
_0-2_製品
  6
CONTINUOUS
 62
    2
 10
271.70119919478145
 20
89.75830286624921
 40
0.4
 50
180
 51
270
  0
ARC
  8
_0-2_製品
  6
CONTINUOUS
 62
    2
 10
271.70119919478145
 20
89.75830286624921
 40
0.2
 50
180
 51
270
  0
LINE
  8
_0-2_製品
  6
CONTINUOUS
 62
    2
 10
271.66119919478155
 20
89.718302866249189
 11
272.70119919478157
 21
89.718302866249189
  0
LINE
  8
_0-2_製品
  6
CONTINUOUS
 62
    2
 10
271.70119919478145
 20
89.358302866249517
 11
272.65119919478178
 21
89.358302866249517
  0
LINE
  8
_0-2_製品
  6
CONTINUOUS
 62
    2
 10
272.65119919478178
 20
89.558302866249392
 11
271.70119919478145
 21
89.558302866249392
  0
LINE
  8
_0-2_製品
  6
CONTINUOUS
 62
    2
 10
271.66119919478155
 20
93.198302866249691
 11
271.66119919478155
 21
89.718302866249189
  0
ARC
  8
_0-2_製品
  6
CONTINUOUS
 62
    2
 10
269.85119919478154
 20
91.808302866249392
 40
3.2000000000000002
 50
0
 51
28.971531999992614
  0
ARC
  8
_0-2_製品
  6
CONTINUOUS
 62
    2
 10
269.85119919478154
 20
91.808302866249392
 40
3
 50
0
 51
31.108922999969469
  0
LINE
  8
_0-2_製品
  6
CONTINUOUS
 62
    2
 10
271.30119919478187
 20
92.908302866248789
 11
271.30119919478187
 21
89.75830286624921
  0
LINE
  8
_0-2_製品
  6
CONTINUOUS
 62
    2
 10
271.50119919478169
 20
92.908302866248789
 11
271.50119919478169
 21
89.75830286624921
  0
LINE
  8
_0-2_製品
  6
CONTINUOUS
 62
    4
 10
264.15119919478178
 20
181.6345188662489
 11
261.85119919478154
 21
181.6345188662489
  0
LINE
  8
_0-2_製品
  6
CONTINUOUS
 62
    4
 10
262.52619919478178
 20
181.6345188662489
 11
262.52619919478178
 21
199.7345188662492
  0
LINE
  8
_0-2_製品
  6
CONTINUOUS
 62
    4
 10
263.47619919478166
 20
199.7345188662492
 11
263.47619919478166
 21
181.6345188662489
  0
LINE
  8
_0-2_製品
  6
PLINE3
 62
    2
 10
263.00119919478175
 20
181.6345188662489
 11
263.00119919478175
 21
199.7345188662492
  0
LINE
  8
_0-2_製品
  6
CONTINUOUS
 62
    2
 10
274.50119919478169
 20
175.8345188662496
 11
274.50119919478169
 21
175.894518866249
  0
LINE
  8
_0-2_製品
  6
CONTINUOUS
 62
    2
 10
274.50119919478169
 20
173.31451886624922
 11
273.62619919478169
 21
172.99604486624949
  0
LINE
  8
_0-2_製品
  6
CONTINUOUS
 62
    2
 10
273.62619919478169
 20
171.76451886624889
 11
273.62619919478169
 21
172.99604486624949
  0
ARC
  8
_0-2_製品
  6
CONTINUOUS
 62
    2
 10
273.77619919478178
 20
171.76451886624889
 40
0.1499999999999999
 50
180
 51
344.32172399999808
  0
ARC
  8
_0-2_製品
  6
CONTINUOUS
 62
    2
 10
274.10119919478154
 20
171.88451886624881
 40
0.1
 50
0
 51
90
  0
LINE
  8
_0-2_製品
  6
CONTINUOUS
 62
    2
 10
274.10119919478154
 20
171.9845188662492
 11
274.00119919478169
 21
171.9845188662492
  0
ARC
  8
_0-2_製品
  6
CONTINUOUS
 62
    2
 10
274.00119919478169
 20
171.88451886624881
 40
0.1
 50
90
 51
180
  0
LINE
  8
_0-2_製品
  6
CONTINUOUS
 62
    2
 10
273.90119919478178
 20
171.88451886624881
 11
273.90119919478178
 21
171.7345188662492
  0
LINE
  8
_0-2_製品
  6
CONTINUOUS
 62
    2
 10
273.90119919478178
 20
171.7345188662492
 11
273.85119919478154
 21
171.7345188662492
  0
LINE
  8
_0-2_製品
  6
CONTINUOUS
 62
    2
 10
273.85119919478154
 20
171.7345188662492
 11
273.85119919478154
 21
171.88451886624881
  0
ARC
  8
_0-2_製品
  6
CONTINUOUS
 62
    2
 10
274.00119919478169
 20
171.88451886624881
 40
0.1499999999999999
 50
90
 51
180
  0
ARC
  8
_0-2_製品
  6
CONTINUOUS
 62
    2
 10
274.10119919478154
 20
171.88451886624881
 40
0.1499999999999999
 50
0
 51
90
  0
LINE
  8
_0-2_製品
  6
CONTINUOUS
 62
    2
 10
273.92061919478186
 20
171.72398386624891
 11
273.9937451947817
 21
171.9845188662492
  0
LINE
  8
_0-2_製品
  6
CONTINUOUS
 62
    2
 10
272.37619919478175
 20
171.76451886624889
 11
272.37619919478175
 21
172.99604486624949
  0
LINE
  8
_0-2_製品
  6
CONTINUOUS
 62
    2
 10
272.15119919478178
 20
171.7345188662492
 11
272.15119919478178
 21
171.88451886624881
  0
LINE
  8
_0-2_製品
  6
CONTINUOUS
 62
    2
 10
274.50119919478169
 20
175.8345188662496
 11
274.50119919478169
 21
173.31451886624922
  0
LINE
  8
_0-2_製品
  6
CONTINUOUS
 62
    2
 10
271.50119919478169
 20
175.894518866249
 11
271.50119919478169
 21
175.8345188662496
  0
ARC
  8
_0-2_製品
  6
CONTINUOUS
 62
    2
 10
271.90119919478178
 20
171.88451886624881
 40
0.1
 50
90
 51
180
  0
LINE
  8
_0-2_製品
  6
CONTINUOUS
 62
    2
 10
271.90119919478178
 20
171.9845188662492
 11
272.00119919478169
 21
171.9845188662492
  0
ARC
  8
_0-2_製品
  6
CONTINUOUS
 62
    2
 10
272.00119919478169
 20
171.88451886624881
 40
0.1
 50
0
 51
90
  0
LINE
  8
_0-2_製品
  6
CONTINUOUS
 62
    2
 10
272.10119919478154
 20
171.88451886624881
 11
272.10119919478154
 21
171.7345188662492
  0
ARC
  8
_0-2_製品
  6
CONTINUOUS
 62
    2
 10
271.90119919478178
 20
171.88451886624881
 40
0.1499999999999999
 50
90
 51
180
  0
LINE
  8
_0-2_製品
  6
CONTINUOUS
 62
    2
 10
272.08178019478186
 20
171.72398386624891
 11
272.00865419478168
 21
171.9845188662492
  0
LINE
  8
_0-2_製品
  6
CONTINUOUS
 62
    2
 10
271.50119919478169
 20
175.8345188662496
 11
271.50119919478169
 21
173.31451886624922
  0
LINE
  8
_0-2_製品
  6
CONTINUOUS
 62
    2
 10
274.50119919478169
 20
175.894518866249
 11
271.50119919478169
 21
175.894518866249
  0
LINE
  8
_0-2_製品
  6
CONTINUOUS
 62
    2
 10
271.50119919478169
 20
173.31451886624922
 11
272.37619919478175
 21
172.99604486624949
  0
ARC
  8
_0-2_製品
  6
CONTINUOUS
 62
    2
 10
272.22619919478166
 20
171.76451886624889
 40
0.1499999999999999
 50
195.6782760000018
 51
0
  0
LINE
  8
_0-2_製品
  6
CONTINUOUS
 62
    2
 10
272.10119919478154
 20
171.7345188662492
 11
272.15119919478178
 21
171.7345188662492
  0
ARC
  8
_0-2_製品
  6
CONTINUOUS
 62
    2
 10
272.00119919478169
 20
171.88451886624881
 40
0.1499999999999999
 50
0
 51
90
  0
ARC
  8
_0-2_製品
  6
CONTINUOUS
 62
    2
 10
273.92619919478187
 20
171.36451886624931
 40
0.2
 50
270
 51
0
  0
LINE
  8
_0-2_製品
  6
CONTINUOUS
 62
    2
 10
273.85119919478154
 20
170.18451886624899
 11
273.75119919478169
 21
170.2345188662492
  0
LINE
  8
_0-2_製品
  6
CONTINUOUS
 62
    2
 10
273.75119919478169
 20
170.2345188662492
 11
273.60119919478166
 21
170.18451886624899
  0
LINE
  8
_0-2_製品
  6
CONTINUOUS
 62
    2
 10
273.60119919478166
 20
170.18451886624899
 11
273.45119919478157
 21
170.2345188662492
  0
LINE
  8
_0-2_製品
  6
CONTINUOUS
 62
    2
 10
273.45119919478157
 20
170.2345188662492
 11
273.30119919478187
 21
170.18451886624899
  0
LINE
  8
_0-2_製品
  6
CONTINUOUS
 62
    2
 10
273.30119919478187
 20
170.18451886624899
 11
273.15119919478178
 21
170.2345188662492
  0
LINE
  8
_0-2_製品
  6
CONTINUOUS
 62
    2
 10
273.15119919478178
 20
170.2345188662492
 11
273.00119919478169
 21
170.18451886624899
  0
LINE
  8
_0-2_製品
  6
CONTINUOUS
 62
    2
 10
273.85119919478154
 20
170.13451886624881
 11
273.75119919478169
 21
170.18451886624899
  0
LINE
  8
_0-2_製品
  6
CONTINUOUS
 62
    2
 10
273.75119919478169
 20
170.18451886624899
 11
273.60119919478166
 21
170.13451886624881
  0
LINE
  8
_0-2_製品
  6
CONTINUOUS
 62
    2
 10
273.60119919478166
 20
170.13451886624881
 11
273.45119919478157
 21
170.18451886624899
  0
LINE
  8
_0-2_製品
  6
CONTINUOUS
 62
    2
 10
273.45119919478157
 20
170.18451886624899
 11
273.30119919478187
 21
170.13451886624881
  0
LINE
  8
_0-2_製品
  6
CONTINUOUS
 62
    2
 10
273.30119919478187
 20
170.13451886624881
 11
273.15119919478178
 21
170.18451886624899
  0
LINE
  8
_0-2_製品
  6
CONTINUOUS
 62
    2
 10
273.15119919478178
 20
170.18451886624899
 11
273.00119919478169
 21
170.13451886624881
  0
ARC
  8
_0-2_製品
  6
CONTINUOUS
 62
    2
 10
273.95119919478145
 20
170.43451886624899
 40
0.2999999999999999
 50
270
 51
0
  0
LINE
  8
_0-2_製品
  6
CONTINUOUS
 62
    2
 10
273.95119919478145
 20
170.13451886624881
 11
273.85119919478154
 21
170.13451886624881
  0
ARC
  8
_0-2_製品
  6
CONTINUOUS
 62
    2
 10
273.95119919478145
 20
170.43451886624899
 40
0.25
 50
270
 51
0
  0
LINE
  8
_0-2_製品
  6
CONTINUOUS
 62
    2
 10
273.95119919478145
 20
170.18451886624899
 11
273.85119919478154
 21
170.18451886624899
  0
LINE
  8
_0-2_製品
  6
CONTINUOUS
 62
    2
 10
272.25119919478169
 20
170.2345188662492
 11
272.40119919478178
 21
170.18451886624899
  0
LINE
  8
_0-2_製品
  6
CONTINUOUS
 62
    2
 10
272.40119919478178
 20
170.18451886624899
 11
272.55119919478187
 21
170.2345188662492
  0
LINE
  8
_0-2_製品
  6
CONTINUOUS
 62
    2
 10
272.55119919478187
 20
170.2345188662492
 11
272.70119919478157
 21
170.18451886624899
  0
LINE
  8
_0-2_製品
  6
CONTINUOUS
 62
    2
 10
272.70119919478157
 20
170.18451886624899
 11
272.85119919478166
 21
170.2345188662492
  0
LINE
  8
_0-2_製品
  6
CONTINUOUS
 62
    2
 10
272.85119919478166
 20
170.2345188662492
 11
273.00119919478169
 21
170.18451886624899
  0
LINE
  8
_0-2_製品
  6
CONTINUOUS
 62
    2
 10
272.15119919478178
 20
170.13451886624881
 11
272.25119919478169
 21
170.18451886624899
  0
LINE
  8
_0-2_製品
  6
CONTINUOUS
 62
    2
 10
272.25119919478169
 20
170.18451886624899
 11
272.40119919478178
 21
170.13451886624881
  0
LINE
  8
_0-2_製品
  6
CONTINUOUS
 62
    2
 10
272.40119919478178
 20
170.13451886624881
 11
272.55119919478187
 21
170.18451886624899
  0
LINE
  8
_0-2_製品
  6
CONTINUOUS
 62
    2
 10
272.55119919478187
 20
170.18451886624899
 11
272.70119919478157
 21
170.13451886624881
  0
LINE
  8
_0-2_製品
  6
CONTINUOUS
 62
    2
 10
272.70119919478157
 20
170.13451886624881
 11
272.85119919478166
 21
170.18451886624899
  0
LINE
  8
_0-2_製品
  6
CONTINUOUS
 62
    2
 10
272.85119919478166
 20
170.18451886624899
 11
273.00119919478169
 21
170.13451886624881
  0
LINE
  8
_0-2_製品
  6
CONTINUOUS
 62
    2
 10
272.15119919478178
 20
170.18451886624899
 11
272.25119919478169
 21
170.2345188662492
  0
ARC
  8
_0-2_製品
  6
CONTINUOUS
 62
    2
 10
272.07619919478157
 20
171.36451886624931
 40
0.2
 50
180
 51
270
  0
ARC
  8
_0-2_製品
  6
CONTINUOUS
 62
    2
 10
272.05119919478187
 20
170.43451886624899
 40
0.2999999999999999
 50
180
 51
270
  0
ARC
  8
_0-2_製品
  6
CONTINUOUS
 62
    2
 10
272.05119919478187
 20
170.43451886624899
 40
0.25
 50
180
 51
270
  0
LINE
  8
_0-2_製品
  6
CONTINUOUS
 62
    2
 10
272.07619919478157
 20
171.16451886624949
 11
273.92619919478187
 21
171.16451886624949
  0
LINE
  8
_0-2_製品
  6
CONTINUOUS
 62
    2
 10
272.05119919478187
 20
170.13451886624881
 11
272.15119919478178
 21
170.13451886624881
  0
LINE
  8
_0-2_製品
  6
CONTINUOUS
 62
    2
 10
272.05119919478187
 20
170.18451886624899
 11
272.15119919478178
 21
170.18451886624899
  0
LINE
  8
_0-2_製品
  6
CONTINUOUS
 62
    2
 10
274.25119919478169
 20
170.43451886624899
 11
274.25119919478169
 21
171.88451886624881
  0
LINE
  8
_0-2_製品
  6
CONTINUOUS
 62
    2
 10
274.20119919478145
 20
170.43451886624899
 11
274.20119919478145
 21
171.88451886624881
  0
LINE
  8
_0-2_製品
  6
CONTINUOUS
 62
    2
 10
274.12619919478169
 20
171.36451886624931
 11
274.12619919478169
 21
171.9813438662494
  0
LINE
  8
_0-2_製品
  6
CONTINUOUS
 62
    2
 10
271.75119919478169
 20
170.43451886624899
 11
271.75119919478169
 21
171.88451886624881
  0
LINE
  8
_0-2_製品
  6
CONTINUOUS
 62
    2
 10
271.80119919478187
 20
170.43451886624899
 11
271.80119919478187
 21
171.88451886624881
  0
LINE
  8
_0-2_製品
  6
CONTINUOUS
 62
    2
 10
271.87619919478169
 20
171.36451886624931
 11
271.87619919478169
 21
171.9813438662494
  0
LINE
  8
_0-2_製品
  6
PLINE3
 62
    2
 10
273.00119919478169
 20
176.24951886624962
 11
273.00119919478169
 21
168.13451886624881
  0
LINE
  8
_0-2_製品
  6
CONTINUOUS
 62
    4
 10
283.00119919478169
 20
172.03451886624941
 11
273.62619919478169
 21
172.03451886624941
  0
LINE
  8
_0-2_製品
  6
CONTINUOUS
 62
    4
 10
274.50119919478169
 20
175.8345188662496
 11
283.00119919478169
 21
175.8345188662496
  0
LINE
  8
_0-2_製品
  6
CONTINUOUS
 62
    2
 10
261.85119919478154
 20
175.93451886624899
 11
264.15119919478178
 21
175.93451886624899
  0
LINE
  8
_0-2_製品
  6
CONTINUOUS
 62
    4
 10
261.85119919478154
 20
171.8345188662496
 11
264.15119919478178
 21
171.8345188662496
  0
LINE
  8
_0-2_製品
  6
CONTINUOUS
 62
    4
 10
264.15119919478178
 20
172.03451886624941
 11
272.37619919478175
 21
172.03451886624941
  0
LINE
  8
_0-2_製品
  6
CONTINUOUS
 62
    4
 10
271.50119919478169
 20
175.8345188662496
 11
264.15119919478178
 21
175.8345188662496
  0
LINE
  8
_0-2_製品
  6
CONTINUOUS
 62
    4
 10
264.15119919478178
 20
171.8345188662496
 11
264.15119919478178
 21
181.6345188662489
  0
LINE
  8
_0-2_製品
  6
CONTINUOUS
 62
    4
 10
261.85119919478154
 20
181.6345188662489
 11
261.85119919478154
 21
171.8345188662496
  0
INSERT
  2
-001-_D5
  8
_0-4_寸法
 10
-99.094391962390432
 20
-44.412232188522097
 41
0.25
 42
0.25
 50
0
  0
INSERT
  2
-002-_D6
  8
_0-4_寸法
 10
-99.094391962390432
 20
-44.412232188522097
 41
0.25
 42
0.25
 50
0
  0
ENDSEC
  0
EOF
