  0
SECTION
  2
HEADER
  9
$ACADVER
  1
AC1009
  9
$INSBASE
 10
0
 20
0
 30
0
  9
$EXTMIN
 10
0
 20
0
  9
$EXTMAX
 10
420
 20
297
  9
$LIMMIN
 10
0
 20
0
  9
$LIMMAX
 10
420
 20
297
  9
$LTSCALE
 40
1
  0
ENDSEC
  0
SECTION
  2
TABLES
  0
TABLE
  2
LTYPE
 70
     9
  0
LTYPE
  2
CONTINUOUS
 70
    64
  3
実線
 72
    65
 73
     0
 40
0.0
  0
LTYPE
  2
DASHED1
 70
    64
  3
--  --  --  --  --  --  --  --  
 72
    65
 73
     2
 40
2.5
 49
1.25
 49
-1.25
  0
LTYPE
  2
DASHED2
 70
    64
  3
----    ----    ----    ----    
 72
    65
 73
     2
 40
5.0
 49
2.5
 49
-2.5
  0
LTYPE
  2
DASHED3
 70
    64
  3
------  ------  ------  ------  
 72
    65
 73
     2
 40
5.0
 49
3.75
 49
-1.25
  0
LTYPE
  2
CENTER1
 70
    64
  3
----- - ----- - ----- - ----- - 
 72
    65
 73
     4
 40
10.0
 49
6.25
 49
-1.25
 49
1.25
 49
-1.25
  0
LTYPE
  2
CENTER2
 70
    64
  3
----------  --  ----------  --  
 72
    65
 73
     4
 40
20.0
 49
12.5
 49
-2.5
 49
2.5
 49
-2.5
  0
LTYPE
  2
PHANTOM1
 70
    64
  3
--- - - --- - - --- - - --- - - 
 72
    65
 73
     6
 40
10.0
 49
3.25
 49
-1.25
 49
1.25
 49
-1.25
 49
1.25
 49
-1.25
  0
LTYPE
  2
PHANTOM2
 70
    64
  3
--------  -  -  --------  -  -  
 72
    65
 73
     6
 40
20.0
 49
10.0
 49
-2.5
 49
1.25
 49
-2.5
 49
1.25
 49
-2.5
  0
LTYPE
  2
DOT
 70
    64
  3
-   -   -   -   -   -   -   -   
 72
    65
 73
     2
 40
2.5
 49
0.625
 49
-1.875
  0
LTYPE
  2
DUMMY
 70
    64
  3
ダミー
 72
    65
 73
     0
 40
0.0
  0
LTYPE
  2
RAND1
 70
    64
  3
ランダム線1
 72
    65
 73
     4
 40
10.0
 49
1.0
 49
-2.0
 49
3.0
 49
-4.0
  0
LTYPE
  2
RAND2
 70
    64
  3
ランダム線2
 72
    65
 73
     4
 40
14.0
 49
2.0
 49
-3.0
 49
4.0
 49
-5.0
  0
LTYPE
  2
RAND3
 70
    64
  3
ランダム線3
 72
    65
 73
     4
 40
18.0
 49
3.0
 49
-4.0
 49
5.0
 49
-6.0
  0
LTYPE
  2
RAND4
 70
    64
  3
ランダム線4
 72
    65
 73
     4
 40
22.0
 49
4.0
 49
-5.0
 49
6.0
 49
-7.0
  0
LTYPE
  2
RAND5
 70
    64
  3
ランダム線5
 72
    65
 73
     4
 40
26.0
 49
5.0
 49
-6.0
 49
7.0
 49
-8.0
  0
LTYPE
  2
LONG1
 70
    64
  3
----------  --  ----------  --  
 72
    65
 73
     4
 40
40.0
 49
32.5
 49
-2.5
 49
2.5
 49
-2.5
  0
LTYPE
  2
LONG2
 70
    64
  3
--------  -  -  --------  -  -  
 72
    65
 73
     6
 40
40.0
 49
30.0
 49
-2.5
 49
1.25
 49
-2.5
 49
1.25
 49
-2.5
  0
LTYPE
  2
LONG3
 70
    64
  3
+++++++++++++++..+++++++++++++++
 72
    65
 73
     2
 40
40.0
 49
37.5
 49
-2.5
  0
LTYPE
  2
LONG4
 70
    64
  3
+++++++++++++++..+++++++++++++++
 72
    65
 73
     2
 40
80.0
 49
75.0
 49
-5.0
  0
LTYPE
  2
LONG5
 70
    64
  3
----------  --  ----------  --  
 72
    65
 73
     4
 40
60.0
 49
37.5
 49
-7.5
 49
7.5
 49
-7.5
  0
LTYPE
  2
dashed
 70
   64
  3
-------   -------------   ------
 72
   65
 73
    2
 40
7.5
 49
6
 49
-1.5
  0
LTYPE
  2
dashed_spaced
 70
   64
  3
----        --------        ----
 72
   65
 73
    2
 40
12
 49
6
 49
-6
  0
LTYPE
  2
long_dashed_dotted
 70
   64
  3
------------- --- --------------
 72
   65
 73
    4
 40
15.25
 49
12
 49
-1.5
 49
0.25
 49
-1.5
  0
LTYPE
  2
long_dashed_double-dotted
 70
   64
  3
----------- --- --- ------------
 72
   65
 73
    6
 40
17
 49
12
 49
-1.5
 49
0.25
 49
-1.5
 49
0.25
 49
-1.5
  0
LTYPE
  2
long_dashed_triplicate-dotted
 70
   64
  3
--------- --- --- --- ----------
 72
   65
 73
    8
 40
18.75
 49
12
 49
-1.5
 49
0.25
 49
-1.5
 49
0.25
 49
-1.5
 49
0.25
 49
-1.5
  0
LTYPE
  2
dotted
 70
   64
  3
   -       -       -       -    
 72
   65
 73
    2
 40
1.75
 49
0.25
 49
-1.5
  0
LTYPE
  2
chain
 70
   64
  3
-------------- -- --------------
 72
   65
 73
    4
 40
18.5
 49
12
 49
-1.5
 49
3.5
 49
-1.5
  0
LTYPE
  2
chain_double_dash
 70
   64
  3
------------ -- -- -------------
 72
   65
 73
    6
 40
23.5
 49
12
 49
-1.5
 49
3.5
 49
-1.5
 49
3.5
 49
-1.5
  0
LTYPE
  2
dashed_dotted
 70
   64
  3
-----------     -     ----------
 72
   65
 73
    4
 40
9.25
 49
6
 49
-1.5
 49
0.25
 49
-1.5
  0
LTYPE
  2
double-dashed_dotted
 70
   64
  3
------   -----------   -   -----
 72
   65
 73
    6
 40
16.75
 49
6
 49
-1.5
 49
6
 49
-1.5
 49
0.25
 49
-1.5
  0
LTYPE
  2
dashed_double-dotted
 70
   64
  3
---------    -    -    ---------
 72
   65
 73
    6
 40
11
 49
6
 49
-1.5
 49
0.25
 49
-1.5
 49
0.25
 49
-1.5
  0
LTYPE
  2
double-dashed_double-dotted
 70
   64
  3
-----   ---------   -   -   ----
 72
   65
 73
    8
 40
18.5
 49
6
 49
-1.5
 49
6
 49
-1.5
 49
0.25
 49
-1.5
 49
0.25
 49
-1.5
  0
LTYPE
  2
dashed_triplicate-dotted
 70
   64
  3
-------    -    -    -    ------
 72
   65
 73
    8
 40
12.75
 49
6
 49
-1.5
 49
0.25
 49
-1.5
 49
0.25
 49
-1.5
 49
0.25
 49
-1.5
  0
LTYPE
  2
double-dashed_triplicate-dotted
 70
   64
  3
-----  ---------  -  -  -  -----
 72
   65
 73
   10
 40
20.25
 49
6
 49
-1.5
 49
6
 49
-1.5
 49
0.25
 49
-1.5
 49
0.25
 49
-1.5
 49
0.25
 49
-1.5
  0
LTYPE
  2
undefined
 70
   64
  3
--------------------------------
 72
   65
 73
    0
 40
0
  0
LTYPE
  2
PLINE2
 70
   64
  3
------     -----------     -----
 72
   65
 73
    2
 40
3
 49
2.1000000000000001
 49
-0.9
  0
LTYPE
  2
PLINE3
 70
   64
  3
------------   ---   -----------
 72
   65
 73
    4
 40
10
 49
7
 49
-1
 49
1
 49
-1
  0
LTYPE
  2
PLINE4
 70
   64
  3
---------   ---   ---   --------
 72
   65
 73
    6
 40
10
 49
5
 49
-1
 49
1
 49
-1
 49
1
 49
-1
  0
LTYPE
  2
PLINE5
 70
   64
  3
------     -----------     -----
 72
   65
 73
    2
 40
5
 49
3.5
 49
-1.5
  0
LTYPE
  2
PLINE6
 70
   64
  3
------------   ---   -----------
 72
   65
 73
    4
 40
15
 49
10.5
 49
-1.5
 49
1.5
 49
-1.5
  0
LTYPE
  2
PLINE7
 70
   64
  3
---------   ---   ---   --------
 72
   65
 73
    6
 40
15
 49
7.5
 49
-1.5
 49
1.5
 49
-1.5
 49
1.5
 49
-1.5
  0
LTYPE
  2
PLINE8
 70
   64
  3
------     -----------     -----
 72
   65
 73
    2
 40
7
 49
4.9000000000000004
 49
-2.1000000000000001
  0
LTYPE
  2
PLINE9
 70
   64
  3
------------   ---   -----------
 72
   65
 73
    4
 40
20
 49
14
 49
-2
 49
2
 49
-2
  0
LTYPE
  2
PLINE10
 70
   64
  3
---------   ---   ---   --------
 72
   65
 73
    6
 40
20
 49
10
 49
-2
 49
2
 49
-2
 49
2
 49
-2
  0
LTYPE
  2
PLINE11
 70
   64
  3
------     -----------     -----
 72
   65
 73
    2
 40
9
 49
6.2999999999999989
 49
-2.7000000000000002
  0
LTYPE
  2
PLINE12
 70
   64
  3
------------   ---   -----------
 72
   65
 73
    4
 40
25
 49
17.5
 49
-2.5
 49
2.5
 49
-2.5
  0
LTYPE
  2
PLINE13
 70
   64
  3
---------   ---   ---   --------
 72
   65
 73
    6
 40
25
 49
12.5
 49
-2.5
 49
2.5
 49
-2.5
 49
2.5
 49
-2.5
  0
LTYPE
  2
PLINE14
 70
   64
  3
------     -----------     -----
 72
   65
 73
    2
 40
11
 49
7.7000000000000002
 49
-3.2999999999999989
  0
LTYPE
  2
PLINE15
 70
   64
  3
------------   ---   -----------
 72
   65
 73
    4
 40
30
 49
21
 49
-3
 49
3
 49
-3
  0
LTYPE
  2
PLINE16
 70
   64
  3
---------   ---   ---   --------
 72
   65
 73
    6
 40
30
 49
15
 49
-3
 49
3
 49
-3
 49
3
 49
-3
  0
ENDTAB
  0
TABLE
  2
STYLE
  5
3
100
AcDbSymbolTable
 70
     1
  0
STYLE
  5
10
100
AcDbSymbolTableRecord
100
AcDbTextStyleTableRecord
  2
STANDARD
 70
     0
 40
0.0
 41
1.0
 50
0.0
 71
     0
 42
0.2
  3
txt
  4
bigfont.shx
  0
STYLE
  5
26
100
AcDbSymbolTableRecord
100
AcDbTextStyleTableRecord
  2
TATEGAKI
 70
    68
 40
0.0
 41
1.0
 50
0.0
 71
     0
 42
1.0
  3
txt
  4
bigfont.shx
  0
ENDTAB
  0
TABLE
  2
LAYER
 70
    3
  0
LAYER
  2
_0-2_製品
 70
   64
 62
    7
  6
CONTINUOUS
  0
LAYER
  2
_0-3_図面枠
 70
   64
 62
    7
  6
CONTINUOUS
  0
LAYER
  2
ADD_LINE
 70
   64
 62
    7
  6
CONTINUOUS
  0
ENDTAB
  0
ENDSEC
  0
SECTION
  2
BLOCKS
  0
ENDSEC
  0
SECTION
  2
ENTITIES
  0
LINE
  8
_0-2_製品
  6
CONTINUOUS
 62
    4
 10
120.83824817881924
 20
149.99651083521005
 11
145.53824817881952
 21
149.99651083521005
  0
LINE
  8
_0-2_製品
  6
CONTINUOUS
 62
    4
 10
120.83824817881924
 20
149.67651083521037
 11
145.53824817881952
 21
149.67651083521037
  0
LINE
  8
_0-2_製品
  6
CONTINUOUS
 62
    4
 10
178.53824817881952
 20
136.99651083521005
 11
88.538248178819543
 21
136.99651083521005
  0
LINE
  8
_0-2_製品
  6
PLINE2
 62
    2
 10
146.03824817881952
 20
139.59651083521035
 11
113.53824817881954
 21
139.59651083521035
  0
LINE
  8
_0-3_図面枠
  6
CONTINUOUS
 62
    2
 10
114.31175117881943
 20
126.99651083521005
 11
153.44175117881952
 21
126.99651083521005
  0
TEXT
  8
_0-3_図面枠
 62
    7
 10
114.31175217881935
 20
127.99651983521036
 40
2.9999999999999996
 41
0.8000000000000002
 50
0.0000100000010116
  1
目透しの場合テープ又は塗装
  0
LINE
  8
_0-2_製品
  6
CONTINUOUS
 62
    4
 10
178.53824817881952
 20
138.59651083521035
 11
88.538248178819543
 21
138.59651083521035
  0
LINE
  8
_0-2_製品
  6
CONTINUOUS
 62
    4
 10
178.53824817881952
 20
142.71651083521024
 11
120.83824817881924
 21
142.71651083521024
  0
LINE
  8
_0-2_製品
  6
CONTINUOUS
 62
    4
 10
178.53824817881952
 20
142.39651083521017
 11
120.83824817881924
 21
142.39651083521017
  0
LINE
  8
_0-2_製品
  6
CONTINUOUS
 62
    2
 10
120.43824817881963
 20
163.03351683521007
 11
120.43824817881963
 21
161.59651083521035
  0
LINE
  8
_0-2_製品
  6
CONTINUOUS
 62
    2
 10
117.58824817881924
 20
163.03351683521007
 11
117.58824817881924
 21
161.59651083521035
  0
LINE
  8
_0-2_製品
  6
CONTINUOUS
 62
    2
 10
119.48824817881933
 20
161.59651083521035
 11
119.48824817881933
 21
163.03351683521007
  0
LINE
  8
_0-2_製品
  6
CONTINUOUS
 62
    2
 10
116.63824817881942
 20
163.03351683521007
 11
116.63824817881942
 21
161.59651083521035
  0
LINE
  8
_0-2_製品
  6
PLINE3
 62
    2
 10
118.53824817881954
 20
139.99651083521005
 11
118.53824817881954
 21
179.99651083521005
  0
LINE
  8
_0-2_製品
  6
CONTINUOUS
 62
    4
 10
103.68824817881963
 20
149.99651083521005
 11
88.538248178819543
 21
149.99651083521005
  0
LINE
  8
_0-2_製品
  6
CONTINUOUS
 62
    4
 10
103.68824817881963
 20
149.67651083521037
 11
88.538248178819543
 21
149.67651083521037
  0
LINE
  8
_0-2_製品
  6
PLINE2
 62
    2
 10
103.53824817881954
 20
139.59651083521035
 11
88.538248178819543
 21
139.59651083521035
  0
LINE
  8
_0-2_製品
  6
CONTINUOUS
 62
    4
 10
104.73824817881933
 20
142.39651083521017
 11
88.538248178819543
 21
142.39651083521017
  0
LINE
  8
_0-2_製品
  6
CONTINUOUS
 62
    4
 10
104.73824817881933
 20
142.71651083521024
 11
88.538248178819543
 21
142.71651083521024
  0
LINE
  8
_0-2_製品
  6
CONTINUOUS
 62
    2
 10
94.038248178819543
 20
138.59651083521035
 11
94.038248178819543
 21
136.99651083521005
  0
LINE
  8
_0-2_製品
  6
CONTINUOUS
 62
    2
 10
95.038248178819543
 20
138.59651083521035
 11
95.038248178819543
 21
136.99651083521005
  0
LINE
  8
_0-2_製品
  6
CONTINUOUS
 62
    2
 10
91.038248178819543
 20
138.59651083521035
 11
91.038248178819543
 21
136.99651083521005
  0
LINE
  8
_0-2_製品
  6
CONTINUOUS
 62
    2
 10
90.038248178819543
 20
138.59651083521035
 11
90.038248178819543
 21
136.99651083521005
  0
LINE
  8
_0-2_製品
  6
CONTINUOUS
 62
    2
 10
116.23824817881933
 20
161.59651083521035
 11
120.83824817881924
 21
161.59651083521035
  0
LINE
  8
_0-2_製品
  6
CONTINUOUS
 62
    2
 10
116.23824817881933
 20
161.19651083521026
 11
120.83824817881924
 21
161.19651083521026
  0
LINE
  8
_0-2_製品
  6
CONTINUOUS
 62
    2
 10
120.43824817881963
 20
159.75950483521015
 11
120.15593417881954
 21
159.59651083521035
  0
ARC
  8
_0-2_製品
  6
CONTINUOUS
 62
    2
 10
118.53824817881954
 20
162.44651083521026
 40
2.8500000000000001
 50
250.52877899998791
 51
289.47122100001201
  0
ARC
  8
_0-2_製品
  6
CONTINUOUS
 62
    2
 10
119.94652217881944
 20
160.32224583521037
 40
0.7257350000000001
 50
230.84205499999482
 51
270
  0
LINE
  8
_0-2_製品
  6
CONTINUOUS
 62
    4
 10
119.48824817881933
 20
155.59651083521035
 11
117.58824817881924
 21
155.59651083521035
  0
LINE
  8
_0-2_製品
  6
CONTINUOUS
 62
    4
 10
119.48824817881933
 20
159.59651083521035
 11
119.48824817881933
 21
155.59651083521035
  0
LINE
  8
_0-2_製品
  6
CONTINUOUS
 62
    4
 10
117.58824817881924
 20
155.59651083521035
 11
117.58824817881924
 21
159.59651083521035
  0
LINE
  8
_0-2_製品
  6
CONTINUOUS
 62
    2
 10
116.92056317881935
 20
159.59651083521035
 11
116.63824817881942
 21
159.75950483521015
  0
LINE
  8
_0-2_製品
  6
CONTINUOUS
 62
    4
 10
113.38824817881942
 20
149.99651083521005
 11
116.23824817881933
 21
149.99651083521005
  0
LINE
  8
_0-2_製品
  6
CONTINUOUS
 62
    4
 10
113.38824817881942
 20
149.67651083521037
 11
116.23824817881933
 21
149.67651083521037
  0
ARC
  8
_0-2_製品
  6
CONTINUOUS
 62
    2
 10
111.73824817881933
 20
148.59651083521035
 40
0.4
 50
0
 51
90
  0
LINE
  8
_0-2_製品
  6
CONTINUOUS
 62
    2
 10
120.15593417881954
 20
159.59651083521035
 11
116.92056317881935
 21
159.59651083521035
  0
ARC
  8
_0-2_製品
  6
CONTINUOUS
 62
    2
 10
117.12997517881954
 20
160.32224583521037
 40
0.7257350000000001
 50
270
 51
309.15794500000521
  0
LINE
  8
_0-2_製品
  6
CONTINUOUS
 62
    4
 10
120.83824817881924
 20
151.99651083521005
 11
116.23824817881933
 21
151.99651083521005
  0
LINE
  8
_0-2_製品
  6
CONTINUOUS
 62
    2
 10
120.43824817881963
 20
159.75950483521015
 11
120.43824817881963
 21
161.19651083521026
  0
LINE
  8
_0-2_製品
  6
CONTINUOUS
 62
    2
 10
117.58824817881924
 20
159.75950483521015
 11
117.58824817881924
 21
161.19651083521026
  0
LINE
  8
_0-2_製品
  6
CONTINUOUS
 62
    2
 10
119.48824817881933
 20
161.19651083521026
 11
119.48824817881933
 21
159.75950483521015
  0
LINE
  8
_0-2_製品
  6
CONTINUOUS
 62
    2
 10
116.63824817881942
 20
159.75950483521015
 11
116.63824817881942
 21
161.19651083521026
  0
ARC
  8
_0-2_製品
  6
CONTINUOUS
 62
    2
 10
105.33824817881924
 20
148.59651083521035
 40
0.4
 50
90
 51
180
  0
TEXT
  8
_0-3_図面枠
 62
    7
 10
104.03235417881965
 20
151.99651983521036
 40
3
 41
0.8000000000000001
 50
0
  1
（Ｗ）
  0
LINE
  8
_0-2_製品
  6
CONTINUOUS
 62
    2
 10
113.33824817881924
 20
150.11651083521036
 11
103.73824817881933
 21
150.11651083521036
  0
LINE
  8
_0-2_製品
  6
CONTINUOUS
 62
    2
 10
111.73824817881933
 20
148.99651083521005
 11
105.33824817881924
 21
148.99651083521005
  0
LINE
  8
_0-2_製品
  6
CONTINUOUS
 62
    2
 10
130.03824817881952
 20
138.59651083521035
 11
130.03824817881952
 21
136.99651083521005
  0
LINE
  8
_0-2_製品
  6
CONTINUOUS
 62
    2
 10
126.03824817881954
 20
138.59651083521035
 11
126.03824817881954
 21
136.99651083521005
  0
LINE
  8
_0-2_製品
  6
CONTINUOUS
 62
    2
 10
127.03824817881954
 20
138.59651083521035
 11
127.03824817881954
 21
136.99651083521005
  0
LINE
  8
_0-2_製品
  6
CONTINUOUS
 62
    2
 10
123.03824817881954
 20
138.59651083521035
 11
123.03824817881954
 21
136.99651083521005
  0
LINE
  8
_0-2_製品
  6
CONTINUOUS
 62
    2
 10
122.03824817881954
 20
138.59651083521035
 11
122.03824817881954
 21
136.99651083521005
  0
LINE
  8
_0-2_製品
  6
CONTINUOUS
 62
    2
 10
118.03824817881954
 20
138.59651083521035
 11
118.03824817881954
 21
136.99651083521005
  0
LINE
  8
_0-2_製品
  6
CONTINUOUS
 62
    2
 10
119.03824817881954
 20
138.59651083521035
 11
119.03824817881954
 21
136.99651083521005
  0
ARC
  8
_0-2_製品
  6
CONTINUOUS
 62
    2
 10
112.93824817881963
 20
145.39651083521017
 40
0.4
 50
281.73730099999722
 51
0.0000000000000127
  0
ARC
  8
_0-2_製品
  6
CONTINUOUS
 62
    2
 10
113.33824817881924
 20
144.05688383521027
 40
1
 50
108.2674109999966
 51
180
  0
LINE
  8
_0-2_製品
  6
CONTINUOUS
 62
    4
 10
112.33824817881924
 20
142.71651083521024
 11
116.23824817881933
 21
142.71651083521024
  0
LINE
  8
_0-2_製品
  6
CONTINUOUS
 62
    2
 10
113.33824817881924
 20
140.91651083521006
 11
113.33824817881924
 21
142.29015983521026
  0
LINE
  8
_0-2_製品
  6
CONTINUOUS
 62
    2
 10
113.43824817881963
 20
139.19651083521026
 11
113.43824817881963
 21
142.09651083521035
  0
LINE
  8
_0-2_製品
  6
CONTINUOUS
 62
    2
 10
113.53824817881954
 20
139.19651083521026
 11
113.53824817881954
 21
142.09651083521035
  0
ARC
  8
_0-2_製品
  6
CONTINUOUS
 62
    2
 10
113.23824817881933
 20
142.09651083521035
 40
0.2
 50
0
 51
90
  0
LINE
  8
_0-2_製品
  6
CONTINUOUS
 62
    2
 10
113.23824817881933
 20
142.29651083521017
 11
113.03824817881954
 21
142.29651083521017
  0
ARC
  8
_0-2_製品
  6
CONTINUOUS
 62
    2
 10
113.03824817881954
 20
142.09651083521035
 40
0.2
 50
90
 51
180
  0
LINE
  8
_0-2_製品
  6
CONTINUOUS
 62
    2
 10
112.83824817881924
 20
142.09651083521035
 11
112.83824817881924
 21
141.79651083521026
  0
LINE
  8
_0-2_製品
  6
CONTINUOUS
 62
    2
 10
112.83824817881924
 20
141.79651083521026
 11
112.73824817881933
 21
141.79651083521026
  0
LINE
  8
_0-2_製品
  6
CONTINUOUS
 62
    2
 10
112.73824817881933
 20
141.79651083521026
 11
112.73824817881933
 21
142.09651083521035
  0
ARC
  8
_0-2_製品
  6
CONTINUOUS
 62
    2
 10
113.03824817881954
 20
142.09651083521035
 40
0.2999999999999999
 50
90
 51
180
  0
ARC
  8
_0-2_製品
  6
CONTINUOUS
 62
    2
 10
113.23824817881933
 20
142.09651083521035
 40
0.2999999999999999
 50
0
 51
90
  0
ARC
  8
_0-2_製品
  6
CONTINUOUS
 62
    2
 10
112.93824817881963
 20
140.91651083521006
 40
0.4
 50
270
 51
0
  0
ARC
  8
_0-2_製品
  6
CONTINUOUS
 62
    2
 10
113.14941717881933
 20
142.13651083521034
 40
0.16
 50
90
 51
168.69006800000321
  0
LINE
  8
_0-2_製品
  6
CONTINUOUS
 62
    2
 10
112.91459517881944
 20
141.77824183521005
 11
112.99252417881942
 21
142.16788983521036
  0
ARC
  8
_0-2_製品
  6
CONTINUOUS
 62
    2
 10
112.63824817881942
 20
141.89501083521026
 40
0.3000039999999999
 50
179.71352299999501
 51
337.20392700001526
  0
LINE
  8
_0-2_製品
  6
CONTINUOUS
 62
    4
 10
112.33824817881924
 20
142.39651083521017
 11
116.23824817881933
 21
142.39651083521017
  0
LINE
  8
_0-2_製品
  6
CONTINUOUS
 62
    2
 10
112.33824817881924
 20
144.05688383521027
 11
112.33824817881924
 21
141.89651083521017
  0
ARC
  8
_0-2_製品
  6
CONTINUOUS
 62
    2
 10
109.43824817881963
 20
144.79651083521026
 40
0.5999999999999999
 50
0
 51
90
  0
LINE
  8
_0-2_製品
  6
CONTINUOUS
 62
    2
 10
111.63824817881942
 20
145.39651083521017
 11
111.73824817881933
 21
145.39651083521017
  0
ARC
  8
_0-2_製品
  6
CONTINUOUS
 62
    2
 10
111.63824817881942
 20
144.79651083521026
 40
0.5999999999999999
 50
90
 51
180
  0
ARC
  8
_0-2_製品
  6
CONTINUOUS
 62
    2
 10
107.63824817881942
 20
144.79651083521026
 40
0.5999999999999999
 50
90
 51
180
  0
LINE
  8
_0-2_製品
  6
CONTINUOUS
 62
    2
 10
107.63824817881942
 20
145.39651083521017
 11
109.43824817881963
 21
145.39651083521017
  0
ARC
  8
_0-2_製品
  6
CONTINUOUS
 62
    2
 10
110.53824817881954
 20
141.57651083521046
 40
0.5
 50
180
 51
0
  0
LINE
  8
_0-2_製品
  6
CONTINUOUS
 62
    2
 10
107.03824817881954
 20
141.57651083521046
 11
107.03824817881954
 21
144.79651083521026
  0
LINE
  8
_0-2_製品
  6
CONTINUOUS
 62
    2
 10
111.03824817881954
 20
141.57651083521046
 11
111.03824817881954
 21
144.79651083521026
  0
LINE
  8
_0-2_製品
  6
CONTINUOUS
 62
    2
 10
110.03824817881954
 20
141.57651083521046
 11
110.03824817881954
 21
144.79651083521026
  0
ARC
  8
_0-2_製品
  6
CONTINUOUS
 62
    2
 10
111.73824817881933
 20
145.79651083521026
 40
0.4
 50
270
 51
0
  0
LINE
  8
_0-2_製品
  6
CONTINUOUS
 62
    2
 10
115.03824817881954
 20
138.59651083521035
 11
115.03824817881954
 21
136.99651083521005
  0
LINE
  8
_0-2_製品
  6
CONTINUOUS
 62
    2
 10
114.03824817881954
 20
138.59651083521035
 11
114.03824817881954
 21
136.99651083521005
  0
LINE
  8
_0-2_製品
  6
CONTINUOUS
 62
    2
 10
112.93824817881963
 20
138.69651083521026
 11
112.36304817881933
 21
138.69651083521026
  0
ARC
  8
_0-2_製品
  6
CONTINUOUS
 62
    2
 10
112.12544817881943
 20
138.56691083521005
 40
0.12
 50
63.477641999995569
 51
108.46514899998782
  0
ARC
  8
_0-2_製品
  6
CONTINUOUS
 62
    2
 10
112.12544817881943
 20
138.66691083521044
 40
0.12
 50
63.477641999995569
 51
108.4349520000066
  0
LINE
  8
_0-2_製品
  6
CONTINUOUS
 62
    2
 10
112.30944817881922
 20
138.70911083521037
 11
112.17904817881964
 21
138.77431083521034
  0
LINE
  8
_0-2_製品
  6
CONTINUOUS
 62
    2
 10
112.08744817881944
 20
138.68071083521016
 11
111.87244817881933
 21
138.60911083521046
  0
LINE
  8
_0-2_製品
  6
CONTINUOUS
 62
    2
 10
112.30944817881922
 20
138.60911083521046
 11
112.17904817881964
 21
138.67431083521035
  0
LINE
  8
_0-2_製品
  6
CONTINUOUS
 62
    2
 10
112.08744817881944
 20
138.78091083521005
 11
111.87264817881925
 21
138.70911083521037
  0
ARC
  8
_0-2_製品
  6
CONTINUOUS
 62
    2
 10
112.36304817881933
 20
138.81651083521015
 40
0.12
 50
243.4776460000104
 51
270
  0
ARC
  8
_0-2_製品
  6
CONTINUOUS
 62
    2
 10
112.36304817881933
 20
138.71651083521024
 40
0.12
 50
243.4776460000104
 51
270
  0
LINE
  8
_0-2_製品
  6
CONTINUOUS
 62
    2
 10
112.93824817881963
 20
138.59651083521035
 11
112.35024817881944
 21
138.59651083521035
  0
LINE
  8
_0-2_製品
  6
CONTINUOUS
 62
    2
 10
110.03824817881954
 20
138.59651083521035
 11
110.03824817881954
 21
136.99651083521005
  0
LINE
  8
_0-2_製品
  6
CONTINUOUS
 62
    2
 10
111.03824817881954
 20
138.59651083521035
 11
111.03824817881954
 21
136.99651083521005
  0
ARC
  8
_0-2_製品
  6
CONTINUOUS
 62
    2
 10
110.93464817881963
 20
138.67011083521015
 40
0.12
 50
71.534851000012111
 51
108.46514899998782
  0
ARC
  8
_0-2_製品
  6
CONTINUOUS
 62
    2
 10
110.93464817881963
 20
138.57011083521016
 40
0.12
 50
71.534851000012111
 51
108.46514899998782
  0
LINE
  8
_0-2_製品
  6
CONTINUOUS
 62
    2
 10
111.49664817881953
 20
138.68391083521027
 11
111.27264817881934
 21
138.60911083521046
  0
LINE
  8
_0-2_製品
  6
CONTINUOUS
 62
    2
 10
111.49664817881953
 20
138.78391083521015
 11
111.27264817881934
 21
138.70911083521037
  0
LINE
  8
_0-2_製品
  6
CONTINUOUS
 62
    2
 10
111.19664817881934
 20
138.70911083521037
 11
110.97264817881964
 21
138.78391083521015
  0
LINE
  8
_0-2_製品
  6
CONTINUOUS
 62
    2
 10
111.19664817881934
 20
138.60911083521046
 11
110.97264817881964
 21
138.68391083521027
  0
LINE
  8
_0-2_製品
  6
CONTINUOUS
 62
    2
 10
110.89664817881953
 20
138.78391083521015
 11
110.67264817881943
 21
138.70911083521037
  0
LINE
  8
_0-2_製品
  6
CONTINUOUS
 62
    2
 10
110.89664817881953
 20
138.68391083521027
 11
110.67264817881943
 21
138.60911083521046
  0
ARC
  8
_0-2_製品
  6
CONTINUOUS
 62
    2
 10
110.63464817881945
 20
138.82291083521037
 40
0.12
 50
251.53485100001211
 51
288.46514899998778
  0
ARC
  8
_0-2_製品
  6
CONTINUOUS
 62
    2
 10
110.63464817881945
 20
138.72291083521006
 40
0.12
 50
251.53485100001211
 51
288.46514899998778
  0
ARC
  8
_0-2_製品
  6
CONTINUOUS
 62
    2
 10
110.33464817881924
 20
138.67011083521015
 40
0.12
 50
71.534851000012111
 51
108.46514899998782
  0
ARC
  8
_0-2_製品
  6
CONTINUOUS
 62
    2
 10
110.33464817881924
 20
138.57011083521016
 40
0.12
 50
71.534851000012111
 51
108.46514899998782
  0
ARC
  8
_0-2_製品
  6
CONTINUOUS
 62
    2
 10
110.03464817881954
 20
138.72291083521006
 40
0.12
 50
251.53485100001211
 51
288.46514899998778
  0
ARC
  8
_0-2_製品
  6
CONTINUOUS
 62
    2
 10
110.03464817881954
 20
138.82291083521037
 40
0.12
 50
251.53485100001211
 51
288.46514899998778
  0
ARC
  8
_0-2_製品
  6
CONTINUOUS
 62
    2
 10
109.74384817881935
 20
138.66691083521044
 40
0.12
 50
71.534851000012111
 51
116.52235399998952
  0
ARC
  8
_0-2_製品
  6
CONTINUOUS
 62
    2
 10
109.74384817881935
 20
138.56691083521005
 40
0.12
 50
71.534851000012111
 51
116.52235399998952
  0
LINE
  8
_0-2_製品
  6
CONTINUOUS
 62
    2
 10
110.59664817881944
 20
138.70911083521037
 11
110.37264817881925
 21
138.78391083521015
  0
LINE
  8
_0-2_製品
  6
CONTINUOUS
 62
    2
 10
110.59664817881944
 20
138.60911083521046
 11
110.37264817881925
 21
138.68391083521027
  0
LINE
  8
_0-2_製品
  6
CONTINUOUS
 62
    2
 10
110.29664817881923
 20
138.68391083521027
 11
110.07264817881955
 21
138.60911083521046
  0
LINE
  8
_0-2_製品
  6
CONTINUOUS
 62
    2
 10
110.29664817881923
 20
138.78391083521015
 11
110.07264817881955
 21
138.70911083521037
  0
LINE
  8
_0-2_製品
  6
CONTINUOUS
 62
    2
 10
109.99664817881953
 20
138.70911083521037
 11
109.78184817881933
 21
138.78071083521004
  0
LINE
  8
_0-2_製品
  6
CONTINUOUS
 62
    2
 10
109.99664817881953
 20
138.60911083521046
 11
109.78184817881933
 21
138.68071083521016
  0
LINE
  8
_0-2_製品
  6
CONTINUOUS
 62
    2
 10
109.69024817881953
 20
138.77431083521034
 11
109.55984817881955
 21
138.70911083521037
  0
ARC
  8
_0-2_製品
  6
CONTINUOUS
 62
    2
 10
111.53464817881954
 20
138.67011083521015
 40
0.12
 50
71.534851000012111
 51
108.46514899998782
  0
ARC
  8
_0-2_製品
  6
CONTINUOUS
 62
    2
 10
111.53464817881954
 20
138.57011083521016
 40
0.12
 50
71.534851000012111
 51
108.46514899998782
  0
ARC
  8
_0-2_製品
  6
CONTINUOUS
 62
    2
 10
111.23464817881933
 20
138.72291083521006
 40
0.12
 50
251.53485100001211
 51
288.46514899998778
  0
ARC
  8
_0-2_製品
  6
CONTINUOUS
 62
    2
 10
111.23464817881933
 20
138.82291083521037
 40
0.12
 50
251.53485100001211
 51
288.46514899998778
  0
LINE
  8
_0-2_製品
  6
CONTINUOUS
 62
    2
 10
111.79664817881923
 20
138.70911083521037
 11
111.57264817881955
 21
138.78391083521015
  0
LINE
  8
_0-2_製品
  6
CONTINUOUS
 62
    2
 10
111.79664817881923
 20
138.60911083521046
 11
111.57264817881955
 21
138.68391083521027
  0
ARC
  8
_0-2_製品
  6
CONTINUOUS
 62
    2
 10
109.50624817881945
 20
138.81651083521015
 40
0.12
 50
270
 51
296.52236899998411
  0
ARC
  8
_0-2_製品
  6
CONTINUOUS
 62
    2
 10
109.50624817881945
 20
138.71651083521024
 40
0.12
 50
270
 51
296.52236899998411
  0
LINE
  8
_0-2_製品
  6
CONTINUOUS
 62
    2
 10
109.69024817881953
 20
138.67431083521035
 11
109.55984817881955
 21
138.60911083521046
  0
CIRCLE
  8
_0-3_図面枠
  6
CONTINUOUS
 62
    2
 10
108.53824817881954
 20
136.99651083521005
 40
0.2999999999999999
  0
LINE
  8
_0-2_製品
  6
CONTINUOUS
 62
    2
 10
107.03824817881954
 20
138.59651083521035
 11
107.03824817881954
 21
136.99651083521005
  0
ARC
  8
_0-2_製品
  6
CONTINUOUS
 62
    2
 10
106.74184817881934
 20
138.67011083521015
 40
0.12
 50
71.534851000012111
 51
108.46514899998782
  0
ARC
  8
_0-2_製品
  6
CONTINUOUS
 62
    2
 10
106.74184817881934
 20
138.57011083521016
 40
0.12
 50
71.534851000012111
 51
108.46514899998782
  0
ARC
  8
_0-2_製品
  6
CONTINUOUS
 62
    2
 10
107.04184817881955
 20
138.72291083521006
 40
0.12
 50
251.53485100001211
 51
288.46514899998778
  0
LINE
  8
_0-2_製品
  6
CONTINUOUS
 62
    2
 10
106.77984817881935
 20
138.68391083521027
 11
107.00384817881954
 21
138.60911083521046
  0
LINE
  8
_0-2_製品
  6
CONTINUOUS
 62
    2
 10
107.57024817881924
 20
138.59651083521035
 11
108.30984817881955
 21
138.59651083521035
  0
LINE
  8
_0-2_製品
  6
CONTINUOUS
 62
    2
 10
108.71304817881935
 20
138.70911083521037
 11
108.59184817881925
 21
138.76971083521016
  0
LINE
  8
_0-2_製品
  6
CONTINUOUS
 62
    2
 10
108.71304817881935
 20
138.60911083521046
 11
108.59184817881925
 21
138.66971083521017
  0
LINE
  8
_0-2_製品
  6
CONTINUOUS
 62
    2
 10
107.57024817881924
 20
138.69651083521026
 11
108.30984817881955
 21
138.69651083521026
  0
ARC
  8
_0-2_製品
  6
CONTINUOUS
 62
    2
 10
107.04184817881955
 20
138.82291083521037
 40
0.12
 50
251.53485100001211
 51
288.46514899998778
  0
LINE
  8
_0-2_製品
  6
CONTINUOUS
 62
    2
 10
106.77984817881935
 20
138.78391083521015
 11
107.00384817881954
 21
138.70911083521037
  0
LINE
  8
_0-2_製品
  6
CONTINUOUS
 62
    2
 10
107.07984817881953
 20
138.70911083521037
 11
107.29464817881933
 21
138.78071083521004
  0
ARC
  8
_0-2_製品
  6
CONTINUOUS
 62
    2
 10
107.33264817881923
 20
138.66691083521044
 40
0.12
 50
63.477641999995569
 51
108.46514899998782
  0
LINE
  8
_0-2_製品
  6
CONTINUOUS
 62
    2
 10
107.07984817881953
 20
138.60911083521046
 11
107.29464817881933
 21
138.68071083521016
  0
ARC
  8
_0-2_製品
  6
CONTINUOUS
 62
    2
 10
107.33264817881923
 20
138.56691083521005
 40
0.12
 50
63.477641999995569
 51
108.46514899998782
  0
LINE
  8
_0-2_製品
  6
CONTINUOUS
 62
    2
 10
107.38624817881953
 20
138.77431083521034
 11
107.51664817881954
 21
138.70911083521037
  0
ARC
  8
_0-2_製品
  6
CONTINUOUS
 62
    2
 10
107.57024817881924
 20
138.81651083521015
 40
0.12
 50
243.4776460000104
 51
270
  0
LINE
  8
_0-2_製品
  6
CONTINUOUS
 62
    2
 10
107.38624817881953
 20
138.67431083521035
 11
107.51664817881954
 21
138.60911083521046
  0
ARC
  8
_0-2_製品
  6
CONTINUOUS
 62
    2
 10
107.57024817881924
 20
138.71651083521024
 40
0.12
 50
243.4776460000104
 51
270
  0
LINE
  8
_0-2_製品
  6
CONTINUOUS
 62
    2
 10
108.36344817881934
 20
138.60911083521046
 11
108.48464817881933
 21
138.66971083521017
  0
ARC
  8
_0-2_製品
  6
CONTINUOUS
 62
    2
 10
108.53824817881954
 20
138.66231083521026
 40
0.12
 50
63.477641999995569
 51
116.52235399998949
  0
ARC
  8
_0-2_製品
  6
CONTINUOUS
 62
    2
 10
108.53824817881954
 20
138.56231083521035
 40
0.12
 50
63.477641999995569
 51
116.52235399998949
  0
ARC
  8
_0-2_製品
  6
CONTINUOUS
 62
    2
 10
108.76664817881942
 20
138.81651083521015
 40
0.12
 50
243.4776460000104
 51
270
  0
ARC
  8
_0-2_製品
  6
CONTINUOUS
 62
    2
 10
108.76664817881942
 20
138.71651083521024
 40
0.12
 50
243.4776460000104
 51
270
  0
ARC
  8
_0-2_製品
  6
CONTINUOUS
 62
    2
 10
108.30984817881955
 20
138.71651083521024
 40
0.12
 50
270
 51
296.52236899998411
  0
LINE
  8
_0-2_製品
  6
CONTINUOUS
 62
    2
 10
108.36344817881934
 20
138.70911083521037
 11
108.48464817881933
 21
138.76971083521016
  0
ARC
  8
_0-2_製品
  6
CONTINUOUS
 62
    2
 10
108.30984817881955
 20
138.81651083521015
 40
0.12
 50
270
 51
296.52236899998411
  0
LINE
  8
_0-2_製品
  6
CONTINUOUS
 62
    2
 10
109.50624817881945
 20
138.69651083521026
 11
108.76664817881942
 21
138.69651083521026
  0
LINE
  8
_0-2_製品
  6
CONTINUOUS
 62
    2
 10
109.50624817881945
 20
138.59651083521035
 11
108.76664817881942
 21
138.59651083521035
  0
ARC
  8
_0-2_製品
  6
CONTINUOUS
 62
    2
 10
111.83464817881924
 20
138.72291083521006
 40
0.12
 50
251.53485100001211
 51
288.37451200000783
  0
ARC
  8
_0-2_製品
  6
CONTINUOUS
 62
    2
 10
111.83464817881924
 20
138.82311083521037
 40
0.12
 50
251.56504799999342
 51
288.43493700000215
  0
ARC
  8
_0-2_製品
  6
CONTINUOUS
 62
    2
 10
112.93824817881963
 20
139.19651083521026
 40
0.5999999999999999
 50
270
 51
0
  0
ARC
  8
_0-2_製品
  6
CONTINUOUS
 62
    2
 10
112.93824817881963
 20
139.19651083521026
 40
0.5
 50
270
 51
0
  0
LINE
  8
_0-2_製品
  6
CONTINUOUS
 62
    4
 10
120.83824817881924
 20
141.99651083521005
 11
116.23824817881933
 21
141.99651083521005
  0
LINE
  8
_0-3_図面枠
  6
CONTINUOUS
 62
    2
 10
108.53824817881954
 20
136.99651083521005
 11
114.31175117881943
 21
126.99651083521005
  0
ARC
  8
_0-2_製品
  6
CONTINUOUS
 62
    2
 10
105.33824817881924
 20
145.79651083521026
 40
0.4
 50
180
 51
270
  0
LINE
  8
_0-2_製品
  6
CONTINUOUS
 62
    2
 10
105.43824817881963
 20
145.39651083521017
 11
105.33824817881924
 21
145.39651083521017
  0
ARC
  8
_0-2_製品
  6
CONTINUOUS
 62
    2
 10
105.43824817881963
 20
144.79651083521026
 40
0.5999999999999999
 50
0
 51
90
  0
ARC
  8
_0-2_製品
  6
CONTINUOUS
 62
    2
 10
103.73824817881933
 20
144.05688383521027
 40
1
 50
0
 51
71.732589000003372
  0
ARC
  8
_0-2_製品
  6
CONTINUOUS
 62
    2
 10
104.13824817881942
 20
145.39651083521017
 40
0.4
 50
180
 51
258.26269900000278
  0
ARC
  8
_0-2_製品
  6
CONTINUOUS
 62
    2
 10
104.03824817881954
 20
142.09651083521035
 40
0.2
 50
0
 51
90
  0
LINE
  8
_0-2_製品
  6
CONTINUOUS
 62
    2
 10
104.23824817881933
 20
142.09651083521035
 11
104.23824817881933
 21
141.79651083521026
  0
LINE
  8
_0-2_製品
  6
CONTINUOUS
 62
    2
 10
104.23824817881933
 20
141.79651083521026
 11
104.33824817881924
 21
141.79651083521026
  0
LINE
  8
_0-2_製品
  6
CONTINUOUS
 62
    2
 10
104.33824817881924
 20
141.79651083521026
 11
104.33824817881924
 21
142.09651083521035
  0
ARC
  8
_0-2_製品
  6
CONTINUOUS
 62
    2
 10
104.03824817881954
 20
142.09651083521035
 40
0.2999999999999999
 50
0
 51
90
  0
ARC
  8
_0-2_製品
  6
CONTINUOUS
 62
    3
 10
103.92708017881964
 20
142.13651083521034
 40
0.16
 50
11.30993199999679
 51
90
  0
LINE
  8
_0-2_製品
  6
CONTINUOUS
 62
    2
 10
104.16190217881953
 20
141.77824183521005
 11
104.08397317881943
 21
142.16788983521036
  0
ARC
  8
_0-2_製品
  6
CONTINUOUS
 62
    2
 10
104.43824817881963
 20
141.89501083521026
 40
0.3000039999999999
 50
202.79607299998469
 51
0.2864770000049317
  0
LINE
  8
_0-2_製品
  6
CONTINUOUS
 62
    2
 10
103.73824817881933
 20
142.26971583521046
 11
103.73824817881933
 21
140.91651083521006
  0
LINE
  8
_0-2_製品
  6
CONTINUOUS
 62
    2
 10
103.63824817881942
 20
139.19651083521026
 11
103.63824817881942
 21
142.09651083521035
  0
LINE
  8
_0-2_製品
  6
CONTINUOUS
 62
    2
 10
103.53824817881954
 20
139.19651083521026
 11
103.53824817881954
 21
142.09651083521035
  0
ARC
  8
_0-2_製品
  6
CONTINUOUS
 62
    2
 10
103.83824817881924
 20
142.09651083521035
 40
0.2
 50
90
 51
180
  0
ARC
  8
_0-2_製品
  6
CONTINUOUS
 62
    2
 10
103.83824817881924
 20
142.09651083521035
 40
0.2999999999999999
 50
90
 51
180
  0
LINE
  8
_0-2_製品
  6
CONTINUOUS
 62
    2
 10
103.83824817881924
 20
142.29651083521017
 11
104.03824817881954
 21
142.29651083521017
  0
ARC
  8
_0-2_製品
  6
CONTINUOUS
 62
    2
 10
104.13824817881942
 20
140.91651083521006
 40
0.4
 50
180
 51
270
  0
LINE
  8
_0-2_製品
  6
CONTINUOUS
 62
    2
 10
104.73824817881933
 20
144.05688383521027
 11
104.73824817881933
 21
141.89651083521017
  0
LINE
  8
_0-2_製品
  6
CONTINUOUS
 62
    2
 10
106.03824817881954
 20
141.57651083521046
 11
106.03824817881954
 21
144.79651083521026
  0
CIRCLE
  8
_0-3_図面枠
  6
CONTINUOUS
 62
    2
 10
98.538248178819543
 20
139.59651083521035
 40
0.2999999999999999
  0
LINE
  8
_0-2_製品
  6
CONTINUOUS
 62
    2
 10
106.03824817881954
 20
138.59651083521035
 11
106.03824817881954
 21
136.99651083521005
  0
ARC
  8
_0-2_製品
  6
CONTINUOUS
 62
    2
 10
104.95104817881963
 20
138.56691083521005
 40
0.12
 50
71.534851000012111
 51
116.52235399998952
  0
LINE
  8
_0-2_製品
  6
CONTINUOUS
 62
    2
 10
104.76704817881944
 20
138.70911083521037
 11
104.89744817881945
 21
138.77431083521034
  0
ARC
  8
_0-2_製品
  6
CONTINUOUS
 62
    2
 10
104.95104817881963
 20
138.66691083521044
 40
0.12
 50
71.565047999993382
 51
116.52235399998952
  0
LINE
  8
_0-2_製品
  6
CONTINUOUS
 62
    2
 10
104.98904817881964
 20
138.68071083521016
 11
105.20404817881933
 21
138.60911083521046
  0
ARC
  8
_0-2_製品
  6
CONTINUOUS
 62
    2
 10
105.24184817881934
 20
138.72291083521006
 40
0.12
 50
251.62548799999212
 51
288.46514899998778
  0
LINE
  8
_0-2_製品
  6
CONTINUOUS
 62
    2
 10
104.76704817881944
 20
138.60911083521046
 11
104.89744817881945
 21
138.67431083521035
  0
LINE
  8
_0-2_製品
  6
CONTINUOUS
 62
    2
 10
105.57984817881953
 20
138.68391083521027
 11
105.80384817881924
 21
138.60911083521046
  0
LINE
  8
_0-2_製品
  6
CONTINUOUS
 62
    2
 10
105.57984817881953
 20
138.78391083521015
 11
105.80384817881924
 21
138.70911083521037
  0
LINE
  8
_0-2_製品
  6
CONTINUOUS
 62
    2
 10
105.87984817881923
 20
138.70911083521037
 11
106.10384817881945
 21
138.78391083521015
  0
ARC
  8
_0-2_製品
  6
CONTINUOUS
 62
    2
 10
106.14184817881943
 20
138.67011083521015
 40
0.12
 50
71.534851000012111
 51
108.46514899998782
  0
LINE
  8
_0-2_製品
  6
CONTINUOUS
 62
    2
 10
105.87984817881923
 20
138.60911083521046
 11
106.10384817881945
 21
138.68391083521027
  0
ARC
  8
_0-2_製品
  6
CONTINUOUS
 62
    2
 10
106.14184817881943
 20
138.57011083521016
 40
0.12
 50
71.534851000012111
 51
108.46514899998782
  0
LINE
  8
_0-2_製品
  6
CONTINUOUS
 62
    2
 10
106.17984817881944
 20
138.78391083521015
 11
106.40384817881963
 21
138.70911083521037
  0
LINE
  8
_0-2_製品
  6
CONTINUOUS
 62
    2
 10
106.17984817881944
 20
138.68391083521027
 11
106.40384817881963
 21
138.60911083521046
  0
ARC
  8
_0-2_製品
  6
CONTINUOUS
 62
    2
 10
106.44184817881964
 20
138.82291083521037
 40
0.12
 50
251.53485100001211
 51
288.46514899998778
  0
ARC
  8
_0-2_製品
  6
CONTINUOUS
 62
    2
 10
106.44184817881964
 20
138.72291083521006
 40
0.12
 50
251.53485100001211
 51
288.46514899998778
  0
LINE
  8
_0-2_製品
  6
CONTINUOUS
 62
    2
 10
104.13824817881942
 20
138.69651083521026
 11
104.71344817881965
 21
138.69651083521026
  0
LINE
  8
_0-2_製品
  6
CONTINUOUS
 62
    2
 10
104.98904817881964
 20
138.78091083521005
 11
105.20384817881933
 21
138.70911083521037
  0
ARC
  8
_0-2_製品
  6
CONTINUOUS
 62
    2
 10
105.24184817881934
 20
138.82311083521037
 40
0.12
 50
251.56504799999342
 51
288.43493700000215
  0
LINE
  8
_0-2_製品
  6
CONTINUOUS
 62
    2
 10
105.27984817881935
 20
138.70911083521037
 11
105.50384817881954
 21
138.78391083521015
  0
ARC
  8
_0-2_製品
  6
CONTINUOUS
 62
    2
 10
105.54184817881955
 20
138.67011083521015
 40
0.12
 50
71.534851000012111
 51
108.46514899998782
  0
LINE
  8
_0-2_製品
  6
CONTINUOUS
 62
    2
 10
105.27984817881935
 20
138.60911083521046
 11
105.50384817881954
 21
138.68391083521027
  0
ARC
  8
_0-2_製品
  6
CONTINUOUS
 62
    2
 10
105.54184817881955
 20
138.57011083521016
 40
0.12
 50
71.534851000012111
 51
108.46514899998782
  0
ARC
  8
_0-2_製品
  6
CONTINUOUS
 62
    2
 10
105.84184817881925
 20
138.72291083521006
 40
0.12
 50
251.53485100001211
 51
288.46514899998778
  0
ARC
  8
_0-2_製品
  6
CONTINUOUS
 62
    2
 10
105.84184817881925
 20
138.82291083521037
 40
0.12
 50
251.53485100001211
 51
288.46514899998778
  0
ARC
  8
_0-2_製品
  6
CONTINUOUS
 62
    2
 10
104.71344817881965
 20
138.81651083521015
 40
0.12
 50
270
 51
296.52236899998411
  0
ARC
  8
_0-2_製品
  6
CONTINUOUS
 62
    2
 10
104.71344817881965
 20
138.71651083521024
 40
0.12
 50
270
 51
296.52236899998411
  0
LINE
  8
_0-2_製品
  6
CONTINUOUS
 62
    2
 10
104.13824817881942
 20
138.59651083521035
 11
104.72624817881965
 21
138.59651083521035
  0
LINE
  8
_0-2_製品
  6
CONTINUOUS
 62
    2
 10
102.03824817881954
 20
138.59651083521035
 11
102.03824817881954
 21
136.99651083521005
  0
LINE
  8
_0-2_製品
  6
CONTINUOUS
 62
    2
 10
103.03824817881954
 20
138.59651083521035
 11
103.03824817881954
 21
136.99651083521005
  0
LINE
  8
_0-2_製品
  6
CONTINUOUS
 62
    2
 10
99.038248178819543
 20
138.59651083521035
 11
99.038248178819543
 21
136.99651083521005
  0
LINE
  8
_0-2_製品
  6
CONTINUOUS
 62
    2
 10
98.038248178819543
 20
138.59651083521035
 11
98.038248178819543
 21
136.99651083521005
  0
ARC
  8
_0-2_製品
  6
CONTINUOUS
 62
    2
 10
104.13824817881942
 20
139.19651083521026
 40
0.5999999999999999
 50
180
 51
270
  0
ARC
  8
_0-2_製品
  6
CONTINUOUS
 62
    2
 10
104.13824817881942
 20
139.19651083521026
 40
0.5
 50
180
 51
270
  0
LINE
  8
_0-2_製品
  6
CONTINUOUS
 62
    2
 10
112.93824817881963
 20
140.51651083520997
 11
104.13824817881942
 21
140.51651083520997
  0
ARC
  8
_0-2_製品
  6
CONTINUOUS
 62
    2
 10
106.53824817881954
 20
141.57651083521046
 40
0.5
 50
180
 51
0
  0
LINE
  8
_0-2_製品
  6
CONTINUOUS
 62
    2
 10
106.47984817881962
 20
138.70911083521037
 11
106.70384817881933
 21
138.78391083521015
  0
LINE
  8
_0-2_製品
  6
CONTINUOUS
 62
    2
 10
106.47984817881962
 20
138.60911083521046
 11
106.70384817881933
 21
138.68391083521027
  0
LINE
  8
_0-3_図面枠
  6
CONTINUOUS
 62
    2
 10
98.538248178819543
 20
139.59651083521035
 11
111.58636417881942
 21
116.99651083521006
  0
LINE
  8
_0-3_図面枠
  6
CONTINUOUS
 62
    2
 10
111.58636417881942
 20
116.99651083521006
 11
129.64636417881945
 21
116.99651083521006
  0
TEXT
  8
_0-3_図面枠
 62
    7
 10
111.58636017881943
 20
117.99651283521025
 40
2.9999999999999996
 41
0.8000000000000003
 50
0.0000100000010007
  1
ガラスクロス
  0
LINE
  8
_0-2_製品
  6
CONTINUOUS
 62
    4
 10
120.83824817881924
 20
161.59651083521035
 11
120.83824817881924
 21
141.99651083521005
  0
LINE
  8
_0-2_製品
  6
CONTINUOUS
 62
    4
 10
116.23824817881933
 20
141.99651083521005
 11
116.23824817881933
 21
161.59651083521035
  0
LINE
  8
_0-2_製品
  6
CONTINUOUS
 62
    2
 10
113.33824817881924
 20
150.11651083521036
 11
113.33824817881924
 21
145.39651083521017
  0
LINE
  8
_0-2_製品
  6
CONTINUOUS
 62
    2
 10
103.73824817881933
 20
150.11651083521036
 11
103.73824817881933
 21
145.39651083521017
  0
LINE
  8
_0-2_製品
  6
CONTINUOUS
 62
    2
 10
112.13824817881942
 20
148.59651083521035
 11
112.13824817881942
 21
145.79651083521026
  0
LINE
  8
_0-2_製品
  6
CONTINUOUS
 62
    2
 10
104.93824817881963
 20
145.79651083521026
 11
104.93824817881963
 21
148.59651083521035
  0
LINE
  8
_0-2_製品
  6
CONTINUOUS
 62
    2
 10
120.43824817881963
 20
163.03351683521007
 11
120.15593417881954
 21
163.19651083521026
  0
ARC
  8
_0-2_製品
  6
CONTINUOUS
 62
    2
 10
118.53824817881954
 20
160.34651083521035
 40
2.8500000000000001
 50
70.528778999987907
 51
109.47122100001199
  0
ARC
  8
_0-2_製品
  6
CONTINUOUS
 62
    2
 10
119.94652217881944
 20
162.47077583521036
 40
0.7257350000000001
 50
90
 51
129.15794500000521
  0
LINE
  8
_0-2_製品
  6
CONTINUOUS
 62
    2
 10
116.92056317881935
 20
163.19651083521026
 11
116.63824817881942
 21
163.03351683521007
  0
LINE
  8
_0-2_製品
  6
CONTINUOUS
 62
    2
 10
120.15593417881954
 20
163.19651083521026
 11
116.92056317881935
 21
163.19651083521026
  0
ARC
  8
_0-2_製品
  6
CONTINUOUS
 62
    2
 10
117.12997517881954
 20
162.47077583521036
 40
0.7257350000000001
 50
50.84205499999478
 51
90
  0
LINE
  8
_0-2_製品
  6
CONTINUOUS
 62
    4
 10
119.48824817881933
 20
163.19651083521026
 11
119.48824817881933
 21
179.99651083521005
  0
LINE
  8
_0-2_製品
  6
CONTINUOUS
 62
    4
 10
117.58824817881924
 20
179.99651083521005
 11
117.58824817881924
 21
163.19651083521026
  0
LINE
  8
_0-2_製品
  6
CONTINUOUS
 62
    4
 10
151.53824817881952
 20
149.99651083521005
 11
178.53824817881952
 21
149.99651083521005
  0
LINE
  8
_0-2_製品
  6
CONTINUOUS
 62
    4
 10
151.53824817881952
 20
149.67651083521037
 11
178.53824817881952
 21
149.67651083521037
  0
LINE
  8
_0-2_製品
  6
PLINE2
 62
    2
 10
178.53824817881952
 20
139.59651083521035
 11
151.03824817881952
 21
139.59651083521035
  0
LINE
  8
_0-2_製品
  6
CONTINUOUS
 62
    2
 10
151.53824817881952
 20
149.99651083521005
 11
151.53824817881952
 21
150.11651083521036
  0
LINE
  8
_0-2_製品
  6
CONTINUOUS
 62
    2
 10
149.73824817881933
 20
146.99651083521005
 11
151.03824817881952
 21
146.99651083521005
  0
ARC
  8
_0-2_製品
  6
CONTINUOUS
 62
    2
 10
149.73824817881933
 20
147.49651083521005
 40
0.5
 50
180
 51
270
  0
ARC
  8
_0-2_製品
  6
CONTINUOUS
 62
    2
 10
151.03824817881952
 20
147.49651083521005
 40
0.5
 50
270
 51
0
  0
LINE
  8
_0-2_製品
  6
CONTINUOUS
 62
    2
 10
151.53824817881952
 20
147.49651083521005
 11
151.53824817881952
 21
149.99651083521005
  0
LINE
  8
_0-2_製品
  6
CONTINUOUS
 62
    2
 10
149.23824817881933
 20
150.11651083521036
 11
149.23824817881933
 21
147.49651083521005
  0
LINE
  8
_0-2_製品
  6
CONTINUOUS
 62
    2
 10
145.53824817881952
 20
150.11651083521036
 11
145.53824817881952
 21
149.99651083521005
  0
ARC
  8
_0-2_製品
  6
CONTINUOUS
 62
    2
 10
147.33824817881924
 20
147.49651083521005
 40
0.5
 50
270
 51
0
  0
ARC
  8
_0-2_製品
  6
CONTINUOUS
 62
    2
 10
146.03824817881952
 20
147.49651083521005
 40
0.5
 50
180
 51
270
  0
LINE
  8
_0-2_製品
  6
CONTINUOUS
 62
    2
 10
147.33824817881924
 20
146.99651083521005
 11
146.03824817881952
 21
146.99651083521005
  0
LINE
  8
_0-2_製品
  6
CONTINUOUS
 62
    2
 10
145.53824817881952
 20
147.49651083521005
 11
145.53824817881952
 21
149.99651083521005
  0
LINE
  8
_0-2_製品
  6
CONTINUOUS
 62
    2
 10
147.83824817881924
 20
150.11651083521036
 11
147.83824817881924
 21
147.49651083521005
  0
LINE
  8
_0-2_製品
  6
CONTINUOUS
 62
    4
 10
147.83824817881924
 20
149.67651083521037
 11
149.23824817881933
 21
149.67651083521037
  0
LINE
  8
_0-2_製品
  6
CONTINUOUS
 62
    4
 10
147.83824817881924
 20
149.99651083521005
 11
149.23824817881933
 21
149.99651083521005
  0
LINE
  8
_0-2_製品
  6
CONTINUOUS
 62
    2
 10
151.53824817881952
 20
150.11651083521036
 11
145.53824817881952
 21
150.11651083521036
  0
TEXT
  8
_0-3_図面枠
 62
    7
 10
144.03235217881945
 20
151.99651983521036
 40
3
 41
0.8000000000000001
 50
0
  1
（Ｓ）
  0
LINE
  8
_0-2_製品
  6
CONTINUOUS
 62
    2
 10
163.03824817881952
 20
138.59651083521035
 11
163.03824817881952
 21
136.99651083521005
  0
LINE
  8
_0-2_製品
  6
CONTINUOUS
 62
    2
 10
162.03824817881952
 20
138.59651083521035
 11
162.03824817881952
 21
136.99651083521005
  0
LINE
  8
_0-2_製品
  6
CONTINUOUS
 62
    2
 10
150.83824817881924
 20
140.77651083521025
 11
150.83824817881924
 21
142.29015983521026
  0
LINE
  8
_0-2_製品
  6
CONTINUOUS
 62
    2
 10
150.93824817881966
 20
139.19651083521026
 11
150.93824817881966
 21
142.09651083521035
  0
LINE
  8
_0-2_製品
  6
CONTINUOUS
 62
    2
 10
151.03824817881952
 20
139.19651083521026
 11
151.03824817881952
 21
142.09651083521035
  0
ARC
  8
_0-2_製品
  6
CONTINUOUS
 62
    2
 10
150.73824817881933
 20
142.09651083521035
 40
0.2
 50
0
 51
90
  0
LINE
  8
_0-2_製品
  6
CONTINUOUS
 62
    2
 10
150.73824817881933
 20
142.29651083521017
 11
150.53824817881952
 21
142.29651083521017
  0
ARC
  8
_0-2_製品
  6
CONTINUOUS
 62
    2
 10
150.53824817881952
 20
142.09651083521035
 40
0.2
 50
90
 51
180
  0
LINE
  8
_0-2_製品
  6
CONTINUOUS
 62
    2
 10
150.33824817881924
 20
142.09651083521035
 11
150.33824817881924
 21
141.79651083521026
  0
LINE
  8
_0-2_製品
  6
CONTINUOUS
 62
    2
 10
150.33824817881924
 20
141.79651083521026
 11
150.23824817881933
 21
141.79651083521026
  0
LINE
  8
_0-2_製品
  6
CONTINUOUS
 62
    2
 10
150.23824817881933
 20
141.79651083521026
 11
150.23824817881933
 21
142.09651083521035
  0
ARC
  8
_0-2_製品
  6
CONTINUOUS
 62
    2
 10
150.53824817881952
 20
142.09651083521035
 40
0.2999999999999999
 50
90
 51
180
  0
ARC
  8
_0-2_製品
  6
CONTINUOUS
 62
    2
 10
150.73824817881933
 20
142.09651083521035
 40
0.2999999999999999
 50
0
 51
90
  0
ARC
  8
_0-2_製品
  6
CONTINUOUS
 62
    2
 10
150.43824817881966
 20
140.77651083521025
 40
0.4
 50
270
 51
0
  0
ARC
  8
_0-2_製品
  6
CONTINUOUS
 62
    2
 10
150.64941717881936
 20
142.13651083521034
 40
0.16
 50
90
 51
168.69006800000321
  0
LINE
  8
_0-2_製品
  6
CONTINUOUS
 62
    2
 10
150.41459517881941
 20
141.77824183521005
 11
150.49252417881945
 21
142.16788983521036
  0
ARC
  8
_0-2_製品
  6
CONTINUOUS
 62
    2
 10
150.13824817881942
 20
141.89501083521026
 40
0.3000039999999999
 50
179.71352299999501
 51
337.20392700001526
  0
LINE
  8
_0-2_製品
  6
CONTINUOUS
 62
    2
 10
149.83824817881924
 20
142.39651083521017
 11
149.83824817881924
 21
141.92089783521007
  0
LINE
  8
_0-2_製品
  6
CONTINUOUS
 62
    2
 10
158.03824817881952
 20
138.59651083521035
 11
158.03824817881952
 21
136.99651083521005
  0
LINE
  8
_0-2_製品
  6
CONTINUOUS
 62
    2
 10
159.03824817881952
 20
138.59651083521035
 11
159.03824817881952
 21
136.99651083521005
  0
LINE
  8
_0-2_製品
  6
CONTINUOUS
 62
    2
 10
155.03824817881952
 20
138.59651083521035
 11
155.03824817881952
 21
136.99651083521005
  0
LINE
  8
_0-2_製品
  6
CONTINUOUS
 62
    2
 10
154.03824817881952
 20
138.59651083521035
 11
154.03824817881952
 21
136.99651083521005
  0
LINE
  8
_0-2_製品
  6
CONTINUOUS
 62
    2
 10
150.03824817881952
 20
138.59651083521035
 11
150.03824817881952
 21
136.99651083521005
  0
LINE
  8
_0-2_製品
  6
CONTINUOUS
 62
    2
 10
151.03824817881952
 20
138.59651083521035
 11
151.03824817881952
 21
136.99651083521005
  0
LINE
  8
_0-2_製品
  6
CONTINUOUS
 62
    2
 10
150.43824817881966
 20
138.69651083521026
 11
150.23824817881933
 21
138.69651083521026
  0
LINE
  8
_0-2_製品
  6
CONTINUOUS
 62
    2
 10
150.43824817881966
 20
138.59651083521035
 11
150.23824817881933
 21
138.59651083521035
  0
LINE
  8
_0-2_製品
  6
CONTINUOUS
 62
    2
 10
150.23824817881933
 20
138.69651083521026
 11
150.03824817881952
 21
138.79651083521026
  0
LINE
  8
_0-2_製品
  6
CONTINUOUS
 62
    2
 10
150.23824817881933
 20
138.59651083521035
 11
150.03824817881952
 21
138.69651083521026
  0
LINE
  8
_0-2_製品
  6
CONTINUOUS
 62
    2
 10
150.03824817881952
 20
138.69651083521026
 11
149.73824817881933
 21
138.59651083521035
  0
LINE
  8
_0-2_製品
  6
CONTINUOUS
 62
    2
 10
149.73824817881933
 20
138.59651083521035
 11
149.43824817881966
 21
138.69651083521026
  0
LINE
  8
_0-2_製品
  6
CONTINUOUS
 62
    2
 10
149.43824817881966
 20
138.69651083521026
 11
149.13824817881942
 21
138.59651083521035
  0
LINE
  8
_0-2_製品
  6
CONTINUOUS
 62
    2
 10
150.03824817881952
 20
138.79651083521026
 11
149.73824817881933
 21
138.69651083521026
  0
LINE
  8
_0-2_製品
  6
CONTINUOUS
 62
    2
 10
149.73824817881933
 20
138.69651083521026
 11
149.43824817881966
 21
138.79651083521026
  0
LINE
  8
_0-2_製品
  6
CONTINUOUS
 62
    2
 10
149.43824817881966
 20
138.79651083521026
 11
149.13824817881942
 21
138.69651083521026
  0
ARC
  8
_0-2_製品
  6
CONTINUOUS
 62
    2
 10
150.43824817881966
 20
139.19651083521026
 40
0.5
 50
270
 51
0
  0
ARC
  8
_0-2_製品
  6
CONTINUOUS
 62
    2
 10
150.43824817881966
 20
139.19651083521026
 40
0.5999999999999999
 50
270
 51
0
  0
ARC
  8
_0-2_製品
  6
CONTINUOUS
 62
    2
 10
146.53824817881952
 20
142.09651083521035
 40
0.2
 50
0
 51
90
  0
LINE
  8
_0-2_製品
  6
CONTINUOUS
 62
    2
 10
146.73824817881933
 20
142.09651083521035
 11
146.73824817881933
 21
141.79651083521026
  0
LINE
  8
_0-2_製品
  6
CONTINUOUS
 62
    2
 10
146.73824817881933
 20
141.79651083521026
 11
146.83824817881924
 21
141.79651083521026
  0
LINE
  8
_0-2_製品
  6
CONTINUOUS
 62
    2
 10
146.83824817881924
 20
141.79651083521026
 11
146.83824817881924
 21
142.09651083521035
  0
ARC
  8
_0-2_製品
  6
CONTINUOUS
 62
    2
 10
146.53824817881952
 20
142.09651083521035
 40
0.2999999999999999
 50
0
 51
90
  0
ARC
  8
_0-2_製品
  6
CONTINUOUS
 62
    2
 10
146.42708017881961
 20
142.13651083521034
 40
0.16
 50
11.30993199999679
 51
90
  0
LINE
  8
_0-2_製品
  6
CONTINUOUS
 62
    2
 10
146.66190217881956
 20
141.77824183521005
 11
146.58397317881952
 21
142.16788983521036
  0
ARC
  8
_0-2_製品
  6
CONTINUOUS
 62
    2
 10
146.93824817881966
 20
141.89501083521026
 40
0.3000039999999999
 50
202.79607299998469
 51
0.2864770000049317
  0
LINE
  8
_0-2_製品
  6
CONTINUOUS
 62
    2
 10
147.23824817881933
 20
142.39651083521017
 11
147.23824817881933
 21
141.89351083521035
  0
LINE
  8
_0-2_製品
  6
CONTINUOUS
 62
    2
 10
146.23824817881933
 20
142.26971583521046
 11
146.23824817881933
 21
140.77651083521025
  0
LINE
  8
_0-2_製品
  6
CONTINUOUS
 62
    2
 10
146.13824817881942
 20
139.19651083521026
 11
146.13824817881942
 21
142.09651083521035
  0
LINE
  8
_0-2_製品
  6
CONTINUOUS
 62
    2
 10
146.03824817881952
 20
139.19651083521026
 11
146.03824817881952
 21
142.09651083521035
  0
ARC
  8
_0-2_製品
  6
CONTINUOUS
 62
    2
 10
146.33824817881924
 20
142.09651083521035
 40
0.2
 50
90
 51
180
  0
ARC
  8
_0-2_製品
  6
CONTINUOUS
 62
    2
 10
146.33824817881924
 20
142.09651083521035
 40
0.2999999999999999
 50
90
 51
180
  0
LINE
  8
_0-2_製品
  6
CONTINUOUS
 62
    2
 10
146.33824817881924
 20
142.29651083521017
 11
146.53824817881952
 21
142.29651083521017
  0
ARC
  8
_0-2_製品
  6
CONTINUOUS
 62
    2
 10
146.63824817881942
 20
140.77651083521025
 40
0.4
 50
180
 51
270
  0
LINE
  8
_0-2_製品
  6
CONTINUOUS
 62
    2
 10
147.03824817881952
 20
138.59651083521035
 11
147.03824817881952
 21
136.99651083521005
  0
LINE
  8
_0-2_製品
  6
CONTINUOUS
 62
    2
 10
148.83824817881924
 20
138.69651083521026
 11
148.53824817881952
 21
138.59651083521035
  0
LINE
  8
_0-2_製品
  6
CONTINUOUS
 62
    2
 10
148.83824817881924
 20
138.79651083521026
 11
148.53824817881952
 21
138.69651083521026
  0
LINE
  8
_0-2_製品
  6
CONTINUOUS
 62
    2
 10
146.63824817881942
 20
138.69651083521026
 11
146.83824817881924
 21
138.69651083521026
  0
LINE
  8
_0-2_製品
  6
CONTINUOUS
 62
    2
 10
146.63824817881942
 20
138.59651083521035
 11
146.83824817881924
 21
138.59651083521035
  0
LINE
  8
_0-2_製品
  6
CONTINUOUS
 62
    2
 10
146.83824817881924
 20
138.59651083521035
 11
147.03824817881952
 21
138.69651083521026
  0
LINE
  8
_0-2_製品
  6
CONTINUOUS
 62
    2
 10
147.03824817881952
 20
138.69651083521026
 11
147.33824817881924
 21
138.59651083521035
  0
LINE
  8
_0-2_製品
  6
CONTINUOUS
 62
    2
 10
147.33824817881924
 20
138.59651083521035
 11
147.63824817881942
 21
138.69651083521026
  0
LINE
  8
_0-2_製品
  6
CONTINUOUS
 62
    2
 10
147.63824817881942
 20
138.69651083521026
 11
147.93824817881966
 21
138.59651083521035
  0
LINE
  8
_0-2_製品
  6
CONTINUOUS
 62
    2
 10
147.93824817881966
 20
138.59651083521035
 11
148.23824817881933
 21
138.69651083521026
  0
LINE
  8
_0-2_製品
  6
CONTINUOUS
 62
    2
 10
148.23824817881933
 20
138.69651083521026
 11
148.53824817881952
 21
138.59651083521035
  0
LINE
  8
_0-2_製品
  6
CONTINUOUS
 62
    2
 10
147.03824817881952
 20
138.79651083521026
 11
147.33824817881924
 21
138.69651083521026
  0
LINE
  8
_0-2_製品
  6
CONTINUOUS
 62
    2
 10
147.33824817881924
 20
138.69651083521026
 11
147.63824817881942
 21
138.79651083521026
  0
LINE
  8
_0-2_製品
  6
CONTINUOUS
 62
    2
 10
147.63824817881942
 20
138.79651083521026
 11
147.93824817881966
 21
138.69651083521026
  0
LINE
  8
_0-2_製品
  6
CONTINUOUS
 62
    2
 10
147.93824817881966
 20
138.69651083521026
 11
148.23824817881933
 21
138.79651083521026
  0
LINE
  8
_0-2_製品
  6
CONTINUOUS
 62
    2
 10
148.23824817881933
 20
138.79651083521026
 11
148.53824817881952
 21
138.69651083521026
  0
LINE
  8
_0-2_製品
  6
CONTINUOUS
 62
    2
 10
146.83824817881924
 20
138.69651083521026
 11
147.03824817881952
 21
138.79651083521026
  0
LINE
  8
_0-2_製品
  6
CONTINUOUS
 62
    2
 10
146.03824817881952
 20
138.59651083521035
 11
146.03824817881952
 21
136.99651083521005
  0
LINE
  8
_0-2_製品
  6
CONTINUOUS
 62
    2
 10
142.03824817881952
 20
138.59651083521035
 11
142.03824817881952
 21
136.99651083521005
  0
LINE
  8
_0-2_製品
  6
CONTINUOUS
 62
    2
 10
143.03824817881952
 20
138.59651083521035
 11
143.03824817881952
 21
136.99651083521005
  0
LINE
  8
_0-2_製品
  6
CONTINUOUS
 62
    2
 10
139.03824817881952
 20
138.59651083521035
 11
139.03824817881952
 21
136.99651083521005
  0
ARC
  8
_0-2_製品
  6
CONTINUOUS
 62
    2
 10
146.63824817881942
 20
139.19651083521026
 40
0.5
 50
180
 51
270
  0
ARC
  8
_0-2_製品
  6
CONTINUOUS
 62
    2
 10
146.63824817881942
 20
139.19651083521026
 40
0.5999999999999999
 50
180
 51
270
  0
LINE
  8
_0-2_製品
  6
CONTINUOUS
 62
    2
 10
138.03824817881952
 20
138.59651083521035
 11
138.03824817881952
 21
136.99651083521005
  0
LINE
  8
_0-2_製品
  6
CONTINUOUS
 62
    2
 10
134.03824817881952
 20
138.59651083521035
 11
134.03824817881952
 21
136.99651083521005
  0
LINE
  8
_0-2_製品
  6
CONTINUOUS
 62
    2
 10
135.03824817881952
 20
138.59651083521035
 11
135.03824817881952
 21
136.99651083521005
  0
LINE
  8
_0-2_製品
  6
CONTINUOUS
 62
    2
 10
131.03824817881952
 20
138.59651083521035
 11
131.03824817881952
 21
136.99651083521005
  0
LINE
  8
_0-2_製品
  6
CONTINUOUS
 62
    2
 10
146.63824817881942
 20
140.37651083521015
 11
150.43824817881966
 21
140.37651083521015
  0
LINE
  8
_0-2_製品
  6
CONTINUOUS
 62
    2
 10
149.13824817881942
 20
138.59651083521035
 11
148.83824817881924
 21
138.69651083521026
  0
LINE
  8
_0-2_製品
  6
CONTINUOUS
 62
    2
 10
149.13824817881942
 20
138.69651083521026
 11
148.83824817881924
 21
138.79651083521026
  0
LINE
  8
_0-2_製品
  6
CONTINUOUS
 62
    2
 10
174.03824817881952
 20
138.59651083521035
 11
174.03824817881952
 21
136.99651083521005
  0
LINE
  8
_0-2_製品
  6
CONTINUOUS
 62
    2
 10
175.03824817881952
 20
138.59651083521035
 11
175.03824817881952
 21
136.99651083521005
  0
LINE
  8
_0-2_製品
  6
CONTINUOUS
 62
    2
 10
171.03824817881952
 20
138.59651083521035
 11
171.03824817881952
 21
136.99651083521005
  0
LINE
  8
_0-2_製品
  6
CONTINUOUS
 62
    2
 10
170.03824817881952
 20
138.59651083521035
 11
170.03824817881952
 21
136.99651083521005
  0
LINE
  8
_0-2_製品
  6
CONTINUOUS
 62
    2
 10
166.03824817881952
 20
138.59651083521035
 11
166.03824817881952
 21
136.99651083521005
  0
LINE
  8
_0-2_製品
  6
CONTINUOUS
 62
    2
 10
167.03824817881952
 20
138.59651083521035
 11
167.03824817881952
 21
136.99651083521005
  0
LINE
  8
_0-2_製品
  6
CONTINUOUS
 62
    2
 10
269.17427917881952
 20
161.59651083521035
 11
273.77427917881943
 21
161.59651083521035
  0
LINE
  8
_0-2_製品
  6
CONTINUOUS
 62
    2
 10
269.17427917881952
 20
161.19651083521026
 11
273.77427917881943
 21
161.19651083521026
  0
ARC
  8
_0-2_製品
  6
CONTINUOUS
 62
    2
 10
271.47427917881924
 20
160.34651083521035
 40
2.8500000000000001
 50
70.528778999987907
 51
109.47122100001199
  0
LINE
  8
_0-2_製品
  6
CONTINUOUS
 62
    2
 10
273.09196517881935
 20
163.19651083521026
 11
269.85659317881976
 21
163.19651083521026
  0
ARC
  8
_0-2_製品
  6
CONTINUOUS
 62
    2
 10
271.47427917881924
 20
162.44651083521026
 40
2.8500000000000001
 50
250.52877899998791
 51
289.47122100001201
  0
LINE
  8
_0-2_製品
  6
CONTINUOUS
 62
    2
 10
273.09196517881935
 20
159.59651083521035
 11
269.85659317881976
 21
159.59651083521035
  0
LINE
  8
_0-2_製品
  6
CONTINUOUS
 62
    4
 10
272.42427917881952
 20
155.59651083521035
 11
270.52427917881943
 21
155.59651083521035
  0
LINE
  8
_0-2_製品
  6
CONTINUOUS
 62
    4
 10
273.77427917881943
 20
151.99651083521005
 11
269.17427917881952
 21
151.99651083521005
  0
LINE
  8
_0-2_製品
  6
CONTINUOUS
 62
    4
 10
331.47427917881924
 20
146.39651083521017
 11
241.47427917881924
 21
146.39651083521017
  0
LINE
  8
_0-2_製品
  6
CONTINUOUS
 62
    4
 10
273.77427917881943
 20
141.99651083521005
 11
269.17427917881952
 21
141.99651083521005
  0
TEXT
  8
_0-3_図面枠
 62
    7
 10
264.52238817881954
 20
117.99651283521025
 40
2.9999999999999996
 41
0.8000000000000003
 50
0.0000100000010007
  1
ガラスクロス
  0
LINE
  8
_0-3_図面枠
  6
CONTINUOUS
 62
    2
 10
264.52239517881924
 20
116.99651083521006
 11
282.58239517881952
 21
116.99651083521006
  0
LINE
  8
_0-2_製品
  6
CONTINUOUS
 62
    4
 10
331.47427917881924
 20
136.99651083521005
 11
241.47427917881924
 21
136.99651083521005
  0
LINE
  8
_0-2_製品
  6
PLINE2
 62
    2
 10
298.97427917881936
 20
139.59651083521035
 11
266.47427917881924
 21
139.59651083521035
  0
LINE
  8
_0-3_図面枠
  6
CONTINUOUS
 62
    2
 10
267.24778217881965
 20
126.99651083521005
 11
306.37778217881925
 21
126.99651083521005
  0
TEXT
  8
_0-3_図面枠
 62
    7
 10
267.24777517881955
 20
127.99651983521036
 40
2.9999999999999996
 41
0.8000000000000002
 50
0.0000100000010116
  1
目透しの場合テープ又は塗装
  0
LINE
  8
_0-2_製品
  6
CONTINUOUS
 62
    4
 10
331.47427917881924
 20
138.59651083521035
 11
241.47427917881924
 21
138.59651083521035
  0
LINE
  8
_0-2_製品
  6
CONTINUOUS
 62
    4
 10
331.47427917881924
 20
142.39651083521017
 11
241.47427917881924
 21
142.39651083521017
  0
LINE
  8
_0-2_製品
  6
CONTINUOUS
 62
    2
 10
273.95598917881921
 20
146.39651083521017
 11
269.95598917881932
 21
142.39651083521017
  0
LINE
  8
_0-2_製品
  6
CONTINUOUS
 62
    2
 10
271.83466917881952
 20
146.39651083521017
 11
267.83466917881952
 21
142.39651083521017
  0
LINE
  8
_0-2_製品
  6
CONTINUOUS
 62
    2
 10
270.19863017881954
 20
146.39651083521017
 11
274.19863017881954
 21
142.39651083521017
  0
LINE
  8
_0-2_製品
  6
CONTINUOUS
 62
    2
 10
268.07730917881952
 20
146.39651083521017
 11
272.07730917881946
 21
142.39651083521017
  0
LINE
  8
_0-2_製品
  6
CONTINUOUS
 62
    2
 10
270.52427917881943
 20
163.03351683521007
 11
270.52427917881943
 21
161.59651083521035
  0
LINE
  8
_0-2_製品
  6
CONTINUOUS
 62
    2
 10
269.57427917881961
 20
163.03351683521007
 11
269.57427917881961
 21
161.59651083521035
  0
LINE
  8
_0-2_製品
  6
CONTINUOUS
 62
    2
 10
269.85659317881976
 20
159.59651083521035
 11
269.57427917881961
 21
159.75950483521015
  0
ARC
  8
_0-2_製品
  6
CONTINUOUS
 62
    2
 10
270.06600617881924
 20
160.32224583521037
 40
0.7257350000000001
 50
270
 51
309.15794500000521
  0
LINE
  8
_0-2_製品
  6
CONTINUOUS
 62
    4
 10
270.52427917881943
 20
155.59651083521035
 11
270.52427917881943
 21
159.59651083521035
  0
LINE
  8
_0-2_製品
  6
CONTINUOUS
 62
    4
 10
266.27427917881943
 20
149.99651083521005
 11
269.17427917881952
 21
149.99651083521005
  0
LINE
  8
_0-2_製品
  6
CONTINUOUS
 62
    4
 10
266.27427917881943
 20
149.67651083521037
 11
269.17427917881952
 21
149.67651083521037
  0
LINE
  8
_0-2_製品
  6
CONTINUOUS
 62
    2
 10
266.27427917881943
 20
146.39651083521017
 11
266.27427917881943
 21
150.11651083521036
  0
ARC
  8
_0-2_製品
  6
CONTINUOUS
 62
    2
 10
264.67427917881952
 20
148.59651083521035
 40
0.4
 50
0
 51
90
  0
LINE
  8
_0-2_製品
  6
CONTINUOUS
 62
    2
 10
265.07427917881961
 20
146.39651083521017
 11
265.07427917881961
 21
148.59651083521035
  0
LINE
  8
_0-2_製品
  6
CONTINUOUS
 62
    2
 10
257.87427917881934
 20
146.39651083521017
 11
257.87427917881934
 21
148.59651083521035
  0
ARC
  8
_0-2_製品
  6
CONTINUOUS
 62
    2
 10
258.27427917881943
 20
148.59651083521035
 40
0.4
 50
90
 51
180
  0
LINE
  8
_0-2_製品
  6
CONTINUOUS
 62
    2
 10
256.67427917881952
 20
146.39651083521017
 11
256.67427917881952
 21
150.11651083521036
  0
LINE
  8
_0-2_製品
  6
CONTINUOUS
 62
    2
 10
264.67427917881952
 20
148.99651083521005
 11
258.27427917881943
 21
148.99651083521005
  0
TEXT
  8
_0-3_図面枠
 62
    7
 10
256.96838717881963
 20
151.99651983521036
 40
3
 41
0.8000000000000001
 50
0
  1
（Ｗ）
  0
LINE
  8
_0-2_製品
  6
CONTINUOUS
 62
    2
 10
266.27427917881943
 20
150.11651083521036
 11
256.67427917881952
 21
150.11651083521036
  0
LINE
  8
_0-2_製品
  6
CONTINUOUS
 62
    4
 10
269.17427917881952
 20
146.39651083521017
 11
269.17427917881952
 21
161.59651083521035
  0
LINE
  8
_0-2_製品
  6
CONTINUOUS
 62
    2
 10
270.52427917881943
 20
159.75950483521015
 11
270.52427917881943
 21
161.19651083521026
  0
LINE
  8
_0-2_製品
  6
CONTINUOUS
 62
    2
 10
269.57427917881961
 20
159.75950483521015
 11
269.57427917881961
 21
161.19651083521026
  0
LINE
  8
_0-2_製品
  6
CONTINUOUS
 62
    4
 10
256.67427917881952
 20
149.99651083521005
 11
241.47427917881924
 21
149.99651083521005
  0
LINE
  8
_0-2_製品
  6
CONTINUOUS
 62
    4
 10
256.67427917881952
 20
149.67651083521037
 11
241.47427917881924
 21
149.67651083521037
  0
LINE
  8
_0-2_製品
  6
CONTINUOUS
 62
    4
 10
269.17427917881952
 20
141.99651083521005
 11
269.17427917881952
 21
142.39651083521017
  0
LINE
  8
_0-2_製品
  6
CONTINUOUS
 62
    2
 10
266.27427917881943
 20
140.91651083521006
 11
266.27427917881943
 21
142.29015983521026
  0
LINE
  8
_0-2_製品
  6
CONTINUOUS
 62
    2
 10
266.37427917881934
 20
139.19651083521026
 11
266.37427917881934
 21
142.09651083521035
  0
LINE
  8
_0-2_製品
  6
CONTINUOUS
 62
    2
 10
266.47427917881924
 20
139.19651083521026
 11
266.47427917881924
 21
142.09651083521035
  0
ARC
  8
_0-2_製品
  6
CONTINUOUS
 62
    2
 10
266.17427917881952
 20
142.09651083521035
 40
0.2
 50
0
 51
90
  0
LINE
  8
_0-2_製品
  6
CONTINUOUS
 62
    2
 10
266.17427917881952
 20
142.29651083521017
 11
265.97427917881924
 21
142.29651083521017
  0
ARC
  8
_0-2_製品
  6
CONTINUOUS
 62
    2
 10
266.17427917881952
 20
142.09651083521035
 40
0.2999999999999999
 50
0
 51
90
  0
LINE
  8
_0-2_製品
  6
CONTINUOUS
 62
    2
 10
266.97427917881924
 20
138.59651083521035
 11
266.97427917881924
 21
136.99651083521005
  0
LINE
  8
_0-2_製品
  6
CONTINUOUS
 62
    2
 10
267.97427917881924
 20
138.59651083521035
 11
267.97427917881924
 21
136.99651083521005
  0
LINE
  8
_0-2_製品
  6
CONTINUOUS
 62
    2
 10
265.77427917881943
 20
142.09651083521035
 11
265.77427917881943
 21
141.79651083521026
  0
LINE
  8
_0-2_製品
  6
CONTINUOUS
 62
    2
 10
265.77427917881943
 20
141.79651083521026
 11
265.67427917881952
 21
141.79651083521026
  0
LINE
  8
_0-2_製品
  6
CONTINUOUS
 62
    2
 10
265.67427917881952
 20
141.79651083521026
 11
265.67427917881952
 21
142.09651083521035
  0
ARC
  8
_0-2_製品
  6
CONTINUOUS
 62
    2
 10
265.57427917881961
 20
141.89501083521026
 40
0.3000039999999999
 50
179.71352299999501
 51
337.20392700001526
  0
LINE
  8
_0-2_製品
  6
CONTINUOUS
 62
    2
 10
263.97427917881924
 20
142.39651083521017
 11
263.97427917881924
 21
141.57651083521046
  0
LINE
  8
_0-2_製品
  6
CONTINUOUS
 62
    2
 10
265.27427917881943
 20
142.39651083521017
 11
265.27427917881943
 21
141.89651083521017
  0
LINE
  8
_0-2_製品
  6
CONTINUOUS
 62
    2
 10
262.97427917881924
 20
142.39651083521017
 11
262.97427917881924
 21
141.57651083521046
  0
ARC
  8
_0-2_製品
  6
CONTINUOUS
 62
    2
 10
263.47427917881924
 20
141.57651083521046
 40
0.5
 50
180
 51
0
  0
LINE
  8
_0-2_製品
  6
CONTINUOUS
 62
    2
 10
258.97427917881924
 20
142.39651083521017
 11
258.97427917881924
 21
141.57651083521046
  0
LINE
  8
_0-2_製品
  6
CONTINUOUS
 62
    2
 10
259.97427917881924
 20
142.39651083521017
 11
259.97427917881924
 21
141.57651083521046
  0
ARC
  8
_0-2_製品
  6
CONTINUOUS
 62
    2
 10
259.47427917881924
 20
141.57651083521046
 40
0.5
 50
180
 51
0
  0
LINE
  8
_0-2_製品
  6
CONTINUOUS
 62
    2
 10
256.67427917881952
 20
142.26971583521046
 11
256.67427917881952
 21
140.91651083521006
  0
LINE
  8
_0-2_製品
  6
CONTINUOUS
 62
    2
 10
256.57427917881961
 20
139.19651083521026
 11
256.57427917881961
 21
142.09651083521035
  0
LINE
  8
_0-2_製品
  6
CONTINUOUS
 62
    2
 10
256.47427917881936
 20
139.19651083521026
 11
256.47427917881936
 21
142.09651083521035
  0
ARC
  8
_0-2_製品
  6
CONTINUOUS
 62
    2
 10
256.77427917881943
 20
142.09651083521035
 40
0.2
 50
90
 51
180
  0
LINE
  8
_0-2_製品
  6
CONTINUOUS
 62
    2
 10
256.77427917881943
 20
142.29651083521017
 11
256.97427917881924
 21
142.29651083521017
  0
ARC
  8
_0-2_製品
  6
CONTINUOUS
 62
    2
 10
256.97427917881924
 20
142.09651083521035
 40
0.2
 50
0
 51
90
  0
LINE
  8
_0-2_製品
  6
CONTINUOUS
 62
    2
 10
257.17427917881952
 20
142.09651083521035
 11
257.17427917881952
 21
141.79651083521026
  0
LINE
  8
_0-2_製品
  6
CONTINUOUS
 62
    2
 10
257.17427917881952
 20
141.79651083521026
 11
257.27427917881943
 21
141.79651083521026
  0
LINE
  8
_0-2_製品
  6
CONTINUOUS
 62
    2
 10
257.27427917881943
 20
141.79651083521026
 11
257.27427917881943
 21
142.09651083521035
  0
ARC
  8
_0-2_製品
  6
CONTINUOUS
 62
    2
 10
256.97427917881924
 20
142.09651083521035
 40
0.2999999999999999
 50
0
 51
90
  0
ARC
  8
_0-2_製品
  6
CONTINUOUS
 62
    2
 10
256.77427917881943
 20
142.09651083521035
 40
0.2999999999999999
 50
90
 51
180
  0
ARC
  8
_0-2_製品
  6
CONTINUOUS
 62
    2
 10
257.07427917881961
 20
140.91651083521006
 40
0.4
 50
180
 51
270
  0
LINE
  8
_0-2_製品
  6
CONTINUOUS
 62
    2
 10
257.67427917881952
 20
142.39651083521017
 11
257.67427917881952
 21
141.89651083521017
  0
ARC
  8
_0-2_製品
  6
CONTINUOUS
 62
    2
 10
256.86311017881945
 20
142.13651083521034
 40
0.16
 50
11.30993199999679
 51
90
  0
LINE
  8
_0-2_製品
  6
CONTINUOUS
 62
    2
 10
257.09793317881923
 20
141.77824183521005
 11
257.02000317881931
 21
142.16788983521036
  0
ARC
  8
_0-2_製品
  6
CONTINUOUS
 62
    2
 10
257.37427917881934
 20
141.89501083521026
 40
0.3000039999999999
 50
202.79607299998469
 51
0.2864770000049317
  0
LINE
  8
_0-2_製品
  6
CONTINUOUS
 62
    2
 10
265.87427917881934
 20
140.51651083520997
 11
257.07427917881961
 21
140.51651083520997
  0
LINE
  8
_0-2_製品
  6
CONTINUOUS
 62
    2
 10
263.97427917881924
 20
138.59651083521035
 11
263.97427917881924
 21
136.99651083521005
  0
LINE
  8
_0-2_製品
  6
CONTINUOUS
 62
    2
 10
265.87427917881934
 20
138.69651083521026
 11
265.29907917881962
 21
138.69651083521026
  0
ARC
  8
_0-2_製品
  6
CONTINUOUS
 62
    2
 10
265.06147917881964
 20
138.56691083521005
 40
0.12
 50
63.477641999995569
 51
108.46514899998782
  0
ARC
  8
_0-2_製品
  6
CONTINUOUS
 62
    2
 10
265.06147917881964
 20
138.66691083521044
 40
0.12
 50
63.477641999995569
 51
108.4349520000066
  0
ARC
  8
_0-2_製品
  6
CONTINUOUS
 62
    2
 10
264.77067917881942
 20
138.72291083521006
 40
0.12
 50
251.53485100001211
 51
288.37451200000783
  0
LINE
  8
_0-2_製品
  6
CONTINUOUS
 62
    2
 10
265.24547917881944
 20
138.70911083521037
 11
265.11507917881931
 21
138.77431083521034
  0
LINE
  8
_0-2_製品
  6
CONTINUOUS
 62
    2
 10
265.02347917881963
 20
138.68071083521016
 11
264.80847917881954
 21
138.60911083521046
  0
ARC
  8
_0-2_製品
  6
CONTINUOUS
 62
    2
 10
263.87067917881933
 20
138.67011083521015
 40
0.12
 50
71.534851000012111
 51
108.46514899998782
  0
ARC
  8
_0-2_製品
  6
CONTINUOUS
 62
    2
 10
263.87067917881933
 20
138.57011083521016
 40
0.12
 50
71.534851000012111
 51
108.46514899998782
  0
LINE
  8
_0-2_製品
  6
CONTINUOUS
 62
    2
 10
265.24547917881944
 20
138.60911083521046
 11
265.11507917881931
 21
138.67431083521035
  0
LINE
  8
_0-2_製品
  6
CONTINUOUS
 62
    2
 10
264.43267917881923
 20
138.68391083521027
 11
264.20867917881952
 21
138.60911083521046
  0
LINE
  8
_0-2_製品
  6
CONTINUOUS
 62
    2
 10
264.43267917881923
 20
138.78391083521015
 11
264.20867917881952
 21
138.70911083521037
  0
LINE
  8
_0-2_製品
  6
CONTINUOUS
 62
    2
 10
264.13267917881956
 20
138.70911083521037
 11
263.90867917881934
 21
138.78391083521015
  0
LINE
  8
_0-2_製品
  6
CONTINUOUS
 62
    2
 10
264.13267917881956
 20
138.60911083521046
 11
263.90867917881934
 21
138.68391083521027
  0
LINE
  8
_0-2_製品
  6
CONTINUOUS
 62
    2
 10
263.83267917881932
 20
138.78391083521015
 11
263.60867917881961
 21
138.70911083521037
  0
LINE
  8
_0-2_製品
  6
CONTINUOUS
 62
    2
 10
263.83267917881932
 20
138.68391083521027
 11
263.60867917881961
 21
138.60911083521046
  0
ARC
  8
_0-2_製品
  6
CONTINUOUS
 62
    2
 10
263.57067917881966
 20
138.82291083521037
 40
0.12
 50
251.53485100001211
 51
288.46514899998778
  0
ARC
  8
_0-2_製品
  6
CONTINUOUS
 62
    2
 10
263.57067917881966
 20
138.72291083521006
 40
0.12
 50
251.53485100001211
 51
288.46514899998778
  0
LINE
  8
_0-2_製品
  6
CONTINUOUS
 62
    2
 10
263.53267917881965
 20
138.70911083521037
 11
263.30867917881943
 21
138.78391083521015
  0
LINE
  8
_0-2_製品
  6
CONTINUOUS
 62
    2
 10
263.53267917881965
 20
138.60911083521046
 11
263.30867917881943
 21
138.68391083521027
  0
ARC
  8
_0-2_製品
  6
CONTINUOUS
 62
    2
 10
264.77067917881942
 20
138.82311083521037
 40
0.12
 50
251.56504799999342
 51
288.43493700000215
  0
ARC
  8
_0-2_製品
  6
CONTINUOUS
 62
    2
 10
264.47067917881924
 20
138.67011083521015
 40
0.12
 50
71.534851000012111
 51
108.46514899998782
  0
ARC
  8
_0-2_製品
  6
CONTINUOUS
 62
    2
 10
264.47067917881924
 20
138.57011083521016
 40
0.12
 50
71.534851000012111
 51
108.46514899998782
  0
ARC
  8
_0-2_製品
  6
CONTINUOUS
 62
    2
 10
264.17067917881951
 20
138.72291083521006
 40
0.12
 50
251.53485100001211
 51
288.46514899998778
  0
ARC
  8
_0-2_製品
  6
CONTINUOUS
 62
    2
 10
264.17067917881951
 20
138.82291083521037
 40
0.12
 50
251.53485100001211
 51
288.46514899998778
  0
LINE
  8
_0-2_製品
  6
CONTINUOUS
 62
    2
 10
265.02347917881963
 20
138.78091083521005
 11
264.80867917881943
 21
138.70911083521037
  0
LINE
  8
_0-2_製品
  6
CONTINUOUS
 62
    2
 10
264.73267917881941
 20
138.70911083521037
 11
264.50867917881925
 21
138.78391083521015
  0
LINE
  8
_0-2_製品
  6
CONTINUOUS
 62
    2
 10
264.73267917881941
 20
138.60911083521046
 11
264.50867917881925
 21
138.68391083521027
  0
ARC
  8
_0-2_製品
  6
CONTINUOUS
 62
    2
 10
265.29907917881962
 20
138.81651083521015
 40
0.12
 50
243.4776460000104
 51
270
  0
ARC
  8
_0-2_製品
  6
CONTINUOUS
 62
    2
 10
265.29907917881962
 20
138.71651083521024
 40
0.12
 50
243.4776460000104
 51
270
  0
LINE
  8
_0-2_製品
  6
CONTINUOUS
 62
    2
 10
265.87427917881934
 20
138.59651083521035
 11
265.28627917881965
 21
138.59651083521035
  0
CIRCLE
  8
_0-3_図面枠
  6
CONTINUOUS
 62
    2
 10
261.47427917881924
 20
136.99651083521005
 40
0.2999999999999999
  0
LINE
  8
_0-2_製品
  6
CONTINUOUS
 62
    2
 10
262.97427917881924
 20
138.59651083521035
 11
262.97427917881924
 21
136.99651083521005
  0
LINE
  8
_0-2_製品
  6
CONTINUOUS
 62
    2
 10
262.44227917881955
 20
138.69651083521026
 11
261.70267917881921
 21
138.69651083521026
  0
LINE
  8
_0-2_製品
  6
CONTINUOUS
 62
    2
 10
262.44227917881955
 20
138.59651083521035
 11
261.70267917881921
 21
138.59651083521035
  0
ARC
  8
_0-2_製品
  6
CONTINUOUS
 62
    2
 10
262.97067917881924
 20
138.72291083521006
 40
0.12
 50
251.53485100001211
 51
288.46514899998778
  0
ARC
  8
_0-2_製品
  6
CONTINUOUS
 62
    2
 10
262.97067917881924
 20
138.82291083521037
 40
0.12
 50
251.53485100001211
 51
288.46514899998778
  0
ARC
  8
_0-2_製品
  6
CONTINUOUS
 62
    2
 10
262.67987917881953
 20
138.66691083521044
 40
0.12
 50
71.534851000012111
 51
116.52235399998952
  0
ARC
  8
_0-2_製品
  6
CONTINUOUS
 62
    2
 10
262.67987917881953
 20
138.56691083521005
 40
0.12
 50
71.534851000012111
 51
116.52235399998952
  0
LINE
  8
_0-2_製品
  6
CONTINUOUS
 62
    2
 10
263.23267917881941
 20
138.68391083521027
 11
263.00867917881925
 21
138.60911083521046
  0
LINE
  8
_0-2_製品
  6
CONTINUOUS
 62
    2
 10
263.23267917881941
 20
138.78391083521015
 11
263.00867917881925
 21
138.70911083521037
  0
LINE
  8
_0-2_製品
  6
CONTINUOUS
 62
    2
 10
262.93267917881923
 20
138.70911083521037
 11
262.71787917881954
 21
138.78071083521004
  0
LINE
  8
_0-2_製品
  6
CONTINUOUS
 62
    2
 10
262.93267917881923
 20
138.60911083521046
 11
262.71787917881954
 21
138.68071083521016
  0
LINE
  8
_0-2_製品
  6
CONTINUOUS
 62
    2
 10
262.62627917881935
 20
138.77431083521034
 11
262.49587917881922
 21
138.70911083521037
  0
ARC
  8
_0-2_製品
  6
CONTINUOUS
 62
    2
 10
262.44227917881955
 20
138.81651083521015
 40
0.12
 50
270
 51
296.52236899998411
  0
ARC
  8
_0-2_製品
  6
CONTINUOUS
 62
    2
 10
262.44227917881955
 20
138.71651083521024
 40
0.12
 50
270
 51
296.52236899998411
  0
LINE
  8
_0-2_製品
  6
CONTINUOUS
 62
    2
 10
262.62627917881935
 20
138.67431083521035
 11
262.49587917881922
 21
138.60911083521046
  0
LINE
  8
_0-2_製品
  6
CONTINUOUS
 62
    2
 10
261.64907917881953
 20
138.70911083521037
 11
261.52787917881943
 21
138.76971083521016
  0
LINE
  8
_0-2_製品
  6
CONTINUOUS
 62
    2
 10
261.64907917881953
 20
138.60911083521046
 11
261.52787917881943
 21
138.66971083521017
  0
LINE
  8
_0-2_製品
  6
CONTINUOUS
 62
    2
 10
261.29947917881941
 20
138.60911083521046
 11
261.42067917881951
 21
138.66971083521017
  0
ARC
  8
_0-2_製品
  6
CONTINUOUS
 62
    2
 10
261.47427917881924
 20
138.66231083521026
 40
0.12
 50
63.477641999995569
 51
116.52235399998949
  0
ARC
  8
_0-2_製品
  6
CONTINUOUS
 62
    2
 10
261.47427917881924
 20
138.56231083521035
 40
0.12
 50
63.477641999995569
 51
116.52235399998949
  0
ARC
  8
_0-2_製品
  6
CONTINUOUS
 62
    2
 10
261.70267917881921
 20
138.81651083521015
 40
0.12
 50
243.4776460000104
 51
270
  0
ARC
  8
_0-2_製品
  6
CONTINUOUS
 62
    2
 10
261.70267917881921
 20
138.71651083521024
 40
0.12
 50
243.4776460000104
 51
270
  0
ARC
  8
_0-2_製品
  6
CONTINUOUS
 62
    2
 10
261.24587917881934
 20
138.71651083521024
 40
0.12
 50
270
 51
296.52236899998411
  0
LINE
  8
_0-2_製品
  6
CONTINUOUS
 62
    2
 10
261.29947917881941
 20
138.70911083521037
 11
261.42067917881951
 21
138.76971083521016
  0
ARC
  8
_0-2_製品
  6
CONTINUOUS
 62
    2
 10
261.24587917881934
 20
138.81651083521015
 40
0.12
 50
270
 51
296.52236899998411
  0
ARC
  8
_0-2_製品
  6
CONTINUOUS
 62
    2
 10
263.27067917881942
 20
138.67011083521015
 40
0.12
 50
71.534851000012111
 51
108.46514899998782
  0
ARC
  8
_0-2_製品
  6
CONTINUOUS
 62
    2
 10
263.27067917881942
 20
138.57011083521016
 40
0.12
 50
71.534851000012111
 51
108.46514899998782
  0
LINE
  8
_0-2_製品
  6
CONTINUOUS
 62
    2
 10
258.97427917881924
 20
138.59651083521035
 11
258.97427917881924
 21
136.99651083521005
  0
LINE
  8
_0-2_製品
  6
CONTINUOUS
 62
    2
 10
259.97427917881924
 20
138.59651083521035
 11
259.97427917881924
 21
136.99651083521005
  0
ARC
  8
_0-2_製品
  6
CONTINUOUS
 62
    2
 10
258.17787917881952
 20
138.72291083521006
 40
0.12
 50
251.62548799999212
 51
288.46514899998778
  0
LINE
  8
_0-2_製品
  6
CONTINUOUS
 62
    2
 10
258.51587917881926
 20
138.68391083521027
 11
258.73987917881942
 21
138.60911083521046
  0
LINE
  8
_0-2_製品
  6
CONTINUOUS
 62
    2
 10
258.51587917881926
 20
138.78391083521015
 11
258.73987917881942
 21
138.70911083521037
  0
LINE
  8
_0-2_製品
  6
CONTINUOUS
 62
    2
 10
258.81587917881944
 20
138.70911083521037
 11
259.03987917881966
 21
138.78391083521015
  0
ARC
  8
_0-2_製品
  6
CONTINUOUS
 62
    2
 10
259.07787917881961
 20
138.67011083521015
 40
0.12
 50
71.534851000012111
 51
108.46514899998782
  0
LINE
  8
_0-2_製品
  6
CONTINUOUS
 62
    2
 10
258.81587917881944
 20
138.60911083521046
 11
259.03987917881966
 21
138.68391083521027
  0
ARC
  8
_0-2_製品
  6
CONTINUOUS
 62
    2
 10
259.07787917881961
 20
138.57011083521016
 40
0.12
 50
71.534851000012111
 51
108.46514899998782
  0
LINE
  8
_0-2_製品
  6
CONTINUOUS
 62
    2
 10
259.11587917881963
 20
138.78391083521015
 11
259.33987917881933
 21
138.70911083521037
  0
LINE
  8
_0-2_製品
  6
CONTINUOUS
 62
    2
 10
259.11587917881963
 20
138.68391083521027
 11
259.33987917881933
 21
138.60911083521046
  0
ARC
  8
_0-2_製品
  6
CONTINUOUS
 62
    2
 10
259.37787917881934
 20
138.82291083521037
 40
0.12
 50
251.53485100001211
 51
288.46514899998778
  0
ARC
  8
_0-2_製品
  6
CONTINUOUS
 62
    2
 10
259.37787917881934
 20
138.72291083521006
 40
0.12
 50
251.53485100001211
 51
288.46514899998778
  0
LINE
  8
_0-2_製品
  6
CONTINUOUS
 62
    2
 10
259.41587917881935
 20
138.70911083521037
 11
259.63987917881951
 21
138.78391083521015
  0
ARC
  8
_0-2_製品
  6
CONTINUOUS
 62
    2
 10
259.67787917881952
 20
138.67011083521015
 40
0.12
 50
71.534851000012111
 51
108.46514899998782
  0
LINE
  8
_0-2_製品
  6
CONTINUOUS
 62
    2
 10
259.41587917881935
 20
138.60911083521046
 11
259.63987917881951
 21
138.68391083521027
  0
ARC
  8
_0-2_製品
  6
CONTINUOUS
 62
    2
 10
259.67787917881952
 20
138.57011083521016
 40
0.12
 50
71.534851000012111
 51
108.46514899998782
  0
ARC
  8
_0-2_製品
  6
CONTINUOUS
 62
    2
 10
259.97787917881925
 20
138.72291083521006
 40
0.12
 50
251.53485100001211
 51
288.46514899998778
  0
LINE
  8
_0-2_製品
  6
CONTINUOUS
 62
    2
 10
259.71587917881953
 20
138.68391083521027
 11
259.93987917881924
 21
138.60911083521046
  0
ARC
  8
_0-2_製品
  6
CONTINUOUS
 62
    2
 10
259.97787917881925
 20
138.82291083521037
 40
0.12
 50
251.53485100001211
 51
288.46514899998778
  0
LINE
  8
_0-2_製品
  6
CONTINUOUS
 62
    2
 10
259.71587917881953
 20
138.78391083521015
 11
259.93987917881924
 21
138.70911083521037
  0
LINE
  8
_0-2_製品
  6
CONTINUOUS
 62
    2
 10
260.01587917881932
 20
138.70911083521037
 11
260.23067917881946
 21
138.78071083521004
  0
ARC
  8
_0-2_製品
  6
CONTINUOUS
 62
    2
 10
260.26867917881953
 20
138.66691083521044
 40
0.12
 50
63.477641999995569
 51
108.46514899998782
  0
LINE
  8
_0-2_製品
  6
CONTINUOUS
 62
    2
 10
260.01587917881932
 20
138.60911083521046
 11
260.23067917881946
 21
138.68071083521016
  0
ARC
  8
_0-2_製品
  6
CONTINUOUS
 62
    2
 10
260.26867917881953
 20
138.56691083521005
 40
0.12
 50
63.477641999995569
 51
108.46514899998782
  0
LINE
  8
_0-2_製品
  6
CONTINUOUS
 62
    2
 10
260.32227917881926
 20
138.77431083521034
 11
260.45267917881921
 21
138.70911083521037
  0
ARC
  8
_0-2_製品
  6
CONTINUOUS
 62
    2
 10
258.17787917881952
 20
138.82311083521037
 40
0.12
 50
251.56504799999342
 51
288.43493700000215
  0
LINE
  8
_0-2_製品
  6
CONTINUOUS
 62
    2
 10
258.21587917881953
 20
138.70911083521037
 11
258.43987917881924
 21
138.78391083521015
  0
ARC
  8
_0-2_製品
  6
CONTINUOUS
 62
    2
 10
258.47787917881925
 20
138.67011083521015
 40
0.12
 50
71.534851000012111
 51
108.46514899998782
  0
LINE
  8
_0-2_製品
  6
CONTINUOUS
 62
    2
 10
258.21587917881953
 20
138.60911083521046
 11
258.43987917881924
 21
138.68391083521027
  0
ARC
  8
_0-2_製品
  6
CONTINUOUS
 62
    2
 10
258.47787917881925
 20
138.57011083521016
 40
0.12
 50
71.534851000012111
 51
108.46514899998782
  0
ARC
  8
_0-2_製品
  6
CONTINUOUS
 62
    2
 10
258.77787917881943
 20
138.72291083521006
 40
0.12
 50
251.53485100001211
 51
288.46514899998778
  0
ARC
  8
_0-2_製品
  6
CONTINUOUS
 62
    2
 10
258.77787917881943
 20
138.82291083521037
 40
0.12
 50
251.53485100001211
 51
288.46514899998778
  0
ARC
  8
_0-2_製品
  6
CONTINUOUS
 62
    2
 10
260.50627917881945
 20
138.81651083521015
 40
0.12
 50
243.4776460000104
 51
270
  0
LINE
  8
_0-2_製品
  6
CONTINUOUS
 62
    2
 10
260.32227917881926
 20
138.67431083521035
 11
260.45267917881921
 21
138.60911083521046
  0
ARC
  8
_0-2_製品
  6
CONTINUOUS
 62
    2
 10
260.50627917881945
 20
138.71651083521024
 40
0.12
 50
243.4776460000104
 51
270
  0
LINE
  8
_0-2_製品
  6
CONTINUOUS
 62
    2
 10
255.97427917881924
 20
138.59651083521035
 11
255.97427917881924
 21
136.99651083521005
  0
ARC
  8
_0-2_製品
  6
CONTINUOUS
 62
    2
 10
257.88707917881936
 20
138.56691083521005
 40
0.12
 50
71.534851000012111
 51
116.52235399998952
  0
LINE
  8
_0-2_製品
  6
CONTINUOUS
 62
    2
 10
257.70307917881956
 20
138.70911083521037
 11
257.83347917881963
 21
138.77431083521034
  0
ARC
  8
_0-2_製品
  6
CONTINUOUS
 62
    2
 10
257.88707917881936
 20
138.66691083521044
 40
0.12
 50
71.565047999993382
 51
116.52235399998952
  0
LINE
  8
_0-2_製品
  6
CONTINUOUS
 62
    2
 10
257.70307917881956
 20
138.60911083521046
 11
257.83347917881963
 21
138.67431083521035
  0
LINE
  8
_0-2_製品
  6
CONTINUOUS
 62
    2
 10
257.07427917881961
 20
138.69651083521026
 11
257.64947917881943
 21
138.69651083521026
  0
ARC
  8
_0-2_製品
  6
CONTINUOUS
 62
    2
 10
257.64947917881943
 20
138.81651083521015
 40
0.12
 50
270
 51
296.52236899998411
  0
ARC
  8
_0-2_製品
  6
CONTINUOUS
 62
    2
 10
257.64947917881943
 20
138.71651083521024
 40
0.12
 50
270
 51
296.52236899998411
  0
LINE
  8
_0-2_製品
  6
CONTINUOUS
 62
    2
 10
257.07427917881961
 20
138.59651083521035
 11
257.66227917881935
 21
138.59651083521035
  0
LINE
  8
_0-2_製品
  6
CONTINUOUS
 62
    2
 10
257.92507917881932
 20
138.68071083521016
 11
258.14007917881946
 21
138.60911083521046
  0
LINE
  8
_0-2_製品
  6
CONTINUOUS
 62
    2
 10
257.92507917881932
 20
138.78091083521005
 11
258.13987917881951
 21
138.70911083521037
  0
LINE
  8
_0-2_製品
  6
CONTINUOUS
 62
    2
 10
260.50627917881945
 20
138.59651083521035
 11
261.24587917881934
 21
138.59651083521035
  0
LINE
  8
_0-2_製品
  6
CONTINUOUS
 62
    2
 10
260.50627917881945
 20
138.69651083521026
 11
261.24587917881934
 21
138.69651083521026
  0
ARC
  8
_0-2_製品
  6
CONTINUOUS
 62
    2
 10
257.07427917881961
 20
139.19651083521026
 40
0.5999999999999999
 50
180
 51
270
  0
ARC
  8
_0-2_製品
  6
CONTINUOUS
 62
    2
 10
257.07427917881961
 20
139.19651083521026
 40
0.5
 50
180
 51
270
  0
ARC
  8
_0-2_製品
  6
CONTINUOUS
 62
    2
 10
265.97427917881924
 20
142.09651083521035
 40
0.2
 50
90
 51
180
  0
ARC
  8
_0-2_製品
  6
CONTINUOUS
 62
    2
 10
265.97427917881924
 20
142.09651083521035
 40
0.2999999999999999
 50
90
 51
180
  0
ARC
  8
_0-2_製品
  6
CONTINUOUS
 62
    2
 10
265.87427917881934
 20
140.91651083521006
 40
0.4
 50
270
 51
0
  0
ARC
  8
_0-2_製品
  6
CONTINUOUS
 62
    2
 10
266.08544817881955
 20
142.13651083521034
 40
0.16
 50
90
 51
168.69006800000321
  0
LINE
  8
_0-2_製品
  6
CONTINUOUS
 62
    2
 10
265.85062517881926
 20
141.77824183521005
 11
265.92855517881964
 21
142.16788983521036
  0
ARC
  8
_0-2_製品
  6
CONTINUOUS
 62
    2
 10
265.87427917881934
 20
139.19651083521026
 40
0.5999999999999999
 50
270
 51
0
  0
ARC
  8
_0-2_製品
  6
CONTINUOUS
 62
    2
 10
265.87427917881934
 20
139.19651083521026
 40
0.5
 50
270
 51
0
  0
LINE
  8
_0-3_図面枠
  6
CONTINUOUS
 62
    2
 10
261.47427917881924
 20
136.99651083521005
 11
267.24778217881965
 21
126.99651083521005
  0
CIRCLE
  8
_0-3_図面枠
  6
CONTINUOUS
 62
    2
 10
251.47427917881924
 20
139.59651083521035
 40
0.2999999999999999
  0
LINE
  8
_0-2_製品
  6
CONTINUOUS
 62
    2
 10
254.97427917881924
 20
138.59651083521035
 11
254.97427917881924
 21
136.99651083521005
  0
LINE
  8
_0-2_製品
  6
CONTINUOUS
 62
    2
 10
250.97427917881924
 20
138.59651083521035
 11
250.97427917881924
 21
136.99651083521005
  0
LINE
  8
_0-2_製品
  6
CONTINUOUS
 62
    2
 10
251.97427917881924
 20
138.59651083521035
 11
251.97427917881924
 21
136.99651083521005
  0
LINE
  8
_0-2_製品
  6
CONTINUOUS
 62
    2
 10
247.97427917881924
 20
138.59651083521035
 11
247.97427917881924
 21
136.99651083521005
  0
LINE
  8
_0-2_製品
  6
CONTINUOUS
 62
    2
 10
246.97427917881924
 20
138.59651083521035
 11
246.97427917881924
 21
136.99651083521005
  0
LINE
  8
_0-2_製品
  6
CONTINUOUS
 62
    2
 10
241.47427917881924
 20
145.42237683521006
 11
244.50014517881925
 21
142.39651083521017
  0
LINE
  8
_0-2_製品
  6
CONTINUOUS
 62
    2
 10
241.47427917881924
 20
143.30105683521035
 11
242.37882517881945
 21
142.39651083521017
  0
LINE
  8
_0-2_製品
  6
CONTINUOUS
 62
    2
 10
242.97427917881924
 20
138.59651083521035
 11
242.97427917881924
 21
136.99651083521005
  0
LINE
  8
_0-2_製品
  6
CONTINUOUS
 62
    2
 10
243.97427917881924
 20
138.59651083521035
 11
243.97427917881924
 21
136.99651083521005
  0
LINE
  8
_0-2_製品
  6
PLINE2
 62
    2
 10
256.47427917881936
 20
139.59651083521035
 11
241.47427917881924
 21
139.59651083521035
  0
LINE
  8
_0-3_図面枠
  6
CONTINUOUS
 62
    2
 10
251.47427917881924
 20
139.59651083521035
 11
264.52239517881924
 21
116.99651083521006
  0
LINE
  8
_0-2_製品
  6
CONTINUOUS
 62
    2
 10
269.71334817881944
 20
146.39651083521017
 11
265.71334817881956
 21
142.39651083521017
  0
LINE
  8
_0-2_製品
  6
CONTINUOUS
 62
    2
 10
267.59202817881925
 20
146.39651083521017
 11
263.59202817881925
 21
142.39651083521017
  0
LINE
  8
_0-2_製品
  6
CONTINUOUS
 62
    2
 10
265.47070817881956
 20
146.39651083521017
 11
261.47070817881956
 21
142.39651083521017
  0
LINE
  8
_0-2_製品
  6
CONTINUOUS
 62
    2
 10
263.34938717881943
 20
146.39651083521017
 11
259.34938717881943
 21
142.39651083521017
  0
LINE
  8
_0-2_製品
  6
CONTINUOUS
 62
    2
 10
261.22806717881923
 20
146.39651083521017
 11
257.22806717881923
 21
142.39651083521017
  0
LINE
  8
_0-2_製品
  6
CONTINUOUS
 62
    2
 10
259.10674717881955
 20
146.39651083521017
 11
255.10674717881955
 21
142.39651083521017
  0
LINE
  8
_0-2_製品
  6
CONTINUOUS
 62
    2
 10
256.98542617881941
 20
146.39651083521017
 11
252.98542617881941
 21
142.39651083521017
  0
LINE
  8
_0-2_製品
  6
CONTINUOUS
 62
    2
 10
254.86410617881921
 20
146.39651083521017
 11
250.86410617881921
 21
142.39651083521017
  0
LINE
  8
_0-2_製品
  6
CONTINUOUS
 62
    2
 10
252.74278617881953
 20
146.39651083521017
 11
248.74278617881953
 21
142.39651083521017
  0
LINE
  8
_0-2_製品
  6
CONTINUOUS
 62
    2
 10
250.62146517881945
 20
146.39651083521017
 11
246.62146517881945
 21
142.39651083521017
  0
LINE
  8
_0-2_製品
  6
CONTINUOUS
 62
    2
 10
248.50014517881925
 20
146.39651083521017
 11
244.50014517881925
 21
142.39651083521017
  0
LINE
  8
_0-2_製品
  6
CONTINUOUS
 62
    2
 10
246.37882517881945
 20
146.39651083521017
 11
242.37882517881945
 21
142.39651083521017
  0
LINE
  8
_0-2_製品
  6
CONTINUOUS
 62
    2
 10
244.25750417881943
 20
146.39651083521017
 11
241.47427917881924
 21
143.61328583521046
  0
LINE
  8
_0-2_製品
  6
CONTINUOUS
 62
    2
 10
242.13618417881912
 20
146.39651083521017
 11
241.47427917881924
 21
145.73460583521015
  0
LINE
  8
_0-2_製品
  6
CONTINUOUS
 62
    2
 10
265.95598917881932
 20
146.39651083521017
 11
269.95598917881932
 21
142.39651083521017
  0
LINE
  8
_0-2_製品
  6
CONTINUOUS
 62
    2
 10
263.83466917881952
 20
146.39651083521017
 11
267.83466917881952
 21
142.39651083521017
  0
LINE
  8
_0-2_製品
  6
CONTINUOUS
 62
    2
 10
261.71334817881944
 20
146.39651083521017
 11
265.71334817881956
 21
142.39651083521017
  0
LINE
  8
_0-2_製品
  6
CONTINUOUS
 62
    2
 10
259.59202817881925
 20
146.39651083521017
 11
263.59202817881925
 21
142.39651083521017
  0
LINE
  8
_0-2_製品
  6
CONTINUOUS
 62
    2
 10
257.47070817881956
 20
146.39651083521017
 11
261.47070817881956
 21
142.39651083521017
  0
LINE
  8
_0-2_製品
  6
CONTINUOUS
 62
    2
 10
255.34938717881943
 20
146.39651083521017
 11
259.34938717881943
 21
142.39651083521017
  0
LINE
  8
_0-2_製品
  6
CONTINUOUS
 62
    2
 10
253.22806717881923
 20
146.39651083521017
 11
257.22806717881923
 21
142.39651083521017
  0
LINE
  8
_0-2_製品
  6
CONTINUOUS
 62
    2
 10
251.10674717881955
 20
146.39651083521017
 11
255.10674717881955
 21
142.39651083521017
  0
LINE
  8
_0-2_製品
  6
CONTINUOUS
 62
    2
 10
248.98542617881941
 20
146.39651083521017
 11
252.98542617881941
 21
142.39651083521017
  0
LINE
  8
_0-2_製品
  6
CONTINUOUS
 62
    2
 10
246.86410617881921
 20
146.39651083521017
 11
250.86410617881921
 21
142.39651083521017
  0
LINE
  8
_0-2_製品
  6
CONTINUOUS
 62
    2
 10
244.74278617881953
 20
146.39651083521017
 11
248.74278617881953
 21
142.39651083521017
  0
LINE
  8
_0-2_製品
  6
CONTINUOUS
 62
    2
 10
242.62146517881945
 20
146.39651083521017
 11
246.62146517881945
 21
142.39651083521017
  0
LINE
  8
_0-2_製品
  6
CONTINUOUS
 62
    2
 10
269.85659317881976
 20
163.19651083521026
 11
269.57427917881961
 21
163.03351683521007
  0
ARC
  8
_0-2_製品
  6
CONTINUOUS
 62
    2
 10
270.06600617881924
 20
162.47077583521036
 40
0.7257350000000001
 50
50.84205499999478
 51
90
  0
LINE
  8
_0-2_製品
  6
CONTINUOUS
 62
    4
 10
270.52427917881943
 20
179.99651083521005
 11
270.52427917881943
 21
163.19651083521026
  0
TEXT
  8
_0-3_図面枠
 62
    7
 10
305.62228717881942
 20
160.99651143894675
 40
3.0000000000000013
 41
0.7999999999999999
 50
0.0000100000010007
  1
吸音材
  0
LINE
  8
_0-2_製品
  6
CONTINUOUS
 62
    2
 10
273.37427917881934
 20
163.03351683521007
 11
273.37427917881934
 21
161.59651083521035
  0
LINE
  8
_0-2_製品
  6
CONTINUOUS
 62
    2
 10
272.42427917881952
 20
161.59651083521035
 11
272.42427917881952
 21
163.03351683521007
  0
LINE
  8
_0-2_製品
  6
PLINE3
 62
    2
 10
271.47427917881924
 20
139.99651083521005
 11
271.47427917881924
 21
179.99651083521005
  0
LINE
  8
_0-3_図面枠
  6
CONTINUOUS
 62
    2
 10
313.62231517881935
 20
159.99651083521005
 11
304.59231517881955
 21
159.99651083521005
  0
LINE
  8
_0-2_製品
  6
CONTINUOUS
 62
    4
 10
304.47427917881924
 20
149.99651083521005
 11
331.47427917881924
 21
149.99651083521005
  0
LINE
  8
_0-2_製品
  6
CONTINUOUS
 62
    4
 10
304.47427917881924
 20
149.67651083521037
 11
331.47427917881924
 21
149.67651083521037
  0
LINE
  8
_0-2_製品
  6
PLINE2
 62
    2
 10
331.47427917881924
 20
139.59651083521035
 11
303.97427917881936
 21
139.59651083521035
  0
LINE
  8
_0-2_製品
  6
CONTINUOUS
 62
    2
 10
307.89711517881943
 20
146.39651083521017
 11
303.89711517881943
 21
142.39651083521017
  0
LINE
  8
_0-2_製品
  6
CONTINUOUS
 62
    2
 10
304.13975517881931
 20
146.39651083521017
 11
308.13975517881943
 21
142.39651083521017
  0
LINE
  8
_0-2_製品
  6
CONTINUOUS
 62
    2
 10
302.01843517881923
 20
146.39651083521017
 11
306.01843517881923
 21
142.39651083521017
  0
LINE
  8
_0-2_製品
  6
CONTINUOUS
 62
    2
 10
304.47427917881924
 20
149.99651083521005
 11
304.47427917881924
 21
150.11651083521036
  0
ARC
  8
_0-2_製品
  6
CONTINUOUS
 62
    2
 10
303.97427917881936
 20
147.49651083521005
 40
0.5
 50
270
 51
0
  0
LINE
  8
_0-2_製品
  6
CONTINUOUS
 62
    2
 10
304.47427917881924
 20
147.49651083521005
 11
304.47427917881924
 21
149.99651083521005
  0
LINE
  8
_0-2_製品
  6
CONTINUOUS
 62
    4
 10
300.77427917881943
 20
149.99651083521005
 11
302.17427917881952
 21
149.99651083521005
  0
LINE
  8
_0-2_製品
  6
CONTINUOUS
 62
    2
 10
298.47427917881924
 20
150.11651083521036
 11
298.47427917881924
 21
149.99651083521005
  0
LINE
  8
_0-2_製品
  6
CONTINUOUS
 62
    4
 10
300.77427917881943
 20
149.67651083521037
 11
302.17427917881952
 21
149.67651083521037
  0
ARC
  8
_0-2_製品
  6
CONTINUOUS
 62
    2
 10
302.67427917881952
 20
147.49651083521005
 40
0.5
 50
180
 51
270
  0
LINE
  8
_0-2_製品
  6
CONTINUOUS
 62
    2
 10
300.27427917881943
 20
146.99651083521005
 11
298.97427917881936
 21
146.99651083521005
  0
ARC
  8
_0-2_製品
  6
CONTINUOUS
 62
    2
 10
298.97427917881936
 20
147.49651083521005
 40
0.5
 50
180
 51
270
  0
ARC
  8
_0-2_製品
  6
CONTINUOUS
 62
    2
 10
300.27427917881943
 20
147.49651083521005
 40
0.5
 50
270
 51
0
  0
LINE
  8
_0-2_製品
  6
CONTINUOUS
 62
    2
 10
298.47427917881924
 20
147.49651083521005
 11
298.47427917881924
 21
149.99651083521005
  0
LINE
  8
_0-2_製品
  6
CONTINUOUS
 62
    2
 10
300.77427917881943
 20
150.11651083521036
 11
300.77427917881943
 21
147.49651083521005
  0
LINE
  8
_0-2_製品
  6
CONTINUOUS
 62
    2
 10
302.17427917881952
 20
150.11651083521036
 11
302.17427917881952
 21
147.49651083521005
  0
LINE
  8
_0-2_製品
  6
CONTINUOUS
 62
    2
 10
304.47427917881924
 20
150.11651083521036
 11
298.47427917881924
 21
150.11651083521036
  0
LINE
  8
_0-2_製品
  6
CONTINUOUS
 62
    2
 10
302.67427917881952
 20
146.99651083521005
 11
303.97427917881936
 21
146.99651083521005
  0
TEXT
  8
_0-3_図面枠
 62
    7
 10
296.96838717881951
 20
151.99651983521036
 40
3
 41
0.8000000000000001
 50
0
  1
（Ｓ）
  0
ARC
  8
_0-2_製品
  6
CONTINUOUS
 62
    2
 10
272.88255217881925
 20
160.32224583521037
 40
0.7257350000000001
 50
230.84205499999482
 51
270
  0
LINE
  8
_0-2_製品
  6
CONTINUOUS
 62
    2
 10
273.37427917881934
 20
159.75950483521015
 11
273.09196517881935
 21
159.59651083521035
  0
LINE
  8
_0-2_製品
  6
CONTINUOUS
 62
    4
 10
272.42427917881952
 20
159.59651083521035
 11
272.42427917881952
 21
155.59651083521035
  0
LINE
  8
_0-2_製品
  6
CONTINUOUS
 62
    4
 10
273.77427917881943
 20
161.59651083521035
 11
273.77427917881943
 21
146.39651083521017
  0
LINE
  8
_0-2_製品
  6
CONTINUOUS
 62
    2
 10
273.37427917881934
 20
159.75950483521015
 11
273.37427917881934
 21
161.19651083521026
  0
LINE
  8
_0-2_製品
  6
CONTINUOUS
 62
    2
 10
272.42427917881952
 20
161.19651083521026
 11
272.42427917881952
 21
159.75950483521015
  0
LINE
  8
_0-2_製品
  6
CONTINUOUS
 62
    4
 10
273.77427917881943
 20
149.99651083521005
 11
298.47427917881924
 21
149.99651083521005
  0
LINE
  8
_0-2_製品
  6
CONTINUOUS
 62
    4
 10
273.77427917881943
 20
149.67651083521037
 11
298.47427917881924
 21
149.67651083521037
  0
LINE
  8
_0-2_製品
  6
CONTINUOUS
 62
    2
 10
303.77427917881954
 20
140.77651083521025
 11
303.77427917881954
 21
142.29015983521026
  0
LINE
  8
_0-2_製品
  6
CONTINUOUS
 62
    2
 10
303.87427917881934
 20
139.19651083521026
 11
303.87427917881934
 21
142.09651083521035
  0
LINE
  8
_0-2_製品
  6
CONTINUOUS
 62
    2
 10
303.97427917881936
 20
139.19651083521026
 11
303.97427917881936
 21
142.09651083521035
  0
ARC
  8
_0-2_製品
  6
CONTINUOUS
 62
    2
 10
303.67427917881952
 20
142.09651083521035
 40
0.2
 50
0
 51
90
  0
LINE
  8
_0-2_製品
  6
CONTINUOUS
 62
    2
 10
303.67427917881952
 20
142.29651083521017
 11
303.47427917881936
 21
142.29651083521017
  0
ARC
  8
_0-2_製品
  6
CONTINUOUS
 62
    2
 10
303.47427917881936
 20
142.09651083521035
 40
0.2
 50
90
 51
180
  0
LINE
  8
_0-2_製品
  6
CONTINUOUS
 62
    2
 10
303.27427917881943
 20
142.09651083521035
 11
303.27427917881943
 21
141.79651083521026
  0
LINE
  8
_0-2_製品
  6
CONTINUOUS
 62
    2
 10
303.27427917881943
 20
141.79651083521026
 11
303.17427917881952
 21
141.79651083521026
  0
LINE
  8
_0-2_製品
  6
CONTINUOUS
 62
    2
 10
303.17427917881952
 20
141.79651083521026
 11
303.17427917881952
 21
142.09651083521035
  0
ARC
  8
_0-2_製品
  6
CONTINUOUS
 62
    2
 10
303.67427917881952
 20
142.09651083521035
 40
0.2999999999999999
 50
0
 51
90
  0
ARC
  8
_0-2_製品
  6
CONTINUOUS
 62
    2
 10
303.37427917881934
 20
140.77651083521025
 40
0.4
 50
270
 51
0
  0
ARC
  8
_0-2_製品
  6
CONTINUOUS
 62
    2
 10
303.58544817881955
 20
142.13651083521034
 40
0.16
 50
90
 51
168.69006800000321
  0
LINE
  8
_0-2_製品
  6
CONTINUOUS
 62
    2
 10
303.35062517881931
 20
141.77824183521005
 11
303.42855517881964
 21
142.16788983521036
  0
LINE
  8
_0-2_製品
  6
CONTINUOUS
 62
    2
 10
302.77427917881943
 20
142.39651083521017
 11
302.77427917881943
 21
141.92089783521007
  0
LINE
  8
_0-2_製品
  6
CONTINUOUS
 62
    2
 10
299.17427917881952
 20
142.26971583521046
 11
299.17427917881952
 21
140.77651083521025
  0
LINE
  8
_0-2_製品
  6
CONTINUOUS
 62
    2
 10
299.07427917881961
 20
139.19651083521026
 11
299.07427917881961
 21
142.09651083521035
  0
LINE
  8
_0-2_製品
  6
CONTINUOUS
 62
    2
 10
298.97427917881936
 20
139.19651083521026
 11
298.97427917881936
 21
142.09651083521035
  0
ARC
  8
_0-2_製品
  6
CONTINUOUS
 62
    2
 10
299.27427917881943
 20
142.09651083521035
 40
0.2
 50
90
 51
180
  0
LINE
  8
_0-2_製品
  6
CONTINUOUS
 62
    2
 10
299.27427917881943
 20
142.29651083521017
 11
299.47427917881936
 21
142.29651083521017
  0
ARC
  8
_0-2_製品
  6
CONTINUOUS
 62
    2
 10
299.47427917881936
 20
142.09651083521035
 40
0.2
 50
0
 51
90
  0
LINE
  8
_0-2_製品
  6
CONTINUOUS
 62
    2
 10
299.67427917881952
 20
142.09651083521035
 11
299.67427917881952
 21
141.79651083521026
  0
LINE
  8
_0-2_製品
  6
CONTINUOUS
 62
    2
 10
299.67427917881952
 20
141.79651083521026
 11
299.77427917881943
 21
141.79651083521026
  0
LINE
  8
_0-2_製品
  6
CONTINUOUS
 62
    2
 10
299.77427917881943
 20
141.79651083521026
 11
299.77427917881943
 21
142.09651083521035
  0
ARC
  8
_0-2_製品
  6
CONTINUOUS
 62
    2
 10
299.47427917881936
 20
142.09651083521035
 40
0.2999999999999999
 50
0
 51
90
  0
ARC
  8
_0-2_製品
  6
CONTINUOUS
 62
    2
 10
299.27427917881943
 20
142.09651083521035
 40
0.2999999999999999
 50
90
 51
180
  0
ARC
  8
_0-2_製品
  6
CONTINUOUS
 62
    2
 10
299.57427917881961
 20
140.77651083521025
 40
0.4
 50
180
 51
270
  0
ARC
  8
_0-2_製品
  6
CONTINUOUS
 62
    2
 10
299.36311017881945
 20
142.13651083521034
 40
0.16
 50
11.30993199999679
 51
90
  0
LINE
  8
_0-2_製品
  6
CONTINUOUS
 62
    2
 10
299.59793317881923
 20
141.77824183521005
 11
299.52000317881931
 21
142.16788983521036
  0
ARC
  8
_0-2_製品
  6
CONTINUOUS
 62
    2
 10
299.87427917881934
 20
141.89501083521026
 40
0.3000039999999999
 50
202.79607299998469
 51
0.2864770000049317
  0
LINE
  8
_0-2_製品
  6
CONTINUOUS
 62
    2
 10
300.17427917881952
 20
142.39651083521017
 11
300.17427917881952
 21
141.89351083521035
  0
ARC
  8
_0-2_製品
  6
CONTINUOUS
 62
    2
 10
303.47427917881936
 20
142.09651083521035
 40
0.2999999999999999
 50
90
 51
180
  0
LINE
  8
_0-2_製品
  6
CONTINUOUS
 62
    2
 10
299.57427917881961
 20
140.37651083521015
 11
303.37427917881934
 21
140.37651083521015
  0
ARC
  8
_0-2_製品
  6
CONTINUOUS
 62
    2
 10
303.07427917881961
 20
141.89501083521026
 40
0.3000039999999999
 50
179.71352299999501
 51
337.20392700001526
  0
LINE
  8
_0-2_製品
  6
CONTINUOUS
 62
    2
 10
303.97427917881936
 20
138.59651083521035
 11
303.97427917881936
 21
136.99651083521005
  0
LINE
  8
_0-2_製品
  6
CONTINUOUS
 62
    2
 10
303.37427917881934
 20
138.69651083521026
 11
303.17427917881952
 21
138.69651083521026
  0
LINE
  8
_0-2_製品
  6
CONTINUOUS
 62
    2
 10
303.37427917881934
 20
138.59651083521035
 11
303.17427917881952
 21
138.59651083521035
  0
LINE
  8
_0-2_製品
  6
CONTINUOUS
 62
    2
 10
302.97427917881924
 20
138.59651083521035
 11
302.97427917881924
 21
136.99651083521005
  0
LINE
  8
_0-2_製品
  6
CONTINUOUS
 62
    2
 10
302.97427917881924
 20
138.69651083521026
 11
302.67427917881952
 21
138.59651083521035
  0
LINE
  8
_0-2_製品
  6
CONTINUOUS
 62
    2
 10
302.67427917881952
 20
138.59651083521035
 11
302.37427917881934
 21
138.69651083521026
  0
LINE
  8
_0-2_製品
  6
CONTINUOUS
 62
    2
 10
302.37427917881934
 20
138.69651083521026
 11
302.07427917881961
 21
138.59651083521035
  0
LINE
  8
_0-2_製品
  6
CONTINUOUS
 62
    2
 10
302.07427917881961
 20
138.59651083521035
 11
301.77427917881943
 21
138.69651083521026
  0
LINE
  8
_0-2_製品
  6
CONTINUOUS
 62
    2
 10
301.77427917881943
 20
138.69651083521026
 11
301.47427917881924
 21
138.59651083521035
  0
LINE
  8
_0-2_製品
  6
CONTINUOUS
 62
    2
 10
302.97427917881924
 20
138.79651083521026
 11
302.67427917881952
 21
138.69651083521026
  0
LINE
  8
_0-2_製品
  6
CONTINUOUS
 62
    2
 10
302.67427917881952
 20
138.69651083521026
 11
302.37427917881934
 21
138.79651083521026
  0
LINE
  8
_0-2_製品
  6
CONTINUOUS
 62
    2
 10
302.37427917881934
 20
138.79651083521026
 11
302.07427917881961
 21
138.69651083521026
  0
LINE
  8
_0-2_製品
  6
CONTINUOUS
 62
    2
 10
302.07427917881961
 20
138.69651083521026
 11
301.77427917881943
 21
138.79651083521026
  0
LINE
  8
_0-2_製品
  6
CONTINUOUS
 62
    2
 10
301.77427917881943
 20
138.79651083521026
 11
301.47427917881924
 21
138.69651083521026
  0
LINE
  8
_0-2_製品
  6
CONTINUOUS
 62
    2
 10
300.57427917881961
 20
138.69651083521026
 11
300.87427917881934
 21
138.59651083521035
  0
LINE
  8
_0-2_製品
  6
CONTINUOUS
 62
    2
 10
300.87427917881934
 20
138.59651083521035
 11
301.17427917881952
 21
138.69651083521026
  0
LINE
  8
_0-2_製品
  6
CONTINUOUS
 62
    2
 10
301.17427917881952
 20
138.69651083521026
 11
301.47427917881924
 21
138.59651083521035
  0
LINE
  8
_0-2_製品
  6
CONTINUOUS
 62
    2
 10
300.57427917881961
 20
138.79651083521026
 11
300.87427917881934
 21
138.69651083521026
  0
LINE
  8
_0-2_製品
  6
CONTINUOUS
 62
    2
 10
300.87427917881934
 20
138.69651083521026
 11
301.17427917881952
 21
138.79651083521026
  0
LINE
  8
_0-2_製品
  6
CONTINUOUS
 62
    2
 10
301.17427917881952
 20
138.79651083521026
 11
301.47427917881924
 21
138.69651083521026
  0
LINE
  8
_0-2_製品
  6
CONTINUOUS
 62
    2
 10
298.97427917881936
 20
138.59651083521035
 11
298.97427917881936
 21
136.99651083521005
  0
LINE
  8
_0-2_製品
  6
CONTINUOUS
 62
    2
 10
299.97427917881924
 20
138.59651083521035
 11
299.97427917881924
 21
136.99651083521005
  0
LINE
  8
_0-2_製品
  6
CONTINUOUS
 62
    2
 10
299.57427917881961
 20
138.69651083521026
 11
299.77427917881943
 21
138.69651083521026
  0
LINE
  8
_0-2_製品
  6
CONTINUOUS
 62
    2
 10
299.57427917881961
 20
138.59651083521035
 11
299.77427917881943
 21
138.59651083521035
  0
LINE
  8
_0-2_製品
  6
CONTINUOUS
 62
    2
 10
299.77427917881943
 20
138.59651083521035
 11
299.97427917881924
 21
138.69651083521026
  0
LINE
  8
_0-2_製品
  6
CONTINUOUS
 62
    2
 10
299.97427917881924
 20
138.69651083521026
 11
300.27427917881943
 21
138.59651083521035
  0
LINE
  8
_0-2_製品
  6
CONTINUOUS
 62
    2
 10
299.97427917881924
 20
138.79651083521026
 11
300.27427917881943
 21
138.69651083521026
  0
LINE
  8
_0-2_製品
  6
CONTINUOUS
 62
    2
 10
299.77427917881943
 20
138.69651083521026
 11
299.97427917881924
 21
138.79651083521026
  0
LINE
  8
_0-2_製品
  6
CONTINUOUS
 62
    2
 10
300.27427917881943
 20
138.59651083521035
 11
300.57427917881961
 21
138.69651083521026
  0
LINE
  8
_0-2_製品
  6
CONTINUOUS
 62
    2
 10
300.27427917881943
 20
138.69651083521026
 11
300.57427917881961
 21
138.79651083521026
  0
LINE
  8
_0-2_製品
  6
CONTINUOUS
 62
    2
 10
303.17427917881952
 20
138.69651083521026
 11
302.97427917881924
 21
138.79651083521026
  0
LINE
  8
_0-2_製品
  6
CONTINUOUS
 62
    2
 10
303.17427917881952
 20
138.59651083521035
 11
302.97427917881924
 21
138.69651083521026
  0
ARC
  8
_0-2_製品
  6
CONTINUOUS
 62
    2
 10
303.37427917881934
 20
139.19651083521026
 40
0.5
 50
270
 51
0
  0
ARC
  8
_0-2_製品
  6
CONTINUOUS
 62
    2
 10
303.37427917881934
 20
139.19651083521026
 40
0.5999999999999999
 50
270
 51
0
  0
ARC
  8
_0-2_製品
  6
CONTINUOUS
 62
    2
 10
299.57427917881961
 20
139.19651083521026
 40
0.5
 50
180
 51
270
  0
ARC
  8
_0-2_製品
  6
CONTINUOUS
 62
    2
 10
299.57427917881961
 20
139.19651083521026
 40
0.5999999999999999
 50
180
 51
270
  0
LINE
  8
_0-2_製品
  6
CONTINUOUS
 62
    2
 10
295.97427917881924
 20
138.59651083521035
 11
295.97427917881924
 21
136.99651083521005
  0
LINE
  8
_0-2_製品
  6
CONTINUOUS
 62
    2
 10
294.97427917881936
 20
138.59651083521035
 11
294.97427917881936
 21
136.99651083521005
  0
LINE
  8
_0-2_製品
  6
CONTINUOUS
 62
    2
 10
290.97427917881936
 20
138.59651083521035
 11
290.97427917881936
 21
136.99651083521005
  0
LINE
  8
_0-2_製品
  6
CONTINUOUS
 62
    2
 10
291.97427917881924
 20
138.59651083521035
 11
291.97427917881924
 21
136.99651083521005
  0
LINE
  8
_0-2_製品
  6
CONTINUOUS
 62
    2
 10
287.97427917881924
 20
138.59651083521035
 11
287.97427917881924
 21
136.99651083521005
  0
LINE
  8
_0-2_製品
  6
CONTINUOUS
 62
    2
 10
286.97427917881936
 20
138.59651083521035
 11
286.97427917881936
 21
136.99651083521005
  0
LINE
  8
_0-2_製品
  6
CONTINUOUS
 62
    2
 10
282.97427917881936
 20
138.59651083521035
 11
282.97427917881936
 21
136.99651083521005
  0
LINE
  8
_0-2_製品
  6
CONTINUOUS
 62
    2
 10
283.97427917881924
 20
138.59651083521035
 11
283.97427917881924
 21
136.99651083521005
  0
LINE
  8
_0-2_製品
  6
CONTINUOUS
 62
    2
 10
279.97427917881924
 20
138.59651083521035
 11
279.97427917881924
 21
136.99651083521005
  0
LINE
  8
_0-2_製品
  6
CONTINUOUS
 62
    2
 10
278.97427917881936
 20
138.59651083521035
 11
278.97427917881936
 21
136.99651083521005
  0
LINE
  8
_0-2_製品
  6
CONTINUOUS
 62
    4
 10
273.77427917881943
 20
142.39651083521017
 11
273.77427917881943
 21
141.99651083521005
  0
LINE
  8
_0-2_製品
  6
CONTINUOUS
 62
    2
 10
274.97427917881924
 20
138.59651083521035
 11
274.97427917881924
 21
136.99651083521005
  0
LINE
  8
_0-2_製品
  6
CONTINUOUS
 62
    2
 10
275.97427917881924
 20
138.59651083521035
 11
275.97427917881924
 21
136.99651083521005
  0
LINE
  8
_0-2_製品
  6
CONTINUOUS
 62
    2
 10
271.97427917881924
 20
138.59651083521035
 11
271.97427917881924
 21
136.99651083521005
  0
LINE
  8
_0-2_製品
  6
CONTINUOUS
 62
    2
 10
270.97427917881924
 20
138.59651083521035
 11
270.97427917881924
 21
136.99651083521005
  0
LINE
  8
_0-2_製品
  6
CONTINUOUS
 62
    2
 10
305.77579417881935
 20
146.39651083521017
 11
301.77579417881935
 21
142.39651083521017
  0
LINE
  8
_0-2_製品
  6
CONTINUOUS
 62
    2
 10
303.65447417881961
 20
146.39651083521017
 11
299.65447417881961
 21
142.39651083521017
  0
LINE
  8
_0-2_製品
  6
CONTINUOUS
 62
    2
 10
301.53315417881942
 20
146.39651083521017
 11
297.53315417881942
 21
142.39651083521017
  0
LINE
  8
_0-2_製品
  6
CONTINUOUS
 62
    2
 10
299.41183317881934
 20
146.39651083521017
 11
295.41183317881934
 21
142.39651083521017
  0
LINE
  8
_0-2_製品
  6
CONTINUOUS
 62
    2
 10
297.29051317881965
 20
146.39651083521017
 11
293.29051317881965
 21
142.39651083521017
  0
LINE
  8
_0-2_製品
  6
CONTINUOUS
 62
    2
 10
295.16919217881951
 20
146.39651083521017
 11
291.16919217881951
 21
142.39651083521017
  0
LINE
  8
_0-2_製品
  6
CONTINUOUS
 62
    2
 10
293.04787217881932
 20
146.39651083521017
 11
289.04787217881932
 21
142.39651083521017
  0
LINE
  8
_0-2_製品
  6
CONTINUOUS
 62
    2
 10
290.92655217881963
 20
146.39651083521017
 11
286.92655217881963
 21
142.39651083521017
  0
LINE
  8
_0-2_製品
  6
CONTINUOUS
 62
    2
 10
288.80523117881955
 20
146.39651083521017
 11
284.80523117881955
 21
142.39651083521017
  0
LINE
  8
_0-2_製品
  6
CONTINUOUS
 62
    2
 10
286.68391117881924
 20
146.39651083521017
 11
282.68391117881924
 21
142.39651083521017
  0
LINE
  8
_0-2_製品
  6
CONTINUOUS
 62
    2
 10
284.56259117881956
 20
146.39651083521017
 11
280.56259117881956
 21
142.39651083521017
  0
LINE
  8
_0-2_製品
  6
CONTINUOUS
 62
    2
 10
282.44127017881942
 20
146.39651083521017
 11
278.44127017881954
 21
142.39651083521017
  0
LINE
  8
_0-2_製品
  6
CONTINUOUS
 62
    2
 10
280.31995017881923
 20
146.39651083521017
 11
276.31995017881923
 21
142.39651083521017
  0
LINE
  8
_0-2_製品
  6
CONTINUOUS
 62
    2
 10
278.19863017881954
 20
146.39651083521017
 11
274.19863017881954
 21
142.39651083521017
  0
LINE
  8
_0-2_製品
  6
CONTINUOUS
 62
    2
 10
276.07730917881946
 20
146.39651083521017
 11
272.07730917881946
 21
142.39651083521017
  0
LINE
  8
_0-2_製品
  6
CONTINUOUS
 62
    2
 10
299.89711517881943
 20
146.39651083521017
 11
303.89711517881943
 21
142.39651083521017
  0
LINE
  8
_0-2_製品
  6
CONTINUOUS
 62
    2
 10
297.77579417881935
 20
146.39651083521017
 11
301.77579417881935
 21
142.39651083521017
  0
LINE
  8
_0-2_製品
  6
CONTINUOUS
 62
    2
 10
295.65447417881961
 20
146.39651083521017
 11
299.65447417881961
 21
142.39651083521017
  0
LINE
  8
_0-2_製品
  6
CONTINUOUS
 62
    2
 10
293.53315417881942
 20
146.39651083521017
 11
297.53315417881942
 21
142.39651083521017
  0
LINE
  8
_0-2_製品
  6
CONTINUOUS
 62
    2
 10
291.41183317881934
 20
146.39651083521017
 11
295.41183317881934
 21
142.39651083521017
  0
LINE
  8
_0-2_製品
  6
CONTINUOUS
 62
    2
 10
289.29051317881965
 20
146.39651083521017
 11
293.29051317881965
 21
142.39651083521017
  0
LINE
  8
_0-2_製品
  6
CONTINUOUS
 62
    2
 10
287.16919217881951
 20
146.39651083521017
 11
291.16919217881951
 21
142.39651083521017
  0
LINE
  8
_0-2_製品
  6
CONTINUOUS
 62
    2
 10
285.04787217881932
 20
146.39651083521017
 11
289.04787217881932
 21
142.39651083521017
  0
LINE
  8
_0-2_製品
  6
CONTINUOUS
 62
    2
 10
282.92655217881963
 20
146.39651083521017
 11
286.92655217881963
 21
142.39651083521017
  0
LINE
  8
_0-2_製品
  6
CONTINUOUS
 62
    2
 10
280.80523117881955
 20
146.39651083521017
 11
284.80523117881955
 21
142.39651083521017
  0
LINE
  8
_0-2_製品
  6
CONTINUOUS
 62
    2
 10
278.68391117881936
 20
146.39651083521017
 11
282.68391117881924
 21
142.39651083521017
  0
LINE
  8
_0-2_製品
  6
CONTINUOUS
 62
    2
 10
276.56259117881956
 20
146.39651083521017
 11
280.56259117881956
 21
142.39651083521017
  0
LINE
  8
_0-2_製品
  6
CONTINUOUS
 62
    2
 10
274.44127017881954
 20
146.39651083521017
 11
278.44127017881954
 21
142.39651083521017
  0
LINE
  8
_0-2_製品
  6
CONTINUOUS
 62
    2
 10
272.31995017881923
 20
146.39651083521017
 11
276.31995017881923
 21
142.39651083521017
  0
LINE
  8
_0-3_図面枠
  6
CONTINUOUS
 62
    2
 10
321.47427917881924
 20
146.39651083521017
 11
313.62231517881935
 21
159.99651083521005
  0
LINE
  8
_0-2_製品
  6
CONTINUOUS
 62
    2
 10
331.46862217881966
 20
142.39651083521017
 11
331.47427917881924
 21
142.40216783521026
  0
LINE
  8
_0-2_製品
  6
CONTINUOUS
 62
    2
 10
327.97427917881924
 20
138.59651083521035
 11
327.97427917881924
 21
136.99651083521005
  0
LINE
  8
_0-2_製品
  6
CONTINUOUS
 62
    2
 10
326.97427917881924
 20
138.59651083521035
 11
326.97427917881924
 21
136.99651083521005
  0
LINE
  8
_0-2_製品
  6
CONTINUOUS
 62
    2
 10
322.97427917881924
 20
138.59651083521035
 11
322.97427917881924
 21
136.99651083521005
  0
LINE
  8
_0-2_製品
  6
CONTINUOUS
 62
    2
 10
323.97427917881936
 20
138.59651083521035
 11
323.97427917881936
 21
136.99651083521005
  0
LINE
  8
_0-2_製品
  6
CONTINUOUS
 62
    2
 10
319.97427917881936
 20
138.59651083521035
 11
319.97427917881936
 21
136.99651083521005
  0
LINE
  8
_0-2_製品
  6
CONTINUOUS
 62
    2
 10
329.35295917881956
 20
142.39651083521017
 11
331.47427917881924
 21
144.51783083521025
  0
LINE
  8
_0-2_製品
  6
CONTINUOUS
 62
    2
 10
318.97427917881924
 20
138.59651083521035
 11
318.97427917881924
 21
136.99651083521005
  0
LINE
  8
_0-2_製品
  6
CONTINUOUS
 62
    2
 10
314.97427917881924
 20
138.59651083521035
 11
314.97427917881924
 21
136.99651083521005
  0
LINE
  8
_0-2_製品
  6
CONTINUOUS
 62
    2
 10
315.97427917881936
 20
138.59651083521035
 11
315.97427917881936
 21
136.99651083521005
  0
LINE
  8
_0-2_製品
  6
CONTINUOUS
 62
    2
 10
311.97427917881936
 20
138.59651083521035
 11
311.97427917881936
 21
136.99651083521005
  0
LINE
  8
_0-2_製品
  6
CONTINUOUS
 62
    2
 10
310.97427917881924
 20
138.59651083521035
 11
310.97427917881924
 21
136.99651083521005
  0
LINE
  8
_0-2_製品
  6
CONTINUOUS
 62
    2
 10
306.97427917881924
 20
138.59651083521035
 11
306.97427917881924
 21
136.99651083521005
  0
LINE
  8
_0-2_製品
  6
CONTINUOUS
 62
    2
 10
307.97427917881936
 20
138.59651083521035
 11
307.97427917881936
 21
136.99651083521005
  0
LINE
  8
_0-2_製品
  6
CONTINUOUS
 62
    2
 10
331.23163817881942
 20
146.39651083521017
 11
327.23163817881942
 21
142.39651083521017
  0
LINE
  8
_0-2_製品
  6
CONTINUOUS
 62
    2
 10
329.11031817881923
 20
146.39651083521017
 11
325.11031817881923
 21
142.39651083521017
  0
LINE
  8
_0-2_製品
  6
CONTINUOUS
 62
    2
 10
326.98899817881954
 20
146.39651083521017
 11
322.98899817881954
 21
142.39651083521017
  0
LINE
  8
_0-2_製品
  6
CONTINUOUS
 62
    2
 10
324.86767717881946
 20
146.39651083521017
 11
320.86767717881946
 21
142.39651083521017
  0
LINE
  8
_0-2_製品
  6
CONTINUOUS
 62
    2
 10
322.74635717881921
 20
146.39651083521017
 11
318.74635717881921
 21
142.39651083521017
  0
LINE
  8
_0-2_製品
  6
CONTINUOUS
 62
    2
 10
320.62503717881941
 20
146.39651083521017
 11
316.62503717881941
 21
142.39651083521017
  0
LINE
  8
_0-2_製品
  6
CONTINUOUS
 62
    2
 10
318.50371617881945
 20
146.39651083521017
 11
314.50371617881945
 21
142.39651083521017
  0
LINE
  8
_0-2_製品
  6
CONTINUOUS
 62
    2
 10
316.38239617881925
 20
146.39651083521017
 11
312.38239617881925
 21
142.39651083521017
  0
LINE
  8
_0-2_製品
  6
CONTINUOUS
 62
    2
 10
314.26107617881945
 20
146.39651083521017
 11
310.26107617881945
 21
142.39651083521017
  0
LINE
  8
_0-2_製品
  6
CONTINUOUS
 62
    2
 10
312.13975517881943
 20
146.39651083521017
 11
308.13975517881943
 21
142.39651083521017
  0
LINE
  8
_0-2_製品
  6
CONTINUOUS
 62
    2
 10
310.01843517881923
 20
146.39651083521017
 11
306.01843517881923
 21
142.39651083521017
  0
LINE
  8
_0-2_製品
  6
CONTINUOUS
 62
    2
 10
325.35295917881956
 20
146.39651083521017
 11
329.35295917881956
 21
142.39651083521017
  0
LINE
  8
_0-2_製品
  6
CONTINUOUS
 62
    2
 10
323.23163817881942
 20
146.39651083521017
 11
327.23163817881942
 21
142.39651083521017
  0
LINE
  8
_0-2_製品
  6
CONTINUOUS
 62
    2
 10
321.11031817881923
 20
146.39651083521017
 11
325.11031817881923
 21
142.39651083521017
  0
LINE
  8
_0-2_製品
  6
CONTINUOUS
 62
    2
 10
318.98899817881943
 20
146.39651083521017
 11
322.98899817881954
 21
142.39651083521017
  0
LINE
  8
_0-2_製品
  6
CONTINUOUS
 62
    2
 10
316.86767717881946
 20
146.39651083521017
 11
320.86767717881946
 21
142.39651083521017
  0
LINE
  8
_0-2_製品
  6
CONTINUOUS
 62
    2
 10
314.74635717881921
 20
146.39651083521017
 11
318.74635717881921
 21
142.39651083521017
  0
LINE
  8
_0-2_製品
  6
CONTINUOUS
 62
    2
 10
312.62503717881941
 20
146.39651083521017
 11
316.62503717881941
 21
142.39651083521017
  0
LINE
  8
_0-2_製品
  6
CONTINUOUS
 62
    2
 10
310.50371617881945
 20
146.39651083521017
 11
314.50371617881945
 21
142.39651083521017
  0
LINE
  8
_0-2_製品
  6
CONTINUOUS
 62
    2
 10
308.38239617881925
 20
146.39651083521017
 11
312.38239617881925
 21
142.39651083521017
  0
LINE
  8
_0-2_製品
  6
CONTINUOUS
 62
    2
 10
306.26107617881945
 20
146.39651083521017
 11
310.26107617881945
 21
142.39651083521017
  0
LINE
  8
_0-2_製品
  6
CONTINUOUS
 62
    2
 10
327.46862217881966
 20
146.39651083521017
 11
331.46862217881966
 21
142.39651083521017
  0
LINE
  8
_0-2_製品
  6
CONTINUOUS
 62
    2
 10
329.59559917881955
 20
146.39651083521017
 11
331.47427917881924
 21
144.51783083521025
  0
CIRCLE
  8
_0-3_図面枠
  6
CONTINUOUS
 62
    2
 10
321.47427917881924
 20
146.39651083521017
 40
0.2999999999999999
  0
ARC
  8
_0-2_製品
  6
CONTINUOUS
 62
    2
 10
272.88255217881925
 20
162.47077583521036
 40
0.7257350000000001
 50
90
 51
129.15794500000521
  0
LINE
  8
_0-2_製品
  6
CONTINUOUS
 62
    2
 10
273.37427917881934
 20
163.03351683521007
 11
273.09196517881935
 21
163.19651083521026
  0
LINE
  8
_0-2_製品
  6
CONTINUOUS
 62
    4
 10
272.42427917881952
 20
163.19651083521026
 11
272.42427917881952
 21
179.99651083521005
  0
ENDSEC
  0
EOF
