  0
SECTION
  2
HEADER
  9
$ACADVER
  1
AC1009
  9
$INSBASE
 10
0
 20
0
 30
0
  9
$EXTMIN
 10
0
 20
0
  9
$EXTMAX
 10
420
 20
297
  9
$LIMMIN
 10
0
 20
0
  9
$LIMMAX
 10
420
 20
297
  9
$LTSCALE
 40
1
  0
ENDSEC
  0
SECTION
  2
TABLES
  0
TABLE
  2
LTYPE
 70
     9
  0
LTYPE
  2
CONTINUOUS
 70
    64
  3
実線
 72
    65
 73
     0
 40
0.0
  0
LTYPE
  2
DASHED1
 70
    64
  3
--  --  --  --  --  --  --  --  
 72
    65
 73
     2
 40
2.5
 49
1.25
 49
-1.25
  0
LTYPE
  2
DASHED2
 70
    64
  3
----    ----    ----    ----    
 72
    65
 73
     2
 40
5.0
 49
2.5
 49
-2.5
  0
LTYPE
  2
DASHED3
 70
    64
  3
------  ------  ------  ------  
 72
    65
 73
     2
 40
5.0
 49
3.75
 49
-1.25
  0
LTYPE
  2
CENTER1
 70
    64
  3
----- - ----- - ----- - ----- - 
 72
    65
 73
     4
 40
10.0
 49
6.25
 49
-1.25
 49
1.25
 49
-1.25
  0
LTYPE
  2
CENTER2
 70
    64
  3
----------  --  ----------  --  
 72
    65
 73
     4
 40
20.0
 49
12.5
 49
-2.5
 49
2.5
 49
-2.5
  0
LTYPE
  2
PHANTOM1
 70
    64
  3
--- - - --- - - --- - - --- - - 
 72
    65
 73
     6
 40
10.0
 49
3.25
 49
-1.25
 49
1.25
 49
-1.25
 49
1.25
 49
-1.25
  0
LTYPE
  2
PHANTOM2
 70
    64
  3
--------  -  -  --------  -  -  
 72
    65
 73
     6
 40
20.0
 49
10.0
 49
-2.5
 49
1.25
 49
-2.5
 49
1.25
 49
-2.5
  0
LTYPE
  2
DOT
 70
    64
  3
-   -   -   -   -   -   -   -   
 72
    65
 73
     2
 40
2.5
 49
0.625
 49
-1.875
  0
LTYPE
  2
DUMMY
 70
    64
  3
ダミー
 72
    65
 73
     0
 40
0.0
  0
LTYPE
  2
RAND1
 70
    64
  3
ランダム線1
 72
    65
 73
     4
 40
10.0
 49
1.0
 49
-2.0
 49
3.0
 49
-4.0
  0
LTYPE
  2
RAND2
 70
    64
  3
ランダム線2
 72
    65
 73
     4
 40
14.0
 49
2.0
 49
-3.0
 49
4.0
 49
-5.0
  0
LTYPE
  2
RAND3
 70
    64
  3
ランダム線3
 72
    65
 73
     4
 40
18.0
 49
3.0
 49
-4.0
 49
5.0
 49
-6.0
  0
LTYPE
  2
RAND4
 70
    64
  3
ランダム線4
 72
    65
 73
     4
 40
22.0
 49
4.0
 49
-5.0
 49
6.0
 49
-7.0
  0
LTYPE
  2
RAND5
 70
    64
  3
ランダム線5
 72
    65
 73
     4
 40
26.0
 49
5.0
 49
-6.0
 49
7.0
 49
-8.0
  0
LTYPE
  2
LONG1
 70
    64
  3
----------  --  ----------  --  
 72
    65
 73
     4
 40
40.0
 49
32.5
 49
-2.5
 49
2.5
 49
-2.5
  0
LTYPE
  2
LONG2
 70
    64
  3
--------  -  -  --------  -  -  
 72
    65
 73
     6
 40
40.0
 49
30.0
 49
-2.5
 49
1.25
 49
-2.5
 49
1.25
 49
-2.5
  0
LTYPE
  2
LONG3
 70
    64
  3
+++++++++++++++..+++++++++++++++
 72
    65
 73
     2
 40
40.0
 49
37.5
 49
-2.5
  0
LTYPE
  2
LONG4
 70
    64
  3
+++++++++++++++..+++++++++++++++
 72
    65
 73
     2
 40
80.0
 49
75.0
 49
-5.0
  0
LTYPE
  2
LONG5
 70
    64
  3
----------  --  ----------  --  
 72
    65
 73
     4
 40
60.0
 49
37.5
 49
-7.5
 49
7.5
 49
-7.5
  0
LTYPE
  2
dashed
 70
   64
  3
-------   -------------   ------
 72
   65
 73
    2
 40
7.5
 49
6
 49
-1.5
  0
LTYPE
  2
dashed_spaced
 70
   64
  3
----        --------        ----
 72
   65
 73
    2
 40
12
 49
6
 49
-6
  0
LTYPE
  2
long_dashed_dotted
 70
   64
  3
------------- --- --------------
 72
   65
 73
    4
 40
15.25
 49
12
 49
-1.5
 49
0.25
 49
-1.5
  0
LTYPE
  2
long_dashed_double-dotted
 70
   64
  3
----------- --- --- ------------
 72
   65
 73
    6
 40
17
 49
12
 49
-1.5
 49
0.25
 49
-1.5
 49
0.25
 49
-1.5
  0
LTYPE
  2
long_dashed_triplicate-dotted
 70
   64
  3
--------- --- --- --- ----------
 72
   65
 73
    8
 40
18.75
 49
12
 49
-1.5
 49
0.25
 49
-1.5
 49
0.25
 49
-1.5
 49
0.25
 49
-1.5
  0
LTYPE
  2
dotted
 70
   64
  3
   -       -       -       -    
 72
   65
 73
    2
 40
1.75
 49
0.25
 49
-1.5
  0
LTYPE
  2
chain
 70
   64
  3
-------------- -- --------------
 72
   65
 73
    4
 40
18.5
 49
12
 49
-1.5
 49
3.5
 49
-1.5
  0
LTYPE
  2
chain_double_dash
 70
   64
  3
------------ -- -- -------------
 72
   65
 73
    6
 40
23.5
 49
12
 49
-1.5
 49
3.5
 49
-1.5
 49
3.5
 49
-1.5
  0
LTYPE
  2
dashed_dotted
 70
   64
  3
-----------     -     ----------
 72
   65
 73
    4
 40
9.25
 49
6
 49
-1.5
 49
0.25
 49
-1.5
  0
LTYPE
  2
double-dashed_dotted
 70
   64
  3
------   -----------   -   -----
 72
   65
 73
    6
 40
16.75
 49
6
 49
-1.5
 49
6
 49
-1.5
 49
0.25
 49
-1.5
  0
LTYPE
  2
dashed_double-dotted
 70
   64
  3
---------    -    -    ---------
 72
   65
 73
    6
 40
11
 49
6
 49
-1.5
 49
0.25
 49
-1.5
 49
0.25
 49
-1.5
  0
LTYPE
  2
double-dashed_double-dotted
 70
   64
  3
-----   ---------   -   -   ----
 72
   65
 73
    8
 40
18.5
 49
6
 49
-1.5
 49
6
 49
-1.5
 49
0.25
 49
-1.5
 49
0.25
 49
-1.5
  0
LTYPE
  2
dashed_triplicate-dotted
 70
   64
  3
-------    -    -    -    ------
 72
   65
 73
    8
 40
12.75
 49
6
 49
-1.5
 49
0.25
 49
-1.5
 49
0.25
 49
-1.5
 49
0.25
 49
-1.5
  0
LTYPE
  2
double-dashed_triplicate-dotted
 70
   64
  3
-----  ---------  -  -  -  -----
 72
   65
 73
   10
 40
20.25
 49
6
 49
-1.5
 49
6
 49
-1.5
 49
0.25
 49
-1.5
 49
0.25
 49
-1.5
 49
0.25
 49
-1.5
  0
LTYPE
  2
undefined
 70
   64
  3
--------------------------------
 72
   65
 73
    0
 40
0
  0
LTYPE
  2
PLINE2
 70
   64
  3
------     -----------     -----
 72
   65
 73
    2
 40
3
 49
2.1000000000000001
 49
-0.9
  0
LTYPE
  2
PLINE3
 70
   64
  3
------------   ---   -----------
 72
   65
 73
    4
 40
10
 49
7
 49
-1
 49
1
 49
-1
  0
LTYPE
  2
PLINE4
 70
   64
  3
---------   ---   ---   --------
 72
   65
 73
    6
 40
10
 49
5
 49
-1
 49
1
 49
-1
 49
1
 49
-1
  0
LTYPE
  2
PLINE5
 70
   64
  3
------     -----------     -----
 72
   65
 73
    2
 40
5
 49
3.5
 49
-1.5
  0
LTYPE
  2
PLINE6
 70
   64
  3
------------   ---   -----------
 72
   65
 73
    4
 40
15
 49
10.5
 49
-1.5
 49
1.5
 49
-1.5
  0
LTYPE
  2
PLINE7
 70
   64
  3
---------   ---   ---   --------
 72
   65
 73
    6
 40
15
 49
7.5
 49
-1.5
 49
1.5
 49
-1.5
 49
1.5
 49
-1.5
  0
LTYPE
  2
PLINE8
 70
   64
  3
------     -----------     -----
 72
   65
 73
    2
 40
7
 49
4.9000000000000004
 49
-2.1000000000000001
  0
LTYPE
  2
PLINE9
 70
   64
  3
------------   ---   -----------
 72
   65
 73
    4
 40
20
 49
14
 49
-2
 49
2
 49
-2
  0
LTYPE
  2
PLINE10
 70
   64
  3
---------   ---   ---   --------
 72
   65
 73
    6
 40
20
 49
10
 49
-2
 49
2
 49
-2
 49
2
 49
-2
  0
LTYPE
  2
PLINE11
 70
   64
  3
------     -----------     -----
 72
   65
 73
    2
 40
9
 49
6.2999999999999989
 49
-2.7000000000000002
  0
LTYPE
  2
PLINE12
 70
   64
  3
------------   ---   -----------
 72
   65
 73
    4
 40
25
 49
17.5
 49
-2.5
 49
2.5
 49
-2.5
  0
LTYPE
  2
PLINE13
 70
   64
  3
---------   ---   ---   --------
 72
   65
 73
    6
 40
25
 49
12.5
 49
-2.5
 49
2.5
 49
-2.5
 49
2.5
 49
-2.5
  0
LTYPE
  2
PLINE14
 70
   64
  3
------     -----------     -----
 72
   65
 73
    2
 40
11
 49
7.7000000000000002
 49
-3.2999999999999989
  0
LTYPE
  2
PLINE15
 70
   64
  3
------------   ---   -----------
 72
   65
 73
    4
 40
30
 49
21
 49
-3
 49
3
 49
-3
  0
LTYPE
  2
PLINE16
 70
   64
  3
---------   ---   ---   --------
 72
   65
 73
    6
 40
30
 49
15
 49
-3
 49
3
 49
-3
 49
3
 49
-3
  0
ENDTAB
  0
TABLE
  2
STYLE
  5
3
100
AcDbSymbolTable
 70
     1
  0
STYLE
  5
10
100
AcDbSymbolTableRecord
100
AcDbTextStyleTableRecord
  2
STANDARD
 70
     0
 40
0.0
 41
1.0
 50
0.0
 71
     0
 42
0.2
  3
txt
  4
bigfont.shx
  0
STYLE
  5
26
100
AcDbSymbolTableRecord
100
AcDbTextStyleTableRecord
  2
TATEGAKI
 70
    68
 40
0.0
 41
1.0
 50
0.0
 71
     0
 42
1.0
  3
txt
  4
bigfont.shx
  0
ENDTAB
  0
TABLE
  2
LAYER
 70
    4
  0
LAYER
  2
_0-2_製品
 70
   64
 62
    7
  6
CONTINUOUS
  0
LAYER
  2
_0-3_寸法
 70
   64
 62
    7
  6
CONTINUOUS
  0
LAYER
  2
_0-4_図面枠
 70
   64
 62
    7
  6
CONTINUOUS
  0
LAYER
  2
ADD_LINE
 70
   64
 62
    7
  6
CONTINUOUS
  0
ENDTAB
  0
ENDSEC
  0
SECTION
  2
BLOCKS
  0
BLOCK
  2
-000-_Dot
 70
   64
 10
0
 20
0
 30
0
  0
CIRCLE
  8
_0-0_0
  6
CONTINUOUS
 62
    7
 10
0
 20
0
 40
1
  0
LINE
  8
_0-0_0
  6
CONTINUOUS
 62
    7
 10
1
 20
0
 11
-1
 21
0
  0
LINE
  8
_0-0_0
  6
CONTINUOUS
 62
    7
 10
-2
 20
0
 11
-4
 21
0
  0
ENDBLK
  0
BLOCK
  2
-001-_D23
 70
   64
 10
0
 20
0
 30
0
  0
LINE
  8
_0-3_寸法
  6
CONTINUOUS
 62
    4
 10
823.28950604379725
 20
895.55901096160517
 11
823.28950604379725
 21
782.75901096160396
  0
INSERT
  2
-000-_Dot
  8
_0-3_寸法
 10
823.28950604379725
 20
899.55901096160517
 41
1
 42
1
 50
90
  0
INSERT
  2
-000-_Dot
  8
_0-3_寸法
 10
823.28950604379725
 20
778.75901096160442
 41
1
 42
1
 50
270
  0
TEXT
  8
_0-3_寸法
 62
    7
 10
820.08950604379675
 20
830.15901096160519
 40
12
 41
1
 50
90
  1
910
  0
POINT
  8
_0-1_Defpoints
 62
    7
 10
823.28950604379725
 20
899.55901096160517
  0
POINT
  8
_0-1_Defpoints
 62
    7
 10
823.28950604379725
 20
778.75901096160442
  0
POINT
  8
_0-1_Defpoints
 62
    7
 10
823.28950604379725
 20
778.75901096160442
  0
ENDBLK
  0
BLOCK
  2
-002-_D24
 70
   64
 10
0
 20
0
 30
0
  0
LINE
  8
_0-3_寸法
  6
CONTINUOUS
 62
    4
 10
863.28950604379725
 20
855.55901096160517
 11
863.28950604379725
 21
823.15901096160565
  0
INSERT
  2
-000-_Dot
  8
_0-3_寸法
 10
863.28950604379725
 20
859.55901096160517
 41
1
 42
1
 50
90
  0
INSERT
  2
-000-_Dot
  8
_0-3_寸法
 10
863.28950604379725
 20
819.15901096160565
 41
1
 42
1
 50
270
  0
TEXT
  8
_0-3_寸法
 62
    7
 10
860.08950604379675
 20
830.35901096160558
 40
12
 41
1
 50
90
  1
303
  0
POINT
  8
_0-1_Defpoints
 62
    7
 10
863.28950604379725
 20
859.55901096160517
  0
POINT
  8
_0-1_Defpoints
 62
    7
 10
863.28950604379725
 20
819.15901096160565
  0
POINT
  8
_0-1_Defpoints
 62
    7
 10
863.28950604379725
 20
819.15901096160565
  0
ENDBLK
  0
BLOCK
  2
-003-_D25
 70
   64
 10
0
 20
0
 30
0
  0
LINE
  8
_0-3_寸法
  6
CONTINUOUS
 62
    4
 10
823.28950604379725
 20
653.55901096160358
 11
823.28950604379725
 21
540.35901096160637
  0
INSERT
  2
-000-_Dot
  8
_0-3_寸法
 10
823.28950604379725
 20
657.55901096160358
 41
1
 42
1
 50
90
  0
INSERT
  2
-000-_Dot
  8
_0-3_寸法
 10
823.28950604379725
 20
536.35901096160637
 41
1
 42
1
 50
270
  0
TEXT
  8
_0-3_寸法
 62
    7
 10
820.08950604379675
 20
587.95901096160514
 40
12
 41
1
 50
90
  1
910
  0
POINT
  8
_0-1_Defpoints
 62
    7
 10
823.28950604379725
 20
657.55901096160358
  0
POINT
  8
_0-1_Defpoints
 62
    7
 10
823.28950604379725
 20
536.35901096160637
  0
POINT
  8
_0-1_Defpoints
 62
    7
 10
823.28950604379725
 20
536.35901096160637
  0
ENDBLK
  0
BLOCK
  2
-004-_D26
 70
   64
 10
0
 20
0
 30
0
  0
LINE
  8
_0-3_寸法
  6
CONTINUOUS
 62
    4
 10
863.28950604379725
 20
532.35901096160637
 11
863.28950604379725
 21
499.9590109616048
  0
INSERT
  2
-000-_Dot
  8
_0-3_寸法
 10
863.28950604379725
 20
536.35901096160637
 41
1
 42
1
 50
90
  0
INSERT
  2
-000-_Dot
  8
_0-3_寸法
 10
863.28950604379725
 20
495.9590109616048
 41
1
 42
1
 50
270
  0
TEXT
  8
_0-3_寸法
 62
    7
 10
860.08950604379675
 20
507.15901096160599
 40
12
 41
1
 50
90
  1
303
  0
POINT
  8
_0-1_Defpoints
 62
    7
 10
863.28950604379725
 20
536.35901096160637
  0
POINT
  8
_0-1_Defpoints
 62
    7
 10
863.28950604379725
 20
495.9590109616048
  0
POINT
  8
_0-1_Defpoints
 62
    7
 10
863.28950604379725
 20
495.9590109616048
  0
ENDBLK
  0
BLOCK
  2
-005-_D27
 70
   64
 10
0
 20
0
 30
0
  0
LINE
  8
_0-3_寸法
  6
CONTINUOUS
 62
    4
 10
863.28950604379725
 20
572.75901096160601
 11
863.28950604379725
 21
540.35901096160637
  0
INSERT
  2
-000-_Dot
  8
_0-3_寸法
 10
863.28950604379725
 20
576.75901096160601
 41
1
 42
1
 50
90
  0
INSERT
  2
-000-_Dot
  8
_0-3_寸法
 10
863.28950604379725
 20
536.35901096160637
 41
1
 42
1
 50
270
  0
TEXT
  8
_0-3_寸法
 62
    7
 10
860.08950604379675
 20
547.55901096160642
 40
12
 41
1
 50
90
  1
303
  0
POINT
  8
_0-1_Defpoints
 62
    7
 10
863.28950604379725
 20
576.75901096160601
  0
POINT
  8
_0-1_Defpoints
 62
    7
 10
863.28950604379725
 20
536.35901096160637
  0
POINT
  8
_0-1_Defpoints
 62
    7
 10
863.28950604379725
 20
536.35901096160637
  0
ENDBLK
  0
BLOCK
  2
-006-_D28
 70
   64
 10
0
 20
0
 30
0
  0
LINE
  8
_0-3_寸法
  6
CONTINUOUS
 62
    4
 10
823.28950604379725
 20
532.35901096160637
 11
823.28950604379725
 21
459.9590109616048
  0
INSERT
  2
-000-_Dot
  8
_0-3_寸法
 10
823.28950604379725
 20
536.35901096160637
 41
1
 42
1
 50
90
  0
INSERT
  2
-000-_Dot
  8
_0-3_寸法
 10
823.28950604379725
 20
455.9590109616048
 41
1
 42
1
 50
270
  0
TEXT
  8
_0-3_寸法
 62
    7
 10
820.08950604379675
 20
487.15901096160599
 40
12
 41
1
 50
90
  1
910
  0
POINT
  8
_0-1_Defpoints
 62
    7
 10
823.28950604379725
 20
536.35901096160637
  0
POINT
  8
_0-1_Defpoints
 62
    7
 10
823.28950604379725
 20
455.9590109616048
  0
POINT
  8
_0-1_Defpoints
 62
    7
 10
823.28950604379725
 20
455.9590109616048
  0
ENDBLK
  0
BLOCK
  2
-007-_D29
 70
   64
 10
0
 20
0
 30
0
  0
LINE
  8
_0-3_寸法
  6
CONTINUOUS
 62
    4
 10
863.28950604379725
 20
491.9590109616048
 11
863.28950604379725
 21
459.9590109616048
  0
INSERT
  2
-000-_Dot
  8
_0-3_寸法
 10
863.28950604379725
 20
495.9590109616048
 41
1
 42
1
 50
90
  0
INSERT
  2
-000-_Dot
  8
_0-3_寸法
 10
863.28950604379725
 20
455.9590109616048
 41
1
 42
1
 50
270
  0
TEXT
  8
_0-3_寸法
 62
    7
 10
860.08950604379675
 20
466.9590109616052
 40
12
 41
1
 50
90
  1
303
  0
POINT
  8
_0-1_Defpoints
 62
    7
 10
863.28950604379725
 20
495.9590109616048
  0
POINT
  8
_0-1_Defpoints
 62
    7
 10
863.28950604379725
 20
455.9590109616048
  0
POINT
  8
_0-1_Defpoints
 62
    7
 10
863.28950604379725
 20
455.9590109616048
  0
ENDBLK
  0
BLOCK
  2
-008-_D30
 70
   64
 10
0
 20
0
 30
0
  0
LINE
  8
_0-3_寸法
  6
CONTINUOUS
 62
    4
 10
823.28950604379725
 20
774.75901096160442
 11
823.28950604379725
 21
661.55901096160358
  0
INSERT
  2
-000-_Dot
  8
_0-3_寸法
 10
823.28950604379725
 20
778.75901096160442
 41
1
 42
1
 50
90
  0
INSERT
  2
-000-_Dot
  8
_0-3_寸法
 10
823.28950604379725
 20
657.55901096160358
 41
1
 42
1
 50
270
  0
TEXT
  8
_0-3_寸法
 62
    7
 10
820.08950604379675
 20
709.15901096160405
 40
12
 41
1
 50
90
  1
910
  0
POINT
  8
_0-1_Defpoints
 62
    7
 10
823.28950604379725
 20
778.75901096160442
  0
POINT
  8
_0-1_Defpoints
 62
    7
 10
823.28950604379725
 20
657.55901096160358
  0
POINT
  8
_0-1_Defpoints
 62
    7
 10
823.28950604379725
 20
657.55901096160358
  0
ENDBLK
  0
BLOCK
  2
-009-_D31
 70
   64
 10
0
 20
0
 30
0
  0
LINE
  8
_0-3_寸法
  6
CONTINUOUS
 62
    4
 10
863.28950604379725
 20
613.15901096160405
 11
863.28950604379725
 21
580.75901096160601
  0
INSERT
  2
-000-_Dot
  8
_0-3_寸法
 10
863.28950604379725
 20
617.15901096160405
 41
1
 42
1
 50
90
  0
INSERT
  2
-000-_Dot
  8
_0-3_寸法
 10
863.28950604379725
 20
576.75901096160601
 41
1
 42
1
 50
270
  0
TEXT
  8
_0-3_寸法
 62
    7
 10
860.08950604379675
 20
587.95901096160514
 40
12
 41
1
 50
90
  1
303
  0
POINT
  8
_0-1_Defpoints
 62
    7
 10
863.28950604379725
 20
617.15901096160405
  0
POINT
  8
_0-1_Defpoints
 62
    7
 10
863.28950604379725
 20
576.75901096160601
  0
POINT
  8
_0-1_Defpoints
 62
    7
 10
863.28950604379725
 20
576.75901096160601
  0
ENDBLK
  0
BLOCK
  2
-010-_D32
 70
   64
 10
0
 20
0
 30
0
  0
LINE
  8
_0-3_寸法
  6
CONTINUOUS
 62
    4
 10
863.28950604379725
 20
653.55901096160358
 11
863.28950604379725
 21
621.15901096160405
  0
INSERT
  2
-000-_Dot
  8
_0-3_寸法
 10
863.28950604379725
 20
657.55901096160358
 41
1
 42
1
 50
90
  0
INSERT
  2
-000-_Dot
  8
_0-3_寸法
 10
863.28950604379725
 20
617.15901096160405
 41
1
 42
1
 50
270
  0
TEXT
  8
_0-3_寸法
 62
    7
 10
860.08950604379675
 20
628.35901096160399
 40
12
 41
1
 50
90
  1
303
  0
POINT
  8
_0-1_Defpoints
 62
    7
 10
863.28950604379725
 20
657.55901096160358
  0
POINT
  8
_0-1_Defpoints
 62
    7
 10
863.28950604379725
 20
617.15901096160405
  0
POINT
  8
_0-1_Defpoints
 62
    7
 10
863.28950604379725
 20
617.15901096160405
  0
ENDBLK
  0
BLOCK
  2
-011-_D33
 70
   64
 10
0
 20
0
 30
0
  0
LINE
  8
_0-3_寸法
  6
CONTINUOUS
 62
    4
 10
863.28950604379725
 20
693.9590109616048
 11
863.28950604379725
 21
661.55901096160358
  0
INSERT
  2
-000-_Dot
  8
_0-3_寸法
 10
863.28950604379725
 20
697.9590109616048
 41
1
 42
1
 50
90
  0
INSERT
  2
-000-_Dot
  8
_0-3_寸法
 10
863.28950604379725
 20
657.55901096160358
 41
1
 42
1
 50
270
  0
TEXT
  8
_0-3_寸法
 62
    7
 10
860.08950604379675
 20
668.75901096160442
 40
12
 41
1
 50
90
  1
303
  0
POINT
  8
_0-1_Defpoints
 62
    7
 10
863.28950604379725
 20
697.9590109616048
  0
POINT
  8
_0-1_Defpoints
 62
    7
 10
863.28950604379725
 20
657.55901096160358
  0
POINT
  8
_0-1_Defpoints
 62
    7
 10
863.28950604379725
 20
657.55901096160358
  0
ENDBLK
  0
BLOCK
  2
-012-_D34
 70
   64
 10
0
 20
0
 30
0
  0
LINE
  8
_0-3_寸法
  6
CONTINUOUS
 62
    4
 10
863.28950604379725
 20
734.35901096160637
 11
863.28950604379725
 21
701.9590109616048
  0
INSERT
  2
-000-_Dot
  8
_0-3_寸法
 10
863.28950604379725
 20
738.35901096160637
 41
1
 42
1
 50
90
  0
INSERT
  2
-000-_Dot
  8
_0-3_寸法
 10
863.28950604379725
 20
697.9590109616048
 41
1
 42
1
 50
270
  0
TEXT
  8
_0-3_寸法
 62
    7
 10
860.08950604379675
 20
709.15901096160599
 40
12
 41
1
 50
90
  1
303
  0
POINT
  8
_0-1_Defpoints
 62
    7
 10
863.28950604379725
 20
738.35901096160637
  0
POINT
  8
_0-1_Defpoints
 62
    7
 10
863.28950604379725
 20
697.9590109616048
  0
POINT
  8
_0-1_Defpoints
 62
    7
 10
863.28950604379725
 20
697.9590109616048
  0
ENDBLK
  0
BLOCK
  2
-013-_D35
 70
   64
 10
0
 20
0
 30
0
  0
LINE
  8
_0-3_寸法
  6
CONTINUOUS
 62
    4
 10
863.28950604379725
 20
774.75901096160442
 11
863.28950604379725
 21
742.35901096160637
  0
INSERT
  2
-000-_Dot
  8
_0-3_寸法
 10
863.28950604379725
 20
778.75901096160442
 41
1
 42
1
 50
90
  0
INSERT
  2
-000-_Dot
  8
_0-3_寸法
 10
863.28950604379725
 20
738.35901096160637
 41
1
 42
1
 50
270
  0
TEXT
  8
_0-3_寸法
 62
    7
 10
860.08950604379675
 20
749.55901096160562
 40
12
 41
1
 50
90
  1
303
  0
POINT
  8
_0-1_Defpoints
 62
    7
 10
863.28950604379725
 20
778.75901096160442
  0
POINT
  8
_0-1_Defpoints
 62
    7
 10
863.28950604379725
 20
738.35901096160637
  0
POINT
  8
_0-1_Defpoints
 62
    7
 10
863.28950604379725
 20
738.35901096160637
  0
ENDBLK
  0
BLOCK
  2
-014-_D36
 70
   64
 10
0
 20
0
 30
0
  0
LINE
  8
_0-3_寸法
  6
CONTINUOUS
 62
    4
 10
863.28950604379725
 20
815.15901096160565
 11
863.28950604379725
 21
782.75901096160396
  0
INSERT
  2
-000-_Dot
  8
_0-3_寸法
 10
863.28950604379725
 20
819.15901096160565
 41
1
 42
1
 50
90
  0
INSERT
  2
-000-_Dot
  8
_0-3_寸法
 10
863.28950604379725
 20
778.75901096160442
 41
1
 42
1
 50
270
  0
TEXT
  8
_0-3_寸法
 62
    7
 10
860.08950604379675
 20
789.95901096160514
 40
12
 41
1
 50
90
  1
303
  0
POINT
  8
_0-1_Defpoints
 62
    7
 10
863.28950604379725
 20
819.15901096160565
  0
POINT
  8
_0-1_Defpoints
 62
    7
 10
863.28950604379725
 20
778.75901096160442
  0
POINT
  8
_0-1_Defpoints
 62
    7
 10
863.28950604379725
 20
778.75901096160442
  0
ENDBLK
  0
BLOCK
  2
-015-_D37
 70
   64
 10
0
 20
0
 30
0
  0
LINE
  8
_0-3_寸法
  6
CONTINUOUS
 62
    4
 10
967.28950604379725
 20
959.75901096160601
 11
1079.2895060437972
 21
959.75901096160601
  0
INSERT
  2
-000-_Dot
  8
_0-3_寸法
 10
963.28950604379725
 20
959.75901096160601
 41
1
 42
1
 50
180
  0
INSERT
  2
-000-_Dot
  8
_0-3_寸法
 10
1083.2895060437972
 20
959.75901096160601
 41
1
 42
1
 50
0
  0
TEXT
  8
_0-3_寸法
 62
    7
 10
1014.2895060437972
 20
962.95901096160605
 40
12
 41
1
 50
0
  1
900
  0
POINT
  8
_0-1_Defpoints
 62
    7
 10
963.28950604379725
 20
959.75901096160601
  0
POINT
  8
_0-1_Defpoints
 62
    7
 10
1083.2895060437972
 20
959.75901096160601
  0
POINT
  8
_0-1_Defpoints
 62
    7
 10
1083.2895060437972
 20
959.75901096160601
  0
ENDBLK
  0
BLOCK
  2
-016-_D38
 70
   64
 10
0
 20
0
 30
0
  0
LINE
  8
_0-3_寸法
  6
CONTINUOUS
 62
    4
 10
863.28950604379725
 20
895.55901096160517
 11
863.28950604379725
 21
863.55901096160517
  0
INSERT
  2
-000-_Dot
  8
_0-3_寸法
 10
863.28950604379725
 20
899.55901096160517
 41
1
 42
1
 50
90
  0
INSERT
  2
-000-_Dot
  8
_0-3_寸法
 10
863.28950604379725
 20
859.55901096160517
 41
1
 42
1
 50
270
  0
TEXT
  8
_0-3_寸法
 62
    7
 10
860.08950604379675
 20
870.55901096160562
 40
12
 41
1
 50
90
  1
303
  0
POINT
  8
_0-1_Defpoints
 62
    7
 10
863.28950604379725
 20
899.55901096160517
  0
POINT
  8
_0-1_Defpoints
 62
    7
 10
863.28950604379725
 20
859.55901096160517
  0
POINT
  8
_0-1_Defpoints
 62
    7
 10
863.28950604379725
 20
859.55901096160517
  0
ENDBLK
  0
BLOCK
  2
-017-_D39
 70
   64
 10
0
 20
0
 30
0
  0
LINE
  8
_0-3_寸法
  6
CONTINUOUS
 62
    4
 10
907.28950604379679
 20
959.75901096160601
 11
959.28950604379725
 21
959.75901096160601
  0
INSERT
  2
-000-_Dot
  8
_0-3_寸法
 10
903.28950604379725
 20
959.75901096160601
 41
1
 42
1
 50
180
  0
INSERT
  2
-000-_Dot
  8
_0-3_寸法
 10
963.28950604379725
 20
959.75901096160601
 41
1
 42
1
 50
0
  0
TEXT
  8
_0-3_寸法
 62
    7
 10
924.28950604379725
 20
962.95901096160605
 40
12
 41
1
 50
0
  1
900
  0
POINT
  8
_0-1_Defpoints
 62
    7
 10
903.28950604379725
 20
959.75901096160601
  0
POINT
  8
_0-1_Defpoints
 62
    7
 10
963.28950604379725
 20
959.75901096160601
  0
POINT
  8
_0-1_Defpoints
 62
    7
 10
963.28950604379725
 20
959.75901096160601
  0
ENDBLK
  0
BLOCK
  2
-018-_D40
 70
   64
 10
0
 20
0
 30
0
  0
LINE
  8
_0-3_寸法
  6
CONTINUOUS
 62
    4
 10
1087.2895060437972
 20
959.75901096160601
 11
1199.2895060437972
 21
959.75901096160601
  0
INSERT
  2
-000-_Dot
  8
_0-3_寸法
 10
1083.2895060437972
 20
959.75901096160601
 41
1
 42
1
 50
180
  0
INSERT
  2
-000-_Dot
  8
_0-3_寸法
 10
1203.2895060437972
 20
959.75901096160601
 41
1
 42
1
 50
0
  0
TEXT
  8
_0-3_寸法
 62
    7
 10
1134.2895060437972
 20
962.95901096160605
 40
12
 41
1
 50
0
  1
900
  0
POINT
  8
_0-1_Defpoints
 62
    7
 10
1083.2895060437972
 20
959.75901096160601
  0
POINT
  8
_0-1_Defpoints
 62
    7
 10
1203.2895060437972
 20
959.75901096160601
  0
POINT
  8
_0-1_Defpoints
 62
    7
 10
1203.2895060437972
 20
959.75901096160601
  0
ENDBLK
  0
ENDSEC
  0
SECTION
  2
ENTITIES
  0
LINE
  8
_0-2_製品
  6
CONTINUOUS
 62
    7
 10
232.16960391113082
 20
175.9051908697999
 11
266.6842729111309
 21
175.9051908697999
  0
TEXT
  8
_0-4_図面枠
 62
    7
 10
244.20704991113064
 20
72.027041869799817
 40
3
 41
0.8000000000000001
 50
0
  1
（９１０×１８２０仕上貼用）
  0
LINE
  8
_0-2_製品
  6
CONTINUOUS
 62
    7
 10
249.6055819111308
 20
206.10519086979969
 11
185.57743691113052
 21
95.205190869799594
  0
TEXT
  8
_0-4_図面枠
 62
    7
 10
220.81941591113093
 20
138.8051898697997
 40
3
 41
0.8000000000000001
 50
0
  1
仕上げ貼りボード９１０×１８２０
  0
LINE
  8
_0-4_図面枠
  6
CONTINUOUS
 62
    3
 10
217.95568091113051
 20
211.1551908697999
 11
246.62234691113059
 21
211.1551908697999
  0
TEXT
  8
_0-4_図面枠
 62
    7
 10
217.9556919111306
 20
211.82183786979991
 40
3
 41
0.8000000000000001
 50
0
  1
吊りボルト・ハンガー
  0
LINE
  8
_0-2_製品
  6
CONTINUOUS
 62
    7
 10
197.18217791113062
 20
115.30519086979999
 11
266.6842729111309
 21
115.30519086979999
  0
INSERT
  2
-001-_D23
  8
_0-3_寸法
 10
-64.471436599818389
 20
-18.784561870601607
 41
0.25
 42
0.25
 50
0
  0
INSERT
  2
-002-_D24
  8
_0-3_寸法
 10
-64.471436599818389
 20
-18.784561870601607
 41
0.25
 42
0.25
 50
0
  0
LINE
  8
_0-2_製品
  6
CONTINUOUS
 62
    7
 10
236.55093991113068
 20
183.4938868697997
 11
236.55093991113068
 21
206.10519086979969
  0
LINE
  8
_0-2_製品
  6
CONTINUOUS
 62
    7
 10
236.15093991113059
 20
206.10519086979969
 11
236.15093991113059
 21
182.8010668698
  0
LINE
  8
_0-2_製品
  6
PLINE3
 62
    3
 10
236.35093991113092
 20
206.10519086979969
 11
236.35093991113092
 21
183.14747686979959
  0
LINE
  8
_0-4_図面枠
  6
CONTINUOUS
 62
    3
 10
206.6842729111309
 20
191.63254086979958
 11
207.25126091113049
 21
193.61459186979999
  0
LINE
  8
_0-4_図面枠
  6
CONTINUOUS
 62
    3
 10
206.6842729111309
 20
191.63254086979958
 11
208.11728591113081
 21
193.11459186979999
  0
LINE
  8
_0-4_図面枠
  6
CONTINUOUS
 62
    3
 10
206.55093991113068
 20
180.95519086979968
 11
218.21341591113071
 21
201.1551908697999
  0
LINE
  8
_0-4_図面枠
  6
CONTINUOUS
 62
    3
 10
206.6842729111309
 20
191.63254086979958
 11
217.95568091113051
 21
211.1551908697999
  0
LINE
  8
_0-2_製品
  6
CONTINUOUS
 62
    7
 10
176.55093991113071
 20
95.205190869799594
 11
176.55093991113071
 21
206.10519086979969
  0
LINE
  8
_0-2_製品
  6
CONTINUOUS
 62
    7
 10
176.15093991113062
 20
206.10519086979969
 11
176.15093991113062
 21
95.205190869799594
  0
LINE
  8
_0-2_製品
  6
PLINE3
 62
    3
 10
176.35093991113092
 20
206.10519086979969
 11
176.35093991113092
 21
95.205190869799594
  0
LINE
  8
_0-2_製品
  6
CONTINUOUS
 62
    7
 10
206.55093991113068
 20
131.5323628697999
 11
206.55093991113068
 21
206.10519086979969
  0
LINE
  8
_0-2_製品
  6
CONTINUOUS
 62
    7
 10
206.15093991113059
 20
206.10519086979969
 11
206.15093991113059
 21
130.83954286979969
  0
LINE
  8
_0-2_製品
  6
PLINE3
 62
    3
 10
206.35093991113092
 20
206.10519086979969
 11
206.35093991113092
 21
131.18595286979979
  0
CIRCLE
  8
_0-2_製品
  6
CONTINUOUS
 62
    3
 10
176.35093991113092
 20
191.05519086979999
 40
0.666667
  0
CIRCLE
  8
_0-2_製品
  6
CONTINUOUS
 62
    3
 10
176.35093991113092
 20
160.7551908697998
 40
0.666667
  0
LINE
  8
_0-2_製品
  6
CONTINUOUS
 62
    7
 10
161.35093991113092
 20
155.28852386979969
 11
220.26656591113078
 21
155.28852386979969
  0
LINE
  8
_0-2_製品
  6
CONTINUOUS
 62
    7
 10
161.35093991113092
 20
156.12185786979958
 11
220.74769091113063
 21
156.12185786979958
  0
LINE
  8
_0-2_製品
  6
PLINE3
 62
    3
 10
161.35093991113092
 20
155.70519086979959
 11
220.50712891113074
 21
155.70519086979959
  0
CIRCLE
  8
_0-2_製品
  6
CONTINUOUS
 62
    3
 10
176.35093991113092
 20
130.45519086979959
 40
0.666667
  0
LINE
  8
_0-2_製品
  6
CONTINUOUS
 62
    7
 10
161.35093991113092
 20
135.0885238697999
 11
208.6040909111307
 21
135.0885238697999
  0
LINE
  8
_0-2_製品
  6
CONTINUOUS
 62
    7
 10
161.35093991113092
 20
135.92185786979979
 11
209.0852159111306
 21
135.92185786979979
  0
LINE
  8
_0-2_製品
  6
PLINE3
 62
    3
 10
161.35093991113092
 20
135.5051908697998
 11
208.84465291113071
 21
135.5051908697998
  0
LINE
  8
_0-2_製品
  6
PLINE3
 62
    3
 10
161.35093991113092
 20
145.60519086979969
 11
214.67589091113052
 21
145.60519086979969
  0
LINE
  8
_0-2_製品
  6
CONTINUOUS
 62
    7
 10
161.35093991113092
 20
124.98852386979991
 11
202.77285291113049
 21
124.98852386979991
  0
LINE
  8
_0-2_製品
  6
CONTINUOUS
 62
    7
 10
161.35093991113092
 20
125.82185786979989
 11
203.25397791113079
 21
125.82185786979989
  0
LINE
  8
_0-2_製品
  6
PLINE3
 62
    3
 10
161.35093991113092
 20
125.4051908697999
 11
203.01341591113083
 21
125.4051908697999
  0
LINE
  8
_0-2_製品
  6
CONTINUOUS
 62
    7
 10
161.35093991113092
 20
114.4718578698
 11
196.70105291113083
 21
114.4718578698
  0
LINE
  8
_0-2_製品
  6
CONTINUOUS
 62
    7
 10
161.35093991113092
 20
116.1385238697996
 11
197.66330291113093
 21
116.1385238697996
  0
LINE
  8
_0-2_製品
  6
PLINE3
 62
    3
 10
161.35093991113092
 20
115.30519086979999
 11
197.18217791113062
 21
115.30519086979999
  0
LINE
  8
_0-2_製品
  6
CONTINUOUS
 62
    7
 10
161.35093991113092
 20
104.78852386979969
 11
191.11037791113091
 21
104.78852386979969
  0
LINE
  8
_0-2_製品
  6
CONTINUOUS
 62
    7
 10
161.35093991113092
 20
105.6218578697996
 11
191.5915029111307
 21
105.6218578697996
  0
LINE
  8
_0-2_製品
  6
PLINE3
 62
    3
 10
161.35093991113092
 20
105.20519086979959
 11
191.35093991113092
 21
105.20519086979959
  0
LINE
  8
_0-2_製品
  6
CONTINUOUS
 62
    7
 10
214.19476591113073
 20
144.7718578697997
 11
161.35093991113092
 21
144.7718578697997
  0
LINE
  8
_0-2_製品
  6
CONTINUOUS
 62
    7
 10
215.15701591113071
 20
146.43852386979978
 11
161.35093991113092
 21
146.43852386979978
  0
LINE
  8
_0-2_製品
  6
CONTINUOUS
 62
    7
 10
161.35093991113092
 20
185.58852386979979
 11
237.76027891113068
 21
185.58852386979979
  0
LINE
  8
_0-2_製品
  6
CONTINUOUS
 62
    7
 10
161.35093991113092
 20
186.42185786979979
 11
238.24140391113093
 21
186.42185786979979
  0
LINE
  8
_0-2_製品
  6
PLINE3
 62
    3
 10
161.35093991113092
 20
186.0051908697998
 11
238.00084191113052
 21
186.0051908697998
  0
LINE
  8
_0-2_製品
  6
CONTINUOUS
 62
    7
 10
161.35093991113092
 20
175.07185786979989
 11
231.68847891113052
 21
175.07185786979989
  0
LINE
  8
_0-2_製品
  6
CONTINUOUS
 62
    7
 10
161.35093991113092
 20
176.73852386979999
 11
232.65072891113061
 21
176.73852386979999
  0
LINE
  8
_0-2_製品
  6
PLINE3
 62
    3
 10
161.35093991113092
 20
175.9051908697999
 11
232.16960391113082
 21
175.9051908697999
  0
LINE
  8
_0-2_製品
  6
CONTINUOUS
 62
    7
 10
161.35093991113092
 20
165.3885238697996
 11
226.0978039111306
 21
165.3885238697996
  0
LINE
  8
_0-2_製品
  6
CONTINUOUS
 62
    7
 10
161.35093991113092
 20
166.2218578698
 11
226.5789289111309
 21
166.2218578698
  0
LINE
  8
_0-2_製品
  6
PLINE3
 62
    3
 10
161.35093991113092
 20
165.80519086979999
 11
226.3383659111305
 21
165.80519086979999
  0
INSERT
  2
-003-_D25
  8
_0-3_寸法
 10
-64.471436599818389
 20
-18.784561870601607
 41
0.25
 42
0.25
 50
0
  0
INSERT
  2
-004-_D26
  8
_0-3_寸法
 10
-64.471436599818389
 20
-18.784561870601607
 41
0.25
 42
0.25
 50
0
  0
INSERT
  2
-005-_D27
  8
_0-3_寸法
 10
-64.471436599818389
 20
-18.784561870601607
 41
0.25
 42
0.25
 50
0
  0
LINE
  8
_0-2_製品
  6
CONTINUOUS
 62
    3
 10
157.0809619111306
 20
115.30519086979999
 11
139.35093991113081
 21
115.30519086979999
  0
INSERT
  2
-006-_D28
  8
_0-3_寸法
 10
-64.471436599818389
 20
-18.784561870601607
 41
0.25
 42
0.25
 50
0
  0
INSERT
  2
-007-_D29
  8
_0-3_寸法
 10
-64.471436599818389
 20
-18.784561870601607
 41
0.25
 42
0.25
 50
0
  0
TEXT
  8
_0-4_図面枠
 62
    7
 10
158.49003991113071
 20
113.63852586979979
 40
3
 41
0.8000000000000001
 50
0
  1
Ｗ
  0
TEXT
  8
_0-4_図面枠
 62
    7
 10
158.49003991113071
 20
103.53852786979969
 40
3
 41
0.8000000000000001
 50
0
  1
Ｓ
  0
LINE
  8
_0-2_製品
  6
CONTINUOUS
 62
    3
 10
157.0176069111308
 20
105.20519086979959
 11
149.35093991113092
 21
105.20519086979959
  0
LINE
  8
_0-2_製品
  6
CONTINUOUS
 62
    3
 10
157.2110009111307
 20
175.9051908697999
 11
139.35093991113081
 21
175.9051908697999
  0
LINE
  8
_0-2_製品
  6
CONTINUOUS
 62
    3
 10
157.0809619111306
 20
145.60519086979969
 11
139.35093991113081
 21
145.60519086979969
  0
INSERT
  2
-008-_D30
  8
_0-3_寸法
 10
-64.471436599818389
 20
-18.784561870601607
 41
0.25
 42
0.25
 50
0
  0
INSERT
  2
-009-_D31
  8
_0-3_寸法
 10
-64.471436599818389
 20
-18.784561870601607
 41
0.25
 42
0.25
 50
0
  0
INSERT
  2
-010-_D32
  8
_0-3_寸法
 10
-64.471436599818389
 20
-18.784561870601607
 41
0.25
 42
0.25
 50
0
  0
INSERT
  2
-011-_D33
  8
_0-3_寸法
 10
-64.471436599818389
 20
-18.784561870601607
 41
0.25
 42
0.25
 50
0
  0
INSERT
  2
-012-_D34
  8
_0-3_寸法
 10
-64.471436599818389
 20
-18.784561870601607
 41
0.25
 42
0.25
 50
0
  0
INSERT
  2
-013-_D35
  8
_0-3_寸法
 10
-64.471436599818389
 20
-18.784561870601607
 41
0.25
 42
0.25
 50
0
  0
INSERT
  2
-014-_D36
  8
_0-3_寸法
 10
-64.471436599818389
 20
-18.784561870601607
 41
0.25
 42
0.25
 50
0
  0
TEXT
  8
_0-4_図面枠
 62
    7
 10
158.49003991113071
 20
184.3385308698
 40
3
 41
0.8000000000000001
 50
0
  1
Ｓ
  0
LINE
  8
_0-2_製品
  6
CONTINUOUS
 62
    3
 10
157.0176069111308
 20
186.0051908697998
 11
149.35093991113092
 21
186.0051908697998
  0
TEXT
  8
_0-4_図面枠
 62
    7
 10
158.49003991113071
 20
164.13852586979979
 40
3
 41
0.8000000000000001
 50
0
  1
Ｓ
  0
TEXT
  8
_0-4_図面枠
 62
    7
 10
158.49003991113071
 20
154.0385198697997
 40
3
 41
0.8000000000000001
 50
0
  1
Ｓ
  0
LINE
  8
_0-2_製品
  6
CONTINUOUS
 62
    3
 10
157.0176069111308
 20
165.80519086979999
 11
149.35093991113092
 21
165.80519086979999
  0
LINE
  8
_0-2_製品
  6
CONTINUOUS
 62
    3
 10
157.0176069111308
 20
155.70519086979959
 11
149.35093991113092
 21
155.70519086979959
  0
TEXT
  8
_0-4_図面枠
 62
    7
 10
158.49003991113071
 20
174.23853186979989
 40
3
 41
0.8000000000000001
 50
0
  1
Ｗ
  0
TEXT
  8
_0-4_図面枠
 62
    7
 10
158.49003991113071
 20
143.93852186979998
 40
3
 41
0.8000000000000001
 50
0
  1
Ｗ
  0
TEXT
  8
_0-4_図面枠
 62
    7
 10
158.49003991113071
 20
133.83852286979999
 40
3
 41
0.8000000000000001
 50
0
  1
Ｓ
  0
TEXT
  8
_0-4_図面枠
 62
    7
 10
158.49003991113071
 20
123.73852486979979
 40
3
 41
0.8000000000000001
 50
0
  1
Ｓ
  0
LINE
  8
_0-2_製品
  6
CONTINUOUS
 62
    3
 10
157.0176069111308
 20
135.5051908697998
 11
149.35093991113092
 21
135.5051908697998
  0
LINE
  8
_0-2_製品
  6
CONTINUOUS
 62
    3
 10
157.0176069111308
 20
125.4051908697999
 11
149.35093991113092
 21
125.4051908697999
  0
LINE
  8
_0-2_製品
  6
CONTINUOUS
 62
    7
 10
229.6842729111309
 20
95.205190869799594
 11
229.6842729111309
 21
136.1509348697997
  0
LINE
  8
_0-2_製品
  6
CONTINUOUS
 62
    7
 10
199.35093991113092
 20
95.205190869799594
 11
199.35093991113092
 21
119.06159686979998
  0
LINE
  8
_0-4_図面枠
  6
CONTINUOUS
 62
    3
 10
206.55093991113068
 20
180.95519086979968
 11
207.11792691113084
 21
182.93724186979961
  0
LINE
  8
_0-4_図面枠
  6
CONTINUOUS
 62
    3
 10
206.55093991113068
 20
180.95519086979968
 11
207.98395291113053
 21
182.43724186979961
  0
CIRCLE
  8
_0-2_製品
  6
CONTINUOUS
 62
    3
 10
206.35093991113092
 20
191.05519086979999
 40
0.666667
  0
CIRCLE
  8
_0-2_製品
  6
CONTINUOUS
 62
    3
 10
206.35093991113092
 20
160.7551908697998
 40
0.666667
  0
CIRCLE
  8
_0-2_製品
  6
CONTINUOUS
 62
    3
 10
236.35093991113092
 20
191.05519086979999
 40
0.666667
  0
LINE
  8
_0-2_製品
  6
CONTINUOUS
 62
    7
 10
229.6842729111309
 20
144.9993768697997
 11
229.6842729111309
 21
171.60047186979969
  0
INSERT
  2
-015-_D37
  8
_0-3_寸法
 10
-64.471436599818389
 20
-18.784561870601607
 41
0.25
 42
0.25
 50
0
  0
LINE
  8
_0-2_製品
  6
CONTINUOUS
 62
    7
 10
161.35093991113092
 20
195.68852386979978
 11
243.5915169111309
 21
195.68852386979978
  0
LINE
  8
_0-2_製品
  6
CONTINUOUS
 62
    7
 10
161.35093991113092
 20
196.5218578697997
 11
244.07264191113069
 21
196.5218578697997
  0
LINE
  8
_0-2_製品
  6
PLINE3
 62
    3
 10
161.35093991113092
 20
196.10519086979969
 11
243.83207991113079
 21
196.10519086979969
  0
INSERT
  2
-016-_D38
  8
_0-3_寸法
 10
-64.471436599818389
 20
-18.784561870601607
 41
0.25
 42
0.25
 50
0
  0
INSERT
  2
-017-_D39
  8
_0-3_寸法
 10
-64.471436599818389
 20
-18.784561870601607
 41
0.25
 42
0.25
 50
0
  0
LINE
  8
_0-2_製品
  6
CONTINUOUS
 62
    3
 10
176.35093991113092
 20
206.10519086979969
 11
176.35093991113092
 21
223.1551908697999
  0
TEXT
  8
_0-4_図面枠
 62
    7
 10
158.49003991113071
 20
194.43852186979998
 40
3
 41
0.8000000000000001
 50
0
  1
Ｓ
  0
LINE
  8
_0-2_製品
  6
CONTINUOUS
 62
    3
 10
157.0176069111308
 20
196.10519086979969
 11
149.35093991113092
 21
196.10519086979969
  0
INSERT
  2
-018-_D40
  8
_0-3_寸法
 10
-64.471436599818389
 20
-18.784561870601607
 41
0.25
 42
0.25
 50
0
  0
LINE
  8
_0-2_製品
  6
CONTINUOUS
 62
    3
 10
206.35093991113092
 20
206.10519086979969
 11
206.35093991113092
 21
223.1551908697999
  0
LINE
  8
_0-4_図面枠
  6
CONTINUOUS
 62
    3
 10
218.21341591113071
 20
201.1551908697999
 11
229.68008191113091
 21
201.1551908697999
  0
TEXT
  8
_0-4_図面枠
 62
    7
 10
218.21341291113049
 20
201.82185286979998
 40
3
 41
0.8000000000000001
 50
0
  1
野縁受け
  0
LINE
  8
_0-2_製品
  6
CONTINUOUS
 62
    7
 10
260.01760691113083
 20
145.2178568697997
 11
260.01760691113083
 21
206.10519086979969
  0
LINE
  8
_0-2_製品
  6
CONTINUOUS
 62
    7
 10
260.01760691113083
 20
95.205190869799594
 11
260.01760691113083
 21
137.4618148697997
  0
ENDSEC
  0
EOF
