  0
SECTION
  2
HEADER
  9
$ACADVER
  1
AC1009
  9
$INSBASE
 10
0
 20
0
 30
0
  9
$EXTMIN
 10
0
 20
0
  9
$EXTMAX
 10
420
 20
297
  9
$LIMMIN
 10
0
 20
0
  9
$LIMMAX
 10
420
 20
297
  9
$LTSCALE
 40
1
  0
ENDSEC
  0
SECTION
  2
TABLES
  0
TABLE
  2
LTYPE
 70
     9
  0
LTYPE
  2
CONTINUOUS
 70
    64
  3
実線
 72
    65
 73
     0
 40
0.0
  0
LTYPE
  2
DASHED1
 70
    64
  3
--  --  --  --  --  --  --  --  
 72
    65
 73
     2
 40
2.5
 49
1.25
 49
-1.25
  0
LTYPE
  2
DASHED2
 70
    64
  3
----    ----    ----    ----    
 72
    65
 73
     2
 40
5.0
 49
2.5
 49
-2.5
  0
LTYPE
  2
DASHED3
 70
    64
  3
------  ------  ------  ------  
 72
    65
 73
     2
 40
5.0
 49
3.75
 49
-1.25
  0
LTYPE
  2
CENTER1
 70
    64
  3
----- - ----- - ----- - ----- - 
 72
    65
 73
     4
 40
10.0
 49
6.25
 49
-1.25
 49
1.25
 49
-1.25
  0
LTYPE
  2
CENTER2
 70
    64
  3
----------  --  ----------  --  
 72
    65
 73
     4
 40
20.0
 49
12.5
 49
-2.5
 49
2.5
 49
-2.5
  0
LTYPE
  2
PHANTOM1
 70
    64
  3
--- - - --- - - --- - - --- - - 
 72
    65
 73
     6
 40
10.0
 49
3.25
 49
-1.25
 49
1.25
 49
-1.25
 49
1.25
 49
-1.25
  0
LTYPE
  2
PHANTOM2
 70
    64
  3
--------  -  -  --------  -  -  
 72
    65
 73
     6
 40
20.0
 49
10.0
 49
-2.5
 49
1.25
 49
-2.5
 49
1.25
 49
-2.5
  0
LTYPE
  2
DOT
 70
    64
  3
-   -   -   -   -   -   -   -   
 72
    65
 73
     2
 40
2.5
 49
0.625
 49
-1.875
  0
LTYPE
  2
DUMMY
 70
    64
  3
ダミー
 72
    65
 73
     0
 40
0.0
  0
LTYPE
  2
RAND1
 70
    64
  3
ランダム線1
 72
    65
 73
     4
 40
10.0
 49
1.0
 49
-2.0
 49
3.0
 49
-4.0
  0
LTYPE
  2
RAND2
 70
    64
  3
ランダム線2
 72
    65
 73
     4
 40
14.0
 49
2.0
 49
-3.0
 49
4.0
 49
-5.0
  0
LTYPE
  2
RAND3
 70
    64
  3
ランダム線3
 72
    65
 73
     4
 40
18.0
 49
3.0
 49
-4.0
 49
5.0
 49
-6.0
  0
LTYPE
  2
RAND4
 70
    64
  3
ランダム線4
 72
    65
 73
     4
 40
22.0
 49
4.0
 49
-5.0
 49
6.0
 49
-7.0
  0
LTYPE
  2
RAND5
 70
    64
  3
ランダム線5
 72
    65
 73
     4
 40
26.0
 49
5.0
 49
-6.0
 49
7.0
 49
-8.0
  0
LTYPE
  2
LONG1
 70
    64
  3
----------  --  ----------  --  
 72
    65
 73
     4
 40
40.0
 49
32.5
 49
-2.5
 49
2.5
 49
-2.5
  0
LTYPE
  2
LONG2
 70
    64
  3
--------  -  -  --------  -  -  
 72
    65
 73
     6
 40
40.0
 49
30.0
 49
-2.5
 49
1.25
 49
-2.5
 49
1.25
 49
-2.5
  0
LTYPE
  2
LONG3
 70
    64
  3
+++++++++++++++..+++++++++++++++
 72
    65
 73
     2
 40
40.0
 49
37.5
 49
-2.5
  0
LTYPE
  2
LONG4
 70
    64
  3
+++++++++++++++..+++++++++++++++
 72
    65
 73
     2
 40
80.0
 49
75.0
 49
-5.0
  0
LTYPE
  2
LONG5
 70
    64
  3
----------  --  ----------  --  
 72
    65
 73
     4
 40
60.0
 49
37.5
 49
-7.5
 49
7.5
 49
-7.5
  0
LTYPE
  2
dashed
 70
   64
  3
-------   -------------   ------
 72
   65
 73
    2
 40
7.5
 49
6
 49
-1.5
  0
LTYPE
  2
dashed_spaced
 70
   64
  3
----        --------        ----
 72
   65
 73
    2
 40
12
 49
6
 49
-6
  0
LTYPE
  2
long_dashed_dotted
 70
   64
  3
------------- --- --------------
 72
   65
 73
    4
 40
15.25
 49
12
 49
-1.5
 49
0.25
 49
-1.5
  0
LTYPE
  2
long_dashed_double-dotted
 70
   64
  3
----------- --- --- ------------
 72
   65
 73
    6
 40
17
 49
12
 49
-1.5
 49
0.25
 49
-1.5
 49
0.25
 49
-1.5
  0
LTYPE
  2
long_dashed_triplicate-dotted
 70
   64
  3
--------- --- --- --- ----------
 72
   65
 73
    8
 40
18.75
 49
12
 49
-1.5
 49
0.25
 49
-1.5
 49
0.25
 49
-1.5
 49
0.25
 49
-1.5
  0
LTYPE
  2
dotted
 70
   64
  3
   -       -       -       -    
 72
   65
 73
    2
 40
1.75
 49
0.25
 49
-1.5
  0
LTYPE
  2
chain
 70
   64
  3
-------------- -- --------------
 72
   65
 73
    4
 40
18.5
 49
12
 49
-1.5
 49
3.5
 49
-1.5
  0
LTYPE
  2
chain_double_dash
 70
   64
  3
------------ -- -- -------------
 72
   65
 73
    6
 40
23.5
 49
12
 49
-1.5
 49
3.5
 49
-1.5
 49
3.5
 49
-1.5
  0
LTYPE
  2
dashed_dotted
 70
   64
  3
-----------     -     ----------
 72
   65
 73
    4
 40
9.25
 49
6
 49
-1.5
 49
0.25
 49
-1.5
  0
LTYPE
  2
double-dashed_dotted
 70
   64
  3
------   -----------   -   -----
 72
   65
 73
    6
 40
16.75
 49
6
 49
-1.5
 49
6
 49
-1.5
 49
0.25
 49
-1.5
  0
LTYPE
  2
dashed_double-dotted
 70
   64
  3
---------    -    -    ---------
 72
   65
 73
    6
 40
11
 49
6
 49
-1.5
 49
0.25
 49
-1.5
 49
0.25
 49
-1.5
  0
LTYPE
  2
double-dashed_double-dotted
 70
   64
  3
-----   ---------   -   -   ----
 72
   65
 73
    8
 40
18.5
 49
6
 49
-1.5
 49
6
 49
-1.5
 49
0.25
 49
-1.5
 49
0.25
 49
-1.5
  0
LTYPE
  2
dashed_triplicate-dotted
 70
   64
  3
-------    -    -    -    ------
 72
   65
 73
    8
 40
12.75
 49
6
 49
-1.5
 49
0.25
 49
-1.5
 49
0.25
 49
-1.5
 49
0.25
 49
-1.5
  0
LTYPE
  2
double-dashed_triplicate-dotted
 70
   64
  3
-----  ---------  -  -  -  -----
 72
   65
 73
   10
 40
20.25
 49
6
 49
-1.5
 49
6
 49
-1.5
 49
0.25
 49
-1.5
 49
0.25
 49
-1.5
 49
0.25
 49
-1.5
  0
LTYPE
  2
undefined
 70
   64
  3
--------------------------------
 72
   65
 73
    0
 40
0
  0
LTYPE
  2
PLINE2
 70
   64
  3
------     -----------     -----
 72
   65
 73
    2
 40
3
 49
2.1000000000000001
 49
-0.9
  0
LTYPE
  2
PLINE3
 70
   64
  3
------------   ---   -----------
 72
   65
 73
    4
 40
10
 49
7
 49
-1
 49
1
 49
-1
  0
LTYPE
  2
PLINE4
 70
   64
  3
---------   ---   ---   --------
 72
   65
 73
    6
 40
10
 49
5
 49
-1
 49
1
 49
-1
 49
1
 49
-1
  0
LTYPE
  2
PLINE5
 70
   64
  3
------     -----------     -----
 72
   65
 73
    2
 40
5
 49
3.5
 49
-1.5
  0
LTYPE
  2
PLINE6
 70
   64
  3
------------   ---   -----------
 72
   65
 73
    4
 40
15
 49
10.5
 49
-1.5
 49
1.5
 49
-1.5
  0
LTYPE
  2
PLINE7
 70
   64
  3
---------   ---   ---   --------
 72
   65
 73
    6
 40
15
 49
7.5
 49
-1.5
 49
1.5
 49
-1.5
 49
1.5
 49
-1.5
  0
LTYPE
  2
PLINE8
 70
   64
  3
------     -----------     -----
 72
   65
 73
    2
 40
7
 49
4.9000000000000004
 49
-2.1000000000000001
  0
LTYPE
  2
PLINE9
 70
   64
  3
------------   ---   -----------
 72
   65
 73
    4
 40
20
 49
14
 49
-2
 49
2
 49
-2
  0
LTYPE
  2
PLINE10
 70
   64
  3
---------   ---   ---   --------
 72
   65
 73
    6
 40
20
 49
10
 49
-2
 49
2
 49
-2
 49
2
 49
-2
  0
LTYPE
  2
PLINE11
 70
   64
  3
------     -----------     -----
 72
   65
 73
    2
 40
9
 49
6.2999999999999989
 49
-2.7000000000000002
  0
LTYPE
  2
PLINE12
 70
   64
  3
------------   ---   -----------
 72
   65
 73
    4
 40
25
 49
17.5
 49
-2.5
 49
2.5
 49
-2.5
  0
LTYPE
  2
PLINE13
 70
   64
  3
---------   ---   ---   --------
 72
   65
 73
    6
 40
25
 49
12.5
 49
-2.5
 49
2.5
 49
-2.5
 49
2.5
 49
-2.5
  0
LTYPE
  2
PLINE14
 70
   64
  3
------     -----------     -----
 72
   65
 73
    2
 40
11
 49
7.7000000000000002
 49
-3.2999999999999989
  0
LTYPE
  2
PLINE15
 70
   64
  3
------------   ---   -----------
 72
   65
 73
    4
 40
30
 49
21
 49
-3
 49
3
 49
-3
  0
LTYPE
  2
PLINE16
 70
   64
  3
---------   ---   ---   --------
 72
   65
 73
    6
 40
30
 49
15
 49
-3
 49
3
 49
-3
 49
3
 49
-3
  0
ENDTAB
  0
TABLE
  2
STYLE
  5
3
100
AcDbSymbolTable
 70
     1
  0
STYLE
  5
10
100
AcDbSymbolTableRecord
100
AcDbTextStyleTableRecord
  2
STANDARD
 70
     0
 40
0.0
 41
1.0
 50
0.0
 71
     0
 42
0.2
  3
txt
  4
bigfont.shx
  0
STYLE
  5
26
100
AcDbSymbolTableRecord
100
AcDbTextStyleTableRecord
  2
TATEGAKI
 70
    68
 40
0.0
 41
1.0
 50
0.0
 71
     0
 42
1.0
  3
txt
  4
bigfont.shx
  0
ENDTAB
  0
TABLE
  2
LAYER
 70
    2
  0
LAYER
  2
_0-2_製品
 70
   64
 62
    7
  6
CONTINUOUS
  0
LAYER
  2
ADD_LINE
 70
   64
 62
    7
  6
CONTINUOUS
  0
ENDTAB
  0
ENDSEC
  0
SECTION
  2
BLOCKS
  0
ENDSEC
  0
SECTION
  2
ENTITIES
  0
LINE
  8
_0-2_製品
  6
CONTINUOUS
 62
    2
 10
278.95049210311601
 20
146.82462741862091
 11
239.28915810311611
 21
146.82462741862091
  0
LINE
  8
_0-2_製品
  6
CONTINUOUS
 62
    2
 10
239.28915810311611
 20
121.82462741862091
 11
279.11049210311592
 21
121.82462741862091
  0
LINE
  8
_0-2_製品
  6
CONTINUOUS
 62
    2
 10
204.626906103116
 20
179.82462741862091
 11
172.626906103116
 21
179.82462741862091
  0
ARC
  8
_0-2_製品
  6
CONTINUOUS
 62
    2
 10
184.126906103116
 20
158.82462741862091
 40
3
 50
90
 51
180
  0
LINE
  8
_0-2_製品
  6
CONTINUOUS
 62
    2
 10
181.33490610311571
 20
122.38762741862061
 11
182.40890610311573
 21
122.7456274186207
  0
LINE
  8
_0-2_製品
  6
CONTINUOUS
 62
    2
 10
181.33490610311571
 20
121.88762741862061
 11
182.40890610311573
 21
122.24562741862081
  0
LINE
  8
_0-2_製品
  6
CONTINUOUS
 62
    3
 10
212.626906103116
 20
185.6246304186208
 11
164.62690610311608
 21
185.6246304186208
  0
LINE
  8
_0-2_製品
  6
CONTINUOUS
 62
    3
 10
210.626906103116
 20
137.42462741862082
 11
166.62690610311608
 21
137.42462741862082
  0
LINE
  8
_0-2_製品
  6
CONTINUOUS
 62
    3
 10
169.62690610311608
 20
155.1264934186207
 11
169.62690610311608
 21
144.32462741862091
  0
LINE
  8
_0-2_製品
  6
CONTINUOUS
 62
    2
 10
176.126906103116
 20
142.7246274186206
 11
176.126906103116
 21
158.82462741862091
  0
LINE
  8
_0-2_製品
  6
CONTINUOUS
 62
    2
 10
181.126906103116
 20
142.7246274186206
 11
181.126906103116
 21
158.82462741862091
  0
LINE
  8
_0-2_製品
  6
CONTINUOUS
 62
    2
 10
169.62690610311608
 20
146.82462741862091
 11
140.88915810311607
 21
146.82462741862091
  0
ARC
  8
_0-2_製品
  6
CONTINUOUS
 62
    2
 10
166.12690610311608
 20
145.32462741862091
 40
1
 50
0
 51
90
  0
LINE
  8
_0-2_製品
  6
CONTINUOUS
 62
    2
 10
167.12690610311608
 20
145.32462741862091
 11
167.12690610311608
 21
143.82462741862099
  0
LINE
  8
_0-2_製品
  6
CONTINUOUS
 62
    2
 10
167.12690610311608
 20
143.82462741862099
 11
167.62690610311608
 21
143.82462741862099
  0
LINE
  8
_0-2_製品
  6
CONTINUOUS
 62
    2
 10
167.62690610311608
 20
143.82462741862099
 11
167.62690610311608
 21
145.32462741862091
  0
ARC
  8
_0-2_製品
  6
CONTINUOUS
 62
    2
 10
166.12690610311608
 20
145.32462741862091
 40
1.5
 50
0
 51
90
  0
LINE
  8
_0-2_製品
  6
CONTINUOUS
 62
    3
 10
166.74517510311614
 20
143.73328141862081
 11
166.35552710311583
 21
145.68152041862061
  0
ARC
  8
_0-2_製品
  6
CONTINUOUS
 62
    3
 10
168.12690610311608
 20
144.3171274186208
 40
1.5000189999999991
 50
202.79607299998511
 51
0.2864770000049572
  0
ARC
  8
_0-2_製品
  6
CONTINUOUS
 62
    2
 10
178.626906103116
 20
142.7246274186206
 40
2.5
 50
180
 51
0
  0
ARC
  8
_0-2_製品
  6
CONTINUOUS
 62
    2
 10
165.12690610311608
 20
145.32462741862091
 40
1
 50
90
 51
180
  0
ARC
  8
_0-2_製品
  6
CONTINUOUS
 62
    2
 10
165.12690610311608
 20
145.32462741862091
 40
1.5
 50
90
 51
180
  0
LINE
  8
_0-2_製品
  6
CONTINUOUS
 62
    2
 10
165.12690610311608
 20
146.32462741862091
 11
166.12690610311608
 21
146.32462741862091
  0
ARC
  8
_0-2_製品
  6
CONTINUOUS
 62
    3
 10
165.57106310311599
 20
145.52462741862081
 40
0.8
 50
11.309931999997589
 51
90
  0
ARC
  8
_0-2_製品
  6
CONTINUOUS
 62
    2
 10
179.64490610311611
 20
122.1926274186209
 40
0.5999999999999999
 50
71.534851000012878
 51
108.46514899998709
  0
ARC
  8
_0-2_製品
  6
CONTINUOUS
 62
    2
 10
179.64490610311611
 20
121.6926274186209
 40
0.5999999999999999
 50
71.534851000012878
 51
108.46514899998709
  0
ARC
  8
_0-2_製品
  6
CONTINUOUS
 62
    2
 10
181.14490610311611
 20
122.95662741862051
 40
0.5999999999999999
 50
251.53485100001279
 51
288.46514899998709
  0
LINE
  8
_0-2_製品
  6
CONTINUOUS
 62
    2
 10
179.83490610311571
 20
122.7616274186208
 11
180.954906103116
 21
122.38762741862061
  0
ARC
  8
_0-2_製品
  6
CONTINUOUS
 62
    2
 10
176.64490610311611
 20
122.1926274186209
 40
0.5999999999999999
 50
71.534851000012878
 51
108.46514899998709
  0
ARC
  8
_0-2_製品
  6
CONTINUOUS
 62
    2
 10
176.64490610311611
 20
121.6926274186209
 40
0.5999999999999999
 50
71.534851000012878
 51
108.46514899998709
  0
LINE
  8
_0-2_製品
  6
CONTINUOUS
 62
    2
 10
176.83490610311571
 20
122.7616274186208
 11
177.954906103116
 21
122.38762741862061
  0
ARC
  8
_0-2_製品
  6
CONTINUOUS
 62
    2
 10
178.14490610311611
 20
122.95662741862051
 40
0.5999999999999999
 50
251.53485100001279
 51
288.46514899998709
  0
LINE
  8
_0-2_製品
  6
CONTINUOUS
 62
    2
 10
178.33490610311571
 20
122.38762741862061
 11
179.454906103116
 21
122.7616274186208
  0
ARC
  8
_0-2_製品
  6
CONTINUOUS
 62
    2
 10
181.14490610311611
 20
122.45662741862051
 40
0.5999999999999999
 50
251.53485100001279
 51
288.46514899998709
  0
ARC
  8
_0-2_製品
  6
CONTINUOUS
 62
    2
 10
178.14490610311611
 20
122.45662741862051
 40
0.5999999999999999
 50
251.53485100001279
 51
288.46514899998709
  0
LINE
  8
_0-2_製品
  6
CONTINUOUS
 62
    2
 10
176.83490610311571
 20
122.2616274186208
 11
177.954906103116
 21
121.88762741862061
  0
LINE
  8
_0-2_製品
  6
CONTINUOUS
 62
    2
 10
178.33490610311571
 20
121.88762741862061
 11
179.454906103116
 21
122.2616274186208
  0
LINE
  8
_0-2_製品
  6
CONTINUOUS
 62
    2
 10
179.83490610311571
 20
122.2616274186208
 11
180.954906103116
 21
121.88762741862061
  0
LINE
  8
_0-2_製品
  6
CONTINUOUS
 62
    2
 10
173.83490610311571
 20
122.7616274186208
 11
174.954906103116
 21
122.38762741862061
  0
ARC
  8
_0-2_製品
  6
CONTINUOUS
 62
    2
 10
175.14490610311611
 20
122.95662741862051
 40
0.5999999999999999
 50
251.53485100001279
 51
288.46514899998709
  0
ARC
  8
_0-2_製品
  6
CONTINUOUS
 62
    2
 10
172.14490610311611
 20
122.95762741862072
 40
0.5999999999999999
 50
251.56504799999414
 51
288.43493700000238
  0
LINE
  8
_0-2_製品
  6
CONTINUOUS
 62
    2
 10
172.33490610311571
 20
122.38762741862061
 11
173.454906103116
 21
122.7616274186208
  0
ARC
  8
_0-2_製品
  6
CONTINUOUS
 62
    2
 10
173.64490610311611
 20
122.1926274186209
 40
0.5999999999999999
 50
71.534851000012878
 51
108.46514899998709
  0
ARC
  8
_0-2_製品
  6
CONTINUOUS
 62
    2
 10
173.64490610311611
 20
121.6926274186209
 40
0.5999999999999999
 50
71.534851000012878
 51
108.46514899998709
  0
ARC
  8
_0-2_製品
  6
CONTINUOUS
 62
    2
 10
175.14490610311611
 20
122.45662741862051
 40
0.5999999999999999
 50
251.53485100001279
 51
288.46514899998709
  0
ARC
  8
_0-2_製品
  6
CONTINUOUS
 62
    2
 10
172.14490610311611
 20
122.45662741862051
 40
0.5999999999999999
 50
251.62548799999189
 51
288.46514899998709
  0
LINE
  8
_0-2_製品
  6
CONTINUOUS
 62
    2
 10
173.83490610311571
 20
122.2616274186208
 11
174.954906103116
 21
121.88762741862061
  0
LINE
  8
_0-2_製品
  6
CONTINUOUS
 62
    2
 10
172.33490610311571
 20
121.88762741862061
 11
173.454906103116
 21
122.2616274186208
  0
ARC
  8
_0-2_製品
  6
CONTINUOUS
 62
    2
 10
170.69090610311594
 20
121.6766274186208
 40
0.5999999999999999
 50
71.534851000012878
 51
116.5223539999899
  0
LINE
  8
_0-2_製品
  6
CONTINUOUS
 62
    2
 10
169.77090610311586
 20
122.38762741862061
 11
170.42290610311591
 21
122.7136274186206
  0
ARC
  8
_0-2_製品
  6
CONTINUOUS
 62
    2
 10
170.69090610311594
 20
122.1766274186208
 40
0.5999999999999999
 50
71.565047999994178
 51
116.52235399998992
  0
ARC
  8
_0-2_製品
  6
CONTINUOUS
 62
    2
 10
169.50290610311583
 20
122.9246274186209
 40
0.5999999999999999
 50
270
 51
296.52236899998343
  0
LINE
  8
_0-2_製品
  6
CONTINUOUS
 62
    2
 10
166.62690610311608
 20
122.32462741862091
 11
169.50290610311583
 21
122.32462741862091
  0
ARC
  8
_0-2_製品
  6
CONTINUOUS
 62
    2
 10
169.50290610311583
 20
122.4246274186209
 40
0.5999999999999999
 50
270
 51
296.52236899998343
  0
LINE
  8
_0-2_製品
  6
CONTINUOUS
 62
    2
 10
166.62690610311608
 20
121.82462741862091
 11
169.56690610311614
 21
121.82462741862091
  0
LINE
  8
_0-2_製品
  6
CONTINUOUS
 62
    2
 10
169.77090610311586
 20
121.88762741862061
 11
170.42290610311591
 21
122.2136274186206
  0
LINE
  8
_0-2_製品
  6
CONTINUOUS
 62
    2
 10
170.88090610311599
 20
122.24562741862081
 11
171.95590610311581
 21
121.88762741862061
  0
LINE
  8
_0-2_製品
  6
CONTINUOUS
 62
    2
 10
170.88090610311599
 20
122.74662741862102
 11
171.95490610311606
 21
122.38762741862061
  0
LINE
  8
_0-2_製品
  6
CONTINUOUS
 62
    2
 10
175.33490610311571
 20
122.38762741862061
 11
176.454906103116
 21
122.7616274186208
  0
LINE
  8
_0-2_製品
  6
CONTINUOUS
 62
    2
 10
175.33490610311571
 20
121.88762741862061
 11
176.454906103116
 21
122.2616274186208
  0
ARC
  8
_0-2_製品
  6
CONTINUOUS
 62
    3
 10
166.62690610311608
 20
139.42462741862082
 40
2
 50
180
 51
270
  0
ARC
  8
_0-2_製品
  6
CONTINUOUS
 62
    2
 10
166.62690610311608
 20
124.82462741862091
 40
3
 50
180
 51
270
  0
ARC
  8
_0-2_製品
  6
CONTINUOUS
 62
    2
 10
166.62690610311608
 20
124.82462741862091
 40
2.5
 50
180
 51
270
  0
LINE
  8
_0-2_製品
  6
CONTINUOUS
 62
    3
 10
164.62690610311608
 20
146.1906534186206
 11
164.62690610311608
 21
139.42462741862082
  0
LINE
  8
_0-2_製品
  6
CONTINUOUS
 62
    2
 10
164.12690610311608
 20
124.82462741862091
 11
164.12690610311608
 21
145.32462741862091
  0
LINE
  8
_0-2_製品
  6
CONTINUOUS
 62
    2
 10
163.62690610311608
 20
124.82462741862091
 11
163.62690610311608
 21
145.32462741862091
  0
LINE
  8
_0-2_製品
  6
CONTINUOUS
 62
    2
 10
140.88915810311607
 20
184.82462741862091
 11
164.62690610311608
 21
184.82462741862091
  0
ARC
  8
_0-2_製品
  6
CONTINUOUS
 62
    2
 10
172.626906103116
 20
177.82462741862091
 40
2
 50
90
 51
180
  0
LINE
  8
_0-2_製品
  6
CONTINUOUS
 62
    2
 10
173.126906103116
 20
161.82462741862091
 11
172.626906103116
 21
161.82462741862091
  0
ARC
  8
_0-2_製品
  6
CONTINUOUS
 62
    3
 10
164.62690610311608
 20
155.1264934186207
 40
5
 50
0
 51
71.732589000002335
  0
ARC
  8
_0-2_製品
  6
CONTINUOUS
 62
    2
 10
172.626906103116
 20
163.82462741862091
 40
2
 50
180
 51
270
  0
ARC
  8
_0-2_製品
  6
CONTINUOUS
 62
    2
 10
173.126906103116
 20
158.82462741862091
 40
3
 50
0
 51
90
  0
LINE
  8
_0-2_製品
  6
CONTINUOUS
 62
    2
 10
170.62690610311608
 20
163.82462741862091
 11
170.62690610311608
 21
177.82462741862091
  0
LINE
  8
_0-2_製品
  6
CONTINUOUS
 62
    3
 10
164.62690610311608
 20
185.6246304186208
 11
164.62690610311608
 21
161.82462741862091
  0
ARC
  8
_0-2_製品
  6
CONTINUOUS
 62
    3
 10
166.62690610311608
 20
161.82462741862091
 40
2
 50
180
 51
258.2626990000029
  0
LINE
  8
_0-2_製品
  6
CONTINUOUS
 62
    2
 10
201.126906103116
 20
142.7246274186206
 11
201.126906103116
 21
158.82462741862091
  0
LINE
  8
_0-2_製品
  6
CONTINUOUS
 62
    2
 10
196.126906103116
 20
142.7246274186206
 11
196.126906103116
 21
158.82462741862091
  0
LINE
  8
_0-2_製品
  6
CONTINUOUS
 62
    3
 10
207.626906103116
 20
155.1264934186207
 11
207.626906103116
 21
144.32462741862091
  0
LINE
  8
_0-2_製品
  6
PLINE3
 62
    2
 10
188.626906103116
 20
189.17463041862089
 11
188.626906103116
 21
107.82462741862099
  0
LINE
  8
_0-2_製品
  6
CONTINUOUS
 62
    2
 10
207.626906103116
 20
146.82462741862091
 11
230.56354310311582
 21
146.82462741862091
  0
ARC
  8
_0-2_製品
  6
CONTINUOUS
 62
    2
 10
212.126906103116
 20
145.32462741862091
 40
1
 50
0
 51
90
  0
LINE
  8
_0-2_製品
  6
CONTINUOUS
 62
    2
 10
212.126906103116
 20
146.32462741862091
 11
211.126906103116
 21
146.32462741862091
  0
LINE
  8
_0-2_製品
  6
CONTINUOUS
 62
    2
 10
210.126906103116
 20
145.32462741862091
 11
210.126906103116
 21
143.82462741862099
  0
LINE
  8
_0-2_製品
  6
CONTINUOUS
 62
    2
 10
210.126906103116
 20
143.82462741862099
 11
209.626906103116
 21
143.82462741862099
  0
LINE
  8
_0-2_製品
  6
CONTINUOUS
 62
    2
 10
209.626906103116
 20
143.82462741862099
 11
209.626906103116
 21
145.32462741862091
  0
ARC
  8
_0-2_製品
  6
CONTINUOUS
 62
    2
 10
211.126906103116
 20
145.32462741862091
 40
1
 50
90
 51
180
  0
ARC
  8
_0-2_製品
  6
CONTINUOUS
 62
    2
 10
211.126906103116
 20
145.32462741862091
 40
1.5
 50
90
 51
180
  0
ARC
  8
_0-2_製品
  6
CONTINUOUS
 62
    3
 10
211.6827491031157
 20
145.52462741862081
 40
0.8
 50
90
 51
168.6900680000023
  0
LINE
  8
_0-2_製品
  6
CONTINUOUS
 62
    3
 10
210.508637103116
 20
143.73328141862081
 11
210.8982851031158
 21
145.68152041862061
  0
ARC
  8
_0-2_製品
  6
CONTINUOUS
 62
    2
 10
212.126906103116
 20
145.32462741862091
 40
1.5
 50
0
 51
90
  0
ARC
  8
_0-2_製品
  6
CONTINUOUS
 62
    3
 10
210.626906103116
 20
139.42462741862082
 40
2
 50
270
 51
0
  0
ARC
  8
_0-2_製品
  6
CONTINUOUS
 62
    2
 10
210.626906103116
 20
124.82462741862091
 40
3
 50
270
 51
0
  0
ARC
  8
_0-2_製品
  6
CONTINUOUS
 62
    2
 10
210.626906103116
 20
124.82462741862091
 40
2.5
 50
270
 51
0
  0
LINE
  8
_0-2_製品
  6
CONTINUOUS
 62
    3
 10
212.626906103116
 20
139.42462741862082
 11
212.626906103116
 21
146.29287341862081
  0
LINE
  8
_0-2_製品
  6
CONTINUOUS
 62
    2
 10
213.126906103116
 20
124.82462741862091
 11
213.126906103116
 21
145.32462741862091
  0
LINE
  8
_0-2_製品
  6
CONTINUOUS
 62
    2
 10
213.626906103116
 20
124.82462741862091
 11
213.626906103116
 21
145.32462741862091
  0
ARC
  8
_0-2_製品
  6
CONTINUOUS
 62
    2
 10
198.626906103116
 20
142.7246274186206
 40
2.5
 50
180
 51
0
  0
ARC
  8
_0-2_製品
  6
CONTINUOUS
 62
    2
 10
206.56290610311569
 20
121.6766274186208
 40
0.5999999999999999
 50
63.477641999996308
 51
108.46514899998709
  0
ARC
  8
_0-2_製品
  6
CONTINUOUS
 62
    2
 10
206.56290610311569
 20
122.1766274186208
 40
0.5999999999999999
 50
63.477641999996308
 51
108.43495200000579
  0
LINE
  8
_0-2_製品
  6
CONTINUOUS
 62
    2
 10
207.48290610311579
 20
122.38762741862061
 11
206.83090610311581
 21
122.7136274186206
  0
ARC
  8
_0-2_製品
  6
CONTINUOUS
 62
    2
 10
207.7509061031158
 20
122.9246274186209
 40
0.5999999999999999
 50
243.47764600001
 51
270
  0
ARC
  8
_0-2_製品
  6
CONTINUOUS
 62
    2
 10
205.108906103116
 20
122.95762741862072
 40
0.5999999999999999
 50
251.56504799999414
 51
288.43493700000238
  0
ARC
  8
_0-2_製品
  6
CONTINUOUS
 62
    2
 10
203.608906103116
 20
122.1926274186209
 40
0.5999999999999999
 50
71.534851000012878
 51
108.46514899998709
  0
ARC
  8
_0-2_製品
  6
CONTINUOUS
 62
    2
 10
203.608906103116
 20
121.6926274186209
 40
0.5999999999999999
 50
71.534851000012878
 51
108.46514899998709
  0
LINE
  8
_0-2_製品
  6
CONTINUOUS
 62
    2
 10
204.918906103116
 20
122.38762741862061
 11
203.79890610311611
 21
122.7616274186208
  0
LINE
  8
_0-2_製品
  6
CONTINUOUS
 62
    2
 10
206.37290610311609
 20
122.74662741862102
 11
205.29890610311611
 21
122.38762741862061
  0
ARC
  8
_0-2_製品
  6
CONTINUOUS
 62
    2
 10
207.7509061031158
 20
122.4246274186209
 40
0.5999999999999999
 50
243.47764600001
 51
270
  0
ARC
  8
_0-2_製品
  6
CONTINUOUS
 62
    2
 10
205.108906103116
 20
122.45662741862051
 40
0.5999999999999999
 50
251.53485100001279
 51
288.37451200000811
  0
LINE
  8
_0-2_製品
  6
CONTINUOUS
 62
    2
 10
206.37290610311609
 20
122.24562741862081
 11
205.29790610311591
 21
121.88762741862061
  0
LINE
  8
_0-2_製品
  6
CONTINUOUS
 62
    2
 10
207.48290610311579
 20
121.88762741862061
 11
206.83090610311581
 21
122.2136274186206
  0
LINE
  8
_0-2_製品
  6
CONTINUOUS
 62
    2
 10
204.918906103116
 20
121.88762741862061
 11
203.79890610311611
 21
122.2616274186208
  0
ARC
  8
_0-2_製品
  6
CONTINUOUS
 62
    2
 10
200.608906103116
 20
122.1926274186209
 40
0.5999999999999999
 50
71.534851000012878
 51
108.46514899998709
  0
ARC
  8
_0-2_製品
  6
CONTINUOUS
 62
    2
 10
200.608906103116
 20
121.6926274186209
 40
0.5999999999999999
 50
71.534851000012878
 51
108.46514899998709
  0
LINE
  8
_0-2_製品
  6
CONTINUOUS
 62
    2
 10
201.91890610311592
 20
122.38762741862061
 11
200.79890610311611
 21
122.7616274186208
  0
ARC
  8
_0-2_製品
  6
CONTINUOUS
 62
    2
 10
202.108906103116
 20
122.95662741862051
 40
0.5999999999999999
 50
251.53485100001279
 51
288.46514899998709
  0
ARC
  8
_0-2_製品
  6
CONTINUOUS
 62
    2
 10
199.108906103116
 20
122.95662741862051
 40
0.5999999999999999
 50
251.53485100001279
 51
288.46514899998709
  0
LINE
  8
_0-2_製品
  6
CONTINUOUS
 62
    2
 10
198.91890610311589
 20
122.38762741862061
 11
197.798906103116
 21
122.7616274186208
  0
LINE
  8
_0-2_製品
  6
CONTINUOUS
 62
    2
 10
200.41890610311589
 20
122.7616274186208
 11
199.29890610311611
 21
122.38762741862061
  0
ARC
  8
_0-2_製品
  6
CONTINUOUS
 62
    2
 10
202.108906103116
 20
122.45662741862051
 40
0.5999999999999999
 50
251.53485100001279
 51
288.46514899998709
  0
ARC
  8
_0-2_製品
  6
CONTINUOUS
 62
    2
 10
199.108906103116
 20
122.45662741862051
 40
0.5999999999999999
 50
251.53485100001279
 51
288.46514899998709
  0
LINE
  8
_0-2_製品
  6
CONTINUOUS
 62
    2
 10
201.91890610311592
 20
121.88762741862061
 11
200.79890610311611
 21
122.2616274186208
  0
LINE
  8
_0-2_製品
  6
CONTINUOUS
 62
    2
 10
200.41890610311589
 20
122.2616274186208
 11
199.29890610311611
 21
121.88762741862061
  0
LINE
  8
_0-2_製品
  6
CONTINUOUS
 62
    2
 10
198.91890610311589
 20
121.88762741862061
 11
197.798906103116
 21
122.2616274186208
  0
LINE
  8
_0-2_製品
  6
CONTINUOUS
 62
    2
 10
203.41890610311592
 20
122.2616274186208
 11
202.29890610311611
 21
121.88762741862061
  0
LINE
  8
_0-2_製品
  6
CONTINUOUS
 62
    2
 10
203.41890610311592
 20
122.7616274186208
 11
202.29890610311611
 21
122.38762741862061
  0
ARC
  8
_0-2_製品
  6
CONTINUOUS
 62
    2
 10
196.108906103116
 20
122.95662741862051
 40
0.5999999999999999
 50
251.53485100001279
 51
288.46514899998709
  0
LINE
  8
_0-2_製品
  6
CONTINUOUS
 62
    2
 10
197.418906103116
 20
122.7616274186208
 11
196.29890610311611
 21
122.38762741862061
  0
ARC
  8
_0-2_製品
  6
CONTINUOUS
 62
    2
 10
194.65490610311582
 20
122.1766274186208
 40
0.5999999999999999
 50
71.534851000012878
 51
116.5223539999899
  0
ARC
  8
_0-2_製品
  6
CONTINUOUS
 62
    2
 10
194.65490610311582
 20
121.6766274186208
 40
0.5999999999999999
 50
71.534851000012878
 51
116.5223539999899
  0
LINE
  8
_0-2_製品
  6
CONTINUOUS
 62
    2
 10
194.38690610311579
 20
122.7136274186206
 11
193.7349061031158
 21
122.38762741862061
  0
ARC
  8
_0-2_製品
  6
CONTINUOUS
 62
    2
 10
193.46690610311572
 20
122.9246274186209
 40
0.5999999999999999
 50
270
 51
296.52236899998343
  0
LINE
  8
_0-2_製品
  6
CONTINUOUS
 62
    2
 10
195.91890610311589
 20
122.38762741862061
 11
194.8449061031159
 21
122.7456274186207
  0
ARC
  8
_0-2_製品
  6
CONTINUOUS
 62
    2
 10
196.108906103116
 20
122.45662741862051
 40
0.5999999999999999
 50
251.53485100001279
 51
288.46514899998709
  0
ARC
  8
_0-2_製品
  6
CONTINUOUS
 62
    2
 10
193.46690610311572
 20
122.4246274186209
 40
0.5999999999999999
 50
270
 51
296.52236899998343
  0
LINE
  8
_0-2_製品
  6
CONTINUOUS
 62
    2
 10
197.418906103116
 20
122.2616274186208
 11
196.29890610311611
 21
121.88762741862061
  0
LINE
  8
_0-2_製品
  6
CONTINUOUS
 62
    2
 10
195.91890610311589
 20
121.88762741862061
 11
194.8449061031159
 21
122.24562741862081
  0
LINE
  8
_0-2_製品
  6
CONTINUOUS
 62
    2
 10
194.38690610311579
 20
122.2136274186206
 11
193.7349061031158
 21
121.88762741862061
  0
LINE
  8
_0-2_製品
  6
CONTINUOUS
 62
    2
 10
189.50090610311582
 20
122.38762741862061
 11
188.89490610311611
 21
122.69062741862089
  0
ARC
  8
_0-2_製品
  6
CONTINUOUS
 62
    2
 10
188.626906103116
 20
122.15362741862072
 40
0.5999999999999999
 50
63.477641999996308
 51
116.52235399998992
  0
ARC
  8
_0-2_製品
  6
CONTINUOUS
 62
    2
 10
188.626906103116
 20
121.65362741862072
 40
0.5999999999999999
 50
63.477641999996308
 51
116.52235399998992
  0
LINE
  8
_0-2_製品
  6
CONTINUOUS
 62
    2
 10
187.75290610311581
 20
122.38762741862061
 11
188.358906103116
 21
122.69062741862089
  0
ARC
  8
_0-2_製品
  6
CONTINUOUS
 62
    2
 10
187.4849061031158
 20
122.9246274186209
 40
0.5999999999999999
 50
270
 51
296.52236899998343
  0
ARC
  8
_0-2_製品
  6
CONTINUOUS
 62
    2
 10
189.76890610311591
 20
122.9246274186209
 40
0.5999999999999999
 50
243.47764600001
 51
270
  0
ARC
  8
_0-2_製品
  6
CONTINUOUS
 62
    2
 10
187.4849061031158
 20
122.4246274186209
 40
0.5999999999999999
 50
270
 51
296.52236899998343
  0
ARC
  8
_0-2_製品
  6
CONTINUOUS
 62
    2
 10
189.76890610311591
 20
122.4246274186209
 40
0.5999999999999999
 50
243.47764600001
 51
270
  0
LINE
  8
_0-2_製品
  6
CONTINUOUS
 62
    2
 10
189.50090610311582
 20
121.88762741862061
 11
188.89490610311611
 21
122.19062741862089
  0
LINE
  8
_0-2_製品
  6
CONTINUOUS
 62
    2
 10
187.75290610311581
 20
121.88762741862061
 11
188.358906103116
 21
122.19062741862089
  0
LINE
  8
_0-2_製品
  6
CONTINUOUS
 62
    2
 10
193.46690610311572
 20
122.32462741862091
 11
189.76890610311591
 21
122.32462741862091
  0
LINE
  8
_0-2_製品
  6
CONTINUOUS
 62
    2
 10
193.46690610311572
 20
121.82462741862091
 11
189.76890610311591
 21
121.82462741862091
  0
ARC
  8
_0-2_製品
  6
CONTINUOUS
 62
    2
 10
197.608906103116
 20
122.1926274186209
 40
0.5999999999999999
 50
71.534851000012878
 51
108.46514899998709
  0
ARC
  8
_0-2_製品
  6
CONTINUOUS
 62
    2
 10
197.608906103116
 20
121.6926274186209
 40
0.5999999999999999
 50
71.534851000012878
 51
108.46514899998709
  0
ARC
  8
_0-2_製品
  6
CONTINUOUS
 62
    2
 10
182.59890610311581
 20
122.1766274186208
 40
0.5999999999999999
 50
63.477641999996308
 51
108.46514899998709
  0
ARC
  8
_0-2_製品
  6
CONTINUOUS
 62
    2
 10
182.59890610311581
 20
121.6766274186208
 40
0.5999999999999999
 50
63.477641999996308
 51
108.46514899998709
  0
LINE
  8
_0-2_製品
  6
CONTINUOUS
 62
    2
 10
182.86690610311581
 20
122.7136274186206
 11
183.51890610311591
 21
122.38762741862061
  0
ARC
  8
_0-2_製品
  6
CONTINUOUS
 62
    2
 10
183.78690610311591
 20
122.9246274186209
 40
0.5999999999999999
 50
243.47764600001
 51
270
  0
ARC
  8
_0-2_製品
  6
CONTINUOUS
 62
    2
 10
183.78690610311591
 20
122.4246274186209
 40
0.5999999999999999
 50
243.47764600001
 51
270
  0
LINE
  8
_0-2_製品
  6
CONTINUOUS
 62
    2
 10
182.86690610311581
 20
122.2136274186206
 11
183.51890610311591
 21
121.88762741862061
  0
LINE
  8
_0-2_製品
  6
CONTINUOUS
 62
    2
 10
183.78690610311591
 20
121.82462741862091
 11
187.4849061031158
 21
121.82462741862091
  0
LINE
  8
_0-2_製品
  6
CONTINUOUS
 62
    2
 10
183.78690610311591
 20
122.32462741862091
 11
187.4849061031158
 21
122.32462741862091
  0
ARC
  8
_0-2_製品
  6
CONTINUOUS
 62
    3
 10
209.126906103116
 20
144.3171274186208
 40
1.5000189999999991
 50
179.71352299999501
 51
337.20392700001486
  0
LINE
  8
_0-2_製品
  6
CONTINUOUS
 62
    2
 10
210.626906103116
 20
122.32462741862091
 11
207.7509061031158
 21
122.32462741862091
  0
LINE
  8
_0-2_製品
  6
CONTINUOUS
 62
    2
 10
210.626906103116
 20
121.82462741862091
 11
207.686906103116
 21
121.82462741862091
  0
LINE
  8
_0-2_製品
  6
CONTINUOUS
 62
    2
 10
230.56354310311582
 20
184.82462741862091
 11
212.626906103116
 21
184.82462741862091
  0
ARC
  8
_0-2_製品
  6
CONTINUOUS
 62
    3
 10
210.626906103116
 20
161.82462741862091
 40
2
 50
281.73730099999705
 51
0.0000000000000254
  0
LINE
  8
_0-2_製品
  6
CONTINUOUS
 62
    3
 10
212.626906103116
 20
185.6246304186208
 11
212.626906103116
 21
161.82462741862091
  0
ARC
  8
_0-2_製品
  6
CONTINUOUS
 62
    2
 10
204.626906103116
 20
177.82462741862091
 40
2
 50
0
 51
90
  0
LINE
  8
_0-2_製品
  6
CONTINUOUS
 62
    2
 10
204.126906103116
 20
161.82462741862091
 11
204.626906103116
 21
161.82462741862091
  0
ARC
  8
_0-2_製品
  6
CONTINUOUS
 62
    2
 10
204.626906103116
 20
163.82462741862091
 40
2
 50
270
 51
0
  0
ARC
  8
_0-2_製品
  6
CONTINUOUS
 62
    2
 10
204.126906103116
 20
158.82462741862091
 40
3
 50
90
 51
180
  0
ARC
  8
_0-2_製品
  6
CONTINUOUS
 62
    2
 10
193.126906103116
 20
158.82462741862091
 40
3
 50
0
 51
90
  0
LINE
  8
_0-2_製品
  6
CONTINUOUS
 62
    2
 10
184.126906103116
 20
161.82462741862091
 11
193.126906103116
 21
161.82462741862091
  0
LINE
  8
_0-2_製品
  6
CONTINUOUS
 62
    2
 10
206.626906103116
 20
177.82462741862091
 11
206.626906103116
 21
163.82462741862091
  0
ARC
  8
_0-2_製品
  6
CONTINUOUS
 62
    3
 10
212.626906103116
 20
155.1264934186207
 40
5
 50
108.26741099999759
 51
180
  0
LINE
  8
_0-2_製品
  6
CONTINUOUS
 62
    2
 10
251.58489610311591
 20
184.62462741862072
 11
251.58489610311591
 21
146.82462741862091
  0
LINE
  8
_0-2_製品
  6
CONTINUOUS
 62
    2
 10
252.38489610311609
 20
146.82462741862091
 11
252.38489610311609
 21
184.57462741862091
  0
LINE
  8
_0-2_製品
  6
CONTINUOUS
 62
    2
 10
253.984896103116
 20
182.32462741862091
 11
253.984896103116
 21
149.32462741862091
  0
LINE
  8
_0-2_製品
  6
CONTINUOUS
 62
    2
 10
264.38489610311609
 20
146.82462741862091
 11
264.38489610311609
 21
148.42462741862082
  0
ARC
  8
_0-2_製品
  6
CONTINUOUS
 62
    2
 10
254.88489610311609
 20
149.32462741862091
 40
0.9
 50
180
 51
270
  0
ARC
  8
_0-2_製品
  6
CONTINUOUS
 62
    2
 10
254.38489610311609
 20
148.82462741862091
 40
2
 50
180
 51
270
  0
LINE
  8
_0-2_製品
  6
CONTINUOUS
 62
    2
 10
254.88489610311609
 20
148.42462741862082
 11
264.38489610311609
 21
148.42462741862082
  0
LINE
  8
_0-2_製品
  6
PLINE2
 62
    2
 10
251.58489610311591
 20
137.42462741862082
 11
252.38489610311609
 21
137.42462741862082
  0
LINE
  8
_0-2_製品
  6
PLINE2
 62
    2
 10
251.58489610311591
 20
146.82462741862091
 11
251.58489610311591
 21
137.42462741862082
  0
LINE
  8
_0-2_製品
  6
PLINE2
 62
    2
 10
252.38489610311609
 20
137.42462741862082
 11
252.38489610311609
 21
146.82462741862091
  0
ARC
  8
_0-2_製品
  6
CONTINUOUS
 62
    2
 10
264.94143010311586
 20
185.37462741862072
 40
0.25
 50
0
 51
90
  0
ARC
  8
_0-2_製品
  6
CONTINUOUS
 62
    2
 10
252.58489610311591
 20
184.62462741862072
 40
1
 50
90
 51
180
  0
ARC
  8
_0-2_製品
  6
CONTINUOUS
 62
    2
 10
252.63489610311609
 20
184.57462741862091
 40
0.25
 50
90
 51
180
  0
LINE
  8
_0-2_製品
  6
CONTINUOUS
 62
    2
 10
264.984896103116
 20
185.62462741862072
 11
252.58489610311591
 21
185.62462741862072
  0
LINE
  8
_0-2_製品
  6
CONTINUOUS
 62
    2
 10
264.39143010311568
 20
184.82462741862091
 11
252.63489610311609
 21
184.82462741862091
  0
LINE
  8
_0-2_製品
  6
CONTINUOUS
 62
    2
 10
257.702633103116
 20
170.34322741862081
 11
256.77622910311572
 21
170.34322741862081
  0
LINE
  8
_0-2_製品
  6
CONTINUOUS
 62
    2
 10
265.19143010311586
 20
183.2246274186206
 11
257.69982210311611
 21
170.33839041862092
  0
LINE
  8
_0-2_製品
  6
CONTINUOUS
 62
    2
 10
264.38489610311609
 20
183.2246274186206
 11
256.77622910311572
 21
170.34322741862081
  0
LINE
  8
_0-2_製品
  6
CONTINUOUS
 62
    2
 10
254.88489610311609
 20
183.2246274186206
 11
264.38489610311609
 21
183.2246274186206
  0
LINE
  8
_0-2_製品
  6
CONTINUOUS
 62
    2
 10
264.39143010311568
 20
183.2246274186206
 11
264.39143010311568
 21
184.82462741862091
  0
LINE
  8
_0-2_製品
  6
CONTINUOUS
 62
    2
 10
265.19143010311586
 20
185.4246274186209
 11
265.19143010311586
 21
183.2246274186206
  0
ARC
  8
_0-2_製品
  6
CONTINUOUS
 62
    2
 10
254.88489610311609
 20
182.32462741862091
 40
2.5
 50
90
 51
181.97958000001128
  0
ARC
  8
_0-2_製品
  6
CONTINUOUS
 62
    2
 10
254.88489610311609
 20
182.32462741862091
 40
0.9
 50
90
 51
180
  0
ENDSEC
  0
EOF
