  0
SECTION
  2
HEADER
  9
$ACADVER
  1
AC1009
  9
$INSBASE
 10
0
 20
0
 30
0
  9
$EXTMIN
 10
0
 20
0
  9
$EXTMAX
 10
420
 20
297
  9
$LIMMIN
 10
0
 20
0
  9
$LIMMAX
 10
420
 20
297
  9
$LTSCALE
 40
1
  0
ENDSEC
  0
SECTION
  2
TABLES
  0
TABLE
  2
LTYPE
 70
     9
  0
LTYPE
  2
CONTINUOUS
 70
    64
  3
実線
 72
    65
 73
     0
 40
0.0
  0
LTYPE
  2
DASHED1
 70
    64
  3
--  --  --  --  --  --  --  --  
 72
    65
 73
     2
 40
2.5
 49
1.25
 49
-1.25
  0
LTYPE
  2
DASHED2
 70
    64
  3
----    ----    ----    ----    
 72
    65
 73
     2
 40
5.0
 49
2.5
 49
-2.5
  0
LTYPE
  2
DASHED3
 70
    64
  3
------  ------  ------  ------  
 72
    65
 73
     2
 40
5.0
 49
3.75
 49
-1.25
  0
LTYPE
  2
CENTER1
 70
    64
  3
----- - ----- - ----- - ----- - 
 72
    65
 73
     4
 40
10.0
 49
6.25
 49
-1.25
 49
1.25
 49
-1.25
  0
LTYPE
  2
CENTER2
 70
    64
  3
----------  --  ----------  --  
 72
    65
 73
     4
 40
20.0
 49
12.5
 49
-2.5
 49
2.5
 49
-2.5
  0
LTYPE
  2
PHANTOM1
 70
    64
  3
--- - - --- - - --- - - --- - - 
 72
    65
 73
     6
 40
10.0
 49
3.25
 49
-1.25
 49
1.25
 49
-1.25
 49
1.25
 49
-1.25
  0
LTYPE
  2
PHANTOM2
 70
    64
  3
--------  -  -  --------  -  -  
 72
    65
 73
     6
 40
20.0
 49
10.0
 49
-2.5
 49
1.25
 49
-2.5
 49
1.25
 49
-2.5
  0
LTYPE
  2
DOT
 70
    64
  3
-   -   -   -   -   -   -   -   
 72
    65
 73
     2
 40
2.5
 49
0.625
 49
-1.875
  0
LTYPE
  2
DUMMY
 70
    64
  3
ダミー
 72
    65
 73
     0
 40
0.0
  0
LTYPE
  2
RAND1
 70
    64
  3
ランダム線1
 72
    65
 73
     4
 40
10.0
 49
1.0
 49
-2.0
 49
3.0
 49
-4.0
  0
LTYPE
  2
RAND2
 70
    64
  3
ランダム線2
 72
    65
 73
     4
 40
14.0
 49
2.0
 49
-3.0
 49
4.0
 49
-5.0
  0
LTYPE
  2
RAND3
 70
    64
  3
ランダム線3
 72
    65
 73
     4
 40
18.0
 49
3.0
 49
-4.0
 49
5.0
 49
-6.0
  0
LTYPE
  2
RAND4
 70
    64
  3
ランダム線4
 72
    65
 73
     4
 40
22.0
 49
4.0
 49
-5.0
 49
6.0
 49
-7.0
  0
LTYPE
  2
RAND5
 70
    64
  3
ランダム線5
 72
    65
 73
     4
 40
26.0
 49
5.0
 49
-6.0
 49
7.0
 49
-8.0
  0
LTYPE
  2
LONG1
 70
    64
  3
----------  --  ----------  --  
 72
    65
 73
     4
 40
40.0
 49
32.5
 49
-2.5
 49
2.5
 49
-2.5
  0
LTYPE
  2
LONG2
 70
    64
  3
--------  -  -  --------  -  -  
 72
    65
 73
     6
 40
40.0
 49
30.0
 49
-2.5
 49
1.25
 49
-2.5
 49
1.25
 49
-2.5
  0
LTYPE
  2
LONG3
 70
    64
  3
+++++++++++++++..+++++++++++++++
 72
    65
 73
     2
 40
40.0
 49
37.5
 49
-2.5
  0
LTYPE
  2
LONG4
 70
    64
  3
+++++++++++++++..+++++++++++++++
 72
    65
 73
     2
 40
80.0
 49
75.0
 49
-5.0
  0
LTYPE
  2
LONG5
 70
    64
  3
----------  --  ----------  --  
 72
    65
 73
     4
 40
60.0
 49
37.5
 49
-7.5
 49
7.5
 49
-7.5
  0
LTYPE
  2
dashed
 70
   64
  3
-------   -------------   ------
 72
   65
 73
    2
 40
7.5
 49
6
 49
-1.5
  0
LTYPE
  2
dashed_spaced
 70
   64
  3
----        --------        ----
 72
   65
 73
    2
 40
12
 49
6
 49
-6
  0
LTYPE
  2
long_dashed_dotted
 70
   64
  3
------------- --- --------------
 72
   65
 73
    4
 40
15.25
 49
12
 49
-1.5
 49
0.25
 49
-1.5
  0
LTYPE
  2
long_dashed_double-dotted
 70
   64
  3
----------- --- --- ------------
 72
   65
 73
    6
 40
17
 49
12
 49
-1.5
 49
0.25
 49
-1.5
 49
0.25
 49
-1.5
  0
LTYPE
  2
long_dashed_triplicate-dotted
 70
   64
  3
--------- --- --- --- ----------
 72
   65
 73
    8
 40
18.75
 49
12
 49
-1.5
 49
0.25
 49
-1.5
 49
0.25
 49
-1.5
 49
0.25
 49
-1.5
  0
LTYPE
  2
dotted
 70
   64
  3
   -       -       -       -    
 72
   65
 73
    2
 40
1.75
 49
0.25
 49
-1.5
  0
LTYPE
  2
chain
 70
   64
  3
-------------- -- --------------
 72
   65
 73
    4
 40
18.5
 49
12
 49
-1.5
 49
3.5
 49
-1.5
  0
LTYPE
  2
chain_double_dash
 70
   64
  3
------------ -- -- -------------
 72
   65
 73
    6
 40
23.5
 49
12
 49
-1.5
 49
3.5
 49
-1.5
 49
3.5
 49
-1.5
  0
LTYPE
  2
dashed_dotted
 70
   64
  3
-----------     -     ----------
 72
   65
 73
    4
 40
9.25
 49
6
 49
-1.5
 49
0.25
 49
-1.5
  0
LTYPE
  2
double-dashed_dotted
 70
   64
  3
------   -----------   -   -----
 72
   65
 73
    6
 40
16.75
 49
6
 49
-1.5
 49
6
 49
-1.5
 49
0.25
 49
-1.5
  0
LTYPE
  2
dashed_double-dotted
 70
   64
  3
---------    -    -    ---------
 72
   65
 73
    6
 40
11
 49
6
 49
-1.5
 49
0.25
 49
-1.5
 49
0.25
 49
-1.5
  0
LTYPE
  2
double-dashed_double-dotted
 70
   64
  3
-----   ---------   -   -   ----
 72
   65
 73
    8
 40
18.5
 49
6
 49
-1.5
 49
6
 49
-1.5
 49
0.25
 49
-1.5
 49
0.25
 49
-1.5
  0
LTYPE
  2
dashed_triplicate-dotted
 70
   64
  3
-------    -    -    -    ------
 72
   65
 73
    8
 40
12.75
 49
6
 49
-1.5
 49
0.25
 49
-1.5
 49
0.25
 49
-1.5
 49
0.25
 49
-1.5
  0
LTYPE
  2
double-dashed_triplicate-dotted
 70
   64
  3
-----  ---------  -  -  -  -----
 72
   65
 73
   10
 40
20.25
 49
6
 49
-1.5
 49
6
 49
-1.5
 49
0.25
 49
-1.5
 49
0.25
 49
-1.5
 49
0.25
 49
-1.5
  0
LTYPE
  2
undefined
 70
   64
  3
--------------------------------
 72
   65
 73
    0
 40
0
  0
LTYPE
  2
PLINE2
 70
   64
  3
------     -----------     -----
 72
   65
 73
    2
 40
3
 49
2.1000000000000001
 49
-0.9
  0
LTYPE
  2
PLINE3
 70
   64
  3
------------   ---   -----------
 72
   65
 73
    4
 40
10
 49
7
 49
-1
 49
1
 49
-1
  0
LTYPE
  2
PLINE4
 70
   64
  3
---------   ---   ---   --------
 72
   65
 73
    6
 40
10
 49
5
 49
-1
 49
1
 49
-1
 49
1
 49
-1
  0
LTYPE
  2
PLINE5
 70
   64
  3
------     -----------     -----
 72
   65
 73
    2
 40
5
 49
3.5
 49
-1.5
  0
LTYPE
  2
PLINE6
 70
   64
  3
------------   ---   -----------
 72
   65
 73
    4
 40
15
 49
10.5
 49
-1.5
 49
1.5
 49
-1.5
  0
LTYPE
  2
PLINE7
 70
   64
  3
---------   ---   ---   --------
 72
   65
 73
    6
 40
15
 49
7.5
 49
-1.5
 49
1.5
 49
-1.5
 49
1.5
 49
-1.5
  0
LTYPE
  2
PLINE8
 70
   64
  3
------     -----------     -----
 72
   65
 73
    2
 40
7
 49
4.9000000000000004
 49
-2.1000000000000001
  0
LTYPE
  2
PLINE9
 70
   64
  3
------------   ---   -----------
 72
   65
 73
    4
 40
20
 49
14
 49
-2
 49
2
 49
-2
  0
LTYPE
  2
PLINE10
 70
   64
  3
---------   ---   ---   --------
 72
   65
 73
    6
 40
20
 49
10
 49
-2
 49
2
 49
-2
 49
2
 49
-2
  0
LTYPE
  2
PLINE11
 70
   64
  3
------     -----------     -----
 72
   65
 73
    2
 40
9
 49
6.2999999999999989
 49
-2.7000000000000002
  0
LTYPE
  2
PLINE12
 70
   64
  3
------------   ---   -----------
 72
   65
 73
    4
 40
25
 49
17.5
 49
-2.5
 49
2.5
 49
-2.5
  0
LTYPE
  2
PLINE13
 70
   64
  3
---------   ---   ---   --------
 72
   65
 73
    6
 40
25
 49
12.5
 49
-2.5
 49
2.5
 49
-2.5
 49
2.5
 49
-2.5
  0
LTYPE
  2
PLINE14
 70
   64
  3
------     -----------     -----
 72
   65
 73
    2
 40
11
 49
7.7000000000000002
 49
-3.2999999999999989
  0
LTYPE
  2
PLINE15
 70
   64
  3
------------   ---   -----------
 72
   65
 73
    4
 40
30
 49
21
 49
-3
 49
3
 49
-3
  0
LTYPE
  2
PLINE16
 70
   64
  3
---------   ---   ---   --------
 72
   65
 73
    6
 40
30
 49
15
 49
-3
 49
3
 49
-3
 49
3
 49
-3
  0
ENDTAB
  0
TABLE
  2
STYLE
  5
3
100
AcDbSymbolTable
 70
     1
  0
STYLE
  5
10
100
AcDbSymbolTableRecord
100
AcDbTextStyleTableRecord
  2
STANDARD
 70
     0
 40
0.0
 41
1.0
 50
0.0
 71
     0
 42
0.2
  3
txt
  4
bigfont.shx
  0
STYLE
  5
26
100
AcDbSymbolTableRecord
100
AcDbTextStyleTableRecord
  2
TATEGAKI
 70
    68
 40
0.0
 41
1.0
 50
0.0
 71
     0
 42
1.0
  3
txt
  4
bigfont.shx
  0
ENDTAB
  0
TABLE
  2
LAYER
 70
    2
  0
LAYER
  2
_0-2_製品
 70
   64
 62
    7
  6
CONTINUOUS
  0
LAYER
  2
ADD_LINE
 70
   64
 62
    7
  6
CONTINUOUS
  0
ENDTAB
  0
ENDSEC
  0
SECTION
  2
BLOCKS
  0
ENDSEC
  0
SECTION
  2
ENTITIES
  0
LINE
  8
_0-2_製品
  6
CONTINUOUS
 62
    2
 10
278.95665128520352
 20
146.92050759116967
 11
239.29531728520362
 21
146.92050759116967
  0
LINE
  8
_0-2_製品
  6
CONTINUOUS
 62
    2
 10
239.29531728520362
 20
127.92050759116967
 11
279.11665128520326
 21
127.92050759116967
  0
LINE
  8
_0-2_製品
  6
CONTINUOUS
 62
    2
 10
204.63306528520349
 20
179.92050759116967
 11
172.63306528520349
 21
179.92050759116967
  0
ARC
  8
_0-2_製品
  6
CONTINUOUS
 62
    2
 10
184.13306528520349
 20
158.92050759116967
 40
3
 50
90
 51
180
  0
LINE
  8
_0-2_製品
  6
CONTINUOUS
 62
    2
 10
181.34106528520311
 20
128.48350759116934
 11
182.41506528520318
 21
128.84150759116946
  0
LINE
  8
_0-2_製品
  6
CONTINUOUS
 62
    2
 10
181.34106528520311
 20
127.98350759116934
 11
182.41506528520318
 21
128.34150759116946
  0
LINE
  8
_0-2_製品
  6
CONTINUOUS
 62
    3
 10
212.63306528520349
 20
185.52050759116955
 11
164.63306528520349
 21
185.52050759116955
  0
LINE
  8
_0-2_製品
  6
CONTINUOUS
 62
    3
 10
210.63306528520349
 20
137.52050759116955
 11
166.63306528520349
 21
137.52050759116955
  0
LINE
  8
_0-2_製品
  6
CONTINUOUS
 62
    3
 10
169.63306528520349
 20
155.22237359116946
 11
169.63306528520349
 21
144.42050759116967
  0
LINE
  8
_0-2_製品
  6
CONTINUOUS
 62
    2
 10
176.13306528520349
 20
142.82050759116936
 11
176.13306528520349
 21
158.92050759116967
  0
LINE
  8
_0-2_製品
  6
CONTINUOUS
 62
    2
 10
181.13306528520349
 20
142.82050759116936
 11
181.13306528520349
 21
158.92050759116967
  0
LINE
  8
_0-2_製品
  6
CONTINUOUS
 62
    2
 10
169.63306528520349
 20
146.92050759116967
 11
140.89531728520353
 21
146.92050759116967
  0
ARC
  8
_0-2_製品
  6
CONTINUOUS
 62
    2
 10
166.13306528520349
 20
145.42050759116967
 40
1
 50
0
 51
90
  0
LINE
  8
_0-2_製品
  6
CONTINUOUS
 62
    2
 10
167.13306528520349
 20
145.42050759116967
 11
167.13306528520349
 21
143.92050759116967
  0
LINE
  8
_0-2_製品
  6
CONTINUOUS
 62
    2
 10
167.13306528520349
 20
143.92050759116967
 11
167.63306528520349
 21
143.92050759116967
  0
LINE
  8
_0-2_製品
  6
CONTINUOUS
 62
    2
 10
167.63306528520349
 20
143.92050759116967
 11
167.63306528520349
 21
145.42050759116967
  0
ARC
  8
_0-2_製品
  6
CONTINUOUS
 62
    2
 10
166.13306528520349
 20
145.42050759116967
 40
1.5
 50
0
 51
90
  0
LINE
  8
_0-2_製品
  6
CONTINUOUS
 62
    3
 10
166.7513342852036
 20
143.82916159116957
 11
166.36168628520323
 21
145.77740059116937
  0
ARC
  8
_0-2_製品
  6
CONTINUOUS
 62
    3
 10
168.13306528520349
 20
144.41300759116956
 40
1.5000189999999991
 50
202.79607299998543
 51
0.2864770000049572
  0
ARC
  8
_0-2_製品
  6
CONTINUOUS
 62
    2
 10
178.63306528520349
 20
142.82050759116936
 40
2.5
 50
180
 51
0
  0
ARC
  8
_0-2_製品
  6
CONTINUOUS
 62
    2
 10
165.13306528520349
 20
145.42050759116967
 40
1
 50
90
 51
180
  0
ARC
  8
_0-2_製品
  6
CONTINUOUS
 62
    2
 10
165.13306528520349
 20
145.42050759116967
 40
1.5
 50
90
 51
180
  0
LINE
  8
_0-2_製品
  6
CONTINUOUS
 62
    2
 10
165.13306528520349
 20
146.42050759116967
 11
166.13306528520349
 21
146.42050759116967
  0
ARC
  8
_0-2_製品
  6
CONTINUOUS
 62
    3
 10
165.57722228520339
 20
145.62050759116946
 40
0.8
 50
11.30993199999727
 51
90
  0
ARC
  8
_0-2_製品
  6
CONTINUOUS
 62
    2
 10
179.65106528520363
 20
128.28850759116966
 40
0.5999999999999999
 50
71.534851000012111
 51
108.46514899998782
  0
ARC
  8
_0-2_製品
  6
CONTINUOUS
 62
    2
 10
179.65106528520363
 20
127.78850759116966
 40
0.5999999999999999
 50
71.534851000012111
 51
108.46514899998782
  0
ARC
  8
_0-2_製品
  6
CONTINUOUS
 62
    2
 10
181.15106528520352
 20
128.55250759116925
 40
0.5999999999999999
 50
251.53485100001211
 51
288.46514899998778
  0
LINE
  8
_0-2_製品
  6
CONTINUOUS
 62
    2
 10
179.84106528520311
 20
128.35750759116956
 11
180.9610652852034
 21
127.98350759116934
  0
ARC
  8
_0-2_製品
  6
CONTINUOUS
 62
    2
 10
181.15106528520352
 20
129.05250759116925
 40
0.5999999999999999
 50
251.53485100001211
 51
288.46514899998778
  0
LINE
  8
_0-2_製品
  6
CONTINUOUS
 62
    2
 10
179.84106528520311
 20
128.85750759116956
 11
180.9610652852034
 21
128.48350759116934
  0
ARC
  8
_0-2_製品
  6
CONTINUOUS
 62
    2
 10
176.65106528520352
 20
128.28850759116966
 40
0.5999999999999999
 50
71.534851000012111
 51
108.46514899998782
  0
ARC
  8
_0-2_製品
  6
CONTINUOUS
 62
    2
 10
176.65106528520352
 20
127.78850759116966
 40
0.5999999999999999
 50
71.534851000012111
 51
108.46514899998782
  0
LINE
  8
_0-2_製品
  6
CONTINUOUS
 62
    2
 10
176.84106528520311
 20
128.85750759116956
 11
177.96106528520352
 21
128.48350759116934
  0
LINE
  8
_0-2_製品
  6
CONTINUOUS
 62
    2
 10
176.84106528520311
 20
128.35750759116956
 11
177.96106528520352
 21
127.98350759116934
  0
ARC
  8
_0-2_製品
  6
CONTINUOUS
 62
    2
 10
178.15106528520352
 20
129.05250759116925
 40
0.5999999999999999
 50
251.53485100001211
 51
288.46514899998778
  0
ARC
  8
_0-2_製品
  6
CONTINUOUS
 62
    2
 10
178.15106528520352
 20
128.55250759116925
 40
0.5999999999999999
 50
251.53485100001211
 51
288.46514899998778
  0
LINE
  8
_0-2_製品
  6
CONTINUOUS
 62
    2
 10
178.34106528520311
 20
128.48350759116934
 11
179.46106528520352
 21
128.85750759116956
  0
LINE
  8
_0-2_製品
  6
CONTINUOUS
 62
    2
 10
178.34106528520311
 20
127.98350759116934
 11
179.46106528520352
 21
128.35750759116956
  0
LINE
  8
_0-2_製品
  6
CONTINUOUS
 62
    2
 10
173.84106528520323
 20
128.35750759116956
 11
174.96106528520352
 21
127.98350759116934
  0
LINE
  8
_0-2_製品
  6
CONTINUOUS
 62
    2
 10
173.84106528520323
 20
128.85750759116956
 11
174.96106528520352
 21
128.48350759116934
  0
ARC
  8
_0-2_製品
  6
CONTINUOUS
 62
    2
 10
175.15106528520363
 20
128.55250759116925
 40
0.5999999999999999
 50
251.53485100001211
 51
288.46514899998778
  0
ARC
  8
_0-2_製品
  6
CONTINUOUS
 62
    2
 10
175.15106528520363
 20
129.05250759116925
 40
0.5999999999999999
 50
251.53485100001211
 51
288.46514899998778
  0
ARC
  8
_0-2_製品
  6
CONTINUOUS
 62
    2
 10
172.15106528520352
 20
128.55250759116925
 40
0.5999999999999999
 50
251.62548799999041
 51
288.46514899998778
  0
ARC
  8
_0-2_製品
  6
CONTINUOUS
 62
    2
 10
172.15106528520352
 20
129.05350759116945
 40
0.5999999999999999
 50
251.56504799999342
 51
288.43493700000397
  0
LINE
  8
_0-2_製品
  6
CONTINUOUS
 62
    2
 10
172.34106528520311
 20
128.48350759116934
 11
173.46106528520352
 21
128.85750759116956
  0
LINE
  8
_0-2_製品
  6
CONTINUOUS
 62
    2
 10
172.34106528520311
 20
127.98350759116934
 11
173.46106528520352
 21
128.35750759116956
  0
ARC
  8
_0-2_製品
  6
CONTINUOUS
 62
    2
 10
173.65106528520352
 20
128.28850759116966
 40
0.5999999999999999
 50
71.534851000012111
 51
108.46514899998782
  0
ARC
  8
_0-2_製品
  6
CONTINUOUS
 62
    2
 10
173.65106528520352
 20
127.78850759116966
 40
0.5999999999999999
 50
71.534851000012111
 51
108.46514899998782
  0
ARC
  8
_0-2_製品
  6
CONTINUOUS
 62
    2
 10
170.69706528520328
 20
127.77250759116956
 40
0.5999999999999999
 50
71.534851000012111
 51
116.52235399999061
  0
LINE
  8
_0-2_製品
  6
CONTINUOUS
 62
    2
 10
169.77706528520332
 20
128.48350759116934
 11
170.42906528520342
 21
128.80950759116936
  0
ARC
  8
_0-2_製品
  6
CONTINUOUS
 62
    2
 10
170.69706528520328
 20
128.27250759116956
 40
0.5999999999999999
 50
71.565047999993382
 51
116.52235399999061
  0
LINE
  8
_0-2_製品
  6
CONTINUOUS
 62
    2
 10
169.77706528520332
 20
127.98350759116934
 11
170.42906528520342
 21
128.30950759116936
  0
ARC
  8
_0-2_製品
  6
CONTINUOUS
 62
    2
 10
169.50906528520329
 20
129.02050759116955
 40
0.5999999999999999
 50
270
 51
296.52236899998258
  0
ARC
  8
_0-2_製品
  6
CONTINUOUS
 62
    2
 10
169.50906528520329
 20
128.52050759116955
 40
0.5999999999999999
 50
270
 51
296.52236899998258
  0
LINE
  8
_0-2_製品
  6
CONTINUOUS
 62
    2
 10
166.63306528520349
 20
128.42050759116967
 11
169.50906528520329
 21
128.42050759116967
  0
LINE
  8
_0-2_製品
  6
CONTINUOUS
 62
    2
 10
166.63306528520349
 20
127.92050759116967
 11
169.57306528520348
 21
127.92050759116967
  0
LINE
  8
_0-2_製品
  6
CONTINUOUS
 62
    2
 10
170.88706528520339
 20
128.34150759116946
 11
171.96206528520321
 21
127.98350759116934
  0
LINE
  8
_0-2_製品
  6
CONTINUOUS
 62
    2
 10
170.88706528520339
 20
128.84250759116975
 11
171.96106528520352
 21
128.48350759116934
  0
LINE
  8
_0-2_製品
  6
CONTINUOUS
 62
    2
 10
175.34106528520311
 20
128.48350759116934
 11
176.4610652852034
 21
128.85750759116956
  0
LINE
  8
_0-2_製品
  6
CONTINUOUS
 62
    2
 10
175.34106528520311
 20
127.98350759116934
 11
176.4610652852034
 21
128.35750759116956
  0
ARC
  8
_0-2_製品
  6
CONTINUOUS
 62
    3
 10
166.63306528520349
 20
139.52050759116955
 40
2
 50
180
 51
270
  0
ARC
  8
_0-2_製品
  6
CONTINUOUS
 62
    2
 10
166.63306528520349
 20
130.92050759116967
 40
3
 50
180
 51
270
  0
ARC
  8
_0-2_製品
  6
CONTINUOUS
 62
    2
 10
166.63306528520349
 20
130.92050759116967
 40
2.5
 50
180
 51
270
  0
LINE
  8
_0-2_製品
  6
CONTINUOUS
 62
    3
 10
164.63306528520349
 20
146.28653359116936
 11
164.63306528520349
 21
139.52050759116955
  0
LINE
  8
_0-2_製品
  6
CONTINUOUS
 62
    2
 10
164.13306528520349
 20
130.92050759116967
 11
164.13306528520349
 21
145.42050759116967
  0
LINE
  8
_0-2_製品
  6
CONTINUOUS
 62
    2
 10
163.63306528520349
 20
130.92050759116967
 11
163.63306528520349
 21
145.42050759116967
  0
LINE
  8
_0-2_製品
  6
CONTINUOUS
 62
    2
 10
140.89531728520353
 20
184.92050759116967
 11
164.63306528520349
 21
184.92050759116967
  0
ARC
  8
_0-2_製品
  6
CONTINUOUS
 62
    2
 10
172.63306528520349
 20
177.92050759116967
 40
2
 50
90
 51
180
  0
LINE
  8
_0-2_製品
  6
CONTINUOUS
 62
    2
 10
173.13306528520349
 20
161.92050759116967
 11
172.63306528520349
 21
161.92050759116967
  0
ARC
  8
_0-2_製品
  6
CONTINUOUS
 62
    3
 10
164.63306528520349
 20
155.22237359116946
 40
5
 50
0
 51
71.732589000003117
  0
ARC
  8
_0-2_製品
  6
CONTINUOUS
 62
    2
 10
172.63306528520349
 20
163.92050759116967
 40
2
 50
180
 51
270
  0
ARC
  8
_0-2_製品
  6
CONTINUOUS
 62
    2
 10
173.13306528520349
 20
158.92050759116967
 40
3
 50
0
 51
90
  0
LINE
  8
_0-2_製品
  6
CONTINUOUS
 62
    2
 10
170.63306528520349
 20
163.92050759116967
 11
170.63306528520349
 21
177.92050759116967
  0
LINE
  8
_0-2_製品
  6
CONTINUOUS
 62
    3
 10
164.63306528520349
 20
185.52050759116955
 11
164.63306528520349
 21
161.92050759116967
  0
ARC
  8
_0-2_製品
  6
CONTINUOUS
 62
    3
 10
166.63306528520349
 20
161.92050759116967
 40
2
 50
180
 51
258.26269900000131
  0
LINE
  8
_0-2_製品
  6
CONTINUOUS
 62
    2
 10
201.13306528520349
 20
142.82050759116936
 11
201.13306528520349
 21
158.92050759116967
  0
LINE
  8
_0-2_製品
  6
CONTINUOUS
 62
    2
 10
196.13306528520349
 20
142.82050759116936
 11
196.13306528520349
 21
158.92050759116967
  0
LINE
  8
_0-2_製品
  6
CONTINUOUS
 62
    3
 10
207.63306528520349
 20
155.22237359116946
 11
207.63306528520349
 21
144.42050759116967
  0
LINE
  8
_0-2_製品
  6
PLINE3
 62
    2
 10
188.63306528520349
 20
189.07050759116936
 11
188.63306528520349
 21
107.92050759116967
  0
LINE
  8
_0-2_製品
  6
CONTINUOUS
 62
    2
 10
207.63306528520349
 20
146.92050759116967
 11
230.56970228520333
 21
146.92050759116967
  0
ARC
  8
_0-2_製品
  6
CONTINUOUS
 62
    2
 10
212.13306528520349
 20
145.42050759116967
 40
1
 50
0
 51
90
  0
LINE
  8
_0-2_製品
  6
CONTINUOUS
 62
    2
 10
212.13306528520349
 20
146.42050759116967
 11
211.13306528520349
 21
146.42050759116967
  0
LINE
  8
_0-2_製品
  6
CONTINUOUS
 62
    2
 10
210.13306528520349
 20
145.42050759116967
 11
210.13306528520349
 21
143.92050759116967
  0
LINE
  8
_0-2_製品
  6
CONTINUOUS
 62
    2
 10
210.13306528520349
 20
143.92050759116967
 11
209.63306528520349
 21
143.92050759116967
  0
LINE
  8
_0-2_製品
  6
CONTINUOUS
 62
    2
 10
209.63306528520349
 20
143.92050759116967
 11
209.63306528520349
 21
145.42050759116967
  0
ARC
  8
_0-2_製品
  6
CONTINUOUS
 62
    2
 10
211.13306528520349
 20
145.42050759116967
 40
1
 50
90
 51
180
  0
ARC
  8
_0-2_製品
  6
CONTINUOUS
 62
    2
 10
211.13306528520349
 20
145.42050759116967
 40
1.5
 50
90
 51
180
  0
ARC
  8
_0-2_製品
  6
CONTINUOUS
 62
    3
 10
211.68890828520313
 20
145.62050759116946
 40
0.8
 50
90
 51
168.6900680000027
  0
LINE
  8
_0-2_製品
  6
CONTINUOUS
 62
    3
 10
210.51479628520349
 20
143.82916159116957
 11
210.90444428520328
 21
145.77740059116937
  0
ARC
  8
_0-2_製品
  6
CONTINUOUS
 62
    2
 10
212.13306528520349
 20
145.42050759116967
 40
1.5
 50
0
 51
90
  0
ARC
  8
_0-2_製品
  6
CONTINUOUS
 62
    3
 10
210.63306528520349
 20
139.52050759116955
 40
2
 50
270
 51
0
  0
ARC
  8
_0-2_製品
  6
CONTINUOUS
 62
    2
 10
210.63306528520349
 20
130.92050759116967
 40
3
 50
270
 51
0
  0
ARC
  8
_0-2_製品
  6
CONTINUOUS
 62
    2
 10
210.63306528520349
 20
130.92050759116967
 40
2.5
 50
270
 51
0
  0
LINE
  8
_0-2_製品
  6
CONTINUOUS
 62
    3
 10
212.63306528520349
 20
139.52050759116955
 11
212.63306528520349
 21
146.38875359116955
  0
LINE
  8
_0-2_製品
  6
CONTINUOUS
 62
    2
 10
213.13306528520349
 20
130.92050759116967
 11
213.13306528520349
 21
145.42050759116967
  0
LINE
  8
_0-2_製品
  6
CONTINUOUS
 62
    2
 10
213.63306528520349
 20
130.92050759116967
 11
213.63306528520349
 21
145.42050759116967
  0
ARC
  8
_0-2_製品
  6
CONTINUOUS
 62
    2
 10
198.63306528520349
 20
142.82050759116936
 40
2.5
 50
180
 51
0
  0
ARC
  8
_0-2_製品
  6
CONTINUOUS
 62
    2
 10
206.56906528520318
 20
127.77250759116956
 40
0.5999999999999999
 50
63.477641999995569
 51
108.46514899998782
  0
ARC
  8
_0-2_製品
  6
CONTINUOUS
 62
    2
 10
206.56906528520318
 20
128.27250759116956
 40
0.5999999999999999
 50
63.477641999995569
 51
108.4349520000066
  0
LINE
  8
_0-2_製品
  6
CONTINUOUS
 62
    2
 10
207.4890652852032
 20
128.48350759116934
 11
206.83706528520321
 21
128.80950759116936
  0
LINE
  8
_0-2_製品
  6
CONTINUOUS
 62
    2
 10
207.4890652852032
 20
127.98350759116934
 11
206.83706528520321
 21
128.30950759116936
  0
ARC
  8
_0-2_製品
  6
CONTINUOUS
 62
    2
 10
207.75706528520328
 20
129.02050759116955
 40
0.5999999999999999
 50
243.47764600000929
 51
270
  0
ARC
  8
_0-2_製品
  6
CONTINUOUS
 62
    2
 10
207.75706528520328
 20
128.52050759116955
 40
0.5999999999999999
 50
243.47764600000929
 51
270
  0
ARC
  8
_0-2_製品
  6
CONTINUOUS
 62
    2
 10
205.11506528520351
 20
128.55250759116925
 40
0.5999999999999999
 50
251.53485100001211
 51
288.37451200000959
  0
ARC
  8
_0-2_製品
  6
CONTINUOUS
 62
    2
 10
205.11506528520351
 20
129.05350759116945
 40
0.5999999999999999
 50
251.56504799999342
 51
288.43493700000397
  0
ARC
  8
_0-2_製品
  6
CONTINUOUS
 62
    2
 10
203.6150652852034
 20
128.28850759116966
 40
0.5999999999999999
 50
71.534851000012111
 51
108.46514899998782
  0
ARC
  8
_0-2_製品
  6
CONTINUOUS
 62
    2
 10
203.6150652852034
 20
127.78850759116966
 40
0.5999999999999999
 50
71.534851000012111
 51
108.46514899998782
  0
LINE
  8
_0-2_製品
  6
CONTINUOUS
 62
    2
 10
204.9250652852034
 20
128.48350759116934
 11
203.80506528520351
 21
128.85750759116956
  0
LINE
  8
_0-2_製品
  6
CONTINUOUS
 62
    2
 10
204.9250652852034
 20
127.98350759116934
 11
203.80506528520351
 21
128.35750759116956
  0
LINE
  8
_0-2_製品
  6
CONTINUOUS
 62
    2
 10
206.37906528520358
 20
128.34150759116946
 11
205.30406528520342
 21
127.98350759116934
  0
LINE
  8
_0-2_製品
  6
CONTINUOUS
 62
    2
 10
206.37906528520358
 20
128.84250759116975
 11
205.30506528520351
 21
128.48350759116934
  0
ARC
  8
_0-2_製品
  6
CONTINUOUS
 62
    2
 10
200.61506528520351
 20
128.28850759116966
 40
0.5999999999999999
 50
71.534851000012111
 51
108.46514899998782
  0
ARC
  8
_0-2_製品
  6
CONTINUOUS
 62
    2
 10
200.61506528520351
 20
127.78850759116966
 40
0.5999999999999999
 50
71.534851000012111
 51
108.46514899998782
  0
LINE
  8
_0-2_製品
  6
CONTINUOUS
 62
    2
 10
201.9250652852034
 20
128.48350759116934
 11
200.80506528520351
 21
128.85750759116956
  0
LINE
  8
_0-2_製品
  6
CONTINUOUS
 62
    2
 10
201.9250652852034
 20
127.98350759116934
 11
200.80506528520351
 21
128.35750759116956
  0
ARC
  8
_0-2_製品
  6
CONTINUOUS
 62
    2
 10
202.11506528520351
 20
128.55250759116925
 40
0.5999999999999999
 50
251.53485100001211
 51
288.46514899998778
  0
ARC
  8
_0-2_製品
  6
CONTINUOUS
 62
    2
 10
202.11506528520351
 20
129.05250759116925
 40
0.5999999999999999
 50
251.53485100001211
 51
288.46514899998778
  0
ARC
  8
_0-2_製品
  6
CONTINUOUS
 62
    2
 10
199.1150652852034
 20
129.05250759116925
 40
0.5999999999999999
 50
251.53485100001211
 51
288.46514899998778
  0
ARC
  8
_0-2_製品
  6
CONTINUOUS
 62
    2
 10
199.1150652852034
 20
128.55250759116925
 40
0.5999999999999999
 50
251.53485100001211
 51
288.46514899998778
  0
LINE
  8
_0-2_製品
  6
CONTINUOUS
 62
    2
 10
198.9250652852034
 20
128.48350759116934
 11
197.80506528520363
 21
128.85750759116956
  0
LINE
  8
_0-2_製品
  6
CONTINUOUS
 62
    2
 10
198.9250652852034
 20
127.98350759116934
 11
197.80506528520363
 21
128.35750759116956
  0
LINE
  8
_0-2_製品
  6
CONTINUOUS
 62
    2
 10
200.4250652852034
 20
128.85750759116956
 11
199.30506528520351
 21
128.48350759116934
  0
LINE
  8
_0-2_製品
  6
CONTINUOUS
 62
    2
 10
200.4250652852034
 20
128.35750759116956
 11
199.30506528520351
 21
127.98350759116934
  0
LINE
  8
_0-2_製品
  6
CONTINUOUS
 62
    2
 10
203.4250652852034
 20
128.35750759116956
 11
202.30506528520363
 21
127.98350759116934
  0
LINE
  8
_0-2_製品
  6
CONTINUOUS
 62
    2
 10
203.4250652852034
 20
128.85750759116956
 11
202.30506528520363
 21
128.48350759116934
  0
ARC
  8
_0-2_製品
  6
CONTINUOUS
 62
    2
 10
196.11506528520351
 20
128.55250759116925
 40
0.5999999999999999
 50
251.53485100001211
 51
288.46514899998778
  0
ARC
  8
_0-2_製品
  6
CONTINUOUS
 62
    2
 10
196.11506528520351
 20
129.05250759116925
 40
0.5999999999999999
 50
251.53485100001211
 51
288.46514899998778
  0
LINE
  8
_0-2_製品
  6
CONTINUOUS
 62
    2
 10
197.4250652852034
 20
128.35750759116956
 11
196.30506528520351
 21
127.98350759116934
  0
LINE
  8
_0-2_製品
  6
CONTINUOUS
 62
    2
 10
197.4250652852034
 20
128.85750759116956
 11
196.30506528520351
 21
128.48350759116934
  0
ARC
  8
_0-2_製品
  6
CONTINUOUS
 62
    2
 10
194.66106528520328
 20
128.27250759116956
 40
0.5999999999999999
 50
71.534851000012111
 51
116.52235399999061
  0
ARC
  8
_0-2_製品
  6
CONTINUOUS
 62
    2
 10
194.66106528520328
 20
127.77250759116956
 40
0.5999999999999999
 50
71.534851000012111
 51
116.52235399999061
  0
LINE
  8
_0-2_製品
  6
CONTINUOUS
 62
    2
 10
194.39306528520319
 20
128.80950759116936
 11
193.74106528520321
 21
128.48350759116934
  0
ARC
  8
_0-2_製品
  6
CONTINUOUS
 62
    2
 10
193.47306528520323
 20
129.02050759116955
 40
0.5999999999999999
 50
270
 51
296.52236899998258
  0
ARC
  8
_0-2_製品
  6
CONTINUOUS
 62
    2
 10
193.47306528520323
 20
128.52050759116955
 40
0.5999999999999999
 50
270
 51
296.52236899998258
  0
LINE
  8
_0-2_製品
  6
CONTINUOUS
 62
    2
 10
194.39306528520319
 20
128.30950759116936
 11
193.74106528520321
 21
127.98350759116934
  0
LINE
  8
_0-2_製品
  6
CONTINUOUS
 62
    2
 10
195.9250652852034
 20
128.48350759116934
 11
194.85106528520333
 21
128.84150759116946
  0
LINE
  8
_0-2_製品
  6
CONTINUOUS
 62
    2
 10
195.9250652852034
 20
127.98350759116934
 11
194.85106528520333
 21
128.34150759116946
  0
LINE
  8
_0-2_製品
  6
CONTINUOUS
 62
    2
 10
189.50706528520328
 20
128.48350759116934
 11
188.90106528520352
 21
128.78650759116965
  0
LINE
  8
_0-2_製品
  6
CONTINUOUS
 62
    2
 10
189.50706528520328
 20
127.98350759116934
 11
188.90106528520352
 21
128.28650759116965
  0
LINE
  8
_0-2_製品
  6
CONTINUOUS
 62
    2
 10
187.75906528520318
 20
127.98350759116934
 11
188.3650652852034
 21
128.28650759116965
  0
ARC
  8
_0-2_製品
  6
CONTINUOUS
 62
    2
 10
188.63306528520349
 20
128.24950759116945
 40
0.5999999999999999
 50
63.477641999995569
 51
116.52235399999061
  0
ARC
  8
_0-2_製品
  6
CONTINUOUS
 62
    2
 10
188.63306528520349
 20
127.74950759116936
 40
0.5999999999999999
 50
63.477641999995569
 51
116.52235399999061
  0
ARC
  8
_0-2_製品
  6
CONTINUOUS
 62
    2
 10
187.49106528520321
 20
128.52050759116955
 40
0.5999999999999999
 50
270
 51
296.52236899998258
  0
LINE
  8
_0-2_製品
  6
CONTINUOUS
 62
    2
 10
187.75906528520318
 20
128.48350759116934
 11
188.3650652852034
 21
128.78650759116965
  0
ARC
  8
_0-2_製品
  6
CONTINUOUS
 62
    2
 10
187.49106528520321
 20
129.02050759116955
 40
0.5999999999999999
 50
270
 51
296.52236899998258
  0
ARC
  8
_0-2_製品
  6
CONTINUOUS
 62
    2
 10
189.77506528520342
 20
129.02050759116955
 40
0.5999999999999999
 50
243.47764600000929
 51
270
  0
ARC
  8
_0-2_製品
  6
CONTINUOUS
 62
    2
 10
189.77506528520342
 20
128.52050759116955
 40
0.5999999999999999
 50
243.47764600000929
 51
270
  0
LINE
  8
_0-2_製品
  6
CONTINUOUS
 62
    2
 10
193.47306528520323
 20
128.42050759116967
 11
189.77506528520342
 21
128.42050759116967
  0
LINE
  8
_0-2_製品
  6
CONTINUOUS
 62
    2
 10
193.47306528520323
 20
127.92050759116967
 11
189.77506528520342
 21
127.92050759116967
  0
ARC
  8
_0-2_製品
  6
CONTINUOUS
 62
    2
 10
197.61506528520351
 20
128.28850759116966
 40
0.5999999999999999
 50
71.534851000012111
 51
108.46514899998782
  0
ARC
  8
_0-2_製品
  6
CONTINUOUS
 62
    2
 10
197.61506528520351
 20
127.78850759116966
 40
0.5999999999999999
 50
71.534851000012111
 51
108.46514899998782
  0
ARC
  8
_0-2_製品
  6
CONTINUOUS
 62
    2
 10
182.6050652852033
 20
128.27250759116956
 40
0.5999999999999999
 50
63.477641999995569
 51
108.46514899998782
  0
ARC
  8
_0-2_製品
  6
CONTINUOUS
 62
    2
 10
182.6050652852033
 20
127.77250759116956
 40
0.5999999999999999
 50
63.477641999995569
 51
108.46514899998782
  0
LINE
  8
_0-2_製品
  6
CONTINUOUS
 62
    2
 10
182.87306528520332
 20
128.80950759116936
 11
183.52506528520342
 21
128.48350759116934
  0
ARC
  8
_0-2_製品
  6
CONTINUOUS
 62
    2
 10
183.79306528520328
 20
129.02050759116955
 40
0.5999999999999999
 50
243.47764600000929
 51
270
  0
LINE
  8
_0-2_製品
  6
CONTINUOUS
 62
    2
 10
182.87306528520332
 20
128.30950759116936
 11
183.52506528520342
 21
127.98350759116934
  0
ARC
  8
_0-2_製品
  6
CONTINUOUS
 62
    2
 10
183.79306528520328
 20
128.52050759116955
 40
0.5999999999999999
 50
243.47764600000929
 51
270
  0
LINE
  8
_0-2_製品
  6
CONTINUOUS
 62
    2
 10
183.79306528520328
 20
127.92050759116967
 11
187.49106528520321
 21
127.92050759116967
  0
LINE
  8
_0-2_製品
  6
CONTINUOUS
 62
    2
 10
183.79306528520328
 20
128.42050759116967
 11
187.49106528520321
 21
128.42050759116967
  0
ARC
  8
_0-2_製品
  6
CONTINUOUS
 62
    3
 10
209.13306528520349
 20
144.41300759116956
 40
1.5000189999999991
 50
179.71352299999501
 51
337.20392700001452
  0
LINE
  8
_0-2_製品
  6
CONTINUOUS
 62
    2
 10
210.63306528520349
 20
128.42050759116967
 11
207.75706528520328
 21
128.42050759116967
  0
LINE
  8
_0-2_製品
  6
CONTINUOUS
 62
    2
 10
210.63306528520349
 20
127.92050759116967
 11
207.69306528520343
 21
127.92050759116967
  0
LINE
  8
_0-2_製品
  6
CONTINUOUS
 62
    2
 10
230.56970228520333
 20
184.92050759116967
 11
212.63306528520349
 21
184.92050759116967
  0
ARC
  8
_0-2_製品
  6
CONTINUOUS
 62
    3
 10
210.63306528520349
 20
161.92050759116967
 40
2
 50
281.73730099999858
 51
0.0000000000000127
  0
LINE
  8
_0-2_製品
  6
CONTINUOUS
 62
    3
 10
212.63306528520349
 20
185.52050759116955
 11
212.63306528520349
 21
161.92050759116967
  0
ARC
  8
_0-2_製品
  6
CONTINUOUS
 62
    2
 10
204.63306528520349
 20
177.92050759116967
 40
2
 50
0
 51
90
  0
LINE
  8
_0-2_製品
  6
CONTINUOUS
 62
    2
 10
204.13306528520349
 20
161.92050759116967
 11
204.63306528520349
 21
161.92050759116967
  0
ARC
  8
_0-2_製品
  6
CONTINUOUS
 62
    2
 10
204.63306528520349
 20
163.92050759116967
 40
2
 50
270
 51
0
  0
ARC
  8
_0-2_製品
  6
CONTINUOUS
 62
    2
 10
204.13306528520349
 20
158.92050759116967
 40
3
 50
90
 51
180
  0
ARC
  8
_0-2_製品
  6
CONTINUOUS
 62
    2
 10
193.13306528520349
 20
158.92050759116967
 40
3
 50
0
 51
90
  0
LINE
  8
_0-2_製品
  6
CONTINUOUS
 62
    2
 10
184.13306528520349
 20
161.92050759116967
 11
193.13306528520349
 21
161.92050759116967
  0
LINE
  8
_0-2_製品
  6
CONTINUOUS
 62
    2
 10
206.63306528520349
 20
177.92050759116967
 11
206.63306528520349
 21
163.92050759116967
  0
ARC
  8
_0-2_製品
  6
CONTINUOUS
 62
    3
 10
212.63306528520349
 20
155.22237359116946
 40
5
 50
108.26741099999681
 51
180
  0
LINE
  8
_0-2_製品
  6
CONTINUOUS
 62
    2
 10
251.79105528520324
 20
146.92050759116967
 11
251.79105528520324
 21
184.52050759116966
  0
LINE
  8
_0-2_製品
  6
CONTINUOUS
 62
    2
 10
253.59105528520331
 20
149.02050759116955
 11
253.59105528520331
 21
182.82050759116936
  0
LINE
  8
_0-2_製品
  6
CONTINUOUS
 62
    2
 10
252.39105528520361
 20
146.92050759116967
 11
252.39105528520361
 21
184.67050759116967
  0
LINE
  8
_0-2_製品
  6
CONTINUOUS
 62
    2
 10
264.39105528520361
 20
148.12050759116946
 11
264.39105528520361
 21
146.92050759116967
  0
ARC
  8
_0-2_製品
  6
CONTINUOUS
 62
    2
 10
254.49105528520352
 20
149.02050759116955
 40
0.9
 50
180
 51
270
  0
ARC
  8
_0-2_製品
  6
CONTINUOUS
 62
    2
 10
254.39105528520361
 20
148.92050759116967
 40
2
 50
180
 51
270
  0
LINE
  8
_0-2_製品
  6
CONTINUOUS
 62
    2
 10
264.39105528520361
 20
148.12050759116946
 11
254.49105528520352
 21
148.12050759116946
  0
LINE
  8
_0-2_製品
  6
PLINE2
 62
    2
 10
251.79105528520324
 20
137.52050759116955
 11
252.39105528520361
 21
137.52050759116955
  0
LINE
  8
_0-2_製品
  6
PLINE2
 62
    2
 10
251.79105528520324
 20
146.92050759116967
 11
251.79105528520324
 21
137.52050759116955
  0
LINE
  8
_0-2_製品
  6
PLINE2
 62
    2
 10
252.39105528520361
 20
137.52050759116955
 11
252.39105528520361
 21
146.92050759116967
  0
LINE
  8
_0-2_製品
  6
CONTINUOUS
 62
    2
 10
264.39758928520325
 20
183.72050759116937
 11
264.39758928520325
 21
184.92050759116967
  0
LINE
  8
_0-2_製品
  6
CONTINUOUS
 62
    2
 10
264.99105528520352
 20
185.27050759116955
 11
264.99105528520352
 21
183.72050759116937
  0
ARC
  8
_0-2_製品
  6
CONTINUOUS
 62
    2
 10
264.74105528520352
 20
185.27050759116955
 40
0.25
 50
0
 51
90
  0
ARC
  8
_0-2_製品
  6
CONTINUOUS
 62
    2
 10
252.79105528520324
 20
184.52050759116966
 40
1
 50
90
 51
180
  0
ARC
  8
_0-2_製品
  6
CONTINUOUS
 62
    2
 10
252.64105528520361
 20
184.67050759116967
 40
0.25
 50
90
 51
180
  0
LINE
  8
_0-2_製品
  6
CONTINUOUS
 62
    2
 10
252.79105528520324
 20
185.52050759116955
 11
264.74105528520352
 21
185.52050759116955
  0
LINE
  8
_0-2_製品
  6
CONTINUOUS
 62
    2
 10
254.49105528520352
 20
183.72050759116937
 11
264.39105528520361
 21
183.72050759116937
  0
LINE
  8
_0-2_製品
  6
CONTINUOUS
 62
    2
 10
264.39758928520325
 20
184.92050759116967
 11
252.64105528520361
 21
184.92050759116967
  0
LINE
  8
_0-2_製品
  6
CONTINUOUS
 62
    2
 10
257.26971228520335
 20
170.43910759116955
 11
256.55265428520363
 21
170.43910759116955
  0
LINE
  8
_0-2_製品
  6
CONTINUOUS
 62
    2
 10
264.99105528520352
 20
183.72050759116937
 11
257.26971228520335
 21
170.43910759116955
  0
LINE
  8
_0-2_製品
  6
CONTINUOUS
 62
    2
 10
264.39758928520325
 20
183.72050759116937
 11
256.55265428520363
 21
170.43910759116955
  0
ARC
  8
_0-2_製品
  6
CONTINUOUS
 62
    2
 10
254.49105528520352
 20
182.82050759116936
 40
0.9
 50
90
 51
180
  0
ARC
  8
_0-2_製品
  6
CONTINUOUS
 62
    2
 10
254.89105528520361
 20
182.42050759116967
 40
2.5
 50
90
 51
181.97958000001128
  0
ENDSEC
  0
EOF
