  0
SECTION
  2
HEADER
  9
$ACADVER
  1
AC1009
  9
$INSBASE
 10
0
 20
0
 30
0
  9
$EXTMIN
 10
0
 20
0
  9
$EXTMAX
 10
420
 20
297
  9
$LIMMIN
 10
0
 20
0
  9
$LIMMAX
 10
420
 20
297
  9
$LTSCALE
 40
1
  0
ENDSEC
  0
SECTION
  2
TABLES
  0
TABLE
  2
LTYPE
 70
     9
  0
LTYPE
  2
CONTINUOUS
 70
    64
  3
実線
 72
    65
 73
     0
 40
0.0
  0
LTYPE
  2
DASHED1
 70
    64
  3
--  --  --  --  --  --  --  --  
 72
    65
 73
     2
 40
2.5
 49
1.25
 49
-1.25
  0
LTYPE
  2
DASHED2
 70
    64
  3
----    ----    ----    ----    
 72
    65
 73
     2
 40
5.0
 49
2.5
 49
-2.5
  0
LTYPE
  2
DASHED3
 70
    64
  3
------  ------  ------  ------  
 72
    65
 73
     2
 40
5.0
 49
3.75
 49
-1.25
  0
LTYPE
  2
CENTER1
 70
    64
  3
----- - ----- - ----- - ----- - 
 72
    65
 73
     4
 40
10.0
 49
6.25
 49
-1.25
 49
1.25
 49
-1.25
  0
LTYPE
  2
CENTER2
 70
    64
  3
----------  --  ----------  --  
 72
    65
 73
     4
 40
20.0
 49
12.5
 49
-2.5
 49
2.5
 49
-2.5
  0
LTYPE
  2
PHANTOM1
 70
    64
  3
--- - - --- - - --- - - --- - - 
 72
    65
 73
     6
 40
10.0
 49
3.25
 49
-1.25
 49
1.25
 49
-1.25
 49
1.25
 49
-1.25
  0
LTYPE
  2
PHANTOM2
 70
    64
  3
--------  -  -  --------  -  -  
 72
    65
 73
     6
 40
20.0
 49
10.0
 49
-2.5
 49
1.25
 49
-2.5
 49
1.25
 49
-2.5
  0
LTYPE
  2
DOT
 70
    64
  3
-   -   -   -   -   -   -   -   
 72
    65
 73
     2
 40
2.5
 49
0.625
 49
-1.875
  0
LTYPE
  2
DUMMY
 70
    64
  3
ダミー
 72
    65
 73
     0
 40
0.0
  0
LTYPE
  2
RAND1
 70
    64
  3
ランダム線1
 72
    65
 73
     4
 40
10.0
 49
1.0
 49
-2.0
 49
3.0
 49
-4.0
  0
LTYPE
  2
RAND2
 70
    64
  3
ランダム線2
 72
    65
 73
     4
 40
14.0
 49
2.0
 49
-3.0
 49
4.0
 49
-5.0
  0
LTYPE
  2
RAND3
 70
    64
  3
ランダム線3
 72
    65
 73
     4
 40
18.0
 49
3.0
 49
-4.0
 49
5.0
 49
-6.0
  0
LTYPE
  2
RAND4
 70
    64
  3
ランダム線4
 72
    65
 73
     4
 40
22.0
 49
4.0
 49
-5.0
 49
6.0
 49
-7.0
  0
LTYPE
  2
RAND5
 70
    64
  3
ランダム線5
 72
    65
 73
     4
 40
26.0
 49
5.0
 49
-6.0
 49
7.0
 49
-8.0
  0
LTYPE
  2
LONG1
 70
    64
  3
----------  --  ----------  --  
 72
    65
 73
     4
 40
40.0
 49
32.5
 49
-2.5
 49
2.5
 49
-2.5
  0
LTYPE
  2
LONG2
 70
    64
  3
--------  -  -  --------  -  -  
 72
    65
 73
     6
 40
40.0
 49
30.0
 49
-2.5
 49
1.25
 49
-2.5
 49
1.25
 49
-2.5
  0
LTYPE
  2
LONG3
 70
    64
  3
+++++++++++++++..+++++++++++++++
 72
    65
 73
     2
 40
40.0
 49
37.5
 49
-2.5
  0
LTYPE
  2
LONG4
 70
    64
  3
+++++++++++++++..+++++++++++++++
 72
    65
 73
     2
 40
80.0
 49
75.0
 49
-5.0
  0
LTYPE
  2
LONG5
 70
    64
  3
----------  --  ----------  --  
 72
    65
 73
     4
 40
60.0
 49
37.5
 49
-7.5
 49
7.5
 49
-7.5
  0
LTYPE
  2
dashed
 70
   64
  3
-------   -------------   ------
 72
   65
 73
    2
 40
7.5
 49
6
 49
-1.5
  0
LTYPE
  2
dashed_spaced
 70
   64
  3
----        --------        ----
 72
   65
 73
    2
 40
12
 49
6
 49
-6
  0
LTYPE
  2
long_dashed_dotted
 70
   64
  3
------------- --- --------------
 72
   65
 73
    4
 40
15.25
 49
12
 49
-1.5
 49
0.25
 49
-1.5
  0
LTYPE
  2
long_dashed_double-dotted
 70
   64
  3
----------- --- --- ------------
 72
   65
 73
    6
 40
17
 49
12
 49
-1.5
 49
0.25
 49
-1.5
 49
0.25
 49
-1.5
  0
LTYPE
  2
long_dashed_triplicate-dotted
 70
   64
  3
--------- --- --- --- ----------
 72
   65
 73
    8
 40
18.75
 49
12
 49
-1.5
 49
0.25
 49
-1.5
 49
0.25
 49
-1.5
 49
0.25
 49
-1.5
  0
LTYPE
  2
dotted
 70
   64
  3
   -       -       -       -    
 72
   65
 73
    2
 40
1.75
 49
0.25
 49
-1.5
  0
LTYPE
  2
chain
 70
   64
  3
-------------- -- --------------
 72
   65
 73
    4
 40
18.5
 49
12
 49
-1.5
 49
3.5
 49
-1.5
  0
LTYPE
  2
chain_double_dash
 70
   64
  3
------------ -- -- -------------
 72
   65
 73
    6
 40
23.5
 49
12
 49
-1.5
 49
3.5
 49
-1.5
 49
3.5
 49
-1.5
  0
LTYPE
  2
dashed_dotted
 70
   64
  3
-----------     -     ----------
 72
   65
 73
    4
 40
9.25
 49
6
 49
-1.5
 49
0.25
 49
-1.5
  0
LTYPE
  2
double-dashed_dotted
 70
   64
  3
------   -----------   -   -----
 72
   65
 73
    6
 40
16.75
 49
6
 49
-1.5
 49
6
 49
-1.5
 49
0.25
 49
-1.5
  0
LTYPE
  2
dashed_double-dotted
 70
   64
  3
---------    -    -    ---------
 72
   65
 73
    6
 40
11
 49
6
 49
-1.5
 49
0.25
 49
-1.5
 49
0.25
 49
-1.5
  0
LTYPE
  2
double-dashed_double-dotted
 70
   64
  3
-----   ---------   -   -   ----
 72
   65
 73
    8
 40
18.5
 49
6
 49
-1.5
 49
6
 49
-1.5
 49
0.25
 49
-1.5
 49
0.25
 49
-1.5
  0
LTYPE
  2
dashed_triplicate-dotted
 70
   64
  3
-------    -    -    -    ------
 72
   65
 73
    8
 40
12.75
 49
6
 49
-1.5
 49
0.25
 49
-1.5
 49
0.25
 49
-1.5
 49
0.25
 49
-1.5
  0
LTYPE
  2
double-dashed_triplicate-dotted
 70
   64
  3
-----  ---------  -  -  -  -----
 72
   65
 73
   10
 40
20.25
 49
6
 49
-1.5
 49
6
 49
-1.5
 49
0.25
 49
-1.5
 49
0.25
 49
-1.5
 49
0.25
 49
-1.5
  0
LTYPE
  2
undefined
 70
   64
  3
--------------------------------
 72
   65
 73
    0
 40
0
  0
LTYPE
  2
PLINE2
 70
   64
  3
------     -----------     -----
 72
   65
 73
    2
 40
3
 49
2.1000000000000001
 49
-0.9
  0
LTYPE
  2
PLINE3
 70
   64
  3
------------   ---   -----------
 72
   65
 73
    4
 40
10
 49
7
 49
-1
 49
1
 49
-1
  0
LTYPE
  2
PLINE4
 70
   64
  3
---------   ---   ---   --------
 72
   65
 73
    6
 40
10
 49
5
 49
-1
 49
1
 49
-1
 49
1
 49
-1
  0
LTYPE
  2
PLINE5
 70
   64
  3
------     -----------     -----
 72
   65
 73
    2
 40
5
 49
3.5
 49
-1.5
  0
LTYPE
  2
PLINE6
 70
   64
  3
------------   ---   -----------
 72
   65
 73
    4
 40
15
 49
10.5
 49
-1.5
 49
1.5
 49
-1.5
  0
LTYPE
  2
PLINE7
 70
   64
  3
---------   ---   ---   --------
 72
   65
 73
    6
 40
15
 49
7.5
 49
-1.5
 49
1.5
 49
-1.5
 49
1.5
 49
-1.5
  0
LTYPE
  2
PLINE8
 70
   64
  3
------     -----------     -----
 72
   65
 73
    2
 40
7
 49
4.9000000000000004
 49
-2.1000000000000001
  0
LTYPE
  2
PLINE9
 70
   64
  3
------------   ---   -----------
 72
   65
 73
    4
 40
20
 49
14
 49
-2
 49
2
 49
-2
  0
LTYPE
  2
PLINE10
 70
   64
  3
---------   ---   ---   --------
 72
   65
 73
    6
 40
20
 49
10
 49
-2
 49
2
 49
-2
 49
2
 49
-2
  0
LTYPE
  2
PLINE11
 70
   64
  3
------     -----------     -----
 72
   65
 73
    2
 40
9
 49
6.2999999999999989
 49
-2.7000000000000002
  0
LTYPE
  2
PLINE12
 70
   64
  3
------------   ---   -----------
 72
   65
 73
    4
 40
25
 49
17.5
 49
-2.5
 49
2.5
 49
-2.5
  0
LTYPE
  2
PLINE13
 70
   64
  3
---------   ---   ---   --------
 72
   65
 73
    6
 40
25
 49
12.5
 49
-2.5
 49
2.5
 49
-2.5
 49
2.5
 49
-2.5
  0
LTYPE
  2
PLINE14
 70
   64
  3
------     -----------     -----
 72
   65
 73
    2
 40
11
 49
7.7000000000000002
 49
-3.2999999999999989
  0
LTYPE
  2
PLINE15
 70
   64
  3
------------   ---   -----------
 72
   65
 73
    4
 40
30
 49
21
 49
-3
 49
3
 49
-3
  0
LTYPE
  2
PLINE16
 70
   64
  3
---------   ---   ---   --------
 72
   65
 73
    6
 40
30
 49
15
 49
-3
 49
3
 49
-3
 49
3
 49
-3
  0
ENDTAB
  0
TABLE
  2
STYLE
  5
3
100
AcDbSymbolTable
 70
     1
  0
STYLE
  5
10
100
AcDbSymbolTableRecord
100
AcDbTextStyleTableRecord
  2
STANDARD
 70
     0
 40
0.0
 41
1.0
 50
0.0
 71
     0
 42
0.2
  3
txt
  4
bigfont.shx
  0
STYLE
  5
26
100
AcDbSymbolTableRecord
100
AcDbTextStyleTableRecord
  2
TATEGAKI
 70
    68
 40
0.0
 41
1.0
 50
0.0
 71
     0
 42
1.0
  3
txt
  4
bigfont.shx
  0
ENDTAB
  0
TABLE
  2
LAYER
 70
    2
  0
LAYER
  2
_0-2_製品
 70
   64
 62
    7
  6
CONTINUOUS
  0
LAYER
  2
ADD_LINE
 70
   64
 62
    7
  6
CONTINUOUS
  0
ENDTAB
  0
ENDSEC
  0
SECTION
  2
BLOCKS
  0
ENDSEC
  0
SECTION
  2
ENTITIES
  0
LINE
  8
_0-2_製品
  6
CONTINUOUS
 62
    2
 10
278.95632460717627
 20
146.91898668518829
 11
239.29498960717598
 21
146.91898668518829
  0
LINE
  8
_0-2_製品
  6
CONTINUOUS
 62
    2
 10
239.29498960717598
 20
121.91898668518829
 11
279.11632460717607
 21
121.91898668518829
  0
ARC
  8
_0-2_製品
  6
CONTINUOUS
 62
    2
 10
181.13273860717629
 20
177.91898668518829
 40
2
 50
90
 51
180
  0
ARC
  8
_0-2_製品
  6
CONTINUOUS
 62
    2
 10
181.13273860717629
 20
163.9189866851884
 40
2
 50
180
 51
270
  0
LINE
  8
_0-2_製品
  6
CONTINUOUS
 62
    3
 10
201.13273860717629
 20
185.7189866851885
 11
176.13273860717618
 21
185.7189866851885
  0
ARC
  8
_0-2_製品
  6
CONTINUOUS
 62
    3
 10
180.63273860717618
 20
144.41148668518818
 40
1.5000189999999991
 50
202.79607299998543
 51
0.2864770000049572
  0
ARC
  8
_0-2_製品
  6
CONTINUOUS
 62
    2
 10
178.63273860717618
 20
145.41898668518829
 40
1
 50
0
 51
90
  0
ARC
  8
_0-2_製品
  6
CONTINUOUS
 62
    2
 10
178.63273860717618
 20
145.41898668518829
 40
1.5
 50
0
 51
90
  0
LINE
  8
_0-2_製品
  6
CONTINUOUS
 62
    3
 10
179.13273860717629
 20
136.81898668518841
 11
198.13273860717629
 21
136.81898668518841
  0
ARC
  8
_0-2_製品
  6
CONTINUOUS
 62
    3
 10
177.54832760717596
 20
155.35145768518839
 40
4.6047640000000003
 50
354.61093899998974
 51
82.708678000007268
  0
LINE
  8
_0-2_製品
  6
CONTINUOUS
 62
    2
 10
140.89498960717589
 20
146.91898668518829
 11
182.13273860717629
 21
146.91898668518829
  0
LINE
  8
_0-2_製品
  6
CONTINUOUS
 62
    2
 10
177.63273860717629
 20
122.41898668518829
 11
180.00873860717599
 21
122.41898668518829
  0
LINE
  8
_0-2_製品
  6
CONTINUOUS
 62
    2
 10
177.63273860717629
 20
121.91898668518829
 11
180.05673860717621
 21
121.91898668518829
  0
ARC
  8
_0-2_製品
  6
CONTINUOUS
 62
    3
 10
178.0768956071762
 20
145.6189866851881
 40
0.8
 50
11.30993199999727
 51
90
  0
LINE
  8
_0-2_製品
  6
CONTINUOUS
 62
    2
 10
177.63273860717629
 20
146.41898668518829
 11
178.63273860717618
 21
146.41898668518829
  0
ARC
  8
_0-2_製品
  6
CONTINUOUS
 62
    3
 10
179.13273860717629
 20
138.81898668518841
 40
2
 50
180
 51
270
  0
LINE
  8
_0-2_製品
  6
CONTINUOUS
 62
    3
 10
177.13273860717629
 20
146.2850116851881
 11
177.13273860717629
 21
138.81898668518841
  0
ARC
  8
_0-2_製品
  6
CONTINUOUS
 62
    2
 10
177.63273860717629
 20
145.41898668518829
 40
1
 50
90
 51
180
  0
ARC
  8
_0-2_製品
  6
CONTINUOUS
 62
    2
 10
177.63273860717629
 20
145.41898668518829
 40
1.5
 50
90
 51
180
  0
LINE
  8
_0-2_製品
  6
CONTINUOUS
 62
    3
 10
179.25100760717589
 20
143.82764068518819
 11
178.86135960717598
 21
145.77587968518839
  0
ARC
  8
_0-2_製品
  6
CONTINUOUS
 62
    2
 10
177.63273860717629
 20
123.41898668518829
 40
1
 50
180
 51
270
  0
ARC
  8
_0-2_製品
  6
CONTINUOUS
 62
    2
 10
177.63273860717629
 20
123.41898668518829
 40
1.5
 50
180
 51
270
  0
LINE
  8
_0-2_製品
  6
CONTINUOUS
 62
    2
 10
176.63273860717618
 20
123.41898668518829
 11
176.63273860717618
 21
145.41898668518829
  0
LINE
  8
_0-2_製品
  6
CONTINUOUS
 62
    2
 10
176.13273860717618
 20
123.41898668518829
 11
176.13273860717618
 21
145.41898668518829
  0
LINE
  8
_0-2_製品
  6
CONTINUOUS
 62
    2
 10
140.89498960717589
 20
184.9189866851884
 11
176.13273860717618
 21
184.9189866851884
  0
LINE
  8
_0-2_製品
  6
CONTINUOUS
 62
    3
 10
176.13273860717618
 20
185.7189866851885
 11
176.13273860717618
 21
161.9189866851884
  0
LINE
  8
_0-2_製品
  6
CONTINUOUS
 62
    2
 10
179.13273860717629
 20
163.9189866851884
 11
179.13273860717629
 21
177.91898668518829
  0
ARC
  8
_0-2_製品
  6
CONTINUOUS
 62
    3
 10
178.13273860717629
 20
161.9189866851884
 40
2
 50
180
 51
270
  0
LINE
  8
_0-2_製品
  6
CONTINUOUS
 62
    2
 10
191.63273860717629
 20
141.02490468518849
 11
191.63273860717629
 21
158.91898668518829
  0
LINE
  8
_0-2_製品
  6
CONTINUOUS
 62
    3
 10
195.13273860717618
 20
144.5409206851881
 11
195.13273860717618
 21
154.91898668518829
  0
LINE
  8
_0-2_製品
  6
CONTINUOUS
 62
    3
 10
182.13273860717629
 20
144.40398668518839
 11
182.13273860717629
 21
154.91898668518829
  0
LINE
  8
_0-2_製品
  6
CONTINUOUS
 62
    2
 10
185.63273860717629
 20
141.02490468518849
 11
185.63273860717629
 21
158.91898668518829
  0
LINE
  8
_0-2_製品
  6
PLINE3
 62
    2
 10
188.63273860717618
 20
189.06898668518841
 11
188.63273860717618
 21
107.91898668518829
  0
LINE
  8
_0-2_製品
  6
CONTINUOUS
 62
    2
 10
195.13273860717618
 20
146.91898668518829
 11
230.56937560717608
 21
146.91898668518829
  0
LINE
  8
_0-2_製品
  6
CONTINUOUS
 62
    2
 10
199.63273860717629
 20
146.41898668518829
 11
198.63273860717629
 21
146.41898668518829
  0
ARC
  8
_0-2_製品
  6
CONTINUOUS
 62
    3
 10
199.18858160717588
 20
145.6189866851881
 40
0.8
 50
90
 51
168.6900680000027
  0
LINE
  8
_0-2_製品
  6
CONTINUOUS
 62
    2
 10
197.63273860717629
 20
145.41898668518829
 11
197.63273860717629
 21
143.91898668518829
  0
LINE
  8
_0-2_製品
  6
CONTINUOUS
 62
    2
 10
197.63273860717629
 20
143.91898668518829
 11
197.13273860717618
 21
143.91898668518829
  0
LINE
  8
_0-2_製品
  6
CONTINUOUS
 62
    2
 10
197.13273860717618
 20
143.91898668518829
 11
197.13273860717618
 21
145.41898668518829
  0
ARC
  8
_0-2_製品
  6
CONTINUOUS
 62
    3
 10
196.63273860717629
 20
144.41148668518818
 40
1.5000189999999991
 50
179.71352299999501
 51
337.20392700001452
  0
ARC
  8
_0-2_製品
  6
CONTINUOUS
 62
    3
 10
198.13273860717629
 20
138.81898668518841
 40
2
 50
270
 51
0
  0
LINE
  8
_0-2_製品
  6
CONTINUOUS
 62
    3
 10
200.13273860717629
 20
138.81898668518841
 11
200.13273860717629
 21
146.3872326851882
  0
ARC
  8
_0-2_製品
  6
CONTINUOUS
 62
    2
 10
199.63273860717629
 20
145.41898668518829
 40
1
 50
0
 51
90
  0
ARC
  8
_0-2_製品
  6
CONTINUOUS
 62
    2
 10
198.63273860717629
 20
145.41898668518829
 40
1
 50
90
 51
180
  0
ARC
  8
_0-2_製品
  6
CONTINUOUS
 62
    2
 10
198.63273860717629
 20
145.41898668518829
 40
1.5
 50
90
 51
180
  0
ARC
  8
_0-2_製品
  6
CONTINUOUS
 62
    2
 10
199.63273860717629
 20
145.41898668518829
 40
1.5
 50
0
 51
90
  0
LINE
  8
_0-2_製品
  6
CONTINUOUS
 62
    3
 10
198.01446960717618
 20
143.82764068518819
 11
198.40411660717621
 21
145.77587968518839
  0
LINE
  8
_0-2_製品
  6
CONTINUOUS
 62
    2
 10
179.63273860717629
 20
145.41898668518829
 11
179.63273860717629
 21
143.91898668518829
  0
LINE
  8
_0-2_製品
  6
CONTINUOUS
 62
    2
 10
179.63273860717629
 20
143.91898668518829
 11
180.13273860717629
 21
143.91898668518829
  0
LINE
  8
_0-2_製品
  6
CONTINUOUS
 62
    2
 10
180.13273860717629
 20
143.91898668518829
 11
180.13273860717629
 21
145.41898668518829
  0
ARC
  8
_0-2_製品
  6
CONTINUOUS
 62
    2
 10
188.63273860717618
 20
141.02490468518849
 40
3
 50
180
 51
0
  0
ARC
  8
_0-2_製品
  6
CONTINUOUS
 62
    2
 10
199.63273860717629
 20
123.41898668518829
 40
1.5
 50
270
 51
0
  0
ARC
  8
_0-2_製品
  6
CONTINUOUS
 62
    2
 10
199.63273860717629
 20
123.41898668518829
 40
1
 50
270
 51
0
  0
LINE
  8
_0-2_製品
  6
CONTINUOUS
 62
    2
 10
196.37273860717607
 20
122.8079866851885
 11
197.02473860717612
 21
122.48198668518839
  0
ARC
  8
_0-2_製品
  6
CONTINUOUS
 62
    2
 10
197.29273860717609
 20
123.0189866851882
 40
0.5999999999999999
 50
243.47764600000929
 51
270
  0
LINE
  8
_0-2_製品
  6
CONTINUOUS
 62
    2
 10
196.37273860717607
 20
122.3079866851885
 11
197.02473860717612
 21
121.98198668518839
  0
ARC
  8
_0-2_製品
  6
CONTINUOUS
 62
    2
 10
197.29273860717609
 20
122.51898668518828
 40
0.5999999999999999
 50
243.47764600000929
 51
270
  0
LINE
  8
_0-2_製品
  6
CONTINUOUS
 62
    2
 10
197.25573860717628
 20
122.41898668518829
 11
199.63273860717629
 21
122.41898668518829
  0
LINE
  8
_0-2_製品
  6
CONTINUOUS
 62
    2
 10
197.19673860717609
 20
121.91898668518829
 11
199.63273860717629
 21
121.91898668518829
  0
ARC
  8
_0-2_製品
  6
CONTINUOUS
 62
    2
 10
194.65073860717627
 20
122.55098668518841
 40
0.5999999999999999
 50
251.53485100001211
 51
288.46514899998778
  0
ARC
  8
_0-2_製品
  6
CONTINUOUS
 62
    2
 10
194.65073860717627
 20
123.05098668518841
 40
0.5999999999999999
 50
251.53485100001211
 51
288.46514899998778
  0
LINE
  8
_0-2_製品
  6
CONTINUOUS
 62
    2
 10
194.84073860717587
 20
122.48198668518839
 11
195.91473860717588
 21
122.83998668518819
  0
LINE
  8
_0-2_製品
  6
CONTINUOUS
 62
    2
 10
194.84073860717587
 20
121.98198668518839
 11
195.91473860717588
 21
122.33998668518808
  0
ARC
  8
_0-2_製品
  6
CONTINUOUS
 62
    2
 10
191.65073860717627
 20
123.05098668518841
 40
0.5999999999999999
 50
251.53485100001211
 51
288.46514899998778
  0
ARC
  8
_0-2_製品
  6
CONTINUOUS
 62
    2
 10
191.65073860717627
 20
122.55098668518841
 40
0.5999999999999999
 50
251.53485100001211
 51
288.46514899998778
  0
LINE
  8
_0-2_製品
  6
CONTINUOUS
 62
    2
 10
191.84073860717587
 20
122.48198668518839
 11
192.96073860717621
 21
122.85598668518818
  0
ARC
  8
_0-2_製品
  6
CONTINUOUS
 62
    2
 10
193.15073860717627
 20
122.28698668518828
 40
0.5999999999999999
 50
71.534851000012111
 51
108.46514899998782
  0
LINE
  8
_0-2_製品
  6
CONTINUOUS
 62
    2
 10
191.84073860717587
 20
121.98198668518839
 11
192.96073860717621
 21
122.35598668518818
  0
ARC
  8
_0-2_製品
  6
CONTINUOUS
 62
    2
 10
193.15073860717627
 20
121.78698668518828
 40
0.5999999999999999
 50
71.534851000012111
 51
108.46514899998782
  0
LINE
  8
_0-2_製品
  6
CONTINUOUS
 62
    2
 10
193.34073860717587
 20
122.35598668518818
 11
194.46073860717621
 21
121.98198668518839
  0
LINE
  8
_0-2_製品
  6
CONTINUOUS
 62
    2
 10
193.34073860717587
 20
122.85598668518818
 11
194.46073860717621
 21
122.48198668518839
  0
ARC
  8
_0-2_製品
  6
CONTINUOUS
 62
    2
 10
196.10473860717599
 20
122.27098668518821
 40
0.5999999999999999
 50
63.477641999995569
 51
108.46514899998782
  0
ARC
  8
_0-2_製品
  6
CONTINUOUS
 62
    2
 10
196.10473860717599
 20
121.77098668518821
 40
0.5999999999999999
 50
63.477641999995569
 51
108.46514899998782
  0
ARC
  8
_0-2_製品
  6
CONTINUOUS
 62
    2
 10
188.65073860717627
 20
122.55098668518841
 40
0.5999999999999999
 50
251.53485100001211
 51
288.46514899998778
  0
LINE
  8
_0-2_製品
  6
CONTINUOUS
 62
    2
 10
188.84073860717587
 20
121.98198668518839
 11
189.96073860717627
 21
122.35598668518818
  0
ARC
  8
_0-2_製品
  6
CONTINUOUS
 62
    2
 10
190.15073860717627
 20
122.28698668518828
 40
0.5999999999999999
 50
71.534851000012111
 51
108.46514899998782
  0
LINE
  8
_0-2_製品
  6
CONTINUOUS
 62
    2
 10
188.84073860717587
 20
122.48198668518839
 11
189.96073860717627
 21
122.85598668518818
  0
ARC
  8
_0-2_製品
  6
CONTINUOUS
 62
    2
 10
188.65073860717627
 20
123.0519866851881
 40
0.5999999999999999
 50
251.56504799999342
 51
288.43493700000397
  0
ARC
  8
_0-2_製品
  6
CONTINUOUS
 62
    2
 10
190.15073860717627
 20
121.78698668518828
 40
0.5999999999999999
 50
71.534851000012111
 51
108.46514899998782
  0
LINE
  8
_0-2_製品
  6
CONTINUOUS
 62
    2
 10
185.84073860717587
 20
122.48198668518839
 11
186.96073860717621
 21
122.85598668518818
  0
ARC
  8
_0-2_製品
  6
CONTINUOUS
 62
    2
 10
187.15073860717627
 20
122.28698668518828
 40
0.5999999999999999
 50
71.534851000012111
 51
108.46514899998782
  0
LINE
  8
_0-2_製品
  6
CONTINUOUS
 62
    2
 10
185.84073860717587
 20
121.98198668518839
 11
186.96073860717621
 21
122.35598668518818
  0
ARC
  8
_0-2_製品
  6
CONTINUOUS
 62
    2
 10
187.15073860717627
 20
121.78698668518828
 40
0.5999999999999999
 50
71.534851000012111
 51
108.46514899998782
  0
LINE
  8
_0-2_製品
  6
CONTINUOUS
 62
    2
 10
187.34073860717587
 20
122.85598668518818
 11
188.46073860717621
 21
122.48198668518839
  0
LINE
  8
_0-2_製品
  6
CONTINUOUS
 62
    2
 10
187.34073860717587
 20
122.35598668518818
 11
188.46073860717621
 21
121.98198668518839
  0
ARC
  8
_0-2_製品
  6
CONTINUOUS
 62
    2
 10
184.15073860717627
 20
122.28698668518828
 40
0.5999999999999999
 50
71.534851000012111
 51
108.46514899998782
  0
ARC
  8
_0-2_製品
  6
CONTINUOUS
 62
    2
 10
184.15073860717627
 20
121.78698668518828
 40
0.5999999999999999
 50
71.534851000012111
 51
108.46514899998782
  0
LINE
  8
_0-2_製品
  6
CONTINUOUS
 62
    2
 10
184.34073860717587
 20
122.35598668518818
 11
185.46073860717627
 21
121.98198668518839
  0
LINE
  8
_0-2_製品
  6
CONTINUOUS
 62
    2
 10
184.34073860717587
 20
122.85598668518818
 11
185.46073860717627
 21
122.48198668518839
  0
ARC
  8
_0-2_製品
  6
CONTINUOUS
 62
    2
 10
181.19673860717609
 20
121.77098668518821
 40
0.5999999999999999
 50
71.534851000012111
 51
116.52235399999061
  0
ARC
  8
_0-2_製品
  6
CONTINUOUS
 62
    2
 10
181.19673860717609
 20
122.27098668518821
 40
0.5999999999999999
 50
71.565047999993382
 51
116.52235399999061
  0
LINE
  8
_0-2_製品
  6
CONTINUOUS
 62
    2
 10
181.3867386071762
 20
122.33998668518808
 11
182.46173860717602
 21
121.98198668518839
  0
ARC
  8
_0-2_製品
  6
CONTINUOUS
 62
    2
 10
182.65073860717627
 20
122.55098668518841
 40
0.5999999999999999
 50
251.62548799999041
 51
288.46514899998778
  0
LINE
  8
_0-2_製品
  6
CONTINUOUS
 62
    2
 10
181.3867386071762
 20
122.8409866851884
 11
182.46073860717621
 21
122.48198668518839
  0
ARC
  8
_0-2_製品
  6
CONTINUOUS
 62
    2
 10
182.65073860717627
 20
123.0519866851881
 40
0.5999999999999999
 50
251.56504799999342
 51
288.43493700000397
  0
LINE
  8
_0-2_製品
  6
CONTINUOUS
 62
    2
 10
182.84073860717587
 20
122.48198668518839
 11
183.96073860717621
 21
122.85598668518818
  0
LINE
  8
_0-2_製品
  6
CONTINUOUS
 62
    2
 10
182.84073860717587
 20
121.98198668518839
 11
183.96073860717621
 21
122.35598668518818
  0
ARC
  8
_0-2_製品
  6
CONTINUOUS
 62
    2
 10
185.65073860717627
 20
122.55098668518841
 40
0.5999999999999999
 50
251.53485100001211
 51
288.46514899998778
  0
ARC
  8
_0-2_製品
  6
CONTINUOUS
 62
    2
 10
185.65073860717627
 20
123.05098668518841
 40
0.5999999999999999
 50
251.53485100001211
 51
288.46514899998778
  0
ARC
  8
_0-2_製品
  6
CONTINUOUS
 62
    2
 10
180.00873860717599
 20
123.0189866851882
 40
0.5999999999999999
 50
270
 51
296.52236899998258
  0
ARC
  8
_0-2_製品
  6
CONTINUOUS
 62
    2
 10
180.00873860717599
 20
122.51898668518828
 40
0.5999999999999999
 50
270
 51
296.52236899998258
  0
LINE
  8
_0-2_製品
  6
CONTINUOUS
 62
    2
 10
180.27673860717601
 20
122.48198668518839
 11
180.92873860717611
 21
122.8079866851885
  0
LINE
  8
_0-2_製品
  6
CONTINUOUS
 62
    2
 10
180.27673860717601
 20
121.98198668518839
 11
180.92873860717611
 21
122.3079866851885
  0
LINE
  8
_0-2_製品
  6
CONTINUOUS
 62
    2
 10
190.34073860717587
 20
122.85598668518818
 11
191.46073860717621
 21
122.48198668518839
  0
LINE
  8
_0-2_製品
  6
CONTINUOUS
 62
    2
 10
190.34073860717587
 20
122.35598668518818
 11
191.46073860717621
 21
121.98198668518839
  0
LINE
  8
_0-2_製品
  6
CONTINUOUS
 62
    2
 10
200.63273860717629
 20
123.41898668518829
 11
200.63273860717629
 21
145.41898668518829
  0
LINE
  8
_0-2_製品
  6
CONTINUOUS
 62
    2
 10
201.13273860717629
 20
123.41898668518829
 11
201.13273860717629
 21
145.41898668518829
  0
LINE
  8
_0-2_製品
  6
CONTINUOUS
 62
    2
 10
230.56937560717608
 20
184.9189866851884
 11
201.13273860717629
 21
184.9189866851884
  0
ARC
  8
_0-2_製品
  6
CONTINUOUS
 62
    2
 10
196.13273860717629
 20
177.91898668518829
 40
2
 50
0
 51
90
  0
LINE
  8
_0-2_製品
  6
CONTINUOUS
 62
    2
 10
196.13273860717629
 20
161.9189866851884
 11
194.63273860717629
 21
161.9189866851884
  0
ARC
  8
_0-2_製品
  6
CONTINUOUS
 62
    2
 10
196.13273860717629
 20
163.9189866851884
 40
2
 50
270
 51
0
  0
LINE
  8
_0-2_製品
  6
CONTINUOUS
 62
    3
 10
201.13273860717629
 20
185.7189866851885
 11
201.13273860717629
 21
161.9189866851884
  0
LINE
  8
_0-2_製品
  6
CONTINUOUS
 62
    2
 10
198.13273860717629
 20
177.91898668518829
 11
198.13273860717629
 21
163.9189866851884
  0
LINE
  8
_0-2_製品
  6
CONTINUOUS
 62
    2
 10
181.13273860717629
 20
161.9189866851884
 11
182.94383460717609
 21
161.9189866851884
  0
LINE
  8
_0-2_製品
  6
CONTINUOUS
 62
    2
 10
181.13273860717629
 20
179.91898668518829
 11
196.13273860717629
 21
179.91898668518829
  0
ARC
  8
_0-2_製品
  6
CONTINUOUS
 62
    2
 10
194.63273860717629
 20
158.91898668518829
 40
3
 50
90
 51
180
  0
ARC
  8
_0-2_製品
  6
CONTINUOUS
 62
    3
 10
199.13273860717618
 20
161.9189866851884
 40
2
 50
270
 51
0
  0
ARC
  8
_0-2_製品
  6
CONTINUOUS
 62
    3
 10
199.71714960717611
 20
155.35145768518839
 40
4.6047640000000003
 50
97.291321999992775
 51
185.3890610000102
  0
ARC
  8
_0-2_製品
  6
CONTINUOUS
 62
    2
 10
182.63273860717618
 20
158.91898668518829
 40
3
 50
0
 51
90
  0
LINE
  8
_0-2_製品
  6
CONTINUOUS
 62
    2
 10
251.59072760717629
 20
184.7189866851885
 11
251.59072760717629
 21
146.91898668518829
  0
LINE
  8
_0-2_製品
  6
CONTINUOUS
 62
    2
 10
252.39072760717602
 20
146.91898668518829
 11
252.39072760717602
 21
184.6689866851884
  0
ARC
  8
_0-2_製品
  6
CONTINUOUS
 62
    2
 10
254.89072760717602
 20
149.41898668518829
 40
0.9
 50
180
 51
270
  0
LINE
  8
_0-2_製品
  6
CONTINUOUS
 62
    2
 10
264.39072760717602
 20
146.91898668518829
 11
264.39072760717602
 21
148.51898668518828
  0
LINE
  8
_0-2_製品
  6
CONTINUOUS
 62
    2
 10
254.89072760717602
 20
148.51898668518828
 11
264.39072760717602
 21
148.51898668518828
  0
ARC
  8
_0-2_製品
  6
CONTINUOUS
 62
    2
 10
254.3907276071759
 20
148.91898668518829
 40
2
 50
180
 51
270
  0
LINE
  8
_0-2_製品
  6
PLINE2
 62
    2
 10
251.59072760717629
 20
136.81898668518841
 11
252.39072760717602
 21
136.81898668518841
  0
LINE
  8
_0-2_製品
  6
PLINE2
 62
    2
 10
251.59072760717629
 20
146.91898668518829
 11
251.59072760717629
 21
136.81898668518841
  0
LINE
  8
_0-2_製品
  6
PLINE2
 62
    2
 10
252.39072760717602
 20
136.81898668518841
 11
252.39072760717602
 21
146.91898668518829
  0
LINE
  8
_0-2_製品
  6
CONTINUOUS
 62
    2
 10
264.397262607176
 20
183.31898668518841
 11
264.397262607176
 21
184.9189866851884
  0
LINE
  8
_0-2_製品
  6
CONTINUOUS
 62
    2
 10
265.19726260717619
 20
185.5189866851882
 11
265.19726260717619
 21
183.31898668518841
  0
ARC
  8
_0-2_製品
  6
CONTINUOUS
 62
    2
 10
264.94726260717607
 20
185.4689866851885
 40
0.25
 50
0
 51
90
  0
LINE
  8
_0-2_製品
  6
CONTINUOUS
 62
    2
 10
254.89072760717602
 20
183.31898668518841
 11
264.39072760717602
 21
183.31898668518841
  0
LINE
  8
_0-2_製品
  6
CONTINUOUS
 62
    2
 10
257.70846560717621
 20
170.43758568518828
 11
256.78206060717599
 21
170.43758568518828
  0
LINE
  8
_0-2_製品
  6
CONTINUOUS
 62
    2
 10
265.19726260717619
 20
183.31898668518841
 11
257.70565360717598
 21
170.4327496851883
  0
LINE
  8
_0-2_製品
  6
CONTINUOUS
 62
    2
 10
264.39072760717602
 20
183.31898668518841
 11
256.78206060717599
 21
170.43758568518828
  0
ARC
  8
_0-2_製品
  6
CONTINUOUS
 62
    2
 10
252.64072760717602
 20
184.6689866851884
 40
0.25
 50
90
 51
180
  0
ARC
  8
_0-2_製品
  6
CONTINUOUS
 62
    2
 10
252.59072760717618
 20
184.7189866851885
 40
1
 50
90
 51
180
  0
LINE
  8
_0-2_製品
  6
CONTINUOUS
 62
    2
 10
253.99072760717587
 20
182.41898668518829
 11
253.99072760717587
 21
149.41898668518829
  0
LINE
  8
_0-2_製品
  6
CONTINUOUS
 62
    2
 10
264.99072760717587
 20
185.7189866851885
 11
252.59072760717618
 21
185.7189866851885
  0
LINE
  8
_0-2_製品
  6
CONTINUOUS
 62
    2
 10
264.397262607176
 20
184.9189866851884
 11
252.64072760717602
 21
184.9189866851884
  0
ARC
  8
_0-2_製品
  6
CONTINUOUS
 62
    2
 10
254.89072760717602
 20
182.41898668518829
 40
2.5
 50
90
 51
181.97958000001128
  0
ARC
  8
_0-2_製品
  6
CONTINUOUS
 62
    2
 10
254.89072760717602
 20
182.41898668518829
 40
0.9
 50
90
 51
180
  0
ENDSEC
  0
EOF
