  0
SECTION
  2
HEADER
  9
$ACADVER
  1
AC1009
  9
$INSBASE
 10
0
 20
0
 30
0
  9
$EXTMIN
 10
0
 20
0
  9
$EXTMAX
 10
420
 20
297
  9
$LIMMIN
 10
0
 20
0
  9
$LIMMAX
 10
420
 20
297
  9
$LTSCALE
 40
1
  0
ENDSEC
  0
SECTION
  2
TABLES
  0
TABLE
  2
LTYPE
 70
     9
  0
LTYPE
  2
CONTINUOUS
 70
    64
  3
実線
 72
    65
 73
     0
 40
0.0
  0
LTYPE
  2
DASHED1
 70
    64
  3
--  --  --  --  --  --  --  --  
 72
    65
 73
     2
 40
2.5
 49
1.25
 49
-1.25
  0
LTYPE
  2
DASHED2
 70
    64
  3
----    ----    ----    ----    
 72
    65
 73
     2
 40
5.0
 49
2.5
 49
-2.5
  0
LTYPE
  2
DASHED3
 70
    64
  3
------  ------  ------  ------  
 72
    65
 73
     2
 40
5.0
 49
3.75
 49
-1.25
  0
LTYPE
  2
CENTER1
 70
    64
  3
----- - ----- - ----- - ----- - 
 72
    65
 73
     4
 40
10.0
 49
6.25
 49
-1.25
 49
1.25
 49
-1.25
  0
LTYPE
  2
CENTER2
 70
    64
  3
----------  --  ----------  --  
 72
    65
 73
     4
 40
20.0
 49
12.5
 49
-2.5
 49
2.5
 49
-2.5
  0
LTYPE
  2
PHANTOM1
 70
    64
  3
--- - - --- - - --- - - --- - - 
 72
    65
 73
     6
 40
10.0
 49
3.25
 49
-1.25
 49
1.25
 49
-1.25
 49
1.25
 49
-1.25
  0
LTYPE
  2
PHANTOM2
 70
    64
  3
--------  -  -  --------  -  -  
 72
    65
 73
     6
 40
20.0
 49
10.0
 49
-2.5
 49
1.25
 49
-2.5
 49
1.25
 49
-2.5
  0
LTYPE
  2
DOT
 70
    64
  3
-   -   -   -   -   -   -   -   
 72
    65
 73
     2
 40
2.5
 49
0.625
 49
-1.875
  0
LTYPE
  2
DUMMY
 70
    64
  3
ダミー
 72
    65
 73
     0
 40
0.0
  0
LTYPE
  2
RAND1
 70
    64
  3
ランダム線1
 72
    65
 73
     4
 40
10.0
 49
1.0
 49
-2.0
 49
3.0
 49
-4.0
  0
LTYPE
  2
RAND2
 70
    64
  3
ランダム線2
 72
    65
 73
     4
 40
14.0
 49
2.0
 49
-3.0
 49
4.0
 49
-5.0
  0
LTYPE
  2
RAND3
 70
    64
  3
ランダム線3
 72
    65
 73
     4
 40
18.0
 49
3.0
 49
-4.0
 49
5.0
 49
-6.0
  0
LTYPE
  2
RAND4
 70
    64
  3
ランダム線4
 72
    65
 73
     4
 40
22.0
 49
4.0
 49
-5.0
 49
6.0
 49
-7.0
  0
LTYPE
  2
RAND5
 70
    64
  3
ランダム線5
 72
    65
 73
     4
 40
26.0
 49
5.0
 49
-6.0
 49
7.0
 49
-8.0
  0
LTYPE
  2
LONG1
 70
    64
  3
----------  --  ----------  --  
 72
    65
 73
     4
 40
40.0
 49
32.5
 49
-2.5
 49
2.5
 49
-2.5
  0
LTYPE
  2
LONG2
 70
    64
  3
--------  -  -  --------  -  -  
 72
    65
 73
     6
 40
40.0
 49
30.0
 49
-2.5
 49
1.25
 49
-2.5
 49
1.25
 49
-2.5
  0
LTYPE
  2
LONG3
 70
    64
  3
+++++++++++++++..+++++++++++++++
 72
    65
 73
     2
 40
40.0
 49
37.5
 49
-2.5
  0
LTYPE
  2
LONG4
 70
    64
  3
+++++++++++++++..+++++++++++++++
 72
    65
 73
     2
 40
80.0
 49
75.0
 49
-5.0
  0
LTYPE
  2
LONG5
 70
    64
  3
----------  --  ----------  --  
 72
    65
 73
     4
 40
60.0
 49
37.5
 49
-7.5
 49
7.5
 49
-7.5
  0
LTYPE
  2
dashed
 70
   64
  3
-------   -------------   ------
 72
   65
 73
    2
 40
7.5
 49
6
 49
-1.5
  0
LTYPE
  2
dashed_spaced
 70
   64
  3
----        --------        ----
 72
   65
 73
    2
 40
12
 49
6
 49
-6
  0
LTYPE
  2
long_dashed_dotted
 70
   64
  3
------------- --- --------------
 72
   65
 73
    4
 40
15.25
 49
12
 49
-1.5
 49
0.25
 49
-1.5
  0
LTYPE
  2
long_dashed_double-dotted
 70
   64
  3
----------- --- --- ------------
 72
   65
 73
    6
 40
17
 49
12
 49
-1.5
 49
0.25
 49
-1.5
 49
0.25
 49
-1.5
  0
LTYPE
  2
long_dashed_triplicate-dotted
 70
   64
  3
--------- --- --- --- ----------
 72
   65
 73
    8
 40
18.75
 49
12
 49
-1.5
 49
0.25
 49
-1.5
 49
0.25
 49
-1.5
 49
0.25
 49
-1.5
  0
LTYPE
  2
dotted
 70
   64
  3
   -       -       -       -    
 72
   65
 73
    2
 40
1.75
 49
0.25
 49
-1.5
  0
LTYPE
  2
chain
 70
   64
  3
-------------- -- --------------
 72
   65
 73
    4
 40
18.5
 49
12
 49
-1.5
 49
3.5
 49
-1.5
  0
LTYPE
  2
chain_double_dash
 70
   64
  3
------------ -- -- -------------
 72
   65
 73
    6
 40
23.5
 49
12
 49
-1.5
 49
3.5
 49
-1.5
 49
3.5
 49
-1.5
  0
LTYPE
  2
dashed_dotted
 70
   64
  3
-----------     -     ----------
 72
   65
 73
    4
 40
9.25
 49
6
 49
-1.5
 49
0.25
 49
-1.5
  0
LTYPE
  2
double-dashed_dotted
 70
   64
  3
------   -----------   -   -----
 72
   65
 73
    6
 40
16.75
 49
6
 49
-1.5
 49
6
 49
-1.5
 49
0.25
 49
-1.5
  0
LTYPE
  2
dashed_double-dotted
 70
   64
  3
---------    -    -    ---------
 72
   65
 73
    6
 40
11
 49
6
 49
-1.5
 49
0.25
 49
-1.5
 49
0.25
 49
-1.5
  0
LTYPE
  2
double-dashed_double-dotted
 70
   64
  3
-----   ---------   -   -   ----
 72
   65
 73
    8
 40
18.5
 49
6
 49
-1.5
 49
6
 49
-1.5
 49
0.25
 49
-1.5
 49
0.25
 49
-1.5
  0
LTYPE
  2
dashed_triplicate-dotted
 70
   64
  3
-------    -    -    -    ------
 72
   65
 73
    8
 40
12.75
 49
6
 49
-1.5
 49
0.25
 49
-1.5
 49
0.25
 49
-1.5
 49
0.25
 49
-1.5
  0
LTYPE
  2
double-dashed_triplicate-dotted
 70
   64
  3
-----  ---------  -  -  -  -----
 72
   65
 73
   10
 40
20.25
 49
6
 49
-1.5
 49
6
 49
-1.5
 49
0.25
 49
-1.5
 49
0.25
 49
-1.5
 49
0.25
 49
-1.5
  0
LTYPE
  2
undefined
 70
   64
  3
--------------------------------
 72
   65
 73
    0
 40
0
  0
LTYPE
  2
PLINE2
 70
   64
  3
------     -----------     -----
 72
   65
 73
    2
 40
3
 49
2.1000000000000001
 49
-0.9
  0
LTYPE
  2
PLINE3
 70
   64
  3
------------   ---   -----------
 72
   65
 73
    4
 40
10
 49
7
 49
-1
 49
1
 49
-1
  0
LTYPE
  2
PLINE4
 70
   64
  3
---------   ---   ---   --------
 72
   65
 73
    6
 40
10
 49
5
 49
-1
 49
1
 49
-1
 49
1
 49
-1
  0
LTYPE
  2
PLINE5
 70
   64
  3
------     -----------     -----
 72
   65
 73
    2
 40
5
 49
3.5
 49
-1.5
  0
LTYPE
  2
PLINE6
 70
   64
  3
------------   ---   -----------
 72
   65
 73
    4
 40
15
 49
10.5
 49
-1.5
 49
1.5
 49
-1.5
  0
LTYPE
  2
PLINE7
 70
   64
  3
---------   ---   ---   --------
 72
   65
 73
    6
 40
15
 49
7.5
 49
-1.5
 49
1.5
 49
-1.5
 49
1.5
 49
-1.5
  0
LTYPE
  2
PLINE8
 70
   64
  3
------     -----------     -----
 72
   65
 73
    2
 40
7
 49
4.9000000000000004
 49
-2.1000000000000001
  0
LTYPE
  2
PLINE9
 70
   64
  3
------------   ---   -----------
 72
   65
 73
    4
 40
20
 49
14
 49
-2
 49
2
 49
-2
  0
LTYPE
  2
PLINE10
 70
   64
  3
---------   ---   ---   --------
 72
   65
 73
    6
 40
20
 49
10
 49
-2
 49
2
 49
-2
 49
2
 49
-2
  0
LTYPE
  2
PLINE11
 70
   64
  3
------     -----------     -----
 72
   65
 73
    2
 40
9
 49
6.2999999999999989
 49
-2.7000000000000002
  0
LTYPE
  2
PLINE12
 70
   64
  3
------------   ---   -----------
 72
   65
 73
    4
 40
25
 49
17.5
 49
-2.5
 49
2.5
 49
-2.5
  0
LTYPE
  2
PLINE13
 70
   64
  3
---------   ---   ---   --------
 72
   65
 73
    6
 40
25
 49
12.5
 49
-2.5
 49
2.5
 49
-2.5
 49
2.5
 49
-2.5
  0
LTYPE
  2
PLINE14
 70
   64
  3
------     -----------     -----
 72
   65
 73
    2
 40
11
 49
7.7000000000000002
 49
-3.2999999999999989
  0
LTYPE
  2
PLINE15
 70
   64
  3
------------   ---   -----------
 72
   65
 73
    4
 40
30
 49
21
 49
-3
 49
3
 49
-3
  0
LTYPE
  2
PLINE16
 70
   64
  3
---------   ---   ---   --------
 72
   65
 73
    6
 40
30
 49
15
 49
-3
 49
3
 49
-3
 49
3
 49
-3
  0
ENDTAB
  0
TABLE
  2
STYLE
  5
3
100
AcDbSymbolTable
 70
     1
  0
STYLE
  5
10
100
AcDbSymbolTableRecord
100
AcDbTextStyleTableRecord
  2
STANDARD
 70
     0
 40
0.0
 41
1.0
 50
0.0
 71
     0
 42
0.2
  3
txt
  4
bigfont.shx
  0
STYLE
  5
26
100
AcDbSymbolTableRecord
100
AcDbTextStyleTableRecord
  2
TATEGAKI
 70
    68
 40
0.0
 41
1.0
 50
0.0
 71
     0
 42
1.0
  3
txt
  4
bigfont.shx
  0
ENDTAB
  0
TABLE
  2
LAYER
 70
    2
  0
LAYER
  2
_0-2_製品
 70
   64
 62
    7
  6
CONTINUOUS
  0
LAYER
  2
ADD_LINE
 70
   64
 62
    7
  6
CONTINUOUS
  0
ENDTAB
  0
ENDSEC
  0
SECTION
  2
BLOCKS
  0
ENDSEC
  0
SECTION
  2
ENTITIES
  0
LINE
  8
_0-2_製品
  6
CONTINUOUS
 62
    2
 10
278.95066699999984
 20
146.92499999999995
 11
239.28933299999994
 21
146.92499999999995
  0
LINE
  8
_0-2_製品
  6
CONTINUOUS
 62
    2
 10
239.28933299999994
 20
127.79225700000035
 11
279.11066700000015
 21
127.79225700000035
  0
ARC
  8
_0-2_製品
  6
CONTINUOUS
 62
    2
 10
181.1270820000002
 20
177.92499999999995
 40
2
 50
90
 51
180
  0
LINE
  8
_0-2_製品
  6
CONTINUOUS
 62
    3
 10
201.12708200000014
 20
185.52500000000035
 11
176.1270820000002
 21
185.52500000000035
  0
ARC
  8
_0-2_製品
  6
CONTINUOUS
 62
    2
 10
181.1270820000002
 20
163.92499999999995
 40
2
 50
180
 51
270
  0
ARC
  8
_0-2_製品
  6
CONTINUOUS
 62
    3
 10
177.54267099999993
 20
155.35747100000006
 40
4.6047640000000003
 50
354.61093899998963
 51
82.708678000007225
  0
ARC
  8
_0-2_製品
  6
CONTINUOUS
 62
    2
 10
178.6270820000002
 20
145.42499999999995
 40
1.5
 50
0
 51
90
  0
ARC
  8
_0-2_製品
  6
CONTINUOUS
 62
    3
 10
180.6270820000002
 20
144.41750000000025
 40
1.5000189999999991
 50
202.79607299998511
 51
0.2864770000049572
  0
LINE
  8
_0-2_製品
  6
CONTINUOUS
 62
    2
 10
180.1270820000002
 20
127.92499999999995
 11
181.1270820000002
 21
128.42499999999995
  0
LINE
  8
_0-2_製品
  6
CONTINUOUS
 62
    2
 10
180.1270820000002
 20
128.42499999999995
 11
181.1270820000002
 21
128.92499999999995
  0
LINE
  8
_0-2_製品
  6
CONTINUOUS
 62
    3
 10
179.1270820000002
 20
136.82500000000005
 11
198.1270820000002
 21
136.82500000000005
  0
LINE
  8
_0-2_製品
  6
CONTINUOUS
 62
    2
 10
140.88933299999988
 20
146.92499999999995
 11
182.1270820000002
 21
146.92499999999995
  0
ARC
  8
_0-2_製品
  6
CONTINUOUS
 62
    2
 10
178.6270820000002
 20
145.42499999999995
 40
1
 50
0
 51
90
  0
ARC
  8
_0-2_製品
  6
CONTINUOUS
 62
    3
 10
178.07123800000022
 20
145.62500000000026
 40
0.8
 50
11.309931999997589
 51
90
  0
ARC
  8
_0-2_製品
  6
CONTINUOUS
 62
    2
 10
177.6270820000002
 20
145.42499999999995
 40
1
 50
90
 51
180
  0
ARC
  8
_0-2_製品
  6
CONTINUOUS
 62
    2
 10
177.6270820000002
 20
145.42499999999995
 40
1.5
 50
90
 51
180
  0
LINE
  8
_0-2_製品
  6
CONTINUOUS
 62
    2
 10
177.6270820000002
 20
146.42499999999995
 11
178.6270820000002
 21
146.42499999999995
  0
LINE
  8
_0-2_製品
  6
CONTINUOUS
 62
    2
 10
179.6270820000002
 20
143.92499999999995
 11
180.1270820000002
 21
143.92499999999995
  0
LINE
  8
_0-2_製品
  6
CONTINUOUS
 62
    3
 10
177.1270820000002
 20
146.29102500000025
 11
177.1270820000002
 21
138.82500000000005
  0
LINE
  8
_0-2_製品
  6
CONTINUOUS
 62
    2
 10
179.6270820000002
 20
145.42499999999995
 11
179.6270820000002
 21
143.92499999999995
  0
LINE
  8
_0-2_製品
  6
CONTINUOUS
 62
    2
 10
180.1270820000002
 20
143.92499999999995
 11
180.1270820000002
 21
145.42499999999995
  0
LINE
  8
_0-2_製品
  6
CONTINUOUS
 62
    3
 10
179.24535100000026
 20
143.83365400000025
 11
178.85570299999995
 21
145.78189300000017
  0
LINE
  8
_0-2_製品
  6
CONTINUOUS
 62
    2
 10
179.1270820000002
 20
128.42499999999995
 11
180.1270820000002
 21
128.42499999999995
  0
LINE
  8
_0-2_製品
  6
CONTINUOUS
 62
    2
 10
179.1270820000002
 20
127.92499999999995
 11
180.1270820000002
 21
127.92499999999995
  0
ARC
  8
_0-2_製品
  6
CONTINUOUS
 62
    2
 10
179.1270820000002
 20
130.92499999999995
 40
2.5
 50
180
 51
270
  0
ARC
  8
_0-2_製品
  6
CONTINUOUS
 62
    2
 10
179.1270820000002
 20
130.92499999999995
 40
3
 50
180
 51
270
  0
LINE
  8
_0-2_製品
  6
CONTINUOUS
 62
    2
 10
176.6270820000002
 20
130.92499999999995
 11
176.6270820000002
 21
145.42499999999995
  0
LINE
  8
_0-2_製品
  6
CONTINUOUS
 62
    2
 10
176.1270820000002
 20
130.92499999999995
 11
176.1270820000002
 21
145.42499999999995
  0
ARC
  8
_0-2_製品
  6
CONTINUOUS
 62
    3
 10
179.1270820000002
 20
138.82500000000005
 40
2
 50
180
 51
270
  0
LINE
  8
_0-2_製品
  6
CONTINUOUS
 62
    2
 10
140.88933299999988
 20
184.92499999999995
 11
176.1270820000002
 21
184.92499999999995
  0
ARC
  8
_0-2_製品
  6
CONTINUOUS
 62
    3
 10
178.1270820000002
 20
161.92499999999995
 40
2
 50
180
 51
270
  0
LINE
  8
_0-2_製品
  6
CONTINUOUS
 62
    3
 10
176.1270820000002
 20
185.52500000000035
 11
176.1270820000002
 21
161.92499999999995
  0
LINE
  8
_0-2_製品
  6
CONTINUOUS
 62
    2
 10
179.1270820000002
 20
163.92499999999995
 11
179.1270820000002
 21
177.92499999999995
  0
LINE
  8
_0-2_製品
  6
CONTINUOUS
 62
    3
 10
195.1270820000002
 20
144.54693400000025
 11
195.1270820000002
 21
154.92499999999995
  0
LINE
  8
_0-2_製品
  6
CONTINUOUS
 62
    3
 10
182.1270820000002
 20
144.41000000000017
 11
182.1270820000002
 21
154.92499999999995
  0
LINE
  8
_0-2_製品
  6
CONTINUOUS
 62
    2
 10
191.6270820000002
 20
141.03091800000016
 11
191.6270820000002
 21
158.92499999999995
  0
LINE
  8
_0-2_製品
  6
CONTINUOUS
 62
    2
 10
185.6270820000002
 20
141.03091800000016
 11
185.6270820000002
 21
158.92499999999995
  0
LINE
  8
_0-2_製品
  6
PLINE3
 62
    2
 10
188.6270820000002
 20
189.07500000000005
 11
188.6270820000002
 21
107.92499999999995
  0
LINE
  8
_0-2_製品
  6
CONTINUOUS
 62
    2
 10
195.1270820000002
 20
146.92499999999995
 11
230.56371899999994
 21
146.92499999999995
  0
ARC
  8
_0-2_製品
  6
CONTINUOUS
 62
    2
 10
199.6270820000002
 20
145.42499999999995
 40
1
 50
0
 51
90
  0
ARC
  8
_0-2_製品
  6
CONTINUOUS
 62
    2
 10
199.6270820000002
 20
145.42499999999995
 40
1.5
 50
0
 51
90
  0
ARC
  8
_0-2_製品
  6
CONTINUOUS
 62
    2
 10
198.6270820000002
 20
145.42499999999995
 40
1
 50
90
 51
180
  0
ARC
  8
_0-2_製品
  6
CONTINUOUS
 62
    2
 10
198.6270820000002
 20
145.42499999999995
 40
1.5
 50
90
 51
180
  0
LINE
  8
_0-2_製品
  6
CONTINUOUS
 62
    2
 10
199.6270820000002
 20
146.42499999999995
 11
198.6270820000002
 21
146.42499999999995
  0
ARC
  8
_0-2_製品
  6
CONTINUOUS
 62
    3
 10
199.1829250000003
 20
145.62500000000026
 40
0.8
 50
90
 51
168.6900680000023
  0
LINE
  8
_0-2_製品
  6
CONTINUOUS
 62
    2
 10
197.6270820000002
 20
143.92499999999995
 11
197.1270820000002
 21
143.92499999999995
  0
LINE
  8
_0-2_製品
  6
CONTINUOUS
 62
    3
 10
200.1270820000002
 20
138.82500000000005
 11
200.1270820000002
 21
146.39324600000035
  0
LINE
  8
_0-2_製品
  6
CONTINUOUS
 62
    2
 10
197.6270820000002
 20
145.42499999999995
 11
197.6270820000002
 21
143.92499999999995
  0
LINE
  8
_0-2_製品
  6
CONTINUOUS
 62
    2
 10
197.1270820000002
 20
143.92499999999995
 11
197.1270820000002
 21
145.42499999999995
  0
LINE
  8
_0-2_製品
  6
CONTINUOUS
 62
    3
 10
198.00881200000026
 20
143.83365400000025
 11
198.39846000000011
 21
145.78189300000017
  0
ARC
  8
_0-2_製品
  6
CONTINUOUS
 62
    3
 10
196.6270820000002
 20
144.41750000000025
 40
1.5000189999999991
 50
179.71352299999501
 51
337.20392700001486
  0
LINE
  8
_0-2_製品
  6
CONTINUOUS
 62
    2
 10
198.1270820000002
 20
128.42499999999995
 11
197.1270820000002
 21
128.42499999999995
  0
LINE
  8
_0-2_製品
  6
CONTINUOUS
 62
    2
 10
198.1270820000002
 20
127.92499999999995
 11
197.1270820000002
 21
127.92499999999995
  0
LINE
  8
_0-2_製品
  6
CONTINUOUS
 62
    2
 10
196.1270820000002
 20
128.42499999999995
 11
194.6270820000002
 21
127.92499999999995
  0
LINE
  8
_0-2_製品
  6
CONTINUOUS
 62
    2
 10
196.1270820000002
 20
128.92499999999995
 11
194.6270820000002
 21
128.42499999999995
  0
LINE
  8
_0-2_製品
  6
CONTINUOUS
 62
    2
 10
197.1270820000002
 20
128.42499999999995
 11
196.1270820000002
 21
128.92499999999995
  0
LINE
  8
_0-2_製品
  6
CONTINUOUS
 62
    2
 10
197.1270820000002
 20
127.92499999999995
 11
196.1270820000002
 21
128.42499999999995
  0
ARC
  8
_0-2_製品
  6
CONTINUOUS
 62
    2
 10
198.1270820000002
 20
130.92499999999995
 40
2.5
 50
270
 51
0
  0
ARC
  8
_0-2_製品
  6
CONTINUOUS
 62
    2
 10
198.1270820000002
 20
130.92499999999995
 40
3
 50
270
 51
0
  0
LINE
  8
_0-2_製品
  6
CONTINUOUS
 62
    2
 10
200.62708200000014
 20
130.92499999999995
 11
200.62708200000014
 21
145.42499999999995
  0
LINE
  8
_0-2_製品
  6
CONTINUOUS
 62
    2
 10
201.12708200000014
 20
130.92499999999995
 11
201.12708200000014
 21
145.42499999999995
  0
ARC
  8
_0-2_製品
  6
CONTINUOUS
 62
    3
 10
198.1270820000002
 20
138.82500000000005
 40
2
 50
270
 51
0
  0
ARC
  8
_0-2_製品
  6
CONTINUOUS
 62
    2
 10
188.6270820000002
 20
141.03091800000016
 40
3
 50
180
 51
0
  0
LINE
  8
_0-2_製品
  6
CONTINUOUS
 62
    2
 10
193.1270820000002
 20
128.42499999999995
 11
191.6270820000002
 21
127.92499999999995
  0
LINE
  8
_0-2_製品
  6
CONTINUOUS
 62
    2
 10
193.1270820000002
 20
128.92499999999995
 11
191.6270820000002
 21
128.42499999999995
  0
LINE
  8
_0-2_製品
  6
CONTINUOUS
 62
    2
 10
190.1270820000002
 20
128.42499999999995
 11
188.6270820000002
 21
127.92499999999995
  0
LINE
  8
_0-2_製品
  6
CONTINUOUS
 62
    2
 10
190.1270820000002
 20
128.92499999999995
 11
188.6270820000002
 21
128.42499999999995
  0
LINE
  8
_0-2_製品
  6
CONTINUOUS
 62
    2
 10
191.6270820000002
 20
127.92499999999995
 11
190.1270820000002
 21
128.42499999999995
  0
LINE
  8
_0-2_製品
  6
CONTINUOUS
 62
    2
 10
191.6270820000002
 20
128.42499999999995
 11
190.1270820000002
 21
128.92499999999995
  0
LINE
  8
_0-2_製品
  6
CONTINUOUS
 62
    2
 10
184.1270820000002
 20
128.42499999999995
 11
185.6270820000002
 21
127.92499999999995
  0
LINE
  8
_0-2_製品
  6
CONTINUOUS
 62
    2
 10
184.1270820000002
 20
128.92499999999995
 11
185.6270820000002
 21
128.42499999999995
  0
LINE
  8
_0-2_製品
  6
CONTINUOUS
 62
    2
 10
185.6270820000002
 20
127.92499999999995
 11
187.1270820000002
 21
128.42499999999995
  0
LINE
  8
_0-2_製品
  6
CONTINUOUS
 62
    2
 10
185.6270820000002
 20
128.42499999999995
 11
187.1270820000002
 21
128.92499999999995
  0
LINE
  8
_0-2_製品
  6
CONTINUOUS
 62
    2
 10
187.1270820000002
 20
128.42499999999995
 11
188.6270820000002
 21
127.92499999999995
  0
LINE
  8
_0-2_製品
  6
CONTINUOUS
 62
    2
 10
187.1270820000002
 20
128.92499999999995
 11
188.6270820000002
 21
128.42499999999995
  0
LINE
  8
_0-2_製品
  6
CONTINUOUS
 62
    2
 10
181.1270820000002
 20
128.42499999999995
 11
182.6270820000002
 21
127.92499999999995
  0
LINE
  8
_0-2_製品
  6
CONTINUOUS
 62
    2
 10
181.1270820000002
 20
128.92499999999995
 11
182.6270820000002
 21
128.42499999999995
  0
LINE
  8
_0-2_製品
  6
CONTINUOUS
 62
    2
 10
182.6270820000002
 20
127.92499999999995
 11
184.1270820000002
 21
128.42499999999995
  0
LINE
  8
_0-2_製品
  6
CONTINUOUS
 62
    2
 10
182.6270820000002
 20
128.42499999999995
 11
184.1270820000002
 21
128.92499999999995
  0
LINE
  8
_0-2_製品
  6
CONTINUOUS
 62
    2
 10
194.6270820000002
 20
127.92499999999995
 11
193.1270820000002
 21
128.42499999999995
  0
LINE
  8
_0-2_製品
  6
CONTINUOUS
 62
    2
 10
194.6270820000002
 20
128.42499999999995
 11
193.1270820000002
 21
128.92499999999995
  0
LINE
  8
_0-2_製品
  6
CONTINUOUS
 62
    2
 10
230.56371899999994
 20
184.92499999999995
 11
201.12708200000014
 21
184.92499999999995
  0
ARC
  8
_0-2_製品
  6
CONTINUOUS
 62
    2
 10
196.1270820000002
 20
177.92499999999995
 40
2
 50
0
 51
90
  0
LINE
  8
_0-2_製品
  6
CONTINUOUS
 62
    2
 10
181.1270820000002
 20
179.92499999999995
 11
196.1270820000002
 21
179.92499999999995
  0
LINE
  8
_0-2_製品
  6
CONTINUOUS
 62
    2
 10
196.1270820000002
 20
161.92499999999995
 11
194.6270820000002
 21
161.92499999999995
  0
ARC
  8
_0-2_製品
  6
CONTINUOUS
 62
    2
 10
196.1270820000002
 20
163.92499999999995
 40
2
 50
270
 51
0
  0
ARC
  8
_0-2_製品
  6
CONTINUOUS
 62
    3
 10
199.1270820000002
 20
161.92499999999995
 40
2
 50
270
 51
0
  0
ARC
  8
_0-2_製品
  6
CONTINUOUS
 62
    3
 10
199.71149200000013
 20
155.35747100000006
 40
4.6047640000000003
 50
97.291321999992775
 51
185.38906100001029
  0
LINE
  8
_0-2_製品
  6
CONTINUOUS
 62
    2
 10
181.1270820000002
 20
161.92499999999995
 11
182.93817800000014
 21
161.92499999999995
  0
ARC
  8
_0-2_製品
  6
CONTINUOUS
 62
    2
 10
182.6270820000002
 20
158.92499999999995
 40
3
 50
0
 51
90
  0
ARC
  8
_0-2_製品
  6
CONTINUOUS
 62
    2
 10
194.6270820000002
 20
158.92499999999995
 40
3
 50
90
 51
180
  0
LINE
  8
_0-2_製品
  6
CONTINUOUS
 62
    3
 10
201.12708200000014
 20
185.52500000000035
 11
201.12708200000014
 21
161.92499999999995
  0
LINE
  8
_0-2_製品
  6
CONTINUOUS
 62
    2
 10
198.1270820000002
 20
177.92499999999995
 11
198.1270820000002
 21
163.92499999999995
  0
LINE
  8
_0-2_製品
  6
CONTINUOUS
 62
    2
 10
251.78507100000002
 20
146.92499999999995
 11
251.78507100000002
 21
184.52500000000035
  0
LINE
  8
_0-2_製品
  6
CONTINUOUS
 62
    2
 10
253.58507100000014
 20
149.02500000000035
 11
253.58507100000014
 21
182.82500000000005
  0
LINE
  8
_0-2_製品
  6
CONTINUOUS
 62
    2
 10
252.38507099999993
 20
146.92499999999995
 11
252.38507099999993
 21
184.67499999999995
  0
LINE
  8
_0-2_製品
  6
CONTINUOUS
 62
    2
 10
264.38507099999993
 20
148.12500000000026
 11
264.38507099999993
 21
146.92499999999995
  0
ARC
  8
_0-2_製品
  6
CONTINUOUS
 62
    2
 10
254.48507099999983
 20
149.02500000000035
 40
0.9
 50
180
 51
270
  0
ARC
  8
_0-2_製品
  6
CONTINUOUS
 62
    2
 10
254.38507099999993
 20
148.92499999999995
 40
2
 50
180
 51
270
  0
LINE
  8
_0-2_製品
  6
CONTINUOUS
 62
    2
 10
264.38507099999993
 20
148.12500000000026
 11
254.48507099999983
 21
148.12500000000026
  0
LINE
  8
_0-2_製品
  6
PLINE2
 62
    2
 10
251.78507100000002
 20
136.82500000000005
 11
252.38507099999993
 21
136.82500000000005
  0
LINE
  8
_0-2_製品
  6
PLINE2
 62
    2
 10
251.78507100000002
 20
146.92499999999995
 11
251.78507100000002
 21
136.82500000000005
  0
LINE
  8
_0-2_製品
  6
PLINE2
 62
    2
 10
252.38507099999993
 20
136.82500000000005
 11
252.38507099999993
 21
146.92499999999995
  0
ARC
  8
_0-2_製品
  6
CONTINUOUS
 62
    2
 10
264.73507099999983
 20
185.27500000000035
 40
0.25
 50
0
 51
90
  0
LINE
  8
_0-2_製品
  6
CONTINUOUS
 62
    2
 10
264.39160500000003
 20
183.72500000000016
 11
264.39160500000003
 21
184.92499999999995
  0
LINE
  8
_0-2_製品
  6
CONTINUOUS
 62
    2
 10
264.98507099999983
 20
185.27500000000035
 11
264.98507099999983
 21
183.72500000000016
  0
ARC
  8
_0-2_製品
  6
CONTINUOUS
 62
    2
 10
252.63507099999993
 20
184.67499999999995
 40
0.25
 50
90
 51
180
  0
ARC
  8
_0-2_製品
  6
CONTINUOUS
 62
    2
 10
254.48507099999983
 20
182.82500000000005
 40
0.9
 50
90
 51
180
  0
ARC
  8
_0-2_製品
  6
CONTINUOUS
 62
    2
 10
252.78507100000002
 20
184.52500000000035
 40
1
 50
90
 51
180
  0
ARC
  8
_0-2_製品
  6
CONTINUOUS
 62
    2
 10
254.88507099999993
 20
182.42499999999995
 40
2.5
 50
90
 51
181.97958000001128
  0
LINE
  8
_0-2_製品
  6
CONTINUOUS
 62
    2
 10
257.26372900000001
 20
170.44359899999995
 11
256.54666999999995
 21
170.44359899999995
  0
LINE
  8
_0-2_製品
  6
CONTINUOUS
 62
    2
 10
264.98507099999983
 20
183.72500000000016
 11
257.26372900000001
 21
170.44359899999995
  0
LINE
  8
_0-2_製品
  6
CONTINUOUS
 62
    2
 10
252.78507100000002
 20
185.52500000000035
 11
264.73507099999983
 21
185.52500000000035
  0
LINE
  8
_0-2_製品
  6
CONTINUOUS
 62
    2
 10
254.48507099999983
 20
183.72500000000016
 11
264.38507099999993
 21
183.72500000000016
  0
LINE
  8
_0-2_製品
  6
CONTINUOUS
 62
    2
 10
264.39160500000003
 20
183.72500000000016
 11
256.54666999999995
 21
170.44359899999995
  0
LINE
  8
_0-2_製品
  6
CONTINUOUS
 62
    2
 10
264.39160500000003
 20
184.92499999999995
 11
252.63507099999993
 21
184.92499999999995
  0
ENDSEC
  0
EOF
