  0
SECTION
  2
HEADER
  9
$ACADVER
  1
AC1009
  9
$INSBASE
 10
0
 20
0
 30
0
  9
$EXTMIN
 10
0
 20
0
  9
$EXTMAX
 10
420
 20
297
  9
$LIMMIN
 10
0
 20
0
  9
$LIMMAX
 10
420
 20
297
  9
$LTSCALE
 40
1
  0
ENDSEC
  0
SECTION
  2
TABLES
  0
TABLE
  2
LTYPE
 70
     9
  0
LTYPE
  2
CONTINUOUS
 70
    64
  3
実線
 72
    65
 73
     0
 40
0.0
  0
LTYPE
  2
DASHED1
 70
    64
  3
--  --  --  --  --  --  --  --  
 72
    65
 73
     2
 40
2.5
 49
1.25
 49
-1.25
  0
LTYPE
  2
DASHED2
 70
    64
  3
----    ----    ----    ----    
 72
    65
 73
     2
 40
5.0
 49
2.5
 49
-2.5
  0
LTYPE
  2
DASHED3
 70
    64
  3
------  ------  ------  ------  
 72
    65
 73
     2
 40
5.0
 49
3.75
 49
-1.25
  0
LTYPE
  2
CENTER1
 70
    64
  3
----- - ----- - ----- - ----- - 
 72
    65
 73
     4
 40
10.0
 49
6.25
 49
-1.25
 49
1.25
 49
-1.25
  0
LTYPE
  2
CENTER2
 70
    64
  3
----------  --  ----------  --  
 72
    65
 73
     4
 40
20.0
 49
12.5
 49
-2.5
 49
2.5
 49
-2.5
  0
LTYPE
  2
PHANTOM1
 70
    64
  3
--- - - --- - - --- - - --- - - 
 72
    65
 73
     6
 40
10.0
 49
3.25
 49
-1.25
 49
1.25
 49
-1.25
 49
1.25
 49
-1.25
  0
LTYPE
  2
PHANTOM2
 70
    64
  3
--------  -  -  --------  -  -  
 72
    65
 73
     6
 40
20.0
 49
10.0
 49
-2.5
 49
1.25
 49
-2.5
 49
1.25
 49
-2.5
  0
LTYPE
  2
DOT
 70
    64
  3
-   -   -   -   -   -   -   -   
 72
    65
 73
     2
 40
2.5
 49
0.625
 49
-1.875
  0
LTYPE
  2
DUMMY
 70
    64
  3
ダミー
 72
    65
 73
     0
 40
0.0
  0
LTYPE
  2
RAND1
 70
    64
  3
ランダム線1
 72
    65
 73
     4
 40
10.0
 49
1.0
 49
-2.0
 49
3.0
 49
-4.0
  0
LTYPE
  2
RAND2
 70
    64
  3
ランダム線2
 72
    65
 73
     4
 40
14.0
 49
2.0
 49
-3.0
 49
4.0
 49
-5.0
  0
LTYPE
  2
RAND3
 70
    64
  3
ランダム線3
 72
    65
 73
     4
 40
18.0
 49
3.0
 49
-4.0
 49
5.0
 49
-6.0
  0
LTYPE
  2
RAND4
 70
    64
  3
ランダム線4
 72
    65
 73
     4
 40
22.0
 49
4.0
 49
-5.0
 49
6.0
 49
-7.0
  0
LTYPE
  2
RAND5
 70
    64
  3
ランダム線5
 72
    65
 73
     4
 40
26.0
 49
5.0
 49
-6.0
 49
7.0
 49
-8.0
  0
LTYPE
  2
LONG1
 70
    64
  3
----------  --  ----------  --  
 72
    65
 73
     4
 40
40.0
 49
32.5
 49
-2.5
 49
2.5
 49
-2.5
  0
LTYPE
  2
LONG2
 70
    64
  3
--------  -  -  --------  -  -  
 72
    65
 73
     6
 40
40.0
 49
30.0
 49
-2.5
 49
1.25
 49
-2.5
 49
1.25
 49
-2.5
  0
LTYPE
  2
LONG3
 70
    64
  3
+++++++++++++++..+++++++++++++++
 72
    65
 73
     2
 40
40.0
 49
37.5
 49
-2.5
  0
LTYPE
  2
LONG4
 70
    64
  3
+++++++++++++++..+++++++++++++++
 72
    65
 73
     2
 40
80.0
 49
75.0
 49
-5.0
  0
LTYPE
  2
LONG5
 70
    64
  3
----------  --  ----------  --  
 72
    65
 73
     4
 40
60.0
 49
37.5
 49
-7.5
 49
7.5
 49
-7.5
  0
LTYPE
  2
dashed
 70
   64
  3
-------   -------------   ------
 72
   65
 73
    2
 40
7.5
 49
6
 49
-1.5
  0
LTYPE
  2
dashed_spaced
 70
   64
  3
----        --------        ----
 72
   65
 73
    2
 40
12
 49
6
 49
-6
  0
LTYPE
  2
long_dashed_dotted
 70
   64
  3
------------- --- --------------
 72
   65
 73
    4
 40
15.25
 49
12
 49
-1.5
 49
0.25
 49
-1.5
  0
LTYPE
  2
long_dashed_double-dotted
 70
   64
  3
----------- --- --- ------------
 72
   65
 73
    6
 40
17
 49
12
 49
-1.5
 49
0.25
 49
-1.5
 49
0.25
 49
-1.5
  0
LTYPE
  2
long_dashed_triplicate-dotted
 70
   64
  3
--------- --- --- --- ----------
 72
   65
 73
    8
 40
18.75
 49
12
 49
-1.5
 49
0.25
 49
-1.5
 49
0.25
 49
-1.5
 49
0.25
 49
-1.5
  0
LTYPE
  2
dotted
 70
   64
  3
   -       -       -       -    
 72
   65
 73
    2
 40
1.75
 49
0.25
 49
-1.5
  0
LTYPE
  2
chain
 70
   64
  3
-------------- -- --------------
 72
   65
 73
    4
 40
18.5
 49
12
 49
-1.5
 49
3.5
 49
-1.5
  0
LTYPE
  2
chain_double_dash
 70
   64
  3
------------ -- -- -------------
 72
   65
 73
    6
 40
23.5
 49
12
 49
-1.5
 49
3.5
 49
-1.5
 49
3.5
 49
-1.5
  0
LTYPE
  2
dashed_dotted
 70
   64
  3
-----------     -     ----------
 72
   65
 73
    4
 40
9.25
 49
6
 49
-1.5
 49
0.25
 49
-1.5
  0
LTYPE
  2
double-dashed_dotted
 70
   64
  3
------   -----------   -   -----
 72
   65
 73
    6
 40
16.75
 49
6
 49
-1.5
 49
6
 49
-1.5
 49
0.25
 49
-1.5
  0
LTYPE
  2
dashed_double-dotted
 70
   64
  3
---------    -    -    ---------
 72
   65
 73
    6
 40
11
 49
6
 49
-1.5
 49
0.25
 49
-1.5
 49
0.25
 49
-1.5
  0
LTYPE
  2
double-dashed_double-dotted
 70
   64
  3
-----   ---------   -   -   ----
 72
   65
 73
    8
 40
18.5
 49
6
 49
-1.5
 49
6
 49
-1.5
 49
0.25
 49
-1.5
 49
0.25
 49
-1.5
  0
LTYPE
  2
dashed_triplicate-dotted
 70
   64
  3
-------    -    -    -    ------
 72
   65
 73
    8
 40
12.75
 49
6
 49
-1.5
 49
0.25
 49
-1.5
 49
0.25
 49
-1.5
 49
0.25
 49
-1.5
  0
LTYPE
  2
double-dashed_triplicate-dotted
 70
   64
  3
-----  ---------  -  -  -  -----
 72
   65
 73
   10
 40
20.25
 49
6
 49
-1.5
 49
6
 49
-1.5
 49
0.25
 49
-1.5
 49
0.25
 49
-1.5
 49
0.25
 49
-1.5
  0
LTYPE
  2
undefined
 70
   64
  3
--------------------------------
 72
   65
 73
    0
 40
0
  0
LTYPE
  2
PLINE2
 70
   64
  3
------     -----------     -----
 72
   65
 73
    2
 40
3
 49
2.1000000000000001
 49
-0.9
  0
LTYPE
  2
PLINE3
 70
   64
  3
------------   ---   -----------
 72
   65
 73
    4
 40
10
 49
7
 49
-1
 49
1
 49
-1
  0
LTYPE
  2
PLINE4
 70
   64
  3
---------   ---   ---   --------
 72
   65
 73
    6
 40
10
 49
5
 49
-1
 49
1
 49
-1
 49
1
 49
-1
  0
LTYPE
  2
PLINE5
 70
   64
  3
------     -----------     -----
 72
   65
 73
    2
 40
5
 49
3.5
 49
-1.5
  0
LTYPE
  2
PLINE6
 70
   64
  3
------------   ---   -----------
 72
   65
 73
    4
 40
15
 49
10.5
 49
-1.5
 49
1.5
 49
-1.5
  0
LTYPE
  2
PLINE7
 70
   64
  3
---------   ---   ---   --------
 72
   65
 73
    6
 40
15
 49
7.5
 49
-1.5
 49
1.5
 49
-1.5
 49
1.5
 49
-1.5
  0
LTYPE
  2
PLINE8
 70
   64
  3
------     -----------     -----
 72
   65
 73
    2
 40
7
 49
4.9000000000000004
 49
-2.1000000000000001
  0
LTYPE
  2
PLINE9
 70
   64
  3
------------   ---   -----------
 72
   65
 73
    4
 40
20
 49
14
 49
-2
 49
2
 49
-2
  0
LTYPE
  2
PLINE10
 70
   64
  3
---------   ---   ---   --------
 72
   65
 73
    6
 40
20
 49
10
 49
-2
 49
2
 49
-2
 49
2
 49
-2
  0
LTYPE
  2
PLINE11
 70
   64
  3
------     -----------     -----
 72
   65
 73
    2
 40
9
 49
6.2999999999999989
 49
-2.7000000000000002
  0
LTYPE
  2
PLINE12
 70
   64
  3
------------   ---   -----------
 72
   65
 73
    4
 40
25
 49
17.5
 49
-2.5
 49
2.5
 49
-2.5
  0
LTYPE
  2
PLINE13
 70
   64
  3
---------   ---   ---   --------
 72
   65
 73
    6
 40
25
 49
12.5
 49
-2.5
 49
2.5
 49
-2.5
 49
2.5
 49
-2.5
  0
LTYPE
  2
PLINE14
 70
   64
  3
------     -----------     -----
 72
   65
 73
    2
 40
11
 49
7.7000000000000002
 49
-3.2999999999999989
  0
LTYPE
  2
PLINE15
 70
   64
  3
------------   ---   -----------
 72
   65
 73
    4
 40
30
 49
21
 49
-3
 49
3
 49
-3
  0
LTYPE
  2
PLINE16
 70
   64
  3
---------   ---   ---   --------
 72
   65
 73
    6
 40
30
 49
15
 49
-3
 49
3
 49
-3
 49
3
 49
-3
  0
ENDTAB
  0
TABLE
  2
STYLE
  5
3
100
AcDbSymbolTable
 70
     1
  0
STYLE
  5
10
100
AcDbSymbolTableRecord
100
AcDbTextStyleTableRecord
  2
STANDARD
 70
     0
 40
0.0
 41
1.0
 50
0.0
 71
     0
 42
0.2
  3
txt
  4
bigfont.shx
  0
STYLE
  5
26
100
AcDbSymbolTableRecord
100
AcDbTextStyleTableRecord
  2
TATEGAKI
 70
    68
 40
0.0
 41
1.0
 50
0.0
 71
     0
 42
1.0
  3
txt
  4
bigfont.shx
  0
ENDTAB
  0
TABLE
  2
LAYER
 70
    2
  0
LAYER
  2
_0-2_製品
 70
   64
 62
    7
  6
CONTINUOUS
  0
LAYER
  2
ADD_LINE
 70
   64
 62
    7
  6
CONTINUOUS
  0
ENDTAB
  0
ENDSEC
  0
SECTION
  2
BLOCKS
  0
ENDSEC
  0
SECTION
  2
ENTITIES
  0
LINE
  8
_0-2_製品
  6
CONTINUOUS
 62
    3
 10
220.87077250000038
 20
111.35812749999994
 11
173.12880850000005
 21
111.35812749999994
  0
LINE
  8
_0-2_製品
  6
CONTINUOUS
 62
    3
 10
220.87077250000038
 20
73.358127499999839
 11
173.12880850000005
 21
73.358127499999839
  0
LINE
  8
_0-2_製品
  6
CONTINUOUS
 62
    2
 10
171.12880850000005
 20
176.54315650000015
 11
171.12880850000005
 21
169.35812749999982
  0
LINE
  8
_0-2_製品
  6
CONTINUOUS
 62
    2
 10
166.37880850000005
 20
169.35812749999982
 11
166.37880850000005
 21
176.54315650000015
  0
LINE
  8
_0-2_製品
  6
CONTINUOUS
 62
    2
 10
156.87880850000005
 20
176.54315650000015
 11
156.87880850000005
 21
169.35812749999982
  0
LINE
  8
_0-2_製品
  6
CONTINUOUS
 62
    2
 10
152.12880850000005
 20
176.54315650000015
 11
152.12880850000005
 21
169.35812749999982
  0
LINE
  8
_0-2_製品
  6
PLINE3
 62
    2
 10
161.62880850000005
 20
235.64187250000006
 11
161.62880850000005
 21
61.358127499999938
  0
LINE
  8
_0-2_製品
  6
CONTINUOUS
 62
    3
 10
108.93248549999998
 20
73.358127499999839
 11
150.12880850000005
 21
73.358127499999839
  0
LINE
  8
_0-2_製品
  6
CONTINUOUS
 62
    3
 10
108.93248549999998
 20
111.35812749999994
 11
150.12880850000005
 21
111.35812749999994
  0
LINE
  8
_0-2_製品
  6
CONTINUOUS
 62
    3
 10
173.12880850000005
 20
169.35812749999982
 11
173.12880850000005
 21
71.358127499999938
  0
LINE
  8
_0-2_製品
  6
CONTINUOUS
 62
    3
 10
150.12880850000005
 20
71.358127499999938
 11
150.12880850000005
 21
169.35812749999982
  0
LINE
  8
_0-2_製品
  6
CONTINUOUS
 62
    3
 10
173.12880850000005
 20
71.358127499999938
 11
150.12880850000005
 21
71.358127499999938
  0
LINE
  8
_0-2_製品
  6
CONTINUOUS
 62
    2
 10
171.12880850000005
 20
160.17309850000015
 11
171.12880850000005
 21
167.35812749999982
  0
ARC
  8
_0-2_製品
  6
CONTINUOUS
 62
    2
 10
168.67017350000009
 20
162.98680450000003
 40
3.6286769999999988
 50
230.84205499999482
 51
270
  0
LINE
  8
_0-2_製品
  6
CONTINUOUS
 62
    2
 10
153.5403795000002
 20
159.35812749999994
 11
152.12880850000005
 21
160.17309850000015
  0
ARC
  8
_0-2_製品
  6
CONTINUOUS
 62
    2
 10
154.58744250000007
 20
162.98680450000003
 40
3.6286769999999988
 50
270
 51
309.15794500000521
  0
ARC
  8
_0-2_製品
  6
CONTINUOUS
 62
    2
 10
161.62880850000005
 20
173.60812749999982
 40
14.25
 50
250.52877899998791
 51
289.47122100001201
  0
LINE
  8
_0-2_製品
  6
CONTINUOUS
 62
    2
 10
169.71723650000007
 20
159.35812749999994
 11
153.5403795000002
 21
159.35812749999994
  0
LINE
  8
_0-2_製品
  6
CONTINUOUS
 62
    2
 10
156.87880850000005
 20
160.17309850000015
 11
156.87880850000005
 21
167.35812749999982
  0
LINE
  8
_0-2_製品
  6
CONTINUOUS
 62
    2
 10
166.37880850000005
 20
167.35812749999982
 11
166.37880850000005
 21
160.17309850000015
  0
LINE
  8
_0-2_製品
  6
CONTINUOUS
 62
    2
 10
152.12880850000005
 20
160.17309850000015
 11
152.12880850000005
 21
167.35812749999982
  0
LINE
  8
_0-2_製品
  6
CONTINUOUS
 62
    3
 10
150.12880850000005
 20
169.35812749999982
 11
173.12880850000005
 21
169.35812749999982
  0
LINE
  8
_0-2_製品
  6
CONTINUOUS
 62
    2
 10
171.12880850000005
 20
160.17309850000015
 11
169.71723650000007
 21
159.35812749999994
  0
LINE
  8
_0-2_製品
  6
CONTINUOUS
 62
    3
 10
150.12880850000005
 20
167.35812749999982
 11
173.12880850000005
 21
167.35812749999982
  0
LINE
  8
_0-2_製品
  6
CONTINUOUS
 62
    3
 10
166.37880850000005
 20
139.35812749999994
 11
156.87880850000005
 21
139.35812749999994
  0
LINE
  8
_0-2_製品
  6
CONTINUOUS
 62
    3
 10
173.12880850000005
 20
121.35812749999994
 11
150.12880850000005
 21
121.35812749999994
  0
LINE
  8
_0-2_製品
  6
CONTINUOUS
 62
    3
 10
156.87880850000005
 20
139.35812749999994
 11
156.87880850000005
 21
159.35812749999994
  0
LINE
  8
_0-2_製品
  6
CONTINUOUS
 62
    3
 10
166.37880850000005
 20
159.35812749999994
 11
166.37880850000005
 21
139.35812749999994
  0
ARC
  8
_0-2_製品
  6
CONTINUOUS
 62
    3
 10
164.00882150000007
 20
225.18948650000013
 40
2.507004999999999
 50
18.315564999990539
 51
161.68435100000309
  0
ARC
  8
_0-2_製品
  6
CONTINUOUS
 62
    3
 10
164.00875850000006
 20
226.76518950000016
 40
2.5070809999999999
 50
198.31612599999551
 51
341.68383200000562
  0
ARC
  8
_0-2_製品
  6
CONTINUOUS
 62
    3
 10
159.24882250000019
 20
225.18948650000013
 40
2.5070039999999998
 50
18.315517000002789
 51
161.68444000000204
  0
ARC
  8
_0-2_製品
  6
CONTINUOUS
 62
    2
 10
168.67017350000009
 20
173.72945050000024
 40
3.6286769999999988
 50
90
 51
129.15794500000521
  0
LINE
  8
_0-2_製品
  6
CONTINUOUS
 62
    2
 10
153.5403795000002
 20
177.35812749999982
 11
152.12880850000005
 21
176.54315650000015
  0
ARC
  8
_0-2_製品
  6
CONTINUOUS
 62
    2
 10
154.58744250000007
 20
173.72945050000024
 40
3.6286769999999988
 50
50.84205499999478
 51
90
  0
ARC
  8
_0-2_製品
  6
CONTINUOUS
 62
    2
 10
161.62880850000005
 20
163.10812749999982
 40
14.25
 50
70.528778999987907
 51
109.47122100001199
  0
LINE
  8
_0-2_製品
  6
CONTINUOUS
 62
    2
 10
169.71723650000007
 20
177.35812749999982
 11
153.5403795000002
 21
177.35812749999982
  0
LINE
  8
_0-2_製品
  6
CONTINUOUS
 62
    2
 10
171.12880850000005
 20
176.54315650000015
 11
169.71723650000007
 21
177.35812749999982
  0
LINE
  8
_0-2_製品
  6
CONTINUOUS
 62
    3
 10
166.37880850000005
 20
225.97735650000024
 11
166.37880850000005
 21
177.35812749999982
  0
LINE
  8
_0-2_製品
  6
CONTINUOUS
 62
    3
 10
156.87880850000005
 20
225.97735650000024
 11
156.87880850000005
 21
177.35812749999982
  0
LINE
  8
_0-2_製品
  6
CONTINUOUS
 62
    2
 10
279.01751450000017
 20
176.54315650000015
 11
279.01751450000017
 21
169.35812749999982
  0
LINE
  8
_0-2_製品
  6
CONTINUOUS
 62
    2
 10
283.76751450000029
 20
176.54315650000015
 11
283.76751450000029
 21
169.35812749999982
  0
LINE
  8
_0-2_製品
  6
CONTINUOUS
 62
    2
 10
269.51751450000029
 20
169.35812749999982
 11
269.51751450000029
 21
176.54315650000015
  0
LINE
  8
_0-2_製品
  6
CONTINUOUS
 62
    2
 10
264.76751450000029
 20
176.54315650000015
 11
264.76751450000029
 21
169.35812749999982
  0
LINE
  8
_0-2_製品
  6
PLINE3
 62
    2
 10
274.26751450000029
 20
235.64187250000006
 11
274.26751450000029
 21
134.35812749999994
  0
ARC
  8
_0-2_製品
  6
CONTINUOUS
 62
    2
 10
274.26751450000029
 20
173.60812749999982
 40
14.25
 50
250.52877899998791
 51
289.47122100001201
  0
LINE
  8
_0-2_製品
  6
CONTINUOUS
 62
    2
 10
266.17908550000038
 20
159.35812749999994
 11
282.35594250000025
 21
159.35812749999994
  0
LINE
  8
_0-2_製品
  6
CONTINUOUS
 62
    3
 10
285.76751450000029
 20
167.35812749999982
 11
264.26751450000017
 21
167.35812749999982
  0
LINE
  8
_0-2_製品
  6
CONTINUOUS
 62
    3
 10
285.76751450000029
 20
169.35812749999982
 11
264.26751450000017
 21
169.35812749999982
  0
LINE
  8
_0-2_製品
  6
CONTINUOUS
 62
    3
 10
269.51751450000029
 20
144.35812749999994
 11
279.01751450000017
 21
144.35812749999994
  0
LINE
  8
_0-2_製品
  6
CONTINUOUS
 62
    3
 10
264.26751450000017
 20
169.35812749999982
 11
264.26751450000017
 21
167.35812749999982
  0
ARC
  8
_0-2_製品
  6
CONTINUOUS
 62
    2
 10
267.22614850000025
 20
162.98680450000003
 40
3.6286769999999988
 50
270
 51
309.15794500000521
  0
LINE
  8
_0-2_製品
  6
CONTINUOUS
 62
    2
 10
264.76751450000029
 20
160.17309850000015
 11
266.17908550000038
 21
159.35812749999994
  0
LINE
  8
_0-2_製品
  6
CONTINUOUS
 62
    2
 10
264.76751450000029
 20
160.17309850000015
 11
264.76751450000029
 21
167.35812749999982
  0
LINE
  8
_0-2_製品
  6
CONTINUOUS
 62
    2
 10
269.51751450000029
 20
167.35812749999982
 11
269.51751450000029
 21
160.17309850000015
  0
LINE
  8
_0-2_製品
  6
CONTINUOUS
 62
    3
 10
269.51751450000029
 20
159.35812749999994
 11
269.51751450000029
 21
144.35812749999994
  0
ARC
  8
_0-2_製品
  6
CONTINUOUS
 62
    3
 10
277.96751450000005
 20
95.858127499999938
 40
30
 50
0
 51
31.108525999998776
  0
ARC
  8
_0-2_製品
  6
CONTINUOUS
 62
    3
 10
277.96751450000005
 20
95.858127499999938
 40
28
 50
0
 51
33.61288099999939
  0
LINE
  8
_0-2_製品
  6
CONTINUOUS
 62
    3
 10
290.8675145000002
 20
108.85812749999994
 11
290.8675145000002
 21
75.858127499999938
  0
LINE
  8
_0-2_製品
  6
CONTINUOUS
 62
    3
 10
287.26751450000029
 20
107.91912750000003
 11
287.26751450000029
 21
75.358127499999839
  0
LINE
  8
_0-2_製品
  6
CONTINUOUS
 62
    3
 10
289.26751450000017
 20
108.86224349999995
 11
289.26751450000017
 21
75.358127499999839
  0
LINE
  8
_0-2_製品
  6
CONTINUOUS
 62
    3
 10
304.76751450000029
 20
75.358127499999839
 11
307.96751450000005
 21
95.858127499999938
  0
LINE
  8
_0-2_製品
  6
CONTINUOUS
 62
    3
 10
302.76751450000029
 20
75.358127499999839
 11
305.96751450000005
 21
95.858127499999938
  0
LINE
  8
_0-2_製品
  6
CONTINUOUS
 62
    3
 10
301.26751450000017
 20
73.358127499999839
 11
301.26751450000017
 21
74.958127500000231
  0
ARC
  8
_0-2_製品
  6
CONTINUOUS
 62
    3
 10
300.76751450000029
 20
75.358127499999839
 40
2
 50
270
 51
0
  0
ARC
  8
_0-2_製品
  6
CONTINUOUS
 62
    3
 10
300.76751450000029
 20
75.358127499999839
 40
4
 50
270
 51
0
  0
ARC
  8
_0-2_製品
  6
CONTINUOUS
 62
    3
 10
291.76751450000029
 20
75.858127499999938
 40
0.9
 50
180
 51
270
  0
ARC
  8
_0-2_製品
  6
CONTINUOUS
 62
    3
 10
291.26751450000029
 20
75.358127499999839
 40
2
 50
180
 51
270
  0
ARC
  8
_0-2_製品
  6
CONTINUOUS
 62
    3
 10
291.26751450000029
 20
75.358127499999839
 40
4
 50
180
 51
270
  0
LINE
  8
_0-2_製品
  6
CONTINUOUS
 62
    3
 10
301.26751450000017
 20
73.358127499999839
 11
291.76751450000029
 21
73.358127499999839
  0
LINE
  8
_0-2_製品
  6
CONTINUOUS
 62
    3
 10
301.26751450000017
 20
74.958127500000231
 11
291.76751450000029
 21
74.958127500000231
  0
LINE
  8
_0-2_製品
  6
CONTINUOUS
 62
    3
 10
291.26751450000029
 20
71.358127499999938
 11
300.76751450000029
 21
71.358127499999938
  0
LINE
  8
_0-2_製品
  6
CONTINUOUS
 62
    3
 10
291.26751450000029
 20
73.358127499999839
 11
300.76751450000029
 21
73.358127499999839
  0
LINE
  8
_0-2_製品
  6
CONTINUOUS
 62
    3
 10
310.06751449999996
 20
121.35812749999994
 11
303.74751450000025
 21
117.70912750000005
  0
LINE
  8
_0-2_製品
  6
CONTINUOUS
 62
    3
 10
311.06751449999996
 20
119.62612749999994
 11
304.95851449999998
 21
116.09912749999992
  0
ARC
  8
_0-2_製品
  6
CONTINUOUS
 62
    2
 10
281.30887950000027
 20
162.98680450000003
 40
3.6286769999999988
 50
230.84205499999482
 51
270
  0
LINE
  8
_0-2_製品
  6
CONTINUOUS
 62
    2
 10
282.35594250000025
 20
159.35812749999994
 11
283.76751450000029
 21
160.17309850000015
  0
LINE
  8
_0-2_製品
  6
CONTINUOUS
 62
    2
 10
279.01751450000017
 20
160.17309850000015
 11
279.01751450000017
 21
167.35812749999982
  0
LINE
  8
_0-2_製品
  6
CONTINUOUS
 62
    2
 10
283.76751450000029
 20
160.17309850000015
 11
283.76751450000029
 21
167.35812749999982
  0
ARC
  8
_0-2_製品
  6
CONTINUOUS
 62
    3
 10
285.76751450000029
 20
165.85812749999994
 40
1.5
 50
0
 51
90
  0
ARC
  8
_0-2_製品
  6
CONTINUOUS
 62
    3
 10
285.76751450000029
 20
165.85812749999994
 40
3.5
 50
0
 51
90
  0
ARC
  8
_0-2_製品
  6
CONTINUOUS
 62
    3
 10
281.22538049999997
 20
161.31599449999993
 40
7.2695410000000003
 50
33.782171000008169
 51
56.217828999992257
  0
LINE
  8
_0-2_製品
  6
CONTINUOUS
 62
    3
 10
301.26751450000017
 20
111.35812749999994
 11
301.26751450000017
 21
109.75812749999994
  0
LINE
  8
_0-2_製品
  6
CONTINUOUS
 62
    3
 10
303.6535145000002
 20
111.35812749999994
 11
303.67651449999988
 21
111.31812749999995
  0
LINE
  8
_0-2_製品
  6
CONTINUOUS
 62
    3
 10
302.24751450000025
 20
111.64712750000012
 11
302.24751450000025
 21
111.35812749999994
  0
LINE
  8
_0-2_製品
  6
CONTINUOUS
 62
    3
 10
300.24751450000025
 20
111.64712750000012
 11
300.24751450000025
 21
111.35812749999994
  0
LINE
  8
_0-2_製品
  6
CONTINUOUS
 62
    3
 10
302.24751450000025
 20
111.35812749999994
 11
300.24751450000025
 21
111.35812749999994
  0
ARC
  8
_0-2_製品
  6
CONTINUOUS
 62
    3
 10
306.70851450000009
 20
113.06812749999995
 40
3.5
 50
120.0007250000038
 51
209.99253800000182
  0
ARC
  8
_0-2_製品
  6
CONTINUOUS
 62
    3
 10
307.24751450000025
 20
111.64712750000012
 40
5
 50
120.0007250000038
 51
180
  0
ARC
  8
_0-2_製品
  6
CONTINUOUS
 62
    3
 10
307.24751450000025
 20
111.64712750000012
 40
7
 50
120.0007250000038
 51
180
  0
ARC
  8
_0-2_製品
  6
CONTINUOUS
 62
    3
 10
285.54751449999998
 20
113.35812749999994
 40
3
 50
343.29892000000331
 51
16.701074999998955
  0
ARC
  8
_0-2_製品
  6
CONTINUOUS
 62
    3
 10
285.54751449999998
 20
113.35812749999994
 40
5
 50
346.22027000001356
 51
16.702538000005148
  0
ARC
  8
_0-2_製品
  6
CONTINUOUS
 62
    3
 10
291.76751450000029
 20
108.85812749999994
 40
0.9
 50
90
 51
180
  0
ARC
  8
_0-2_製品
  6
CONTINUOUS
 62
    3
 10
291.76751450000029
 20
108.85812749999994
 40
2.5
 50
90
 51
181.97958000001128
  0
LINE
  8
_0-2_製品
  6
CONTINUOUS
 62
    3
 10
289.62357850000029
 20
110.15812750000003
 11
290.40339450000005
 21
112.16631149999984
  0
LINE
  8
_0-2_製品
  6
CONTINUOUS
 62
    3
 10
289.26751450000017
 20
118.35812749999994
 11
290.33651450000025
 21
114.79512750000023
  0
ARC
  8
_0-2_製品
  6
CONTINUOUS
 62
    3
 10
292.26751450000029
 20
118.79712750000024
 40
5
 50
180
 51
196.70252999998809
  0
LINE
  8
_0-2_製品
  6
CONTINUOUS
 62
    3
 10
287.47851449999996
 20
109.35612749999993
 11
288.42051450000008
 21
112.49612750000023
  0
LINE
  8
_0-2_製品
  6
CONTINUOUS
 62
    3
 10
287.47851449999996
 20
117.36012749999983
 11
288.42051450000008
 21
114.22012749999993
  0
ARC
  8
_0-2_製品
  6
CONTINUOUS
 62
    3
 10
292.26751450000029
 20
107.91912750000003
 40
5
 50
163.2974700000118
 51
180
  0
LINE
  8
_0-2_製品
  6
CONTINUOUS
 62
    3
 10
291.76751450000029
 20
109.75812749999994
 11
301.26751450000017
 21
109.75812749999994
  0
LINE
  8
_0-2_製品
  6
CONTINUOUS
 62
    3
 10
301.26751450000017
 20
111.35812749999994
 11
291.76751450000029
 21
111.35812749999994
  0
LINE
  8
_0-2_製品
  6
CONTINUOUS
 62
    3
 10
279.01751450000017
 20
144.35812749999994
 11
279.01751450000017
 21
159.35812749999994
  0
LINE
  8
_0-2_製品
  6
CONTINUOUS
 62
    3
 10
287.26751450000029
 20
118.79712750000024
 11
287.26751450000029
 21
165.85812749999994
  0
LINE
  8
_0-2_製品
  6
CONTINUOUS
 62
    3
 10
289.26751450000017
 20
118.35812749999994
 11
289.26751450000017
 21
165.85812749999994
  0
LINE
  8
_0-2_製品
  6
CONTINUOUS
 62
    3
 10
310.06751449999996
 20
121.35812749999994
 11
311.06751449999996
 21
119.62612749999994
  0
ARC
  8
_0-2_製品
  6
CONTINUOUS
 62
    3
 10
271.88752749999998
 20
225.18948849999995
 40
2.5070039999999998
 50
18.315517000002789
 51
161.68444000000204
  0
ARC
  8
_0-2_製品
  6
CONTINUOUS
 62
    2
 10
274.26751450000029
 20
163.10812749999982
 40
14.25
 50
70.528778999987907
 51
109.47122100001199
  0
LINE
  8
_0-2_製品
  6
CONTINUOUS
 62
    2
 10
266.17908550000038
 20
177.35812749999982
 11
282.35594250000025
 21
177.35812749999982
  0
ARC
  8
_0-2_製品
  6
CONTINUOUS
 62
    2
 10
267.22614850000025
 20
173.72945050000024
 40
3.6286769999999988
 50
50.84205499999478
 51
90
  0
LINE
  8
_0-2_製品
  6
CONTINUOUS
 62
    2
 10
264.76751450000029
 20
176.54315650000015
 11
266.17908550000038
 21
177.35812749999982
  0
LINE
  8
_0-2_製品
  6
CONTINUOUS
 62
    3
 10
269.51751450000029
 20
225.97735650000024
 11
269.51751450000029
 21
177.35812749999982
  0
ARC
  8
_0-2_製品
  6
CONTINUOUS
 62
    3
 10
276.64752750000025
 20
225.18948849999995
 40
2.507004999999999
 50
18.315564999990539
 51
161.68435100000309
  0
ARC
  8
_0-2_製品
  6
CONTINUOUS
 62
    3
 10
276.64746350000036
 20
226.76519149999982
 40
2.5070809999999999
 50
198.31612599999551
 51
341.68383200000562
  0
ARC
  8
_0-2_製品
  6
CONTINUOUS
 62
    2
 10
281.30887950000027
 20
173.72945050000024
 40
3.6286769999999988
 50
90
 51
129.15794500000521
  0
LINE
  8
_0-2_製品
  6
CONTINUOUS
 62
    2
 10
282.35594250000025
 20
177.35812749999982
 11
283.76751450000029
 21
176.54315650000015
  0
LINE
  8
_0-2_製品
  6
CONTINUOUS
 62
    3
 10
279.01751450000017
 20
225.94768649999995
 11
279.01751450000017
 21
177.35812749999982
  0
ENDSEC
  0
EOF
