  0
SECTION
  2
HEADER
  9
$ACADVER
  1
AC1009
  9
$INSBASE
 10
0
 20
0
 30
0
  9
$EXTMIN
 10
0
 20
0
  9
$EXTMAX
 10
841
 20
594
  9
$LIMMIN
 10
0
 20
0
  9
$LIMMAX
 10
841
 20
594
  9
$LTSCALE
 40
1
  0
ENDSEC
  0
SECTION
  2
TABLES
  0
TABLE
  2
LTYPE
 70
     9
  0
LTYPE
  2
CONTINUOUS
 70
    64
  3
実線
 72
    65
 73
     0
 40
0.0
  0
LTYPE
  2
DASHED1
 70
    64
  3
--  --  --  --  --  --  --  --  
 72
    65
 73
     2
 40
2.5
 49
1.25
 49
-1.25
  0
LTYPE
  2
DASHED2
 70
    64
  3
----    ----    ----    ----    
 72
    65
 73
     2
 40
5.0
 49
2.5
 49
-2.5
  0
LTYPE
  2
DASHED3
 70
    64
  3
------  ------  ------  ------  
 72
    65
 73
     2
 40
5.0
 49
3.75
 49
-1.25
  0
LTYPE
  2
CENTER1
 70
    64
  3
----- - ----- - ----- - ----- - 
 72
    65
 73
     4
 40
10.0
 49
6.25
 49
-1.25
 49
1.25
 49
-1.25
  0
LTYPE
  2
CENTER2
 70
    64
  3
----------  --  ----------  --  
 72
    65
 73
     4
 40
20.0
 49
12.5
 49
-2.5
 49
2.5
 49
-2.5
  0
LTYPE
  2
PHANTOM1
 70
    64
  3
--- - - --- - - --- - - --- - - 
 72
    65
 73
     6
 40
10.0
 49
3.25
 49
-1.25
 49
1.25
 49
-1.25
 49
1.25
 49
-1.25
  0
LTYPE
  2
PHANTOM2
 70
    64
  3
--------  -  -  --------  -  -  
 72
    65
 73
     6
 40
20.0
 49
10.0
 49
-2.5
 49
1.25
 49
-2.5
 49
1.25
 49
-2.5
  0
LTYPE
  2
DOT
 70
    64
  3
-   -   -   -   -   -   -   -   
 72
    65
 73
     2
 40
2.5
 49
0.625
 49
-1.875
  0
LTYPE
  2
DUMMY
 70
    64
  3
ダミー
 72
    65
 73
     0
 40
0.0
  0
LTYPE
  2
RAND1
 70
    64
  3
ランダム線1
 72
    65
 73
     4
 40
10.0
 49
1.0
 49
-2.0
 49
3.0
 49
-4.0
  0
LTYPE
  2
RAND2
 70
    64
  3
ランダム線2
 72
    65
 73
     4
 40
14.0
 49
2.0
 49
-3.0
 49
4.0
 49
-5.0
  0
LTYPE
  2
RAND3
 70
    64
  3
ランダム線3
 72
    65
 73
     4
 40
18.0
 49
3.0
 49
-4.0
 49
5.0
 49
-6.0
  0
LTYPE
  2
RAND4
 70
    64
  3
ランダム線4
 72
    65
 73
     4
 40
22.0
 49
4.0
 49
-5.0
 49
6.0
 49
-7.0
  0
LTYPE
  2
RAND5
 70
    64
  3
ランダム線5
 72
    65
 73
     4
 40
26.0
 49
5.0
 49
-6.0
 49
7.0
 49
-8.0
  0
LTYPE
  2
LONG1
 70
    64
  3
----------  --  ----------  --  
 72
    65
 73
     4
 40
40.0
 49
32.5
 49
-2.5
 49
2.5
 49
-2.5
  0
LTYPE
  2
LONG2
 70
    64
  3
--------  -  -  --------  -  -  
 72
    65
 73
     6
 40
40.0
 49
30.0
 49
-2.5
 49
1.25
 49
-2.5
 49
1.25
 49
-2.5
  0
LTYPE
  2
LONG3
 70
    64
  3
+++++++++++++++..+++++++++++++++
 72
    65
 73
     2
 40
40.0
 49
37.5
 49
-2.5
  0
LTYPE
  2
LONG4
 70
    64
  3
+++++++++++++++..+++++++++++++++
 72
    65
 73
     2
 40
80.0
 49
75.0
 49
-5.0
  0
LTYPE
  2
LONG5
 70
    64
  3
----------  --  ----------  --  
 72
    65
 73
     4
 40
60.0
 49
37.5
 49
-7.5
 49
7.5
 49
-7.5
  0
LTYPE
  2
dashed
 70
   64
  3
-------   -------------   ------
 72
   65
 73
    2
 40
7.5
 49
6
 49
-1.5
  0
LTYPE
  2
dashed_spaced
 70
   64
  3
----        --------        ----
 72
   65
 73
    2
 40
12
 49
6
 49
-6
  0
LTYPE
  2
long_dashed_dotted
 70
   64
  3
------------- --- --------------
 72
   65
 73
    4
 40
15.25
 49
12
 49
-1.5
 49
0.25
 49
-1.5
  0
LTYPE
  2
long_dashed_double-dotted
 70
   64
  3
----------- --- --- ------------
 72
   65
 73
    6
 40
17
 49
12
 49
-1.5
 49
0.25
 49
-1.5
 49
0.25
 49
-1.5
  0
LTYPE
  2
long_dashed_triplicate-dotted
 70
   64
  3
--------- --- --- --- ----------
 72
   65
 73
    8
 40
18.75
 49
12
 49
-1.5
 49
0.25
 49
-1.5
 49
0.25
 49
-1.5
 49
0.25
 49
-1.5
  0
LTYPE
  2
dotted
 70
   64
  3
   -       -       -       -    
 72
   65
 73
    2
 40
1.75
 49
0.25
 49
-1.5
  0
LTYPE
  2
chain
 70
   64
  3
-------------- -- --------------
 72
   65
 73
    4
 40
18.5
 49
12
 49
-1.5
 49
3.5
 49
-1.5
  0
LTYPE
  2
chain_double_dash
 70
   64
  3
------------ -- -- -------------
 72
   65
 73
    6
 40
23.5
 49
12
 49
-1.5
 49
3.5
 49
-1.5
 49
3.5
 49
-1.5
  0
LTYPE
  2
dashed_dotted
 70
   64
  3
-----------     -     ----------
 72
   65
 73
    4
 40
9.25
 49
6
 49
-1.5
 49
0.25
 49
-1.5
  0
LTYPE
  2
double-dashed_dotted
 70
   64
  3
------   -----------   -   -----
 72
   65
 73
    6
 40
16.75
 49
6
 49
-1.5
 49
6
 49
-1.5
 49
0.25
 49
-1.5
  0
LTYPE
  2
dashed_double-dotted
 70
   64
  3
---------    -    -    ---------
 72
   65
 73
    6
 40
11
 49
6
 49
-1.5
 49
0.25
 49
-1.5
 49
0.25
 49
-1.5
  0
LTYPE
  2
double-dashed_double-dotted
 70
   64
  3
-----   ---------   -   -   ----
 72
   65
 73
    8
 40
18.5
 49
6
 49
-1.5
 49
6
 49
-1.5
 49
0.25
 49
-1.5
 49
0.25
 49
-1.5
  0
LTYPE
  2
dashed_triplicate-dotted
 70
   64
  3
-------    -    -    -    ------
 72
   65
 73
    8
 40
12.75
 49
6
 49
-1.5
 49
0.25
 49
-1.5
 49
0.25
 49
-1.5
 49
0.25
 49
-1.5
  0
LTYPE
  2
double-dashed_triplicate-dotted
 70
   64
  3
-----  ---------  -  -  -  -----
 72
   65
 73
   10
 40
20.25
 49
6
 49
-1.5
 49
6
 49
-1.5
 49
0.25
 49
-1.5
 49
0.25
 49
-1.5
 49
0.25
 49
-1.5
  0
LTYPE
  2
undefined
 70
   64
  3
--------------------------------
 72
   65
 73
    0
 40
0
  0
LTYPE
  2
PLINE2
 70
   64
  3
------     -----------     -----
 72
   65
 73
    2
 40
3
 49
2.1000000000000001
 49
-0.9
  0
LTYPE
  2
PLINE3
 70
   64
  3
------------   ---   -----------
 72
   65
 73
    4
 40
10
 49
7
 49
-1
 49
1
 49
-1
  0
LTYPE
  2
PLINE4
 70
   64
  3
---------   ---   ---   --------
 72
   65
 73
    6
 40
10
 49
5
 49
-1
 49
1
 49
-1
 49
1
 49
-1
  0
LTYPE
  2
PLINE5
 70
   64
  3
------     -----------     -----
 72
   65
 73
    2
 40
5
 49
3.5
 49
-1.5
  0
LTYPE
  2
PLINE6
 70
   64
  3
------------   ---   -----------
 72
   65
 73
    4
 40
15
 49
10.5
 49
-1.5
 49
1.5
 49
-1.5
  0
LTYPE
  2
PLINE7
 70
   64
  3
---------   ---   ---   --------
 72
   65
 73
    6
 40
15
 49
7.5
 49
-1.5
 49
1.5
 49
-1.5
 49
1.5
 49
-1.5
  0
LTYPE
  2
PLINE8
 70
   64
  3
------     -----------     -----
 72
   65
 73
    2
 40
7
 49
4.9000000000000004
 49
-2.1000000000000001
  0
LTYPE
  2
PLINE9
 70
   64
  3
------------   ---   -----------
 72
   65
 73
    4
 40
20
 49
14
 49
-2
 49
2
 49
-2
  0
LTYPE
  2
PLINE10
 70
   64
  3
---------   ---   ---   --------
 72
   65
 73
    6
 40
20
 49
10
 49
-2
 49
2
 49
-2
 49
2
 49
-2
  0
LTYPE
  2
PLINE11
 70
   64
  3
------     -----------     -----
 72
   65
 73
    2
 40
9
 49
6.2999999999999989
 49
-2.7000000000000002
  0
LTYPE
  2
PLINE12
 70
   64
  3
------------   ---   -----------
 72
   65
 73
    4
 40
25
 49
17.5
 49
-2.5
 49
2.5
 49
-2.5
  0
LTYPE
  2
PLINE13
 70
   64
  3
---------   ---   ---   --------
 72
   65
 73
    6
 40
25
 49
12.5
 49
-2.5
 49
2.5
 49
-2.5
 49
2.5
 49
-2.5
  0
LTYPE
  2
PLINE14
 70
   64
  3
------     -----------     -----
 72
   65
 73
    2
 40
11
 49
7.7000000000000002
 49
-3.2999999999999989
  0
LTYPE
  2
PLINE15
 70
   64
  3
------------   ---   -----------
 72
   65
 73
    4
 40
30
 49
21
 49
-3
 49
3
 49
-3
  0
LTYPE
  2
PLINE16
 70
   64
  3
---------   ---   ---   --------
 72
   65
 73
    6
 40
30
 49
15
 49
-3
 49
3
 49
-3
 49
3
 49
-3
  0
ENDTAB
  0
TABLE
  2
STYLE
  5
3
100
AcDbSymbolTable
 70
     1
  0
STYLE
  5
10
100
AcDbSymbolTableRecord
100
AcDbTextStyleTableRecord
  2
STANDARD
 70
     0
 40
0.0
 41
1.0
 50
0.0
 71
     0
 42
0.2
  3
txt
  4
bigfont.shx
  0
STYLE
  5
26
100
AcDbSymbolTableRecord
100
AcDbTextStyleTableRecord
  2
TATEGAKI
 70
    68
 40
0.0
 41
1.0
 50
0.0
 71
     0
 42
1.0
  3
txt
  4
bigfont.shx
  0
ENDTAB
  0
TABLE
  2
LAYER
 70
    4
  0
LAYER
  2
_0-2_寸法
 70
   64
 62
    7
  6
CONTINUOUS
  0
LAYER
  2
_0-3_躯体と製品
 70
   64
 62
    7
  6
CONTINUOUS
  0
LAYER
  2
_0-4_図面枠
 70
   64
 62
    7
  6
CONTINUOUS
  0
LAYER
  2
ADD_LINE
 70
   64
 62
    7
  6
CONTINUOUS
  0
ENDTAB
  0
ENDSEC
  0
SECTION
  2
BLOCKS
  0
BLOCK
  2
-000-_Dot
 70
   64
 10
0
 20
0
 30
0
  0
CIRCLE
  8
_0-0_0
  6
CONTINUOUS
 62
    7
 10
0
 20
0
 40
0.025
  0
LINE
  8
_0-0_0
  6
CONTINUOUS
 62
    7
 10
0.025
 20
0
 11
-0.025
 21
0
  0
LINE
  8
_0-0_0
  6
CONTINUOUS
 62
    7
 10
-0.05
 20
0
 11
-0.1
 21
0
  0
ENDBLK
  0
BLOCK
  2
-001-_D4
 70
   64
 10
0
 20
0
 30
0
  0
LINE
  8
_0-2_寸法
  6
CONTINUOUS
 62
    4
 10
-107.13371445042719
 20
120.16203174385321
 11
-107.13371445042719
 21
260.66115174385317
  0
LINE
  8
_0-2_寸法
  6
CONTINUOUS
 62
    4
 10
151.86628554957269
 20
217.27669374385317
 11
151.86628554957269
 21
260.66115174385317
  0
LINE
  8
_0-2_寸法
  6
CONTINUOUS
 62
    4
 10
-107.0337144504272
 20
260.66115174385317
 11
151.76628554957281
 21
260.66115174385317
  0
INSERT
  2
-000-_Dot
  8
_0-2_寸法
 10
-107.13371445042719
 20
260.66115174385317
 41
1
 42
1
 50
180
  0
INSERT
  2
-000-_Dot
  8
_0-2_寸法
 10
151.86628554957269
 20
260.66115174385317
 41
1
 42
1
 50
0
  0
TEXT
  8
_0-2_寸法
 62
    7
 10
21.11628554957278
 20
260.74115174385321
 40
5
 41
1
 50
0
  1
E
  0
POINT
  8
_0-1_Defpoints
 62
    7
 10
-107.13371445042719
 20
120.16203174385321
  0
POINT
  8
_0-1_Defpoints
 62
    7
 10
151.86628554957269
 20
217.27669374385317
  0
POINT
  8
_0-1_Defpoints
 62
    7
 10
151.86628554957269
 20
260.66115174385317
  0
ENDBLK
  0
BLOCK
  2
-002-_D5
 70
   64
 10
0
 20
0
 30
0
  0
LINE
  8
_0-2_寸法
  6
CONTINUOUS
 62
    4
 10
-45.329262450426896
 20
216.27669374385317
 11
-117.37492245042729
 21
216.27669374385317
  0
LINE
  8
_0-2_寸法
  6
CONTINUOUS
 62
    4
 10
-72.934374450427271
 20
79.255457743853185
 11
-117.37492245042741
 21
79.255457743853185
  0
LINE
  8
_0-2_寸法
  6
CONTINUOUS
 62
    4
 10
-117.37492245042729
 20
216.17669374385332
 11
-117.37492245042741
 21
79.355457743853179
  0
INSERT
  2
-000-_Dot
  8
_0-2_寸法
 10
-117.37492245042729
 20
216.27669374385317
 41
1
 42
1
 50
90
  0
INSERT
  2
-000-_Dot
  8
_0-2_寸法
 10
-117.37492245042741
 20
79.255457743853185
 41
1
 42
1
 50
270
  0
TEXT
  8
_0-2_寸法
 62
    7
 10
-117.4549224504274
 20
145.26607574385321
 40
5
 41
1
 50
90
  1
 I
  0
POINT
  8
_0-1_Defpoints
 62
    7
 10
-45.329262450426896
 20
216.27669374385317
  0
POINT
  8
_0-1_Defpoints
 62
    7
 10
-72.934374450427271
 20
79.255457743853185
  0
POINT
  8
_0-1_Defpoints
 62
    7
 10
-117.37492245042741
 20
79.255457743853185
  0
ENDBLK
  0
BLOCK
  2
-003-_D6
 70
   64
 10
0
 20
0
 30
0
  0
LINE
  8
_0-2_寸法
  6
CONTINUOUS
 62
    4
 10
-72.934374450427271
 20
79.255457743853185
 11
-117.37492245042741
 21
79.255457743853185
  0
LINE
  8
_0-2_寸法
  6
CONTINUOUS
 62
    4
 10
-66.256048450426903
 20
64.255457743853185
 11
-117.37492245042741
 21
64.255457743853185
  0
LINE
  8
_0-2_寸法
  6
CONTINUOUS
 62
    4
 10
-117.37492245042741
 20
79.155457743853191
 11
-117.37492245042741
 21
64.355457743853179
  0
INSERT
  2
-000-_Dot
  8
_0-2_寸法
 10
-117.37492245042741
 20
79.255457743853185
 41
1
 42
1
 50
90
  0
INSERT
  2
-000-_Dot
  8
_0-2_寸法
 10
-117.37492245042741
 20
64.255457743853185
 41
1
 42
1
 50
270
  0
TEXT
  8
_0-2_寸法
 62
    7
 10
-117.4549224504274
 20
70.505457743853185
 40
5
 41
1
 50
90
  1
J
  0
POINT
  8
_0-1_Defpoints
 62
    7
 10
-72.934374450427271
 20
79.255457743853185
  0
POINT
  8
_0-1_Defpoints
 62
    7
 10
-66.256048450426903
 20
64.255457743853185
  0
POINT
  8
_0-1_Defpoints
 62
    7
 10
-117.37492245042741
 20
64.255457743853185
  0
ENDBLK
  0
BLOCK
  2
-004-_D7
 70
   64
 10
0
 20
0
 30
0
  0
LINE
  8
_0-2_寸法
  6
CONTINUOUS
 62
    4
 10
-27.837370450426526
 20
45.30108762193413
 11
-27.837370450426526
 21
3.0880097438533083
  0
LINE
  8
_0-2_寸法
  6
CONTINUOUS
 62
    4
 10
72.316285549572783
 20
45.30108762193413
 11
72.316285549572783
 21
3.0880097438533083
  0
LINE
  8
_0-2_寸法
  6
CONTINUOUS
 62
    4
 10
-27.737370450426528
 20
3.0880097438533083
 11
72.216285549572788
 21
3.0880097438533083
  0
INSERT
  2
-000-_Dot
  8
_0-2_寸法
 10
-27.837370450426526
 20
3.0880097438533083
 41
1
 42
1
 50
180
  0
INSERT
  2
-000-_Dot
  8
_0-2_寸法
 10
72.316285549572783
 20
3.0880097438533083
 41
1
 42
1
 50
0
  0
TEXT
  8
_0-2_寸法
 62
    7
 10
12.239457549573121
 20
3.1680097438533101
 40
5
 41
1
 50
0
  1
Ａ　開口
  0
POINT
  8
_0-1_Defpoints
 62
    7
 10
-27.837370450426526
 20
45.30108762193413
  0
POINT
  8
_0-1_Defpoints
 62
    7
 10
72.316285549572783
 20
45.30108762193413
  0
POINT
  8
_0-1_Defpoints
 62
    7
 10
72.316285549572783
 20
3.0880097438533083
  0
ENDBLK
  0
BLOCK
  2
-005-_D8
 70
   64
 10
0
 20
0
 30
0
  0
LINE
  8
_0-2_寸法
  6
CONTINUOUS
 62
    4
 10
203.71841754957271
 20
80.313809743853184
 11
203.71841754957271
 21
94.302343743853172
  0
LINE
  8
_0-2_寸法
  6
CONTINUOUS
 62
    4
 10
203.8184175495727
 20
94.302343743853172
 11
228.11841754957268
 21
94.302343743853172
  0
INSERT
  2
-000-_Dot
  8
_0-2_寸法
 10
203.71841754957271
 20
94.302343743853172
 41
1
 42
1
 50
180
  0
INSERT
  2
-000-_Dot
  8
_0-2_寸法
 10
228.21841754957268
 20
94.302343743853172
 41
1
 42
1
 50
0
  0
TEXT
  8
_0-2_寸法
 62
    7
 10
203.46841754957282
 20
94.38234374385317
 40
5
 41
1
 50
0
  1
現場合わせ
  0
POINT
  8
_0-1_Defpoints
 62
    7
 10
203.71841754957271
 20
80.313809743853184
  0
POINT
  8
_0-1_Defpoints
 62
    7
 10
228.21841754957268
 20
94.302343743853172
  0
POINT
  8
_0-1_Defpoints
 62
    7
 10
228.21841754957268
 20
94.302343743853172
  0
ENDBLK
  0
BLOCK
  2
-006-_D9
 70
   64
 10
0
 20
0
 30
0
  0
LINE
  8
_0-2_寸法
  6
CONTINUOUS
 62
    4
 10
429.41841754957352
 20
36.256329318604358
 11
429.41841754957352
 21
6.6989057438533566
  0
LINE
  8
_0-2_寸法
  6
CONTINUOUS
 62
    4
 10
419.41841754957352
 20
36.25632931860445
 11
419.41841754957352
 21
6.6989057438533566
  0
LINE
  8
_0-2_寸法
  6
CONTINUOUS
 62
    4
 10
429.3184175495735
 20
6.6989057438533566
 11
419.51841754957348
 21
6.6989057438533566
  0
INSERT
  2
-000-_Dot
  8
_0-2_寸法
 10
429.41841754957352
 20
6.6989057438533566
 41
1
 42
1
 50
0
  0
INSERT
  2
-000-_Dot
  8
_0-2_寸法
 10
419.41841754957352
 20
6.6989057438533566
 41
1
 42
1
 50
180
  0
TEXT
  8
_0-2_寸法
 62
    7
 10
420.66841754957352
 20
6.778905743853354
 40
5
 41
1
 50
0
  1
100
  0
POINT
  8
_0-1_Defpoints
 62
    7
 10
429.41841754957352
 20
36.256329318604358
  0
POINT
  8
_0-1_Defpoints
 62
    7
 10
419.41841754957352
 20
36.25632931860445
  0
POINT
  8
_0-1_Defpoints
 62
    7
 10
419.41841754957352
 20
6.6989057438533566
  0
ENDBLK
  0
BLOCK
  2
-007-_D10
 70
   64
 10
0
 20
0
 30
0
  0
LINE
  8
_0-2_寸法
  6
CONTINUOUS
 62
    4
 10
419.41841754957352
 20
36.25632931860445
 11
419.41841754957352
 21
6.6989057438533566
  0
LINE
  8
_0-2_寸法
  6
CONTINUOUS
 62
    4
 10
238.21841754957268
 20
43.188534255118881
 11
238.21841754957268
 21
6.6989057438533566
  0
LINE
  8
_0-2_寸法
  6
CONTINUOUS
 62
    4
 10
419.3184175495735
 20
6.6989057438533566
 11
238.31841754957267
 21
6.6989057438533566
  0
INSERT
  2
-000-_Dot
  8
_0-2_寸法
 10
419.41841754957352
 20
6.6989057438533566
 41
1
 42
1
 50
0
  0
INSERT
  2
-000-_Dot
  8
_0-2_寸法
 10
238.21841754957268
 20
6.6989057438533566
 41
1
 42
1
 50
180
  0
TEXT
  8
_0-2_寸法
 62
    7
 10
323.8184175495731
 20
6.7789057438533575
 40
5
 41
1
 50
0
  1
開口
  0
POINT
  8
_0-1_Defpoints
 62
    7
 10
419.41841754957352
 20
36.25632931860445
  0
POINT
  8
_0-1_Defpoints
 62
    7
 10
238.21841754957268
 20
43.188534255118881
  0
POINT
  8
_0-1_Defpoints
 62
    7
 10
238.21841754957268
 20
6.6989057438533566
  0
ENDBLK
  0
BLOCK
  2
-008-_D11
 70
   64
 10
0
 20
0
 30
0
  0
LINE
  8
_0-2_寸法
  6
CONTINUOUS
 62
    4
 10
238.21841754957268
 20
43.188534255118881
 11
238.21841754957268
 21
6.6989057438533566
  0
LINE
  8
_0-2_寸法
  6
CONTINUOUS
 62
    4
 10
228.218417549572
 20
64.219445690783147
 11
228.218417549572
 21
6.6989057438533566
  0
LINE
  8
_0-2_寸法
  6
CONTINUOUS
 62
    4
 10
238.11841754957268
 20
6.6989057438533566
 11
228.31841754957199
 21
6.6989057438533566
  0
INSERT
  2
-000-_Dot
  8
_0-2_寸法
 10
238.21841754957268
 20
6.6989057438533566
 41
1
 42
1
 50
0
  0
INSERT
  2
-000-_Dot
  8
_0-2_寸法
 10
228.218417549572
 20
6.6989057438533566
 41
1
 42
1
 50
180
  0
TEXT
  8
_0-2_寸法
 62
    7
 10
229.46841754957231
 20
6.778905743853354
 40
5
 41
1
 50
0
  1
100
  0
POINT
  8
_0-1_Defpoints
 62
    7
 10
238.21841754957268
 20
43.188534255118881
  0
POINT
  8
_0-1_Defpoints
 62
    7
 10
228.218417549572
 20
64.219445690783147
  0
POINT
  8
_0-1_Defpoints
 62
    7
 10
228.218417549572
 20
6.6989057438533566
  0
ENDBLK
  0
BLOCK
  2
-009-_D12
 70
   64
 10
0
 20
0
 30
0
  0
LINE
  8
_0-2_寸法
  6
CONTINUOUS
 62
    4
 10
279.21841754957268
 20
242.22125774385322
 11
279.21841754957268
 21
257.01104974385322
  0
LINE
  8
_0-2_寸法
  6
CONTINUOUS
 62
    4
 10
378.41841754957352
 20
242.22125774385322
 11
378.41841754957352
 21
257.01104974385322
  0
LINE
  8
_0-2_寸法
  6
CONTINUOUS
 62
    4
 10
279.3184175495727
 20
257.01104974385322
 11
378.3184175495735
 21
257.01104974385322
  0
INSERT
  2
-000-_Dot
  8
_0-2_寸法
 10
279.21841754957268
 20
257.01104974385322
 41
1
 42
1
 50
180
  0
INSERT
  2
-000-_Dot
  8
_0-2_寸法
 10
378.41841754957352
 20
257.01104974385322
 41
1
 42
1
 50
0
  0
TEXT
  8
_0-2_寸法
 62
    7
 10
313.8184175495731
 20
257.0910497438532
 40
5
 41
1
 50
0
  1
８４０ピッチ
  0
POINT
  8
_0-1_Defpoints
 62
    7
 10
279.21841754957268
 20
242.22125774385322
  0
POINT
  8
_0-1_Defpoints
 62
    7
 10
378.41841754957352
 20
242.22125774385322
  0
POINT
  8
_0-1_Defpoints
 62
    7
 10
378.41841754957352
 20
257.01104974385322
  0
ENDBLK
  0
BLOCK
  2
-010-_D13
 70
   64
 10
0
 20
0
 30
0
  0
LINE
  8
_0-2_寸法
  6
CONTINUOUS
 62
    4
 10
228.21841754957268
 20
244.32367974385321
 11
228.21841754957268
 21
272.1839217438532
  0
LINE
  8
_0-2_寸法
  6
CONTINUOUS
 62
    4
 10
429.41841754957352
 20
244.25747974385322
 11
429.41841754957352
 21
272.1839217438532
  0
LINE
  8
_0-2_寸法
  6
CONTINUOUS
 62
    4
 10
228.31841754957281
 20
272.1839217438532
 11
429.3184175495735
 21
272.1839217438532
  0
INSERT
  2
-000-_Dot
  8
_0-2_寸法
 10
228.21841754957268
 20
272.1839217438532
 41
1
 42
1
 50
180
  0
INSERT
  2
-000-_Dot
  8
_0-2_寸法
 10
429.41841754957352
 20
272.1839217438532
 41
1
 42
1
 50
0
  0
TEXT
  8
_0-2_寸法
 62
    7
 10
323.8184175495731
 20
272.26392174385319
 40
5
 41
1
 50
0
  1
全長
  0
POINT
  8
_0-1_Defpoints
 62
    7
 10
228.21841754957268
 20
244.32367974385321
  0
POINT
  8
_0-1_Defpoints
 62
    7
 10
429.41841754957352
 20
244.25747974385322
  0
POINT
  8
_0-1_Defpoints
 62
    7
 10
429.41841754957352
 20
272.1839217438532
  0
ENDBLK
  0
BLOCK
  2
-011-_D14
 70
   64
 10
0
 20
0
 30
0
  0
LINE
  8
_0-2_寸法
  6
CONTINUOUS
 62
    4
 10
-52.151818450426788
 20
58.522927743853231
 11
-53.712880337707382
 21
63.690175777907243
  0
LINE
  8
_0-2_寸法
  6
CONTINUOUS
 62
    4
 10
-28.114038450426602
 20
65.78490974385322
 11
-29.675100337707171
 21
70.952157777907232
  0
LINE
  8
_0-2_寸法
  6
CONTINUOUS
 62
    4
 10
-53.617153401207268
 20
63.719095557095649
 11
-29.770827274207278
 21
70.923237998718861
  0
INSERT
  2
-000-_Dot
  8
_0-2_寸法
 10
-53.712880337707382
 20
63.690175777907243
 41
1
 42
1
 50
196.80993509322801
  0
INSERT
  2
-000-_Dot
  8
_0-2_寸法
 10
-29.675100337707171
 20
70.952157777907232
 41
1
 42
1
 50
16.80993509322802
  0
TEXT
  8
_0-2_寸法
 62
    7
 10
-53.682993223571152
 20
63.782775928559559
 40
5
 41
1
 50
16.809935093228223
  1
現場合わせ
  0
POINT
  8
_0-1_Defpoints
 62
    7
 10
-52.151818450426788
 20
58.522927743853231
  0
POINT
  8
_0-1_Defpoints
 62
    7
 10
-28.114038450426602
 20
65.78490974385322
  0
POINT
  8
_0-1_Defpoints
 62
    7
 10
-29.675100337707171
 20
70.952157777907232
  0
ENDBLK
  0
ENDSEC
  0
SECTION
  2
ENTITIES
  0
LINE
  8
_0-3_躯体と製品
  6
CONTINUOUS
 62
    7
 10
440.42161000000101
 20
220.81085999999925
 11
690.42161000000078
 21
220.81085999999925
  0
LINE
  8
_0-4_図面枠
  6
CONTINUOUS
 62
    3
 10
527.91777000000093
 20
222.3232799999995
 11
288.59913000000006
 21
-192.18874000000022
  0
LINE
  8
_0-4_図面枠
  6
CONTINUOUS
 62
    3
 10
647.78717000000279
 20
191.26389999999913
 11
322.65831000000298
 21
-371.87578000000019
  0
LINE
  8
_0-4_図面枠
  6
CONTINUOUS
 62
    7
 10
-3451.1666699999987
 20
-2372.9999999999995
 11
4292.1666699999987
 21
-2372.9999999999995
  0
LINE
  8
_0-4_図面枠
  6
CONTINUOUS
 62
    7
 10
-3451.1666699999987
 20
2633.6666599999994
 11
4292.1666699999987
 21
2633.6666599999994
  0
LINE
  8
_0-4_図面枠
  6
CONTINUOUS
 62
    7
 10
-3451.1666699999987
 20
2966.9999999999995
 11
4292.1666699999987
 21
2966.9999999999995
  0
TEXT
  8
_0-4_図面枠
 62
    7
 10
-1338.6649899999952
 20
2715.2788
 40
199.99999999999955
 41
0.8000000000000018
 50
0
  1
連続式ベンチレーター　排煙Ｈ型　　施工図
  0
LINE
  8
_0-4_図面枠
  6
CONTINUOUS
 62
    3
 10
3016.5805500000024
 20
-1225.0957400000002
 11
367.67434999999909
 21
-1225.0957400000002
  0
LINE
  8
_0-4_図面枠
  6
CONTINUOUS
 62
    4
 10
3016.5805500000024
 20
-1085.0957400000002
 11
-2281.2318499999969
 21
-1085.0957400000002
  0
LINE
  8
_0-4_図面枠
  6
CONTINUOUS
 62
    4
 10
367.67434999999909
 20
-1985.0957399999993
 11
3016.5805500000024
 21
-1985.0957399999993
  0
LINE
  8
_0-4_図面枠
  6
CONTINUOUS
 62
    3
 10
367.67434999999909
 20
-1835.0957399999993
 11
3016.5805500000024
 21
-1835.0957399999993
  0
LINE
  8
_0-4_図面枠
  6
CONTINUOUS
 62
    3
 10
367.67434999999909
 20
-1685.0957399999993
 11
3016.5805500000024
 21
-1685.0957399999993
  0
LINE
  8
_0-4_図面枠
  6
CONTINUOUS
 62
    3
 10
367.67434999999909
 20
-1535.0957400000002
 11
3016.5805500000024
 21
-1535.0957400000002
  0
LINE
  8
_0-4_図面枠
  6
CONTINUOUS
 62
    3
 10
367.67434999999909
 20
-1235.0957400000002
 11
3016.5805500000024
 21
-1235.0957400000002
  0
LINE
  8
_0-4_図面枠
  6
CONTINUOUS
 62
    3
 10
367.67434999999909
 20
-1385.0957400000002
 11
3016.5805500000024
 21
-1385.0957400000002
  0
TEXT
  8
_0-4_図面枠
 62
    7
 10
378.36855000000196
 20
-1513.5217800000009
 40
60
 41
0.8
 50
0
  1
ＳＣ１０００
  0
TEXT
  8
_0-4_図面枠
 62
    7
 10
383.41311000000292
 20
-1671.5820800000006
 40
60
 41
0.8000000000000001
 50
0
  1
ＳＣ１２００
  0
TEXT
  8
_0-4_図面枠
 62
    7
 10
391.82069000000206
 20
-1817.8717199999996
 40
60
 41
0.8000000000000001
 50
0
  1
ＳＣ１５００
  0
TEXT
  8
_0-4_図面枠
 62
    7
 10
393.50221000000306
 20
-1966.6837400000004
 40
60
 41
0.8000000000000001
 50
0
  1
ＳＣ２０００
  0
LINE
  8
_0-3_躯体と製品
  6
CONTINUOUS
 62
    7
 10
450.4216100000001
 20
218.81085999999993
 11
440.42161000000101
 21
218.81085999999993
  0
ARC
  8
_0-3_躯体と製品
  6
CONTINUOUS
 62
    4
 10
421.13303000000292
 20
209.52308000000028
 40
36.131099999999989
 50
203.12832000000384
 51
336.70039200000173
  0
ARC
  8
_0-3_躯体と製品
  6
CONTINUOUS
 62
    4
 10
421.13303000000292
 20
209.52308000000028
 40
42.131099999999989
 50
203.12832000000384
 51
336.70039200000173
  0
LINE
  8
_0-3_躯体と製品
  6
PLINE3
 62
    3
 10
-1373.099709999999
 20
1656.1748799999987
 11
-1373.099709999999
 21
-48.698740000000953
  0
LINE
  8
_0-4_図面枠
  6
CONTINUOUS
 62
    7
 10
-3451.1666699999987
 20
2966.9999999999995
 11
-3451.1666699999987
 21
-2372.9999999999995
  0
TEXT
  8
_0-4_図面枠
 62
    7
 10
-2467.6590099999958
 20
293.75474212782615
 40
59.999999999999986
 41
0.7999999999999973
 50
0.0000100000010085
  1
外板
  0
LINE
  8
_0-4_図面枠
  6
CONTINUOUS
 62
    3
 10
-2307.5847499999986
 20
383.64954000000034
 11
-2365.2589899999998
 21
283.75479999999925
  0
LINE
  8
_0-3_躯体と製品
  6
CONTINUOUS
 62
    7
 10
-1973.099709999999
 20
257.96317999999928
 11
-2668.099709999999
 21
520.22733999999843
  0
LINE
  8
_0-3_躯体と製品
  6
CONTINUOUS
 62
    3
 10
-2192.9506699999979
 20
362.30243999999971
 11
-2207.072969999997
 21
324.87835999999913
  0
LINE
  8
_0-3_躯体と製品
  6
CONTINUOUS
 62
    4
 10
-1883.099709999999
 20
120.22733999999912
 11
-1883.099709999999
 21
459.14369999999951
  0
LINE
  8
_0-3_躯体と製品
  6
CONTINUOUS
 62
    4
 10
-2613.8579899999991
 20
553.2002999999994
 11
-1883.099709999999
 21
277.44245999999885
  0
LINE
  8
_0-3_躯体と製品
  6
PLINE5
 62
    4
 10
-2661.700069999999
 20
524.22535999999843
 11
-1883.099709999999
 21
230.41389999999978
  0
LINE
  8
_0-3_躯体と製品
  6
PLINE5
 62
    4
 10
-923.15570999999863
 20
343.33719999999971
 11
-923.15570999999863
 21
21.475620000000049
  0
LINE
  8
_0-3_躯体と製品
  6
PLINE5
 62
    4
 10
-879.59970999999996
 20
343.33719999999971
 11
-879.59970999999996
 21
8.3170599999995147
  0
LINE
  8
_0-3_躯体と製品
  6
PLINE5
 62
    4
 10
-873.59970999999632
 20
343.33719999999971
 11
-873.59970999999632
 21
6.504419999998845
  0
LINE
  8
_0-3_躯体と製品
  6
CONTINUOUS
 62
    4
 10
-748.09970999999905
 20
240.67637999999874
 11
-50.978849999999056
 21
503.74083999999959
  0
LINE
  8
_0-3_躯体と製品
  6
PLINE2
 62
    6
 10
-1990.1967099999979
 20
317.8564199999995
 11
-1883.099709999999
 21
424.95343999999932
  0
LINE
  8
_0-3_躯体と製品
  6
PLINE2
 62
    6
 10
-1964.5277699999974
 20
308.17003999999895
 11
-1883.099709999999
 21
389.59809999999959
  0
LINE
  8
_0-3_躯体と製品
  6
PLINE2
 62
    6
 10
-1938.8588299999969
 20
298.48363999999958
 11
-1883.099709999999
 21
354.24275999999861
  0
LINE
  8
_0-3_躯体と製品
  6
CONTINUOUS
 62
    4
 10
-1873.099709999999
 20
1018.7368399999986
 11
-1873.099709999999
 21
4.8493599999995922
  0
LINE
  8
_0-3_躯体と製品
  6
PLINE5
 62
    4
 10
-1867.09971
 20
973.38983999999846
 11
-1867.09971
 21
6.6620200000000978
  0
LINE
  8
_0-3_躯体と製品
  6
CONTINUOUS
 62
    4
 10
-1823.099709999999
 20
1031.2032399999994
 11
-1823.099709999999
 21
18.350899999999342
  0
LINE
  8
_0-3_躯体と製品
  6
CONTINUOUS
 62
    7
 10
-1873.5997099999963
 20
530.0878199999994
 11
-1873.5997099999963
 21
70.227339999999117
  0
LINE
  8
_0-4_図面枠
  6
CONTINUOUS
 62
    3
 10
-1969.3298299999992
 20
41.513339999999175
 11
-2406.7731299999991
 21
-716.16068000000018
  0
LINE
  8
_0-4_図面枠
  6
CONTINUOUS
 62
    3
 10
-1891.4804099999969
 20
-102.28260000000091
 11
-2353.7902499999996
 21
-903.0267600000011
  0
LINE
  8
_0-4_図面枠
  6
CONTINUOUS
 62
    3
 10
-2281.2318499999969
 20
-1985.0957399999993
 11
367.67434999999909
 21
-1985.0957399999993
  0
LINE
  8
_0-4_図面枠
  6
CONTINUOUS
 62
    3
 10
-2281.2318499999969
 20
-1835.0957399999993
 11
367.67434999999909
 21
-1835.0957399999993
  0
LINE
  8
_0-4_図面枠
  6
CONTINUOUS
 62
    3
 10
-2281.2318499999969
 20
-1685.0957399999993
 11
367.67434999999909
 21
-1685.0957399999993
  0
LINE
  8
_0-4_図面枠
  6
CONTINUOUS
 62
    3
 10
-2281.2318499999969
 20
-1535.0957400000002
 11
367.67434999999909
 21
-1535.0957400000002
  0
LINE
  8
_0-4_図面枠
  6
CONTINUOUS
 62
    3
 10
-2281.2318499999969
 20
-1385.0957400000002
 11
367.67434999999909
 21
-1385.0957400000002
  0
LINE
  8
_0-4_図面枠
  6
CONTINUOUS
 62
    3
 10
-2281.2318499999969
 20
-1225.0957400000002
 11
367.67434999999909
 21
-1225.0957400000002
  0
LINE
  8
_0-4_図面枠
  6
CONTINUOUS
 62
    3
 10
-2281.2318499999969
 20
-1235.0957400000002
 11
367.67434999999909
 21
-1235.0957400000002
  0
TEXT
  8
_0-4_図面枠
 62
    7
 10
-2211.106629999997
 20
-1363.52162
 40
60
 41
0.8000000000000001
 50
0
  1
ＳＣ３００
  0
TEXT
  8
_0-4_図面枠
 62
    7
 10
-2206.0620699999959
 20
-1521.581920000001
 40
60
 41
0.8000000000000001
 50
0
  1
ＳＣ４００
  0
TEXT
  8
_0-4_図面枠
 62
    7
 10
-2197.6544699999999
 20
-1667.8717400000005
 40
60
 41
0.8000000000000001
 50
0
  1
ＳＣ４５０
  0
TEXT
  8
_0-4_図面枠
 62
    7
 10
-2195.972949999998
 20
-1816.6838999999995
 40
60
 41
0.8000000000000001
 50
0
  1
ＳＣ５００
  0
TEXT
  8
_0-4_図面枠
 62
    7
 10
-2199.3359899999973
 20
-1962.1331200000004
 40
60
 41
0.8000000000000001
 50
0
  1
ＳＣ６００
  0
TEXT
  8
_0-4_図面枠
 62
    7
 10
-2206.9025299999998
 20
-2101.6967000000004
 40
60
 41
0.8000000000000001
 50
0
  1
ＳＣ７５０
  0
TEXT
  8
_0-4_図面枠
 62
    7
 10
-2184.348809999999
 20
-1205.6868400000008
 40
60
 41
0.7999999999999987
 50
0
  1
型　　式
  0
LINE
  8
_0-4_図面枠
  6
CONTINUOUS
 62
    4
 10
-2281.2318499999969
 20
-2135.0957399999993
 11
367.67434999999909
 21
-2135.0957399999993
  0
LINE
  8
_0-3_躯体と製品
  6
CONTINUOUS
 62
    3
 10
-1880.1212299999975
 20
10.80203999999992
 11
-2372.1839899999964
 21
-137.85354000000092
  0
LINE
  8
_0-3_躯体と製品
  6
CONTINUOUS
 62
    3
 10
-1921.4631699999995
 20
-7.9554800000004207
 11
-2370.4488099999958
 21
-143.59716000000043
  0
LINE
  8
_0-3_躯体と製品
  6
PLINE3
 62
    3
 10
-1373.5997099999963
 20
32.201339999999277
 11
-2335.7450699999958
 21
-258.46950000000106
  0
LINE
  8
_0-3_躯体と製品
  6
CONTINUOUS
 62
    3
 10
-1894.5811299999991
 20
58.665499999999724
 11
-2386.643889999998
 21
-89.990080000001115
  0
LINE
  8
_0-3_躯体と製品
  6
CONTINUOUS
 62
    7
 10
-1873.5997099999963
 20
70.227339999999117
 11
-2108.0972099999985
 21
-0.6160000000011223
  0
LINE
  8
_0-4_図面枠
  6
CONTINUOUS
 62
    4
 10
-2281.2318499999969
 20
-1085.0957400000002
 11
-2281.2318499999969
 21
-2135.0957399999993
  0
LINE
  8
_0-4_図面枠
  6
CONTINUOUS
 62
    3
 10
-2062.0870300000001
 20
-17.447980000000484
 11
-2353.1189899999958
 21
-521.53012000000092
  0
LINE
  8
_0-4_図面枠
  6
CONTINUOUS
 62
    3
 10
-2353.1189899999958
 20
-521.53012000000092
 11
-2809.1979499999952
 21
-521.53012000000092
  0
TEXT
  8
_0-4_図面枠
 62
    7
 10
-2510.5901099999951
 20
-893.02688736676646
 40
60.000000000000007
 41
0.8000000000000006
 50
0.0000100000010064
  1
添母屋
  0
LINE
  8
_0-4_図面枠
  6
CONTINUOUS
 62
    3
 10
-2353.7902499999996
 20
-903.0267600000011
 11
-2523.1983699999978
 21
-903.0267600000011
  0
TEXT
  8
_0-4_図面枠
 62
    7
 10
-2566.7722899999944
 20
-706.16072792527109
 40
60.000000000000121
 41
0.799999999999999
 50
0.0000100000010516
  1
水切板
  0
LINE
  8
_0-4_図面枠
  6
CONTINUOUS
 62
    3
 10
-2406.7731299999991
 20
-716.16068000000018
 11
-2587.3731299999986
 21
-716.16068000000018
  0
TEXT
  8
_0-4_図面枠
 62
    7
 10
-2802.9736299999922
 20
-346.09149808456448
 40
60.000000000000007
 41
0.7999999999999998
 50
0.0000100000009838
  1
スレート大波
  0
LINE
  8
_0-4_図面枠
  6
CONTINUOUS
 62
    3
 10
-2470.1738099999989
 20
-356.09108000000106
 11
-2785.1954899999982
 21
-356.09108000000106
  0
TEXT
  8
_0-4_図面枠
 62
    7
 10
-2858.7191099999882
 20
-511.5303682438564
 40
60.000000000000007
 41
0.8
 50
0.0000100000010064
  1
ケミカルメンド処理
  0
LINE
  8
_0-4_図面枠
  6
CONTINUOUS
 62
    3
 10
-2320.5623299999957
 20
-96.956380000000308
 11
-2470.1738099999989
 21
-356.09108000000106
  0
LINE
  8
_0-4_図面枠
  6
CONTINUOUS
 62
    3
 10
-2320.5623299999957
 20
-96.956380000000308
 11
-2331.9020699999987
 21
-136.59740000000039
  0
LINE
  8
_0-4_図面枠
  6
CONTINUOUS
 62
    3
 10
-2365.2589899999998
 20
283.75479999999925
 11
-2488.3961299999987
 21
283.75479999999925
  0
LINE
  8
_0-3_躯体と製品
  6
CONTINUOUS
 62
    6
 10
-2060.9630899999979
 20
13.623539999999934
 11
-2080.2725699999996
 21
-5.7606800000006615
  0
LINE
  8
_0-3_躯体と製品
  6
CONTINUOUS
 62
    3
 10
-2055.3058699999997
 20
15.332639999999287
 11
-2039.3999899999994
 21
-37.317180000001144
  0
LINE
  8
_0-4_図面枠
  6
CONTINUOUS
 62
    3
 10
-2062.0870300000001
 20
-17.447980000000484
 11
-2110.7472699999994
 21
-81.730020000000991
  0
LINE
  8
_0-4_図面枠
  6
CONTINUOUS
 62
    3
 10
-2062.0870300000001
 20
-17.447980000000484
 11
-2093.4267699999987
 21
-91.730020000000991
  0
LINE
  8
_0-3_躯体と製品
  6
CONTINUOUS
 62
    6
 10
-2073.703409999996
 20
-27.505160000000501
 11
-2049.6569899999963
 21
-3.3656600000005028
  0
LINE
  8
_0-3_躯体と製品
  6
CONTINUOUS
 62
    7
 10
-2113.1408899999974
 20
-4.6680999999999813
 11
-2108.0972099999985
 21
-0.6160000000011223
  0
LINE
  8
_0-3_躯体と製品
  6
CONTINUOUS
 62
    3
 10
-2084.0239499999984
 20
6.656699999999887
 11
-2068.1180699999982
 21
-45.993120000000545
  0
LINE
  8
_0-3_躯体と製品
  6
CONTINUOUS
 62
    6
 10
-2063.7796299999968
 20
-45.882040000000075
 11
-2043.0878299999972
 21
-25.110140000000456
  0
LINE
  8
_0-3_躯体と製品
  6
CONTINUOUS
 62
    3
 10
-1996.4743099999964
 20
288.16039999999953
 11
-2010.5966100000001
 21
250.73633999999981
  0
LINE
  8
_0-4_図面枠
  6
CONTINUOUS
 62
    4
 10
367.67434999999909
 20
-2135.0957399999993
 11
367.67434999999909
 21
-1085.0957400000002
  0
TEXT
  8
_0-4_図面枠
 62
    7
 10
-120.95030999999608
 20
-1367.9485000000009
 40
60
 41
0.8000000000000003
 50
0
  1
０．６
  0
LINE
  8
_0-4_図面枠
  6
CONTINUOUS
 62
    4
 10
67.674349999999095
 20
-1085.0957400000002
 11
67.674349999999095
 21
-2135.0957399999993
  0
LINE
  8
_0-4_図面枠
  6
CONTINUOUS
 62
    3
 10
-582.32565000000102
 20
-1085.0957400000002
 11
-582.32565000000102
 21
-2135.0957399999993
  0
LINE
  8
_0-4_図面枠
  6
CONTINUOUS
 62
    3
 10
-182.32565
 20
-1085.0957400000002
 11
-182.32565
 21
-2135.0957399999993
  0
TEXT
  8
_0-4_図面枠
 62
    7
 10
-1613.3357099999989
 20
-1366.0439000000006
 40
60
 41
0.7999999999999999
 50
0
  1
３００
  0
LINE
  8
_0-4_図面枠
  6
CONTINUOUS
 62
    3
 10
-982.32564999999568
 20
-1085.0957400000002
 11
-982.32564999999568
 21
-2135.0957399999993
  0
LINE
  8
_0-4_図面枠
  6
CONTINUOUS
 62
    3
 10
-1382.3256499999957
 20
-1085.0957400000002
 11
-1382.3256499999957
 21
-2135.0957399999993
  0
LINE
  8
_0-4_図面枠
  6
CONTINUOUS
 62
    3
 10
-1782.3256499999957
 20
-1085.0957400000002
 11
-1782.3256499999957
 21
-2135.0957399999993
  0
LINE
  8
_0-4_図面枠
  6
CONTINUOUS
 62
    3
 10
363.67435000000296
 20
-2135.0957399999993
 11
363.67435000000296
 21
-1085.0957400000002
  0
TEXT
  8
_0-4_図面枠
 62
    7
 10
-886.2560899999994
 20
-1505.2739400000005
 40
60
 41
0.8
 50
0
  1
　１００
  0
TEXT
  8
_0-4_図面枠
 62
    7
 10
-886.2560899999994
 20
-1655.2737800000004
 40
60
 41
0.8
 50
0
  1
　１００
  0
TEXT
  8
_0-4_図面枠
 62
    7
 10
-902.74244999999837
 20
-2110.7073199999995
 40
60
 41
0.8
 50
0
  1
　１５０
  0
TEXT
  8
_0-4_図面枠
 62
    7
 10
-894.93298999999524
 20
-1954.5195800000006
 40
60
 41
0.8
 50
0
  1
　１５０
  0
TEXT
  8
_0-4_図面枠
 62
    7
 10
-886.2560899999994
 20
-1805.2736799999993
 40
60
 41
0.8
 50
0
  1
　１００
  0
TEXT
  8
_0-4_図面枠
 62
    7
 10
-1620.9028499999999
 20
-1816.6838999999995
 40
60
 41
0.7999999999999999
 50
0
  1
５００
  0
TEXT
  8
_0-4_図面枠
 62
    7
 10
-1868.9253099999974
 20
-1806.5490000000004
 40
60
 41
0.7999999999999982
 50
0
  1
Ｈ
  0
TEXT
  8
_0-4_図面枠
 62
    7
 10
-1871.7072899999971
 20
-2097.9598400000004
 40
60
 41
0.7999999999999982
 50
0
  1
Ｈ
  0
TEXT
  8
_0-4_図面枠
 62
    7
 10
-1871.7072899999971
 20
-1963.0346000000004
 40
60
 41
0.7999999999999982
 50
0
  1
Ｈ
  0
TEXT
  8
_0-4_図面枠
 62
    7
 10
-1620.0617899999975
 20
-2107.5820200000003
 40
60
 41
0.7999999999999999
 50
0
  1
７５０
  0
TEXT
  8
_0-4_図面枠
 62
    7
 10
-1617.5398099999961
 20
-1957.9293200000006
 40
60
 41
0.7999999999999999
 50
0
  1
６００
  0
TEXT
  8
_0-4_図面枠
 62
    7
 10
-1871.012089999997
 20
-1661.8872600000004
 40
60
 41
0.7999999999999982
 50
0
  1
Ｈ
  0
TEXT
  8
_0-4_図面枠
 62
    7
 10
-1874.4892699999968
 20
-1515.8342400000001
 40
60
 41
0.7999999999999982
 50
0
  1
Ｈ
  0
TEXT
  8
_0-4_図面枠
 62
    7
 10
-1629.3098299999997
 20
-1655.2606599999995
 40
60
 41
0.7999999999999999
 50
0
  1
４５０
  0
TEXT
  8
_0-4_図面枠
 62
    7
 10
-1620.0617899999975
 20
-1508.9708400000004
 40
60
 41
0.7999999999999999
 50
0
  1
４００
  0
TEXT
  8
_0-4_図面枠
 62
    7
 10
-1220.9028499999999
 20
-1816.6838999999995
 40
60
 41
0.7999999999999999
 50
0
  1
６９０
  0
TEXT
  8
_0-4_図面枠
 62
    7
 10
-1278.0775299999982
 20
-2101.2145400000004
 40
60
 41
0.7999999999999996
 50
0
  1
１０３０
  0
TEXT
  8
_0-4_図面枠
 62
    7
 10
-1217.5398099999961
 20
-1957.9293200000006
 40
60
 41
0.7999999999999999
 50
0
  1
８３５
  0
TEXT
  8
_0-4_図面枠
 62
    7
 10
-1229.3098299999997
 20
-1655.2606599999995
 40
60
 41
0.7999999999999999
 50
0
  1
６２５
  0
TEXT
  8
_0-4_図面枠
 62
    7
 10
-1220.0617899999975
 20
-1508.9708400000004
 40
60
 41
0.7999999999999999
 50
0
  1
５６０
  0
TEXT
  8
_0-4_図面枠
 62
    7
 10
-486.25609000000009
 20
-1805.2736799999993
 40
60
 41
0.8
 50
0
  1
１３００
  0
TEXT
  8
_0-4_図面枠
 62
    7
 10
-502.742289999999
 20
-2110.7073199999995
 40
60
 41
0.8
 50
0
  1
１９４０
  0
TEXT
  8
_0-4_図面枠
 62
    7
 10
-494.9328499999981
 20
-1954.5195800000006
 40
60
 41
0.8
 50
0
  1
１５６０
  0
TEXT
  8
_0-4_図面枠
 62
    7
 10
-481.76816999999801
 20
-1661.4368199999994
 40
60
 41
0.8
 50
0
  1
１１７０
  0
TEXT
  8
_0-4_図面枠
 62
    7
 10
-476.36410999999794
 20
-1515.3633599999998
 40
60
 41
0.8
 50
0
  1
１０４０
  0
TEXT
  8
_0-4_図面枠
 62
    7
 10
125.25851000000102
 20
-1800.5503200000003
 40
60
 41
0.8
 50
0
  1
Ｌ型鋼
  0
TEXT
  8
_0-4_図面枠
 62
    7
 10
-120.95030999999608
 20
-1817.9482400000006
 40
60
 41
0.8000000000000003
 50
0
  1
０．６
  0
LINE
  8
_0-4_図面枠
  6
CONTINUOUS
 62
    4
 10
367.67434999999909
 20
-1385.0957400000002
 11
367.67434999999909
 21
-2135.0957399999993
  0
TEXT
  8
_0-4_図面枠
 62
    7
 10
125.25851000000102
 20
-1950.5504600000004
 40
60
 41
0.8
 50
0
  1
Ｌ型鋼
  0
TEXT
  8
_0-4_図面枠
 62
    7
 10
125.25851000000102
 20
-2100.5504600000004
 40
60
 41
0.8
 50
0
  1
Ｌ型鋼
  0
TEXT
  8
_0-4_図面枠
 62
    7
 10
-120.95030999999608
 20
-2117.9482400000006
 40
60
 41
0.8000000000000003
 50
0
  1
０．８
  0
TEXT
  8
_0-4_図面枠
 62
    7
 10
-120.95030999999608
 20
-1967.9482400000006
 40
60
 41
0.8000000000000003
 50
0
  1
０．６
  0
TEXT
  8
_0-4_図面枠
 62
    7
 10
125.25851000000102
 20
-1650.5504400000004
 40
60
 41
0.8
 50
0
  1
Ｌ型鋼
  0
TEXT
  8
_0-4_図面枠
 62
    7
 10
-120.95030999999608
 20
-1667.9483399999995
 40
60
 41
0.8000000000000003
 50
0
  1
０．６
  0
TEXT
  8
_0-4_図面枠
 62
    7
 10
-120.95030999999608
 20
-1517.9485000000009
 40
60
 41
0.8000000000000003
 50
0
  1
０．６
  0
TEXT
  8
_0-4_図面枠
 62
    7
 10
156.32235000000196
 20
-1509.2183400000008
 40
60
 41
0.8
 50
0
  1
ＦＢ
  0
TEXT
  8
_0-4_図面枠
 62
    7
 10
-886.2560899999994
 20
-1355.2739400000005
 40
60
 41
0.8
 50
0
  1
　１００
  0
LINE
  8
_0-3_躯体と製品
  6
CONTINUOUS
 62
    3
 10
-825.73622999999998
 20
-7.9554800000004207
 11
-376.7505900000001
 21
-143.59716000000043
  0
LINE
  8
_0-3_躯体と製品
  6
CONTINUOUS
 62
    3
 10
-852.61827000000039
 20
58.665499999999724
 11
-360.55550999999696
 21
-89.990080000001115
  0
LINE
  8
_0-3_躯体と製品
  6
CONTINUOUS
 62
    3
 10
-867.0781699999975
 20
10.80203999999992
 11
-375.01540999999906
 21
-137.85354000000092
  0
LINE
  8
_0-3_躯体と製品
  6
PLINE3
 62
    3
 10
-1373.5997099999963
 20
32.201339999999277
 11
-411.45432999999889
 21
-258.46950000000106
  0
LINE
  8
_0-3_躯体と製品
  6
CONTINUOUS
 62
    7
 10
-639.10218999999643
 20
-0.6160000000011223
 11
-1373.5997099999963
 21
221.28081999999836
  0
TEXT
  8
_0-4_図面枠
 62
    7
 10
-1880.7490299999995
 20
-1363.52162
 40
60
 41
0.7999999999999982
 50
0
  1
Ｈ
  0
TEXT
  8
_0-4_図面枠
 62
    7
 10
-1600.0233299999968
 20
-1196.7586200000005
 40
60
 41
0.7999999999999982
 50
0
  1
Ａ
  0
TEXT
  8
_0-4_図面枠
 62
    7
 10
-1220.0617899999975
 20
-1358.9708400000004
 40
60
 41
0.7999999999999999
 50
0
  1
４３０
  0
TEXT
  8
_0-4_図面枠
 62
    7
 10
-1198.9301899999987
 20
-1201.5526200000008
 40
60
 41
0.7999999999999982
 50
0
  1
Ｉ
  0
LINE
  8
_0-3_躯体と製品
  6
CONTINUOUS
 62
    3
 10
-1448.099709999999
 20
9.6943599999998469
 11
-1299.0997099999981
 21
9.6943599999998469
  0
LINE
  8
_0-3_躯体と製品
  6
CONTINUOUS
 62
    3
 10
-1446.0997099999963
 20
1.6943599999990511
 11
-1378.34971
 21
1.6943599999990511
  0
LINE
  8
_0-4_図面枠
  6
CONTINUOUS
 62
    3
 10
-1856.4475299999981
 20
-42.083380000000261
 11
-1839.1839499999992
 21
-39.925440000000663
  0
LINE
  8
_0-4_図面枠
  6
CONTINUOUS
 62
    3
 10
-1839.1839499999992
 20
-39.925440000000663
 11
-1829.473889999997
 21
-51.142100000000596
  0
LINE
  8
_0-4_図面枠
  6
CONTINUOUS
 62
    3
 10
-1829.473889999997
 20
-51.142100000000596
 11
-1825.8046899999977
 21
-69.705080000001033
  0
LINE
  8
_0-4_図面枠
  6
CONTINUOUS
 62
    3
 10
-1825.8046899999977
 20
-69.705080000001033
 11
-1827.2760299999959
 21
-97.196280000000513
  0
LINE
  8
_0-4_図面枠
  6
CONTINUOUS
 62
    3
 10
-1827.2760299999959
 20
-97.196280000000513
 11
-1837.0260099999973
 21
-121.49576000000013
  0
LINE
  8
_0-4_図面枠
  6
CONTINUOUS
 62
    3
 10
-1837.0260099999973
 20
-121.49576000000013
 11
-1848.503989999997
 21
-139.06554000000023
  0
LINE
  8
_0-4_図面枠
  6
CONTINUOUS
 62
    3
 10
-1848.503989999997
 20
-139.06554000000023
 11
-1853.8579899999991
 21
-157.31766000000101
  0
LINE
  8
_0-4_図面枠
  6
CONTINUOUS
 62
    3
 10
-1853.8579899999991
 20
-157.31766000000101
 11
-1847.0354099999963
 21
-173.85484000000008
  0
LINE
  8
_0-4_図面枠
  6
CONTINUOUS
 62
    3
 10
-1847.0354099999963
 20
-173.85484000000008
 11
-1832.7101299999981
 21
-184.07618000000059
  0
LINE
  8
_0-4_図面枠
  6
CONTINUOUS
 62
    3
 10
-1832.7101299999981
 20
-184.07618000000059
 11
-1814.583369999998
 21
-182.78142000000003
  0
LINE
  8
_0-3_躯体と製品
  6
CONTINUOUS
 62
    3
 10
-1892.5433899999985
 20
-103.68242000000123
 11
-1898.3273499999973
 21
-84.537020000001235
  0
LINE
  8
_0-3_躯体と製品
  6
CONTINUOUS
 62
    3
 10
-1844.6799299999998
 20
-89.2225200000006
 11
-1892.5433899999985
 21
-103.68242000000123
  0
LINE
  8
_0-3_躯体と製品
  6
CONTINUOUS
 62
    3
 10
-1847.546789999999
 20
-87.685959999999909
 11
-1891.0068299999989
 21
-100.81554000000091
  0
LINE
  8
_0-3_躯体と製品
  6
CONTINUOUS
 62
    3
 10
-1891.0068299999989
 20
-100.81554000000091
 11
-1896.1256299999991
 21
-83.871880000000317
  0
TEXT
  8
_0-4_図面枠
 62
    7
 10
-1807.2459299999969
 20
-197.88708000000042
 40
60
 41
0.7999999999999996
 50
0
  1
現場溶接
  0
LINE
  8
_0-4_図面枠
  6
CONTINUOUS
 62
    3
 10
-1891.4804099999969
 20
-102.28260000000091
 11
-1940.1406499999962
 21
-166.56462000000022
  0
LINE
  8
_0-4_図面枠
  6
CONTINUOUS
 62
    3
 10
-1891.4804099999969
 20
-102.28260000000091
 11
-1922.8201499999955
 21
-176.56462000000022
  0
TEXT
  8
_0-4_図面枠
 62
    7
 10
-1723.2142499999986
 20
130.06853999999987
 40
60
 41
0.7999999999999987
 50
0
  1
支柱
  0
LINE
  8
_0-4_図面枠
  6
CONTINUOUS
 62
    3
 10
-1723.2138099999997
 20
120.06851999999878
 11
-1614.5363499999962
 21
120.06851999999878
  0
LINE
  8
_0-3_躯体と製品
  6
CONTINUOUS
 62
    4
 10
-1795.1239299999975
 20
-74.251320000000703
 11
-1844.6799299999998
 21
-89.2225200000006
  0
LINE
  8
_0-3_躯体と製品
  6
CONTINUOUS
 62
    3
 10
-1969.3298299999992
 20
41.513339999999175
 11
-1980.6695699999977
 21
1.872319999998922
  0
LINE
  8
_0-3_躯体と製品
  6
CONTINUOUS
 62
    3
 10
-1894.5811299999991
 20
58.665499999999724
 11
-1878.3860499999969
 21
5.0584199999992734
  0
CIRCLE
  8
_0-3_躯体と製品
  6
CONTINUOUS
 62
    4
 10
-1873.5997099999963
 20
6.504419999998845
 40
5
  0
LINE
  8
_0-3_躯体と製品
  6
CONTINUOUS
 62
    3
 10
-1918.5962899999981
 20
-9.4920400000011114
 11
-1875.1362699999959
 21
3.6375399999998308
  0
LINE
  8
_0-3_躯体と製品
  6
CONTINUOUS
 62
    3
 10
-1921.4631699999995
 20
-7.9554800000004207
 11
-1873.5997099999963
 21
6.504419999998845
  0
LINE
  8
_0-3_躯体と製品
  6
CONTINUOUS
 62
    3
 10
-1915.6792099999961
 20
-27.100860000000353
 11
-1921.4631699999995
 21
-7.9554800000004207
  0
LINE
  8
_0-3_躯体と製品
  6
CONTINUOUS
 62
    3
 10
-1913.4774899999979
 20
-26.435700000000566
 11
-1915.6792099999961
 21
-27.100860000000353
  0
LINE
  8
_0-3_躯体と製品
  6
CONTINUOUS
 62
    3
 10
-1913.4774899999979
 20
-26.435700000000566
 11
-1918.5962899999981
 21
-9.4920400000011114
  0
LINE
  8
_0-4_図面枠
  6
CONTINUOUS
 62
    3
 10
-1857.6571899999976
 20
-42.293460000000664
 11
-1846.6419499999961
 21
-35.933820000000082
  0
LINE
  8
_0-3_躯体と製品
  6
CONTINUOUS
 62
    3
 10
-1875.1362699999959
 20
3.6375399999998308
 11
-1847.546789999999
 21
-87.685959999999909
  0
LINE
  8
_0-3_躯体と製品
  6
CONTINUOUS
 62
    3
 10
-1896.1256299999991
 20
-83.871880000000317
 11
-1898.3273499999973
 21
-84.537020000001235
  0
LINE
  8
_0-3_躯体と製品
  6
CONTINUOUS
 62
    3
 10
-1873.5997099999963
 20
6.504419999998845
 11
-1844.6799299999998
 21
-89.2225200000006
  0
LINE
  8
_0-3_躯体と製品
  6
PLINE5
 62
    4
 10
-1867.09971
 20
6.6620200000000978
 11
-1838.6799299999961
 21
-87.409880000000101
  0
LINE
  8
_0-3_躯体と製品
  6
CONTINUOUS
 62
    4
 10
-1823.099709999999
 20
18.350899999999342
 11
-1795.1239299999975
 21
-74.251320000000703
  0
LINE
  8
_0-4_図面枠
  6
CONTINUOUS
 62
    3
 10
-1839.2013299999985
 20
320.96479999999929
 11
-1790.541069999997
 21
256.68277999999987
  0
LINE
  8
_0-4_図面枠
  6
CONTINUOUS
 62
    3
 10
-1839.2013299999985
 20
320.96479999999929
 11
-1723.2138099999997
 21
120.06851999999878
  0
LINE
  8
_0-3_躯体と製品
  6
CONTINUOUS
 62
    7
 10
-1973.099709999999
 20
257.96317999999928
 11
-1973.099709999999
 21
217.77449999999942
  0
LINE
  8
_0-3_躯体と製品
  6
CONTINUOUS
 62
    7
 10
-1971.0997099999963
 20
217.77449999999942
 11
-1971.0997099999963
 21
227.77449999999953
  0
LINE
  8
_0-3_躯体と製品
  6
CONTINUOUS
 62
    7
 10
-1972.5997099999972
 20
257.96317999999928
 11
-1972.5997099999972
 21
217.77449999999942
  0
LINE
  8
_0-3_躯体と製品
  6
CONTINUOUS
 62
    7
 10
-1971.5997099999981
 20
218.27449999999897
 11
-1971.5997099999981
 21
227.77449999999953
  0
LINE
  8
_0-3_躯体と製品
  6
CONTINUOUS
 62
    7
 10
-1973.099709999999
 20
217.77449999999942
 11
-1971.0997099999963
 21
217.77449999999942
  0
LINE
  8
_0-3_躯体と製品
  6
CONTINUOUS
 62
    7
 10
-1973.099709999999
 20
218.27449999999897
 11
-1971.5997099999981
 21
218.27449999999897
  0
LINE
  8
_0-3_躯体と製品
  6
CONTINUOUS
 62
    4
 10
-1873.099709999999
 20
120.22733999999912
 11
-1883.099709999999
 21
120.22733999999912
  0
LINE
  8
_0-3_躯体と製品
  6
CONTINUOUS
 62
    3
 10
-1886.0000699999978
 20
200.73943999999881
 11
-1863.8930699999969
 21
200.73943999999881
  0
LINE
  8
_0-3_躯体と製品
  6
CONTINUOUS
 62
    3
 10
-1885.500069999996
 20
150.73943999999881
 11
-1863.3930699999996
 21
150.73943999999881
  0
LINE
  8
_0-3_躯体と製品
  6
CONTINUOUS
 62
    4
 10
-1883.099709999999
 20
224.00091999999984
 11
-1973.099709999999
 21
257.96317999999928
  0
LINE
  8
_0-3_躯体と製品
  6
PLINE2
 62
    6
 10
-1913.1898699999988
 20
288.7972400000001
 11
-1883.099709999999
 21
318.88741999999991
  0
LINE
  8
_0-3_躯体と製品
  6
CONTINUOUS
 62
    4
 10
-1873.099709999999
 20
277.44245999999885
 11
-1883.099709999999
 21
277.44245999999885
  0
LINE
  8
_0-3_躯体と製品
  6
PLINE2
 62
    6
 10
-1887.5209299999983
 20
279.11085999999955
 11
-1883.099709999999
 21
283.53207999999904
  0
ARC
  8
_0-3_躯体と製品
  6
CONTINUOUS
 62
    3
 10
-1446.0997099999963
 20
3.6943599999996195
 40
2
 50
180
 51
270
  0
LINE
  8
_0-3_躯体と製品
  6
CONTINUOUS
 62
    3
 10
-1448.099709999999
 20
3.6943599999996195
 11
-1448.099709999999
 21
9.6943599999998469
  0
LINE
  8
_0-3_躯体と製品
  6
CONTINUOUS
 62
    3
 10
-1376.3497099999972
 20
1.6943599999990511
 11
-1376.3497099999972
 21
-143.38322000000051
  0
LINE
  8
_0-3_躯体と製品
  6
CONTINUOUS
 62
    3
 10
-1376.3497099999972
 20
-0.3056400000001531
 11
-1376.3497099999972
 21
-143.38322000000051
  0
LINE
  8
_0-3_躯体と製品
  6
CONTINUOUS
 62
    3
 10
-1370.84971
 20
-0.3056400000001531
 11
-1370.84971
 21
-143.38322000000051
  0
LINE
  8
_0-3_躯体と製品
  6
CONTINUOUS
 62
    3
 10
-856.19256999999607
 20
-100.81554000000091
 11
-851.07377000000042
 21
-83.871880000000317
  0
LINE
  8
_0-3_躯体と製品
  6
CONTINUOUS
 62
    3
 10
-854.65600999999651
 20
-103.68242000000123
 11
-848.87204999999767
 21
-84.537020000001235
  0
LINE
  8
_0-3_躯体と製品
  6
CONTINUOUS
 62
    3
 10
-902.51946999999973
 20
-89.2225200000006
 11
-854.65600999999651
 21
-103.68242000000123
  0
LINE
  8
_0-3_躯体と製品
  6
CONTINUOUS
 62
    3
 10
-899.652609999996
 20
-87.685959999999909
 11
-856.19256999999607
 21
-100.81554000000091
  0
LINE
  8
_0-3_躯体と製品
  6
CONTINUOUS
 62
    3
 10
-867.0781699999975
 20
10.80203999999992
 11
-1373.5997099999963
 21
163.82571999999993
  0
LINE
  8
_0-3_躯体と製品
  6
CONTINUOUS
 62
    3
 10
-1373.5997099999963
 20
157.55789999999945
 11
-868.81334999999808
 21
5.0584199999992734
  0
LINE
  8
_0-3_躯体と製品
  6
CONTINUOUS
 62
    3
 10
-852.61827000000039
 20
58.665499999999724
 11
-1373.5997099999963
 21
216.05762000000038
  0
LINE
  8
_0-3_躯体と製品
  6
CONTINUOUS
 62
    3
 10
-1301.0997099999963
 20
1.6943599999990511
 11
-1368.8497099999972
 21
1.6943599999990511
  0
ARC
  8
_0-3_躯体と製品
  6
CONTINUOUS
 62
    3
 10
-1378.34971
 20
-0.3056400000001531
 40
2
 50
0
 51
90
  0
ARC
  8
_0-3_躯体と製品
  6
CONTINUOUS
 62
    3
 10
-1368.8497099999972
 20
-0.3056400000001531
 40
2
 50
90
 51
180
  0
LINE
  8
_0-3_躯体と製品
  6
CONTINUOUS
 62
    3
 10
-1299.0997099999981
 20
3.6943599999996195
 11
-1299.0997099999981
 21
9.6943599999998469
  0
ARC
  8
_0-3_躯体と製品
  6
CONTINUOUS
 62
    3
 10
-1301.0997099999963
 20
3.6943599999996195
 40
2
 50
270
 51
0
  0
LINE
  8
_0-3_躯体と製品
  6
CONTINUOUS
 62
    4
 10
-952.07546999999749
 20
-74.251320000000703
 11
-902.51946999999973
 21
-89.2225200000006
  0
LINE
  8
_0-3_躯体と製品
  6
CONTINUOUS
 62
    4
 10
-923.15570999999863
 20
21.475620000000049
 11
-952.07546999999749
 21
-74.251320000000703
  0
CIRCLE
  8
_0-3_躯体と製品
  6
CONTINUOUS
 62
    4
 10
-873.93280999999888
 20
6.6050399999994625
 40
5
  0
LINE
  8
_0-3_躯体と製品
  6
PLINE2
 62
    3
 10
-852.61827000000039
 20
58.665499999999724
 11
-868.81334999999808
 21
5.0584199999992734
  0
LINE
  8
_0-3_躯体と製品
  6
CONTINUOUS
 62
    3
 10
-828.60310999999683
 20
-9.4920400000011114
 11
-872.06312999999909
 21
3.6375399999998308
  0
LINE
  8
_0-3_躯体と製品
  6
CONTINUOUS
 62
    3
 10
-825.73622999999998
 20
-7.9554800000004207
 11
-873.59970999999632
 21
6.504419999998845
  0
LINE
  8
_0-3_躯体と製品
  6
PLINE5
 62
    4
 10
-879.59970999999996
 20
8.3170599999995147
 11
-908.51946999999882
 21
-87.409880000000101
  0
LINE
  8
_0-3_躯体と製品
  6
CONTINUOUS
 62
    3
 10
-872.06312999999909
 20
3.6375399999998308
 11
-899.652609999996
 21
-87.685959999999909
  0
LINE
  8
_0-3_躯体と製品
  6
CONTINUOUS
 62
    3
 10
-851.07377000000042
 20
-83.871880000000317
 11
-848.87204999999767
 21
-84.537020000001235
  0
LINE
  8
_0-3_躯体と製品
  6
CONTINUOUS
 62
    3
 10
-873.59970999999632
 20
6.504419999998845
 11
-902.51946999999973
 21
-89.2225200000006
  0
LINE
  8
_0-3_躯体と製品
  6
CONTINUOUS
 62
    3
 10
-833.72190999999702
 20
-26.435700000000566
 11
-831.52018999999882
 21
-27.100860000000353
  0
LINE
  8
_0-3_躯体と製品
  6
CONTINUOUS
 62
    3
 10
-833.72190999999702
 20
-26.435700000000566
 11
-828.60310999999683
 21
-9.4920400000011114
  0
LINE
  8
_0-3_躯体と製品
  6
CONTINUOUS
 62
    3
 10
-831.52018999999882
 20
-27.100860000000353
 11
-825.73622999999998
 21
-7.9554800000004207
  0
TEXT
  8
_0-4_図面枠
 62
    7
 10
-779.45982999999842
 20
-1193.5628200000006
 40
60
 41
0.8000000000000006
 50
0
  1
Ｊ
  0
TEXT
  8
_0-4_図面枠
 62
    7
 10
-379.4598299999991
 20
-1193.5628200000006
 40
60
 41
0.8000000000000006
 50
0
  1
Ｅ
  0
TEXT
  8
_0-4_図面枠
 62
    7
 10
-420.0616299999981
 20
-1358.9708400000004
 40
60
 41
0.7999999999999999
 50
0
  1
７８０
  0
TEXT
  8
_0-4_図面枠
 62
    7
 10
-125.38022999999907
 20
-1202.3515800000005
 40
60
 41
0.8
 50
0
  1
板厚
  0
TEXT
  8
_0-4_図面枠
 62
    7
 10
148.674030000004
 20
-1201.5523200000007
 40
60
 41
0.8000000000000002
 50
0
  1
支柱
  0
TEXT
  8
_0-4_図面枠
 62
    7
 10
156.32235000000196
 20
-1359.2181800000003
 40
60
 41
0.8
 50
0
  1
ＦＢ
  0
LINE
  8
_0-3_躯体と製品
  6
CONTINUOUS
 62
    4
 10
-748.09970999999905
 20
239.43210000000045
 11
-748.09970999999905
 21
32.312899999999445
  0
LINE
  8
_0-3_躯体と製品
  6
CONTINUOUS
 62
    6
 10
-686.23630999999705
 20
13.623539999999934
 11
-666.92682999999988
 21
-5.7606800000006615
  0
LINE
  8
_0-3_躯体と製品
  6
PLINE2
 62
    3
 10
-691.89352999999528
 20
15.332639999999287
 11
-707.79940999999553
 21
-37.317180000001144
  0
LINE
  8
_0-3_躯体と製品
  6
CONTINUOUS
 62
    6
 10
-683.41976999999815
 20
-45.882040000000075
 11
-704.11156999999776
 21
-25.110140000000456
  0
LINE
  8
_0-3_躯体と製品
  6
CONTINUOUS
 62
    6
 10
-673.49598999999898
 20
-27.505160000000501
 11
-697.54240999999865
 21
-3.3656600000005028
  0
LINE
  8
_0-3_躯体と製品
  6
CONTINUOUS
 62
    7
 10
-634.05852999999979
 20
-4.6680999999999813
 11
-639.10218999999643
 21
-0.6160000000011223
  0
LINE
  8
_0-3_躯体と製品
  6
PLINE2
 62
    3
 10
-663.17544999999654
 20
6.656699999999887
 11
-679.0813299999968
 21
-45.993120000000545
  0
TEXT
  8
_0-4_図面枠
 62
    7
 10
128.59927000000403
 20
-182.18886792527081
 40
60.000000000000007
 41
0.8000000000000001
 50
0.0000100000010064
  1
水切板
  0
LINE
  8
_0-4_図面枠
  6
CONTINUOUS
 62
    3
 10
288.59913000000006
 20
-192.18874000000022
 11
107.99912999999992
 21
-192.18874000000022
  0
TEXT
  8
_0-4_図面枠
 62
    7
 10
-10.141909999993004
 20
-361.87639808456436
 40
60.000000000000007
 41
0.8000000000000001
 50
0.0000100000009838
  1
スレート大波
  0
LINE
  8
_0-4_図面枠
  6
CONTINUOUS
 62
    3
 10
322.65831000000298
 20
-371.87578000000019
 11
0.2453700000039589
 21
-371.87578000000019
  0
ARC
  8
_0-3_躯体と製品
  6
CONTINUOUS
 62
    4
 10
355.66579000000002
 20
180.97155999999939
 40
34.610720000000001
 50
24.692923000000672
 51
155.48782100000051
  0
ARC
  8
_0-3_躯体と製品
  6
CONTINUOUS
 62
    4
 10
355.66579000000002
 20
180.97155999999939
 40
28.610720000000001
 50
24.692923000000672
 51
155.48782100000051
  0
LINE
  8
_0-3_躯体と製品
  6
CONTINUOUS
 62
    7
 10
440.42161000000101
 20
218.81085999999993
 11
440.42161000000101
 21
220.81085999999925
  0
LINE
  8
_0-3_躯体と製品
  6
CONTINUOUS
 62
    4
 10
-2181.2069299999962
 20
571.6369999999996
 11
-1883.099709999999
 21
459.14369999999951
  0
LINE
  8
_0-3_躯体と製品
  6
CONTINUOUS
 62
    4
 10
-2013.6225099999979
 20
718.99435999999844
 11
-1873.099709999999
 21
681.34137999999859
  0
LINE
  8
_0-3_躯体と製品
  6
CONTINUOUS
 62
    4
 10
-1873.099709999999
 20
836.90699999999958
 11
-2013.6225099999979
 21
718.99435999999844
  0
LINE
  8
_0-3_躯体と製品
  6
CONTINUOUS
 62
    4
 10
-1879.0997099999981
 20
676.73741999999959
 11
-2026.3085899999965
 21
716.18191999999851
  0
LINE
  8
_0-3_躯体と製品
  6
PLINE2
 62
    6
 10
-2118.5414299999979
 20
366.28839999999968
 11
-1986.6213499999981
 21
498.20847999999944
  0
LINE
  8
_0-3_躯体と製品
  6
PLINE2
 62
    6
 10
-2092.8724899999975
 20
356.60199999999929
 11
-1960.9524099999976
 21
488.52207999999848
  0
LINE
  8
_0-3_躯体と製品
  6
PLINE2
 62
    6
 10
-2067.203549999997
 20
346.91561999999874
 11
-1935.2834699999971
 21
478.83569999999952
  0
LINE
  8
_0-3_躯体と製品
  6
PLINE2
 62
    6
 10
-2041.5346099999965
 20
337.22921999999937
 11
-1909.614509999999
 21
469.14929999999856
  0
LINE
  8
_0-3_躯体と製品
  6
PLINE2
 62
    6
 10
-2015.8656499999984
 20
327.54281999999989
 11
-1883.9455699999985
 21
459.46289999999942
  0
LINE
  8
_0-3_躯体と製品
  6
CONTINUOUS
 62
    4
 10
-2542.9909699999985
 20
1321.8801199999994
 11
-1873.0746099999965
 21
1488.9090199999987
  0
LINE
  8
_0-3_躯体と製品
  6
CONTINUOUS
 62
    7
 10
-2592.5623299999984
 20
1361.0512799999983
 11
-1873.0746099999965
 21
1540.4396999999994
  0
LINE
  8
_0-3_躯体と製品
  6
PLINE5
 62
    4
 10
-2583.8990499999977
 20
1357.0275999999994
 11
-1871.623089999996
 21
1534.6179399999996
  0
LINE
  8
_0-3_躯体と製品
  6
CONTINUOUS
 62
    7
 10
-2120.2274099999954
 20
963.51077999999859
 11
-1373.099709999999
 21
1149.7906399999997
  0
LINE
  8
_0-3_躯体と製品
  6
CONTINUOUS
 62
    7
 10
-2120.3483699999992
 20
963.78979999999854
 11
-1373.2206699999983
 21
1150.0696599999997
  0
LINE
  8
_0-3_躯体と製品
  6
PLINE5
 62
    4
 10
-2104.3798699999957
 20
961.07221999999945
 11
-1373.099709999999
 21
1143.4008399999993
  0
LINE
  8
_0-3_躯体と製品
  6
CONTINUOUS
 62
    4
 10
-2064.2479499999968
 20
925.73121999999842
 11
-1858.6018499999977
 21
977.00455999999861
  0
LINE
  8
_0-3_躯体と製品
  6
CONTINUOUS
 62
    4
 10
-2120.2274099999954
 20
963.30465999999944
 11
-1373.099709999999
 21
1149.5845199999983
  0
LINE
  8
_0-3_躯体と製品
  6
CONTINUOUS
 62
    4
 10
-2026.3085899999965
 20
716.18191999999851
 11
-1879.0997099999981
 21
839.7048399999984
  0
LINE
  8
_0-3_躯体と製品
  6
CONTINUOUS
 62
    7
 10
-1888.099709999999
 20
832.1529399999996
 11
-2041.3085899999965
 21
703.5954199999984
  0
LINE
  8
_0-3_躯体と製品
  6
CONTINUOUS
 62
    4
 10
-2542.9909699999985
 20
1321.8801199999994
 11
-2614.769489999996
 21
553.54425999999955
  0
LINE
  8
_0-3_躯体と製品
  6
PLINE2
 62
    6
 10
-2557.6859899999977
 20
1164.5806999999995
 11
-2353.0219899999997
 21
1369.2446999999993
  0
LINE
  8
_0-3_躯体と製品
  6
PLINE2
 62
    6
 10
-2561.3292699999988
 20
1125.5820799999997
 11
-2305.9237499999995
 21
1380.9876199999994
  0
LINE
  8
_0-3_躯体と製品
  6
PLINE2
 62
    6
 10
-2564.97255
 20
1086.5834599999994
 11
-2258.825489999997
 21
1392.7305399999996
  0
LINE
  8
_0-3_躯体と製品
  6
PLINE2
 62
    6
 10
-2568.6158299999965
 20
1047.5848399999986
 11
-2211.7272499999967
 21
1404.4734399999984
  0
LINE
  8
_0-3_躯体と製品
  6
PLINE2
 62
    6
 10
-2572.2591299999999
 20
1008.5862199999995
 11
-2164.6289899999988
 21
1416.2163599999994
  0
LINE
  8
_0-3_躯体と製品
  6
PLINE2
 62
    6
 10
-2575.9024099999965
 20
969.58759999999847
 11
-2117.5307299999963
 21
1427.9592799999987
  0
LINE
  8
_0-3_躯体と製品
  6
PLINE2
 62
    6
 10
-2579.5456899999976
 20
930.58897999999851
 11
-2103.1699699999967
 21
1406.9646999999995
  0
LINE
  8
_0-3_躯体と製品
  6
PLINE2
 62
    6
 10
-2583.1889699999988
 20
891.59035999999844
 11
-2106.8132499999979
 21
1367.9660799999997
  0
LINE
  8
_0-3_躯体と製品
  6
PLINE2
 62
    6
 10
-2586.8322499999999
 20
852.59173999999859
 11
-2110.456529999999
 21
1328.9674599999994
  0
LINE
  8
_0-3_躯体と製品
  6
PLINE2
 62
    6
 10
-2590.4755299999965
 20
813.59311999999852
 11
-2114.0998099999956
 21
1289.9688399999986
  0
LINE
  8
_0-3_躯体と製品
  6
PLINE2
 62
    6
 10
-2594.1188099999977
 20
774.59449999999958
 11
-2117.7430899999968
 21
1250.9702199999997
  0
LINE
  8
_0-3_躯体と製品
  6
PLINE2
 62
    6
 10
-2597.7620899999979
 20
735.59587999999951
 11
-2121.3863699999979
 21
1211.9715999999987
  0
LINE
  8
_0-3_躯体と製品
  6
PLINE2
 62
    6
 10
-2601.4053699999999
 20
696.59725999999944
 11
-2125.029649999999
 21
1172.9729799999993
  0
LINE
  8
_0-3_躯体と製品
  6
PLINE5
 62
    4
 10
-2583.8990499999977
 20
1357.0275999999994
 11
-2661.700069999999
 21
524.22535999999843
  0
LINE
  8
_0-3_躯体と製品
  6
CONTINUOUS
 62
    4
 10
-2099.2913099999964
 20
1448.4828199999997
 11
-2181.2069299999962
 21
571.6369999999996
  0
LINE
  8
_0-3_躯体と製品
  6
CONTINUOUS
 62
    7
 10
-2589.4774099999972
 20
1361.8204199999996
 11
-2668.408349999997
 21
516.92353999999852
  0
LINE
  8
_0-3_躯体と製品
  6
CONTINUOUS
 62
    3
 10
-2595.2594099999965
 20
514.11703999999952
 11
-2609.3817099999951
 21
476.69297999999856
  0
LINE
  8
_0-3_躯体と製品
  6
PLINE2
 62
    6
 10
-2612.3352099999979
 20
579.60139999999853
 11
-2135.9595100000001
 21
1055.9771199999996
  0
LINE
  8
_0-3_躯体と製品
  6
PLINE2
 62
    6
 10
-2606.2513899999999
 20
550.32987999999943
 11
-2487.0808099999999
 21
669.50047999999845
  0
LINE
  8
_0-3_躯体と製品
  6
PLINE2
 62
    6
 10
-2605.0486499999961
 20
657.59863999999959
 11
-2128.6729300000002
 21
1133.9743599999983
  0
LINE
  8
_0-3_躯体と製品
  6
PLINE2
 62
    6
 10
-2608.6919299999972
 20
618.60001999999952
 11
-2132.316229999999
 21
1094.9757399999994
  0
LINE
  8
_0-3_躯体と製品
  6
PLINE5
 62
    4
 10
-2620.6809499999981
 20
963.30465999999944
 11
-2144.6170299999972
 21
963.30465999999944
  0
LINE
  8
_0-3_躯体と製品
  6
CONTINUOUS
 62
    3
 10
-2609.2676899999988
 20
935.2677999999986
 11
-2589.12869
 21
935.2677999999986
  0
LINE
  8
_0-3_躯体と製品
  6
CONTINUOUS
 62
    3
 10
-2598.0171499999979
 20
945.2677999999986
 11
-2600.3792099999982
 21
925.2677999999986
  0
LINE
  8
_0-3_躯体と製品
  6
PLINE5
 62
    4
 10
-2625.351989999996
 20
913.30465999999944
 11
-2149.2880700000001
 21
913.30465999999944
  0
LINE
  8
_0-3_躯体と製品
  6
PLINE5
 62
    4
 10
-2621.2414699999972
 20
957.30465999999842
 11
-2145.1775699999985
 21
957.30465999999842
  0
LINE
  8
_0-3_躯体と製品
  6
CONTINUOUS
 62
    7
 10
-2668.408349999997
 20
516.92353999999852
 11
-2631.5183899999979
 21
503.0027999999985
  0
LINE
  8
_0-3_躯体と製品
  6
CONTINUOUS
 62
    3
 10
-2682.1860299999953
 20
562.17483999999843
 11
-2642.462109999999
 21
557.48331999999857
  0
LINE
  8
_0-3_躯体と製品
  6
CONTINUOUS
 62
    3
 10
-2661.5022499999959
 20
806.43477999999857
 11
-2621.7783299999992
 21
801.7432599999994
  0
LINE
  8
_0-3_躯体と製品
  6
CONTINUOUS
 62
    3
 10
-2639.363949999999
 20
1050.5229199999994
 11
-2599.6400299999978
 21
1045.8313999999987
  0
LINE
  8
_0-3_躯体と製品
  6
PLINE2
 62
    6
 10
-2373.5030099999972
 20
712.36759999999856
 11
-2146.889349999999
 21
938.98125999999866
  0
LINE
  8
_0-3_躯体と製品
  6
PLINE2
 62
    6
 10
-2446.394329999996
 20
710.18695999999943
 11
-2139.6027899999967
 21
1016.9784999999985
  0
LINE
  8
_0-3_躯体と製品
  6
PLINE2
 62
    6
 10
-2397.2116299999993
 20
724.01429999999857
 11
-2143.2460699999979
 21
977.9798799999985
  0
LINE
  8
_0-3_躯体と製品
  6
PLINE2
 62
    6
 10
-2331.7915099999959
 20
718.72375999999952
 11
-2150.5326299999956
 21
899.98263999999961
  0
LINE
  8
_0-3_躯体と製品
  6
PLINE2
 62
    6
 10
-2317.190149999999
 20
697.96977999999956
 11
-2154.1759099999967
 21
860.98401999999953
  0
LINE
  8
_0-3_躯体と製品
  6
PLINE2
 62
    6
 10
-2274.1126099999997
 20
705.69197999999858
 11
-2157.8191899999979
 21
821.98539999999946
  0
LINE
  8
_0-3_躯体と製品
  6
PLINE2
 62
    6
 10
-2239.8723099999984
 20
704.57693999999958
 11
-2161.462469999999
 21
782.98677999999938
  0
TEXT
  8
_0-4_図面枠
 62
    7
 10
-2470.2647899999988
 20
645.97459999999944
 40
60
 41
0.8000000000000001
 50
0
  1
排気誘導板
  0
LINE
  8
_0-3_躯体と製品
  6
PLINE2
 62
    6
 10
-2426.5687699999967
 20
482.52513999999849
 11
-2264.9514499999964
 21
644.14245999999946
  0
LINE
  8
_0-3_躯体と製品
  6
PLINE2
 62
    6
 10
-2400.8998299999962
 20
472.83873999999958
 11
-2168.7490299999968
 21
704.98951999999952
  0
LINE
  8
_0-3_躯体と製品
  6
PLINE2
 62
    6
 10
-2375.2308899999957
 20
463.15233999999839
 11
-2172.3923099999979
 21
665.99089999999944
  0
LINE
  8
_0-3_躯体と製品
  6
PLINE2
 62
    6
 10
-2349.5619299999976
 20
453.46593999999948
 11
-2176.035589999999
 21
626.99227999999755
  0
LINE
  8
_0-3_躯体と製品
  6
PLINE2
 62
    6
 10
-2323.8929899999971
 20
443.77955999999847
 11
-2179.6788899999979
 21
587.99365999999952
  0
LINE
  8
_0-3_躯体と製品
  6
PLINE2
 62
    6
 10
-2298.2240499999966
 20
434.09315999999853
 11
-2166.3039699999968
 21
566.01323999999943
  0
LINE
  8
_0-3_躯体と製品
  6
PLINE2
 62
    6
 10
-2554.9134899999967
 20
530.95709999999951
 11
-2433.527389999997
 21
652.34319999999855
  0
LINE
  8
_0-3_躯体と製品
  6
PLINE2
 62
    6
 10
-2529.2445499999963
 20
521.27069999999856
 11
-2398.172049999996
 21
652.34319999999855
  0
LINE
  8
_0-3_躯体と製品
  6
PLINE2
 62
    6
 10
-2503.5756099999958
 20
511.58431999999846
 11
-2362.8167099999996
 21
652.34319999999855
  0
LINE
  8
_0-3_躯体と製品
  6
PLINE2
 62
    6
 10
-2477.9066699999998
 20
501.89791999999841
 11
-2327.4613699999986
 21
652.34319999999855
  0
LINE
  8
_0-3_躯体と製品
  6
PLINE2
 62
    6
 10
-2452.2377099999972
 20
492.2115199999995
 11
-2301.6221299999984
 21
642.8270999999994
  0
LINE
  8
_0-3_躯体と製品
  6
CONTINUOUS
 62
    3
 10
-2398.7830499999995
 20
439.97501999999952
 11
-2412.9053499999986
 21
402.5509599999998
  0
LINE
  8
_0-4_図面枠
  6
CONTINUOUS
 62
    3
 10
-2307.5847499999986
 20
383.64954000000034
 11
-2318.9244899999971
 21
344.00851999999884
  0
LINE
  8
_0-3_躯体と製品
  6
PLINE2
 62
    6
 10
-2580.5824499999994
 20
540.64349999999956
 11
-2479.304709999999
 21
641.92121999999847
  0
LINE
  8
_0-3_躯体と製品
  6
PLINE2
 62
    6
 10
-2272.5551099999961
 20
424.40675999999837
 11
-2140.6350299999963
 21
556.32683999999847
  0
LINE
  8
_0-3_躯体と製品
  6
PLINE2
 62
    6
 10
-2246.8861699999957
 20
414.72037999999998
 11
-2114.9660699999981
 21
546.64045999999951
  0
LINE
  8
_0-3_躯体と製品
  6
PLINE2
 62
    6
 10
-2221.2172099999975
 20
405.03397999999947
 11
-2089.2971299999977
 21
536.95405999999855
  0
LINE
  8
_0-3_躯体と製品
  6
PLINE2
 62
    6
 10
-2195.548269999997
 20
395.34757999999908
 11
-2063.6281899999972
 21
527.2676599999985
  0
LINE
  8
_0-3_躯体と製品
  6
PLINE2
 62
    6
 10
-2169.8793299999966
 20
385.66117999999972
 11
-2037.9592499999967
 21
517.5812799999984
  0
LINE
  8
_0-3_躯体と製品
  6
PLINE2
 62
    6
 10
-2144.2103899999961
 20
375.97479999999916
 11
-2012.2902899999985
 21
507.89487999999949
  0
LINE
  8
_0-3_躯体と製品
  6
PLINE2
 62
    6
 10
-2213.1931899999995
 20
695.90069999999957
 11
-2165.1057500000002
 21
743.98813999999959
  0
LINE
  8
_0-3_躯体と製品
  6
CONTINUOUS
 62
    7
 10
-2041.3085899999965
 20
703.5954199999984
 11
-2041.3085899999965
 21
683.59541999999954
  0
LINE
  8
_0-3_躯体と製品
  6
CONTINUOUS
 62
    3
 10
-2087.8415299999983
 20
991.99163999999939
 11
-2077.9554499999972
 21
953.23197999999945
  0
LINE
  8
_0-3_躯体と製品
  6
PLINE5
 62
    4
 10
-2119.4907099999978
 20
957.30465999999842
 11
-2104.3798699999957
 21
961.07221999999945
  0
LINE
  8
_0-3_躯体と製品
  6
CONTINUOUS
 62
    7
 10
-2120.2274099999954
 20
948.30465999999944
 11
-2120.2274099999954
 21
963.51077999999859
  0
LINE
  8
_0-3_躯体と製品
  6
CONTINUOUS
 62
    4
 10
-2149.2880700000001
 20
913.30465999999944
 11
-2114.0881899999999
 21
913.30465999999944
  0
LINE
  8
_0-3_躯体と製品
  6
PLINE2
 62
    4
 10
-2145.1775699999985
 20
957.30465999999842
 11
-2119.4907099999978
 21
957.30465999999842
  0
LINE
  8
_0-3_躯体と製品
  6
PLINE2
 62
    6
 10
-2147.39327
 20
938.47733999999843
 11
-2146.889349999999
 21
938.98125999999866
  0
LINE
  8
_0-3_躯体と製品
  6
CONTINUOUS
 62
    3
 10
-2177.1772299999998
 20
934.58357999999942
 11
-2157.1772299999998
 21
934.58357999999942
  0
LINE
  8
_0-3_躯体と製品
  6
CONTINUOUS
 62
    3
 10
-2167.1772299999998
 20
944.58357999999942
 11
-2167.1772299999998
 21
924.58357999999942
  0
LINE
  8
_0-3_躯体と製品
  6
CONTINUOUS
 62
    4
 10
-2114.0881899999999
 20
913.30465999999944
 11
-2064.2479499999968
 21
925.73121999999842
  0
LINE
  8
_0-3_躯体と製品
  6
PLINE5
 62
    4
 10
-2120.2274099999954
 20
957.30465999999842
 11
-2119.4907099999978
 21
957.30465999999842
  0
LINE
  8
_0-3_躯体と製品
  6
CONTINUOUS
 62
    4
 10
-2144.6170299999972
 20
963.39253999999846
 11
-2120.2274099999954
 21
963.30465999999944
  0
LINE
  8
_0-3_躯体と製品
  6
PLINE2
 62
    6
 10
-2137.4182099999985
 20
1054.5183999999995
 11
-2135.9595100000001
 21
1055.9771199999996
  0
LINE
  8
_0-3_躯体と製品
  6
PLINE2
 62
    6
 10
-2140.1304099999993
 20
1016.4508599999984
 11
-2139.6027899999967
 21
1016.9784999999985
  0
LINE
  8
_0-3_躯体と製品
  6
CONTINUOUS
 62
    3
 10
-2615.1044099999963
 20
1294.3605599999996
 11
-2575.3804899999955
 21
1289.6690399999993
  0
LINE
  8
_0-4_図面枠
  6
CONTINUOUS
 62
    3
 10
-2112.6782899999967
 20
1484.2364199999988
 11
-2227.0996699999955
 21
1682.4200999999998
  0
LINE
  8
_0-3_躯体と製品
  6
CONTINUOUS
 62
    3
 10
-2552.2685899999965
 20
1391.7098999999985
 11
-2542.5433299999963
 21
1352.7040199999997
  0
LINE
  8
_0-3_躯体と製品
  6
PLINE2
 62
    6
 10
-2554.0427099999965
 20
1203.5793199999985
 11
-2400.1202499999977
 21
1357.5017999999986
  0
LINE
  8
_0-3_躯体と製品
  6
PLINE2
 62
    6
 10
-2550.3994299999999
 20
1242.5779399999997
 11
-2447.2185099999956
 21
1345.7588799999985
  0
LINE
  8
_0-3_躯体と製品
  6
PLINE2
 62
    6
 10
-2546.7561499999988
 20
1281.5765799999983
 11
-2494.3167499999959
 21
1334.0159599999984
  0
LINE
  8
_0-3_躯体と製品
  6
PLINE2
 62
    6
 10
-2543.1128699999977
 20
1320.5751999999993
 11
-2541.4150099999983
 21
1322.2730599999995
  0
LINE
  8
_0-3_躯体と製品
  6
CONTINUOUS
 62
    7
 10
-2596.1793299999977
 20
1322.3339399999995
 11
-2592.5623299999984
 21
1361.0512799999983
  0
LINE
  8
_0-3_躯体と製品
  6
CONTINUOUS
 62
    3
 10
-2338.8035299999979
 20
1444.9327199999984
 11
-2329.0782699999977
 21
1405.9268399999987
  0
LINE
  8
_0-4_図面枠
  6
CONTINUOUS
 62
    3
 10
-2112.6782899999967
 20
1484.2364199999988
 11
-2141.3385299999959
 21
1513.8774399999998
  0
LINE
  8
_0-3_躯体と製品
  6
CONTINUOUS
 62
    3
 10
-2120.4869899999971
 20
1499.3651399999994
 11
-2110.761729999997
 21
1460.3592599999984
  0
LINE
  8
_0-3_躯体と製品
  6
CONTINUOUS
 62
    4
 10
-2097.8323499999965
 20
1464.0998799999993
 11
-2096.5409499999964
 21
1477.9233599999998
  0
TEXT
  8
_0-4_図面枠
 62
    7
 10
-2492.6997499999998
 20
1692.4202199999995
 40
60
 41
0.8000000000000001
 50
0
  1
六角ボルト
  0
LINE
  8
_0-4_図面枠
  6
CONTINUOUS
 62
    3
 10
-2227.0996699999955
 20
1682.4200999999998
 11
-2485.0996699999973
 21
1682.4200999999998
  0
LINE
  8
_0-4_図面枠
  6
CONTINUOUS
 62
    3
 10
-2117.8333299999963
 20
2800.3333399999997
 11
-3451.1666699999987
 21
2800.3333399999997
  0
TEXT
  8
_0-4_図面枠
 62
    7
 10
-3259.9878699999972
 20
2678.2521399999996
 40
60
 41
0.8000000000000006
 50
0
  1
縮　　尺
  0
TEXT
  8
_0-4_図面枠
 62
    7
 10
-3294.818069999998
 20
2835.8519199999982
 40
60
 41
0.8000000000000001
 50
0
  1
ファイル名
  0
TEXT
  8
_0-4_図面枠
 62
    7
 10
-2658.4876099999992
 20
2839.7441399999989
 40
60
 41
0.7999999999999999
 50
0
  1
ＭＯＮ０１０
  0
LINE
  8
_0-4_図面枠
  6
CONTINUOUS
 62
    7
 10
-2117.8333299999963
 20
2966.9999999999995
 11
-2117.8333299999963
 21
2633.6666599999994
  0
LINE
  8
_0-4_図面枠
  6
CONTINUOUS
 62
    3
 10
-2784.5000099999988
 20
2966.9999999999995
 11
-2784.5000099999988
 21
2633.6666599999994
  0
TEXT
  8
_0-4_図面枠
 62
    7
 10
-2656.6694499999967
 20
2675.0441199999996
 40
60
 41
0.7999999999999999
 50
0
  1
Ｓ　１：２０
  0
TEXT
  8
_0-4_図面枠
 62
    7
 10
-3201.082969999999
 20
2434.2875999999987
 40
60
 41
0.8000000000000002
 50
0
  1
図中は、ＳＣ－１０００Ｈ型
  0
LINE
  8
_0-4_図面枠
  6
CONTINUOUS
 62
    3
 10
-816.92348999999695
 20
1482.1624399999987
 11
-718.68428999999878
 21
1652.3177199999996
  0
LINE
  8
_0-3_躯体と製品
  6
PLINE5
 62
    4
 10
-1373.099709999999
 20
1098.0538399999987
 11
-632.11120999999594
 21
913.30465999999944
  0
LINE
  8
_0-3_躯体と製品
  6
PLINE5
 62
    4
 10
-1373.099709999999
 20
1143.4008399999993
 11
-626.70868999999811
 21
957.30465999999842
  0
LINE
  8
_0-3_躯体と製品
  6
PLINE5
 62
    4
 10
-625.97198999999591
 20
963.30465999999944
 11
-1373.099709999999
 21
1149.5845199999983
  0
TEXT
  8
_0-4_図面枠
 62
    7
 10
-805.52976999999601
 20
1172.4922399999996
 40
60
 41
0.8000000000000001
 50
0
  1
六角ボルト
  0
LINE
  8
_0-4_図面枠
  6
CONTINUOUS
 62
    3
 10
-805.52982999999813
 20
1162.4920199999983
 11
-547.56042999999704
 21
1162.4920199999983
  0
LINE
  8
_0-3_躯体と製品
  6
CONTINUOUS
 62
    4
 10
-873.09970999999905
 20
1565.9926799999994
 11
-133.45902999999703
 21
1381.5795399999993
  0
LINE
  8
_0-3_躯体と製品
  6
CONTINUOUS
 62
    4
 10
-1373.099709999999
 20
530.73943999999858
 11
-1838.3078299999966
 21
530.73943999999858
  0
LINE
  8
_0-3_躯体と製品
  6
CONTINUOUS
 62
    4
 10
-1373.099709999999
 20
480.73943999999858
 11
-1839.5646299999976
 21
480.73943999999858
  0
LINE
  8
_0-3_躯体と製品
  6
PLINE5
 62
    4
 10
-1373.099709999999
 20
524.73943999999949
 11
-1867.09971
 21
524.73943999999949
  0
LINE
  8
_0-3_躯体と製品
  6
CONTINUOUS
 62
    4
 10
-1837.6526699999954
 20
982.2277799999996
 11
-1373.099709999999
 21
1098.0538399999987
  0
LINE
  8
_0-3_躯体と製品
  6
CONTINUOUS
 62
    3
 10
-1383.099709999999
 20
1123.0538399999987
 11
-1373.099709999999
 21
1123.0538399999987
  0
TEXT
  8
_0-4_図面枠
 62
    7
 10
-1760.2625899999998
 20
367.13579999999979
 40
60
 41
0.8000000000000001
 50
0
  1
六角ボルト
  0
LINE
  8
_0-4_図面枠
  6
CONTINUOUS
 62
    3
 10
-1760.2631499999984
 20
357.13557999999932
 11
-1476.4631499999973
 21
357.13557999999932
  0
LINE
  8
_0-4_図面枠
  6
CONTINUOUS
 62
    3
 10
-1844.2547499999978
 20
502.61331999999959
 11
-1815.5944899999963
 21
472.97229999999843
  0
LINE
  8
_0-4_図面枠
  6
CONTINUOUS
 62
    3
 10
-1844.2547499999978
 20
502.61331999999959
 11
-1760.2631499999984
 21
357.13557999999932
  0
LINE
  8
_0-3_躯体と製品
  6
CONTINUOUS
 62
    3
 10
-1856.2053899999978
 20
504.66217999999856
 11
-1836.2053899999978
 21
504.66217999999856
  0
LINE
  8
_0-3_躯体と製品
  6
CONTINUOUS
 62
    4
 10
-1855.9996499999966
 20
530.73943999999858
 11
-1867.09971
 21
530.73943999999858
  0
LINE
  8
_0-3_躯体と製品
  6
CONTINUOUS
 62
    4
 10
-1850.2957299999957
 20
480.73943999999858
 11
-1867.09971
 21
480.73943999999858
  0
LINE
  8
_0-3_躯体と製品
  6
CONTINUOUS
 62
    3
 10
-1846.2053899999978
 20
514.66217999999856
 11
-1846.2053899999978
 21
494.66217999999856
  0
LINE
  8
_0-3_躯体と製品
  6
CONTINUOUS
 62
    3
 10
-1885.500069999996
 20
470.73943999999858
 11
-1863.3930699999996
 21
470.73943999999858
  0
LINE
  8
_0-3_躯体と製品
  6
CONTINUOUS
 62
    7
 10
-1912.2367299999974
 20
519.7350599999985
 11
-1873.5997099999963
 21
530.0878199999994
  0
LINE
  8
_0-3_躯体と製品
  6
CONTINUOUS
 62
    4
 10
-1879.0997099999981
 20
651.34137999999859
 11
-1879.0997099999981
 21
676.73741999999959
  0
LINE
  8
_0-3_躯体と製品
  6
CONTINUOUS
 62
    4
 10
-1873.099709999999
 20
651.34137999999859
 11
-1879.0997099999981
 21
651.34137999999859
  0
LINE
  8
_0-3_躯体と製品
  6
CONTINUOUS
 62
    3
 10
-1885.500069999996
 20
666.34137999999859
 11
-1863.3930699999996
 21
666.34137999999859
  0
LINE
  8
_0-3_躯体と製品
  6
CONTINUOUS
 62
    4
 10
-1879.0997099999981
 20
866.90699999999958
 11
-1879.0997099999981
 21
839.7048399999984
  0
LINE
  8
_0-3_躯体と製品
  6
CONTINUOUS
 62
    3
 10
-1962.2276899999974
 20
796.06031999999948
 11
-1936.5161699999976
 21
765.41853999999955
  0
LINE
  8
_0-3_躯体と製品
  6
CONTINUOUS
 62
    7
 10
-1888.099709999999
 20
852.1529399999996
 11
-1888.099709999999
 21
832.1529399999996
  0
LINE
  8
_0-3_躯体と製品
  6
CONTINUOUS
 62
    3
 10
-1885.287209999999
 20
851.90699999999958
 11
-1862.6455099999998
 21
851.90699999999958
  0
LINE
  8
_0-3_躯体と製品
  6
CONTINUOUS
 62
    4
 10
-1873.099709999999
 20
866.90699999999958
 11
-1879.0997099999981
 21
866.90699999999958
  0
LINE
  8
_0-3_躯体と製品
  6
PLINE5
 62
    4
 10
-1873.099709999999
 20
973.38983999999846
 11
-1867.09971
 21
973.38983999999846
  0
LINE
  8
_0-3_躯体と製品
  6
CONTINUOUS
 62
    3
 10
-1858.917829999998
 20
999.23001999999849
 11
-1838.917829999998
 21
999.23001999999849
  0
LINE
  8
_0-3_躯体と製品
  6
CONTINUOUS
 62
    3
 10
-1848.917829999998
 20
1009.2300199999985
 11
-1848.917829999998
 21
989.23001999999849
  0
LINE
  8
_0-3_躯体と製品
  6
CONTINUOUS
 62
    3
 10
-1573.4488099999976
 20
1120.2441399999993
 11
-1563.7719299999958
 21
1081.4323199999985
  0
LINE
  8
_0-3_躯体と製品
  6
CONTINUOUS
 62
    3
 10
-1084.8083299999985
 20
1051.9400599999994
 11
-1065.4024299999969
 21
1047.1016399999994
  0
LINE
  8
_0-3_躯体と製品
  6
CONTINUOUS
 62
    3
 10
-1072.6861699999995
 20
1059.2237999999993
 11
-1077.5245899999959
 21
1039.8178999999996
  0
LINE
  8
_0-3_躯体と製品
  6
CONTINUOUS
 62
    3
 10
-1242.6079299999969
 20
1091.2839199999985
 11
-1223.2020099999977
 21
1086.4454799999985
  0
LINE
  8
_0-3_躯体と製品
  6
CONTINUOUS
 62
    3
 10
-1373.099709999999
 20
1123.0538399999987
 11
-1363.099709999999
 21
1123.0538399999987
  0
LINE
  8
_0-3_躯体と製品
  6
CONTINUOUS
 62
    3
 10
-1230.4857499999957
 20
1098.5676599999997
 11
-1235.3241899999989
 21
1079.1617399999993
  0
LINE
  8
_0-4_図面枠
  6
CONTINUOUS
 62
    3
 10
-894.75892999999587
 20
1007.9426999999995
 11
-805.52982999999813
 21
1162.4920199999983
  0
LINE
  8
_0-3_躯体と製品
  6
CONTINUOUS
 62
    3
 10
-906.8200899999988
 20
1007.5626199999996
 11
-887.41416999999956
 21
1002.7241799999985
  0
LINE
  8
_0-3_躯体と製品
  6
CONTINUOUS
 62
    3
 10
-894.69790999999759
 20
1014.8463599999985
 11
-899.53634999999622
 21
995.44043999999849
  0
LINE
  8
_0-4_図面枠
  6
CONTINUOUS
 62
    3
 10
-894.75892999999587
 20
1007.9426999999995
 11
-883.41916999999967
 21
1047.5837199999996
  0
LINE
  8
_0-3_躯体と製品
  6
CONTINUOUS
 62
    4
 10
-1849.1250299999979
 20
1540.2273399999985
 11
-1373.2900499999982
 21
1540.2273399999985
  0
LINE
  8
_0-3_躯体と製品
  6
CONTINUOUS
 62
    4
 10
-1847.6734899999997
 20
1534.4055599999997
 11
-1373.099709999999
 21
1534.4055599999997
  0
LINE
  8
_0-4_図面枠
  6
CONTINUOUS
 62
    3
 10
-1797.7760699999976
 20
1539.0486799999994
 11
-1751.853609999996
 21
1618.5887199999988
  0
LINE
  8
_0-3_躯体と製品
  6
CONTINUOUS
 62
    4
 10
-1932.9043099999967
 20
1513.1551199999994
 11
-1914.8646699999995
 21
1517.6529199999986
  0
LINE
  8
_0-3_躯体と製品
  6
CONTINUOUS
 62
    4
 10
-1967.2011299999963
 20
1504.6039799999994
 11
-1937.5852099999997
 21
1511.9880399999997
  0
LINE
  8
_0-3_躯体と製品
  6
CONTINUOUS
 62
    4
 10
-1968.6526499999968
 20
1510.4257399999997
 11
-1967.2011299999963
 21
1504.6039799999994
  0
LINE
  8
_0-3_躯体と製品
  6
CONTINUOUS
 62
    3
 10
-1907.0219299999985
 20
1552.5879599999985
 11
-1897.2966699999984
 21
1513.5820799999997
  0
LINE
  8
_0-3_躯体と製品
  6
CONTINUOUS
 62
    4
 10
-1872.3707499999978
 20
1534.4315199999996
 11
-1849.1250299999979
 21
1540.2273399999985
  0
LINE
  8
_0-3_躯体と製品
  6
CONTINUOUS
 62
    4
 10
-1910.4535699999974
 20
1518.7527199999995
 11
-1847.6734899999997
 21
1534.4055599999997
  0
LINE
  8
_0-3_躯体と製品
  6
CONTINUOUS
 62
    4
 10
-1860.9785299999999
 20
1491.9249199999986
 11
-1873.0746099999965
 21
1540.4396999999994
  0
LINE
  8
_0-3_躯体と製品
  6
CONTINUOUS
 62
    4
 10
-1873.0746099999965
 20
1488.9090199999987
 11
-1860.9785299999999
 21
1491.9249199999986
  0
LINE
  8
_0-3_躯体と製品
  6
CONTINUOUS
 62
    7
 10
-1872.1955699999967
 20
1589.9396999999985
 11
-1872.1955699999967
 21
1580.4396999999985
  0
LINE
  8
_0-3_躯体と製品
  6
CONTINUOUS
 62
    7
 10
-1873.1955699999958
 20
1589.9396999999985
 11
-1872.1955699999967
 21
1589.9396999999985
  0
LINE
  8
_0-3_躯体と製品
  6
CONTINUOUS
 62
    7
 10
-1873.1955699999958
 20
1540.4396999999994
 11
-1873.1955699999958
 21
1589.9396999999985
  0
LINE
  8
_0-4_図面枠
  6
CONTINUOUS
 62
    3
 10
-1797.7760699999976
 20
1539.0486799999994
 11
-1786.4363299999991
 21
1578.6896999999985
  0
TEXT
  8
_0-4_図面枠
 62
    7
 10
-1751.8528499999979
 20
1628.5884399999995
 40
60
 41
0.7999999999999996
 50
0
  1
渡し金具
  0
LINE
  8
_0-4_図面枠
  6
CONTINUOUS
 62
    3
 10
-1751.853609999996
 20
1618.5887199999988
 11
-1539.0192299999967
 21
1618.5887199999988
  0
LINE
  8
_0-3_躯体と製品
  6
CONTINUOUS
 62
    4
 10
-873.09970999999905
 20
1590.2273399999985
 11
-1373.099709999999
 21
1590.2273399999985
  0
LINE
  8
_0-4_図面枠
  6
CONTINUOUS
 62
    3
 10
-816.92348999999695
 20
1482.1624399999987
 11
-805.58374999999842
 21
1521.8034599999996
  0
LINE
  8
_0-3_躯体と製品
  6
CONTINUOUS
 62
    4
 10
-873.09970999999905
 20
1590.2273399999985
 11
-873.09970999999905
 21
1565.9926799999994
  0
LINE
  8
_0-3_躯体と製品
  6
CONTINUOUS
 62
    4
 10
-133.45902999999703
 20
1381.5795399999993
 11
-51.434589999996888
 21
503.56885999999838
  0
LINE
  8
_0-3_躯体と製品
  6
PLINE5
 62
    4
 10
-626.70868999999811
 20
957.30465999999842
 11
-124.95792999999799
 21
957.30465999999842
  0
LINE
  8
_0-3_躯体と製品
  6
PLINE5
 62
    4
 10
-136.47025000000008
 20
963.30465999999944
 11
-625.97198999999591
 21
963.30465999999944
  0
LINE
  8
_0-3_躯体と製品
  6
PLINE5
 62
    4
 10
-130.56508999999801
 20
913.30465999999944
 11
-632.11120999999594
 21
913.30465999999944
  0
LINE
  8
_0-3_躯体と製品
  6
PLINE5
 62
    4
 10
-136.47025000000008
 20
957.30465999999842
 11
-626.70868999999811
 21
957.30465999999842
  0
LINE
  8
_0-3_躯体と製品
  6
PLINE5
 62
    4
 10
-125.51844999999798
 20
963.30465999999944
 11
-625.97198999999591
 21
963.30465999999944
  0
LINE
  8
_0-3_躯体と製品
  6
PLINE5
 62
    4
 10
-120.84740999999894
 20
913.30465999999944
 11
-632.11120999999594
 21
913.30465999999944
  0
TEXT
  8
_0-4_図面枠
 62
    7
 10
-712.01840999999831
 20
1077.7455399999983
 40
60
 41
0.8000000000000002
 50
0
  1
妻板補強金具
  0
LINE
  8
_0-4_図面枠
  6
CONTINUOUS
 62
    3
 10
-712.01818999999659
 20
1067.7454999999984
 11
-391.28250999999909
 21
1067.7454999999984
  0
LINE
  8
_0-4_図面枠
  6
CONTINUOUS
 62
    3
 10
-766.89075000000003
 20
972.70343999999852
 11
-712.01818999999659
 21
1067.7454999999984
  0
LINE
  8
_0-4_図面枠
  6
CONTINUOUS
 62
    3
 10
-766.89075000000003
 20
972.70343999999852
 11
-755.55100999999695
 21
1012.3444599999987
  0
LINE
  8
_0-3_躯体と製品
  6
CONTINUOUS
 62
    3
 10
-744.08064999999851
 20
1513.2123399999987
 11
-724.67472999999927
 21
1508.3738999999987
  0
LINE
  8
_0-3_躯体と製品
  6
CONTINUOUS
 62
    3
 10
-731.95846999999731
 20
1520.4960799999994
 11
-736.79691000000048
 21
1501.0901599999997
  0
LINE
  8
_0-3_躯体と製品
  6
CONTINUOUS
 62
    3
 10
-600.52020999999741
 20
1477.4186999999997
 11
-581.11428999999896
 21
1472.5802599999984
  0
LINE
  8
_0-3_躯体と製品
  6
CONTINUOUS
 62
    3
 10
-588.39802999999699
 20
1484.7024399999987
 11
-593.23646999999994
 21
1465.2965199999985
  0
LINE
  8
_0-3_躯体と製品
  6
CONTINUOUS
 62
    3
 10
-313.39930999999797
 20
1405.8314199999995
 11
-293.99341000000095
 21
1400.9929799999995
  0
LINE
  8
_0-3_躯体と製品
  6
CONTINUOUS
 62
    3
 10
-456.95974999999908
 20
1441.6250599999994
 11
-437.55384999999706
 21
1436.7866199999985
  0
LINE
  8
_0-3_躯体と製品
  6
CONTINUOUS
 62
    3
 10
-444.83759000000009
 20
1448.9087999999997
 11
-449.67602999999895
 21
1429.5028799999995
  0
LINE
  8
_0-3_躯体と製品
  6
CONTINUOUS
 62
    3
 10
-301.27712999999699
 20
1413.1151599999985
 11
-306.11556999999993
 21
1393.7092399999997
  0
LINE
  8
_0-4_図面枠
  6
CONTINUOUS
 62
    3
 10
-718.68428999999878
 20
1652.3177199999996
 11
-610.23570999999947
 21
1652.3177199999996
  0
TEXT
  8
_0-4_図面枠
 62
    7
 10
-718.68436999999858
 20
1662.3176799999997
 40
60
 41
0.7999999999999993
 50
0
  1
妻板
  0
LINE
  8
_0-3_躯体と製品
  6
CONTINUOUS
 62
    3
 10
685.42161000000078
 20
309.63564000000031
 11
685.42161000000078
 21
370.69619999999884
  0
LINE
  8
_0-3_躯体と製品
  6
CONTINUOUS
 62
    3
 10
1681.4216099999999
 20
1710.3059999999996
 11
1681.4216099999999
 21
-332.38290000000109
  0
LINE
  8
_0-3_躯体と製品
  6
CONTINUOUS
 62
    3
 10
1701.421609999999
 20
1710.3059999999996
 11
1701.421609999999
 21
-332.38290000000109
  0
LINE
  8
_0-3_躯体と製品
  6
CONTINUOUS
 62
    3
 10
1025.4216100000008
 20
1679.9121799999998
 11
1025.4216100000008
 21
-332.38290000000109
  0
LINE
  8
_0-3_躯体と製品
  6
CONTINUOUS
 62
    3
 10
1045.4216100000008
 20
-332.38290000000109
 11
1045.4216100000008
 21
1679.9121799999998
  0
LINE
  8
_0-3_躯体と製品
  6
CONTINUOUS
 62
    3
 10
2337.4216100000031
 20
1679.9121799999998
 11
2337.4216100000031
 21
-332.38290000000109
  0
LINE
  8
_0-3_躯体と製品
  6
CONTINUOUS
 62
    3
 10
2357.4216100000031
 20
-332.38290000000109
 11
2357.4216100000031
 21
1679.9121799999998
  0
LINE
  8
_0-4_図面枠
  6
CONTINUOUS
 62
    7
 10
4292.1666699999987
 20
-2372.9999999999995
 11
4292.1666699999987
 21
2966.9999999999995
  0
TEXT
  8
_0-4_図面枠
 62
    7
 10
1270.6540100000002
 20
293.84387999999944
 40
60
 41
0.8000000000000006
 50
0
  1
支柱
  0
LINE
  8
_0-4_図面枠
  6
CONTINUOUS
 62
    3
 10
1214.1474500000022
 20
381.71577999999852
 11
1270.6538300000029
 21
283.84385999999836
  0
LINE
  8
_0-3_躯体と製品
  6
CONTINUOUS
 62
    7
 10
690.42161000000078
 20
220.81085999999925
 11
690.42161000000078
 21
343.59039999999936
  0
LINE
  8
_0-3_躯体と製品
  6
CONTINUOUS
 62
    7
 10
685.42161000000078
 20
1590.2273399999985
 11
685.42161000000078
 21
220.81085999999925
  0
LINE
  8
_0-3_躯体と製品
  6
CONTINUOUS
 62
    4
 10
856.42161000000397
 20
1534.2927399999994
 11
856.42161000000397
 21
-87.418580000000929
  0
LINE
  8
_0-3_躯体と製品
  6
CONTINUOUS
 62
    4
 10
1170.4216100000008
 20
1031.0562799999984
 11
1170.4216100000008
 21
-87.418580000000929
  0
LINE
  8
_0-3_躯体と製品
  6
CONTINUOUS
 62
    4
 10
850.42160999999987
 20
1031.0562799999984
 11
850.42160999999987
 21
-87.418580000000929
  0
LINE
  8
_0-3_躯体と製品
  6
CONTINUOUS
 62
    4
 10
1220.4216099999999
 20
524.59247999999945
 11
1220.4216099999999
 21
-87.418580000000929
  0
LINE
  8
_0-3_躯体と製品
  6
CONTINUOUS
 62
    4
 10
1176.421610000004
 20
1534.2927399999994
 11
1176.421610000004
 21
-87.418580000000929
  0
LINE
  8
_0-3_躯体と製品
  6
CONTINUOUS
 62
    4
 10
900.42161000000078
 20
524.59247999999945
 11
900.42161000000078
 21
-87.418580000000929
  0
LINE
  8
_0-3_躯体と製品
  6
PLINE3
 62
    3
 10
1195.4216099999999
 20
1540.2927399999985
 11
1195.4216099999999
 21
-147.41168000000118
  0
LINE
  8
_0-3_躯体と製品
  6
PLINE3
 62
    3
 10
875.42161000000078
 20
1540.2927399999985
 11
875.42161000000078
 21
-147.41168000000118
  0
LINE
  8
_0-3_躯体と製品
  6
CONTINUOUS
 62
    7
 10
2697.421610000004
 20
1590.2273399999985
 11
2697.421610000004
 21
32.165939999998841
  0
LINE
  8
_0-3_躯体と製品
  6
PLINE3
 62
    3
 10
2187.4216100000031
 20
1590.2273399999985
 11
2187.4216100000031
 21
70.227339999999117
  0
LINE
  8
_0-3_躯体と製品
  6
PLINE3
 62
    3
 10
2507.421610000004
 20
1590.2273399999985
 11
2507.421610000004
 21
70.227339999999117
  0
LINE
  8
_0-4_図面枠
  6
CONTINUOUS
 62
    3
 10
2715.4316099999978
 20
-8.9930600000012646
 11
2943.0447500000018
 21
-403.23056000000065
  0
TEXT
  8
_0-4_図面枠
 62
    7
 10
2797.5802700000022
 20
-1201.5523200000007
 40
60
 41
0.8000000000000006
 50
0
  1
支柱
  0
TEXT
  8
_0-4_図面枠
 62
    7
 10
2766.6006699999998
 20
-1946.8859200000006
 40
60
 41
0.7999999999999999
 50
0
  1
Ｌ型鋼
  0
TEXT
  8
_0-4_図面枠
 62
    7
 10
2766.6006699999998
 20
-1346.8858800000007
 40
60
 41
0.7999999999999999
 50
0
  1
Ｌ型鋼
  0
TEXT
  8
_0-4_図面枠
 62
    7
 10
2766.6006699999998
 20
-1496.8860400000003
 40
60
 41
0.7999999999999999
 50
0
  1
Ｌ型鋼
  0
TEXT
  8
_0-4_図面枠
 62
    7
 10
2766.6006699999998
 20
-1646.8858800000007
 40
60
 41
0.7999999999999999
 50
0
  1
Ｌ型鋼
  0
TEXT
  8
_0-4_図面枠
 62
    7
 10
2766.6006699999998
 20
-1796.8860000000004
 40
60
 41
0.7999999999999999
 50
0
  1
Ｌ型鋼
  0
LINE
  8
_0-3_躯体と製品
  6
CONTINUOUS
 62
    7
 10
2357.4216100000031
 20
-4.8150600000006989
 11
2976.4216100000012
 21
-4.8150600000006989
  0
LINE
  8
_0-3_躯体と製品
  6
PLINE2
 62
    6
 10
2857.3821700000026
 20
-48.044980000000692
 11
2900.3999899999981
 21
-5.0271600000006629
  0
LINE
  8
_0-3_躯体と製品
  6
PLINE2
 62
    6
 10
2865.5930100000051
 20
-5.2071200000010549
 11
2896.8905100000047
 21
-36.504640000000563
  0
ARC
  8
_0-3_躯体と製品
  6
CONTINUOUS
 62
    4
 10
2868.8097300000054
 20
-13.768640000000573
 40
36.131099999999989
 50
203.12832000000384
 51
336.70039200000173
  0
LINE
  8
_0-3_躯体と製品
  6
CONTINUOUS
 62
    7
 10
2976.4216100000012
 20
220.81085999999925
 11
2697.421610000004
 21
220.81085999999925
  0
LINE
  8
_0-4_図面枠
  6
CONTINUOUS
 62
    3
 10
2716.5805500000006
 20
-1085.0957400000002
 11
2716.5805500000006
 21
-1985.0957399999993
  0
LINE
  8
_0-4_図面枠
  6
CONTINUOUS
 62
    3
 10
2066.580550000001
 20
-1085.0957400000002
 11
2066.580550000001
 21
-1985.0957399999993
  0
LINE
  8
_0-4_図面枠
  6
CONTINUOUS
 62
    3
 10
2466.580550000001
 20
-1085.0957400000002
 11
2466.580550000001
 21
-1985.0957399999993
  0
TEXT
  8
_0-4_図面枠
 62
    7
 10
2527.9556500000062
 20
-1367.9485000000009
 40
60
 41
0.7999999999999999
 50
0
  1
０．８
  0
LINE
  8
_0-4_図面枠
  6
CONTINUOUS
 62
    3
 10
1666.580550000001
 20
-1085.0957400000002
 11
1666.580550000001
 21
-1985.0957399999993
  0
LINE
  8
_0-4_図面枠
  6
CONTINUOUS
 62
    3
 10
1266.580550000001
 20
-1085.0957400000002
 11
1266.580550000001
 21
-1985.0957399999993
  0
LINE
  8
_0-4_図面枠
  6
CONTINUOUS
 62
    3
 10
866.58055000000104
 20
-1085.0957400000002
 11
866.58055000000104
 21
-1985.0957399999993
  0
TEXT
  8
_0-4_図面枠
 62
    7
 10
960.34639000000197
 20
-1958.2265599999996
 40
60
 41
0.8
 50
0
  1
２０００
  0
TEXT
  8
_0-4_図面枠
 62
    7
 10
951.93941000000223
 20
-1796.8036000000006
 40
60
 41
0.8
 50
0
  1
１５００
  0
TEXT
  8
_0-4_図面枠
 62
    7
 10
961.18744999999899
 20
-1650.5136599999996
 40
60
 41
0.8000000000000001
 50
0
  1
１２００
  0
TEXT
  8
_0-4_図面枠
 62
    7
 10
967.91353000000299
 20
-1507.5867200000002
 40
60
 41
0.8
 50
0
  1
１０００
  0
TEXT
  8
_0-4_図面枠
 62
    7
 10
783.55195000000322
 20
-1817.1203599999994
 40
60
 41
0.8000000000000006
 50
0
  1
Ｈ
  0
TEXT
  8
_0-4_図面枠
 62
    7
 10
785.63875000000007
 20
-1961.7826199999995
 40
60
 41
0.7999999999999993
 50
0
  1
Ｈ
  0
TEXT
  8
_0-4_図面枠
 62
    7
 10
780.07479000000103
 20
-1671.0675599999995
 40
60
 41
0.8000000000000006
 50
0
  1
Ｈ
  0
TEXT
  8
_0-4_図面枠
 62
    7
 10
773.8150099999998
 20
-1518.7552400000004
 40
60
 41
0.8000000000000003
 50
0
  1
Ｈ
  0
TEXT
  8
_0-4_図面枠
 62
    7
 10
1357.1212900000019
 20
-1796.3958800000005
 40
60
 41
0.8
 50
0
  1
２０３０
  0
TEXT
  8
_0-4_図面枠
 62
    7
 10
1352.86409
 20
-1956.5525199999997
 40
60
 41
0.8
 50
0
  1
２６９０
  0
TEXT
  8
_0-4_図面枠
 62
    7
 10
1352.4386700000032
 20
-1658.5486199999996
 40
60
 41
0.8
 50
0
  1
１６３５
  0
TEXT
  8
_0-4_図面枠
 62
    7
 10
1349.90571
 20
-1511.5036400000008
 40
60
 41
0.8
 50
0
  1
１３７０
  0
TEXT
  8
_0-4_図面枠
 62
    7
 10
2163.8186900000001
 20
-1512.4667800000007
 40
60
 41
0.8000000000000003
 50
0
  1
２５９０
  0
TEXT
  8
_0-4_図面枠
 62
    7
 10
2162.6498499999998
 20
-1955.2738200000003
 40
60
 41
0.8000000000000003
 50
0
  1
５１８０
  0
TEXT
  8
_0-4_図面枠
 62
    7
 10
2167.1377700000012
 20
-1811.4367799999995
 40
60
 41
0.8000000000000003
 50
0
  1
３８８０
  0
TEXT
  8
_0-4_図面枠
 62
    7
 10
2172.5418300000019
 20
-1665.3635200000003
 40
60
 41
0.8000000000000003
 50
0
  1
３１１０
  0
TEXT
  8
_0-4_図面枠
 62
    7
 10
1762.6498499999998
 20
-1805.2737600000005
 40
60
 41
0.8000000000000003
 50
0
  1
　１５０
  0
TEXT
  8
_0-4_図面枠
 62
    7
 10
1762.6498499999998
 20
-1955.2738200000003
 40
60
 41
0.8000000000000003
 50
0
  1
　１５０
  0
TEXT
  8
_0-4_図面枠
 62
    7
 10
1762.6498499999998
 20
-1505.2741000000001
 40
60
 41
0.8000000000000003
 50
0
  1
　１５０
  0
TEXT
  8
_0-4_図面枠
 62
    7
 10
1762.6498499999998
 20
-1655.2740999999996
 40
60
 41
0.8000000000000003
 50
0
  1
　１５０
  0
TEXT
  8
_0-4_図面枠
 62
    7
 10
2527.9556500000062
 20
-1817.9483199999995
 40
60
 41
0.7999999999999999
 50
0
  1
１．０
  0
TEXT
  8
_0-4_図面枠
 62
    7
 10
2527.9556500000062
 20
-1967.9483799999994
 40
60
 41
0.7999999999999999
 50
0
  1
１．０
  0
TEXT
  8
_0-4_図面枠
 62
    7
 10
2527.9556500000062
 20
-1667.9486600000005
 40
60
 41
0.7999999999999999
 50
0
  1
１．０
  0
TEXT
  8
_0-4_図面枠
 62
    7
 10
2527.9556500000062
 20
-1517.9486600000005
 40
60
 41
0.7999999999999999
 50
0
  1
０．８
  0
LINE
  8
_0-3_躯体と製品
  6
PLINE5
 62
    3
 10
1220.4216099999999
 20
-67.418580000000816
 11
1682.2166100000022
 21
-67.418580000000816
  0
LINE
  8
_0-3_躯体と製品
  6
PLINE5
 62
    3
 10
1220.4216099999999
 20
-15.67038000000025
 11
1682.2166100000022
 21
-15.67038000000025
  0
LINE
  8
_0-3_躯体と製品
  6
CONTINUOUS
 62
    7
 10
1682.43291
 20
70.080379999999536
 11
1220.4216099999999
 21
70.080379999999536
  0
LINE
  8
_0-3_躯体と製品
  6
CONTINUOUS
 62
    3
 10
1045.4216100000008
 20
-103.57682000000062
 11
1682.045970000001
 21
-103.57682000000062
  0
LINE
  8
_0-3_躯体と製品
  6
PLINE2
 62
    3
 10
1220.4216099999999
 20
1.3296199999991813
 11
1682.279730000002
 21
1.3296199999991813
  0
LINE
  8
_0-3_躯体と製品
  6
CONTINUOUS
 62
    3
 10
1220.4216099999999
 20
4.3296199999997498
 11
1682.2864100000038
 21
4.3296199999997498
  0
LINE
  8
_0-3_躯体と製品
  6
PLINE5
 62
    3
 10
1220.4216099999999
 20
-83.766260000000898
 11
1682.0901300000032
 21
-83.766260000000898
  0
LINE
  8
_0-3_躯体と製品
  6
CONTINUOUS
 62
    3
 10
1045.4216100000008
 20
-87.418580000000929
 11
1682.0819900000042
 21
-87.418580000000929
  0
ARC
  8
_0-3_躯体と製品
  6
CONTINUOUS
 62
    4
 10
1698.5547700000029
 20
52.387339999999199
 40
36.131099999999989
 50
203.12832000000384
 51
243.30213300000099
  0
ARC
  8
_0-3_躯体と製品
  6
CONTINUOUS
 62
    4
 10
1698.5547700000029
 20
52.387339999999199
 40
42.131099999999989
 50
203.12832000000384
 51
247.3158719999966
  0
TEXT
  8
_0-4_図面枠
 62
    7
 10
1048.882770000002
 20
-1196.7586200000005
 40
60
 41
0.7999999999999993
 50
0
  1
Ａ
  0
TEXT
  8
_0-4_図面枠
 62
    7
 10
1028.8443100000022
 20
-1357.5823
 40
60
 41
0.7999999999999999
 50
0
  1
９００
  0
TEXT
  8
_0-4_図面枠
 62
    7
 10
442.00381000000311
 20
-1351.6969800000002
 40
60
 41
0.8000000000000001
 50
0
  1
ＳＣ９００
  0
TEXT
  8
_0-4_図面枠
 62
    7
 10
464.55751000000191
 20
-1205.6868400000008
 40
60
 41
0.8000000000000001
 50
0
  1
型　　式
  0
TEXT
  8
_0-4_図面枠
 62
    7
 10
777.89399000000412
 20
-1352.3589000000002
 40
60
 41
0.7999999999999993
 50
0
  1
Ｈ
  0
TEXT
  8
_0-4_図面枠
 62
    7
 10
1449.9759100000001
 20
-1201.5526200000008
 40
60
 41
0.8000000000000006
 50
0
  1
Ｉ
  0
TEXT
  8
_0-4_図面枠
 62
    7
 10
1360.923790000003
 20
-1356.8745800000011
 40
60
 41
0.8
 50
0
  1
１２３０
  0
LINE
  8
_0-3_躯体と製品
  6
PLINE5
 62
    3
 10
1045.4216100000008
 20
-67.418580000000816
 11
1170.4216100000008
 21
-67.418580000000816
  0
LINE
  8
_0-3_躯体と製品
  6
PLINE5
 62
    3
 10
1045.4216100000008
 20
-15.67038000000025
 11
1170.4216100000008
 21
-15.67038000000025
  0
LINE
  8
_0-3_躯体と製品
  6
PLINE2
 62
    3
 10
1045.4216100000008
 20
1.3296199999991813
 11
1170.4216100000008
 21
1.3296199999991813
  0
LINE
  8
_0-3_躯体と製品
  6
CONTINUOUS
 62
    3
 10
1045.4216100000008
 20
4.3296199999997498
 11
1170.4216100000008
 21
4.3296199999997498
  0
LINE
  8
_0-3_躯体と製品
  6
PLINE5
 62
    3
 10
1045.4216100000008
 20
-83.766260000000898
 11
1170.4216100000008
 21
-83.766260000000898
  0
LINE
  8
_0-3_躯体と製品
  6
CONTINUOUS
 62
    6
 10
1045.4216100000008
 20
28.170999999998799
 11
1066.7490300000031
 21
28.170999999998799
  0
ARC
  8
_0-3_躯体と製品
  6
CONTINUOUS
 62
    4
 10
1039.8117900000011
 20
52.250919999999155
 40
36.131099999999989
 50
278.932016000001
 51
315.9648990000008
  0
ARC
  8
_0-3_躯体と製品
  6
CONTINUOUS
 62
    4
 10
1039.8117900000011
 20
52.250919999999155
 40
42.131099999999989
 50
277.65172000000462
 51
318.23384300000095
  0
LINE
  8
_0-3_躯体と製品
  6
CONTINUOUS
 62
    7
 10
1170.4216100000008
 20
70.080379999999536
 11
1045.4216100000008
 21
70.080379999999536
  0
LINE
  8
_0-3_躯体と製品
  6
CONTINUOUS
 62
    3
 10
785.42160999999987
 20
-103.57682000000062
 11
1025.4216100000008
 21
-103.57682000000062
  0
ARC
  8
_0-3_躯体と製品
  6
CONTINUOUS
 62
    4
 10
745.66579000000002
 20
180.52753999999936
 40
34.610720000000001
 50
24.692923000000672
 51
155.48782100000051
  0
ARC
  8
_0-3_躯体と製品
  6
CONTINUOUS
 62
    4
 10
745.66579000000002
 20
180.52753999999936
 40
28.610720000000001
 50
24.692923000000672
 51
155.48782100000051
  0
ARC
  8
_0-3_躯体と製品
  6
CONTINUOUS
 62
    4
 10
615.66579000000002
 20
180.52753999999936
 40
34.610720000000001
 50
24.692923000000672
 51
155.48782100000051
  0
ARC
  8
_0-3_躯体と製品
  6
CONTINUOUS
 62
    4
 10
615.66579000000002
 20
180.52753999999936
 40
28.610720000000001
 50
24.692923000000672
 51
155.48782100000051
  0
LINE
  8
_0-4_図面枠
  6
CONTINUOUS
 62
    3
 10
527.91777000000093
 20
222.3232799999995
 11
516.57803000000285
 21
182.68225999999925
  0
ARC
  8
_0-3_躯体と製品
  6
CONTINUOUS
 62
    4
 10
551.17374999999993
 20
209.07905999999923
 40
36.131099999999989
 50
203.12832000000384
 51
336.70039200000173
  0
ARC
  8
_0-3_躯体と製品
  6
CONTINUOUS
 62
    4
 10
551.17374999999993
 20
209.07905999999923
 40
42.131099999999989
 50
203.12832000000384
 51
336.70039200000173
  0
ARC
  8
_0-3_躯体と製品
  6
CONTINUOUS
 62
    4
 10
485.70652999999993
 20
180.52753999999936
 40
34.610720000000001
 50
24.692923000000672
 51
155.48782100000051
  0
ARC
  8
_0-3_躯体と製品
  6
CONTINUOUS
 62
    4
 10
485.70652999999993
 20
180.52753999999936
 40
28.610720000000001
 50
24.692923000000672
 51
155.48782100000051
  0
ARC
  8
_0-3_躯体と製品
  6
CONTINUOUS
 62
    4
 10
681.13303000000315
 20
209.07905999999923
 40
36.131099999999989
 50
203.12832000000384
 51
336.70039200000173
  0
ARC
  8
_0-3_躯体と製品
  6
CONTINUOUS
 62
    4
 10
681.13303000000315
 20
209.07905999999923
 40
42.131099999999989
 50
203.12832000000384
 51
336.70039200000173
  0
LINE
  8
_0-4_図面枠
  6
CONTINUOUS
 62
    3
 10
647.78717000000279
 20
191.26389999999913
 11
636.44743000000108
 21
151.62289999999882
  0
LINE
  8
_0-3_躯体と製品
  6
CONTINUOUS
 62
    3
 10
677.15116999999918
 20
259.26153999999894
 11
702.77287000000115
 21
259.26153999999894
  0
LINE
  8
_0-3_躯体と製品
  6
CONTINUOUS
 62
    3
 10
785.42160999999987
 20
212.46079999999904
 11
785.42160999999987
 21
82.509159999999724
  0
LINE
  8
_0-3_躯体と製品
  6
PLINE5
 62
    3
 10
900.42161000000078
 20
-67.418580000000816
 11
1025.4216100000008
 21
-67.418580000000816
  0
LINE
  8
_0-3_躯体と製品
  6
PLINE5
 62
    3
 10
900.42161000000078
 20
-15.67038000000025
 11
1025.4216100000008
 21
-15.67038000000025
  0
LINE
  8
_0-3_躯体と製品
  6
CONTINUOUS
 62
    6
 10
900.42161000000078
 20
28.160539999998946
 11
935.19507000000203
 21
28.160539999998946
  0
ARC
  8
_0-3_躯体と製品
  6
CONTINUOUS
 62
    4
 10
908.25783000000411
 20
52.240439999999353
 40
36.131099999999989
 50
257.47395200000409
 51
315.9648990000008
  0
ARC
  8
_0-3_躯体と製品
  6
CONTINUOUS
 62
    4
 10
908.25783000000411
 20
52.240439999999353
 40
42.131099999999989
 50
259.28076399999674
 51
318.23384300000095
  0
LINE
  8
_0-3_躯体と製品
  6
CONTINUOUS
 62
    7
 10
1025.4216100000008
 20
70.080379999999536
 11
900.42161000000078
 21
70.080379999999536
  0
LINE
  8
_0-3_躯体と製品
  6
PLINE2
 62
    3
 10
900.42161000000078
 20
1.3296199999991813
 11
1025.4216100000008
 21
1.3296199999991813
  0
LINE
  8
_0-3_躯体と製品
  6
CONTINUOUS
 62
    3
 10
900.42161000000078
 20
4.3296199999997498
 11
1025.4216100000008
 21
4.3296199999997498
  0
LINE
  8
_0-3_躯体と製品
  6
PLINE5
 62
    3
 10
900.42161000000078
 20
-83.766260000000898
 11
1025.4216100000008
 21
-83.766260000000898
  0
LINE
  8
_0-3_躯体と製品
  6
CONTINUOUS
 62
    3
 10
785.42160999999987
 20
-87.418580000000929
 11
1025.4216100000008
 21
-87.418580000000929
  0
ARC
  8
_0-3_躯体と製品
  6
CONTINUOUS
 62
    4
 10
776.33887000000095
 20
44.375460000000089
 40
36.131099999999989
 50
284.55935599999913
 51
313.96466099999742
  0
LINE
  8
_0-3_躯体と製品
  6
PLINE5
 62
    3
 10
785.42160999999987
 20
-67.418580000000816
 11
850.42160999999987
 21
-67.418580000000816
  0
LINE
  8
_0-3_躯体と製品
  6
PLINE5
 62
    3
 10
785.42160999999987
 20
-15.67038000000025
 11
850.42160999999987
 21
-15.67038000000025
  0
LINE
  8
_0-3_躯体と製品
  6
PLINE2
 62
    3
 10
785.42160999999987
 20
1.3296199999991813
 11
850.42160999999987
 21
1.3296199999991813
  0
LINE
  8
_0-3_躯体と製品
  6
CONTINUOUS
 62
    3
 10
785.42160999999987
 20
4.3296199999997498
 11
850.42160999999987
 21
4.3296199999997498
  0
LINE
  8
_0-3_躯体と製品
  6
PLINE5
 62
    3
 10
785.42160999999987
 20
-83.766260000000898
 11
850.42160999999987
 21
-83.766260000000898
  0
ARC
  8
_0-3_躯体と製品
  6
CONTINUOUS
 62
    4
 10
834.89379000000281
 20
13.526139999999145
 40
34.610720000000001
 50
90.368339000005065
 51
155.48782100000051
  0
ARC
  8
_0-3_躯体と製品
  6
CONTINUOUS
 62
    4
 10
834.89379000000281
 20
13.526139999999145
 40
28.610720000000001
 50
90.447384999994938
 51
155.48782100000051
  0
LINE
  8
_0-3_躯体と製品
  6
CONTINUOUS
 62
    7
 10
785.42160999999987
 20
70.080379999999536
 11
850.42160999999987
 21
70.080379999999536
  0
LINE
  8
_0-3_躯体と製品
  6
CONTINUOUS
 62
    3
 10
803.65047000000004
 20
28.160539999998946
 11
785.42160999999987
 21
28.160539999998946
  0
ARC
  8
_0-3_躯体と製品
  6
CONTINUOUS
 62
    4
 10
776.33887000000095
 20
51.882799999999747
 40
36.131099999999989
 50
284.55935599999913
 51
313.96466099999742
  0
LINE
  8
_0-3_躯体と製品
  6
CONTINUOUS
 62
    4
 10
803.40241000000105
 20
27.885679999999525
 11
801.39350999999988
 21
25.876779999998689
  0
LINE
  8
_0-3_躯体と製品
  6
CONTINUOUS
 62
    4
 10
808.86165000000119
 20
25.396359999998708
 11
801.42161000000397
 21
17.956299999999715
  0
ARC
  8
_0-3_躯体と製品
  6
CONTINUOUS
 62
    4
 10
836.44774999999981
 20
13.536619999998834
 40
28.610720000000001
 50
58.441745000003237
 51
92.02325900000605
  0
ARC
  8
_0-3_躯体と製品
  6
CONTINUOUS
 62
    4
 10
836.44774999999981
 20
13.536619999998834
 40
34.610720000000001
 50
66.187582999995286
 51
91.6724030000006
  0
ARC
  8
_0-3_躯体と製品
  6
CONTINUOUS
 62
    4
 10
1039.8117900000011
 20
52.250919999999155
 40
42.131099999999989
 50
203.12832000000384
 51
250.02820200000514
  0
ARC
  8
_0-3_躯体と製品
  6
CONTINUOUS
 62
    4
 10
974.3445700000002
 20
23.699379999999337
 40
28.610720000000001
 50
24.692923000000672
 51
92.023259000006036
  0
ARC
  8
_0-3_躯体と製品
  6
CONTINUOUS
 62
    4
 10
974.3445700000002
 20
23.699379999999337
 40
34.610720000000001
 50
24.692923000000672
 51
91.672403000000585
  0
ARC
  8
_0-3_躯体と製品
  6
CONTINUOUS
 62
    4
 10
908.25783000000411
 20
52.240439999999353
 40
36.131099999999989
 50
317.64077000000032
 51
336.70039200000173
  0
ARC
  8
_0-3_躯体と製品
  6
CONTINUOUS
 62
    4
 10
908.25783000000411
 20
52.240439999999353
 40
42.131099999999989
 50
319.54478900000038
 51
336.70039200000173
  0
ARC
  8
_0-3_躯体と製品
  6
CONTINUOUS
 62
    4
 10
972.79061000000411
 20
23.688919999999712
 40
34.610720000000001
 50
90.368339000005065
 51
155.48782100000051
  0
ARC
  8
_0-3_躯体と製品
  6
CONTINUOUS
 62
    4
 10
972.79061000000411
 20
23.688919999999712
 40
28.610720000000001
 50
90.447384999994938
 51
155.48782100000051
  0
LINE
  8
_0-3_躯体と製品
  6
CONTINUOUS
 62
    6
 10
1012.8745500000032
 20
28.170999999998799
 11
1025.4216100000008
 21
28.170999999998799
  0
ARC
  8
_0-3_躯体と製品
  6
CONTINUOUS
 62
    4
 10
1039.8117900000011
 20
52.250919999999155
 40
36.131099999999989
 50
203.12832000000384
 51
246.52947399999493
  0
ARC
  8
_0-3_躯体と製品
  6
CONTINUOUS
 62
    4
 10
810.33887000000323
 20
209.17833999999982
 40
36.131099999999989
 50
203.12832000000384
 51
226.39880699999651
  0
ARC
  8
_0-3_躯体と製品
  6
CONTINUOUS
 62
    4
 10
810.33887000000323
 20
209.17833999999982
 40
42.131099999999989
 50
203.12832000000384
 51
233.35391899999729
  0
LINE
  8
_0-4_図面枠
  6
CONTINUOUS
 62
    3
 10
1074.0931500000011
 20
-42.220020000000773
 11
1105.4329100000018
 21
-116.50206000000128
  0
LINE
  8
_0-4_図面枠
  6
CONTINUOUS
 62
    3
 10
1074.0931500000011
 20
-42.220020000000773
 11
1122.7534100000021
 21
-106.50206000000128
  0
LINE
  8
_0-4_図面枠
  6
CONTINUOUS
 62
    3
 10
1074.0931500000011
 20
-42.220020000000773
 11
1276.3802300000011
 21
-392.59152000000086
  0
LINE
  8
_0-4_図面枠
  6
CONTINUOUS
 62
    3
 10
1219.7631100000008
 20
-47.557400000000484
 11
1234.754690000002
 21
-45.289520000000039
  0
LINE
  8
_0-4_図面枠
  6
CONTINUOUS
 62
    3
 10
1234.754690000002
 20
-45.289520000000039
 11
1246.3712900000041
 21
-46.374820000000796
  0
LINE
  8
_0-4_図面枠
  6
CONTINUOUS
 62
    3
 10
1246.3712900000041
 20
-46.374820000000796
 11
1252.3345300000001
 21
-71.548440000000198
  0
LINE
  8
_0-4_図面枠
  6
CONTINUOUS
 62
    3
 10
1252.3345300000001
 20
-71.548440000000198
 11
1238.6844900000028
 21
-110.8257200000013
  0
LINE
  8
_0-4_図面枠
  6
CONTINUOUS
 62
    3
 10
1238.6844900000028
 20
-110.8257200000013
 11
1222.1985500000001
 21
-142.77090000000032
  0
LINE
  8
_0-4_図面枠
  6
CONTINUOUS
 62
    3
 10
1222.1985500000001
 20
-142.77090000000032
 11
1215.6240700000012
 21
-171.72886000000062
  0
LINE
  8
_0-4_図面枠
  6
CONTINUOUS
 62
    3
 10
1215.6240700000012
 20
-171.72886000000062
 11
1222.2984100000008
 21
-195.76606000000083
  0
LINE
  8
_0-4_図面枠
  6
CONTINUOUS
 62
    3
 10
1222.2984100000008
 20
-195.76606000000083
 11
1238.093190000001
 21
-213.7106200000004
  0
LINE
  8
_0-4_図面枠
  6
CONTINUOUS
 62
    3
 10
1238.093190000001
 20
-213.7106200000004
 11
1257.1781100000021
 21
-217.82692000000111
  0
LINE
  8
_0-4_図面枠
  6
CONTINUOUS
 62
    3
 10
1257.1781100000021
 20
-217.82692000000111
 11
1278.8923900000032
 21
-215.48450000000116
  0
TEXT
  8
_0-4_図面枠
 62
    7
 10
1276.3797100000029
 20
-382.59168000000045
 40
60.000000000000007
 41
0.8000000000000002
 50
0.0000100000010064
  1
添母屋
  0
LINE
  8
_0-4_図面枠
  6
CONTINUOUS
 62
    3
 10
1276.3802300000011
 20
-392.59152000000086
 11
1445.7883499999998
 21
-392.59152000000086
  0
TEXT
  8
_0-4_図面枠
 62
    7
 10
1290.126970000003
 20
-230.26684000000046
 40
60
 41
0.8
 50
0
  1
現場溶接
  0
LINE
  8
_0-4_図面枠
  6
CONTINUOUS
 62
    3
 10
1270.6538300000029
 20
283.84385999999836
 11
1394.4559100000042
 21
283.84385999999836
  0
ARC
  8
_0-3_躯体と製品
  6
CONTINUOUS
 62
    4
 10
1367.2422300000039
 20
23.870039999999449
 40
34.610720000000001
 50
90.368339000005065
 51
155.48782100000051
  0
ARC
  8
_0-3_躯体と製品
  6
CONTINUOUS
 62
    4
 10
1367.2422300000039
 20
23.870039999999449
 40
28.610720000000001
 50
90.447384999994938
 51
155.48782100000051
  0
ARC
  8
_0-3_躯体と製品
  6
CONTINUOUS
 62
    4
 10
1171.5603900000019
 20
52.278199999999629
 40
42.131099999999989
 50
203.12832000000384
 51
268.45112499999971
  0
ARC
  8
_0-3_躯体と製品
  6
CONTINUOUS
 62
    4
 10
1106.093170000001
 20
23.72667999999976
 40
28.610720000000001
 50
24.692923000000672
 51
92.023259000006036
  0
ARC
  8
_0-3_躯体と製品
  6
CONTINUOUS
 62
    4
 10
1106.093170000001
 20
23.72667999999976
 40
34.610720000000001
 50
24.692923000000672
 51
91.672403000000585
  0
ARC
  8
_0-3_躯体と製品
  6
CONTINUOUS
 62
    4
 10
1104.5392099999999
 20
23.716200000000185
 40
34.610720000000001
 50
90.368339000005065
 51
155.48782100000051
  0
ARC
  8
_0-3_躯体と製品
  6
CONTINUOUS
 62
    4
 10
1104.5392099999999
 20
23.716200000000185
 40
28.610720000000001
 50
90.447384999994938
 51
155.48782100000051
  0
ARC
  8
_0-3_躯体と製品
  6
CONTINUOUS
 62
    4
 10
1039.8117900000011
 20
52.250919999999155
 40
36.131099999999989
 50
317.64077000000032
 51
336.70039200000173
  0
ARC
  8
_0-3_躯体と製品
  6
CONTINUOUS
 62
    4
 10
1039.8117900000011
 20
52.250919999999155
 40
42.131099999999989
 50
319.54478900000038
 51
336.70039200000173
  0
LINE
  8
_0-3_躯体と製品
  6
CONTINUOUS
 62
    6
 10
1144.623150000004
 20
28.198299999999222
 11
1170.4216100000008
 21
28.198299999999222
  0
ARC
  8
_0-3_躯体と製品
  6
CONTINUOUS
 62
    4
 10
1171.5603900000019
 20
52.278199999999629
 40
36.131099999999989
 50
203.12832000000384
 51
268.19383599999782
  0
ARC
  8
_0-3_躯体と製品
  6
CONTINUOUS
 62
    4
 10
1302.5148300000019
 20
52.404759999999442
 40
42.131099999999989
 50
203.12832000000384
 51
318.23384300000095
  0
LINE
  8
_0-4_図面枠
  6
CONTINUOUS
 62
    3
 10
1221.1288700000041
 20
-47.107160000000363
 11
1238.8445500000012
 21
-42.360240000001454
  0
LINE
  8
_0-3_躯体と製品
  6
CONTINUOUS
 62
    6
 10
1275.5775899999999
 20
28.324839999999085
 11
1329.4520700000039
 21
28.324839999999085
  0
ARC
  8
_0-3_躯体と製品
  6
CONTINUOUS
 62
    4
 10
1302.5148300000019
 20
52.404759999999442
 40
36.131099999999989
 50
203.12832000000384
 51
315.96489900000086
  0
ARC
  8
_0-3_躯体と製品
  6
CONTINUOUS
 62
    4
 10
1237.7902899999999
 20
23.637879999998972
 40
28.610720000000001
 50
24.692923000000672
 51
92.023259000006036
  0
ARC
  8
_0-3_躯体と製品
  6
CONTINUOUS
 62
    4
 10
1237.7902899999999
 20
23.637879999998972
 40
34.610720000000001
 50
24.692923000000672
 51
91.672403000000585
  0
ARC
  8
_0-3_躯体と製品
  6
CONTINUOUS
 62
    4
 10
1236.2363300000029
 20
23.62739999999917
 40
34.610720000000001
 50
90.368339000005065
 51
117.18929299999668
  0
ARC
  8
_0-3_躯体と製品
  6
CONTINUOUS
 62
    4
 10
1236.2363300000029
 20
23.62739999999917
 40
28.610720000000001
 50
90.447384999994938
 51
123.55626400000462
  0
ARC
  8
_0-3_躯体と製品
  6
CONTINUOUS
 62
    4
 10
1302.5148300000019
 20
52.404759999999442
 40
36.131099999999989
 50
317.64077000000032
 51
336.70039200000173
  0
ARC
  8
_0-3_躯体と製品
  6
CONTINUOUS
 62
    4
 10
1302.5148300000019
 20
52.404759999999442
 40
42.131099999999989
 50
319.54478900000038
 51
336.70039200000173
  0
ARC
  8
_0-3_躯体と製品
  6
CONTINUOUS
 62
    4
 10
1501.3389300000031
 20
23.808519999999021
 40
28.610720000000001
 50
24.692923000000672
 51
92.023259000006036
  0
ARC
  8
_0-3_躯体と製品
  6
CONTINUOUS
 62
    4
 10
1501.3389300000031
 20
23.808519999999021
 40
34.610720000000001
 50
24.692923000000672
 51
91.672403000000585
  0
ARC
  8
_0-3_躯体と製品
  6
CONTINUOUS
 62
    4
 10
1435.0575700000009
 20
52.332759999999439
 40
42.131099999999989
 50
203.12832000000384
 51
318.23384300000095
  0
LINE
  8
_0-3_躯体と製品
  6
CONTINUOUS
 62
    6
 10
1408.1203300000029
 20
28.252859999999032
 11
1461.9948100000029
 21
28.252859999999032
  0
ARC
  8
_0-3_躯体と製品
  6
CONTINUOUS
 62
    4
 10
1435.0575700000009
 20
52.332759999999439
 40
36.131099999999989
 50
203.12832000000384
 51
315.96489900000086
  0
ARC
  8
_0-3_躯体と製品
  6
CONTINUOUS
 62
    4
 10
1368.796190000005
 20
23.880519999999137
 40
28.610720000000001
 50
24.692923000000672
 51
92.023259000006036
  0
ARC
  8
_0-3_躯体と製品
  6
CONTINUOUS
 62
    4
 10
1368.796190000005
 20
23.880519999999137
 40
34.610720000000001
 50
24.692923000000672
 51
91.672403000000585
  0
ARC
  8
_0-3_躯体と製品
  6
CONTINUOUS
 62
    4
 10
1499.7849900000001
 20
23.798059999999282
 40
34.610720000000001
 50
90.368339000005065
 51
155.48782100000051
  0
ARC
  8
_0-3_躯体と製品
  6
CONTINUOUS
 62
    4
 10
1499.7849900000001
 20
23.798059999999282
 40
28.610720000000001
 50
90.447384999994938
 51
155.48782100000051
  0
ARC
  8
_0-3_躯体と製品
  6
CONTINUOUS
 62
    4
 10
1435.0575700000009
 20
52.332759999999439
 40
36.131099999999989
 50
317.64077000000032
 51
336.70039200000173
  0
ARC
  8
_0-3_躯体と製品
  6
CONTINUOUS
 62
    4
 10
1435.0575700000009
 20
52.332759999999439
 40
42.131099999999989
 50
319.54478900000038
 51
336.70039200000173
  0
ARC
  8
_0-3_躯体と製品
  6
CONTINUOUS
 62
    4
 10
1566.8061700000021
 20
52.360059999999862
 40
42.131099999999989
 50
203.12832000000384
 51
318.23384300000095
  0
LINE
  8
_0-3_躯体と製品
  6
CONTINUOUS
 62
    6
 10
1539.8689300000001
 20
28.280139999999506
 11
1593.7434100000041
 21
28.280139999999506
  0
ARC
  8
_0-3_躯体と製品
  6
CONTINUOUS
 62
    4
 10
1566.8061700000021
 20
52.360059999999862
 40
36.131099999999989
 50
203.12832000000384
 51
315.96489900000086
  0
ARC
  8
_0-3_躯体と製品
  6
CONTINUOUS
 62
    4
 10
1633.0875300000048
 20
23.835799999999495
 40
28.610720000000001
 50
24.692923000000672
 51
92.023259000006036
  0
ARC
  8
_0-3_躯体と製品
  6
CONTINUOUS
 62
    4
 10
1633.0875300000048
 20
23.835799999999495
 40
34.610720000000001
 50
24.692923000000672
 51
91.672403000000585
  0
ARC
  8
_0-3_躯体と製品
  6
CONTINUOUS
 62
    4
 10
1631.5335700000041
 20
23.825339999999642
 40
34.610720000000001
 50
90.368339000005065
 51
155.48782100000051
  0
ARC
  8
_0-3_躯体と製品
  6
CONTINUOUS
 62
    4
 10
1631.5335700000041
 20
23.825339999999642
 40
28.610720000000001
 50
90.447384999994938
 51
155.48782100000051
  0
ARC
  8
_0-3_躯体と製品
  6
CONTINUOUS
 62
    4
 10
1566.8061700000021
 20
52.360059999999862
 40
36.131099999999989
 50
317.64077000000032
 51
336.70039200000173
  0
ARC
  8
_0-3_躯体と製品
  6
CONTINUOUS
 62
    4
 10
1566.8061700000021
 20
52.360059999999862
 40
42.131099999999989
 50
319.54478900000038
 51
336.70039200000173
  0
TEXT
  8
_0-4_図面枠
 62
    7
 10
2146.1636500000009
 20
-1360.7073
 40
60
 41
0.7999999999999996
 50
0
  1
２３３０
  0
TEXT
  8
_0-4_図面枠
 62
    7
 10
1746.1636500000009
 20
-1360.7073
 40
60
 41
0.7999999999999996
 50
0
  1
　１５０
  0
TEXT
  8
_0-4_図面枠
 62
    7
 10
1869.446130000003
 20
-1193.5628200000006
 40
60
 41
0.800000000000002
 50
0
  1
Ｊ
  0
TEXT
  8
_0-4_図面枠
 62
    7
 10
2523.5257100000063
 20
-1202.3515800000005
 40
60
 41
0.8000000000000006
 50
0
  1
板厚
  0
TEXT
  8
_0-4_図面枠
 62
    7
 10
2269.4461299999989
 20
-1193.5628200000006
 40
60
 41
0.7999999999999982
 50
0
  1
Ｅ
  0
LINE
  8
_0-3_躯体と製品
  6
CONTINUOUS
 62
    4
 10
1701.421609999999
 20
257.96317999999928
 11
2337.4216100000031
 21
257.96317999999928
  0
LINE
  8
_0-3_躯体と製品
  6
CONTINUOUS
 62
    4
 10
1701.421609999999
 20
220.22733999999912
 11
2337.4216100000031
 21
220.22733999999912
  0
LINE
  8
_0-3_躯体と製品
  6
PLINE5
 62
    4
 10
1701.421609999999
 20
230.22733999999912
 11
2337.4216100000031
 21
230.22733999999912
  0
LINE
  8
_0-3_躯体と製品
  6
CONTINUOUS
 62
    7
 10
1700.9784700000018
 20
-4.8150600000006989
 11
2337.4216100000031
 21
-4.8150600000006989
  0
LINE
  8
_0-3_躯体と製品
  6
CONTINUOUS
 62
    7
 10
2337.4216100000031
 20
70.080379999999536
 11
1700.88661
 21
70.080379999999536
  0
ARC
  8
_0-3_躯体と製品
  6
CONTINUOUS
 62
    4
 10
2283.056150000004
 20
-41.677600000000439
 40
34.610720000000001
 50
24.692923000000672
 51
155.48782100000051
  0
LINE
  8
_0-3_躯体と製品
  6
CONTINUOUS
 62
    3
 10
1762.3294500000002
 20
-6.3154600000005985
 11
1762.3294500000002
 21
-290.45100000000048
  0
LINE
  8
_0-3_躯体と製品
  6
CONTINUOUS
 62
    3
 10
1890.0767500000011
 20
-6.6400000000008959
 11
1890.0767500000011
 21
-290.45100000000048
  0
LINE
  8
_0-3_躯体と製品
  6
CONTINUOUS
 62
    3
 10
2019.1501100000032
 20
-6.6906200000005356
 11
2019.1501100000032
 21
-290.45100000000048
  0
LINE
  8
_0-3_躯体と製品
  6
CONTINUOUS
 62
    3
 10
2156.0424900000021
 20
-7.247780000000148
 11
2156.0424900000021
 21
-290.45100000000048
  0
LINE
  8
_0-3_躯体と製品
  6
PLINE2
 62
    6
 10
1938.6979300000012
 20
-38.595260000000621
 11
1972.4781300000009
 21
-4.8150600000006989
  0
LINE
  8
_0-3_躯体と製品
  6
PLINE2
 62
    6
 10
1957.3164900000052
 20
-48.260960000001091
 11
2000.7624099999998
 21
-4.8150600000006989
  0
LINE
  8
_0-3_躯体と製品
  6
PLINE2
 62
    6
 10
1960.835210000007
 20
-4.8150600000006989
 11
1988.5235900000071
 21
-32.503440000000296
  0
LINE
  8
_0-3_躯体と製品
  6
PLINE2
 62
    6
 10
1932.5509500000062
 20
-4.8150600000006989
 11
1973.2486900000022
 21
-45.512800000000084
  0
ARC
  8
_0-3_躯体と製品
  6
CONTINUOUS
 62
    4
 10
1958.3801899999999
 20
-12.582800000000134
 40
36.131099999999989
 50
203.12832000000384
 51
336.70039200000173
  0
LINE
  8
_0-3_躯体と製品
  6
PLINE2
 62
    6
 10
1800.329590000003
 20
-6.9242400000007365
 11
1840.1592900000041
 21
-46.753940000000853
  0
LINE
  8
_0-3_躯体と製品
  6
PLINE2
 62
    6
 10
1803.3287500000029
 20
-38.579700000001253
 11
1835.164770000003
 21
-6.7437000000005582
  0
ARC
  8
_0-3_躯体と製品
  6
CONTINUOUS
 62
    4
 10
1828.4209300000039
 20
-12.582800000000134
 40
36.131099999999989
 50
203.12832000000384
 51
336.70039200000173
  0
ARC
  8
_0-3_躯体と製品
  6
CONTINUOUS
 62
    4
 10
1762.9536900000021
 20
-41.134319999999775
 40
34.610720000000001
 50
24.692923000000672
 51
155.48782100000051
  0
LINE
  8
_0-3_躯体と製品
  6
PLINE2
 62
    6
 10
1722.9519500000029
 20
-6.5900600000007898
 11
1734.0782100000001
 21
-17.716320000000565
  0
LINE
  8
_0-3_躯体と製品
  6
PLINE2
 62
    6
 10
1700.9806500000041
 20
-6.5922200000010207
 11
1701.1909700000001
 21
-6.3818999999999733
  0
LINE
  8
_0-3_躯体と製品
  6
PLINE2
 62
    6
 10
1701.015290000003
 20
-34.841860000000224
 11
1729.4608500000031
 21
-6.3962800000001607
  0
LINE
  8
_0-3_躯体と製品
  6
PLINE2
 62
    6
 10
1700.988390000005
 20
-12.910760000000778
 11
1724.8303500000038
 21
-36.752720000000522
  0
LINE
  8
_0-3_躯体と製品
  6
PLINE2
 62
    6
 10
1701.0231100000028
 20
-41.229759999999828
 11
1707.016030000002
 21
-47.222660000000928
  0
ARC
  8
_0-3_躯体と製品
  6
CONTINUOUS
 62
    4
 10
1698.3801899999999
 20
-12.138780000000111
 40
36.131099999999989
 50
274.20835899999469
 51
336.70039200000173
  0
LINE
  8
_0-3_躯体と製品
  6
PLINE2
 62
    6
 10
1793.1599100000021
 20
-20.464279999999803
 11
1806.8948700000028
 21
-6.7293200000004845
  0
LINE
  8
_0-3_躯体と製品
  6
PLINE2
 62
    6
 10
1776.7585500000009
 20
-8.5813600000004726
 11
1778.6249899999998
 21
-6.7149400000005244
  0
LINE
  8
_0-3_躯体と製品
  6
CONTINUOUS
 62
    6
 10
1671.6175300000009
 20
28.307439999999929
 11
1682.3398500000012
 21
28.307439999999929
  0
ARC
  8
_0-3_躯体と製品
  6
CONTINUOUS
 62
    4
 10
1892.9129699999989
 20
-41.134319999999775
 40
34.610720000000001
 50
24.692923000000672
 51
155.48782100000051
  0
LINE
  8
_0-3_躯体と製品
  6
PLINE2
 62
    6
 10
1856.9257500000031
 20
-6.951860000000238
 11
1867.55375
 21
-17.579860000000735
  0
LINE
  8
_0-3_躯体と製品
  6
PLINE2
 62
    6
 10
1828.627670000003
 20
-6.9380400000010241
 11
1856.7271500000029
 21
-35.037520000000654
  0
LINE
  8
_0-3_躯体と製品
  6
PLINE2
 62
    6
 10
1822.0457300000021
 20
-48.147000000000162
 11
1863.4346500000011
 21
-6.7580800000007457
  0
LINE
  8
_0-3_躯体と製品
  6
PLINE2
 62
    6
 10
1909.801130000003
 20
-10.923520000000053
 11
1913.4826100000032
 21
-7.2420200000010482
  0
LINE
  8
_0-3_躯体と製品
  6
PLINE2
 62
    6
 10
1923.6958900000009
 20
-25.313020000000961
 11
1944.193870000001
 21
-4.8150600000006989
  0
LINE
  8
_0-3_躯体と製品
  6
PLINE2
 62
    6
 10
2082.3853299999992
 20
-47.827260000000251
 11
2125.3975300000029
 21
-4.8150600000006989
  0
LINE
  8
_0-3_躯体と製品
  6
PLINE2
 62
    6
 10
2114.622010000005
 20
-4.8150600000006989
 11
2127.8305300000029
 21
-18.023560000000316
  0
ARC
  8
_0-3_躯体と製品
  6
CONTINUOUS
 62
    4
 10
2153.0968700000012
 20
-41.677600000000439
 40
34.610720000000001
 50
24.692923000000672
 51
155.48782100000051
  0
ARC
  8
_0-3_躯体と製品
  6
CONTINUOUS
 62
    4
 10
2023.056150000004
 20
-41.233580000000416
 40
34.610720000000001
 50
24.692923000000672
 51
155.48782100000051
  0
LINE
  8
_0-3_躯体と製品
  6
PLINE2
 62
    6
 10
2036.6850100000029
 20
-8.674759999999992
 11
2038.5514499999972
 21
-6.8083199999999806
  0
LINE
  8
_0-3_躯体と製品
  6
PLINE2
 62
    6
 10
1989.119490000005
 20
-4.8150600000006989
 11
1999.8550900000032
 21
-15.550660000001244
  0
LINE
  8
_0-3_躯体と製品
  6
PLINE2
 62
    6
 10
2051.6725500000052
 20
-21.971480000000838
 11
2068.8289900000041
 21
-4.8150600000006989
  0
LINE
  8
_0-3_躯体と製品
  6
PLINE2
 62
    6
 10
2063.766749999998
 20
-38.161560000000804
 11
2097.113250000004
 21
-4.8150600000006989
  0
LINE
  8
_0-3_躯体と製品
  6
PLINE2
 62
    6
 10
2086.3377500000038
 20
-4.8150600000006989
 11
2116.7541900000042
 21
-35.231500000000892
  0
LINE
  8
_0-3_躯体と製品
  6
PLINE2
 62
    6
 10
2058.053469999998
 20
-4.8150600000006989
 11
2100.7578900000062
 21
-47.519480000000726
  0
ARC
  8
_0-3_躯体と製品
  6
CONTINUOUS
 62
    4
 10
2088.5233700000049
 20
-12.682060000000661
 40
36.131099999999989
 50
203.12832000000384
 51
336.70039200000173
  0
LINE
  8
_0-3_躯体と製品
  6
PLINE2
 62
    6
 10
2189.8181700000009
 20
-36.337260000000128
 11
2221.1426299999971
 21
-5.0127800000005891
  0
LINE
  8
_0-3_躯体と製品
  6
PLINE2
 62
    6
 10
2186.3074700000038
 20
-5.1933200000006536
 11
2226.809310000001
 21
-45.695160000001351
  0
ARC
  8
_0-3_躯体と製品
  6
CONTINUOUS
 62
    4
 10
2218.5641099999998
 20
-13.12608000000057
 40
36.131099999999989
 50
203.12832000000384
 51
336.70039200000173
  0
LINE
  8
_0-3_躯体と製品
  6
PLINE2
 62
    6
 10
2162.7364300000072
 20
-6.8504400000005035
 11
2164.6028700000002
 21
-4.9840200000005552
  0
LINE
  8
_0-3_躯体と製品
  6
PLINE2
 62
    6
 10
2177.7239699999991
 20
-20.147180000000162
 11
2192.8727499999991
 21
-4.9984000000005153
  0
LINE
  8
_0-3_躯体と製品
  6
PLINE2
 62
    6
 10
2208.436750000003
 20
-46.002940000000649
 11
2249.4125300000019
 21
-5.0271600000006629
  0
LINE
  8
_0-3_躯体と製品
  6
PLINE2
 62
    6
 10
2242.903630000003
 20
-5.2209400000002688
 11
2257.022070000005
 21
-19.339380000000006
  0
LINE
  8
_0-3_躯体と製品
  6
PLINE2
 62
    6
 10
2214.6055499999989
 20
-5.2071200000010549
 11
2245.533969999999
 21
-36.135560000001192
  0
LINE
  8
_0-3_躯体と製品
  6
CONTINUOUS
 62
    4
 10
2162.4216100000031
 20
120.22733999999912
 11
2212.4216100000031
 21
120.22733999999912
  0
LINE
  8
_0-3_躯体と製品
  6
CONTINUOUS
 62
    3
 10
2171.7845500000039
 20
200.73943999999881
 11
2202.0907300000022
 21
200.73943999999881
  0
LINE
  8
_0-3_躯体と製品
  6
CONTINUOUS
 62
    3
 10
2171.7845500000039
 20
150.73943999999881
 11
2202.0907300000022
 21
150.73943999999881
  0
LINE
  8
_0-3_躯体と製品
  6
CONTINUOUS
 62
    4
 10
2162.4216100000031
 20
220.22733999999912
 11
2162.4216100000031
 21
120.22733999999912
  0
LINE
  8
_0-3_躯体と製品
  6
CONTINUOUS
 62
    4
 10
2212.4216100000031
 20
120.22733999999912
 11
2212.4216100000031
 21
220.22733999999912
  0
LINE
  8
_0-3_躯体と製品
  6
CONTINUOUS
 62
    3
 10
2171.7845500000039
 20
269.44838000000004
 11
2202.0907300000022
 21
269.44838000000004
  0
LINE
  8
_0-3_躯体と製品
  6
CONTINUOUS
 62
    3
 10
2283.027009999998
 20
-7.0315200000004552
 11
2283.027009999998
 21
-290.45100000000048
  0
LINE
  8
_0-3_躯体と製品
  6
CONTINUOUS
 62
    3
 10
2409.4312700000069
 20
-7.2227400000008402
 11
2409.4312700000069
 21
-290.45100000000048
  0
LINE
  8
_0-3_躯体と製品
  6
CONTINUOUS
 62
    3
 10
2542.1114900000002
 20
-7.6285600000005616
 11
2542.1114900000002
 21
-290.45100000000048
  0
LINE
  8
_0-3_躯体と製品
  6
CONTINUOUS
 62
    3
 10
2671.4084100000064
 20
-7.6565200000004552
 11
2671.4084100000064
 21
-290.45100000000048
  0
LINE
  8
_0-3_躯体と製品
  6
CONTINUOUS
 62
    3
 10
2804.4783100000059
 20
-7.7280800000004319
 11
2804.4783100000059
 21
-290.45100000000048
  0
LINE
  8
_0-3_躯体と製品
  6
CONTINUOUS
 62
    7
 10
2697.421610000004
 20
70.080379999999536
 11
2357.4216100000031
 21
70.080379999999536
  0
LINE
  8
_0-3_躯体と製品
  6
CONTINUOUS
 62
    4
 10
2357.4216100000031
 20
257.96317999999928
 11
2697.421610000004
 21
257.96317999999928
  0
LINE
  8
_0-3_躯体と製品
  6
CONTINUOUS
 62
    4
 10
2357.4216100000031
 20
220.22733999999912
 11
2697.421610000004
 21
220.22733999999912
  0
LINE
  8
_0-3_躯体と製品
  6
PLINE5
 62
    4
 10
2357.4216100000031
 20
230.22733999999912
 11
2697.421610000004
 21
230.22733999999912
  0
LINE
  8
_0-3_躯体と製品
  6
PLINE2
 62
    6
 10
2568.9319300000006
 20
-19.029720000000793
 11
2582.9632500000052
 21
-4.9984000000005153
  0
LINE
  8
_0-3_躯体と製品
  6
PLINE2
 62
    6
 10
2580.2779300000038
 20
-35.967980000000352
 11
2611.2331500000009
 21
-5.0127800000005891
  0
LINE
  8
_0-3_躯体と製品
  6
PLINE2
 62
    6
 10
2576.39797
 20
-5.1933200000006536
 11
2619.3898100000051
 21
-48.185160000000451
  0
ARC
  8
_0-3_躯体と製品
  6
CONTINUOUS
 62
    4
 10
2608.7072900000048
 20
-13.669359999999983
 40
36.131099999999989
 50
203.12832000000384
 51
336.70039200000173
  0
ARC
  8
_0-3_躯体と製品
  6
CONTINUOUS
 62
    4
 10
2413.199329999999
 20
-41.776880000000915
 40
34.610720000000001
 50
24.692923000000672
 51
155.48782100000051
  0
LINE
  8
_0-3_躯体と製品
  6
PLINE2
 62
    6
 10
2292.5289499999981
 20
-6.8504400000005035
 11
2294.3953700000038
 21
-4.9840200000005552
  0
LINE
  8
_0-3_躯体と製品
  6
PLINE2
 62
    6
 10
2307.51649
 20
-20.147180000000162
 11
2322.66527
 21
-4.9984000000005153
  0
LINE
  8
_0-3_躯体と製品
  6
PLINE2
 62
    6
 10
2319.6106900000018
 20
-36.337260000000128
 11
2337.4216100000031
 21
-18.526340000000687
  0
LINE
  8
_0-3_躯体と製品
  6
PLINE2
 62
    6
 10
2316.0999900000052
 20
-5.1933200000006536
 11
2337.4216100000031
 21
-26.514940000000593
  0
ARC
  8
_0-3_躯体と製品
  6
CONTINUOUS
 62
    4
 10
2348.5233700000049
 20
-13.12608000000057
 40
36.131099999999989
 50
203.12832000000384
 51
252.10559699999914
  0
LINE
  8
_0-3_躯体と製品
  6
PLINE2
 62
    6
 10
2424.3868700000012
 20
-6.8504400000005035
 11
2426.2533100000041
 21
-4.9840200000005552
  0
LINE
  8
_0-3_躯体と製品
  6
PLINE2
 62
    6
 10
2372.6961500000039
 20
-5.2209400000002688
 11
2386.8145699999991
 21
-19.339380000000006
  0
LINE
  8
_0-3_躯体と製品
  6
PLINE2
 62
    6
 10
2357.4216100000031
 20
-26.810600000001159
 11
2379.2050500000032
 21
-5.0271600000006629
  0
LINE
  8
_0-3_躯体と製品
  6
PLINE2
 62
    6
 10
2357.4216100000031
 20
-18.230660000000285
 11
2375.3264899999999
 21
-36.135560000001192
  0
ARC
  8
_0-3_躯体と製品
  6
CONTINUOUS
 62
    4
 10
2348.5233700000049
 20
-13.12608000000057
 40
36.131099999999989
 50
284.25725499999578
 51
336.70039200000178
  0
LINE
  8
_0-3_躯体と製品
  6
PLINE2
 62
    6
 10
2504.148189999999
 20
-4.8150600000006989
 11
2517.9380899999996
 21
-18.604940000001193
  0
LINE
  8
_0-3_躯体と製品
  6
PLINE2
 62
    6
 10
2475.86391
 20
-4.8150600000006989
 11
2506.8646100000051
 21
-35.815740000001483
  0
LINE
  8
_0-3_躯体と製品
  6
PLINE2
 62
    6
 10
2470.0871900000061
 20
-46.002940000000649
 11
2511.0629700000054
 21
-5.0271600000006629
  0
ARC
  8
_0-3_躯体と製品
  6
CONTINUOUS
 62
    4
 10
2478.6665499999999
 20
-13.225340000000074
 40
36.131099999999989
 50
203.12832000000384
 51
336.70039200000173
  0
LINE
  8
_0-3_躯体と製品
  6
PLINE2
 62
    6
 10
2447.9579100000069
 20
-5.1933200000006536
 11
2490.2230300000001
 21
-47.458440000000337
  0
LINE
  8
_0-3_躯体と製品
  6
PLINE2
 62
    6
 10
2439.3744100000022
 20
-20.147180000000162
 11
2454.5231900000022
 21
-4.9984000000005153
  0
LINE
  8
_0-3_躯体と製品
  6
PLINE2
 62
    6
 10
2451.468610000004
 20
-36.337260000000128
 11
2482.7930899999969
 21
-5.0127800000005891
  0
LINE
  8
_0-3_躯体と製品
  6
PLINE2
 62
    6
 10
2551.1509899999992
 20
-8.5263800000006995
 11
2554.6933700000072
 21
-4.9840200000005552
  0
ARC
  8
_0-3_躯体と製品
  6
CONTINUOUS
 62
    4
 10
2543.2400500000058
 20
-42.220880000000875
 40
34.610720000000001
 50
24.692923000000672
 51
155.48782100000051
  0
LINE
  8
_0-3_躯体と製品
  6
CONTINUOUS
 62
    4
 10
2482.4216100000031
 20
120.22733999999912
 11
2532.421610000004
 21
120.22733999999912
  0
LINE
  8
_0-3_躯体と製品
  6
CONTINUOUS
 62
    3
 10
2491.7845500000039
 20
200.73943999999881
 11
2522.0907300000026
 21
200.73943999999881
  0
LINE
  8
_0-3_躯体と製品
  6
CONTINUOUS
 62
    3
 10
2491.7845500000039
 20
150.73943999999881
 11
2522.0907300000026
 21
150.73943999999881
  0
LINE
  8
_0-3_躯体と製品
  6
CONTINUOUS
 62
    4
 10
2482.4216100000031
 20
220.22733999999912
 11
2482.4216100000031
 21
120.22733999999912
  0
LINE
  8
_0-3_躯体と製品
  6
CONTINUOUS
 62
    4
 10
2532.421610000004
 20
120.22733999999912
 11
2532.421610000004
 21
220.22733999999912
  0
LINE
  8
_0-3_躯体と製品
  6
CONTINUOUS
 62
    3
 10
2491.7845500000039
 20
269.44838000000004
 11
2522.0907300000026
 21
269.44838000000004
  0
LINE
  8
_0-4_図面枠
  6
CONTINUOUS
 62
    3
 10
2715.4316099999978
 20
-8.9930600000012646
 11
2744.0918700000038
 21
-38.634060000000432
  0
LINE
  8
_0-3_躯体と製品
  6
PLINE2
 62
    6
 10
2710.7542700000004
 20
-36.611920000000168
 11
2742.3534099999988
 21
-5.0127800000005891
  0
LINE
  8
_0-3_躯体と製品
  6
PLINE2
 62
    6
 10
2727.5897900000055
 20
-48.060660000000894
 11
2770.623290000005
 21
-5.0271600000006629
  0
LINE
  8
_0-3_躯体と製品
  6
PLINE2
 62
    6
 10
2707.518230000007
 20
-5.1933200000006536
 11
2750.2262700000056
 21
-47.90136000000075
  0
ARC
  8
_0-3_躯体と製品
  6
CONTINUOUS
 62
    4
 10
2738.6665499999999
 20
-13.669359999999983
 40
36.131099999999989
 50
203.12832000000384
 51
336.70039200000173
  0
ARC
  8
_0-3_躯体と製品
  6
CONTINUOUS
 62
    4
 10
2673.1993300000013
 20
-42.220880000000875
 40
34.610720000000001
 50
24.692923000000672
 51
155.48782100000051
  0
LINE
  8
_0-3_躯体と製品
  6
PLINE2
 62
    6
 10
2632.99413
 20
-5.2209400000002688
 11
2647.1757499999994
 21
-19.40256000000079
  0
LINE
  8
_0-3_躯体と製品
  6
PLINE2
 62
    6
 10
2604.696050000005
 20
-5.2071200000010549
 11
2636.3842099999993
 21
-36.895299999999793
  0
LINE
  8
_0-3_躯体と製品
  6
PLINE2
 62
    6
 10
2596.7616100000059
 20
-47.768580000000497
 11
2639.503029999998
 21
-5.0271600000006629
  0
LINE
  8
_0-3_躯体と製品
  6
PLINE2
 62
    6
 10
2699.4350700000023
 20
-19.646840000000338
 11
2714.0835100000031
 21
-4.9984000000005153
  0
LINE
  8
_0-3_躯体と製品
  6
PLINE2
 62
    6
 10
2682.0394700000024
 20
-8.7581600000008848
 11
2685.8136300000051
 21
-4.9840200000005552
  0
ARC
  8
_0-3_躯体と製品
  6
CONTINUOUS
 62
    4
 10
2803.3425100000049
 20
-42.320160000000442
 40
34.610720000000001
 50
24.692923000000672
 51
155.48782100000051
  0
LINE
  8
_0-3_躯体と製品
  6
PLINE2
 62
    6
 10
2764.114389999997
 20
-5.2209400000002688
 11
2777.8277300000018
 21
-18.934280000000854
  0
LINE
  8
_0-3_躯体と製品
  6
PLINE2
 62
    6
 10
2735.816310000002
 20
-5.2071200000010549
 11
2766.8665299999993
 21
-36.257360000000745
  0
LINE
  8
_0-3_躯体と製品
  6
PLINE2
 62
    6
 10
2811.8125100000034
 20
-8.7618200000008528
 11
2815.5903099999996
 21
-4.9840200000005552
  0
LINE
  8
_0-3_躯体と製品
  6
PLINE2
 62
    6
 10
2829.3617300000042
 20
-19.49688000000026
 11
2843.8602100000053
 21
-4.9984000000005153
  0
LINE
  8
_0-3_躯体と製品
  6
PLINE2
 62
    6
 10
2840.6884100000052
 20
-36.454480000000899
 11
2872.1300900000033
 21
-5.0127800000005891
  0
LINE
  8
_0-3_躯体と製品
  6
PLINE2
 62
    6
 10
2837.29493
 20
-5.1933200000006536
 11
2880.1692100000073
 21
-48.067600000000539
  0
LINE
  8
_0-4_図面枠
  6
CONTINUOUS
 62
    4
 10
3016.5805500000024
 20
-1985.0957399999993
 11
3016.5805500000024
 21
-1085.0957400000002
  0
LINE
  8
_0-3_躯体と製品
  6
CONTINUOUS
 62
    3
 10
3192.6121100000028
 20
220.09457999999893
 11
3192.6121100000028
 21
-274.85252000000048
  0
LINE
  8
_0-3_躯体と製品
  6
CONTINUOUS
 62
    3
 10
3063.4866700000048
 20
220.20457999999974
 11
3063.4866700000048
 21
-274.85252000000048
  0
LINE
  8
_0-3_躯体と製品
  6
CONTINUOUS
 62
    3
 10
2934.4520100000072
 20
-8.1699600000011969
 11
2934.4520100000072
 21
-290.45100000000048
  0
TEXT
  8
_0-4_図面枠
 62
    7
 10
2943.0447500000018
 20
-393.23102000000063
 40
60.000000000000007
 41
0.8
 50
0.0000100000010064
  1
ケミカルメンド処理
  0
LINE
  8
_0-4_図面枠
  6
CONTINUOUS
 62
    3
 10
2943.0447500000018
 20
-403.23056000000065
 11
3397.5862700000043
 21
-403.23056000000065
  0
ARC
  8
_0-3_躯体と製品
  6
CONTINUOUS
 62
    4
 10
3193.4856700000028
 20
185.49487999999894
 40
34.610720000000001
 50
82.778178999996015
 51
155.48782100000051
  0
LINE
  8
_0-3_躯体と製品
  6
CONTINUOUS
 62
    7
 10
2976.4216100000012
 20
-4.8150600000006989
 11
2976.4216100000012
 21
220.81085999999925
  0
LINE
  8
_0-3_躯体と製品
  6
PLINE2
 62
    6
 10
2893.8910900000001
 20
-5.2209400000002688
 11
2907.9547100000063
 21
-19.284560000000852
  0
ARC
  8
_0-3_躯体と製品
  6
CONTINUOUS
 62
    4
 10
2933.3832300000022
 20
-42.764180000000351
 40
34.610720000000001
 50
88.230424000003794
 51
155.48782100000051
  0
LINE
  8
_0-3_躯体と製品
  6
CONTINUOUS
 62
    7
 10
2976.4216100000012
 20
-5.81506000000104
 11
2976.4216100000012
 21
-4.8150600000006989
  0
LINE
  8
_0-3_躯体と製品
  6
CONTINUOUS
 62
    7
 10
2966.4216100000003
 20
-5.81506000000104
 11
2976.4216100000012
 21
-5.81506000000104
  0
ARC
  8
_0-3_躯体と製品
  6
CONTINUOUS
 62
    4
 10
3063.3425100000049
 20
185.59415999999953
 40
34.610720000000001
 50
24.692923000000672
 51
155.48782100000051
  0
ARC
  8
_0-3_躯体と製品
  6
CONTINUOUS
 62
    4
 10
2998.8504700000003
 20
214.14568000000043
 40
36.131099999999989
 50
231.62810800000432
 51
336.70039200000173
  0
ARC
  8
_0-3_躯体と製品
  6
CONTINUOUS
 62
    4
 10
3128.8097300000054
 20
214.14568000000043
 40
36.131099999999989
 50
203.12832000000384
 51
336.70039200000173
  0
TEXT
  8
_0-4_図面枠
 62
    7
 10
2833.5788100000009
 20
1619.1835399999986
 40
60
 41
0.8000000000000007
 50
0
  1
六角ボルト
  0
LINE
  8
_0-4_図面枠
  6
CONTINUOUS
 62
    3
 10
2833.5788100000009
 20
1609.1834999999996
 11
3091.5788100000027
 21
1609.1834999999996
  0
TEXT
  8
_0-4_図面枠
 62
    7
 10
2225.2346899999989
 20
2705.859559999999
 40
200.00000000000045
 41
0.7999999999999982
 50
0
  1
（スレート　棟）
  0
TEXT
  8
_0-4_図面枠
 62
    7
 10
2883.6349700000046
 20
1360.0386399999993
 40
60.000000000000007
 41
0.8000000000000008
 50
0.0000100000010064
  1
外板
  0
LINE
  8
_0-4_図面枠
  6
CONTINUOUS
 62
    3
 10
2883.6351699999996
 20
1350.0386799999997
 11
3007.5281500000001
 21
1350.0386799999997
  0
LINE
  8
_0-3_躯体と製品
  6
CONTINUOUS
 62
    4
 10
1681.4216099999999
 20
530.59247999999855
 11
856.42161000000397
 21
530.59247999999855
  0
LINE
  8
_0-3_躯体と製品
  6
CONTINUOUS
 62
    4
 10
1220.4216099999999
 20
683.44845999999859
 11
1681.4216099999999
 21
683.44845999999859
  0
LINE
  8
_0-3_躯体と製品
  6
CONTINUOUS
 62
    4
 10
1681.4216099999999
 20
1540.2927399999985
 11
1045.4216100000008
 21
1540.2927399999985
  0
LINE
  8
_0-3_躯体と製品
  6
CONTINUOUS
 62
    7
 10
1045.4216100000008
 20
1149.4375599999994
 11
1681.4216099999999
 21
1149.4375599999994
  0
LINE
  8
_0-3_躯体と製品
  6
CONTINUOUS
 62
    4
 10
1681.4216099999999
 20
1590.2273399999985
 11
1045.4216100000008
 21
1590.2273399999985
  0
LINE
  8
_0-3_躯体と製品
  6
CONTINUOUS
 62
    4
 10
1045.4216100000008
 20
1580.2927399999985
 11
1681.4216099999999
 21
1580.2927399999985
  0
LINE
  8
_0-3_躯体と製品
  6
CONTINUOUS
 62
    4
 10
1226.421610000004
 20
963.36381999999855
 11
1681.4216099999999
 21
963.36381999999855
  0
LINE
  8
_0-3_躯体と製品
  6
CONTINUOUS
 62
    4
 10
1681.4216099999999
 20
948.15769999999861
 11
1220.4216099999999
 21
948.15769999999861
  0
LINE
  8
_0-3_躯体と製品
  6
CONTINUOUS
 62
    4
 10
1681.4216099999999
 20
832.00597999999957
 11
1220.4216099999999
 21
832.00597999999957
  0
LINE
  8
_0-3_躯体と製品
  6
CONTINUOUS
 62
    4
 10
1220.4216099999999
 20
852.00597999999957
 11
1681.4216099999999
 21
852.00597999999957
  0
LINE
  8
_0-3_躯体と製品
  6
CONTINUOUS
 62
    4
 10
1220.4216099999999
 20
703.44845999999859
 11
1681.4216099999999
 21
703.44845999999859
  0
LINE
  8
_0-3_躯体と製品
  6
CONTINUOUS
 62
    4
 10
1220.4216099999999
 20
1540.2927399999985
 11
1220.4216099999999
 21
1149.4375599999994
  0
LINE
  8
_0-3_躯体と製品
  6
CONTINUOUS
 62
    4
 10
900.42161000000078
 20
1540.2927399999985
 11
900.42161000000078
 21
1149.4375599999994
  0
LINE
  8
_0-3_躯体と製品
  6
CONTINUOUS
 62
    4
 10
1170.4216100000008
 20
1540.2927399999985
 11
1170.4216100000008
 21
1149.4375599999994
  0
LINE
  8
_0-3_躯体と製品
  6
CONTINUOUS
 62
    4
 10
850.42160999999987
 20
1540.2927399999985
 11
850.42160999999987
 21
1149.4375599999994
  0
LINE
  8
_0-3_躯体と製品
  6
CONTINUOUS
 62
    4
 10
1045.4216100000008
 20
683.44845999999859
 11
1170.4216100000008
 21
683.44845999999859
  0
LINE
  8
_0-3_躯体と製品
  6
CONTINUOUS
 62
    4
 10
1045.4216100000008
 20
963.36381999999855
 11
1170.4216100000008
 21
963.36381999999855
  0
LINE
  8
_0-3_躯体と製品
  6
CONTINUOUS
 62
    4
 10
1045.4216100000008
 20
948.15769999999861
 11
1170.4216100000008
 21
948.15769999999861
  0
LINE
  8
_0-3_躯体と製品
  6
CONTINUOUS
 62
    4
 10
1045.4216100000008
 20
703.44845999999859
 11
1170.4216100000008
 21
703.44845999999859
  0
LINE
  8
_0-3_躯体と製品
  6
CONTINUOUS
 62
    4
 10
1170.4216100000008
 20
832.00597999999957
 11
1045.4216100000008
 21
832.00597999999957
  0
LINE
  8
_0-3_躯体と製品
  6
CONTINUOUS
 62
    4
 10
1045.4216100000008
 20
852.00597999999957
 11
1170.4216100000008
 21
852.00597999999957
  0
LINE
  8
_0-3_躯体と製品
  6
CONTINUOUS
 62
    4
 10
900.42161000000078
 20
973.24287999999854
 11
900.42161000000078
 21
530.59247999999855
  0
LINE
  8
_0-3_躯体と製品
  6
CONTINUOUS
 62
    4
 10
856.42161000000397
 20
530.59247999999855
 11
685.42161000000078
 21
530.59247999999855
  0
LINE
  8
_0-3_躯体と製品
  6
CONTINUOUS
 62
    4
 10
685.42161000000078
 20
683.44845999999859
 11
850.42160999999987
 21
683.44845999999859
  0
LINE
  8
_0-3_躯体と製品
  6
CONTINUOUS
 62
    4
 10
685.42161000000078
 20
703.44845999999859
 11
850.42160999999987
 21
703.44845999999859
  0
ARC
  8
_0-3_躯体と製品
  6
CONTINUOUS
 62
    4
 10
903.42161000000215
 20
527.59247999999945
 40
3
 50
270
 51
0
  0
LINE
  8
_0-3_躯体と製品
  6
CONTINUOUS
 62
    4
 10
856.42161000000397
 20
480.59247999999855
 11
862.42161000000306
 21
480.59247999999855
  0
ARC
  8
_0-3_躯体と製品
  6
CONTINUOUS
 62
    4
 10
865.42161000000078
 20
521.59247999999945
 40
3
 50
90
 51
180
  0
LINE
  8
_0-3_躯体と製品
  6
CONTINUOUS
 62
    4
 10
862.42161000000306
 20
521.59247999999945
 11
862.42161000000306
 21
480.59247999999855
  0
LINE
  8
_0-3_躯体と製品
  6
CONTINUOUS
 62
    4
 10
903.42161000000215
 20
524.59247999999945
 11
865.42161000000078
 21
524.59247999999945
  0
LINE
  8
_0-3_躯体と製品
  6
CONTINUOUS
 62
    3
 10
840.78454999999985
 20
504.51521999999943
 11
871.09073000000308
 21
504.51521999999943
  0
LINE
  8
_0-3_躯体と製品
  6
CONTINUOUS
 62
    4
 10
906.42161000000397
 20
527.59247999999945
 11
906.42161000000397
 21
530.59247999999855
  0
LINE
  8
_0-3_躯体と製品
  6
CONTINUOUS
 62
    4
 10
900.42161000000078
 20
683.44845999999859
 11
1025.4216100000008
 21
683.44845999999859
  0
LINE
  8
_0-3_躯体と製品
  6
CONTINUOUS
 62
    4
 10
900.42161000000078
 20
703.44845999999859
 11
1025.4216100000008
 21
703.44845999999859
  0
LINE
  8
_0-3_躯体と製品
  6
CONTINUOUS
 62
    7
 10
1025.4216100000008
 20
1149.4375599999994
 11
690.42161000000078
 21
1149.4375599999994
  0
LINE
  8
_0-3_躯体と製品
  6
CONTINUOUS
 62
    4
 10
740.42160999999987
 20
963.36381999999855
 11
850.42160999999987
 21
963.36381999999855
  0
LINE
  8
_0-3_躯体と製品
  6
CONTINUOUS
 62
    4
 10
850.42160999999987
 20
948.15769999999861
 11
696.42160999999896
 21
948.15769999999861
  0
LINE
  8
_0-3_躯体と製品
  6
CONTINUOUS
 62
    4
 10
850.42160999999987
 20
832.00597999999957
 11
685.42161000000078
 21
832.00597999999957
  0
LINE
  8
_0-3_躯体と製品
  6
CONTINUOUS
 62
    4
 10
685.42161000000078
 20
852.00597999999957
 11
850.42160999999987
 21
852.00597999999957
  0
LINE
  8
_0-3_躯体と製品
  6
CONTINUOUS
 62
    4
 10
696.42160999999896
 20
913.1576999999985
 11
696.42160999999896
 21
1143.4375599999994
  0
LINE
  8
_0-3_躯体と製品
  6
CONTINUOUS
 62
    4
 10
740.42160999999987
 20
1149.4375599999994
 11
740.42160999999987
 21
957.1576999999985
  0
LINE
  8
_0-3_躯体と製品
  6
CONTINUOUS
 62
    4
 10
685.92161000000215
 20
913.1576999999985
 11
696.42160999999896
 21
913.1576999999985
  0
LINE
  8
_0-3_躯体と製品
  6
CONTINUOUS
 62
    4
 10
740.42160999999987
 20
957.1576999999985
 11
696.42160999999896
 21
957.1576999999985
  0
LINE
  8
_0-3_躯体と製品
  6
PLINE2
 62
    4
 10
685.92161000000215
 20
973.24287999999854
 11
740.42160999999987
 21
973.24287999999854
  0
LINE
  8
_0-3_躯体と製品
  6
CONTINUOUS
 62
    3
 10
674.78455000000122
 20
1122.9068799999995
 11
705.09073000000399
 21
1122.9068799999995
  0
LINE
  8
_0-3_躯体と製品
  6
CONTINUOUS
 62
    3
 10
674.78455000000122
 20
1088.7177399999994
 11
705.09073000000399
 21
1088.7177399999994
  0
LINE
  8
_0-3_躯体と製品
  6
CONTINUOUS
 62
    4
 10
696.42160999999896
 20
1143.4375599999994
 11
734.42161000000078
 21
1143.4375599999994
  0
LINE
  8
_0-3_躯体と製品
  6
CONTINUOUS
 62
    4
 10
740.42160999999987
 20
1143.4375599999994
 11
734.42161000000078
 21
1143.4375599999994
  0
LINE
  8
_0-3_躯体と製品
  6
CONTINUOUS
 62
    4
 10
862.42161000000306
 20
913.1576999999985
 11
862.42161000000306
 21
1143.4375599999994
  0
LINE
  8
_0-3_躯体と製品
  6
CONTINUOUS
 62
    4
 10
906.42161000000397
 20
1149.4375599999994
 11
906.42161000000397
 21
957.1576999999985
  0
LINE
  8
_0-3_躯体と製品
  6
CONTINUOUS
 62
    4
 10
862.42161000000306
 20
948.15769999999861
 11
1025.4216100000008
 21
948.15769999999861
  0
LINE
  8
_0-3_躯体と製品
  6
PLINE2
 62
    4
 10
906.42161000000397
 20
957.1576999999985
 11
862.42161000000306
 21
957.1576999999985
  0
LINE
  8
_0-3_躯体と製品
  6
CONTINUOUS
 62
    4
 10
1025.4216100000008
 20
832.00597999999957
 11
900.42161000000078
 21
832.00597999999957
  0
LINE
  8
_0-3_躯体と製品
  6
CONTINUOUS
 62
    4
 10
900.42161000000078
 20
852.00597999999957
 11
1025.4216100000008
 21
852.00597999999957
  0
LINE
  8
_0-3_躯体と製品
  6
CONTINUOUS
 62
    4
 10
856.42161000000397
 20
913.1576999999985
 11
862.42161000000306
 21
913.1576999999985
  0
LINE
  8
_0-3_躯体と製品
  6
CONTINUOUS
 62
    3
 10
840.78454999999985
 20
934.43661999999961
 11
871.09073000000308
 21
934.43661999999961
  0
LINE
  8
_0-3_躯体と製品
  6
CONTINUOUS
 62
    4
 10
906.42161000000397
 20
1143.4375599999994
 11
900.42161000000078
 21
1143.4375599999994
  0
LINE
  8
_0-3_躯体と製品
  6
PLINE5
 62
    4
 10
900.42161000000078
 20
1143.4375599999994
 11
900.42161000000078
 21
973.24287999999854
  0
LINE
  8
_0-3_躯体と製品
  6
PLINE5
 62
    4
 10
850.42160999999987
 20
1149.4375599999994
 11
850.42160999999987
 21
1031.0562799999984
  0
LINE
  8
_0-3_躯体と製品
  6
CONTINUOUS
 62
    4
 10
856.42161000000397
 20
973.24287999999854
 11
900.42161000000078
 21
973.24287999999854
  0
LINE
  8
_0-3_躯体と製品
  6
CONTINUOUS
 62
    4
 10
850.42160999999987
 20
1031.0562799999984
 11
856.42161000000397
 21
1031.0562799999984
  0
LINE
  8
_0-3_躯体と製品
  6
CONTINUOUS
 62
    3
 10
840.78454999999985
 20
999.08305999999857
 11
871.09073000000308
 21
999.08305999999857
  0
LINE
  8
_0-3_躯体と製品
  6
CONTINUOUS
 62
    4
 10
862.42161000000306
 20
1143.4375599999994
 11
900.42161000000078
 21
1143.4375599999994
  0
LINE
  8
_0-3_躯体と製品
  6
CONTINUOUS
 62
    4
 10
906.42161000000397
 20
963.36381999999855
 11
1025.4216100000008
 21
963.36381999999855
  0
LINE
  8
_0-3_躯体と製品
  6
CONTINUOUS
 62
    4
 10
1220.4216099999999
 20
973.24287999999854
 11
1220.4216099999999
 21
530.59247999999855
  0
LINE
  8
_0-3_躯体と製品
  6
CONTINUOUS
 62
    4
 10
1223.4216100000021
 20
524.59247999999945
 11
1185.4216100000008
 21
524.59247999999945
  0
LINE
  8
_0-3_躯体と製品
  6
CONTINUOUS
 62
    4
 10
1176.421610000004
 20
480.59247999999855
 11
1182.4216100000031
 21
480.59247999999855
  0
ARC
  8
_0-3_躯体と製品
  6
CONTINUOUS
 62
    4
 10
1185.4216100000008
 20
521.59247999999945
 40
3
 50
90
 51
180
  0
LINE
  8
_0-3_躯体と製品
  6
CONTINUOUS
 62
    4
 10
1182.4216100000031
 20
521.59247999999945
 11
1182.4216100000031
 21
480.59247999999855
  0
LINE
  8
_0-3_躯体と製品
  6
CONTINUOUS
 62
    3
 10
1160.7845499999999
 20
504.51521999999943
 11
1191.0907300000031
 21
504.51521999999943
  0
LINE
  8
_0-4_図面枠
  6
CONTINUOUS
 62
    3
 10
1214.1474500000022
 20
381.71577999999852
 11
1242.8077099999991
 21
352.07475999999929
  0
LINE
  8
_0-3_躯体と製品
  6
CONTINUOUS
 62
    4
 10
1226.421610000004
 20
527.59247999999945
 11
1226.421610000004
 21
530.59247999999855
  0
ARC
  8
_0-3_躯体と製品
  6
CONTINUOUS
 62
    4
 10
1223.4216100000021
 20
527.59247999999945
 40
3
 50
270
 51
0
  0
LINE
  8
_0-3_躯体と製品
  6
CONTINUOUS
 62
    4
 10
1182.4216100000031
 20
913.1576999999985
 11
1182.4216100000031
 21
1143.4375599999994
  0
LINE
  8
_0-3_躯体と製品
  6
CONTINUOUS
 62
    4
 10
1226.421610000004
 20
1149.4375599999994
 11
1226.421610000004
 21
957.1576999999985
  0
LINE
  8
_0-3_躯体と製品
  6
PLINE2
 62
    4
 10
1226.421610000004
 20
957.1576999999985
 11
1182.4216100000031
 21
957.1576999999985
  0
LINE
  8
_0-3_躯体と製品
  6
CONTINUOUS
 62
    4
 10
1176.421610000004
 20
913.1576999999985
 11
1182.4216100000031
 21
913.1576999999985
  0
LINE
  8
_0-3_躯体と製品
  6
CONTINUOUS
 62
    3
 10
1160.7845499999999
 20
934.43661999999961
 11
1191.0907300000031
 21
934.43661999999961
  0
LINE
  8
_0-3_躯体と製品
  6
CONTINUOUS
 62
    4
 10
1182.4216100000031
 20
1143.4375599999994
 11
1220.4216099999999
 21
1143.4375599999994
  0
LINE
  8
_0-3_躯体と製品
  6
CONTINUOUS
 62
    4
 10
1176.421610000004
 20
973.24287999999854
 11
1220.4216099999999
 21
973.24287999999854
  0
LINE
  8
_0-3_躯体と製品
  6
PLINE5
 62
    4
 10
1170.4216100000008
 20
1149.4375599999994
 11
1170.4216100000008
 21
1031.0562799999984
  0
LINE
  8
_0-3_躯体と製品
  6
CONTINUOUS
 62
    4
 10
1170.4216100000008
 20
1031.0562799999984
 11
1176.421610000004
 21
1031.0562799999984
  0
LINE
  8
_0-3_躯体と製品
  6
CONTINUOUS
 62
    3
 10
1160.7845499999999
 20
999.08305999999857
 11
1191.0907300000031
 21
999.08305999999857
  0
LINE
  8
_0-3_躯体と製品
  6
PLINE5
 62
    4
 10
1220.4216099999999
 20
1143.4375599999994
 11
1220.4216099999999
 21
973.24287999999854
  0
LINE
  8
_0-3_躯体と製品
  6
CONTINUOUS
 62
    4
 10
1226.421610000004
 20
1143.4375599999994
 11
1220.4216099999999
 21
1143.4375599999994
  0
LINE
  8
_0-3_躯体と製品
  6
CONTINUOUS
 62
    4
 10
685.42161000000078
 20
1540.2927399999985
 11
1024.7096700000038
 21
1540.2927399999985
  0
LINE
  8
_0-3_躯体と製品
  6
CONTINUOUS
 62
    4
 10
1025.4216100000008
 20
1590.2273399999985
 11
745.42160999999987
 21
1590.2273399999985
  0
LINE
  8
_0-3_躯体と製品
  6
CONTINUOUS
 62
    4
 10
685.92161000000215
 20
1580.2927399999985
 11
1025.4216100000008
 21
1580.2927399999985
  0
LINE
  8
_0-4_図面枠
  6
CONTINUOUS
 62
    3
 10
683.70637000000215
 20
1275.1048399999986
 11
577.49225000000206
 21
1459.0730799999983
  0
LINE
  8
_0-4_図面枠
  6
CONTINUOUS
 62
    3
 10
683.70637000000215
 20
1275.1048399999986
 11
655.04611000000023
 21
1304.7458599999995
  0
TEXT
  8
_0-4_図面枠
 62
    7
 10
475.09209000000419
 20
1469.0730421278254
 40
60.000000000000007
 41
0.8000000000000001
 50
0.0000100000010064
  1
妻板
  0
LINE
  8
_0-4_図面枠
  6
CONTINUOUS
 62
    3
 10
577.49225000000206
 20
1459.0730799999983
 11
472.57337000000189
 21
1459.0730799999983
  0
LINE
  8
_0-3_躯体と製品
  6
CONTINUOUS
 62
    3
 10
674.78455000000122
 20
1474.8525199999995
 11
705.09073000000399
 21
1474.8525199999995
  0
LINE
  8
_0-3_躯体と製品
  6
CONTINUOUS
 62
    3
 10
674.78455000000122
 20
1439.0588799999996
 11
705.09073000000399
 21
1439.0588799999996
  0
LINE
  8
_0-3_躯体と製品
  6
CONTINUOUS
 62
    3
 10
674.78455000000122
 20
1403.2652399999993
 11
705.09073000000399
 21
1403.2652399999993
  0
LINE
  8
_0-3_躯体と製品
  6
CONTINUOUS
 62
    3
 10
674.78455000000122
 20
1510.6461599999998
 11
705.09073000000399
 21
1510.6461599999998
  0
LINE
  8
_0-3_躯体と製品
  6
CONTINUOUS
 62
    4
 10
685.42161000000078
 20
1590.2273399999985
 11
745.42160999999987
 21
1590.2273399999985
  0
LINE
  8
_0-3_躯体と製品
  6
CONTINUOUS
 62
    7
 10
685.42161000000078
 20
1590.2273399999985
 11
745.42160999999987
 21
1590.2273399999985
  0
LINE
  8
_0-3_躯体と製品
  6
CONTINUOUS
 62
    7
 10
745.42160999999987
 20
1564.4152599999998
 11
745.42160999999987
 21
1590.2273399999985
  0
LINE
  8
_0-3_躯体と製品
  6
CONTINUOUS
 62
    3
 10
875.42161000000078
 20
1590.2273399999985
 11
875.42161000000078
 21
1540.2927399999985
  0
LINE
  8
_0-3_躯体と製品
  6
CONTINUOUS
 62
    4
 10
900.42161000000078
 20
1534.2927399999994
 11
856.42161000000397
 21
1534.2927399999994
  0
LINE
  8
_0-3_躯体と製品
  6
CONTINUOUS
 62
    4
 10
1220.4216099999999
 20
1534.2927399999994
 11
1176.421610000004
 21
1534.2927399999994
  0
LINE
  8
_0-3_躯体と製品
  6
CONTINUOUS
 62
    3
 10
1195.4216099999999
 20
1590.2273399999985
 11
1195.4216099999999
 21
1540.2927399999985
  0
LINE
  8
_0-4_図面枠
  6
CONTINUOUS
 62
    3
 10
2509.7608100000007
 20
1048.3142799999987
 11
2833.5788100000009
 21
1609.1834999999996
  0
LINE
  8
_0-4_図面枠
  6
CONTINUOUS
 62
    3
 10
2698.437450000004
 20
1029.2668199999985
 11
2883.6351699999996
 21
1350.0386799999997
  0
LINE
  8
_0-3_躯体と製品
  6
CONTINUOUS
 62
    4
 10
1701.421609999999
 20
520.0803799999984
 11
2337.4216100000031
 21
520.0803799999984
  0
LINE
  8
_0-3_躯体と製品
  6
CONTINUOUS
 62
    4
 10
2337.4216100000031
 20
502.38803999999948
 11
1701.421609999999
 21
502.38803999999948
  0
LINE
  8
_0-3_躯体と製品
  6
CONTINUOUS
 62
    3
 10
2171.7845500000039
 20
420.795199999999
 11
2202.0907300000022
 21
420.795199999999
  0
LINE
  8
_0-3_躯体と製品
  6
CONTINUOUS
 62
    3
 10
2171.7845500000039
 20
343.59039999999936
 11
2202.0907300000022
 21
343.59039999999936
  0
LINE
  8
_0-3_躯体と製品
  6
CONTINUOUS
 62
    3
 10
2171.7845500000039
 20
494.93721999999855
 11
2202.0907300000022
 21
494.93721999999855
  0
LINE
  8
_0-3_躯体と製品
  6
CONTINUOUS
 62
    3
 10
2171.7845500000039
 20
559.98327999999844
 11
2202.0907300000022
 21
559.98327999999844
  0
LINE
  8
_0-3_躯体と製品
  6
CONTINUOUS
 62
    3
 10
2171.7845500000039
 20
803.9937999999994
 11
2202.0907300000022
 21
803.9937999999994
  0
LINE
  8
_0-3_躯体と製品
  6
CONTINUOUS
 62
    3
 10
2171.7845500000039
 20
1048.0043199999986
 11
2202.0907300000022
 21
1048.0043199999986
  0
LINE
  8
_0-3_躯体と製品
  6
CONTINUOUS
 62
    4
 10
2357.4216100000031
 20
520.0803799999984
 11
2697.421610000004
 21
520.0803799999984
  0
LINE
  8
_0-3_躯体と製品
  6
CONTINUOUS
 62
    4
 10
2697.421610000004
 20
502.38803999999948
 11
2357.4216100000031
 21
502.38803999999948
  0
LINE
  8
_0-3_躯体と製品
  6
CONTINUOUS
 62
    3
 10
2491.7845500000039
 20
343.59039999999936
 11
2522.0907300000026
 21
343.59039999999936
  0
LINE
  8
_0-3_躯体と製品
  6
CONTINUOUS
 62
    3
 10
2491.7845500000039
 20
420.795199999999
 11
2522.0907300000026
 21
420.795199999999
  0
LINE
  8
_0-3_躯体と製品
  6
CONTINUOUS
 62
    3
 10
2491.7845500000039
 20
494.93721999999855
 11
2522.0907300000026
 21
494.93721999999855
  0
LINE
  8
_0-3_躯体と製品
  6
CONTINUOUS
 62
    3
 10
2491.7845500000039
 20
559.98327999999844
 11
2522.0907300000026
 21
559.98327999999844
  0
LINE
  8
_0-3_躯体と製品
  6
CONTINUOUS
 62
    3
 10
2491.7845500000039
 20
803.9937999999994
 11
2522.0907300000026
 21
803.9937999999994
  0
LINE
  8
_0-4_図面枠
  6
CONTINUOUS
 62
    3
 10
2509.7608100000007
 20
1048.3142799999987
 11
2521.1005500000038
 21
1087.9552999999996
  0
LINE
  8
_0-3_躯体と製品
  6
CONTINUOUS
 62
    3
 10
2491.7845500000039
 20
1048.0043199999986
 11
2522.0907300000026
 21
1048.0043199999986
  0
LINE
  8
_0-3_躯体と製品
  6
PLINE2
 62
    4
 10
2647.421610000004
 20
963.36381999999855
 11
2647.421610000004
 21
813.36381999999855
  0
LINE
  8
_0-3_躯体と製品
  6
CONTINUOUS
 62
    3
 10
2670.7019700000028
 20
859.72161999999855
 11
2670.7019700000028
 21
839.72161999999855
  0
LINE
  8
_0-3_躯体と製品
  6
PLINE2
 62
    4
 10
2647.421610000004
 20
813.36381999999855
 11
2697.421610000004
 21
813.36381999999855
  0
LINE
  8
_0-3_躯体と製品
  6
CONTINUOUS
 62
    3
 10
2660.7019700000028
 20
849.72161999999855
 11
2680.7019700000028
 21
849.72161999999855
  0
LINE
  8
_0-3_躯体と製品
  6
PLINE2
 62
    4
 10
2647.421610000004
 20
957.36381999999946
 11
2686.4216100000012
 21
957.36381999999946
  0
LINE
  8
_0-3_躯体と製品
  6
CONTINUOUS
 62
    3
 10
2670.9045499999984
 20
906.5185199999986
 11
2670.9045499999984
 21
886.5185199999986
  0
LINE
  8
_0-3_躯体と製品
  6
PLINE2
 62
    4
 10
2686.4216100000012
 20
913.36381999999855
 11
2692.4216100000031
 21
913.36381999999855
  0
LINE
  8
_0-3_躯体と製品
  6
PLINE2
 62
    4
 10
2686.4216100000012
 20
957.36381999999946
 11
2686.4216100000012
 21
913.36381999999855
  0
LINE
  8
_0-3_躯体と製品
  6
CONTINUOUS
 62
    3
 10
2660.9045499999984
 20
896.5185199999986
 11
2680.9045499999984
 21
896.5185199999986
  0
LINE
  8
_0-4_図面枠
  6
CONTINUOUS
 62
    3
 10
2698.437450000004
 20
1029.2668199999985
 11
2709.7772100000038
 21
1068.9078399999994
  0
LINE
  8
_0-3_躯体と製品
  6
PLINE2
 62
    4
 10
2692.4216100000031
 20
963.36381999999855
 11
2647.421610000004
 21
963.36381999999855
  0
LINE
  8
_0-3_躯体と製品
  6
CONTINUOUS
 62
    4
 10
1701.421609999999
 20
1590.2273399999985
 11
2337.4216100000031
 21
1590.2273399999985
  0
LINE
  8
_0-3_躯体と製品
  6
PLINE5
 62
    4
 10
1701.421609999999
 20
1580.2927399999985
 11
2337.4216100000031
 21
1580.2927399999985
  0
LINE
  8
_0-3_躯体と製品
  6
CONTINUOUS
 62
    4
 10
1701.421609999999
 20
1540.2927399999985
 11
2337.4216100000031
 21
1540.2927399999985
  0
LINE
  8
_0-3_躯体と製品
  6
CONTINUOUS
 62
    4
 10
1701.421609999999
 20
1360.9043199999983
 11
2337.4216100000031
 21
1360.9043199999983
  0
LINE
  8
_0-3_躯体と製品
  6
CONTINUOUS
 62
    4
 10
1701.421609999999
 20
1322.2456399999983
 11
2337.4216100000031
 21
1322.2456399999983
  0
LINE
  8
_0-3_躯体と製品
  6
CONTINUOUS
 62
    3
 10
2171.7845500000039
 20
1372.1570399999996
 11
2202.0907300000022
 21
1372.1570399999996
  0
LINE
  8
_0-3_躯体と製品
  6
CONTINUOUS
 62
    3
 10
2171.7845500000039
 20
1292.0148399999987
 11
2202.0907300000022
 21
1292.0148399999987
  0
LINE
  8
_0-3_躯体と製品
  6
CONTINUOUS
 62
    3
 10
2171.7845500000039
 20
1425.3798399999996
 11
2202.0907300000022
 21
1425.3798399999996
  0
LINE
  8
_0-3_躯体と製品
  6
CONTINUOUS
 62
    3
 10
2171.7845500000039
 20
1480.2974199999985
 11
2202.0907300000022
 21
1480.2974199999985
  0
LINE
  8
_0-3_躯体と製品
  6
CONTINUOUS
 62
    3
 10
2171.7845500000039
 20
1533.0350999999996
 11
2202.0907300000022
 21
1533.0350999999996
  0
LINE
  8
_0-3_躯体と製品
  6
CONTINUOUS
 62
    4
 10
2357.4216100000031
 20
1590.2273399999985
 11
2697.421610000004
 21
1590.2273399999985
  0
LINE
  8
_0-3_躯体と製品
  6
PLINE5
 62
    4
 10
2357.4216100000031
 20
1580.2927399999985
 11
2697.421610000004
 21
1580.2927399999985
  0
LINE
  8
_0-3_躯体と製品
  6
CONTINUOUS
 62
    4
 10
2357.4216100000031
 20
1540.2927399999985
 11
2697.421610000004
 21
1540.2927399999985
  0
LINE
  8
_0-3_躯体と製品
  6
CONTINUOUS
 62
    4
 10
2357.4216100000031
 20
1360.9043199999983
 11
2697.421610000004
 21
1360.9043199999983
  0
LINE
  8
_0-3_躯体と製品
  6
CONTINUOUS
 62
    4
 10
2697.421610000004
 20
1322.2456399999983
 11
2357.4216100000031
 21
1322.2456399999983
  0
LINE
  8
_0-3_躯体と製品
  6
CONTINUOUS
 62
    3
 10
2491.7845500000039
 20
1372.1570399999996
 11
2522.0907300000026
 21
1372.1570399999996
  0
LINE
  8
_0-3_躯体と製品
  6
CONTINUOUS
 62
    3
 10
2491.7845500000039
 20
1292.0148399999987
 11
2522.0907300000026
 21
1292.0148399999987
  0
LINE
  8
_0-3_躯体と製品
  6
CONTINUOUS
 62
    3
 10
2491.7845500000039
 20
1480.2974199999985
 11
2522.0907300000026
 21
1480.2974199999985
  0
LINE
  8
_0-3_躯体と製品
  6
CONTINUOUS
 62
    3
 10
2491.7845500000039
 20
1425.3798399999996
 11
2522.0907300000026
 21
1425.3798399999996
  0
LINE
  8
_0-3_躯体と製品
  6
CONTINUOUS
 62
    3
 10
2491.7845500000039
 20
1533.0350999999996
 11
2522.0907300000026
 21
1533.0350999999996
  0
LINE
  8
_0-3_躯体と製品
  6
CONTINUOUS
 62
    7
 10
2647.421610000004
 20
1590.2273399999985
 11
2697.421610000004
 21
1590.2273399999985
  0
LINE
  8
_0-3_躯体と製品
  6
CONTINUOUS
 62
    7
 10
2647.421610000004
 20
1564.4152599999998
 11
2647.421610000004
 21
1590.2273399999985
  0
INSERT
  2
-001-_D4
  8
_0-2_寸法
 10
-1596.762565495731
 20
-572.32723743853239
 41
10
 42
10
 50
0
  0
INSERT
  2
-002-_D5
  8
_0-2_寸法
 10
-1596.762565495731
 20
-572.32723743853239
 41
10
 42
10
 50
0
  0
INSERT
  2
-003-_D6
  8
_0-2_寸法
 10
-1596.762565495731
 20
-572.32723743853239
 41
10
 42
10
 50
0
  0
INSERT
  2
-004-_D7
  8
_0-2_寸法
 10
-1596.762565495731
 20
-572.32723743853239
 41
10
 42
10
 50
0
  0
INSERT
  2
-005-_D8
  8
_0-2_寸法
 10
-1596.762565495731
 20
-572.32723743853239
 41
10
 42
10
 50
0
  0
INSERT
  2
-006-_D9
  8
_0-2_寸法
 10
-1596.762565495731
 20
-572.32723743853239
 41
10
 42
10
 50
0
  0
INSERT
  2
-007-_D10
  8
_0-2_寸法
 10
-1596.762565495731
 20
-572.32723743853239
 41
10
 42
10
 50
0
  0
INSERT
  2
-008-_D11
  8
_0-2_寸法
 10
-1596.762565495731
 20
-572.32723743853239
 41
10
 42
10
 50
0
  0
INSERT
  2
-009-_D12
  8
_0-2_寸法
 10
-1596.762565495731
 20
-572.32723743853239
 41
10
 42
10
 50
0
  0
INSERT
  2
-010-_D13
  8
_0-2_寸法
 10
-1596.762565495731
 20
-572.32723743853239
 41
10
 42
10
 50
0
  0
INSERT
  2
-011-_D14
  8
_0-2_寸法
 10
-1596.762565495731
 20
-572.32723743853239
 41
10
 42
10
 50
0
  0
ENDSEC
  0
EOF
