  0
SECTION
  2
HEADER
  9
$ACADVER
  1
AC1009
  9
$INSBASE
 10
0
 20
0
 30
0
  9
$EXTMIN
 10
0
 20
0
  9
$EXTMAX
 10
841
 20
594
  9
$LIMMIN
 10
0
 20
0
  9
$LIMMAX
 10
841
 20
594
  9
$LTSCALE
 40
1
  0
ENDSEC
  0
SECTION
  2
TABLES
  0
TABLE
  2
LTYPE
 70
     9
  0
LTYPE
  2
CONTINUOUS
 70
    64
  3
実線
 72
    65
 73
     0
 40
0.0
  0
LTYPE
  2
DASHED1
 70
    64
  3
--  --  --  --  --  --  --  --  
 72
    65
 73
     2
 40
2.5
 49
1.25
 49
-1.25
  0
LTYPE
  2
DASHED2
 70
    64
  3
----    ----    ----    ----    
 72
    65
 73
     2
 40
5.0
 49
2.5
 49
-2.5
  0
LTYPE
  2
DASHED3
 70
    64
  3
------  ------  ------  ------  
 72
    65
 73
     2
 40
5.0
 49
3.75
 49
-1.25
  0
LTYPE
  2
CENTER1
 70
    64
  3
----- - ----- - ----- - ----- - 
 72
    65
 73
     4
 40
10.0
 49
6.25
 49
-1.25
 49
1.25
 49
-1.25
  0
LTYPE
  2
CENTER2
 70
    64
  3
----------  --  ----------  --  
 72
    65
 73
     4
 40
20.0
 49
12.5
 49
-2.5
 49
2.5
 49
-2.5
  0
LTYPE
  2
PHANTOM1
 70
    64
  3
--- - - --- - - --- - - --- - - 
 72
    65
 73
     6
 40
10.0
 49
3.25
 49
-1.25
 49
1.25
 49
-1.25
 49
1.25
 49
-1.25
  0
LTYPE
  2
PHANTOM2
 70
    64
  3
--------  -  -  --------  -  -  
 72
    65
 73
     6
 40
20.0
 49
10.0
 49
-2.5
 49
1.25
 49
-2.5
 49
1.25
 49
-2.5
  0
LTYPE
  2
DOT
 70
    64
  3
-   -   -   -   -   -   -   -   
 72
    65
 73
     2
 40
2.5
 49
0.625
 49
-1.875
  0
LTYPE
  2
DUMMY
 70
    64
  3
ダミー
 72
    65
 73
     0
 40
0.0
  0
LTYPE
  2
RAND1
 70
    64
  3
ランダム線1
 72
    65
 73
     4
 40
10.0
 49
1.0
 49
-2.0
 49
3.0
 49
-4.0
  0
LTYPE
  2
RAND2
 70
    64
  3
ランダム線2
 72
    65
 73
     4
 40
14.0
 49
2.0
 49
-3.0
 49
4.0
 49
-5.0
  0
LTYPE
  2
RAND3
 70
    64
  3
ランダム線3
 72
    65
 73
     4
 40
18.0
 49
3.0
 49
-4.0
 49
5.0
 49
-6.0
  0
LTYPE
  2
RAND4
 70
    64
  3
ランダム線4
 72
    65
 73
     4
 40
22.0
 49
4.0
 49
-5.0
 49
6.0
 49
-7.0
  0
LTYPE
  2
RAND5
 70
    64
  3
ランダム線5
 72
    65
 73
     4
 40
26.0
 49
5.0
 49
-6.0
 49
7.0
 49
-8.0
  0
LTYPE
  2
LONG1
 70
    64
  3
----------  --  ----------  --  
 72
    65
 73
     4
 40
40.0
 49
32.5
 49
-2.5
 49
2.5
 49
-2.5
  0
LTYPE
  2
LONG2
 70
    64
  3
--------  -  -  --------  -  -  
 72
    65
 73
     6
 40
40.0
 49
30.0
 49
-2.5
 49
1.25
 49
-2.5
 49
1.25
 49
-2.5
  0
LTYPE
  2
LONG3
 70
    64
  3
+++++++++++++++..+++++++++++++++
 72
    65
 73
     2
 40
40.0
 49
37.5
 49
-2.5
  0
LTYPE
  2
LONG4
 70
    64
  3
+++++++++++++++..+++++++++++++++
 72
    65
 73
     2
 40
80.0
 49
75.0
 49
-5.0
  0
LTYPE
  2
LONG5
 70
    64
  3
----------  --  ----------  --  
 72
    65
 73
     4
 40
60.0
 49
37.5
 49
-7.5
 49
7.5
 49
-7.5
  0
LTYPE
  2
dashed
 70
   64
  3
-------   -------------   ------
 72
   65
 73
    2
 40
7.5
 49
6
 49
-1.5
  0
LTYPE
  2
dashed_spaced
 70
   64
  3
----        --------        ----
 72
   65
 73
    2
 40
12
 49
6
 49
-6
  0
LTYPE
  2
long_dashed_dotted
 70
   64
  3
------------- --- --------------
 72
   65
 73
    4
 40
15.25
 49
12
 49
-1.5
 49
0.25
 49
-1.5
  0
LTYPE
  2
long_dashed_double-dotted
 70
   64
  3
----------- --- --- ------------
 72
   65
 73
    6
 40
17
 49
12
 49
-1.5
 49
0.25
 49
-1.5
 49
0.25
 49
-1.5
  0
LTYPE
  2
long_dashed_triplicate-dotted
 70
   64
  3
--------- --- --- --- ----------
 72
   65
 73
    8
 40
18.75
 49
12
 49
-1.5
 49
0.25
 49
-1.5
 49
0.25
 49
-1.5
 49
0.25
 49
-1.5
  0
LTYPE
  2
dotted
 70
   64
  3
   -       -       -       -    
 72
   65
 73
    2
 40
1.75
 49
0.25
 49
-1.5
  0
LTYPE
  2
chain
 70
   64
  3
-------------- -- --------------
 72
   65
 73
    4
 40
18.5
 49
12
 49
-1.5
 49
3.5
 49
-1.5
  0
LTYPE
  2
chain_double_dash
 70
   64
  3
------------ -- -- -------------
 72
   65
 73
    6
 40
23.5
 49
12
 49
-1.5
 49
3.5
 49
-1.5
 49
3.5
 49
-1.5
  0
LTYPE
  2
dashed_dotted
 70
   64
  3
-----------     -     ----------
 72
   65
 73
    4
 40
9.25
 49
6
 49
-1.5
 49
0.25
 49
-1.5
  0
LTYPE
  2
double-dashed_dotted
 70
   64
  3
------   -----------   -   -----
 72
   65
 73
    6
 40
16.75
 49
6
 49
-1.5
 49
6
 49
-1.5
 49
0.25
 49
-1.5
  0
LTYPE
  2
dashed_double-dotted
 70
   64
  3
---------    -    -    ---------
 72
   65
 73
    6
 40
11
 49
6
 49
-1.5
 49
0.25
 49
-1.5
 49
0.25
 49
-1.5
  0
LTYPE
  2
double-dashed_double-dotted
 70
   64
  3
-----   ---------   -   -   ----
 72
   65
 73
    8
 40
18.5
 49
6
 49
-1.5
 49
6
 49
-1.5
 49
0.25
 49
-1.5
 49
0.25
 49
-1.5
  0
LTYPE
  2
dashed_triplicate-dotted
 70
   64
  3
-------    -    -    -    ------
 72
   65
 73
    8
 40
12.75
 49
6
 49
-1.5
 49
0.25
 49
-1.5
 49
0.25
 49
-1.5
 49
0.25
 49
-1.5
  0
LTYPE
  2
double-dashed_triplicate-dotted
 70
   64
  3
-----  ---------  -  -  -  -----
 72
   65
 73
   10
 40
20.25
 49
6
 49
-1.5
 49
6
 49
-1.5
 49
0.25
 49
-1.5
 49
0.25
 49
-1.5
 49
0.25
 49
-1.5
  0
LTYPE
  2
undefined
 70
   64
  3
--------------------------------
 72
   65
 73
    0
 40
0
  0
LTYPE
  2
PLINE2
 70
   64
  3
------     -----------     -----
 72
   65
 73
    2
 40
3
 49
2.1000000000000001
 49
-0.9
  0
LTYPE
  2
PLINE3
 70
   64
  3
------------   ---   -----------
 72
   65
 73
    4
 40
10
 49
7
 49
-1
 49
1
 49
-1
  0
LTYPE
  2
PLINE4
 70
   64
  3
---------   ---   ---   --------
 72
   65
 73
    6
 40
10
 49
5
 49
-1
 49
1
 49
-1
 49
1
 49
-1
  0
LTYPE
  2
PLINE5
 70
   64
  3
------     -----------     -----
 72
   65
 73
    2
 40
5
 49
3.5
 49
-1.5
  0
LTYPE
  2
PLINE6
 70
   64
  3
------------   ---   -----------
 72
   65
 73
    4
 40
15
 49
10.5
 49
-1.5
 49
1.5
 49
-1.5
  0
LTYPE
  2
PLINE7
 70
   64
  3
---------   ---   ---   --------
 72
   65
 73
    6
 40
15
 49
7.5
 49
-1.5
 49
1.5
 49
-1.5
 49
1.5
 49
-1.5
  0
LTYPE
  2
PLINE8
 70
   64
  3
------     -----------     -----
 72
   65
 73
    2
 40
7
 49
4.9000000000000004
 49
-2.1000000000000001
  0
LTYPE
  2
PLINE9
 70
   64
  3
------------   ---   -----------
 72
   65
 73
    4
 40
20
 49
14
 49
-2
 49
2
 49
-2
  0
LTYPE
  2
PLINE10
 70
   64
  3
---------   ---   ---   --------
 72
   65
 73
    6
 40
20
 49
10
 49
-2
 49
2
 49
-2
 49
2
 49
-2
  0
LTYPE
  2
PLINE11
 70
   64
  3
------     -----------     -----
 72
   65
 73
    2
 40
9
 49
6.2999999999999989
 49
-2.7000000000000002
  0
LTYPE
  2
PLINE12
 70
   64
  3
------------   ---   -----------
 72
   65
 73
    4
 40
25
 49
17.5
 49
-2.5
 49
2.5
 49
-2.5
  0
LTYPE
  2
PLINE13
 70
   64
  3
---------   ---   ---   --------
 72
   65
 73
    6
 40
25
 49
12.5
 49
-2.5
 49
2.5
 49
-2.5
 49
2.5
 49
-2.5
  0
LTYPE
  2
PLINE14
 70
   64
  3
------     -----------     -----
 72
   65
 73
    2
 40
11
 49
7.7000000000000002
 49
-3.2999999999999989
  0
LTYPE
  2
PLINE15
 70
   64
  3
------------   ---   -----------
 72
   65
 73
    4
 40
30
 49
21
 49
-3
 49
3
 49
-3
  0
LTYPE
  2
PLINE16
 70
   64
  3
---------   ---   ---   --------
 72
   65
 73
    6
 40
30
 49
15
 49
-3
 49
3
 49
-3
 49
3
 49
-3
  0
ENDTAB
  0
TABLE
  2
STYLE
  5
3
100
AcDbSymbolTable
 70
     1
  0
STYLE
  5
10
100
AcDbSymbolTableRecord
100
AcDbTextStyleTableRecord
  2
STANDARD
 70
     0
 40
0.0
 41
1.0
 50
0.0
 71
     0
 42
0.2
  3
txt
  4
bigfont.shx
  0
STYLE
  5
26
100
AcDbSymbolTableRecord
100
AcDbTextStyleTableRecord
  2
TATEGAKI
 70
    68
 40
0.0
 41
1.0
 50
0.0
 71
     0
 42
1.0
  3
txt
  4
bigfont.shx
  0
ENDTAB
  0
TABLE
  2
LAYER
 70
    4
  0
LAYER
  2
_0-2_寸法
 70
   64
 62
    7
  6
CONTINUOUS
  0
LAYER
  2
_0-3_躯体と製品
 70
   64
 62
    7
  6
CONTINUOUS
  0
LAYER
  2
_0-4_図面枠
 70
   64
 62
    7
  6
CONTINUOUS
  0
LAYER
  2
ADD_LINE
 70
   64
 62
    7
  6
CONTINUOUS
  0
ENDTAB
  0
ENDSEC
  0
SECTION
  2
BLOCKS
  0
BLOCK
  2
-000-_Dot
 70
   64
 10
0
 20
0
 30
0
  0
CIRCLE
  8
_0-0_0
  6
CONTINUOUS
 62
    7
 10
0
 20
0
 40
0.025
  0
LINE
  8
_0-0_0
  6
CONTINUOUS
 62
    7
 10
0.025
 20
0
 11
-0.025
 21
0
  0
LINE
  8
_0-0_0
  6
CONTINUOUS
 62
    7
 10
-0.05
 20
0
 11
-0.1
 21
0
  0
ENDBLK
  0
BLOCK
  2
-001-_D4
 70
   64
 10
0
 20
0
 30
0
  0
LINE
  8
_0-2_寸法
  6
CONTINUOUS
 62
    4
 10
380.17809907871163
 20
-20.00882774797628
 11
380.17809907871163
 21
18.986988252023909
  0
LINE
  8
_0-2_寸法
  6
CONTINUOUS
 62
    4
 10
627.95704907871152
 20
-19.130869747976242
 11
627.95704907871152
 21
18.986988252023909
  0
LINE
  8
_0-2_寸法
  6
CONTINUOUS
 62
    4
 10
380.27809907871159
 20
18.986988252023909
 11
627.8570490787115
 21
18.986988252023909
  0
INSERT
  2
-000-_Dot
  8
_0-2_寸法
 10
380.17809907871163
 20
18.986988252023909
 41
1
 42
1
 50
180
  0
INSERT
  2
-000-_Dot
  8
_0-2_寸法
 10
627.95704907871152
 20
18.986988252023909
 41
1
 42
1
 50
0
  0
TEXT
  8
_0-2_寸法
 62
    7
 10
502.81757407871146
 20
19.066988252023911
 40
5
 41
1
 50
0
  1
E
  0
POINT
  8
_0-1_Defpoints
 62
    7
 10
380.17809907871163
 20
-20.00882774797628
  0
POINT
  8
_0-1_Defpoints
 62
    7
 10
627.95704907871152
 20
-19.130869747976242
  0
POINT
  8
_0-1_Defpoints
 62
    7
 10
627.95704907871152
 20
18.986988252023909
  0
ENDBLK
  0
BLOCK
  2
-002-_D5
 70
   64
 10
0
 20
0
 30
0
  0
LINE
  8
_0-2_寸法
  6
CONTINUOUS
 62
    4
 10
391.02119707871128
 20
-10.98877374797611
 11
363.23117507871177
 21
-10.98877374797611
  0
LINE
  8
_0-2_寸法
  6
CONTINUOUS
 62
    4
 10
449.04218107871156
 20
-102.9887737479761
 11
363.23117507871171
 21
-102.9887737479761
  0
LINE
  8
_0-2_寸法
  6
CONTINUOUS
 62
    4
 10
363.23117507871177
 20
-11.088773747976109
 11
363.23117507871171
 21
-102.8887737479761
  0
INSERT
  2
-000-_Dot
  8
_0-2_寸法
 10
363.23117507871177
 20
-10.98877374797611
 41
1
 42
1
 50
90
  0
INSERT
  2
-000-_Dot
  8
_0-2_寸法
 10
363.23117507871171
 20
-102.9887737479761
 41
1
 42
1
 50
270
  0
TEXT
  8
_0-2_寸法
 62
    7
 10
363.15117507871184
 20
-59.48877374797604
 40
5
 41
1
 50
90
  1
 I
  0
POINT
  8
_0-1_Defpoints
 62
    7
 10
391.02119707871128
 20
-10.98877374797611
  0
POINT
  8
_0-1_Defpoints
 62
    7
 10
449.04218107871156
 20
-102.9887737479761
  0
POINT
  8
_0-1_Defpoints
 62
    7
 10
363.23117507871171
 20
-102.9887737479761
  0
ENDBLK
  0
BLOCK
  2
-003-_D6
 70
   64
 10
0
 20
0
 30
0
  0
LINE
  8
_0-2_寸法
  6
CONTINUOUS
 62
    4
 10
449.04218107871156
 20
-102.9887737479761
 11
363.23117507871171
 21
-102.9887737479761
  0
LINE
  8
_0-2_寸法
  6
CONTINUOUS
 62
    4
 10
448.66479907871155
 20
-117.9887737479761
 11
363.23117507871171
 21
-117.9887737479761
  0
LINE
  8
_0-2_寸法
  6
CONTINUOUS
 62
    4
 10
363.23117507871171
 20
-103.08877374797609
 11
363.23117507871171
 21
-117.8887737479761
  0
INSERT
  2
-000-_Dot
  8
_0-2_寸法
 10
363.23117507871171
 20
-102.9887737479761
 41
1
 42
1
 50
90
  0
INSERT
  2
-000-_Dot
  8
_0-2_寸法
 10
363.23117507871171
 20
-117.9887737479761
 41
1
 42
1
 50
270
  0
TEXT
  8
_0-2_寸法
 62
    7
 10
363.15117507871184
 20
-111.73877374797601
 40
5
 41
1
 50
90
  1
J
  0
POINT
  8
_0-1_Defpoints
 62
    7
 10
449.04218107871156
 20
-102.9887737479761
  0
POINT
  8
_0-1_Defpoints
 62
    7
 10
448.66479907871155
 20
-117.9887737479761
  0
POINT
  8
_0-1_Defpoints
 62
    7
 10
363.23117507871171
 20
-117.9887737479761
  0
ENDBLK
  0
BLOCK
  2
-004-_D7
 70
   64
 10
0
 20
0
 30
0
  0
LINE
  8
_0-2_寸法
  6
CONTINUOUS
 62
    4
 10
459.28955707871103
 20
-142.20223340676472
 11
459.28955707871103
 21
-200.30641974797621
  0
LINE
  8
_0-2_寸法
  6
CONTINUOUS
 62
    4
 10
549.28955707871103
 20
-142.20223357737029
 11
549.28955707871103
 21
-200.30641974797621
  0
LINE
  8
_0-2_寸法
  6
CONTINUOUS
 62
    4
 10
459.38955707871099
 20
-200.30641974797621
 11
549.189557078711
 21
-200.30641974797621
  0
INSERT
  2
-000-_Dot
  8
_0-2_寸法
 10
459.28955707871103
 20
-200.30641974797621
 41
1
 42
1
 50
180
  0
INSERT
  2
-000-_Dot
  8
_0-2_寸法
 10
549.28955707871103
 20
-200.30641974797621
 41
1
 42
1
 50
0
  0
TEXT
  8
_0-2_寸法
 62
    7
 10
494.28955707871103
 20
-200.22641974797619
 40
5
 41
1
 50
0
  1
Ａ　開口
  0
POINT
  8
_0-1_Defpoints
 62
    7
 10
459.28955707871103
 20
-142.20223340676472
  0
POINT
  8
_0-1_Defpoints
 62
    7
 10
549.28955707871103
 20
-142.20223357737029
  0
POINT
  8
_0-1_Defpoints
 62
    7
 10
549.28955707871103
 20
-200.30641974797621
  0
ENDBLK
  0
BLOCK
  2
-005-_D8
 70
   64
 10
0
 20
0
 30
0
  0
LINE
  8
_0-2_寸法
  6
CONTINUOUS
 62
    4
 10
715.3330190787118
 20
-149.73656582873349
 11
715.3330190787118
 21
-199.59974374797622
  0
LINE
  8
_0-2_寸法
  6
CONTINUOUS
 62
    4
 10
725.333019078711
 20
-149.73656582873349
 11
725.333019078711
 21
-199.59974374797622
  0
LINE
  8
_0-2_寸法
  6
CONTINUOUS
 62
    4
 10
715.43301907871171
 20
-199.59974374797622
 11
725.23301907871098
 21
-199.59974374797622
  0
INSERT
  2
-000-_Dot
  8
_0-2_寸法
 10
715.3330190787118
 20
-199.59974374797622
 41
1
 42
1
 50
180
  0
INSERT
  2
-000-_Dot
  8
_0-2_寸法
 10
725.333019078711
 20
-199.59974374797622
 41
1
 42
1
 50
0
  0
TEXT
  8
_0-2_寸法
 62
    7
 10
716.58301907871123
 20
-199.51974374797618
 40
5
 41
1
 50
0
  1
100
  0
POINT
  8
_0-1_Defpoints
 62
    7
 10
715.3330190787118
 20
-149.73656582873349
  0
POINT
  8
_0-1_Defpoints
 62
    7
 10
725.333019078711
 20
-149.73656582873349
  0
POINT
  8
_0-1_Defpoints
 62
    7
 10
725.333019078711
 20
-199.59974374797622
  0
ENDBLK
  0
BLOCK
  2
-006-_D9
 70
   64
 10
0
 20
0
 30
0
  0
LINE
  8
_0-2_寸法
  6
CONTINUOUS
 62
    4
 10
725.333019078711
 20
-149.73656582873349
 11
725.333019078711
 21
-199.59974374797622
  0
LINE
  8
_0-2_寸法
  6
CONTINUOUS
 62
    4
 10
891.33301907871169
 20
-159.2281664599895
 11
891.33301907871169
 21
-199.59974374797622
  0
LINE
  8
_0-2_寸法
  6
CONTINUOUS
 62
    4
 10
725.43301907871103
 20
-199.59974374797622
 11
891.23301907871178
 21
-199.59974374797622
  0
INSERT
  2
-000-_Dot
  8
_0-2_寸法
 10
725.333019078711
 20
-199.59974374797622
 41
1
 42
1
 50
180
  0
INSERT
  2
-000-_Dot
  8
_0-2_寸法
 10
891.33301907871169
 20
-199.59974374797622
 41
1
 42
1
 50
0
  0
TEXT
  8
_0-2_寸法
 62
    7
 10
803.33301907871135
 20
-199.51974374797618
 40
5
 41
1
 50
0
  1
開口
  0
POINT
  8
_0-1_Defpoints
 62
    7
 10
725.333019078711
 20
-149.73656582873349
  0
POINT
  8
_0-1_Defpoints
 62
    7
 10
891.33301907871169
 20
-159.2281664599895
  0
POINT
  8
_0-1_Defpoints
 62
    7
 10
891.33301907871169
 20
-199.59974374797622
  0
ENDBLK
  0
BLOCK
  2
-007-_D10
 70
   64
 10
0
 20
0
 30
0
  0
LINE
  8
_0-2_寸法
  6
CONTINUOUS
 62
    4
 10
891.33301907871169
 20
-159.2281664599895
 11
891.33301907871169
 21
-199.59974374797622
  0
LINE
  8
_0-2_寸法
  6
CONTINUOUS
 62
    4
 10
901.33301907871169
 20
-160.27125974797622
 11
901.33301907871169
 21
-199.59974374797622
  0
LINE
  8
_0-2_寸法
  6
CONTINUOUS
 62
    4
 10
891.43301907871171
 20
-199.59974374797622
 11
901.23301907871178
 21
-199.59974374797622
  0
INSERT
  2
-000-_Dot
  8
_0-2_寸法
 10
891.33301907871169
 20
-199.59974374797622
 41
1
 42
1
 50
180
  0
INSERT
  2
-000-_Dot
  8
_0-2_寸法
 10
901.33301907871169
 20
-199.59974374797622
 41
1
 42
1
 50
0
  0
TEXT
  8
_0-2_寸法
 62
    7
 10
892.58301907871157
 20
-199.51974374797618
 40
5
 41
1
 50
0
  1
100
  0
POINT
  8
_0-1_Defpoints
 62
    7
 10
891.33301907871169
 20
-159.2281664599895
  0
POINT
  8
_0-1_Defpoints
 62
    7
 10
901.33301907871169
 20
-160.27125974797622
  0
POINT
  8
_0-1_Defpoints
 62
    7
 10
901.33301907871169
 20
-199.59974374797622
  0
ENDBLK
  0
BLOCK
  2
-008-_D11
 70
   64
 10
0
 20
0
 30
0
  0
LINE
  8
_0-2_寸法
  6
CONTINUOUS
 62
    4
 10
925.33301907871169
 20
-112.28913774797611
 11
925.33301907871169
 21
-94.075345747976101
  0
LINE
  8
_0-2_寸法
  6
CONTINUOUS
 62
    4
 10
925.23301907871178
 20
-94.075345747976101
 11
901.43301907871171
 21
-94.075345747976101
  0
INSERT
  2
-000-_Dot
  8
_0-2_寸法
 10
925.33301907871169
 20
-94.075345747976101
 41
1
 42
1
 50
0
  0
INSERT
  2
-000-_Dot
  8
_0-2_寸法
 10
901.33301907871169
 20
-94.075345747976101
 41
1
 42
1
 50
180
  0
TEXT
  8
_0-2_寸法
 62
    7
 10
900.83301907871169
 20
-93.995345747976117
 40
5
 41
1
 50
0
  1
現場合わせ
  0
POINT
  8
_0-1_Defpoints
 62
    7
 10
925.33301907871169
 20
-112.28913774797611
  0
POINT
  8
_0-1_Defpoints
 62
    7
 10
901.33301907871169
 20
-94.075345747976101
  0
POINT
  8
_0-1_Defpoints
 62
    7
 10
901.33301907871169
 20
-94.075345747976101
  0
ENDBLK
  0
BLOCK
  2
-009-_D12
 70
   64
 10
0
 20
0
 30
0
  0
LINE
  8
_0-2_寸法
  6
CONTINUOUS
 62
    4
 10
691.333019078711
 20
-112.28913774797611
 11
691.333019078711
 21
-94.075345747976101
  0
LINE
  8
_0-2_寸法
  6
CONTINUOUS
 62
    4
 10
715.23301907871098
 20
-94.075345747976101
 11
691.43301907871114
 21
-94.075345747976101
  0
INSERT
  2
-000-_Dot
  8
_0-2_寸法
 10
715.333019078711
 20
-94.075345747976101
 41
1
 42
1
 50
0
  0
INSERT
  2
-000-_Dot
  8
_0-2_寸法
 10
691.333019078711
 20
-94.075345747976101
 41
1
 42
1
 50
180
  0
TEXT
  8
_0-2_寸法
 62
    7
 10
690.833019078711
 20
-93.995345747976117
 40
5
 41
1
 50
0
  1
現場合わせ
  0
POINT
  8
_0-1_Defpoints
 62
    7
 10
715.333019078711
 20
-94.075345747976101
  0
POINT
  8
_0-1_Defpoints
 62
    7
 10
691.333019078711
 20
-112.28913774797611
  0
POINT
  8
_0-1_Defpoints
 62
    7
 10
691.333019078711
 20
-94.075345747976101
  0
ENDBLK
  0
BLOCK
  2
-010-_D13
 70
   64
 10
0
 20
0
 30
0
  0
LINE
  8
_0-2_寸法
  6
CONTINUOUS
 62
    4
 10
766.333019078711
 20
1.9156042520236951
 11
766.333019078711
 21
11.2978002520238
  0
LINE
  8
_0-2_寸法
  6
CONTINUOUS
 62
    4
 10
850.333019078711
 20
1.9156042520236951
 11
850.333019078711
 21
11.2978002520238
  0
LINE
  8
_0-2_寸法
  6
CONTINUOUS
 62
    4
 10
766.43301907871114
 20
11.2978002520238
 11
850.23301907871121
 21
11.2978002520238
  0
INSERT
  2
-000-_Dot
  8
_0-2_寸法
 10
766.333019078711
 20
11.2978002520238
 41
1
 42
1
 50
180
  0
INSERT
  2
-000-_Dot
  8
_0-2_寸法
 10
850.333019078711
 20
11.2978002520238
 41
1
 42
1
 50
0
  0
TEXT
  8
_0-2_寸法
 62
    7
 10
793.333019078711
 20
11.3778002520238
 40
5
 41
1
 50
0
  1
８４０ピッチ
  0
POINT
  8
_0-1_Defpoints
 62
    7
 10
766.333019078711
 20
1.9156042520236951
  0
POINT
  8
_0-1_Defpoints
 62
    7
 10
850.333019078711
 20
1.9156042520236951
  0
POINT
  8
_0-1_Defpoints
 62
    7
 10
850.333019078711
 20
11.2978002520238
  0
ENDBLK
  0
BLOCK
  2
-011-_D14
 70
   64
 10
0
 20
0
 30
0
  0
LINE
  8
_0-2_寸法
  6
CONTINUOUS
 62
    4
 10
715.333019078711
 20
-8.2325997479760193
 11
715.333019078711
 21
32.253018252023864
  0
LINE
  8
_0-2_寸法
  6
CONTINUOUS
 62
    4
 10
901.33301907871169
 20
-8.2325997479760193
 11
901.33301907871169
 21
32.253018252023864
  0
LINE
  8
_0-2_寸法
  6
CONTINUOUS
 62
    4
 10
715.43301907871103
 20
32.253018252023864
 11
901.23301907871178
 21
32.253018252023864
  0
INSERT
  2
-000-_Dot
  8
_0-2_寸法
 10
715.333019078711
 20
32.253018252023864
 41
1
 42
1
 50
180
  0
INSERT
  2
-000-_Dot
  8
_0-2_寸法
 10
901.33301907871169
 20
32.253018252023864
 41
1
 42
1
 50
0
  0
TEXT
  8
_0-2_寸法
 62
    7
 10
798.33301907871135
 20
32.333018252023862
 40
5
 41
1
 50
0
  1
全　　長
  0
POINT
  8
_0-1_Defpoints
 62
    7
 10
715.333019078711
 20
-8.2325997479760193
  0
POINT
  8
_0-1_Defpoints
 62
    7
 10
901.33301907871169
 20
-8.2325997479760193
  0
POINT
  8
_0-1_Defpoints
 62
    7
 10
901.33301907871169
 20
32.253018252023864
  0
ENDBLK
  0
BLOCK
  2
-012-_D15
 70
   64
 10
0
 20
0
 30
0
  0
LINE
  8
_0-2_寸法
  6
CONTINUOUS
 62
    4
 10
434.53962307871154
 20
-121.65712374797599
 11
432.92160060179128
 21
-113.57037427765189
  0
LINE
  8
_0-2_寸法
  6
CONTINUOUS
 62
    4
 10
459.04336307871165
 20
-116.75433774797621
 11
457.42534060179139
 21
-108.66758827765209
  0
LINE
  8
_0-2_寸法
  6
CONTINUOUS
 62
    4
 10
432.82354410289236
 20
-113.5899937328865
 11
432.7254876039936
 21
-113.6096131881211
  0
LINE
  8
_0-2_寸法
  6
CONTINUOUS
 62
    4
 10
457.52339710069026
 20
-108.6479688224174
 11
457.62145359958913
 21
-108.62834936718291
  0
INSERT
  2
-000-_Dot
  8
_0-2_寸法
 10
432.92160060179128
 20
-113.57037427765189
 41
1
 42
1
 50
11.31451446415601
  0
INSERT
  2
-000-_Dot
  8
_0-2_寸法
 10
457.42534060179139
 20
-108.66758827765209
 41
1
 42
1
 50
191.31451446415602
  0
TEXT
  8
_0-2_寸法
 62
    7
 10
423.09506278536526
 20
-115.45491350631733
 40
5
 41
1
 50
11.314514464155938
  1
水切巾　現場合わせ
  0
POINT
  8
_0-1_Defpoints
 62
    7
 10
434.53962307871154
 20
-121.65712374797599
  0
POINT
  8
_0-1_Defpoints
 62
    7
 10
459.04336307871165
 20
-116.75433774797621
  0
POINT
  8
_0-1_Defpoints
 62
    7
 10
457.42534060179139
 20
-108.66758827765209
  0
ENDBLK
  0
BLOCK
  2
-013-_D16
 70
   64
 10
0
 20
0
 30
0
  0
LINE
  8
_0-2_寸法
  6
CONTINUOUS
 62
    4
 10
395.9943170787115
 20
-130.51619174797611
 11
376.70478926106898
 21
-134.37409865975519
  0
LINE
  8
_0-2_寸法
  6
CONTINUOUS
 62
    4
 10
398.28344907871099
 20
-141.96184774797609
 11
378.99392126106852
 21
-145.81975465975529
  0
LINE
  8
_0-2_寸法
  6
CONTINUOUS
 62
    4
 10
376.68517764096498
 20
-134.27604059350421
 11
376.66556602086087
 21
-134.17798252725311
  0
LINE
  8
_0-2_寸法
  6
CONTINUOUS
 62
    4
 10
379.01353288117247
 20
-145.9178127260063
 11
379.03314450127652
 21
-146.0158707922574
  0
INSERT
  2
-000-_Dot
  8
_0-2_寸法
 10
376.70478926106898
 20
-134.37409865975519
 41
1
 42
1
 50
281.30993632470802
  0
INSERT
  2
-000-_Dot
  8
_0-2_寸法
 10
378.99392126106852
 20
-145.81975465975529
 41
1
 42
1
 50
101.309936324708
  0
TEXT
  8
_0-2_寸法
 62
    7
 10
376.45693020626771
 20
-132.7268823948433
 40
5
 41
1
 50
-78.690063675292322
  1
屋根高
  0
POINT
  8
_0-1_Defpoints
 62
    7
 10
395.9943170787115
 20
-130.51619174797611
  0
POINT
  8
_0-1_Defpoints
 62
    7
 10
398.28344907871099
 20
-141.96184774797609
  0
POINT
  8
_0-1_Defpoints
 62
    7
 10
378.99392126106852
 20
-145.81975465975529
  0
ENDBLK
  0
BLOCK
  2
-014-_D17
 70
   64
 10
0
 20
0
 30
0
  0
LINE
  8
_0-2_寸法
  6
CONTINUOUS
 62
    4
 10
577.21085253000319
 20
-123.5151600141655
 11
583.09291173870997
 21
-124.69157139861379
  0
LINE
  8
_0-2_寸法
  6
CONTINUOUS
 62
    4
 10
575.64192408580027
 20
-131.3598052845384
 11
581.52398329450705
 21
-132.5362166689867
  0
LINE
  8
_0-2_寸法
  6
CONTINUOUS
 62
    4
 10
583.11252334489359
 20
-124.5935133295787
 11
583.13213495107732
 21
-124.49545526054351
  0
LINE
  8
_0-2_寸法
  6
CONTINUOUS
 62
    4
 10
581.50437168832343
 20
-132.63427473802182
 11
581.48476008213981
 21
-132.73233280705699
  0
INSERT
  2
-000-_Dot
  8
_0-2_寸法
 10
583.09291173870997
 20
-124.69157139861379
 41
1
 42
1
 50
258.69007180904271
  0
INSERT
  2
-000-_Dot
  8
_0-2_寸法
 10
581.52398329450705
 20
-132.5362166689867
 41
1
 42
1
 50
78.69007180904272
  0
TEXT
  8
_0-2_寸法
 62
    7
 10
579.7785502884268
 20
-140.85546337824451
 40
5
 41
1
 50
78.690071809043786
  1
現場合わせ
  0
POINT
  8
_0-1_Defpoints
 62
    7
 10
577.21085253000319
 20
-123.5151600141655
  0
POINT
  8
_0-1_Defpoints
 62
    7
 10
575.64192408580027
 20
-131.3598052845384
  0
POINT
  8
_0-1_Defpoints
 62
    7
 10
581.52398329450705
 20
-132.5362166689867
  0
ENDBLK
  0
ENDSEC
  0
SECTION
  2
ENTITIES
  0
LINE
  8
_0-3_躯体と製品
  6
CONTINUOUS
 62
    3
 10
418.79289000000699
 20
533.58738000000062
 11
491.79289000000881
 21
448.58738000000153
  0
TEXT
  8
_0-4_図面枠
 62
    7
 10
342.23939000000701
 20
-2077.0631800000006
 40
60
 41
0.8000000000000001
 50
0
  1
　１５０
  0
LINE
  8
_0-4_図面枠
  6
CONTINUOUS
 62
    3
 10
-1074.2289699999919
 20
-1956.8850799999982
 11
1296.1696300000076
 21
-1956.8850799999982
  0
LINE
  8
_0-4_図面枠
  6
CONTINUOUS
 62
    4
 10
-1074.2289699999919
 20
-2106.8850799999996
 11
1296.1696300000076
 21
-2106.8850799999996
  0
TEXT
  8
_0-4_図面枠
 62
    7
 10
342.23939000000701
 20
-1927.0631200000003
 40
60
 41
0.8000000000000001
 50
0
  1
　１５０
  0
LINE
  8
_0-4_図面枠
  6
CONTINUOUS
 62
    4
 10
1296.1696300000076
 20
-1056.8850799999996
 11
-1074.2289699999919
 21
-1056.8850799999996
  0
LINE
  8
_0-4_図面枠
  6
CONTINUOUS
 62
    3
 10
-1074.2289699999919
 20
-1206.8850799999996
 11
1296.1696300000076
 21
-1206.8850799999996
  0
LINE
  8
_0-4_図面枠
  6
CONTINUOUS
 62
    3
 10
-1074.2289699999919
 20
-1196.8850799999996
 11
1296.1696300000076
 21
-1196.8850799999996
  0
TEXT
  8
_0-4_図面枠
 62
    7
 10
323.58827000000838
 20
-1769.9528199999986
 40
60
 41
0.8000000000000001
 50
0
  1
　１５０
  0
LINE
  8
_0-4_図面枠
  6
CONTINUOUS
 62
    3
 10
-1074.2289699999919
 20
-1356.8850799999996
 11
1296.1696300000076
 21
-1356.8850799999996
  0
LINE
  8
_0-4_図面枠
  6
CONTINUOUS
 62
    3
 10
-1074.2289699999919
 20
-1506.8850799999996
 11
1296.1696300000076
 21
-1506.8850799999996
  0
LINE
  8
_0-4_図面枠
  6
CONTINUOUS
 62
    3
 10
-1074.2289699999919
 20
-1656.8850799999996
 11
1296.1696300000076
 21
-1656.8850799999996
  0
LINE
  8
_0-4_図面枠
  6
CONTINUOUS
 62
    3
 10
-1074.2289699999919
 20
-1806.8850799999996
 11
1296.1696300000076
 21
-1806.8850799999996
  0
TEXT
  8
_0-4_図面枠
 62
    7
 10
323.58827000000838
 20
-1619.9529000000002
 40
60
 41
0.8000000000000001
 50
0
  1
　１５０
  0
TEXT
  8
_0-4_図面枠
 62
    7
 10
323.58827000000838
 20
-1469.9529000000002
 40
60
 41
0.8000000000000001
 50
0
  1
　１５０
  0
TEXT
  8
_0-4_図面枠
 62
    7
 10
323.58827000000838
 20
-1319.9528199999986
 40
60
 41
0.8000000000000001
 50
0
  1
　１５０
  0
LINE
  8
_0-4_図面枠
  6
CONTINUOUS
 62
    7
 10
-3451.1666699999946
 20
-2372.9999999999995
 11
4292.1666699999951
 21
-2372.9999999999995
  0
LINE
  8
_0-4_図面枠
  6
CONTINUOUS
 62
    7
 10
-3451.1666699999946
 20
2633.6666600000012
 11
4292.1666699999951
 21
2633.6666600000012
  0
LINE
  8
_0-4_図面枠
  6
CONTINUOUS
 62
    7
 10
-3451.1666699999946
 20
2966.9999999999995
 11
4292.1666699999951
 21
2966.9999999999995
  0
TEXT
  8
_0-4_図面枠
 62
    7
 10
-1338.6649899999902
 20
2715.2788000000005
 40
200
 41
0.8
 50
0
  1
連続式ベンチレーター　排煙ＨＬ型　　施工図
  0
LINE
  8
_0-3_躯体と製品
  6
CONTINUOUS
 62
    4
 10
-1616.6417299999939
 20
386.14408000000162
 11
-1596.701089999995
 21
286.44090000000051
  0
LINE
  8
_0-3_躯体と製品
  6
PLINE5
 62
    4
 10
-1639.8466499999931
 20
277.81179999999949
 11
-1660.6417299999948
 21
381.78722000000153
  0
LINE
  8
_0-3_躯体と製品
  6
CONTINUOUS
 62
    3
 10
-1669.0679499999915
 20
378.02714000000151
 11
-1649.2602299999926
 21
278.98850000000061
  0
LINE
  8
_0-3_躯体と製品
  6
CONTINUOUS
 62
    3
 10
-746.73594999999568
 20
394.92730000000165
 11
22.610090000006494
 21
241.05810000000065
  0
LINE
  8
_0-3_躯体と製品
  6
CONTINUOUS
 62
    3
 10
-1216.6417299999939
 20
486.86885999999959
 11
22.217850000009093
 21
239.0969400000015
  0
LINE
  8
_0-3_躯体と製品
  6
CONTINUOUS
 62
    3
 10
-1667.2300899999918
 20
398.79079999999954
 11
-2267.2892299999949
 21
278.77895999999964
  0
LINE
  8
_0-3_躯体と製品
  6
CONTINUOUS
 62
    3
 10
-1666.8378499999944
 20
396.82964000000152
 11
-2266.8970099999947
 21
276.81780000000163
  0
LINE
  8
_0-3_躯体と製品
  6
CONTINUOUS
 62
    4
 10
-1666.6417299999939
 20
381.19312000000059
 11
-1645.7301299999945
 21
276.63510000000156
  0
LINE
  8
_0-4_図面枠
  6
CONTINUOUS
 62
    3
 10
-1880.2778499999959
 20
463.48574000000167
 11
-2086.067429999991
 21
107.04774000000066
  0
LINE
  8
_0-3_躯体と製品
  6
PLINE4
 62
    4
 10
-2262.711669999992
 20
262.35779999999954
 11
-1715.7435899999946
 21
371.75142000000051
  0
LINE
  8
_0-3_躯体と製品
  6
CONTINUOUS
 62
    3
 10
-764.21550999999181
 20
378.02714000000151
 11
-784.02324999999291
 21
278.98850000000061
  0
LINE
  8
_0-3_躯体と製品
  6
CONTINUOUS
 62
    3
 10
-766.64172999999391
 20
381.19312000000059
 11
-787.55332999999337
 21
276.63510000000156
  0
LINE
  8
_0-3_躯体と製品
  6
CONTINUOUS
 62
    4
 10
-816.64172999999482
 20
386.14408000000162
 11
-836.58236999999372
 21
286.44090000000051
  0
LINE
  8
_0-3_躯体と製品
  6
PLINE2
 62
    4
 10
-772.51108999999087
 20
382.44048000000066
 11
-793.43680999999197
 21
277.81179999999949
  0
LINE
  8
_0-3_躯体と製品
  6
PLINE4
 62
    4
 10
19.276110000007975
 20
224.38824000000068
 11
-717.53986999999415
 21
371.75142000000051
  0
LINE
  8
_0-4_図面枠
  6
CONTINUOUS
 62
    3
 10
-1826.6239699999942
 20
486.89176000000157
 11
-2108.5333499999906
 21
-1.3896399999994173
  0
LINE
  8
_0-4_図面枠
  6
CONTINUOUS
 62
    3
 10
-1694.7422499999921
 20
465.4796800000006
 11
-2097.2013699999907
 21
-231.59997999999837
  0
LINE
  8
_0-4_図面枠
  6
CONTINUOUS
 62
    3
 10
-1807.6128499999932
 20
386.47408000000064
 11
-2108.5628299999935
 21
-134.78659999999945
  0
LINE
  8
_0-4_図面枠
  6
CONTINUOUS
 62
    7
 10
-3451.1666699999946
 20
2966.9999999999995
 11
-3451.1666699999946
 21
-2372.9999999999995
  0
LINE
  8
_0-4_図面枠
  6
CONTINUOUS
 62
    3
 10
-1652.5685899999935
 20
284.92006000000151
 11
-2017.1753299999928
 21
-346.59731999999849
  0
TEXT
  8
_0-4_図面枠
 62
    7
 10
-2495.7630699999872
 20
-124.78672757915547
 40
60.000000000000007
 41
0.7999999999999998
 50
0.0000100000010064
  1
タイトフレーム
  0
TEXT
  8
_0-4_図面枠
 62
    7
 10
-2487.6007499999887
 20
-221.60006813766131
 40
60.000000000000007
 41
0.8000000000000008
 50
0.0000100000010064
  1
止めメンド処理
  0
LINE
  8
_0-4_図面枠
  6
CONTINUOUS
 62
    3
 10
-2097.2013699999907
 20
-231.59997999999837
 11
-2470.973149999993
 21
-231.59997999999837
  0
LINE
  8
_0-4_図面枠
  6
CONTINUOUS
 62
    3
 10
-2108.5628299999935
 20
-134.78659999999945
 11
-2468.1892099999936
 21
-134.78659999999945
  0
TEXT
  8
_0-4_図面枠
 62
    7
 10
-2173.9757299999897
 20
-336.59744736676544
 40
60.000000000000007
 41
0.7999999999999998
 50
0.0000100000010064
  1
添母屋
  0
LINE
  8
_0-4_図面枠
  6
CONTINUOUS
 62
    3
 10
-2017.1753299999928
 20
-346.59731999999849
 11
-2197.2490699999908
 21
-346.59731999999849
  0
LINE
  8
_0-4_図面枠
  6
CONTINUOUS
 62
    3
 10
-2086.067429999991
 20
107.04774000000066
 11
-2316.0008699999908
 21
107.04774000000066
  0
LINE
  8
_0-4_図面枠
  6
CONTINUOUS
 62
    3
 10
-2108.5333499999906
 20
-1.3896399999994173
 11
-2301.1532299999926
 21
-1.3896399999994173
  0
TEXT
  8
_0-4_図面枠
 62
    7
 10
-2268.5331499999888
 20
8.6103920747295888
 40
60.000000000000007
 41
0.7999999999999998
 50
0.0000100000010064
  1
水切板
  0
TEXT
  8
_0-4_図面枠
 62
    7
 10
-2297.2668699999904
 20
117.04772313864257
 40
60.000000000000007
 41
0.8000000000000008
 50
0.0000100000010064
  1
エプロン
  0
LINE
  8
_0-4_図面枠
  6
CONTINUOUS
 62
    4
 10
-1074.2289699999919
 20
-1056.8850799999996
 11
-1074.2289699999919
 21
-1806.8850799999996
  0
LINE
  8
_0-4_図面枠
  6
CONTINUOUS
 62
    3
 10
-419.09392999999181
 20
-1056.8850799999996
 11
-419.09392999999181
 21
-1806.8850799999996
  0
LINE
  8
_0-4_図面枠
  6
CONTINUOUS
 62
    3
 10
-78.525509999993119
 20
-1056.8850799999996
 11
-78.525509999993119
 21
-1806.8850799999996
  0
LINE
  8
_0-4_図面枠
  6
CONTINUOUS
 62
    3
 10
321.47449000000688
 20
-1056.8850799999996
 11
321.47449000000688
 21
-1806.8850799999996
  0
TEXT
  8
_0-4_図面枠
 62
    7
 10
-988.97030999999242
 20
-2088.4730999999983
 40
60
 41
0.7999999999999999
 50
0
  1
ＳＣ２０００
  0
TEXT
  8
_0-4_図面枠
 62
    7
 10
-990.65182999999433
 20
-1939.6610999999984
 40
60
 41
0.7999999999999999
 50
0
  1
ＳＣ１５００
  0
TEXT
  8
_0-4_図面枠
 62
    7
 10
-988.97030999999242
 20
-1788.4731799999986
 40
60
 41
0.7999999999999999
 50
0
  1
ＳＣ１２００
  0
TEXT
  8
_0-4_図面枠
 62
    7
 10
-990.65182999999433
 20
-1639.6611400000006
 40
60
 41
0.7999999999999999
 50
0
  1
ＳＣ１０００
  0
TEXT
  8
_0-4_図面枠
 62
    7
 10
-999.05942999998933
 20
-1493.3711799999992
 40
60
 41
0.7999999999999999
 50
0
  1
ＳＣ　９００
  0
LINE
  8
_0-4_図面枠
  6
CONTINUOUS
 62
    4
 10
-1074.2289699999919
 20
-1806.8850799999996
 11
-1074.2289699999919
 21
-2106.8850799999996
  0
TEXT
  8
_0-4_図面枠
 62
    7
 10
-393.16708999999355
 20
-1918.5927999999985
 40
60
 41
0.8
 50
0
  1
１５００
  0
TEXT
  8
_0-4_図面枠
 62
    7
 10
-384.76010999999471
 20
-2080.0159199999985
 40
60
 41
0.8
 50
0
  1
２０００
  0
TEXT
  8
_0-4_図面枠
 62
    7
 10
-383.91904999999315
 20
-1472.3027400000005
 40
60
 41
0.8000000000000003
 50
0
  1
　９００
  0
TEXT
  8
_0-4_図面枠
 62
    7
 10
-393.16708999999355
 20
-1618.5927199999992
 40
60
 41
0.8
 50
0
  1
１０００
  0
TEXT
  8
_0-4_図面枠
 62
    7
 10
-384.76072999998996
 20
-1780.0161399999993
 40
60
 41
0.8
 50
0
  1
１２００
  0
TEXT
  8
_0-4_図面枠
 62
    7
 10
-578.72372999999334
 20
-1937.5512400000002
 40
60
 41
0.7999999999999996
 50
0
  1
ＨＬ
  0
TEXT
  8
_0-4_図面枠
 62
    7
 10
-578.72372999999334
 20
-2087.5513199999996
 40
60
 41
0.7999999999999996
 50
0
  1
ＨＬ
  0
LINE
  8
_0-4_図面枠
  6
CONTINUOUS
 62
    3
 10
-419.09392999999181
 20
-1806.8850799999996
 11
-419.09392999999181
 21
-2106.8850799999996
  0
TEXT
  8
_0-4_図面枠
 62
    7
 10
-578.72434999999587
 20
-1487.5513199999996
 40
60
 41
0.8000000000000006
 50
0
  1
ＨＬ
  0
TEXT
  8
_0-4_図面枠
 62
    7
 10
-578.72434999999587
 20
-1637.5513199999996
 40
60
 41
0.8000000000000006
 50
0
  1
ＨＬ
  0
TEXT
  8
_0-4_図面枠
 62
    7
 10
-578.72434999999587
 20
-1787.5513200000005
 40
60
 41
0.8000000000000006
 50
0
  1
ＨＬ
  0
TEXT
  8
_0-4_図面枠
 62
    7
 10
12.014790000005632
 20
-1918.1852400000002
 40
60
 41
0.8000000000000001
 50
0
  1
１５６０
  0
TEXT
  8
_0-4_図面枠
 62
    7
 10
7.7569700000085504
 20
-2078.3418800000004
 40
60
 41
0.8000000000000002
 50
0
  1
１９９０
  0
LINE
  8
_0-4_図面枠
  6
CONTINUOUS
 62
    3
 10
-78.525509999993119
 20
-1806.8850799999996
 11
-78.525509999993119
 21
-2106.8850799999996
  0
LINE
  8
_0-4_図面枠
  6
CONTINUOUS
 62
    3
 10
321.47449000000688
 20
-1806.8850799999996
 11
321.47449000000688
 21
-2106.8850799999996
  0
TEXT
  8
_0-4_図面枠
 62
    7
 10
7.3315500000062457
 20
-1480.3378799999996
 40
60
 41
0.8000000000000001
 50
0
  1
　９２０
  0
TEXT
  8
_0-4_図面枠
 62
    7
 10
12.014170000009472
 20
-1618.1850199999985
 40
60
 41
0.8000000000000001
 50
0
  1
１０１０
  0
TEXT
  8
_0-4_図面枠
 62
    7
 10
7.7575900000083493
 20
-1778.3418000000006
 40
60
 41
0.8000000000000001
 50
0
  1
１２６０
  0
LINE
  8
_0-3_躯体と製品
  6
CONTINUOUS
 62
    3
 10
-738.52430999999615
 20
266.82929999999965
 11
-787.55332999999337
 21
276.63510000000156
  0
LINE
  8
_0-3_躯体と製品
  6
CONTINUOUS
 62
    3
 10
-740.87768999999116
 20
270.35937999999965
 11
-784.02324999999291
 21
278.98850000000061
  0
TEXT
  8
_0-4_図面枠
 62
    7
 10
-977.34616999999344
 20
-1177.4765399999992
 40
60
 41
0.8
 50
0
  1
型　　式
  0
TEXT
  8
_0-4_図面枠
 62
    7
 10
-1004.1039899999905
 20
-1335.3110999999994
 40
60
 41
0.7999999999999999
 50
0
  1
ＳＣ　７５０
  0
LINE
  8
_0-3_躯体と製品
  6
CONTINUOUS
 62
    3
 10
-1694.7591699999948
 20
266.82929999999965
 11
-1645.7301299999945
 21
276.63510000000156
  0
LINE
  8
_0-3_躯体と製品
  6
CONTINUOUS
 62
    3
 10
-1692.4057699999939
 20
270.35937999999965
 11
-1649.2602299999926
 21
278.98850000000061
  0
LINE
  8
_0-3_躯体と製品
  6
CONTINUOUS
 62
    3
 10
-1698.6814899999927
 20
286.44090000000051
 11
-1694.7591699999948
 21
266.82929999999965
  0
LINE
  8
_0-3_躯体と製品
  6
CONTINUOUS
 62
    3
 10
-1695.7397499999961
 20
287.02926000000161
 11
-1692.4057699999939
 21
270.35937999999965
  0
LINE
  8
_0-3_躯体と製品
  6
CONTINUOUS
 62
    3
 10
-1698.6814899999927
 20
286.44090000000051
 11
-1695.7397499999961
 21
287.02926000000161
  0
LINE
  8
_0-3_躯体と製品
  6
CONTINUOUS
 62
    4
 10
-1645.7301299999945
 20
276.63510000000156
 11
-1596.701089999995
 21
286.44090000000051
  0
LINE
  8
_0-4_図面枠
  6
CONTINUOUS
 62
    3
 10
-1652.5685899999935
 20
284.92006000000151
 11
-1663.9083299999929
 21
245.27904000000058
  0
LINE
  8
_0-3_躯体と製品
  6
CONTINUOUS
 62
    4
 10
-787.55332999999337
 20
276.63510000000156
 11
-836.58236999999372
 21
286.44090000000051
  0
TEXT
  8
_0-4_図面枠
 62
    7
 10
-377.19296999999278
 20
-1329.3760399999992
 40
60
 41
0.8
 50
0
  1
　７５０
  0
TEXT
  8
_0-4_図面枠
 62
    7
 10
-578.72434999999587
 20
-1337.5512399999993
 40
60
 41
0.8000000000000006
 50
0
  1
ＨＬ
  0
TEXT
  8
_0-4_図面枠
 62
    7
 10
-296.22312999999212
 20
-1168.5483200000003
 40
60
 41
0.8000000000000006
 50
0
  1
Ａ
  0
TEXT
  8
_0-4_図面枠
 62
    7
 10
4.7992100000083155
 20
-1333.2929599999993
 40
60
 41
0.8000000000000001
 50
0
  1
　７７０
  0
TEXT
  8
_0-4_図面枠
 62
    7
 10
104.87001000000691
 20
-1173.3417199999994
 40
60
 41
0.8
 50
0
  1
Ｉ
  0
LINE
  8
_0-3_躯体と製品
  6
CONTINUOUS
 62
    3
 10
-734.60196999999062
 20
286.44090000000051
 11
-738.52430999999615
 21
266.82929999999965
  0
LINE
  8
_0-3_躯体と製品
  6
CONTINUOUS
 62
    3
 10
-737.54372999998941
 20
287.02926000000161
 11
-740.87768999999116
 21
270.35937999999965
  0
LINE
  8
_0-3_躯体と製品
  6
CONTINUOUS
 62
    3
 10
-734.60196999999062
 20
286.44090000000051
 11
-737.54372999998941
 21
287.02926000000161
  0
LINE
  8
_0-3_躯体と製品
  6
CONTINUOUS
 62
    7
 10
-2076.6417299999939
 20
1364.5873800000002
 11
-1856.4415499999932
 21
1584.5873800000002
  0
LINE
  8
_0-3_躯体と製品
  6
PLINE5
 62
    4
 10
-1216.6417299999939
 20
1590.5873800000004
 11
-2296.6417299999939
 21
1590.5873800000004
  0
LINE
  8
_0-3_躯体と製品
  6
CONTINUOUS
 62
    4
 10
-2296.6417299999939
 20
1614.5873800000002
 11
-1216.6417299999939
 21
1614.5873800000002
  0
LINE
  8
_0-3_躯体と製品
  6
PLINE5
 62
    4
 10
-1897.7377899999938
 20
1358.5873799999999
 11
-2411.6084099999916
 21
1358.5873799999999
  0
LINE
  8
_0-3_躯体と製品
  6
PLINE5
 62
    4
 10
-1892.3352699999914
 20
1314.5873800000002
 11
-2386.2050099999919
 21
1314.5873800000002
  0
LINE
  8
_0-3_躯体と製品
  6
CONTINUOUS
 62
    4
 10
-1898.4744899999914
 20
1364.5873800000002
 11
-2415.0725099999936
 21
1364.5873800000002
  0
LINE
  8
_0-3_躯体と製品
  6
CONTINUOUS
 62
    4
 10
-1216.6417299999939
 20
1584.5873800000002
 11
-2296.6417299999939
 21
1584.5873800000002
  0
LINE
  8
_0-3_躯体と製品
  6
CONTINUOUS
 62
    7
 10
-1756.6417299999939
 20
727.23981999999955
 11
-2256.2214899999908
 21
1077.0493400000007
  0
LINE
  8
_0-3_躯体と製品
  6
PLINE5
 62
    4
 10
-1676.6417299999948
 20
678.91410000000064
 11
-2251.657689999995
 21
1081.5446200000006
  0
LINE
  8
_0-3_躯体と製品
  6
CONTINUOUS
 62
    4
 10
-2225.981649999992
 20
1105.0723800000001
 11
-1676.6417299999948
 21
720.42044000000021
  0
LINE
  8
_0-3_躯体と製品
  6
CONTINUOUS
 62
    4
 10
-2256.1887699999916
 20
1077.3926600000002
 11
-1676.6417299999948
 21
671.5894600000006
  0
LINE
  8
_0-3_躯体と製品
  6
CONTINUOUS
 62
    3
 10
-1666.6417299999939
 20
514.58738000000062
 11
-2291.0238099999938
 21
391.0298800000005
  0
LINE
  8
_0-3_躯体と製品
  6
CONTINUOUS
 62
    3
 10
-1713.9057299999949
 20
479.19842000000062
 11
-2284.5474499999937
 21
365.07006000000069
  0
LINE
  8
_0-3_躯体と製品
  6
CONTINUOUS
 62
    7
 10
-2456.8916699999927
 20
1424.6202800000001
 11
-2249.4778099999917
 21
1065.3689600000005
  0
LINE
  8
_0-3_躯体と製品
  6
CONTINUOUS
 62
    4
 10
-2456.6417299999939
 20
1424.5873800000002
 11
-2256.1887699999916
 21
1077.3926600000002
  0
LINE
  8
_0-3_躯体と製品
  6
PLINE5
 62
    4
 10
-2251.657689999995
 20
1081.5446200000006
 11
-2449.1435899999919
 21
1423.6002400000004
  0
LINE
  8
_0-3_躯体と製品
  6
CONTINUOUS
 62
    4
 10
-2406.6541699999948
 20
1418.0064000000002
 11
-2225.981649999992
 21
1105.0723800000001
  0
LINE
  8
_0-3_躯体と製品
  6
CONTINUOUS
 62
    3
 10
-2293.5654299999919
 20
1112.1309399999993
 11
-2267.5846699999938
 21
1127.1309399999993
  0
LINE
  8
_0-3_躯体と製品
  6
CONTINUOUS
 62
    3
 10
-1998.1314099999936
 20
915.0105600000004
 11
-2015.3386899999905
 21
890.43599999999947
  0
LINE
  8
_0-3_躯体と製品
  6
CONTINUOUS
 62
    7
 10
-2249.4778099999917
 20
1065.3689600000005
 11
-2226.8641499999949
 21
1049.5347000000002
  0
LINE
  8
_0-3_躯体と製品
  6
CONTINUOUS
 62
    3
 10
-2198.823649999993
 20
1055.5367999999996
 11
-2216.0309499999926
 21
1030.962240000001
  0
LINE
  8
_0-3_躯体と製品
  6
CONTINUOUS
 62
    3
 10
-2223.3467699999906
 20
1599.5873800000002
 11
-2223.3467699999906
 21
1569.5873800000002
  0
LINE
  8
_0-3_躯体と製品
  6
CONTINUOUS
 62
    3
 10
-2061.4415499999932
 20
1599.5873800000002
 11
-2061.4415499999932
 21
1569.5873800000002
  0
LINE
  8
_0-3_躯体と製品
  6
CONTINUOUS
 62
    4
 10
-2296.6417299999939
 20
1614.5873800000002
 11
-2296.6417299999939
 21
1584.5873800000002
  0
LINE
  8
_0-3_躯体と製品
  6
CONTINUOUS
 62
    4
 10
-2293.8761699999918
 20
1570.3823800000007
 11
-2285.6711699999937
 21
1578.5873799999999
  0
LINE
  8
_0-3_躯体と製品
  6
CONTINUOUS
 62
    7
 10
-2076.4417299999941
 20
1584.78738
 11
-2296.6417299999939
 21
1364.5873800000002
  0
LINE
  8
_0-3_躯体と製品
  6
CONTINUOUS
 62
    7
 10
-2296.7245699999939
 20
1584.78738
 11
-2246.6417299999939
 21
1584.78738
  0
LINE
  8
_0-3_躯体と製品
  6
PLINE5
 62
    4
 10
-2449.1435899999919
 20
1423.6002400000004
 11
-2288.1564499999936
 21
1584.5873800000002
  0
LINE
  8
_0-3_躯体と製品
  6
CONTINUOUS
 62
    4
 10
-2268.3574699999936
 20
1556.3031199999998
 11
-2406.6541699999948
 21
1418.0064000000002
  0
LINE
  8
_0-3_躯体と製品
  6
CONTINUOUS
 62
    4
 10
-2296.6417299999939
 20
1584.5873800000002
 11
-2268.3574699999936
 21
1556.3031199999998
  0
LINE
  8
_0-3_躯体と製品
  6
CONTINUOUS
 62
    3
 10
-2444.4589099999916
 20
1373.4861199999998
 11
-2418.478149999994
 21
1388.48612
  0
LINE
  8
_0-3_躯体と製品
  6
CONTINUOUS
 62
    3
 10
-2385.6943699999938
 20
1341.7029599999998
 11
-2378.6943699999906
 21
1329.5785999999998
  0
LINE
  8
_0-3_躯体と製品
  6
CONTINUOUS
 62
    3
 10
-2388.2565499999937
 20
1332.1407799999995
 11
-2376.1321899999916
 21
1339.1407799999999
  0
LINE
  8
_0-3_躯体と製品
  6
CONTINUOUS
 62
    3
 10
-2311.6417299999939
 20
1379.7873800000002
 11
-2311.6417299999939
 21
1349.78738
  0
LINE
  8
_0-3_躯体と製品
  6
CONTINUOUS
 62
    7
 10
-2326.6417299999939
 20
1364.78738
 11
-2296.6417299999939
 21
1364.78738
  0
LINE
  8
_0-3_躯体と製品
  6
CONTINUOUS
 62
    7
 10
-2326.6417299999939
 20
1364.5873800000002
 11
-2296.6417299999939
 21
1364.5873800000002
  0
LINE
  8
_0-3_躯体と製品
  6
CONTINUOUS
 62
    7
 10
-2296.7245699999939
 20
1584.78738
 11
-2456.8916699999927
 21
1424.6202800000001
  0
LINE
  8
_0-3_躯体と製品
  6
CONTINUOUS
 62
    4
 10
-2296.6417299999939
 20
1584.5873800000002
 11
-2456.6417299999939
 21
1424.5873800000002
  0
LINE
  8
_0-3_躯体と製品
  6
CONTINUOUS
 62
    3
 10
-2342.8865099999916
 20
1559.8386400000002
 11
-2321.6733099999938
 21
1538.6254400000005
  0
LINE
  8
_0-3_躯体と製品
  6
CONTINUOUS
 62
    4
 10
-2309.5110699999909
 20
1554.7474800000007
 11
-2302.6662899999947
 21
1561.5922599999997
  0
LINE
  8
_0-3_躯体と製品
  6
CONTINUOUS
 62
    4
 10
-2313.7537099999936
 20
1558.9901200000006
 11
-2309.5110699999909
 21
1554.7474800000007
  0
LINE
  8
_0-3_躯体と製品
  6
CONTINUOUS
 62
    3
 10
-2091.4415499999932
 20
1379.7873800000002
 11
-2091.4415499999932
 21
1349.78738
  0
LINE
  8
_0-3_躯体と製品
  6
CONTINUOUS
 62
    7
 10
-2106.4415499999932
 20
1364.78738
 11
-2076.4417299999941
 21
1364.78738
  0
LINE
  8
_0-3_躯体と製品
  6
CONTINUOUS
 62
    7
 10
-2106.4415499999932
 20
1364.5873800000002
 11
-2076.6417299999939
 21
1364.5873800000002
  0
LINE
  8
_0-3_躯体と製品
  6
CONTINUOUS
 62
    4
 10
-2196.6417299999948
 20
1578.5873799999999
 11
-2285.6711699999937
 21
1578.5873799999999
  0
LINE
  8
_0-3_躯体と製品
  6
CONTINUOUS
 62
    4
 10
-2196.6417299999948
 20
1584.5873800000002
 11
-2196.6417299999948
 21
1578.5873799999999
  0
LINE
  8
_0-3_躯体と製品
  6
CONTINUOUS
 62
    7
 10
-2076.6417299999939
 20
1584.3873800000003
 11
-2046.6417299999939
 21
1584.3873800000003
  0
LINE
  8
_0-3_躯体と製品
  6
CONTINUOUS
 62
    7
 10
-2076.6417299999939
 20
1584.5873800000002
 11
-2046.6417299999939
 21
1584.5873800000002
  0
LINE
  8
_0-4_図面枠
  6
CONTINUOUS
 62
    3
 10
-2117.8333299999904
 20
2800.3333399999997
 11
-3451.1666699999946
 21
2800.3333399999997
  0
TEXT
  8
_0-4_図面枠
 62
    7
 10
-3259.9878699999927
 20
2678.2521399999996
 40
60
 41
0.8000000000000006
 50
0
  1
縮　　尺
  0
TEXT
  8
_0-4_図面枠
 62
    7
 10
-3294.8180699999939
 20
2835.8519199999996
 40
60
 41
0.8000000000000001
 50
0
  1
ファイル名
  0
TEXT
  8
_0-4_図面枠
 62
    7
 10
-2658.4876099999947
 20
2839.7441399999998
 40
60
 41
0.7999999999999999
 50
0
  1
ＭＯＮ００９
  0
LINE
  8
_0-4_図面枠
  6
CONTINUOUS
 62
    7
 10
-2117.8333299999904
 20
2966.9999999999995
 11
-2117.8333299999904
 21
2633.6666600000012
  0
LINE
  8
_0-4_図面枠
  6
CONTINUOUS
 62
    3
 10
-2784.5000099999938
 20
2966.9999999999995
 11
-2784.5000099999938
 21
2633.6666600000012
  0
TEXT
  8
_0-4_図面枠
 62
    7
 10
-2656.6694499999926
 20
2675.0441199999996
 40
60
 41
0.7999999999999999
 50
0
  1
Ｓ　１：２０
  0
TEXT
  8
_0-4_図面枠
 62
    7
 10
-3201.0829699999958
 20
2434.2875999999997
 40
60
 41
0.7999999999999999
 50
0
  1
図中は、ＳＣ－９００ＨＬ型
  0
LINE
  8
_0-3_躯体と製品
  6
PLINE5
 62
    4
 10
-1216.6417299999939
 20
1534.5873800000002
 11
-534.80896999999186
 21
1364.5873800000002
  0
LINE
  8
_0-3_躯体と製品
  6
PLINE5
 62
    4
 10
-1216.6417299999939
 20
1590.5873800000004
 11
-136.64172999999391
 21
1590.5873800000004
  0
LINE
  8
_0-3_躯体と製品
  6
CONTINUOUS
 62
    4
 10
-136.64172999999391
 20
1614.5873800000002
 11
-1216.6417299999939
 21
1614.5873800000002
  0
LINE
  8
_0-3_躯体と製品
  6
PLINE5
 62
    4
 10
-1216.6417299999939
 20
1528.403700000001
 11
-535.54568999999174
 21
1358.5873799999999
  0
LINE
  8
_0-3_躯体と製品
  6
PLINE5
 62
    4
 10
-1216.6417299999939
 20
1483.0567000000005
 11
-540.94820999999411
 21
1314.5873800000002
  0
LINE
  8
_0-3_躯体と製品
  6
CONTINUOUS
 62
    4
 10
-1216.6417299999939
 20
1584.5873800000002
 11
-136.64172999999391
 21
1584.5873800000002
  0
LINE
  8
_0-3_躯体と製品
  6
CONTINUOUS
 62
    3
 10
-1216.6417299999939
 20
523.5817999999997
 11
-537.18584999999348
 21
387.69062000000054
  0
LINE
  8
_0-3_躯体と製品
  6
CONTINUOUS
 62
    3
 10
-1216.6417299999939
 20
607.20572000000061
 11
-765.4601499999917
 21
516.96940000000063
  0
LINE
  8
_0-3_躯体と製品
  6
CONTINUOUS
 62
    3
 10
-1216.6417299999939
 20
488.90846000000056
 11
-746.73594999999568
 21
394.92730000000165
  0
LINE
  8
_0-3_躯体と製品
  6
PLINE2
 62
    3
 10
-1216.6417299999939
 20
605.16610000000151
 11
-521.5696099999941
 21
466.15168000000062
  0
LINE
  8
_0-3_躯体と製品
  6
PLINE2
 62
    3
 10
-1216.6417299999939
 20
578.6512000000007
 11
-526.77694999999221
 21
440.67825999999968
  0
LINE
  8
_0-3_躯体と製品
  6
CONTINUOUS
 62
    4
 10
-1616.6417299999939
 20
1428.6725000000001
 11
-1616.6417299999939
 21
386.14408000000162
  0
LINE
  8
_0-3_躯体と製品
  6
CONTINUOUS
 62
    7
 10
-1682.155509999996
 20
1244.8123200000007
 11
-1820.043449999991
 21
1129.1106000000011
  0
LINE
  8
_0-3_躯体と製品
  6
CONTINUOUS
 62
    4
 10
-1666.6417299999939
 20
1249.6058600000001
 11
-1791.843669999992
 21
1144.5489599999994
  0
LINE
  8
_0-3_躯体と製品
  6
CONTINUOUS
 62
    4
 10
-1672.6417299999939
 20
1252.4036999999996
 11
-1804.5297299999929
 21
1141.7365400000003
  0
LINE
  8
_0-3_躯体と製品
  6
CONTINUOUS
 62
    4
 10
-1898.4744899999914
 20
1028.3462400000005
 11
-1898.4744899999914
 21
1364.5873800000002
  0
LINE
  8
_0-3_躯体と製品
  6
CONTINUOUS
 62
    4
 10
-1666.6417299999939
 20
1416.2061000000003
 11
-1666.6417299999939
 21
974.58738000000017
  0
LINE
  8
_0-3_躯体と製品
  6
PLINE5
 62
    4
 10
-1660.6417299999948
 20
514.58738000000062
 11
-1660.6417299999948
 21
1364.5873800000002
  0
LINE
  8
_0-3_躯体と製品
  6
PLINE3
 62
    3
 10
-1216.6417299999939
 20
1714.1775600000003
 11
-1216.6417299999939
 21
414.58738000000062
  0
LINE
  8
_0-3_躯体と製品
  6
CONTINUOUS
 62
    4
 10
-1660.6417299999948
 20
974.58738000000017
 11
-1216.6417299999939
 21
974.58738000000017
  0
LINE
  8
_0-3_躯体と製品
  6
PLINE5
 62
    4
 10
-1660.6417299999948
 20
968.58737999999994
 11
-1216.6417299999939
 21
968.58737999999994
  0
LINE
  8
_0-3_躯体と製品
  6
CONTINUOUS
 62
    4
 10
-1216.6417299999939
 20
934.58738000000017
 11
-1626.7770499999924
 21
934.58738000000017
  0
LINE
  8
_0-3_躯体と製品
  6
CONTINUOUS
 62
    3
 10
-1216.6417299999939
 20
603.63684000000057
 11
-1616.6417299999939
 21
524.48176000000149
  0
LINE
  8
_0-3_躯体と製品
  6
PLINE4
 62
    4
 10
-1616.6417299999939
 20
391.57179999999948
 11
-1216.6417299999939
 21
471.57179999999948
  0
LINE
  8
_0-4_図面枠
  6
CONTINUOUS
 62
    3
 10
-1639.2287899999956
 20
774.80760000000009
 11
-1610.5685499999909
 21
745.16657999999984
  0
LINE
  8
_0-4_図面枠
  6
CONTINUOUS
 62
    3
 10
-1639.2287899999956
 20
774.80760000000009
 11
-1536.7474899999906
 21
597.30477999999948
  0
LINE
  8
_0-3_躯体と製品
  6
CONTINUOUS
 62
    3
 10
-1806.0309099999931
 20
743.87712000000067
 11
-1788.8236099999931
 21
768.45168000000035
  0
LINE
  8
_0-3_躯体と製品
  6
CONTINUOUS
 62
    7
 10
-1666.6417299999939
 20
974.58738000000017
 11
-1666.6417299999939
 21
514.58738000000062
  0
LINE
  8
_0-3_躯体と製品
  6
CONTINUOUS
 62
    4
 10
-1676.6417299999948
 20
720.42044000000021
 11
-1676.6417299999948
 21
873.01726000000008
  0
LINE
  8
_0-3_躯体と製品
  6
CONTINUOUS
 62
    3
 10
-1715.7435899999946
 20
371.75142000000051
 11
-1666.6417299999939
 21
381.57179999999948
  0
LINE
  8
_0-3_躯体と製品
  6
CONTINUOUS
 62
    3
 10
-1712.213509999995
 20
369.39804000000163
 11
-1669.0679499999915
 21
378.02714000000151
  0
LINE
  8
_0-3_躯体と製品
  6
CONTINUOUS
 62
    3
 10
-1666.8378499999944
 20
396.82964000000152
 11
-1689.5873299999921
 21
510.57700000000068
  0
LINE
  8
_0-3_躯体と製品
  6
PLINE2
 62
    6
 10
-1718.8309899999949
 20
503.8247800000006
 11
-1682.2226499999906
 21
473.75363999999968
  0
LINE
  8
_0-3_躯体と製品
  6
PLINE2
 62
    6
 10
-1703.3458099999925
 20
426.39883999999961
 11
-1669.2453499999947
 21
398.38774000000058
  0
LINE
  8
_0-3_躯体と製品
  6
PLINE2
 62
    6
 10
-1711.0884099999948
 20
465.11179999999968
 11
-1674.4800499999947
 21
435.04066000000148
  0
LINE
  8
_0-3_躯体と製品
  6
CONTINUOUS
 62
    4
 10
-1666.6417299999939
 20
395.84906000000069
 11
-1696.0591499999937
 21
389.96556000000055
  0
LINE
  8
_0-3_躯体と製品
  6
CONTINUOUS
 62
    4
 10
-1696.6475099999961
 20
392.90732000000162
 11
-1667.2300899999918
 21
398.79079999999954
  0
LINE
  8
_0-3_躯体と製品
  6
CONTINUOUS
 62
    7
 10
-1912.1791299999932
 20
468.09824000000162
 11
-1666.6417299999939
 21
517.20572000000061
  0
LINE
  8
_0-4_図面枠
  6
CONTINUOUS
 62
    3
 10
-1826.6239699999942
 20
486.89176000000157
 11
-1837.9637099999918
 21
447.25074000000154
  0
LINE
  8
_0-3_躯体と製品
  6
CONTINUOUS
 62
    7
 10
-1882.5655899999929
 20
473.00114000000167
 11
-1865.0679099999907
 21
385.51271999999949
  0
LINE
  8
_0-4_図面枠
  6
CONTINUOUS
 62
    3
 10
-1880.2778499999959
 20
463.48574000000167
 11
-1891.6176099999921
 21
423.8447199999996
  0
LINE
  8
_0-3_躯体と製品
  6
CONTINUOUS
 62
    7
 10
-1912.1791299999932
 20
468.09824000000162
 11
-1911.5907899999929
 21
465.15650000000051
  0
LINE
  8
_0-3_躯体と製品
  6
CONTINUOUS
 62
    7
 10
-1911.5907899999929
 20
465.15650000000051
 11
-1901.7849699999915
 21
467.11766000000171
  0
LINE
  8
_0-3_躯体と製品
  6
CONTINUOUS
 62
    7
 10
-1911.9830099999917
 20
467.11766000000171
 11
-1882.5655899999929
 21
473.00114000000167
  0
LINE
  8
_0-3_躯体と製品
  6
PLINE2
 62
    3
 10
-1823.6298099999949
 20
457.2536000000016
 11
-1805.9793699999927
 21
369.00133999999957
  0
LINE
  8
_0-3_躯体と製品
  6
PLINE2
 62
    3
 10
-1774.6007899999922
 20
467.05940000000055
 11
-1756.9503299999924
 21
378.80714000000148
  0
LINE
  8
_0-3_躯体と製品
  6
CONTINUOUS
 62
    4
 10
-1719.2008499999947
 20
505.6740800000016
 11
-1696.6475099999961
 21
392.90732000000162
  0
LINE
  8
_0-4_図面枠
  6
CONTINUOUS
 62
    3
 10
-1694.7422499999921
 20
465.4796800000006
 11
-1706.081989999996
 21
425.83866000000148
  0
LINE
  8
_0-3_躯体と製品
  6
CONTINUOUS
 62
    3
 10
-1804.3123699999906
 20
360.66640000000052
 11
-1755.2833499999924
 21
370.47220000000152
  0
LINE
  8
_0-3_躯体と製品
  6
CONTINUOUS
 62
    3
 10
-1805.9793699999927
 20
369.00133999999957
 11
-1803.0376299999916
 21
354.29262000000153
  0
LINE
  8
_0-4_図面枠
  6
CONTINUOUS
 62
    3
 10
-1807.6128499999932
 20
386.47408000000064
 11
-1818.9526099999939
 21
346.83306000000152
  0
LINE
  8
_0-3_躯体と製品
  6
CONTINUOUS
 62
    3
 10
-1756.9503299999924
 20
378.80714000000148
 11
-1754.0085899999922
 21
364.09842000000049
  0
LINE
  8
_0-3_躯体と製品
  6
CONTINUOUS
 62
    3
 10
-1711.8212699999931
 20
352.13982000000055
 11
-1715.7435899999946
 21
371.75142000000051
  0
LINE
  8
_0-3_躯体と製品
  6
CONTINUOUS
 62
    3
 10
-1708.879529999992
 20
352.72815999999966
 11
-1712.213509999995
 21
369.39804000000163
  0
LINE
  8
_0-3_躯体と製品
  6
CONTINUOUS
 62
    3
 10
-1711.8212699999931
 20
352.13982000000055
 11
-1708.879529999992
 21
352.72815999999966
  0
LINE
  8
_0-3_躯体と製品
  6
PLINE5
 62
    3
 10
-1822.7472899999957
 20
452.84098000000063
 11
-1773.7182499999944
 21
462.64678000000049
  0
LINE
  8
_0-3_躯体と製品
  6
CONTINUOUS
 62
    4
 10
-1748.6182699999945
 20
499.79060000000163
 11
-1719.2008499999947
 21
505.6740800000016
  0
LINE
  8
_0-3_躯体と製品
  6
CONTINUOUS
 62
    7
 10
-1756.6417299999939
 20
664.58738000000062
 11
-1756.141729999993
 21
664.58738000000062
  0
LINE
  8
_0-3_躯体と製品
  6
CONTINUOUS
 62
    7
 10
-1756.6417299999939
 20
664.58738000000062
 11
-1756.441729999995
 21
664.58738000000062
  0
LINE
  8
_0-3_躯体と製品
  6
CONTINUOUS
 62
    7
 10
-1756.141729999993
 20
664.58738000000062
 11
-1756.141729999993
 21
684.58738000000062
  0
LINE
  8
_0-3_躯体と製品
  6
CONTINUOUS
 62
    7
 10
-1756.6417299999939
 20
664.58738000000062
 11
-1756.6417299999939
 21
727.23981999999955
  0
LINE
  8
_0-3_躯体と製品
  6
PLINE5
 62
    4
 10
-1660.6417299999948
 20
381.78722000000153
 11
-1660.6417299999948
 21
565.16610000000151
  0
LINE
  8
_0-3_躯体と製品
  6
CONTINUOUS
 62
    4
 10
-1666.6417299999939
 20
565.16610000000151
 11
-1666.6417299999939
 21
383.51274000000149
  0
LINE
  8
_0-3_躯体と製品
  6
CONTINUOUS
 62
    4
 10
-1667.2300899999918
 20
398.79079999999954
 11
-1666.6417299999939
 21
395.84906000000069
  0
TEXT
  8
_0-4_図面枠
 62
    7
 10
-1536.7458899999947
 20
607.30488000000059
 40
60
 41
0.8000000000000006
 50
0
  1
支柱
  0
LINE
  8
_0-4_図面枠
  6
CONTINUOUS
 62
    3
 10
-1536.7474899999906
 20
597.30477999999948
 11
-1438.1360699999932
 21
597.30477999999948
  0
LINE
  8
_0-3_躯体と製品
  6
CONTINUOUS
 62
    4
 10
-1676.6417299999948
 20
564.58738000000062
 11
-1676.6417299999948
 21
720.42044000000021
  0
LINE
  8
_0-3_躯体と製品
  6
CONTINUOUS
 62
    3
 10
-1681.6417299999939
 20
639.58738000000062
 11
-1651.6417299999948
 21
639.58738000000062
  0
LINE
  8
_0-3_躯体と製品
  6
CONTINUOUS
 62
    3
 10
-1681.6417299999939
 20
589.58738000000062
 11
-1651.6417299999948
 21
589.58738000000062
  0
LINE
  8
_0-3_躯体と製品
  6
CONTINUOUS
 62
    4
 10
-1666.6417299999939
 20
564.58738000000062
 11
-1676.6417299999948
 21
564.58738000000062
  0
LINE
  8
_0-3_躯体と製品
  6
CONTINUOUS
 62
    4
 10
-1676.6417299999948
 20
720.42044000000021
 11
-1666.6417299999939
 21
720.42044000000021
  0
LINE
  8
_0-3_躯体と製品
  6
CONTINUOUS
 62
    7
 10
-1716.6417299999939
 20
961.18992000000026
 11
-1666.6417299999939
 21
974.58738000000017
  0
LINE
  8
_0-3_躯体と製品
  6
CONTINUOUS
 62
    4
 10
-1791.843669999992
 20
1144.5489599999994
 11
-1666.6417299999939
 21
1111.0012200000003
  0
LINE
  8
_0-3_躯体と製品
  6
CONTINUOUS
 62
    4
 10
-1804.5297299999929
 20
1141.7365400000003
 11
-1672.6417299999939
 21
1106.3972599999997
  0
LINE
  8
_0-3_躯体と製品
  6
CONTINUOUS
 62
    4
 10
-1676.6417299999948
 20
873.01726000000008
 11
-1898.4744899999914
 21
1028.3462400000005
  0
LINE
  8
_0-3_躯体と製品
  6
CONTINUOUS
 62
    7
 10
-1819.8506299999935
 20
1129.1106000000011
 11
-1819.8506299999935
 21
1114.1106000000011
  0
LINE
  8
_0-3_躯体と製品
  6
CONTINUOUS
 62
    3
 10
-1641.6417299999948
 20
961.58738000000062
 11
-1641.6417299999948
 21
947.58737999999971
  0
LINE
  8
_0-3_躯体と製品
  6
CONTINUOUS
 62
    3
 10
-1682.0730499999918
 20
917.60622000000001
 11
-1652.0730499999927
 21
917.60622000000001
  0
LINE
  8
_0-3_躯体と製品
  6
CONTINUOUS
 62
    3
 10
-1648.641729999993
 20
954.58738000000017
 11
-1634.6417299999921
 21
954.58738000000017
  0
LINE
  8
_0-3_躯体と製品
  6
CONTINUOUS
 62
    4
 10
-1650.0927699999947
 20
934.58738000000017
 11
-1660.6417299999948
 21
934.58738000000017
  0
LINE
  8
_0-3_躯体と製品
  6
CONTINUOUS
 62
    3
 10
-1683.1867899999925
 20
1096.0012200000003
 11
-1653.1867899999925
 21
1096.0012200000003
  0
LINE
  8
_0-3_躯体と製品
  6
CONTINUOUS
 62
    4
 10
-1672.6417299999939
 20
1081.0012200000003
 11
-1666.6417299999939
 21
1081.0012200000003
  0
LINE
  8
_0-3_躯体と製品
  6
CONTINUOUS
 62
    4
 10
-1672.6417299999939
 20
1106.3972599999997
 11
-1672.6417299999939
 21
1081.0012200000003
  0
LINE
  8
_0-3_躯体と製品
  6
PLINE4
 62
    4
 10
-816.64172999999482
 20
391.57179999999948
 11
-1216.6417299999939
 21
471.57179999999948
  0
LINE
  8
_0-3_躯体と製品
  6
PLINE2
 62
    4
 10
-816.64172999999482
 20
720.42044000000021
 11
-816.64172999999482
 21
408.90846000000056
  0
LINE
  8
_0-3_躯体と製品
  6
PLINE2
 62
    4
 10
-772.641729999993
 20
720.42044000000021
 11
-772.641729999993
 21
400.1084599999997
  0
LINE
  8
_0-3_躯体と製品
  6
CONTINUOUS
 62
    4
 10
-816.64172999999482
 20
406.86885999999959
 11
-816.64172999999482
 21
386.14408000000162
  0
LINE
  8
_0-3_躯体と製品
  6
PLINE2
 62
    4
 10
-772.641729999993
 20
398.06886000000054
 11
-772.641729999993
 21
381.78722000000153
  0
LINE
  8
_0-3_躯体と製品
  6
CONTINUOUS
 62
    7
 10
-1890.9972699999907
 20
1366.6577800000002
 11
-1216.6417299999939
 21
1534.7935000000004
  0
LINE
  8
_0-3_躯体と製品
  6
PLINE5
 62
    4
 10
-1216.6417299999939
 20
1528.403700000001
 11
-1897.7377899999938
 21
1358.5873799999999
  0
LINE
  8
_0-3_躯体と製品
  6
CONTINUOUS
 62
    4
 10
-1216.6417299999939
 20
1483.0567000000005
 11
-1629.037749999995
 21
1380.2348200000004
  0
LINE
  8
_0-3_躯体と製品
  6
CONTINUOUS
 62
    4
 10
-1216.6417299999939
 20
1534.5873800000002
 11
-1898.4744899999914
 21
1364.5873800000002
  0
LINE
  8
_0-3_躯体と製品
  6
CONTINUOUS
 62
    3
 10
-1841.6417299999939
 20
1599.5873800000002
 11
-1841.6417299999939
 21
1569.5873800000002
  0
LINE
  8
_0-3_躯体と製品
  6
CONTINUOUS
 62
    4
 10
-1654.6220099999919
 20
1373.8559600000006
 11
-1892.3352699999914
 21
1314.5873800000002
  0
LINE
  8
_0-3_躯体と製品
  6
CONTINUOUS
 62
    3
 10
-1836.4083499999933
 20
1395.52142
 11
-1829.1506899999949
 21
1366.4125400000009
  0
LINE
  8
_0-3_躯体と製品
  6
CONTINUOUS
 62
    3
 10
-1954.3376499999904
 20
1343.0445000000007
 11
-1954.3376499999904
 21
1329.0444999999997
  0
LINE
  8
_0-3_躯体と製品
  6
CONTINUOUS
 62
    3
 10
-1961.3376499999931
 20
1336.0445000000004
 11
-1947.3376499999931
 21
1336.0445000000004
  0
LINE
  8
_0-3_躯体と製品
  6
CONTINUOUS
 62
    7
 10
-1890.9972699999907
 20
1351.4516599999999
 11
-1890.9972699999907
 21
1366.6577800000002
  0
LINE
  8
_0-3_躯体と製品
  6
CONTINUOUS
 62
    3
 10
-1745.2275899999931
 20
1211.0780599999996
 11
-1725.9439699999921
 21
1188.0967200000007
  0
LINE
  8
_0-3_躯体と製品
  6
CONTINUOUS
 62
    7
 10
-1856.4415499999932
 20
1584.5873800000002
 11
-1826.6417299999939
 21
1584.5873800000002
  0
LINE
  8
_0-3_躯体と製品
  6
CONTINUOUS
 62
    7
 10
-1856.6417299999948
 20
1584.3873800000003
 11
-1826.6417299999939
 21
1584.3873800000003
  0
LINE
  8
_0-3_躯体と製品
  6
CONTINUOUS
 62
    4
 10
-1672.6417299999939
 20
1252.4036999999996
 11
-1672.6417299999939
 21
1279.6058600000001
  0
LINE
  8
_0-3_躯体と製品
  6
CONTINUOUS
 62
    7
 10
-1682.155509999996
 20
1259.8123200000007
 11
-1682.155509999996
 21
1244.8123200000007
  0
LINE
  8
_0-3_躯体と製品
  6
CONTINUOUS
 62
    3
 10
-1683.1867899999925
 20
1264.6058600000001
 11
-1653.1867899999925
 21
1264.6058600000001
  0
LINE
  8
_0-3_躯体と製品
  6
CONTINUOUS
 62
    4
 10
-1666.6417299999939
 20
1279.6058600000001
 11
-1672.6417299999939
 21
1279.6058600000001
  0
LINE
  8
_0-3_躯体と製品
  6
PLINE5
 62
    4
 10
-1666.6417299999939
 20
1364.5873800000002
 11
-1660.6417299999948
 21
1364.5873800000002
  0
LINE
  8
_0-3_躯体と製品
  6
CONTINUOUS
 62
    3
 10
-1641.6417299999948
 20
1407.5402400000005
 11
-1641.6417299999948
 21
1393.5402400000007
  0
LINE
  8
_0-3_躯体と製品
  6
CONTINUOUS
 62
    3
 10
-1648.641729999993
 20
1400.54024
 11
-1634.6417299999921
 21
1400.54024
  0
LINE
  8
_0-3_躯体と製品
  6
CONTINUOUS
 62
    3
 10
-1414.3297099999945
 20
1500.7574399999996
 11
-1407.0720499999934
 21
1471.6485600000008
  0
LINE
  8
_0-3_躯体と製品
  6
CONTINUOUS
 62
    3
 10
-1209.6417299999921
 20
1509.7935000000004
 11
-1216.6417299999939
 21
1509.7935000000004
  0
LINE
  8
_0-3_躯体と製品
  6
CONTINUOUS
 62
    3
 10
-1017.7752499999924
 20
1466.4533600000002
 11
-1021.1621699999905
 21
1452.8692199999998
  0
LINE
  8
_0-3_躯体と製品
  6
CONTINUOUS
 62
    3
 10
-1026.2607899999939
 20
1461.3547400000002
 11
-1012.6766499999922
 21
1457.9678399999998
  0
LINE
  8
_0-3_躯体と製品
  6
CONTINUOUS
 62
    3
 10
-823.71610999999302
 20
1418.0689800000002
 11
-827.10300999999254
 21
1404.4848399999998
  0
LINE
  8
_0-3_躯体と製品
  6
CONTINUOUS
 62
    3
 10
-832.20162999999138
 20
1412.9703600000003
 11
-818.61748999999418
 21
1409.583460000001
  0
LINE
  8
_0-3_躯体と製品
  6
PLINE5
 62
    4
 10
-772.641729999993
 20
1417.6119400000002
 11
-772.641729999993
 21
1417.7020600000001
  0
LINE
  8
_0-3_躯体と製品
  6
CONTINUOUS
 62
    4
 10
54.600490000009813
 20
1428.7004999999999
 11
-158.21524999999201
 21
1060.0928399999996
  0
LINE
  8
_0-3_躯体と製品
  6
CONTINUOUS
 62
    4
 10
-158.21524999999201
 20
1060.0928399999996
 11
-651.64172999999482
 21
714.59188000000017
  0
LINE
  8
_0-3_躯体と製品
  6
CONTINUOUS
 62
    3
 10
-521.5153899999932
 20
466.14084000000048
 11
44.967330000005859
 21
352.84429999999952
  0
LINE
  8
_0-3_躯体と製品
  6
CONTINUOUS
 62
    3
 10
-526.60560999999507
 20
440.6439799999996
 11
39.868310000008933
 21
327.3492000000017
  0
LINE
  8
_0-4_図面枠
  6
CONTINUOUS
 62
    3
 10
-190.56318999999621
 20
387.53484000000049
 11
-80.029829999990397
 21
578.98424000000159
  0
LINE
  8
_0-3_躯体と製品
  6
PLINE2
 62
    4
 10
-766.64172999999391
 20
720.42044000000021
 11
-766.64172999999391
 21
514.58738000000062
  0
LINE
  8
_0-3_躯体と製品
  6
CONTINUOUS
 62
    4
 10
-651.64172999999482
 20
714.59188000000017
 11
-651.64172999999482
 21
494.2057199999997
  0
LINE
  8
_0-3_躯体と製品
  6
PLINE2
 62
    7
 10
-521.10432999999102
 20
468.09824000000162
 11
-765.4601499999917
 21
516.96940000000063
  0
LINE
  8
_0-3_躯体と製品
  6
PLINE2
 62
    3
 10
-609.65364999999292
 20
457.2536000000016
 11
-627.30410999999276
 21
369.00133999999957
  0
LINE
  8
_0-3_躯体と製品
  6
PLINE5
 62
    3
 10
-610.53616999999394
 20
452.84098000000063
 11
-659.56520999999339
 21
462.64678000000049
  0
LINE
  8
_0-3_躯体と製品
  6
PLINE2
 62
    6
 10
-761.2605299999932
 20
423.77492000000052
 11
-724.65216999999302
 21
453.84606000000053
  0
LINE
  8
_0-3_躯体と製品
  6
PLINE2
 62
    4
 10
-766.64172999999391
 20
398.70356000000152
 11
-766.64172999999391
 21
514.94150000000059
  0
LINE
  8
_0-3_躯体と製品
  6
PLINE2
 62
    7
 10
-736.83208999999079
 20
392.9465400000006
 11
-714.27872999999363
 21
505.71332000000052
  0
LINE
  8
_0-3_躯体と製品
  6
PLINE2
 62
    3
 10
-766.64172999999391
 20
396.86885999999959
 11
-743.89226999999391
 21
510.61622000000057
  0
LINE
  8
_0-3_躯体と製品
  6
PLINE2
 62
    3
 10
-658.68268999999236
 20
467.05940000000055
 11
-676.33312999999089
 21
378.80714000000148
  0
LINE
  8
_0-3_躯体と製品
  6
CONTINUOUS
 62
    4
 10
-766.64172999999391
 20
396.86885999999959
 11
-766.64172999999391
 21
381.19312000000059
  0
LINE
  8
_0-3_躯体と製品
  6
PLINE2
 62
    6
 10
-754.98470999999154
 20
396.57706000000167
 11
-732.3947699999926
 21
415.13308000000052
  0
LINE
  8
_0-3_躯体と製品
  6
PLINE2
 62
    7
 10
-736.83208999999079
 20
392.9465400000006
 11
-766.24950999999055
 21
398.83002000000056
  0
LINE
  8
_0-3_躯体と製品
  6
PLINE2
 62
    7
 10
-766.83784999999443
 20
395.88828000000149
 11
-737.42042999999376
 21
390.0047999999997
  0
LINE
  8
_0-3_躯体と製品
  6
CONTINUOUS
 62
    3
 10
-717.53986999999415
 20
371.75142000000051
 11
-766.64172999999391
 21
381.57179999999948
  0
LINE
  8
_0-3_躯体と製品
  6
CONTINUOUS
 62
    3
 10
-721.46218999999383
 20
352.13982000000055
 11
-717.53986999999415
 21
371.75142000000051
  0
LINE
  8
_0-3_躯体と製品
  6
CONTINUOUS
 62
    3
 10
-724.40392999999222
 20
352.72815999999966
 11
-721.06996999999137
 21
369.39804000000163
  0
LINE
  8
_0-3_躯体と製品
  6
CONTINUOUS
 62
    3
 10
-721.06996999999137
 20
369.39804000000163
 11
-764.21550999999181
 21
378.02714000000151
  0
LINE
  8
_0-3_躯体と製品
  6
CONTINUOUS
 62
    3
 10
-721.46218999999383
 20
352.13982000000055
 11
-724.40392999999222
 21
352.72815999999966
  0
LINE
  8
_0-3_躯体と製品
  6
CONTINUOUS
 62
    3
 10
-627.30410999999276
 20
369.00133999999957
 11
-630.24584999999479
 21
354.29262000000153
  0
LINE
  8
_0-3_躯体と製品
  6
CONTINUOUS
 62
    3
 10
-676.33312999999089
 20
378.80714000000148
 11
-679.27486999999201
 21
364.09842000000049
  0
LINE
  8
_0-3_躯体と製品
  6
CONTINUOUS
 62
    3
 10
-628.97108999999273
 20
360.66640000000052
 11
-678.00012999999308
 21
370.47220000000152
  0
LINE
  8
_0-3_躯体と製品
  6
PLINE2
 62
    7
 10
-684.86130999999386
 20
499.82982000000061
 11
-714.27872999999363
 21
505.71332000000052
  0
LINE
  8
_0-3_躯体と製品
  6
PLINE2
 62
    6
 10
-736.18878999999379
 20
509.07552000000169
 11
-745.77532999999494
 21
501.2008600000006
  0
LINE
  8
_0-3_躯体と製品
  6
PLINE2
 62
    6
 10
-753.51792999999088
 20
462.4878800000015
 11
-716.90958999999293
 21
492.55902000000151
  0
LINE
  8
_0-3_躯体と製品
  6
PLINE2
 62
    7
 10
-568.21554999999262
 20
385.51271999999949
 11
-550.7178699999904
 21
473.00114000000167
  0
LINE
  8
_0-3_躯体と製品
  6
CONTINUOUS
 62
    3
 10
-537.18584999999348
 20
387.69062000000054
 11
-521.69268999999167
 21
465.15650000000051
  0
LINE
  8
_0-3_躯体と製品
  6
PLINE2
 62
    7
 10
-550.7178699999904
 20
473.00114000000167
 11
-521.30044999999154
 21
467.11766000000171
  0
LINE
  8
_0-3_躯体と製品
  6
PLINE2
 62
    7
 10
-521.10432999999102
 20
468.09824000000162
 11
-521.69268999999167
 21
465.15650000000051
  0
LINE
  8
_0-3_躯体と製品
  6
PLINE2
 62
    7
 10
-521.69268999999167
 20
465.15650000000051
 11
-541.30428999999094
 21
469.0788199999995
  0
LINE
  8
_0-4_図面枠
  6
CONTINUOUS
 62
    3
 10
-190.56318999999621
 20
387.53484000000049
 11
-179.22344999999314
 21
427.1758599999996
  0
TEXT
  8
_0-4_図面枠
 62
    7
 10
-382.06448999999066
 20
792.61860000000047
 40
59.999999999999893
 41
0.8000000000000013
 50
0.0000100000010064
  1
妻板
  0
LINE
  8
_0-4_図面枠
  6
CONTINUOUS
 62
    3
 10
-382.06496999999399
 20
782.61881999999991
 11
-281.39848999999504
 21
782.61881999999991
  0
LINE
  8
_0-4_図面枠
  6
CONTINUOUS
 62
    3
 10
-460.87002999999368
 20
919.11320000000023
 11
-382.06496999999399
 21
782.61881999999991
  0
LINE
  8
_0-4_図面枠
  6
CONTINUOUS
 62
    3
 10
-460.87002999999368
 20
919.11320000000023
 11
-432.2097699999922
 21
889.47218000000009
  0
TEXT
  8
_0-4_図面枠
 62
    7
 10
-83.818949999992583
 20
584.6541200000006
 40
60
 41
0.8000000000000001
 50
0
  1
屋根材
  0
LINE
  8
_0-4_図面枠
  6
CONTINUOUS
 62
    3
 10
-80.029829999990397
 20
578.98424000000159
 11
67.581230000007963
 21
578.98424000000159
  0
LINE
  8
_0-3_躯体と製品
  6
PLINE5
 62
    4
 10
-534.80896999999186
 20
1364.5873800000002
 11
-120.32170999999107
 21
1364.5873800000002
  0
LINE
  8
_0-3_躯体と製品
  6
PLINE5
 62
    4
 10
-535.54568999999174
 20
1358.5873799999999
 11
-121.74408999999469
 21
1358.5873799999999
  0
LINE
  8
_0-3_躯体と製品
  6
PLINE5
 62
    4
 10
-540.94820999999411
 20
1314.5873800000002
 11
-121.38848999999209
 21
1314.5873800000002
  0
TEXT
  8
_0-4_図面枠
 62
    7
 10
-488.81070999999065
 20
1219.7218599999997
 40
60.000000000000007
 41
0.8
 50
0.0000100000009838
  1
妻板補強金具
  0
LINE
  8
_0-4_図面枠
  6
CONTINUOUS
 62
    3
 10
-524.76068999999097
 20
1219.4008400000005
 11
-178.39080999999351
 21
1219.4008400000005
  0
LINE
  8
_0-3_躯体と製品
  6
CONTINUOUS
 62
    3
 10
-639.35992999999416
 20
1372.1038199999996
 11
-642.74682999999368
 21
1358.5196800000003
  0
LINE
  8
_0-3_躯体と製品
  6
CONTINUOUS
 62
    3
 10
-647.84544999999162
 20
1367.0052000000007
 11
-634.2613099999935
 21
1363.6183000000003
  0
LINE
  8
_0-4_図面枠
  6
CONTINUOUS
 62
    3
 10
-594.6345099999935
 20
1340.4258400000003
 11
-524.76068999999097
 21
1219.4008400000005
  0
LINE
  8
_0-4_図面枠
  6
CONTINUOUS
 62
    3
 10
-594.6345099999935
 20
1340.4258400000003
 11
-565.97426999999516
 21
1310.7848399999998
  0
LINE
  8
_0-3_躯体と製品
  6
CONTINUOUS
 62
    3
 10
-445.54568999999174
 20
1346.5873800000006
 11
-445.54568999999174
 21
1332.5873799999997
  0
LINE
  8
_0-3_躯体と製品
  6
CONTINUOUS
 62
    3
 10
-452.54568999999447
 20
1339.5873800000002
 11
-438.54568999999356
 21
1339.5873800000002
  0
LINE
  8
_0-3_躯体と製品
  6
CONTINUOUS
 62
    3
 10
-245.54568999999174
 20
1346.5873800000006
 11
-245.54568999999174
 21
1332.5873799999997
  0
LINE
  8
_0-3_躯体と製品
  6
CONTINUOUS
 62
    3
 10
-252.54568999999447
 20
1339.5873800000002
 11
-238.54568999999356
 21
1339.5873800000002
  0
LINE
  8
_0-3_躯体と製品
  6
CONTINUOUS
 62
    4
 10
-136.64172999999391
 20
1614.5873800000002
 11
-136.64172999999391
 21
1584.5873800000002
  0
LINE
  8
_0-3_躯体と製品
  6
CONTINUOUS
 62
    4
 10
-101.28638999999293
 20
1584.5873800000002
 11
54.600490000009813
 21
1428.7004999999999
  0
LINE
  8
_0-3_躯体と製品
  6
CONTINUOUS
 62
    4
 10
-136.64172999999391
 20
1584.5873800000002
 11
-101.28638999999293
 21
1584.5873800000002
  0
LINE
  8
_0-3_躯体と製品
  6
CONTINUOUS
 62
    3
 10
-37.293229999993855
 20
1493.0170599999994
 11
-27.393729999990683
 21
1502.9165600000008
  0
LINE
  8
_0-3_躯体と製品
  6
CONTINUOUS
 62
    3
 10
-37.293229999993855
 20
1502.9165600000008
 11
-27.393729999990683
 21
1493.0170599999994
  0
LINE
  8
_0-3_躯体と製品
  6
CONTINUOUS
 62
    3
 10
-76.184109999991961
 20
1531.9079200000008
 11
-66.284609999995155
 21
1541.8074199999999
  0
LINE
  8
_0-3_躯体と製品
  6
CONTINUOUS
 62
    3
 10
-76.184109999991961
 20
1541.8074199999999
 11
-66.284609999995155
 21
1531.9079200000008
  0
LINE
  8
_0-3_躯体と製品
  6
CONTINUOUS
 62
    3
 10
1.0122900000051231
 20
1454.7115400000005
 11
10.911790000007386
 21
1464.6110399999995
  0
LINE
  8
_0-3_躯体と製品
  6
CONTINUOUS
 62
    3
 10
1.0122900000051231
 20
1464.6110399999995
 11
10.911790000007386
 21
1454.7115400000005
  0
LINE
  8
_0-3_躯体と製品
  6
CONTINUOUS
 62
    3
 10
1233.7928900000061
 20
1623.8352200000006
 11
1233.7928900000061
 21
129.36605999999961
  0
LINE
  8
_0-3_躯体と製品
  6
PLINE3
 62
    3
 10
2243.7928900000079
 20
1584.5873800000002
 11
2243.7928900000079
 21
129.38622000000169
  0
LINE
  8
_0-3_躯体と製品
  6
PLINE3
 62
    3
 10
2563.7928900000115
 20
129.38622000000169
 11
2563.7928900000115
 21
1584.5873800000002
  0
LINE
  8
_0-3_躯体と製品
  6
CONTINUOUS
 62
    4
 10
1428.7928900000061
 20
1370.8590999999999
 11
1428.7928900000061
 21
276.05638000000067
  0
LINE
  8
_0-3_躯体と製品
  6
CONTINUOUS
 62
    4
 10
1384.7928900000061
 20
1534.5873800000002
 11
1384.7928900000061
 21
276.05638000000067
  0
LINE
  8
_0-3_躯体と製品
  6
PLINE3
 62
    3
 10
1403.792890000007
 20
1584.5873800000002
 11
1403.792890000007
 21
129.38622000000169
  0
LINE
  8
_0-3_躯体と製品
  6
CONTINUOUS
 62
    4
 10
1108.7928900000061
 20
1370.8590999999999
 11
1108.7928900000061
 21
276.05638000000067
  0
LINE
  8
_0-3_躯体と製品
  6
CONTINUOUS
 62
    4
 10
1064.7928900000061
 20
1534.5873800000002
 11
1064.7928900000061
 21
276.05638000000067
  0
LINE
  8
_0-3_躯体と製品
  6
CONTINUOUS
 62
    4
 10
1058.7928900000061
 20
1428.6725000000001
 11
1058.7928900000061
 21
276.05638000000067
  0
LINE
  8
_0-3_躯体と製品
  6
CONTINUOUS
 62
    4
 10
1378.792890000007
 20
1428.6725000000001
 11
1378.792890000007
 21
276.05638000000067
  0
LINE
  8
_0-3_躯体と製品
  6
PLINE3
 62
    3
 10
1083.792890000007
 20
1584.5873800000002
 11
1083.792890000007
 21
129.38622000000169
  0
LINE
  8
_0-3_躯体と製品
  6
CONTINUOUS
 62
    3
 10
2393.7928900000079
 20
1612.6198199999997
 11
2393.7928900000079
 21
129.38622000000169
  0
LINE
  8
_0-3_躯体と製品
  6
CONTINUOUS
 62
    3
 10
2413.7928900000079
 20
129.38622000000169
 11
2413.7928900000079
 21
1612.6198199999997
  0
LINE
  8
_0-3_躯体と製品
  6
CONTINUOUS
 62
    3
 10
990.79289000000426
 20
379.43422000000055
 11
990.79289000000426
 21
279.05637999999954
  0
LINE
  8
_0-3_躯体と製品
  6
CONTINUOUS
 62
    3
 10
2928.7928900000115
 20
463.71146000000158
 11
2928.7928900000115
 21
131.14841999999953
  0
LINE
  8
_0-3_躯体と製品
  6
CONTINUOUS
 62
    3
 10
2855.0862300000044
 20
373.71146000000158
 11
2855.0862300000044
 21
131.14841999999953
  0
LINE
  8
_0-3_躯体と製品
  6
CONTINUOUS
 62
    3
 10
2678.7928900000115
 20
463.71146000000158
 11
2678.6988300000103
 21
131.14841999999953
  0
LINE
  8
_0-3_躯体と製品
  6
CONTINUOUS
 62
    3
 10
2628.7928900000115
 20
463.71146000000158
 11
2628.7928900000115
 21
131.14841999999953
  0
LINE
  8
_0-3_躯体と製品
  6
CONTINUOUS
 62
    3
 10
2751.7928900000061
 20
373.71146000000158
 11
2751.7928900000061
 21
131.14841999999953
  0
LINE
  8
_0-3_躯体と製品
  6
CONTINUOUS
 62
    3
 10
2451.7928900000043
 20
131.14841999999953
 11
2451.7928900000043
 21
373.71146000000158
  0
LINE
  8
_0-3_躯体と製品
  6
CONTINUOUS
 62
    3
 10
2555.0458100000087
 20
131.14841999999953
 11
2555.0458100000087
 21
373.71146000000158
  0
LINE
  8
_0-3_躯体と製品
  6
CONTINUOUS
 62
    3
 10
2255.7928900000024
 20
373.71146000000158
 11
2255.7928900000024
 21
131.14841999999953
  0
LINE
  8
_0-3_躯体と製品
  6
CONTINUOUS
 62
    3
 10
2151.7928900000043
 20
373.71146000000158
 11
2151.7928900000043
 21
131.14841999999953
  0
LINE
  8
_0-3_躯体と製品
  6
CONTINUOUS
 62
    3
 10
1955.7928900000043
 20
373.71146000000158
 11
1955.7928900000043
 21
131.14841999999953
  0
LINE
  8
_0-3_躯体と製品
  6
CONTINUOUS
 62
    3
 10
1851.7928900000052
 20
373.71146000000158
 11
1851.7928900000052
 21
131.14841999999953
  0
LINE
  8
_0-3_躯体と製品
  6
CONTINUOUS
 62
    3
 10
3051.7928900000043
 20
443.58738000000153
 11
3051.7928900000043
 21
131.14841999999953
  0
LINE
  8
_0-3_躯体と製品
  6
CONTINUOUS
 62
    3
 10
3155.7928900000079
 20
443.58738000000153
 11
3155.7928900000079
 21
131.14841999999953
  0
LINE
  8
_0-3_躯体と製品
  6
CONTINUOUS
 62
    3
 10
2642.6333700000105
 20
131.14841999999953
 11
2642.6333700000105
 21
477.95730000000049
  0
LINE
  8
_0-3_躯体と製品
  6
CONTINUOUS
 62
    3
 10
2664.7575700000089
 20
477.60628000000065
 11
2664.7575700000089
 21
131.14841999999953
  0
LINE
  8
_0-3_躯体と製品
  6
CONTINUOUS
 62
    3
 10
2965.1010500000084
 20
131.14841999999953
 11
2965.1010500000084
 21
478.20110000000159
  0
LINE
  8
_0-3_躯体と製品
  6
CONTINUOUS
 62
    3
 10
2942.4515100000081
 20
478.37530000000061
 11
2942.4515100000081
 21
136.02098000000069
  0
LINE
  8
_0-3_躯体と製品
  6
CONTINUOUS
 62
    3
 10
2979.0423100000116
 20
489.71146000000067
 11
2979.0423100000116
 21
131.14841999999953
  0
LINE
  8
_0-3_躯体と製品
  6
CONTINUOUS
 62
    3
 10
2378.7928900000079
 20
463.71146000000158
 11
2378.6988300000048
 21
131.14841999999953
  0
LINE
  8
_0-3_躯体と製品
  6
CONTINUOUS
 62
    3
 10
2328.7928900000097
 20
463.71146000000158
 11
2328.7928900000097
 21
131.14841999999953
  0
LINE
  8
_0-3_躯体と製品
  6
CONTINUOUS
 62
    3
 10
2364.7575700000107
 20
477.03332000000069
 11
2364.7575700000107
 21
131.14841999999953
  0
LINE
  8
_0-3_躯体と製品
  6
CONTINUOUS
 62
    3
 10
2342.6333700000068
 20
131.14841999999953
 11
2342.6333700000068
 21
477.95730000000049
  0
LINE
  8
_0-3_躯体と製品
  6
CONTINUOUS
 62
    3
 10
2078.7928900000097
 20
463.71146000000158
 11
2078.6988300000048
 21
131.14841999999953
  0
LINE
  8
_0-3_躯体と製品
  6
CONTINUOUS
 62
    3
 10
2028.7928900000079
 20
463.71146000000158
 11
2028.7928900000079
 21
131.14841999999953
  0
LINE
  8
_0-3_躯体と製品
  6
CONTINUOUS
 62
    3
 10
2042.6333700000068
 20
131.14841999999953
 11
2042.6333700000068
 21
477.95730000000049
  0
LINE
  8
_0-3_躯体と製品
  6
CONTINUOUS
 62
    3
 10
2064.7575700000089
 20
477.03332000000069
 11
2064.7575700000089
 21
131.14841999999953
  0
LINE
  8
_0-3_躯体と製品
  6
CONTINUOUS
 62
    3
 10
1253.792890000007
 20
1623.8352200000006
 11
1253.792890000007
 21
129.36605999999961
  0
LINE
  8
_0-4_図面枠
  6
CONTINUOUS
 62
    7
 10
4292.1666699999951
 20
-2372.9999999999995
 11
4292.1666699999951
 21
2966.9999999999995
  0
LINE
  8
_0-3_躯体と製品
  6
CONTINUOUS
 62
    3
 10
1808.792890000007
 20
1640.98558
 11
1808.792890000007
 21
129.38622000000169
  0
LINE
  8
_0-3_躯体と製品
  6
CONTINUOUS
 62
    3
 10
1838.792890000007
 20
1640.98558
 11
1838.792890000007
 21
129.38622000000169
  0
LINE
  8
_0-4_図面枠
  6
CONTINUOUS
 62
    3
 10
1046.1696300000076
 20
-1056.8850799999996
 11
1046.1696300000076
 21
-1806.8850799999996
  0
LINE
  8
_0-4_図面枠
  6
CONTINUOUS
 62
    3
 10
646.1696300000076
 20
-1056.8850799999996
 11
646.1696300000076
 21
-1806.8850799999996
  0
LINE
  8
_0-4_図面枠
  6
CONTINUOUS
 62
    4
 10
1296.1696300000076
 20
-1056.8850799999996
 11
1296.1696300000076
 21
-1806.8850799999996
  0
LINE
  8
_0-4_図面枠
  6
CONTINUOUS
 62
    3
 10
646.1696300000076
 20
-1806.8850799999996
 11
646.1696300000076
 21
-2106.8850799999996
  0
LINE
  8
_0-4_図面枠
  6
CONTINUOUS
 62
    3
 10
1046.1696300000076
 20
-1806.8850799999996
 11
1046.1696300000076
 21
-2106.8850799999996
  0
TEXT
  8
_0-4_図面枠
 62
    7
 10
742.24001000000681
 20
-2077.0631800000006
 40
60
 41
0.8
 50
0
  1
５３４０
  0
TEXT
  8
_0-4_図面枠
 62
    7
 10
746.7273100000084
 20
-1933.2261399999993
 40
60
 41
0.8
 50
0
  1
４０００
  0
TEXT
  8
_0-4_図面枠
 62
    7
 10
742.24001000000681
 20
-1777.0630399999995
 40
60
 41
0.8
 50
0
  1
３３００
  0
TEXT
  8
_0-4_図面枠
 62
    7
 10
746.7273100000084
 20
-1633.2260599999995
 40
60
 41
0.8
 50
0
  1
２７５０
  0
TEXT
  8
_0-4_図面枠
 62
    7
 10
752.13137000000916
 20
-1487.1528999999982
 40
60
 41
0.8
 50
0
  1
２４８０
  0
TEXT
  8
_0-4_図面枠
 62
    7
 10
1107.5451900000071
 20
-1789.7378200000003
 40
60
 41
0.8000000000000003
 50
0
  1
０．８
  0
LINE
  8
_0-4_図面枠
  6
CONTINUOUS
 62
    4
 10
1296.1696300000076
 20
-1806.8850799999996
 11
1296.1696300000076
 21
-2106.8850799999996
  0
TEXT
  8
_0-4_図面枠
 62
    7
 10
1107.5451900000071
 20
-2089.7377400000005
 40
60
 41
0.8000000000000003
 50
0
  1
１．０
  0
TEXT
  8
_0-4_図面枠
 62
    7
 10
1107.5451900000071
 20
-1939.7377000000015
 40
60
 41
0.8000000000000003
 50
0
  1
０．８
  0
TEXT
  8
_0-4_図面枠
 62
    7
 10
1107.5451900000071
 20
-1639.7378200000003
 40
60
 41
0.8000000000000003
 50
0
  1
０．６
  0
TEXT
  8
_0-4_図面枠
 62
    7
 10
1107.5451900000071
 20
-1489.7377400000005
 40
60
 41
0.8000000000000003
 50
0
  1
０．６
  0
LINE
  8
_0-3_躯体と製品
  6
CONTINUOUS
 62
    3
 10
1253.792890000007
 20
266.25056000000063
 11
1808.792890000007
 21
266.25056000000063
  0
LINE
  8
_0-3_躯体と製品
  6
PLINE2
 62
    3
 10
1428.7928900000061
 20
279.05637999999954
 11
1808.792890000007
 21
279.05637999999954
  0
LINE
  8
_0-3_躯体と製品
  6
PLINE2
 62
    3
 10
1428.7928900000061
 20
296.05637999999954
 11
1808.792890000007
 21
296.05637999999954
  0
LINE
  8
_0-3_躯体と製品
  6
CONTINUOUS
 62
    3
 10
1253.792890000007
 20
276.05638000000067
 11
1808.792890000007
 21
276.05638000000067
  0
TEXT
  8
_0-4_図面枠
 62
    7
 10
1607.507650000005
 20
79.546700000000556
 40
59.999999999999986
 41
0.8
 50
0
  1
添母屋
  0
LINE
  8
_0-4_図面枠
  6
CONTINUOUS
 62
    3
 10
1607.5073700000066
 20
69.54664000000048
 11
1760.5743700000066
 21
69.54664000000048
  0
TEXT
  8
_0-4_図面枠
 62
    7
 10
743.40823000000728
 20
-1334.2563999999993
 40
60
 41
0.8
 50
0
  1
２０６０
  0
TEXT
  8
_0-4_図面枠
 62
    7
 10
449.03567000000567
 20
-1165.3520600000006
 40
60
 41
0.8
 50
0
  1
Ｊ
  0
TEXT
  8
_0-4_図面枠
 62
    7
 10
849.03567000000567
 20
-1165.3520600000006
 40
60
 41
0.8000000000000006
 50
0
  1
Ｅ
  0
TEXT
  8
_0-4_図面枠
 62
    7
 10
1103.115250000008
 20
-1174.1411199999993
 40
60
 41
0.8000000000000006
 50
0
  1
板厚
  0
TEXT
  8
_0-4_図面枠
 62
    7
 10
1107.5451900000071
 20
-1339.7378200000003
 40
60
 41
0.8000000000000003
 50
0
  1
０．６
  0
LINE
  8
_0-3_躯体と製品
  6
CONTINUOUS
 62
    3
 10
993.7928900000079
 20
266.25056000000063
 11
1233.7928900000061
 21
266.25056000000063
  0
LINE
  8
_0-3_躯体と製品
  6
PLINE2
 62
    3
 10
1058.7928900000061
 20
279.05637999999954
 11
993.7928900000079
 21
279.05637999999954
  0
LINE
  8
_0-3_躯体と製品
  6
PLINE2
 62
    3
 10
1058.7928900000061
 20
296.05637999999954
 11
993.7928900000079
 21
296.05637999999954
  0
LINE
  8
_0-3_躯体と製品
  6
CONTINUOUS
 62
    3
 10
1233.7928900000061
 20
276.05638000000067
 11
993.7928900000079
 21
276.05638000000067
  0
LINE
  8
_0-4_図面枠
  6
CONTINUOUS
 62
    3
 10
957.69585000000734
 20
280.30453999999963
 11
1188.559130000006
 21
-119.56237999999939
  0
LINE
  8
_0-3_躯体と製品
  6
CONTINUOUS
 62
    3
 10
943.79289000000699
 20
276.05638000000067
 11
993.7928900000079
 21
276.05638000000067
  0
LINE
  8
_0-3_躯体と製品
  6
CONTINUOUS
 62
    3
 10
990.79289000000426
 20
279.05637999999954
 11
946.79289000000426
 21
279.05637999999954
  0
LINE
  8
_0-4_図面枠
  6
CONTINUOUS
 62
    3
 10
957.69585000000734
 20
280.30453999999963
 11
986.35611000000881
 21
250.66354000000069
  0
LINE
  8
_0-3_躯体と製品
  6
CONTINUOUS
 62
    3
 10
943.79289000000699
 20
279.05637999999954
 11
943.79289000000699
 21
276.05638000000067
  0
LINE
  8
_0-3_躯体と製品
  6
CONTINUOUS
 62
    3
 10
946.79289000000426
 20
296.05637999999954
 11
946.79289000000426
 21
279.05637999999954
  0
LINE
  8
_0-3_躯体と製品
  6
CONTINUOUS
 62
    3
 10
943.79289000000699
 20
296.05637999999954
 11
946.79289000000426
 21
296.05637999999954
  0
LINE
  8
_0-3_躯体と製品
  6
CONTINUOUS
 62
    3
 10
943.79289000000699
 20
279.05637999999954
 11
943.79289000000699
 21
296.05637999999954
  0
TEXT
  8
_0-4_図面枠
 62
    7
 10
1188.5592900000056
 20
-109.5622000000003
 40
60.000000000000007
 41
0.7999999999999999
 50
0.0000100000009725
  1
受枠
  0
LINE
  8
_0-4_図面枠
  6
CONTINUOUS
 62
    3
 10
1188.559130000006
 20
-119.56237999999939
 11
1283.8038300000098
 21
-119.56237999999939
  0
LINE
  8
_0-3_躯体と製品
  6
PLINE2
 62
    3
 10
1253.792890000007
 20
279.05637999999954
 11
1378.792890000007
 21
279.05637999999954
  0
LINE
  8
_0-3_躯体と製品
  6
PLINE2
 62
    3
 10
1253.792890000007
 20
296.05637999999954
 11
1378.792890000007
 21
296.05637999999954
  0
LINE
  8
_0-3_躯体と製品
  6
PLINE2
 62
    3
 10
1233.7928900000061
 20
279.05637999999954
 11
1108.7928900000061
 21
279.05637999999954
  0
LINE
  8
_0-3_躯体と製品
  6
PLINE2
 62
    3
 10
1233.7928900000061
 20
296.05637999999954
 11
1108.7928900000061
 21
296.05637999999954
  0
LINE
  8
_0-4_図面枠
  6
CONTINUOUS
 62
    3
 10
1484.0380900000055
 20
283.40170000000148
 11
1607.5073700000066
 21
69.54664000000048
  0
LINE
  8
_0-4_図面枠
  6
CONTINUOUS
 62
    3
 10
1484.0380900000055
 20
283.40170000000148
 11
1512.6983500000078
 21
253.76068000000055
  0
TEXT
  8
_0-4_図面枠
 62
    7
 10
2205.1480300000076
 20
-3.3868199999983517
 40
60.000000000000007
 41
0.7999999999999998
 50
0.0000100000010064
  1
屋根材
  0
LINE
  8
_0-4_図面枠
  6
CONTINUOUS
 62
    3
 10
2200.4235900000076
 20
-9.057140000000345
 11
2382.8331300000063
 21
-9.057140000000345
  0
LINE
  8
_0-4_図面枠
  6
CONTINUOUS
 62
    3
 10
2102.6638300000086
 20
160.2677599999995
 11
2200.4235900000076
 21
-9.057140000000345
  0
LINE
  8
_0-4_図面枠
  6
CONTINUOUS
 62
    3
 10
2102.6638300000086
 20
160.2677599999995
 11
2131.3240700000079
 21
130.62674000000061
  0
LINE
  8
_0-3_躯体と製品
  6
CONTINUOUS
 62
    3
 10
2753.7928900000115
 20
561.58374000000163
 11
2993.7928900000115
 21
561.58374000000163
  0
LINE
  8
_0-3_躯体と製品
  6
CONTINUOUS
 62
    7
 10
2413.7928900000079
 20
491.70152000000053
 11
2993.7928900000115
 21
491.70152000000053
  0
LINE
  8
_0-3_躯体と製品
  6
PLINE2
 62
    6
 10
2845.0847300000059
 20
374.28059999999959
 11
2895.8892300000098
 21
425.08508000000165
  0
LINE
  8
_0-3_躯体と製品
  6
PLINE2
 62
    6
 10
2809.8904700000076
 20
374.4416599999995
 11
2927.1503300000113
 21
491.70152000000053
  0
LINE
  8
_0-3_躯体と製品
  6
PLINE2
 62
    6
 10
2774.696210000011
 20
374.60274000000049
 11
2891.7949900000058
 21
491.70152000000053
  0
LINE
  8
_0-3_躯体と製品
  6
PLINE2
 62
    6
 10
2912.467770000012
 20
444.70276000000058
 11
2865.4689900000067
 21
491.70152000000053
  0
LINE
  8
_0-3_躯体と製品
  6
PLINE2
 62
    6
 10
2896.132710000009
 20
425.68248000000062
 11
2830.1136500000084
 21
491.70152000000053
  0
LINE
  8
_0-3_躯体と製品
  6
CONTINUOUS
 62
    3
 10
2928.7928900000115
 20
463.71146000000158
 11
2855.7928900000097
 21
378.71146000000249
  0
TEXT
  8
_0-4_図面枠
 62
    7
 10
2225.2346900000048
 20
2705.8595599999999
 40
200
 41
0.8
 50
0
  1
（折版　棟割）
  0
LINE
  8
_0-3_躯体と製品
  6
CONTINUOUS
 62
    4
 10
1428.7928900000061
 20
974.58738000000017
 11
1808.792890000007
 21
974.58738000000017
  0
LINE
  8
_0-3_躯体と製品
  6
CONTINUOUS
 62
    4
 10
1808.792890000007
 20
1114.1106000000011
 11
1428.7928900000061
 21
1114.1106000000011
  0
LINE
  8
_0-3_躯体と製品
  6
CONTINUOUS
 62
    4
 10
1808.792890000007
 20
1129.50548
 11
1428.7928900000061
 21
1129.50548
  0
LINE
  8
_0-3_躯体と製品
  6
CONTINUOUS
 62
    4
 10
1808.792890000007
 20
1244.8123200000007
 11
1428.7928900000061
 21
1244.8123200000007
  0
LINE
  8
_0-3_躯体と製品
  6
CONTINUOUS
 62
    4
 10
1808.792890000007
 20
1259.8123200000007
 11
1428.7928900000061
 21
1259.8123200000007
  0
LINE
  8
_0-3_躯体と製品
  6
CONTINUOUS
 62
    4
 10
1808.792890000007
 20
1351.2950199999998
 11
1428.7928900000061
 21
1351.2950199999998
  0
LINE
  8
_0-3_躯体と製品
  6
CONTINUOUS
 62
    4
 10
1434.7928900000061
 20
1366.59798
 11
1808.792890000007
 21
1366.59798
  0
LINE
  8
_0-3_躯体と製品
  6
CONTINUOUS
 62
    4
 10
1253.792890000007
 20
1584.5873800000002
 11
1808.792890000007
 21
1584.5873800000002
  0
LINE
  8
_0-3_躯体と製品
  6
CONTINUOUS
 62
    7
 10
1253.792890000007
 20
1534.5873800000002
 11
1808.792890000007
 21
1534.5873800000002
  0
LINE
  8
_0-3_躯体と製品
  6
PLINE2
 62
    3
 10
1808.792890000007
 20
379.43422000000055
 11
1428.7928900000061
 21
379.43422000000055
  0
LINE
  8
_0-3_躯体と製品
  6
PLINE2
 62
    3
 10
1808.792890000007
 20
362.43422000000055
 11
1428.7928900000061
 21
362.43422000000055
  0
LINE
  8
_0-3_躯体と製品
  6
CONTINUOUS
 62
    3
 10
1428.7928900000061
 20
516.54735999999957
 11
1808.792890000007
 21
516.54735999999957
  0
LINE
  8
_0-3_躯体と製品
  6
CONTINUOUS
 62
    3
 10
1429.6522900000064
 20
513.28388000000064
 11
1809.6522900000073
 21
513.28388000000064
  0
LINE
  8
_0-3_躯体と製品
  6
PLINE2
 62
    6
 10
1722.4690900000069
 20
397.28388000000064
 11
1606.4690900000069
 21
513.28388000000064
  0
LINE
  8
_0-3_躯体と製品
  6
CONTINUOUS
 62
    3
 10
1808.792890000007
 20
382.43422000000055
 11
1428.7928900000061
 21
382.43422000000055
  0
LINE
  8
_0-3_躯体と製品
  6
CONTINUOUS
 62
    3
 10
1619.6522900000064
 20
487.28388000000064
 11
1692.6522900000082
 21
402.28388000000064
  0
LINE
  8
_0-3_躯体と製品
  6
PLINE2
 62
    6
 10
1757.8244300000069
 20
397.28388000000064
 11
1641.8244300000079
 21
513.28388000000064
  0
LINE
  8
_0-3_躯体と製品
  6
PLINE2
 62
    6
 10
1643.1630300000079
 20
459.45598000000064
 11
1696.9909300000081
 21
513.28388000000064
  0
LINE
  8
_0-3_躯体と製品
  6
PLINE2
 62
    6
 10
1659.7719900000056
 20
440.70960000000059
 11
1732.3462700000055
 21
513.28388000000064
  0
LINE
  8
_0-3_躯体と製品
  6
CONTINUOUS
 62
    7
 10
893.79289000000699
 20
561.58374000000163
 11
893.79289000000699
 21
1584.5873800000002
  0
LINE
  8
_0-4_図面枠
  6
CONTINUOUS
 62
    3
 10
891.88263000000734
 20
1058.6928400000008
 11
821.34493000000839
 21
1180.8677200000009
  0
LINE
  8
_0-3_躯体と製品
  6
CONTINUOUS
 62
    4
 10
937.79289000000699
 20
1114.1106000000011
 11
1058.7928900000061
 21
1114.1106000000011
  0
LINE
  8
_0-3_躯体と製品
  6
CONTINUOUS
 62
    4
 10
937.79289000000699
 20
1129.50548
 11
1058.7928900000061
 21
1129.50548
  0
LINE
  8
_0-3_躯体と製品
  6
CONTINUOUS
 62
    4
 10
937.79289000000699
 20
974.58738000000017
 11
1058.7928900000061
 21
974.58738000000017
  0
LINE
  8
_0-3_躯体と製品
  6
CONTINUOUS
 62
    3
 10
1049.7928900000061
 20
954.58738000000017
 11
1079.7928900000061
 21
954.58738000000017
  0
LINE
  8
_0-3_躯体と製品
  6
PLINE2
 62
    3
 10
1058.7928900000061
 20
379.43422000000055
 11
993.7928900000079
 21
379.43422000000055
  0
LINE
  8
_0-3_躯体と製品
  6
PLINE2
 62
    3
 10
1058.7928900000061
 20
362.43422000000055
 11
993.7928900000079
 21
362.43422000000055
  0
LINE
  8
_0-3_躯体と製品
  6
CONTINUOUS
 62
    3
 10
993.7928900000079
 20
516.54735999999957
 11
1058.7928900000061
 21
516.54735999999957
  0
LINE
  8
_0-3_躯体と製品
  6
PLINE2
 62
    6
 10
1042.6917500000054
 20
460.02545999999961
 11
1059.6522900000073
 21
476.98599999999965
  0
LINE
  8
_0-3_躯体と製品
  6
PLINE2
 62
    6
 10
1059.6522900000073
 20
459.05991999999969
 11
1005.428330000007
 21
513.28388000000064
  0
LINE
  8
_0-3_躯体と製品
  6
PLINE2
 62
    6
 10
1040.7836700000071
 20
513.28388000000064
 11
1059.6522900000073
 21
494.41526000000067
  0
LINE
  8
_0-3_躯体と製品
  6
CONTINUOUS
 62
    3
 10
1058.7928900000061
 20
382.43422000000055
 11
993.7928900000079
 21
382.43422000000055
  0
LINE
  8
_0-3_躯体と製品
  6
PLINE2
 62
    6
 10
1026.4351300000071
 20
479.12418000000162
 11
1060.5948300000064
 21
513.28388000000064
  0
LINE
  8
_0-3_躯体と製品
  6
CONTINUOUS
 62
    3
 10
1019.6522900000064
 20
487.28388000000064
 11
1058.7928900000061
 21
441.70922000000064
  0
LINE
  8
_0-3_躯体と製品
  6
CONTINUOUS
 62
    3
 10
994.65229000000636
 20
513.28388000000064
 11
1059.6522900000073
 21
513.28388000000064
  0
LINE
  8
_0-3_躯体と製品
  6
CONTINUOUS
 62
    7
 10
653.79289000000699
 20
561.58374000000163
 11
893.79289000000699
 21
561.58374000000163
  0
LINE
  8
_0-3_躯体と製品
  6
CONTINUOUS
 62
    3
 10
951.35577000000831
 20
513.28388000000064
 11
736.2300100000075
 21
513.28388000000064
  0
LINE
  8
_0-3_躯体と製品
  6
PLINE2
 62
    6
 10
760.79987000000801
 20
513.28388000000064
 11
747.58191000000716
 21
500.06591999999955
  0
LINE
  8
_0-3_躯体と製品
  6
PLINE2
 62
    6
 10
747.05163000000812
 20
513.28388000000064
 11
816.74813000000722
 21
443.58738000000153
  0
LINE
  8
_0-3_躯体と製品
  6
CONTINUOUS
 62
    3
 10
718.79289000000699
 20
533.58738000000062
 11
791.79289000000335
 21
448.58738000000153
  0
LINE
  8
_0-3_躯体と製品
  6
CONTINUOUS
 62
    7
 10
653.79289000000699
 20
561.58374000000163
 11
620.45003000000906
 21
488.86336000000051
  0
LINE
  8
_0-3_躯体と製品
  6
CONTINUOUS
 62
    3
 10
674.39599000000544
 20
533.86884000000055
 11
687.0615500000049
 21
539.77942000000053
  0
LINE
  8
_0-3_躯体と製品
  6
CONTINUOUS
 62
    3
 10
713.18977000000632
 20
533.86884000000055
 11
700.52423000000817
 21
539.77942000000053
  0
LINE
  8
_0-3_躯体と製品
  6
CONTINUOUS
 62
    3
 10
668.79289000000699
 20
533.58738000000062
 11
595.79289000001063
 21
448.58738000000153
  0
LINE
  8
_0-3_躯体と製品
  6
CONTINUOUS
 62
    3
 10
595.79289000001063
 20
443.58738000000153
 11
491.79289000000881
 21
443.58738000000153
  0
LINE
  8
_0-3_躯体と製品
  6
CONTINUOUS
 62
    3
 10
491.79289000000881
 20
448.58738000000153
 11
491.79289000000881
 21
443.58738000000153
  0
LINE
  8
_0-3_躯体と製品
  6
CONTINUOUS
 62
    3
 10
595.79289000001063
 20
448.58738000000153
 11
595.79289000001063
 21
443.58738000000153
  0
LINE
  8
_0-3_躯体と製品
  6
CONTINUOUS
 62
    7
 10
620.45003000000906
 20
488.86336000000051
 11
617.87089000000651
 21
474.30728000000067
  0
LINE
  8
_0-3_躯体と製品
  6
CONTINUOUS
 62
    3
 10
673.12735000000703
 20
533.58738000000062
 11
668.79289000000699
 21
533.58738000000062
  0
ARC
  8
_0-3_躯体と製品
  6
CONTINUOUS
 62
    3
 10
673.12735000000703
 20
536.58738000000062
 40
3
 50
270
 51
295.01689299999992
  0
LINE
  8
_0-3_躯体と製品
  6
CONTINUOUS
 62
    3
 10
714.45843000000605
 20
533.58738000000062
 11
718.79289000000699
 21
533.58738000000062
  0
ARC
  8
_0-3_躯体と製品
  6
CONTINUOUS
 62
    3
 10
714.45843000000605
 20
536.58738000000062
 40
3
 50
244.98310699999996
 51
270
  0
ARC
  8
_0-3_躯体と製品
  6
CONTINUOUS
 62
    3
 10
685.79289000000881
 20
542.49798000000055
 40
3
 50
295.01689299999992
 51
0
  0
ARC
  8
_0-3_躯体と製品
  6
CONTINUOUS
 62
    3
 10
689.49603000000843
 20
549.5048799999995
 40
7.155219999999999
 50
150.21503199999719
 51
190.0907490000026
  0
ARC
  8
_0-3_躯体と製品
  6
CONTINUOUS
 62
    3
 10
685.77791000000798
 20
541.13931999999954
 40
4.265979999999999
 50
44.874244000000701
 51
84.466247999999354
  0
ARC
  8
_0-3_躯体と製品
  6
CONTINUOUS
 62
    3
 10
686.61851000000479
 20
549.81568000000061
 40
4.4509999999999987
 50
200.57807999999901
 51
264.46624799999933
  0
LINE
  8
_0-3_躯体と製品
  6
CONTINUOUS
 62
    3
 10
688.80103000000599
 20
544.14920000000052
 11
688.79289000000608
 21
543.66788000000065
  0
LINE
  8
_0-3_躯体と製品
  6
CONTINUOUS
 62
    3
 10
693.79289000000699
 20
559.58738000000062
 11
692.35155000000486
 21
559.50064000000157
  0
LINE
  8
_0-3_躯体と製品
  6
CONTINUOUS
 62
    3
 10
692.35155000000486
 20
559.50064000000157
 11
690.93295000000853
 21
559.24180000000069
  0
LINE
  8
_0-3_躯体と製品
  6
CONTINUOUS
 62
    3
 10
690.93295000000853
 20
559.24180000000069
 11
689.55945000000884
 21
558.81492000000048
  0
LINE
  8
_0-3_躯体と製品
  6
CONTINUOUS
 62
    3
 10
689.55945000000884
 20
558.81492000000048
 11
688.25273000000652
 21
558.2267600000007
  0
LINE
  8
_0-3_躯体と製品
  6
CONTINUOUS
 62
    3
 10
688.25273000000652
 20
558.2267600000007
 11
687.0333500000088
 21
557.48657999999955
  0
LINE
  8
_0-3_躯体と製品
  6
CONTINUOUS
 62
    3
 10
687.0333500000088
 20
557.48657999999955
 11
685.92059000000791
 21
556.60604000000058
  0
LINE
  8
_0-3_躯体と製品
  6
CONTINUOUS
 62
    3
 10
685.92059000000791
 20
556.60604000000058
 11
684.93199000000732
 21
555.59904000000051
  0
LINE
  8
_0-3_躯体と製品
  6
CONTINUOUS
 62
    3
 10
684.93199000000732
 20
555.59904000000051
 11
684.08311000000958
 21
554.4814800000006
  0
LINE
  8
_0-3_躯体と製品
  6
CONTINUOUS
 62
    3
 10
684.08311000000958
 20
554.4814800000006
 11
683.38737000000765
 21
553.2709599999996
  0
LINE
  8
_0-3_躯体と製品
  6
CONTINUOUS
 62
    3
 10
683.38737000000765
 20
553.2709599999996
 11
683.28605000000789
 21
553.0592000000006
  0
LINE
  8
_0-3_躯体と製品
  6
CONTINUOUS
 62
    3
 10
688.79289000000608
 20
543.66788000000065
 11
688.79289000000608
 21
542.49798000000055
  0
ARC
  8
_0-3_躯体と製品
  6
CONTINUOUS
 62
    3
 10
701.79289000000881
 20
542.49798000000055
 40
3
 50
180
 51
244.98310699999996
  0
ARC
  8
_0-3_躯体と製品
  6
CONTINUOUS
 62
    3
 10
698.08973000000788
 20
549.5048799999995
 40
7.155219999999999
 50
349.90925099999731
 51
29.784968000002806
  0
ARC
  8
_0-3_躯体と製品
  6
CONTINUOUS
 62
    3
 10
701.80787000000964
 20
541.13931999999954
 40
4.265979999999999
 50
95.533752000000661
 51
135.12575599999923
  0
ARC
  8
_0-3_躯体と製品
  6
CONTINUOUS
 62
    3
 10
700.96727000000828
 20
549.81568000000061
 40
4.4509999999999987
 50
275.53375200000062
 51
339.4219200000008
  0
LINE
  8
_0-3_躯体と製品
  6
CONTINUOUS
 62
    3
 10
698.78475000000708
 20
544.14920000000052
 11
698.79289000000699
 21
543.66788000000065
  0
LINE
  8
_0-3_躯体と製品
  6
CONTINUOUS
 62
    3
 10
704.29973000000518
 20
553.0592000000006
 11
703.63093000000754
 21
554.28354000000149
  0
LINE
  8
_0-3_躯体と製品
  6
CONTINUOUS
 62
    3
 10
703.63093000000754
 20
554.28354000000149
 11
702.80699000000641
 21
555.41806000000065
  0
LINE
  8
_0-3_躯体と製品
  6
CONTINUOUS
 62
    3
 10
702.80699000000641
 20
555.41806000000065
 11
701.84087000000818
 21
556.44484000000057
  0
LINE
  8
_0-3_躯体と製品
  6
CONTINUOUS
 62
    3
 10
701.84087000000818
 20
556.44484000000057
 11
700.7478500000052
 21
557.34770000000049
  0
LINE
  8
_0-3_躯体と製品
  6
CONTINUOUS
 62
    3
 10
700.7478500000052
 20
557.34770000000049
 11
699.54515000000629
 21
558.11242000000061
  0
LINE
  8
_0-3_躯体と製品
  6
CONTINUOUS
 62
    3
 10
699.54515000000629
 20
558.11242000000061
 11
698.25173000000905
 21
558.72692000000052
  0
LINE
  8
_0-3_躯体と製品
  6
CONTINUOUS
 62
    3
 10
698.25173000000905
 20
558.72692000000052
 11
696.88797000000523
 21
559.18149999999969
  0
LINE
  8
_0-3_躯体と製品
  6
CONTINUOUS
 62
    3
 10
696.88797000000523
 20
559.18149999999969
 11
695.47543000000951
 21
559.46902000000068
  0
LINE
  8
_0-3_躯体と製品
  6
CONTINUOUS
 62
    3
 10
695.47543000000951
 20
559.46902000000068
 11
694.03633000000536
 21
559.58491999999956
  0
LINE
  8
_0-3_躯体と製品
  6
CONTINUOUS
 62
    3
 10
694.03633000000536
 20
559.58491999999956
 11
693.79289000000699
 21
559.58738000000062
  0
LINE
  8
_0-3_躯体と製品
  6
CONTINUOUS
 62
    3
 10
698.79289000000699
 20
543.66788000000065
 11
698.79289000000699
 21
542.49798000000055
  0
LINE
  8
_0-3_躯体と製品
  6
CONTINUOUS
 62
    3
 10
974.39599000000544
 20
533.86884000000055
 11
987.06155000000581
 21
539.77942000000053
  0
LINE
  8
_0-3_躯体と製品
  6
CONTINUOUS
 62
    3
 10
1013.1897700000063
 20
533.86884000000055
 11
1000.5242300000082
 21
539.77942000000053
  0
LINE
  8
_0-3_躯体と製品
  6
CONTINUOUS
 62
    3
 10
893.79289000000699
 20
516.54735999999957
 11
954.15851000000566
 21
516.54735999999957
  0
LINE
  8
_0-3_躯体と製品
  6
PLINE2
 62
    6
 10
937.57657000000927
 20
513.28388000000064
 11
867.88007000000835
 21
443.58738000000153
  0
LINE
  8
_0-3_躯体と製品
  6
PLINE2
 62
    6
 10
888.47299000000658
 20
513.28388000000064
 11
922.30233000000953
 21
479.45454000000063
  0
LINE
  8
_0-3_躯体と製品
  6
PLINE2
 62
    6
 10
853.11765000000651
 20
513.28388000000064
 11
905.96727000000737
 21
460.43425999999954
  0
LINE
  8
_0-3_躯体と製品
  6
CONTINUOUS
 62
    3
 10
968.79289000000699
 20
533.58738000000062
 11
895.79289000000517
 21
448.58738000000153
  0
LINE
  8
_0-3_躯体と製品
  6
PLINE2
 62
    6
 10
866.86589000000731
 20
513.28388000000064
 11
797.16939000000639
 21
443.58738000000153
  0
LINE
  8
_0-3_躯体と製品
  6
PLINE2
 62
    6
 10
831.51055000000633
 20
513.28388000000064
 11
780.25203000000784
 21
462.02536000000055
  0
LINE
  8
_0-3_躯体と製品
  6
PLINE2
 62
    6
 10
817.76231000000553
 20
513.28388000000064
 11
887.45881000000554
 21
443.58738000000153
  0
LINE
  8
_0-3_躯体と製品
  6
PLINE2
 62
    6
 10
782.40697000001001
 20
513.28388000000064
 11
852.10347000000911
 21
443.58738000000153
  0
LINE
  8
_0-3_躯体と製品
  6
CONTINUOUS
 62
    3
 10
895.79289000000517
 20
443.58738000000153
 11
791.79289000000335
 21
443.58738000000153
  0
LINE
  8
_0-3_躯体と製品
  6
PLINE2
 62
    6
 10
796.15521000000899
 20
513.28388000000064
 11
763.91697000000659
 21
481.04563999999959
  0
LINE
  8
_0-3_躯体と製品
  6
CONTINUOUS
 62
    3
 10
791.79289000000335
 20
448.58738000000153
 11
791.79289000000335
 21
443.58738000000153
  0
LINE
  8
_0-3_躯体と製品
  6
PLINE2
 62
    6
 10
902.22123000000829
 20
513.28388000000064
 11
832.52473000000737
 21
443.58738000000153
  0
LINE
  8
_0-3_躯体と製品
  6
CONTINUOUS
 62
    3
 10
895.79289000000517
 20
448.58738000000153
 11
895.79289000000517
 21
443.58738000000153
  0
LINE
  8
_0-3_躯体と製品
  6
CONTINUOUS
 62
    3
 10
943.79289000000699
 20
382.43422000000055
 11
993.7928900000079
 21
382.43422000000055
  0
LINE
  8
_0-3_躯体と製品
  6
CONTINUOUS
 62
    3
 10
946.79289000000426
 20
379.43422000000055
 11
990.79289000000426
 21
379.43422000000055
  0
LINE
  8
_0-3_躯体と製品
  6
CONTINUOUS
 62
    3
 10
943.79289000000699
 20
362.43422000000055
 11
943.79289000000699
 21
382.43422000000055
  0
LINE
  8
_0-3_躯体と製品
  6
CONTINUOUS
 62
    3
 10
946.79289000000426
 20
362.43422000000055
 11
943.79289000000699
 21
362.43422000000055
  0
LINE
  8
_0-3_躯体と製品
  6
CONTINUOUS
 62
    3
 10
946.79289000000426
 20
379.43422000000055
 11
946.79289000000426
 21
362.43422000000055
  0
LINE
  8
_0-3_躯体と製品
  6
CONTINUOUS
 62
    3
 10
975.25541000000703
 20
487.56534000000056
 11
987.92095000000518
 21
493.47592000000054
  0
LINE
  8
_0-3_躯体と製品
  6
PLINE2
 62
    6
 10
923.82833000000846
 20
513.28388000000064
 11
938.63739000000623
 21
498.47482000000059
  0
LINE
  8
_0-3_躯体と製品
  6
CONTINUOUS
 62
    3
 10
973.12735000000703
 20
533.58738000000062
 11
968.79289000000699
 21
533.58738000000062
  0
ARC
  8
_0-3_躯体と製品
  6
CONTINUOUS
 62
    3
 10
973.12735000000703
 20
536.58738000000062
 40
3
 50
270
 51
295.01689299999992
  0
LINE
  8
_0-3_躯体と製品
  6
CONTINUOUS
 62
    3
 10
973.9867500000064
 20
487.28388000000064
 11
969.65229000000636
 21
487.28388000000064
  0
ARC
  8
_0-3_躯体と製品
  6
CONTINUOUS
 62
    3
 10
973.9867500000064
 20
490.2838799999995
 40
3
 50
270
 51
295.01689299999992
  0
LINE
  8
_0-3_躯体と製品
  6
CONTINUOUS
 62
    3
 10
969.65229000000636
 20
487.28388000000064
 11
961.02589000000808
 21
477.23944000000051
  0
LINE
  8
_0-3_躯体と製品
  6
CONTINUOUS
 62
    3
 10
1018.792890000007
 20
533.58738000000062
 11
1018.792890000007
 21
487.28388000000064
  0
LINE
  8
_0-3_躯体と製品
  6
PLINE2
 62
    6
 10
1004.1525100000063
 20
492.1969000000006
 11
1025.2394900000063
 21
513.28388000000064
  0
LINE
  8
_0-3_躯体と製品
  6
CONTINUOUS
 62
    3
 10
1014.458430000006
 20
533.58738000000062
 11
1018.792890000007
 21
533.58738000000062
  0
ARC
  8
_0-3_躯体と製品
  6
CONTINUOUS
 62
    3
 10
1014.458430000006
 20
536.58738000000062
 40
3
 50
244.98310699999996
 51
270
  0
LINE
  8
_0-3_躯体と製品
  6
CONTINUOUS
 62
    3
 10
1018.792890000007
 20
533.58738000000062
 11
1022.2983100000083
 21
529.50572000000057
  0
ARC
  8
_0-3_躯体と製品
  6
CONTINUOUS
 62
    3
 10
986.65229000000909
 20
496.19448000000057
 40
3
 50
295.01689299999992
 51
0
  0
ARC
  8
_0-3_躯体と製品
  6
CONTINUOUS
 62
    3
 10
990.35545000000911
 20
503.20138000000065
 40
7.155219999999999
 50
150.21503199999719
 51
190.0907490000026
  0
ARC
  8
_0-3_躯体と製品
  6
CONTINUOUS
 62
    3
 10
986.63731000000826
 20
494.83582000000069
 40
4.265979999999999
 50
44.874244000000701
 51
84.466247999999354
  0
ARC
  8
_0-3_躯体と製品
  6
CONTINUOUS
 62
    3
 10
987.47791000000507
 20
503.51218000000063
 40
4.4509999999999987
 50
200.57807999999901
 51
264.46624799999933
  0
LINE
  8
_0-3_躯体と製品
  6
CONTINUOUS
 62
    3
 10
989.66043000000718
 20
497.84570000000053
 11
989.65229000000636
 21
497.36438000000066
  0
LINE
  8
_0-3_躯体と製品
  6
CONTINUOUS
 62
    3
 10
994.65229000000636
 20
513.28388000000064
 11
993.21097000000736
 21
513.19713999999954
  0
LINE
  8
_0-3_躯体と製品
  6
CONTINUOUS
 62
    3
 10
993.21097000000736
 20
513.19713999999954
 11
991.79237000000649
 21
512.93830000000048
  0
LINE
  8
_0-3_躯体と製品
  6
CONTINUOUS
 62
    3
 10
991.79237000000649
 20
512.93830000000048
 11
990.41887000000588
 21
512.5114200000005
  0
LINE
  8
_0-3_躯体と製品
  6
CONTINUOUS
 62
    3
 10
990.41887000000588
 20
512.5114200000005
 11
989.11213000000498
 21
511.92326000000162
  0
LINE
  8
_0-3_躯体と製品
  6
CONTINUOUS
 62
    3
 10
989.11213000000498
 20
511.92326000000162
 11
987.89277000000584
 21
511.1830800000007
  0
LINE
  8
_0-3_躯体と製品
  6
CONTINUOUS
 62
    3
 10
987.89277000000584
 20
511.1830800000007
 11
986.78001000000495
 21
510.30254000000059
  0
LINE
  8
_0-3_躯体と製品
  6
CONTINUOUS
 62
    3
 10
986.78001000000495
 20
510.30254000000059
 11
985.7913900000076
 21
509.29554000000053
  0
LINE
  8
_0-3_躯体と製品
  6
CONTINUOUS
 62
    3
 10
985.7913900000076
 20
509.29554000000053
 11
984.94253000000481
 21
508.17798000000062
  0
LINE
  8
_0-3_躯体と製品
  6
CONTINUOUS
 62
    3
 10
984.94253000000481
 20
508.17798000000062
 11
984.24679000000378
 21
506.96746000000053
  0
LINE
  8
_0-3_躯体と製品
  6
CONTINUOUS
 62
    3
 10
984.24679000000378
 20
506.96746000000053
 11
984.14547000000584
 21
506.75570000000153
  0
LINE
  8
_0-3_躯体と製品
  6
CONTINUOUS
 62
    3
 10
989.65229000000636
 20
497.36438000000066
 11
989.65229000000636
 21
496.19448000000057
  0
ARC
  8
_0-3_躯体と製品
  6
CONTINUOUS
 62
    3
 10
1002.6522900000073
 20
496.19448000000057
 40
3
 50
180
 51
244.98310699999996
  0
ARC
  8
_0-3_躯体と製品
  6
CONTINUOUS
 62
    3
 10
998.94915000000583
 20
503.20138000000065
 40
7.155219999999999
 50
349.90925099999731
 51
29.784968000002806
  0
ARC
  8
_0-3_躯体と製品
  6
CONTINUOUS
 62
    3
 10
1002.667270000009
 20
494.83582000000069
 40
4.265979999999999
 50
95.533752000000661
 51
135.12575599999923
  0
ARC
  8
_0-3_躯体と製品
  6
CONTINUOUS
 62
    3
 10
1001.8266900000062
 20
503.51218000000063
 40
4.4509999999999987
 50
275.53375200000062
 51
339.4219200000008
  0
LINE
  8
_0-3_躯体と製品
  6
CONTINUOUS
 62
    3
 10
999.64415000000645
 20
497.84570000000053
 11
999.65229000000636
 21
497.36438000000066
  0
LINE
  8
_0-3_躯体と製品
  6
CONTINUOUS
 62
    3
 10
1005.1591300000091
 20
506.75570000000153
 11
1004.4903300000051
 21
507.9800400000006
  0
LINE
  8
_0-3_躯体と製品
  6
CONTINUOUS
 62
    3
 10
1004.4903300000051
 20
507.9800400000006
 11
1003.6663900000049
 21
509.11456000000067
  0
LINE
  8
_0-3_躯体と製品
  6
CONTINUOUS
 62
    3
 10
1003.6663900000049
 20
509.11456000000067
 11
1002.7002900000061
 21
510.14134000000058
  0
LINE
  8
_0-3_躯体と製品
  6
CONTINUOUS
 62
    3
 10
1002.7002900000061
 20
510.14134000000058
 11
1001.6072700000068
 21
511.04420000000164
  0
LINE
  8
_0-3_躯体と製品
  6
CONTINUOUS
 62
    3
 10
1001.6072700000068
 20
511.04420000000164
 11
1000.4045500000066
 21
511.80892000000154
  0
LINE
  8
_0-3_躯体と製品
  6
CONTINUOUS
 62
    3
 10
1000.4045500000066
 20
511.80892000000154
 11
999.11113000000933
 21
512.42342000000053
  0
LINE
  8
_0-3_躯体と製品
  6
CONTINUOUS
 62
    3
 10
999.11113000000933
 20
512.42342000000053
 11
997.74739000000682
 21
512.87800000000061
  0
LINE
  8
_0-3_躯体と製品
  6
CONTINUOUS
 62
    3
 10
997.74739000000682
 20
512.87800000000061
 11
996.33483000000797
 21
513.1655200000007
  0
LINE
  8
_0-3_躯体と製品
  6
CONTINUOUS
 62
    3
 10
996.33483000000797
 20
513.1655200000007
 11
994.89573000000655
 21
513.28142000000048
  0
LINE
  8
_0-3_躯体と製品
  6
CONTINUOUS
 62
    3
 10
994.89573000000655
 20
513.28142000000048
 11
994.65229000000636
 21
513.28388000000064
  0
LINE
  8
_0-3_躯体と製品
  6
CONTINUOUS
 62
    3
 10
999.65229000000636
 20
497.36438000000066
 11
999.65229000000636
 21
496.19448000000057
  0
LINE
  8
_0-3_躯体と製品
  6
CONTINUOUS
 62
    3
 10
1015.3178500000085
 20
487.28388000000064
 11
1019.6522900000064
 21
487.28388000000064
  0
ARC
  8
_0-3_躯体と製品
  6
CONTINUOUS
 62
    3
 10
1015.3178500000085
 20
490.2838799999995
 40
3
 50
244.98310699999996
 51
270
  0
LINE
  8
_0-3_躯体と製品
  6
CONTINUOUS
 62
    3
 10
1014.049190000007
 20
487.56534000000056
 11
1001.3836300000085
 21
493.47592000000054
  0
ARC
  8
_0-3_躯体と製品
  6
CONTINUOUS
 62
    3
 10
989.49603000000752
 20
549.5048799999995
 40
7.155219999999999
 50
150.21503199999719
 51
190.0907490000026
  0
ARC
  8
_0-3_躯体と製品
  6
CONTINUOUS
 62
    3
 10
985.79289000000517
 20
542.49798000000055
 40
3
 50
295.01689299999992
 51
0
  0
ARC
  8
_0-3_躯体と製品
  6
CONTINUOUS
 62
    3
 10
985.77791000000889
 20
541.13931999999954
 40
4.265979999999999
 50
44.874244000000701
 51
84.466247999999354
  0
ARC
  8
_0-3_躯体と製品
  6
CONTINUOUS
 62
    3
 10
986.61851000000661
 20
549.81568000000061
 40
4.4509999999999987
 50
200.57807999999901
 51
264.46624799999933
  0
LINE
  8
_0-3_躯体と製品
  6
CONTINUOUS
 62
    3
 10
988.80103000000599
 20
544.14920000000052
 11
988.79289000000608
 21
543.66788000000065
  0
LINE
  8
_0-3_躯体と製品
  6
CONTINUOUS
 62
    3
 10
993.7928900000079
 20
559.58738000000062
 11
992.35155000000486
 21
559.50064000000157
  0
LINE
  8
_0-3_躯体と製品
  6
CONTINUOUS
 62
    3
 10
992.35155000000486
 20
559.50064000000157
 11
990.93295000000853
 21
559.24180000000069
  0
LINE
  8
_0-3_躯体と製品
  6
CONTINUOUS
 62
    3
 10
990.93295000000853
 20
559.24180000000069
 11
989.55945000000793
 21
558.81492000000048
  0
LINE
  8
_0-3_躯体と製品
  6
CONTINUOUS
 62
    3
 10
989.55945000000793
 20
558.81492000000048
 11
988.25273000000652
 21
558.2267600000007
  0
LINE
  8
_0-3_躯体と製品
  6
CONTINUOUS
 62
    3
 10
988.25273000000652
 20
558.2267600000007
 11
987.0333500000088
 21
557.48657999999955
  0
LINE
  8
_0-3_躯体と製品
  6
CONTINUOUS
 62
    3
 10
987.0333500000088
 20
557.48657999999955
 11
985.92059000000791
 21
556.60604000000058
  0
LINE
  8
_0-3_躯体と製品
  6
CONTINUOUS
 62
    3
 10
985.92059000000791
 20
556.60604000000058
 11
984.93199000000732
 21
555.59904000000051
  0
LINE
  8
_0-3_躯体と製品
  6
CONTINUOUS
 62
    3
 10
984.93199000000732
 20
555.59904000000051
 11
984.08311000000958
 21
554.4814800000006
  0
LINE
  8
_0-3_躯体と製品
  6
CONTINUOUS
 62
    3
 10
984.08311000000958
 20
554.4814800000006
 11
983.38737000000765
 21
553.2709599999996
  0
LINE
  8
_0-3_躯体と製品
  6
CONTINUOUS
 62
    3
 10
983.38737000000765
 20
553.2709599999996
 11
983.28605000000789
 21
553.0592000000006
  0
LINE
  8
_0-3_躯体と製品
  6
CONTINUOUS
 62
    3
 10
988.79289000000608
 20
543.66788000000065
 11
988.79289000000608
 21
542.49798000000055
  0
ARC
  8
_0-3_躯体と製品
  6
CONTINUOUS
 62
    3
 10
1001.7928900000043
 20
542.49798000000055
 40
3
 50
180
 51
244.98310699999996
  0
ARC
  8
_0-3_躯体と製品
  6
CONTINUOUS
 62
    3
 10
998.08973000000788
 20
549.5048799999995
 40
7.155219999999999
 50
349.90925099999731
 51
29.784968000002806
  0
ARC
  8
_0-3_躯体と製品
  6
CONTINUOUS
 62
    3
 10
1001.8078700000096
 20
541.13931999999954
 40
4.265979999999999
 50
95.533752000000661
 51
135.12575599999923
  0
ARC
  8
_0-3_躯体と製品
  6
CONTINUOUS
 62
    3
 10
1000.9672700000083
 20
549.81568000000061
 40
4.4509999999999987
 50
275.53375200000062
 51
339.4219200000008
  0
LINE
  8
_0-3_躯体と製品
  6
CONTINUOUS
 62
    3
 10
998.78475000000708
 20
544.14920000000052
 11
998.79289000000699
 21
543.66788000000065
  0
LINE
  8
_0-3_躯体と製品
  6
CONTINUOUS
 62
    3
 10
1004.2997300000088
 20
553.0592000000006
 11
1003.6309300000075
 21
554.28354000000149
  0
LINE
  8
_0-3_躯体と製品
  6
CONTINUOUS
 62
    3
 10
1003.6309300000075
 20
554.28354000000149
 11
1002.8069900000064
 21
555.41806000000065
  0
LINE
  8
_0-3_躯体と製品
  6
CONTINUOUS
 62
    3
 10
1002.8069900000064
 20
555.41806000000065
 11
1001.8408700000082
 21
556.44484000000057
  0
LINE
  8
_0-3_躯体と製品
  6
CONTINUOUS
 62
    3
 10
1001.8408700000082
 20
556.44484000000057
 11
1000.7478500000052
 21
557.34770000000049
  0
LINE
  8
_0-3_躯体と製品
  6
CONTINUOUS
 62
    3
 10
1000.7478500000052
 20
557.34770000000049
 11
999.54515000000538
 21
558.11242000000061
  0
LINE
  8
_0-3_躯体と製品
  6
CONTINUOUS
 62
    3
 10
999.54515000000538
 20
558.11242000000061
 11
998.25173000000814
 21
558.72692000000052
  0
LINE
  8
_0-3_躯体と製品
  6
CONTINUOUS
 62
    3
 10
998.25173000000814
 20
558.72692000000052
 11
996.88797000000523
 21
559.18149999999969
  0
LINE
  8
_0-3_躯体と製品
  6
CONTINUOUS
 62
    3
 10
996.88797000000523
 20
559.18149999999969
 11
995.47543000000951
 21
559.46902000000068
  0
LINE
  8
_0-3_躯体と製品
  6
CONTINUOUS
 62
    3
 10
995.47543000000951
 20
559.46902000000068
 11
994.03633000000627
 21
559.58491999999956
  0
LINE
  8
_0-3_躯体と製品
  6
CONTINUOUS
 62
    3
 10
994.03633000000627
 20
559.58491999999956
 11
993.7928900000079
 21
559.58738000000062
  0
LINE
  8
_0-3_躯体と製品
  6
CONTINUOUS
 62
    3
 10
998.79289000000699
 20
543.66788000000065
 11
998.79289000000699
 21
542.49798000000055
  0
LINE
  8
_0-3_躯体と製品
  6
CONTINUOUS
 62
    4
 10
937.79289000000699
 20
1114.1106000000011
 11
893.79289000000699
 21
1114.1106000000011
  0
LINE
  8
_0-3_躯体と製品
  6
CONTINUOUS
 62
    4
 10
893.79289000000699
 20
1129.50548
 11
937.79289000000699
 21
1129.50548
  0
LINE
  8
_0-3_躯体と製品
  6
CONTINUOUS
 62
    4
 10
937.79289000000699
 20
974.58738000000017
 11
893.79289000000699
 21
974.58738000000017
  0
LINE
  8
_0-4_図面枠
  6
CONTINUOUS
 62
    3
 10
891.88263000000734
 20
1058.6928400000008
 11
863.22237000000496
 21
1088.33386
  0
TEXT
  8
_0-4_図面枠
 62
    7
 10
1471.7941500000079
 20
737.90576000000078
 40
60
 41
0.8000000000000006
 50
0
  1
支柱
  0
LINE
  8
_0-4_図面枠
  6
CONTINUOUS
 62
    3
 10
1418.8798100000058
 20
819.55448000000024
 11
1471.7931900000058
 21
727.90584000000058
  0
LINE
  8
_0-3_躯体と製品
  6
PLINE2
 62
    3
 10
1253.792890000007
 20
379.43422000000055
 11
1378.792890000007
 21
379.43422000000055
  0
LINE
  8
_0-3_躯体と製品
  6
PLINE2
 62
    3
 10
1253.792890000007
 20
359.43422000000055
 11
1378.792890000007
 21
359.43422000000055
  0
LINE
  8
_0-3_躯体と製品
  6
CONTINUOUS
 62
    3
 10
1253.792890000007
 20
516.54735999999957
 11
1378.792890000007
 21
516.54735999999957
  0
LINE
  8
_0-3_躯体と製品
  6
PLINE2
 62
    6
 10
1358.7663700000048
 20
513.28388000000064
 11
1378.792890000007
 21
493.25735999999961
  0
LINE
  8
_0-3_躯体と製品
  6
PLINE2
 62
    6
 10
1351.8707500000055
 20
451.00640000000158
 11
1378.792890000007
 21
477.92854000000057
  0
LINE
  8
_0-3_躯体と製品
  6
PLINE2
 62
    6
 10
1378.792890000007
 20
458.1173800000015
 11
1323.626370000009
 21
513.28388000000064
  0
LINE
  8
_0-3_躯体と製品
  6
CONTINUOUS
 62
    3
 10
1253.792890000007
 20
382.43422000000055
 11
1378.792890000007
 21
382.43422000000055
  0
LINE
  8
_0-3_躯体と製品
  6
PLINE2
 62
    6
 10
1335.371590000007
 20
469.86258000000157
 11
1378.792890000007
 21
513.28388000000064
  0
LINE
  8
_0-3_躯体と製品
  6
CONTINUOUS
 62
    3
 10
1319.6522900000064
 20
487.28388000000064
 11
1378.792890000007
 21
418.42155999999954
  0
LINE
  8
_0-3_躯体と製品
  6
CONTINUOUS
 62
    3
 10
1253.792890000007
 20
513.28388000000064
 11
1379.6522900000055
 21
513.28388000000064
  0
LINE
  8
_0-3_躯体と製品
  6
PLINE2
 62
    3
 10
1108.7928900000061
 20
379.43422000000055
 11
1233.7928900000061
 21
379.43422000000055
  0
LINE
  8
_0-3_躯体と製品
  6
PLINE2
 62
    3
 10
1108.7928900000061
 20
362.43422000000055
 11
1233.7928900000061
 21
362.43422000000055
  0
LINE
  8
_0-3_躯体と製品
  6
CONTINUOUS
 62
    3
 10
1108.7928900000061
 20
516.54735999999957
 11
1233.7928900000061
 21
516.54735999999957
  0
LINE
  8
_0-3_躯体と製品
  6
PLINE2
 62
    6
 10
1156.7268700000095
 20
397.28388000000064
 11
1233.7928900000061
 21
474.34989999999971
  0
LINE
  8
_0-3_躯体と製品
  6
PLINE2
 62
    6
 10
1224.9270300000062
 20
435.2065199999995
 11
1146.8496900000064
 21
513.28388000000064
  0
LINE
  8
_0-3_躯体と製品
  6
PLINE2
 62
    6
 10
1233.7928900000061
 20
461.69602000000168
 11
1182.205010000006
 21
513.28388000000064
  0
LINE
  8
_0-3_躯体と製品
  6
PLINE2
 62
    6
 10
1120.9521900000063
 20
396.86453999999958
 11
1233.7928900000061
 21
509.70524000000069
  0
LINE
  8
_0-3_躯体と製品
  6
CONTINUOUS
 62
    3
 10
1108.7928900000061
 20
382.43422000000055
 11
1233.7928900000061
 21
382.43422000000055
  0
LINE
  8
_0-3_躯体と製品
  6
CONTINUOUS
 62
    3
 10
1233.7928900000061
 20
445.52977999999962
 11
1196.6522900000091
 21
402.28388000000064
  0
LINE
  8
_0-3_躯体と製品
  6
CONTINUOUS
 62
    3
 10
1109.6522900000064
 20
513.28388000000064
 11
1233.7928900000061
 21
513.28388000000064
  0
LINE
  8
_0-3_躯体と製品
  6
PLINE2
 62
    6
 10
1109.6522900000064
 20
420.91998000000149
 11
1202.0161900000066
 21
513.28388000000064
  0
LINE
  8
_0-3_躯体と製品
  6
PLINE2
 62
    6
 10
1192.1390100000081
 20
397.28388000000064
 11
1109.6522900000064
 21
479.77060000000051
  0
LINE
  8
_0-3_躯体と製品
  6
PLINE2
 62
    6
 10
1156.7836700000071
 20
397.28388000000064
 11
1109.6522900000064
 21
444.41526000000067
  0
LINE
  8
_0-3_躯体と製品
  6
PLINE2
 62
    6
 10
1208.5919700000049
 20
416.18625999999949
 11
1111.4943500000054
 21
513.28388000000064
  0
LINE
  8
_0-3_躯体と製品
  6
CONTINUOUS
 62
    3
 10
1196.6522900000091
 20
397.28388000000064
 11
1108.7928900000061
 21
397.28388000000064
  0
LINE
  8
_0-3_躯体と製品
  6
CONTINUOUS
 62
    3
 10
1196.6522900000091
 20
402.28388000000064
 11
1196.6522900000091
 21
397.28388000000064
  0
LINE
  8
_0-3_躯体と製品
  6
PLINE2
 62
    6
 10
1109.6522900000064
 20
456.27531999999951
 11
1166.6608500000057
 21
513.28388000000064
  0
LINE
  8
_0-3_躯体と製品
  6
PLINE2
 62
    6
 10
1109.6522900000064
 20
491.63066000000049
 11
1131.3055100000083
 21
513.28388000000064
  0
ARC
  8
_0-3_躯体と製品
  6
CONTINUOUS
 62
    3
 10
1287.477910000006
 20
503.51218000000063
 40
4.4509999999999987
 50
200.57807999999901
 51
264.46624799999933
  0
LINE
  8
_0-3_躯体と製品
  6
CONTINUOUS
 62
    3
 10
1294.6522900000064
 20
513.28388000000064
 11
1293.2109700000065
 21
513.19713999999954
  0
LINE
  8
_0-3_躯体と製品
  6
CONTINUOUS
 62
    3
 10
1293.2109700000065
 20
513.19713999999954
 11
1291.7923700000065
 21
512.93830000000048
  0
LINE
  8
_0-3_躯体と製品
  6
CONTINUOUS
 62
    3
 10
1291.7923700000065
 20
512.93830000000048
 11
1290.4188700000059
 21
512.5114200000005
  0
LINE
  8
_0-3_躯体と製品
  6
CONTINUOUS
 62
    3
 10
1290.4188700000059
 20
512.5114200000005
 11
1289.112130000005
 21
511.92326000000162
  0
LINE
  8
_0-3_躯体と製品
  6
CONTINUOUS
 62
    3
 10
1289.112130000005
 20
511.92326000000162
 11
1287.8927700000058
 21
511.1830800000007
  0
LINE
  8
_0-3_躯体と製品
  6
CONTINUOUS
 62
    3
 10
1287.8927700000058
 20
511.1830800000007
 11
1286.7800100000049
 21
510.30254000000059
  0
LINE
  8
_0-3_躯体と製品
  6
CONTINUOUS
 62
    3
 10
1286.7800100000049
 20
510.30254000000059
 11
1285.7913900000076
 21
509.29554000000053
  0
LINE
  8
_0-3_躯体と製品
  6
CONTINUOUS
 62
    3
 10
1285.7913900000076
 20
509.29554000000053
 11
1284.9425300000048
 21
508.17798000000062
  0
LINE
  8
_0-3_躯体と製品
  6
CONTINUOUS
 62
    3
 10
1284.9425300000048
 20
508.17798000000062
 11
1284.2467900000038
 21
506.96746000000053
  0
LINE
  8
_0-3_躯体と製品
  6
CONTINUOUS
 62
    3
 10
1284.2467900000038
 20
506.96746000000053
 11
1284.1454700000049
 21
506.75570000000153
  0
LINE
  8
_0-3_躯体と製品
  6
CONTINUOUS
 62
    3
 10
1275.255410000007
 20
487.56534000000056
 11
1287.9209500000043
 21
493.47592000000054
  0
LINE
  8
_0-3_躯体と製品
  6
PLINE2
 62
    6
 10
1277.5122700000093
 20
488.68732000000068
 11
1254.6522900000055
 21
511.54727999999955
  0
LINE
  8
_0-3_躯体と製品
  6
PLINE2
 62
    6
 10
1254.6522900000055
 20
495.20930000000067
 11
1272.7268700000086
 21
513.28388000000064
  0
LINE
  8
_0-3_躯体と製品
  6
PLINE2
 62
    6
 10
1233.7928900000061
 20
497.05136000000061
 11
1217.5603500000061
 21
513.28388000000064
  0
ARC
  8
_0-3_躯体と製品
  6
CONTINUOUS
 62
    3
 10
1290.3554500000082
 20
503.20138000000065
 40
7.155219999999999
 50
150.21503199999719
 51
190.0907490000026
  0
LINE
  8
_0-3_躯体と製品
  6
CONTINUOUS
 62
    3
 10
1273.9867500000064
 20
487.28388000000064
 11
1269.6522900000064
 21
487.28388000000064
  0
ARC
  8
_0-3_躯体と製品
  6
CONTINUOUS
 62
    3
 10
1273.9867500000064
 20
490.2838799999995
 40
3
 50
270
 51
295.01689299999992
  0
LINE
  8
_0-3_躯体と製品
  6
CONTINUOUS
 62
    3
 10
1269.6522900000064
 20
487.28388000000064
 11
1253.792890000007
 21
468.81746000000066
  0
LINE
  8
_0-3_躯体と製品
  6
PLINE2
 62
    6
 10
1303.5784900000062
 20
508.78016000000162
 11
1308.0822100000096
 21
513.28388000000064
  0
LINE
  8
_0-3_躯体と製品
  6
PLINE2
 62
    6
 10
1317.6738900000082
 20
487.5202200000017
 11
1343.437550000006
 21
513.28388000000064
  0
ARC
  8
_0-3_躯体と製品
  6
CONTINUOUS
 62
    3
 10
1286.6522900000091
 20
496.19448000000057
 40
3
 50
295.01689299999992
 51
0
  0
ARC
  8
_0-3_躯体と製品
  6
CONTINUOUS
 62
    3
 10
1286.6373100000073
 20
494.83582000000069
 40
4.265979999999999
 50
44.874244000000701
 51
84.466247999999354
  0
LINE
  8
_0-3_躯体と製品
  6
CONTINUOUS
 62
    3
 10
1289.6604300000063
 20
497.84570000000053
 11
1289.6522900000064
 21
497.36438000000066
  0
LINE
  8
_0-3_躯体と製品
  6
CONTINUOUS
 62
    3
 10
1289.6522900000064
 20
497.36438000000066
 11
1289.6522900000064
 21
496.19448000000057
  0
ARC
  8
_0-3_躯体と製品
  6
CONTINUOUS
 62
    3
 10
1302.6522900000073
 20
496.19448000000057
 40
3
 50
180
 51
244.98310699999996
  0
ARC
  8
_0-3_躯体と製品
  6
CONTINUOUS
 62
    3
 10
1298.9491500000049
 20
503.20138000000065
 40
7.155219999999999
 50
349.90925099999731
 51
29.784968000002806
  0
ARC
  8
_0-3_躯体と製品
  6
CONTINUOUS
 62
    3
 10
1302.667270000009
 20
494.83582000000069
 40
4.265979999999999
 50
95.533752000000661
 51
135.12575599999923
  0
ARC
  8
_0-3_躯体と製品
  6
CONTINUOUS
 62
    3
 10
1301.8266900000053
 20
503.51218000000063
 40
4.4509999999999987
 50
275.53375200000062
 51
339.4219200000008
  0
LINE
  8
_0-3_躯体と製品
  6
CONTINUOUS
 62
    3
 10
1299.6441500000064
 20
497.84570000000053
 11
1299.6522900000064
 21
497.36438000000066
  0
LINE
  8
_0-3_躯体と製品
  6
CONTINUOUS
 62
    3
 10
1305.1591300000082
 20
506.75570000000153
 11
1304.490330000006
 21
507.9800400000006
  0
LINE
  8
_0-3_躯体と製品
  6
CONTINUOUS
 62
    3
 10
1304.490330000006
 20
507.9800400000006
 11
1303.6663900000049
 21
509.11456000000067
  0
LINE
  8
_0-3_躯体と製品
  6
CONTINUOUS
 62
    3
 10
1303.6663900000049
 20
509.11456000000067
 11
1302.7002900000061
 21
510.14134000000058
  0
LINE
  8
_0-3_躯体と製品
  6
CONTINUOUS
 62
    3
 10
1302.7002900000061
 20
510.14134000000058
 11
1301.6072700000068
 21
511.04420000000164
  0
LINE
  8
_0-3_躯体と製品
  6
CONTINUOUS
 62
    3
 10
1301.6072700000068
 20
511.04420000000164
 11
1300.4045500000066
 21
511.80892000000154
  0
LINE
  8
_0-3_躯体と製品
  6
CONTINUOUS
 62
    3
 10
1300.4045500000066
 20
511.80892000000154
 11
1299.1111300000093
 21
512.42342000000053
  0
LINE
  8
_0-3_躯体と製品
  6
CONTINUOUS
 62
    3
 10
1299.1111300000093
 20
512.42342000000053
 11
1297.7473900000059
 21
512.87800000000061
  0
LINE
  8
_0-3_躯体と製品
  6
CONTINUOUS
 62
    3
 10
1297.7473900000059
 20
512.87800000000061
 11
1296.334830000008
 21
513.1655200000007
  0
LINE
  8
_0-3_躯体と製品
  6
CONTINUOUS
 62
    3
 10
1296.334830000008
 20
513.1655200000007
 11
1294.8957300000066
 21
513.28142000000048
  0
LINE
  8
_0-3_躯体と製品
  6
CONTINUOUS
 62
    3
 10
1294.8957300000066
 20
513.28142000000048
 11
1294.6522900000064
 21
513.28388000000064
  0
LINE
  8
_0-3_躯体と製品
  6
CONTINUOUS
 62
    3
 10
1299.6522900000064
 20
497.36438000000066
 11
1299.6522900000064
 21
496.19448000000057
  0
LINE
  8
_0-3_躯体と製品
  6
CONTINUOUS
 62
    3
 10
1315.3178500000085
 20
487.28388000000064
 11
1319.6522900000064
 21
487.28388000000064
  0
ARC
  8
_0-3_躯体と製品
  6
CONTINUOUS
 62
    3
 10
1315.3178500000085
 20
490.2838799999995
 40
3
 50
244.98310699999996
 51
270
  0
LINE
  8
_0-3_躯体と製品
  6
CONTINUOUS
 62
    3
 10
1314.049190000007
 20
487.56534000000056
 11
1301.3836300000085
 21
493.47592000000054
  0
LINE
  8
_0-3_躯体と製品
  6
PLINE2
 62
    6
 10
1302.4649700000091
 20
499.08996000000161
 11
1314.0663100000056
 21
487.48860000000059
  0
LINE
  8
_0-3_躯体と製品
  6
PLINE2
 62
    6
 10
1288.4037700000063
 20
513.15116000000057
 11
1288.2710300000081
 21
513.28388000000064
  0
LINE
  8
_0-3_躯体と製品
  6
PLINE2
 62
    6
 10
1429.6522900000064
 20
422.72193999999968
 11
1520.2142500000064
 21
513.28388000000064
  0
LINE
  8
_0-3_躯体と製品
  6
PLINE2
 62
    6
 10
1439.5695900000073
 20
397.28388000000064
 11
1555.5695900000073
 21
513.28388000000064
  0
LINE
  8
_0-3_躯体と製品
  6
CONTINUOUS
 62
    3
 10
1569.6522900000064
 20
487.28388000000064
 11
1496.6522900000091
 21
402.28388000000064
  0
LINE
  8
_0-3_躯体と製品
  6
PLINE2
 62
    6
 10
1471.2240900000079
 20
397.28388000000064
 11
1587.2240900000061
 21
513.28388000000064
  0
LINE
  8
_0-3_躯体と製品
  6
PLINE2
 62
    6
 10
1549.1125500000062
 20
464.57442000000151
 11
1500.4030700000094
 21
513.28388000000064
  0
LINE
  8
_0-3_躯体と製品
  6
PLINE2
 62
    6
 10
1532.8433900000055
 20
445.4882199999995
 11
1465.0477300000084
 21
513.28388000000064
  0
LINE
  8
_0-3_躯体と製品
  6
PLINE2
 62
    6
 10
1516.5742300000084
 20
426.40204000000062
 11
1429.6923900000065
 21
513.28388000000064
  0
LINE
  8
_0-3_躯体と製品
  6
PLINE2
 62
    6
 10
1500.3050900000089
 20
407.31586000000061
 11
1429.6522900000064
 21
477.96864000000164
  0
LINE
  8
_0-3_躯体と製品
  6
PLINE2
 62
    6
 10
1474.9817100000082
 20
397.28388000000064
 11
1429.6522900000064
 21
442.61330000000066
  0
LINE
  8
_0-3_躯体と製品
  6
PLINE2
 62
    6
 10
1368.626670000006
 20
430.25894000000153
 11
1378.792890000007
 21
440.42515999999955
  0
LINE
  8
_0-3_躯体と製品
  6
CONTINUOUS
 62
    3
 10
1496.6522900000091
 20
397.28388000000064
 11
1428.7928900000061
 21
397.28388000000064
  0
LINE
  8
_0-3_躯体と製品
  6
CONTINUOUS
 62
    3
 10
1496.6522900000091
 20
402.28388000000064
 11
1496.6522900000091
 21
397.28388000000064
  0
LINE
  8
_0-3_躯体と製品
  6
PLINE2
 62
    6
 10
1429.6522900000064
 20
493.43262000000163
 11
1449.5035700000089
 21
513.28388000000064
  0
LINE
  8
_0-3_躯体と製品
  6
PLINE2
 62
    6
 10
1429.6522900000064
 20
458.07728000000066
 11
1484.8589100000063
 21
513.28388000000064
  0
LINE
  8
_0-3_躯体と製品
  6
CONTINUOUS
 62
    3
 10
1594.6522900000064
 20
513.28388000000064
 11
1593.2109700000074
 21
513.19713999999954
  0
LINE
  8
_0-3_躯体と製品
  6
CONTINUOUS
 62
    3
 10
1593.2109700000074
 20
513.19713999999954
 11
1591.7923700000065
 21
512.93830000000048
  0
LINE
  8
_0-3_躯体と製品
  6
CONTINUOUS
 62
    3
 10
1591.7923700000065
 20
512.93830000000048
 11
1590.4188700000068
 21
512.5114200000005
  0
LINE
  8
_0-3_躯体と製品
  6
CONTINUOUS
 62
    3
 10
1590.4188700000068
 20
512.5114200000005
 11
1589.112130000005
 21
511.92326000000162
  0
LINE
  8
_0-3_躯体と製品
  6
CONTINUOUS
 62
    3
 10
1589.112130000005
 20
511.92326000000162
 11
1587.8927700000058
 21
511.1830800000007
  0
LINE
  8
_0-3_躯体と製品
  6
CONTINUOUS
 62
    3
 10
1587.8927700000058
 20
511.1830800000007
 11
1586.7800100000049
 21
510.30254000000059
  0
LINE
  8
_0-3_躯体と製品
  6
CONTINUOUS
 62
    3
 10
1586.7800100000049
 20
510.30254000000059
 11
1585.7913900000076
 21
509.29554000000053
  0
LINE
  8
_0-3_躯体と製品
  6
CONTINUOUS
 62
    3
 10
1585.7913900000076
 20
509.29554000000053
 11
1584.9425300000048
 21
508.17798000000062
  0
LINE
  8
_0-3_躯体と製品
  6
CONTINUOUS
 62
    3
 10
1584.9425300000048
 20
508.17798000000062
 11
1584.2467900000038
 21
506.96746000000053
  0
LINE
  8
_0-3_躯体と製品
  6
CONTINUOUS
 62
    3
 10
1584.2467900000038
 20
506.96746000000053
 11
1584.1454700000049
 21
506.75570000000153
  0
LINE
  8
_0-3_躯体と製品
  6
PLINE2
 62
    6
 10
1590.6146700000072
 20
512.97364000000061
 11
1590.9249300000092
 21
513.28388000000064
  0
ARC
  8
_0-3_躯体と製品
  6
CONTINUOUS
 62
    3
 10
1586.6522900000091
 20
496.19448000000057
 40
3
 50
295.01689299999992
 51
0
  0
ARC
  8
_0-3_躯体と製品
  6
CONTINUOUS
 62
    3
 10
1590.3554500000082
 20
503.20138000000065
 40
7.155219999999999
 50
150.21503199999719
 51
190.0907490000026
  0
ARC
  8
_0-3_躯体と製品
  6
CONTINUOUS
 62
    3
 10
1586.6373100000073
 20
494.83582000000069
 40
4.265979999999999
 50
44.874244000000701
 51
84.466247999999354
  0
ARC
  8
_0-3_躯体と製品
  6
CONTINUOUS
 62
    3
 10
1587.477910000006
 20
503.51218000000063
 40
4.4509999999999987
 50
200.57807999999901
 51
264.46624799999933
  0
LINE
  8
_0-3_躯体と製品
  6
CONTINUOUS
 62
    3
 10
1589.6604300000063
 20
497.84570000000053
 11
1589.6522900000064
 21
497.36438000000066
  0
LINE
  8
_0-3_躯体と製品
  6
CONTINUOUS
 62
    3
 10
1589.6522900000064
 20
497.36438000000066
 11
1589.6522900000064
 21
496.19448000000057
  0
LINE
  8
_0-3_躯体と製品
  6
CONTINUOUS
 62
    3
 10
1573.9867500000064
 20
487.28388000000064
 11
1569.6522900000064
 21
487.28388000000064
  0
ARC
  8
_0-3_躯体と製品
  6
CONTINUOUS
 62
    3
 10
1573.9867500000064
 20
490.2838799999995
 40
3
 50
270
 51
295.01689299999992
  0
LINE
  8
_0-3_躯体と製品
  6
CONTINUOUS
 62
    3
 10
1575.2554100000061
 20
487.56534000000056
 11
1587.9209500000043
 21
493.47592000000054
  0
LINE
  8
_0-3_躯体と製品
  6
PLINE2
 62
    6
 10
1588.6544500000064
 20
495.74318000000062
 11
1571.1137500000059
 21
513.28388000000064
  0
LINE
  8
_0-3_躯体と製品
  6
PLINE2
 62
    6
 10
1565.3816900000074
 20
483.66060000000061
 11
1535.7584100000058
 21
513.28388000000064
  0
LINE
  8
_0-3_躯体と製品
  6
PLINE2
 62
    6
 10
1605.3465900000065
 20
492.35022000000049
 11
1626.2802700000093
 21
513.28388000000064
  0
ARC
  8
_0-3_躯体と製品
  6
CONTINUOUS
 62
    3
 10
1602.6522900000082
 20
496.19448000000057
 40
3
 50
180
 51
244.98310699999996
  0
ARC
  8
_0-3_躯体と製品
  6
CONTINUOUS
 62
    3
 10
1598.9491500000049
 20
503.20138000000065
 40
7.155219999999999
 50
349.90925099999731
 51
29.784968000002806
  0
ARC
  8
_0-3_躯体と製品
  6
CONTINUOUS
 62
    3
 10
1602.667270000009
 20
494.83582000000069
 40
4.265979999999999
 50
95.533752000000661
 51
135.12575599999923
  0
ARC
  8
_0-3_躯体と製品
  6
CONTINUOUS
 62
    3
 10
1601.8266900000053
 20
503.51218000000063
 40
4.4509999999999987
 50
275.53375200000062
 51
339.4219200000008
  0
LINE
  8
_0-3_躯体と製品
  6
CONTINUOUS
 62
    3
 10
1599.6441500000064
 20
497.84570000000053
 11
1599.6522900000064
 21
497.36438000000066
  0
LINE
  8
_0-3_躯体と製品
  6
CONTINUOUS
 62
    3
 10
1605.1591300000082
 20
506.75570000000153
 11
1604.490330000006
 21
507.9800400000006
  0
LINE
  8
_0-3_躯体と製品
  6
CONTINUOUS
 62
    3
 10
1604.490330000006
 20
507.9800400000006
 11
1603.6663900000049
 21
509.11456000000067
  0
LINE
  8
_0-3_躯体と製品
  6
CONTINUOUS
 62
    3
 10
1603.6663900000049
 20
509.11456000000067
 11
1602.7002900000061
 21
510.14134000000058
  0
LINE
  8
_0-3_躯体と製品
  6
CONTINUOUS
 62
    3
 10
1602.7002900000061
 20
510.14134000000058
 11
1601.6072700000068
 21
511.04420000000164
  0
LINE
  8
_0-3_躯体と製品
  6
CONTINUOUS
 62
    3
 10
1601.6072700000068
 20
511.04420000000164
 11
1600.4045500000066
 21
511.80892000000154
  0
LINE
  8
_0-3_躯体と製品
  6
CONTINUOUS
 62
    3
 10
1600.4045500000066
 20
511.80892000000154
 11
1599.1111300000084
 21
512.42342000000053
  0
LINE
  8
_0-3_躯体と製品
  6
CONTINUOUS
 62
    3
 10
1599.1111300000084
 20
512.42342000000053
 11
1597.7473900000059
 21
512.87800000000061
  0
LINE
  8
_0-3_躯体と製品
  6
CONTINUOUS
 62
    3
 10
1597.7473900000059
 20
512.87800000000061
 11
1596.334830000008
 21
513.1655200000007
  0
LINE
  8
_0-3_躯体と製品
  6
CONTINUOUS
 62
    3
 10
1596.334830000008
 20
513.1655200000007
 11
1594.8957300000066
 21
513.28142000000048
  0
LINE
  8
_0-3_躯体と製品
  6
CONTINUOUS
 62
    3
 10
1594.8957300000066
 20
513.28142000000048
 11
1594.6522900000064
 21
513.28388000000064
  0
LINE
  8
_0-3_躯体と製品
  6
CONTINUOUS
 62
    3
 10
1599.6522900000064
 20
497.36438000000066
 11
1599.6522900000064
 21
496.19448000000057
  0
LINE
  8
_0-3_躯体と製品
  6
CONTINUOUS
 62
    3
 10
1615.3178500000085
 20
487.28388000000064
 11
1619.6522900000064
 21
487.28388000000064
  0
ARC
  8
_0-3_躯体と製品
  6
CONTINUOUS
 62
    3
 10
1615.3178500000085
 20
490.2838799999995
 40
3
 50
244.98310699999996
 51
270
  0
LINE
  8
_0-3_躯体と製品
  6
CONTINUOUS
 62
    3
 10
1614.049190000007
 20
487.56534000000056
 11
1601.3836300000085
 21
493.47592000000054
  0
LINE
  8
_0-3_躯体と製品
  6
PLINE2
 62
    6
 10
1626.554090000006
 20
478.20238000000063
 11
1661.6356100000066
 21
513.28388000000064
  0
LINE
  8
_0-4_図面枠
  6
CONTINUOUS
 62
    3
 10
1471.7931900000058
 20
727.90584000000058
 11
1572.7947100000056
 21
727.90584000000058
  0
LINE
  8
_0-3_躯体と製品
  6
CONTINUOUS
 62
    4
 10
1253.792890000007
 20
1114.1106000000011
 11
1378.792890000007
 21
1114.1106000000011
  0
LINE
  8
_0-3_躯体と製品
  6
CONTINUOUS
 62
    4
 10
1253.792890000007
 20
1129.50548
 11
1378.792890000007
 21
1129.50548
  0
LINE
  8
_0-3_躯体と製品
  6
CONTINUOUS
 62
    4
 10
1253.792890000007
 20
974.58738000000017
 11
1378.792890000007
 21
974.58738000000017
  0
LINE
  8
_0-3_躯体と製品
  6
CONTINUOUS
 62
    4
 10
1070.7928900000061
 20
937.17870000000039
 11
1070.7928900000061
 21
965.79918000000112
  0
LINE
  8
_0-3_躯体と製品
  6
CONTINUOUS
 62
    4
 10
1067.8457700000072
 20
934.17918000000077
 11
1064.7928900000061
 21
934.12536000000034
  0
ARC
  8
_0-3_躯体と製品
  6
CONTINUOUS
 62
    4
 10
1067.7928900000079
 20
937.17870000000039
 40
3
 50
271.00991600000521
 51
0.0000000000000127
  0
LINE
  8
_0-3_躯体と製品
  6
CONTINUOUS
 62
    4
 10
1108.7928900000061
 20
1114.1106000000011
 11
1233.7928900000061
 21
1114.1106000000011
  0
LINE
  8
_0-3_躯体と製品
  6
CONTINUOUS
 62
    4
 10
1108.7928900000061
 20
1129.50548
 11
1233.7928900000061
 21
1129.50548
  0
LINE
  8
_0-3_躯体と製品
  6
CONTINUOUS
 62
    4
 10
1108.7928900000061
 20
974.58738000000017
 11
1233.7928900000061
 21
974.58738000000017
  0
LINE
  8
_0-3_躯体と製品
  6
CONTINUOUS
 62
    4
 10
1108.7928900000061
 20
968.79912000000081
 11
1073.811290000006
 21
968.79912000000081
  0
ARC
  8
_0-3_躯体と製品
  6
CONTINUOUS
 62
    4
 10
1073.792890000007
 20
965.79918000000112
 40
3
 50
89.648481999994658
 51
180
  0
LINE
  8
_0-3_躯体と製品
  6
CONTINUOUS
 62
    4
 10
1064.9580500000075
 20
974.58738000000017
 11
1108.4291700000076
 21
974.58738000000017
  0
LINE
  8
_0-3_躯体と製品
  6
CONTINUOUS
 62
    4
 10
1390.7928900000043
 20
937.17870000000039
 11
1390.7928900000043
 21
965.79918000000112
  0
LINE
  8
_0-4_図面枠
  6
CONTINUOUS
 62
    3
 10
1418.8798100000058
 20
819.55448000000024
 11
1447.5400700000064
 21
789.91348000000005
  0
LINE
  8
_0-3_躯体と製品
  6
CONTINUOUS
 62
    4
 10
1387.8457700000054
 20
934.17918000000077
 11
1384.7928900000061
 21
934.12536000000034
  0
ARC
  8
_0-3_躯体と製品
  6
CONTINUOUS
 62
    4
 10
1387.792890000007
 20
937.17870000000039
 40
3
 50
271.00991600000521
 51
0.0000000000000127
  0
LINE
  8
_0-3_躯体と製品
  6
CONTINUOUS
 62
    3
 10
1369.7928900000061
 20
954.58738000000017
 11
1399.7928900000061
 21
954.58738000000017
  0
LINE
  8
_0-3_躯体と製品
  6
CONTINUOUS
 62
    4
 10
1393.811290000006
 20
968.79912000000081
 11
1428.7928900000061
 21
968.79912000000081
  0
ARC
  8
_0-3_躯体と製品
  6
CONTINUOUS
 62
    4
 10
1393.792890000007
 20
965.79918000000112
 40
3
 50
89.648481999994658
 51
180
  0
LINE
  8
_0-3_躯体と製品
  6
CONTINUOUS
 62
    4
 10
1384.9580500000084
 20
974.58738000000017
 11
1428.4291700000076
 21
974.58738000000017
  0
LINE
  8
_0-3_躯体と製品
  6
CONTINUOUS
 62
    4
 10
893.79289000000699
 20
1584.5873800000002
 11
1233.7928900000061
 21
1584.5873800000002
  0
LINE
  8
_0-3_躯体と製品
  6
CONTINUOUS
 62
    7
 10
893.79289000000699
 20
1534.5873800000002
 11
1233.7928900000061
 21
1534.5873800000002
  0
LINE
  8
_0-3_躯体と製品
  6
CONTINUOUS
 62
    4
 10
937.79289000000699
 20
1244.8123200000007
 11
1058.7928900000061
 21
1244.8123200000007
  0
LINE
  8
_0-3_躯体と製品
  6
CONTINUOUS
 62
    4
 10
937.79289000000699
 20
1259.8123200000007
 11
1058.7928900000061
 21
1259.8123200000007
  0
LINE
  8
_0-3_躯体と製品
  6
CONTINUOUS
 62
    4
 10
937.79289000000699
 20
1351.2950199999998
 11
1058.7928900000061
 21
1351.2950199999998
  0
LINE
  8
_0-3_躯体と製品
  6
CONTINUOUS
 62
    4
 10
943.79289000000699
 20
1366.59798
 11
1058.7928900000061
 21
1366.59798
  0
LINE
  8
_0-3_躯体と製品
  6
CONTINUOUS
 62
    3
 10
1049.7928900000061
 20
1336.0445000000004
 11
1079.7928900000061
 21
1336.0445000000004
  0
LINE
  8
_0-3_躯体と製品
  6
CONTINUOUS
 62
    3
 10
1049.7928900000061
 20
1400.54024
 11
1079.7928900000061
 21
1400.54024
  0
TEXT
  8
_0-4_図面枠
 62
    7
 10
718.94431000000714
 20
1190.8674821278269
 40
60.000000000000007
 41
0.8000000000000002
 50
0.0000100000009385
  1
妻板
  0
LINE
  8
_0-4_図面枠
  6
CONTINUOUS
 62
    3
 10
821.34493000000839
 20
1180.8677200000009
 11
714.9337300000052
 21
1180.8677200000009
  0
TEXT
  8
_0-4_図面枠
 62
    7
 10
619.40075000000797
 20
1525.0053420216316
 40
60.000000000000007
 41
0.8000000000000002
 50
0.0000100000010742
  1
妻板補強
  0
LINE
  8
_0-4_図面枠
  6
CONTINUOUS
 62
    3
 10
843.51393000000644
 20
1517.9603799999993
 11
629.01149000000896
 21
1517.9603799999993
  0
LINE
  8
_0-3_躯体と製品
  6
CONTINUOUS
 62
    4
 10
899.79289000000608
 20
1370.8590999999999
 11
899.79289000000608
 21
1528.5873799999999
  0
LINE
  8
_0-3_躯体と製品
  6
CONTINUOUS
 62
    4
 10
943.79289000000699
 20
1534.5873800000002
 11
943.79289000000699
 21
1358.5873799999999
  0
LINE
  8
_0-3_躯体と製品
  6
CONTINUOUS
 62
    3
 10
878.79289000000699
 20
1336.0445000000004
 11
908.79289000000699
 21
1336.0445000000004
  0
LINE
  8
_0-3_躯体と製品
  6
PLINE5
 62
    4
 10
893.79289000000699
 20
1364.5873800000002
 11
943.79289000000699
 21
1364.5873800000002
  0
LINE
  8
_0-3_躯体と製品
  6
PLINE2
 62
    4
 10
943.79289000000699
 20
1358.5873799999999
 11
899.79289000000608
 21
1358.5873799999999
  0
LINE
  8
_0-3_躯体と製品
  6
CONTINUOUS
 62
    4
 10
937.79289000000699
 20
1351.2950199999998
 11
899.79289000000608
 21
1351.2950199999998
  0
LINE
  8
_0-3_躯体と製品
  6
CONTINUOUS
 62
    4
 10
893.79289000000699
 20
1244.8123200000007
 11
937.79289000000699
 21
1244.8123200000007
  0
LINE
  8
_0-3_躯体と製品
  6
CONTINUOUS
 62
    4
 10
937.79289000000699
 20
1259.8123200000007
 11
893.79289000000699
 21
1259.8123200000007
  0
LINE
  8
_0-3_躯体と製品
  6
CONTINUOUS
 62
    4
 10
893.79289000000699
 20
1314.5873800000002
 11
899.79289000000608
 21
1314.5873800000002
  0
LINE
  8
_0-3_躯体と製品
  6
PLINE2
 62
    4
 10
899.79289000000608
 20
1370.8590999999999
 11
899.79289000000608
 21
1314.5873800000002
  0
LINE
  8
_0-3_躯体と製品
  6
CONTINUOUS
 62
    4
 10
899.79289000000608
 20
1528.5873799999999
 11
943.79289000000699
 21
1528.5873799999999
  0
LINE
  8
_0-3_躯体と製品
  6
CONTINUOUS
 62
    4
 10
893.79289000000699
 20
1534.5873800000002
 11
943.79289000000699
 21
1534.5873800000002
  0
LINE
  8
_0-3_躯体と製品
  6
CONTINUOUS
 62
    3
 10
878.79289000000699
 20
1459.66128
 11
908.79289000000699
 21
1459.66128
  0
LINE
  8
_0-3_躯体と製品
  6
CONTINUOUS
 62
    3
 10
878.79289000000699
 20
1509.7935000000004
 11
908.79289000000699
 21
1509.7935000000004
  0
LINE
  8
_0-3_躯体と製品
  6
CONTINUOUS
 62
    7
 10
943.79289000000699
 20
1584.5873800000002
 11
893.79289000000699
 21
1584.5873800000002
  0
LINE
  8
_0-4_図面枠
  6
CONTINUOUS
 62
    3
 10
922.11307000000852
 20
1381.82266
 11
893.45281000000614
 21
1411.4636800000003
  0
LINE
  8
_0-4_図面枠
  6
CONTINUOUS
 62
    3
 10
922.11307000000852
 20
1381.82266
 11
843.51393000000644
 21
1517.9603799999993
  0
LINE
  8
_0-3_躯体と製品
  6
CONTINUOUS
 62
    7
 10
943.79289000000699
 20
1564.5873800000002
 11
943.79289000000699
 21
1584.5873800000002
  0
LINE
  8
_0-3_躯体と製品
  6
CONTINUOUS
 62
    4
 10
1384.7928900000061
 20
1584.5873800000002
 11
1384.7928900000061
 21
1614.5873800000002
  0
ARC
  8
_0-3_躯体と製品
  6
CONTINUOUS
 62
    4
 10
1393.792890000007
 20
1593.5873799999999
 40
3
 50
180
 51
270
  0
LINE
  8
_0-3_躯体と製品
  6
CONTINUOUS
 62
    4
 10
1064.7928900000061
 20
1584.5873800000002
 11
1064.7928900000061
 21
1614.5873800000002
  0
ARC
  8
_0-3_躯体と製品
  6
CONTINUOUS
 62
    4
 10
1073.792890000007
 20
1593.5873799999999
 40
3
 50
180
 51
270
  0
LINE
  8
_0-3_躯体と製品
  6
CONTINUOUS
 62
    4
 10
1253.792890000007
 20
1244.8123200000007
 11
1378.792890000007
 21
1244.8123200000007
  0
LINE
  8
_0-3_躯体と製品
  6
CONTINUOUS
 62
    4
 10
1253.792890000007
 20
1259.8123200000007
 11
1378.792890000007
 21
1259.8123200000007
  0
LINE
  8
_0-3_躯体と製品
  6
CONTINUOUS
 62
    4
 10
1253.792890000007
 20
1351.2950199999998
 11
1378.792890000007
 21
1351.2950199999998
  0
LINE
  8
_0-3_躯体と製品
  6
CONTINUOUS
 62
    4
 10
1253.792890000007
 20
1366.59798
 11
1378.792890000007
 21
1366.59798
  0
LINE
  8
_0-3_躯体と製品
  6
CONTINUOUS
 62
    4
 10
1070.7928900000061
 20
1370.8590999999999
 11
1070.7928900000061
 21
1528.5873799999999
  0
LINE
  8
_0-3_躯体と製品
  6
CONTINUOUS
 62
    4
 10
1114.7928900000052
 20
1534.5873800000002
 11
1114.7928900000052
 21
1358.5873799999999
  0
LINE
  8
_0-3_躯体と製品
  6
CONTINUOUS
 62
    4
 10
1108.7928900000061
 20
1244.8123200000007
 11
1233.7928900000061
 21
1244.8123200000007
  0
LINE
  8
_0-3_躯体と製品
  6
CONTINUOUS
 62
    4
 10
1108.7928900000061
 20
1259.8123200000007
 11
1233.7928900000061
 21
1259.8123200000007
  0
LINE
  8
_0-3_躯体と製品
  6
CONTINUOUS
 62
    4
 10
1108.7928900000061
 20
1351.2950199999998
 11
1233.7928900000061
 21
1351.2950199999998
  0
LINE
  8
_0-3_躯体と製品
  6
CONTINUOUS
 62
    4
 10
1114.7928900000052
 20
1366.59798
 11
1233.7928900000061
 21
1366.59798
  0
LINE
  8
_0-3_躯体と製品
  6
CONTINUOUS
 62
    4
 10
1064.7928900000061
 20
1314.5873800000002
 11
1070.7928900000061
 21
1314.5873800000002
  0
LINE
  8
_0-3_躯体と製品
  6
PLINE2
 62
    4
 10
1070.7928900000061
 20
1370.8590999999999
 11
1070.7928900000061
 21
1314.5873800000002
  0
LINE
  8
_0-3_躯体と製品
  6
PLINE5
 62
    4
 10
1064.7928900000061
 20
1364.5873800000002
 11
1114.7928900000052
 21
1364.5873800000002
  0
LINE
  8
_0-3_躯体と製品
  6
CONTINUOUS
 62
    4
 10
1064.7928900000061
 20
1370.8590999999999
 11
1108.7928900000061
 21
1370.8590999999999
  0
LINE
  8
_0-3_躯体と製品
  6
PLINE2
 62
    4
 10
1114.7928900000052
 20
1358.5873799999999
 11
1070.7928900000061
 21
1358.5873799999999
  0
LINE
  8
_0-3_躯体と製品
  6
CONTINUOUS
 62
    4
 10
1064.7928900000061
 20
1483.0567000000005
 11
1070.7928900000061
 21
1483.0567000000005
  0
LINE
  8
_0-3_躯体と製品
  6
CONTINUOUS
 62
    4
 10
1064.7928900000061
 20
1428.6725000000001
 11
1058.7928900000061
 21
1428.6725000000001
  0
LINE
  8
_0-3_躯体と製品
  6
CONTINUOUS
 62
    4
 10
1094.792890000007
 20
1584.5873800000002
 11
1064.7928900000061
 21
1584.5873800000002
  0
LINE
  8
_0-3_躯体と製品
  6
CONTINUOUS
 62
    4
 10
1094.792890000007
 20
1587.5873799999997
 11
1094.792890000007
 21
1584.5873800000002
  0
ARC
  8
_0-3_躯体と製品
  6
CONTINUOUS
 62
    4
 10
1091.7928900000034
 20
1587.5873799999997
 40
3
 50
0
 51
90
  0
LINE
  8
_0-3_躯体と製品
  6
CONTINUOUS
 62
    4
 10
1073.792890000007
 20
1590.5873800000004
 11
1091.7928900000034
 21
1590.5873800000004
  0
LINE
  8
_0-3_躯体と製品
  6
CONTINUOUS
 62
    4
 10
1070.7928900000061
 20
1528.5873799999999
 11
1114.7928900000052
 21
1528.5873799999999
  0
LINE
  8
_0-3_躯体と製品
  6
CONTINUOUS
 62
    4
 10
1064.7928900000061
 20
1534.5873800000002
 11
1114.7928900000052
 21
1534.5873800000002
  0
LINE
  8
_0-3_躯体と製品
  6
CONTINUOUS
 62
    4
 10
1390.7928900000043
 20
1370.8590999999999
 11
1390.7928900000043
 21
1528.5873799999999
  0
LINE
  8
_0-3_躯体と製品
  6
CONTINUOUS
 62
    4
 10
1434.7928900000061
 20
1534.5873800000002
 11
1434.7928900000061
 21
1358.5873799999999
  0
LINE
  8
_0-3_躯体と製品
  6
CONTINUOUS
 62
    3
 10
1369.7928900000061
 20
1336.0445000000004
 11
1399.7928900000061
 21
1336.0445000000004
  0
LINE
  8
_0-3_躯体と製品
  6
CONTINUOUS
 62
    4
 10
1384.7928900000061
 20
1314.5873800000002
 11
1390.7928900000043
 21
1314.5873800000002
  0
LINE
  8
_0-3_躯体と製品
  6
PLINE2
 62
    4
 10
1390.7928900000043
 20
1370.8590999999999
 11
1390.7928900000043
 21
1314.5873800000002
  0
LINE
  8
_0-3_躯体と製品
  6
PLINE5
 62
    4
 10
1384.7928900000061
 20
1364.5873800000002
 11
1434.7928900000061
 21
1364.5873800000002
  0
LINE
  8
_0-3_躯体と製品
  6
CONTINUOUS
 62
    4
 10
1384.7928900000061
 20
1370.8590999999999
 11
1428.7928900000061
 21
1370.8590999999999
  0
LINE
  8
_0-3_躯体と製品
  6
PLINE2
 62
    4
 10
1434.7928900000061
 20
1358.5873799999999
 11
1390.7928900000043
 21
1358.5873799999999
  0
LINE
  8
_0-3_躯体と製品
  6
CONTINUOUS
 62
    3
 10
1369.7928900000061
 20
1400.54024
 11
1399.7928900000061
 21
1400.54024
  0
LINE
  8
_0-3_躯体と製品
  6
CONTINUOUS
 62
    4
 10
1384.7928900000061
 20
1483.0567000000005
 11
1390.7928900000043
 21
1483.0567000000005
  0
LINE
  8
_0-3_躯体と製品
  6
CONTINUOUS
 62
    4
 10
1384.7928900000061
 20
1428.6725000000001
 11
1378.792890000007
 21
1428.6725000000001
  0
LINE
  8
_0-3_躯体と製品
  6
CONTINUOUS
 62
    4
 10
1414.7928900000052
 20
1584.5873800000002
 11
1384.7928900000061
 21
1584.5873800000002
  0
LINE
  8
_0-3_躯体と製品
  6
CONTINUOUS
 62
    4
 10
1414.7928900000052
 20
1587.5873799999997
 11
1414.7928900000052
 21
1584.5873800000002
  0
ARC
  8
_0-3_躯体と製品
  6
CONTINUOUS
 62
    4
 10
1411.7928900000034
 20
1587.5873799999997
 40
3
 50
0
 51
90
  0
LINE
  8
_0-3_躯体と製品
  6
CONTINUOUS
 62
    4
 10
1393.792890000007
 20
1590.5873800000004
 11
1411.7928900000034
 21
1590.5873800000004
  0
LINE
  8
_0-3_躯体と製品
  6
CONTINUOUS
 62
    4
 10
1390.7928900000043
 20
1528.5873799999999
 11
1434.7928900000061
 21
1528.5873799999999
  0
LINE
  8
_0-3_躯体と製品
  6
CONTINUOUS
 62
    4
 10
1384.7928900000061
 20
1534.5873800000002
 11
1434.7928900000061
 21
1534.5873800000002
  0
LINE
  8
_0-3_躯体と製品
  6
CONTINUOUS
 62
    4
 10
1070.7928900000061
 20
1611.5873800000006
 11
1070.7928900000061
 21
1593.5873799999999
  0
ARC
  8
_0-3_躯体と製品
  6
CONTINUOUS
 62
    4
 10
1067.7928900000079
 20
1611.5873800000006
 40
3
 50
0
 51
90
  0
LINE
  8
_0-3_躯体と製品
  6
CONTINUOUS
 62
    4
 10
1064.7928900000061
 20
1614.5873800000002
 11
1067.7928900000079
 21
1614.5873800000002
  0
LINE
  8
_0-3_躯体と製品
  6
CONTINUOUS
 62
    4
 10
1390.7928900000043
 20
1611.5873800000006
 11
1390.7928900000043
 21
1593.5873799999999
  0
ARC
  8
_0-3_躯体と製品
  6
CONTINUOUS
 62
    4
 10
1387.792890000007
 20
1611.5873800000006
 40
3
 50
0
 51
90
  0
LINE
  8
_0-3_躯体と製品
  6
CONTINUOUS
 62
    4
 10
1384.7928900000061
 20
1614.5873800000002
 11
1387.792890000007
 21
1614.5873800000002
  0
LINE
  8
_0-3_躯体と製品
  6
CONTINUOUS
 62
    7
 10
2753.7928900000115
 20
1584.5873800000002
 11
2753.7928900000115
 21
414.58738000000062
  0
LINE
  8
_0-3_躯体と製品
  6
CONTINUOUS
 62
    4
 10
1838.792890000007
 20
664.58738000000062
 11
2393.7928900000079
 21
664.58738000000062
  0
LINE
  8
_0-3_躯体と製品
  6
CONTINUOUS
 62
    4
 10
1838.792890000007
 20
727.23981999999955
 11
2393.7928900000079
 21
727.23981999999955
  0
LINE
  8
_0-3_躯体と製品
  6
CONTINUOUS
 62
    4
 10
1838.792890000007
 20
1049.5347000000002
 11
2393.7928900000079
 21
1049.5347000000002
  0
LINE
  8
_0-3_躯体と製品
  6
CONTINUOUS
 62
    4
 10
1838.792890000007
 20
1077.0493400000007
 11
2393.7928900000079
 21
1077.0493400000007
  0
LINE
  8
_0-3_躯体と製品
  6
CONTINUOUS
 62
    3
 10
1838.792890000007
 20
516.54735999999957
 11
2393.7928900000079
 21
516.54735999999957
  0
LINE
  8
_0-3_躯体と製品
  6
CONTINUOUS
 62
    7
 10
1838.792890000007
 20
491.70152000000053
 11
2393.7928900000079
 21
491.70152000000053
  0
LINE
  8
_0-3_躯体と製品
  6
PLINE2
 62
    6
 10
2243.4748300000065
 20
373.71146000000158
 11
2300.3110300000117
 21
430.54763999999955
  0
LINE
  8
_0-3_躯体と製品
  6
PLINE2
 62
    6
 10
2208.1194900000064
 20
373.71146000000158
 11
2326.109570000006
 21
491.70152000000053
  0
LINE
  8
_0-3_躯体と製品
  6
PLINE2
 62
    6
 10
2172.76415000001
 20
373.71146000000158
 11
2290.7542300000096
 21
491.70152000000053
  0
LINE
  8
_0-3_躯体と製品
  6
PLINE2
 62
    6
 10
2311.9869100000087
 20
444.14283999999952
 11
2264.428230000005
 21
491.70152000000053
  0
LINE
  8
_0-3_躯体と製品
  6
PLINE2
 62
    6
 10
2295.6518500000057
 20
425.12257999999952
 11
2229.0728900000049
 21
491.70152000000053
  0
LINE
  8
_0-3_躯体と製品
  6
PLINE2
 62
    6
 10
2279.3167900000117
 20
406.1023000000007
 11
2193.7175500000085
 21
491.70152000000053
  0
LINE
  8
_0-3_躯体と製品
  6
CONTINUOUS
 62
    3
 10
2328.7928900000097
 20
463.71146000000158
 11
2255.7928900000024
 21
378.71146000000249
  0
LINE
  8
_0-3_躯体と製品
  6
PLINE2
 62
    6
 10
1925.2767900000063
 20
373.71146000000158
 11
2043.2668700000049
 21
491.70152000000053
  0
LINE
  8
_0-3_躯体と製品
  6
PLINE2
 62
    6
 10
1889.9214500000089
 20
373.71146000000158
 11
2007.9115300000085
 21
491.70152000000053
  0
LINE
  8
_0-3_躯体と製品
  6
PLINE2
 62
    6
 10
1854.5661100000079
 20
373.71146000000158
 11
1972.5561900000066
 21
491.70152000000053
  0
LINE
  8
_0-3_躯体と製品
  6
PLINE2
 62
    6
 10
2003.5789500000064
 20
434.35275999999953
 11
1946.2301700000062
 21
491.70152000000053
  0
LINE
  8
_0-3_躯体と製品
  6
PLINE2
 62
    6
 10
1987.243890000007
 20
415.33247999999958
 11
1910.8748300000107
 21
491.70152000000053
  0
LINE
  8
_0-3_躯体と製品
  6
CONTINUOUS
 62
    3
 10
2028.7928900000079
 20
463.71146000000158
 11
1955.7928900000043
 21
378.71146000000249
  0
LINE
  8
_0-3_躯体と製品
  6
PLINE2
 62
    6
 10
1808.792890000007
 20
417.0261000000005
 11
1712.5351100000062
 21
513.28388000000064
  0
LINE
  8
_0-3_躯体と製品
  6
PLINE2
 62
    6
 10
1793.1797700000106
 20
397.28388000000064
 11
1677.1797700000088
 21
513.28388000000064
  0
LINE
  8
_0-3_躯体と製品
  6
PLINE2
 62
    6
 10
1676.3809300000075
 20
421.9632000000006
 11
1767.7016100000064
 21
513.28388000000064
  0
LINE
  8
_0-3_躯体と製品
  6
PLINE2
 62
    6
 10
1692.3772300000091
 20
402.60416000000055
 11
1803.0569500000065
 21
513.28388000000064
  0
LINE
  8
_0-3_躯体と製品
  6
PLINE2
 62
    6
 10
1721.9929500000071
 20
396.86453999999958
 11
1809.5860900000089
 21
484.45768000000066
  0
LINE
  8
_0-3_躯体と製品
  6
PLINE2
 62
    6
 10
1757.3482900000072
 20
396.86453999999958
 11
1809.5046900000052
 21
449.02094000000056
  0
LINE
  8
_0-3_躯体と製品
  6
CONTINUOUS
 62
    3
 10
1796.6522900000091
 20
397.28388000000064
 11
1692.6522900000082
 21
397.28388000000064
  0
LINE
  8
_0-3_躯体と製品
  6
CONTINUOUS
 62
    3
 10
1692.6522900000082
 20
402.28388000000064
 11
1692.6522900000082
 21
397.28388000000064
  0
LINE
  8
_0-3_躯体と製品
  6
CONTINUOUS
 62
    3
 10
1796.6522900000091
 20
402.28388000000064
 11
1796.6522900000091
 21
397.28388000000064
  0
LINE
  8
_0-3_躯体と製品
  6
CONTINUOUS
 62
    3
 10
1808.792890000007
 20
416.4202000000007
 11
1796.6522900000091
 21
402.28388000000064
  0
LINE
  8
_0-3_躯体と製品
  6
PLINE2
 62
    6
 10
1809.6766300000063
 20
486.85304000000065
 11
1783.2457900000081
 21
513.28388000000064
  0
LINE
  8
_0-3_躯体と製品
  6
PLINE2
 62
    6
 10
1809.709190000005
 20
451.46512000000052
 11
1747.8904500000081
 21
513.28388000000064
  0
LINE
  8
_0-3_躯体と製品
  6
PLINE2
 62
    6
 10
1839.0492500000055
 20
393.54994000000056
 11
1937.2008500000065
 21
491.70152000000053
  0
LINE
  8
_0-3_躯体と製品
  6
PLINE2
 62
    6
 10
1838.792890000007
 20
428.64892000000054
 11
1901.8455100000056
 21
491.70152000000053
  0
LINE
  8
_0-3_躯体と製品
  6
PLINE2
 62
    6
 10
1970.9088300000076
 20
396.31220000000053
 11
1875.5194900000106
 21
491.70152000000053
  0
LINE
  8
_0-3_躯体と製品
  6
PLINE2
 62
    6
 10
1955.7928900000043
 20
376.07279999999969
 11
1840.1641700000064
 21
491.70152000000053
  0
LINE
  8
_0-3_躯体と製品
  6
PLINE2
 62
    6
 10
1838.792890000007
 20
457.71746000000167
 11
1922.7988900000055
 21
373.71146000000158
  0
LINE
  8
_0-3_躯体と製品
  6
CONTINUOUS
 62
    3
 10
1955.7928900000043
 20
373.71146000000158
 11
1851.7928900000052
 21
373.71146000000158
  0
LINE
  8
_0-3_躯体と製品
  6
PLINE2
 62
    6
 10
1851.7928900000052
 20
374.00677999999948
 11
1852.088210000009
 21
373.71146000000158
  0
LINE
  8
_0-3_躯体と製品
  6
PLINE2
 62
    6
 10
1838.792890000007
 20
422.36212000000069
 11
1887.4435500000054
 21
373.71146000000158
  0
LINE
  8
_0-3_躯体と製品
  6
CONTINUOUS
 62
    3
 10
1851.7928900000052
 20
378.71146000000249
 11
1851.7928900000052
 21
373.71146000000158
  0
LINE
  8
_0-3_躯体と製品
  6
CONTINUOUS
 62
    3
 10
1838.792890000007
 20
393.84843999999953
 11
1851.7928900000052
 21
378.71146000000249
  0
LINE
  8
_0-3_躯体と製品
  6
CONTINUOUS
 62
    3
 10
1955.7928900000043
 20
378.71146000000249
 11
1955.7928900000043
 21
373.71146000000158
  0
LINE
  8
_0-3_躯体と製品
  6
PLINE2
 62
    6
 10
1838.792890000007
 20
464.0042599999997
 11
1866.4901700000055
 21
491.70152000000053
  0
LINE
  8
_0-3_躯体と製品
  6
PLINE2
 62
    6
 10
2114.7132300000067
 20
421.72653999999966
 11
2184.6882100000075
 21
491.70152000000053
  0
LINE
  8
_0-3_躯体と製品
  6
PLINE2
 62
    6
 10
2098.3455700000068
 20
440.71421999999961
 11
2149.3328700000038
 21
491.70152000000053
  0
LINE
  8
_0-3_躯体と製品
  6
PLINE2
 62
    6
 10
2241.0527700000093
 20
373.65563999999949
 11
2123.0068700000047
 21
491.70152000000053
  0
LINE
  8
_0-3_躯体と製品
  6
PLINE2
 62
    6
 10
2205.8308100000049
 20
373.52223999999956
 11
2087.6515300000101
 21
491.70152000000053
  0
LINE
  8
_0-3_躯体と製品
  6
PLINE2
 62
    6
 10
2065.196870000007
 20
478.8008400000017
 11
2170.6088700000073
 21
373.3888600000007
  0
LINE
  8
_0-3_躯体と製品
  6
CONTINUOUS
 62
    3
 10
2078.7928900000097
 20
463.71146000000158
 11
2151.7928900000043
 21
378.71146000000249
  0
LINE
  8
_0-3_躯体と製品
  6
CONTINUOUS
 62
    3
 10
2053.7928900000079
 20
489.71146000000067
 11
2052.3515500000049
 21
489.62472000000048
  0
LINE
  8
_0-3_躯体と製品
  6
CONTINUOUS
 62
    3
 10
2052.3515500000049
 20
489.62472000000048
 11
2050.9329500000094
 21
489.36586000000057
  0
LINE
  8
_0-3_躯体と製品
  6
CONTINUOUS
 62
    3
 10
2050.9329500000094
 20
489.36586000000057
 11
2049.5594500000079
 21
488.93900000000053
  0
LINE
  8
_0-3_躯体と製品
  6
CONTINUOUS
 62
    3
 10
2049.5594500000079
 20
488.93900000000053
 11
2048.2527300000074
 21
488.35082000000057
  0
LINE
  8
_0-3_躯体と製品
  6
CONTINUOUS
 62
    3
 10
2048.2527300000074
 20
488.35082000000057
 11
2047.033350000007
 21
487.61064000000056
  0
LINE
  8
_0-3_躯体と製品
  6
CONTINUOUS
 62
    3
 10
2047.033350000007
 20
487.61064000000056
 11
2045.9205900000088
 21
486.73009999999954
  0
LINE
  8
_0-3_躯体と製品
  6
CONTINUOUS
 62
    3
 10
2045.9205900000088
 20
486.73009999999954
 11
2044.9319900000082
 21
485.72312000000056
  0
LINE
  8
_0-3_躯体と製品
  6
CONTINUOUS
 62
    3
 10
2044.9319900000082
 20
485.72312000000056
 11
2044.0831100000087
 21
484.60553999999956
  0
LINE
  8
_0-3_躯体と製品
  6
CONTINUOUS
 62
    3
 10
2044.0831100000087
 20
484.60553999999956
 11
2043.3873700000076
 21
483.39502000000061
  0
LINE
  8
_0-3_躯体と製品
  6
CONTINUOUS
 62
    3
 10
2043.3873700000076
 20
483.39502000000061
 11
2043.2860500000061
 21
483.18328000000065
  0
LINE
  8
_0-3_躯体と製品
  6
PLINE2
 62
    6
 10
2041.2155100000091
 20
467.42688000000066
 11
2016.9408500000063
 21
491.70152000000053
  0
LINE
  8
_0-3_躯体と製品
  6
PLINE2
 62
    6
 10
2019.9140100000095
 20
453.37304000000154
 11
1981.5855100000081
 21
491.70152000000053
  0
LINE
  8
_0-3_躯体と製品
  6
CONTINUOUS
 62
    3
 10
2033.1273500000079
 20
463.71146000000158
 11
2028.7928900000079
 21
463.71146000000158
  0
ARC
  8
_0-3_躯体と製品
  6
CONTINUOUS
 62
    3
 10
2033.1273500000079
 20
466.71145999999953
 40
3
 50
270
 51
295.01689299999992
  0
LINE
  8
_0-3_躯体と製品
  6
CONTINUOUS
 62
    3
 10
2034.39599000001
 20
463.99290000000065
 11
2042.6333700000068
 21
467.83701999999948
  0
ARC
  8
_0-3_躯体と製品
  6
CONTINUOUS
 62
    3
 10
2049.4960300000075
 20
479.62896000000069
 40
7.155219999999999
 50
150.21503199999719
 51
190.0907490000026
  0
ARC
  8
_0-3_躯体と製品
  6
CONTINUOUS
 62
    3
 10
2046.6185100000057
 20
479.93975999999952
 40
4.4509999999999987
 50
200.57807999999901
 51
206.44862599999749
  0
LINE
  8
_0-3_躯体と製品
  6
PLINE2
 62
    6
 10
2081.9779100000087
 20
459.70190000000071
 11
2113.9775300000092
 21
491.70152000000053
  0
LINE
  8
_0-3_躯体と製品
  6
CONTINUOUS
 62
    3
 10
2074.458430000006
 20
463.71146000000158
 11
2078.7928900000097
 21
463.71146000000158
  0
ARC
  8
_0-3_躯体と製品
  6
CONTINUOUS
 62
    3
 10
2074.458430000006
 20
466.71145999999953
 40
3
 50
244.98310699999996
 51
270
  0
LINE
  8
_0-3_躯体と製品
  6
CONTINUOUS
 62
    3
 10
2073.1897700000063
 20
463.99290000000065
 11
2064.7575700000089
 21
467.92793999999958
  0
LINE
  8
_0-3_躯体と製品
  6
CONTINUOUS
 62
    3
 10
2064.2997300000097
 20
483.18328000000065
 11
2063.6309300000066
 21
484.40762000000063
  0
LINE
  8
_0-3_躯体と製品
  6
CONTINUOUS
 62
    3
 10
2063.6309300000066
 20
484.40762000000063
 11
2062.8069900000064
 21
485.54212000000052
  0
LINE
  8
_0-3_躯体と製品
  6
CONTINUOUS
 62
    3
 10
2062.8069900000064
 20
485.54212000000052
 11
2061.8408700000073
 21
486.56889999999953
  0
LINE
  8
_0-3_躯体と製品
  6
CONTINUOUS
 62
    3
 10
2061.8408700000073
 20
486.56889999999953
 11
2060.747850000007
 21
487.47178000000054
  0
LINE
  8
_0-3_躯体と製品
  6
CONTINUOUS
 62
    3
 10
2060.747850000007
 20
487.47178000000054
 11
2059.5451500000054
 21
488.23648000000048
  0
LINE
  8
_0-3_躯体と製品
  6
CONTINUOUS
 62
    3
 10
2059.5451500000054
 20
488.23648000000048
 11
2058.2517300000109
 21
488.85097999999948
  0
LINE
  8
_0-3_躯体と製品
  6
CONTINUOUS
 62
    3
 10
2058.2517300000109
 20
488.85097999999948
 11
2056.887970000007
 21
489.30558000000065
  0
LINE
  8
_0-3_躯体と製品
  6
CONTINUOUS
 62
    3
 10
2056.887970000007
 20
489.30558000000065
 11
2055.4754300000041
 21
489.59308000000055
  0
LINE
  8
_0-3_躯体と製品
  6
CONTINUOUS
 62
    3
 10
2055.4754300000041
 20
489.59308000000055
 11
2054.0363300000081
 21
489.70898000000057
  0
LINE
  8
_0-3_躯体と製品
  6
CONTINUOUS
 62
    3
 10
2054.0363300000081
 20
489.70898000000057
 11
2053.7928900000079
 21
489.71146000000067
  0
ARC
  8
_0-3_躯体と製品
  6
CONTINUOUS
 62
    3
 10
2058.0897300000088
 20
479.62896000000069
 40
7.155219999999999
 50
338.73022400000173
 51
29.784968000002742
  0
LINE
  8
_0-3_躯体と製品
  6
PLINE2
 62
    6
 10
2147.4485500000064
 20
383.7511999999997
 11
2255.398890000004
 21
491.70152000000053
  0
LINE
  8
_0-3_躯体と製品
  6
PLINE2
 62
    6
 10
2131.0808900000047
 20
402.7388599999997
 11
2220.0435500000076
 21
491.70152000000053
  0
LINE
  8
_0-3_躯体と製品
  6
PLINE2
 62
    6
 10
2262.9817300000086
 20
387.08202000000051
 11
2158.3622100000084
 21
491.70152000000053
  0
LINE
  8
_0-3_躯体と製品
  6
CONTINUOUS
 62
    3
 10
2255.7928900000024
 20
373.71146000000158
 11
2151.7928900000043
 21
373.71146000000158
  0
LINE
  8
_0-3_躯体と製品
  6
CONTINUOUS
 62
    3
 10
2151.7928900000043
 20
378.71146000000249
 11
2151.7928900000043
 21
373.71146000000158
  0
LINE
  8
_0-3_躯体と製品
  6
CONTINUOUS
 62
    3
 10
2255.7928900000024
 20
378.71146000000249
 11
2255.7928900000024
 21
373.71146000000158
  0
LINE
  8
_0-3_躯体と製品
  6
CONTINUOUS
 62
    4
 10
2268.7928900000079
 20
564.58738000000062
 11
2268.7928900000079
 21
664.58738000000062
  0
LINE
  8
_0-3_躯体と製品
  6
CONTINUOUS
 62
    4
 10
2218.7928900000079
 20
664.58738000000062
 11
2218.7928900000079
 21
564.58738000000062
  0
LINE
  8
_0-3_躯体と製品
  6
CONTINUOUS
 62
    3
 10
2228.7928900000097
 20
589.58738000000062
 11
2258.7928900000079
 21
589.58738000000062
  0
LINE
  8
_0-3_躯体と製品
  6
CONTINUOUS
 62
    3
 10
2228.7928900000097
 20
639.08204000000069
 11
2258.7928900000079
 21
639.08204000000069
  0
LINE
  8
_0-3_躯体と製品
  6
CONTINUOUS
 62
    4
 10
2218.7928900000079
 20
564.58738000000062
 11
2268.7928900000079
 21
564.58738000000062
  0
LINE
  8
_0-3_躯体と製品
  6
CONTINUOUS
 62
    4
 10
2218.7928900000079
 20
564.58738000000062
 11
2268.7928900000079
 21
564.58738000000062
  0
LINE
  8
_0-3_躯体と製品
  6
CONTINUOUS
 62
    3
 10
2228.7928900000097
 20
755.9186599999997
 11
2258.7928900000079
 21
755.9186599999997
  0
LINE
  8
_0-3_躯体と製品
  6
CONTINUOUS
 62
    3
 10
2228.7928900000097
 20
902.72327999999993
 11
2258.7928900000079
 21
902.72327999999993
  0
LINE
  8
_0-3_躯体と製品
  6
CONTINUOUS
 62
    3
 10
2228.7928900000097
 20
1043.2495200000003
 11
2258.7928900000079
 21
1043.2495200000003
  0
LINE
  8
_0-3_躯体と製品
  6
CONTINUOUS
 62
    3
 10
2228.7928900000097
 20
1119.5309399999994
 11
2258.7928900000079
 21
1119.5309399999994
  0
LINE
  8
_0-3_躯体と製品
  6
CONTINUOUS
 62
    4
 10
2538.7928900000079
 20
564.58738000000062
 11
2588.7928900000115
 21
564.58738000000062
  0
LINE
  8
_0-3_躯体と製品
  6
CONTINUOUS
 62
    4
 10
2413.7928900000079
 20
664.58738000000062
 11
2753.7928900000115
 21
664.58738000000062
  0
LINE
  8
_0-3_躯体と製品
  6
CONTINUOUS
 62
    4
 10
2413.7928900000079
 20
727.23981999999955
 11
2753.7928900000115
 21
727.23981999999955
  0
LINE
  8
_0-3_躯体と製品
  6
CONTINUOUS
 62
    4
 10
2538.7928900000079
 20
564.58738000000062
 11
2588.7928900000115
 21
564.58738000000062
  0
LINE
  8
_0-3_躯体と製品
  6
CONTINUOUS
 62
    3
 10
2413.7928900000079
 20
516.54735999999957
 11
2753.7928900000115
 21
516.54735999999957
  0
LINE
  8
_0-3_躯体と製品
  6
PLINE2
 62
    6
 10
2526.234890000007
 20
373.6287999999995
 11
2644.3076300000102
 21
491.70152000000053
  0
LINE
  8
_0-3_躯体と製品
  6
PLINE2
 62
    6
 10
2490.6569900000068
 20
373.40624000000162
 11
2608.9522900000047
 21
491.70152000000053
  0
LINE
  8
_0-3_躯体と製品
  6
PLINE2
 62
    6
 10
2604.0598100000061
 20
434.91266000000064
 11
2547.2709500000092
 21
491.70152000000053
  0
LINE
  8
_0-3_躯体と製品
  6
PLINE2
 62
    6
 10
2587.7247500000067
 20
415.89238000000068
 11
2511.9156100000073
 21
491.70152000000053
  0
LINE
  8
_0-3_躯体と製品
  6
CONTINUOUS
 62
    3
 10
2628.7928900000115
 20
463.71146000000158
 11
2555.7928900000024
 21
378.71146000000249
  0
LINE
  8
_0-3_躯体と製品
  6
PLINE2
 62
    6
 10
2423.2727100000066
 20
412.08796000000166
 11
2502.8862700000045
 21
491.70152000000053
  0
LINE
  8
_0-3_躯体と製品
  6
PLINE2
 62
    6
 10
2413.7928900000079
 20
473.3188199999995
 11
2432.1755900000044
 21
491.70152000000053
  0
LINE
  8
_0-3_躯体と製品
  6
PLINE2
 62
    6
 10
2413.7928900000079
 20
437.96348000000057
 11
2467.5309300000026
 21
491.70152000000053
  0
LINE
  8
_0-3_躯体と製品
  6
PLINE2
 62
    6
 10
2488.4843300000084
 20
373.71146000000158
 11
2413.7928900000079
 21
448.40288000000055
  0
LINE
  8
_0-3_躯体と製品
  6
PLINE2
 62
    6
 10
2523.8396700000048
 20
373.71146000000158
 11
2413.7928900000079
 21
483.75822000000062
  0
LINE
  8
_0-3_躯体と製品
  6
CONTINUOUS
 62
    3
 10
2413.7928900000079
 20
422.95802000000162
 11
2451.7928900000043
 21
378.71146000000249
  0
LINE
  8
_0-3_躯体と製品
  6
CONTINUOUS
 62
    3
 10
2353.7928900000097
 20
489.71146000000067
 11
2352.3515500000067
 21
489.62472000000048
  0
LINE
  8
_0-3_躯体と製品
  6
CONTINUOUS
 62
    3
 10
2352.3515500000067
 20
489.62472000000048
 11
2350.9329500000076
 21
489.36586000000057
  0
LINE
  8
_0-3_躯体と製品
  6
CONTINUOUS
 62
    3
 10
2350.9329500000076
 20
489.36586000000057
 11
2349.5594500000097
 21
488.93900000000053
  0
LINE
  8
_0-3_躯体と製品
  6
CONTINUOUS
 62
    3
 10
2349.5594500000097
 20
488.93900000000053
 11
2348.2527300000056
 21
488.35082000000057
  0
LINE
  8
_0-3_躯体と製品
  6
CONTINUOUS
 62
    3
 10
2348.2527300000056
 20
488.35082000000057
 11
2347.0333500000088
 21
487.61064000000056
  0
LINE
  8
_0-3_躯体と製品
  6
CONTINUOUS
 62
    3
 10
2347.0333500000088
 20
487.61064000000056
 11
2345.9205900000088
 21
486.73009999999954
  0
LINE
  8
_0-3_躯体と製品
  6
CONTINUOUS
 62
    3
 10
2345.9205900000088
 20
486.73009999999954
 11
2344.9319900000064
 21
485.72312000000056
  0
LINE
  8
_0-3_躯体と製品
  6
CONTINUOUS
 62
    3
 10
2344.9319900000064
 20
485.72312000000056
 11
2344.0831100000069
 21
484.60553999999956
  0
LINE
  8
_0-3_躯体と製品
  6
CONTINUOUS
 62
    3
 10
2344.0831100000069
 20
484.60553999999956
 11
2343.3873700000076
 21
483.39502000000061
  0
LINE
  8
_0-3_躯体と製品
  6
CONTINUOUS
 62
    3
 10
2343.3873700000076
 20
483.39502000000061
 11
2343.2860500000043
 21
483.18328000000065
  0
LINE
  8
_0-3_躯体と製品
  6
PLINE2
 62
    6
 10
2328.3219700000045
 20
463.16312000000153
 11
2299.7835700000069
 21
491.70152000000053
  0
LINE
  8
_0-3_躯体と製品
  6
PLINE2
 62
    6
 10
2333.7224500000084
 20
463.95908000000168
 11
2342.6333700000068
 21
472.86998000000062
  0
LINE
  8
_0-3_躯体と製品
  6
CONTINUOUS
 62
    3
 10
2333.1273500000061
 20
463.71146000000158
 11
2328.7928900000097
 21
463.71146000000158
  0
ARC
  8
_0-3_躯体と製品
  6
CONTINUOUS
 62
    3
 10
2333.1273500000061
 20
466.71145999999953
 40
3
 50
270
 51
295.01689299999992
  0
LINE
  8
_0-3_躯体と製品
  6
CONTINUOUS
 62
    3
 10
2334.39599000001
 20
463.99290000000065
 11
2342.6333700000068
 21
467.83701999999948
  0
ARC
  8
_0-3_躯体と製品
  6
CONTINUOUS
 62
    3
 10
2349.4960300000075
 20
479.62896000000069
 40
7.155219999999999
 50
150.21503199999719
 51
190.0907490000026
  0
ARC
  8
_0-3_躯体と製品
  6
CONTINUOUS
 62
    3
 10
2346.6185100000075
 20
479.93975999999952
 40
4.4509999999999987
 50
200.57807999999901
 51
206.44862599999749
  0
LINE
  8
_0-3_躯体と製品
  6
PLINE2
 62
    6
 10
2370.5996500000074
 20
491.70152000000053
 11
2393.7928900000079
 21
468.50828000000161
  0
LINE
  8
_0-3_躯体と製品
  6
CONTINUOUS
 62
    3
 10
2374.458430000006
 20
463.71146000000158
 11
2378.7928900000079
 21
463.71146000000158
  0
ARC
  8
_0-3_躯体と製品
  6
CONTINUOUS
 62
    3
 10
2374.458430000006
 20
466.71145999999953
 40
3
 50
244.98310699999996
 51
270
  0
LINE
  8
_0-3_躯体と製品
  6
CONTINUOUS
 62
    3
 10
2373.1897700000063
 20
463.99290000000065
 11
2364.7575700000107
 21
467.92793999999958
  0
LINE
  8
_0-3_躯体と製品
  6
CONTINUOUS
 62
    3
 10
2378.7928900000079
 20
463.71146000000158
 11
2393.7928900000079
 21
446.24570000000153
  0
LINE
  8
_0-3_躯体と製品
  6
CONTINUOUS
 62
    3
 10
2364.2997300000097
 20
483.18328000000065
 11
2363.6309300000066
 21
484.40762000000063
  0
LINE
  8
_0-3_躯体と製品
  6
CONTINUOUS
 62
    3
 10
2363.6309300000066
 20
484.40762000000063
 11
2362.8069900000046
 21
485.54212000000052
  0
LINE
  8
_0-3_躯体と製品
  6
CONTINUOUS
 62
    3
 10
2362.8069900000046
 20
485.54212000000052
 11
2361.8408700000091
 21
486.56889999999953
  0
LINE
  8
_0-3_躯体と製品
  6
CONTINUOUS
 62
    3
 10
2361.8408700000091
 20
486.56889999999953
 11
2360.7478500000052
 21
487.47178000000054
  0
LINE
  8
_0-3_躯体と製品
  6
CONTINUOUS
 62
    3
 10
2360.7478500000052
 20
487.47178000000054
 11
2359.5451500000054
 21
488.23648000000048
  0
LINE
  8
_0-3_躯体と製品
  6
CONTINUOUS
 62
    3
 10
2359.5451500000054
 20
488.23648000000048
 11
2358.251730000009
 21
488.85097999999948
  0
LINE
  8
_0-3_躯体と製品
  6
CONTINUOUS
 62
    3
 10
2358.251730000009
 20
488.85097999999948
 11
2356.8879700000052
 21
489.30558000000065
  0
LINE
  8
_0-3_躯体と製品
  6
CONTINUOUS
 62
    3
 10
2356.8879700000052
 20
489.30558000000065
 11
2355.4754300000041
 21
489.59308000000055
  0
LINE
  8
_0-3_躯体と製品
  6
CONTINUOUS
 62
    3
 10
2355.4754300000041
 20
489.59308000000055
 11
2354.0363300000081
 21
489.70898000000057
  0
LINE
  8
_0-3_躯体と製品
  6
CONTINUOUS
 62
    3
 10
2354.0363300000081
 20
489.70898000000057
 11
2353.7928900000097
 21
489.71146000000067
  0
ARC
  8
_0-3_躯体と製品
  6
CONTINUOUS
 62
    3
 10
2358.0897300000088
 20
479.62896000000069
 40
7.155219999999999
 50
338.73022400000173
 51
29.784968000002742
  0
LINE
  8
_0-3_躯体と製品
  6
PLINE2
 62
    6
 10
2370.4092300000084
 20
465.29050000000166
 11
2393.7928900000079
 21
488.67416000000048
  0
LINE
  8
_0-3_躯体と製品
  6
PLINE2
 62
    6
 10
2455.0790900000065
 20
373.18367999999964
 11
2573.5969500000083
 21
491.70152000000053
  0
LINE
  8
_0-3_躯体と製品
  6
PLINE2
 62
    6
 10
2439.5825900000091
 20
393.04249999999956
 11
2538.2416100000082
 21
491.70152000000053
  0
LINE
  8
_0-3_躯体と製品
  6
PLINE2
 62
    6
 10
2571.3896900000036
 20
396.8721000000005
 11
2476.560270000009
 21
491.70152000000053
  0
LINE
  8
_0-3_躯体と製品
  6
PLINE2
 62
    6
 10
2555.5851700000057
 20
377.32128000000148
 11
2441.2049300000053
 21
491.70152000000053
  0
LINE
  8
_0-3_躯体と製品
  6
CONTINUOUS
 62
    3
 10
2555.7928900000024
 20
373.71146000000158
 11
2451.7928900000043
 21
373.71146000000158
  0
LINE
  8
_0-3_躯体と製品
  6
PLINE2
 62
    6
 10
2451.7928900000043
 20
375.04754000000048
 11
2453.1289900000065
 21
373.71146000000158
  0
LINE
  8
_0-3_躯体と製品
  6
CONTINUOUS
 62
    3
 10
2451.7928900000043
 20
378.71146000000249
 11
2451.7928900000043
 21
373.71146000000158
  0
LINE
  8
_0-3_躯体と製品
  6
CONTINUOUS
 62
    3
 10
2555.7928900000024
 20
378.71146000000249
 11
2555.7928900000024
 21
373.71146000000158
  0
LINE
  8
_0-3_躯体と製品
  6
CONTINUOUS
 62
    4
 10
2538.7928900000079
 20
664.58738000000062
 11
2538.7928900000079
 21
564.58738000000062
  0
LINE
  8
_0-3_躯体と製品
  6
CONTINUOUS
 62
    3
 10
2548.7928900000079
 20
589.58738000000062
 11
2578.7928900000097
 21
589.58738000000062
  0
LINE
  8
_0-3_躯体と製品
  6
CONTINUOUS
 62
    3
 10
2548.7928900000079
 20
639.08204000000069
 11
2578.7928900000097
 21
639.08204000000069
  0
LINE
  8
_0-3_躯体と製品
  6
PLINE2
 62
    6
 10
2731.5773100000097
 20
402.19452000000069
 11
2821.0843100000038
 21
491.70152000000053
  0
LINE
  8
_0-3_躯体と製品
  6
PLINE2
 62
    6
 10
2715.3520700000063
 20
421.32462000000055
 11
2785.7289900000051
 21
491.70152000000053
  0
LINE
  8
_0-3_躯体と製品
  6
PLINE2
 62
    6
 10
2699.0879500000101
 20
440.41584000000057
 11
2750.3736500000086
 21
491.70152000000053
  0
LINE
  8
_0-3_躯体と製品
  6
PLINE2
 62
    6
 10
2841.5886300000057
 20
374.16054000000054
 11
2724.0476300000118
 21
491.70152000000053
  0
LINE
  8
_0-3_躯体と製品
  6
PLINE2
 62
    6
 10
2806.4092300000084
 20
373.98460000000159
 11
2688.6922900000063
 21
491.70152000000053
  0
LINE
  8
_0-3_躯体と製品
  6
PLINE2
 62
    6
 10
2665.243010000002
 20
479.7954600000005
 11
2771.2298300000093
 21
373.80866000000265
  0
LINE
  8
_0-3_躯体と製品
  6
CONTINUOUS
 62
    3
 10
2678.7928900000115
 20
463.71146000000158
 11
2751.7928900000061
 21
378.71146000000249
  0
LINE
  8
_0-3_躯体と製品
  6
CONTINUOUS
 62
    3
 10
2664.2997300000097
 20
483.18328000000065
 11
2663.6309300000066
 21
484.40762000000063
  0
LINE
  8
_0-3_躯体と製品
  6
CONTINUOUS
 62
    3
 10
2663.6309300000066
 20
484.40762000000063
 11
2662.8069900000064
 21
485.54212000000052
  0
LINE
  8
_0-3_躯体と製品
  6
CONTINUOUS
 62
    3
 10
2662.8069900000064
 20
485.54212000000052
 11
2661.8408700000036
 21
486.56889999999953
  0
LINE
  8
_0-3_躯体と製品
  6
CONTINUOUS
 62
    3
 10
2661.8408700000036
 20
486.56889999999953
 11
2660.747850000007
 21
487.47178000000054
  0
LINE
  8
_0-3_躯体と製品
  6
CONTINUOUS
 62
    3
 10
2660.747850000007
 20
487.47178000000054
 11
2659.5451500000108
 21
488.23648000000048
  0
LINE
  8
_0-3_躯体と製品
  6
CONTINUOUS
 62
    3
 10
2659.5451500000108
 20
488.23648000000048
 11
2658.251730000009
 21
488.85097999999948
  0
LINE
  8
_0-3_躯体と製品
  6
CONTINUOUS
 62
    3
 10
2658.251730000009
 20
488.85097999999948
 11
2656.887970000007
 21
489.30558000000065
  0
LINE
  8
_0-3_躯体と製品
  6
CONTINUOUS
 62
    3
 10
2656.887970000007
 20
489.30558000000065
 11
2655.4754300000041
 21
489.59308000000055
  0
LINE
  8
_0-3_躯体と製品
  6
CONTINUOUS
 62
    3
 10
2655.4754300000041
 20
489.59308000000055
 11
2654.0363300000063
 21
489.70898000000057
  0
LINE
  8
_0-3_躯体と製品
  6
CONTINUOUS
 62
    3
 10
2654.0363300000063
 20
489.70898000000057
 11
2653.7928900000115
 21
489.71146000000067
  0
LINE
  8
_0-3_躯体と製品
  6
PLINE2
 62
    6
 10
2655.9752100000042
 20
489.06328000000053
 11
2653.3369500000099
 21
491.70152000000053
  0
LINE
  8
_0-3_躯体と製品
  6
PLINE2
 62
    6
 10
2641.9940100000058
 20
467.6891399999995
 11
2617.9816100000025
 21
491.70152000000053
  0
LINE
  8
_0-3_躯体と製品
  6
PLINE2
 62
    6
 10
2620.3948700000055
 20
453.93293999999969
 11
2582.6262900000056
 21
491.70152000000053
  0
ARC
  8
_0-3_躯体と製品
  6
CONTINUOUS
 62
    3
 10
2649.4960300000075
 20
479.62896000000069
 40
7.155219999999999
 50
150.21503199999719
 51
190.0907490000026
  0
ARC
  8
_0-3_躯体と製品
  6
CONTINUOUS
 62
    3
 10
2646.6185100000057
 20
479.93975999999952
 40
4.4509999999999987
 50
200.57807999999901
 51
206.44862599999749
  0
LINE
  8
_0-3_躯体と製品
  6
CONTINUOUS
 62
    3
 10
2653.7928900000115
 20
489.71146000000067
 11
2652.3515500000103
 21
489.62472000000048
  0
LINE
  8
_0-3_躯体と製品
  6
CONTINUOUS
 62
    3
 10
2652.3515500000103
 20
489.62472000000048
 11
2650.932950000004
 21
489.36586000000057
  0
LINE
  8
_0-3_躯体と製品
  6
CONTINUOUS
 62
    3
 10
2650.932950000004
 20
489.36586000000057
 11
2649.5594500000043
 21
488.93900000000053
  0
LINE
  8
_0-3_躯体と製品
  6
CONTINUOUS
 62
    3
 10
2649.5594500000043
 20
488.93900000000053
 11
2648.2527300000111
 21
488.35082000000057
  0
LINE
  8
_0-3_躯体と製品
  6
CONTINUOUS
 62
    3
 10
2648.2527300000111
 20
488.35082000000057
 11
2647.0333500000088
 21
487.61064000000056
  0
LINE
  8
_0-3_躯体と製品
  6
CONTINUOUS
 62
    3
 10
2647.0333500000088
 20
487.61064000000056
 11
2645.9205900000034
 21
486.73009999999954
  0
LINE
  8
_0-3_躯体と製品
  6
CONTINUOUS
 62
    3
 10
2645.9205900000034
 20
486.73009999999954
 11
2644.9319900000119
 21
485.72312000000056
  0
LINE
  8
_0-3_躯体と製品
  6
CONTINUOUS
 62
    3
 10
2644.9319900000119
 20
485.72312000000056
 11
2644.0831100000087
 21
484.60553999999956
  0
LINE
  8
_0-3_躯体と製品
  6
CONTINUOUS
 62
    3
 10
2644.0831100000087
 20
484.60553999999956
 11
2643.3873700000076
 21
483.39502000000061
  0
LINE
  8
_0-3_躯体と製品
  6
CONTINUOUS
 62
    3
 10
2643.3873700000076
 20
483.39502000000061
 11
2643.2860500000061
 21
483.18328000000065
  0
LINE
  8
_0-3_躯体と製品
  6
CONTINUOUS
 62
    3
 10
2633.1273500000025
 20
463.71146000000158
 11
2628.7928900000115
 21
463.71146000000158
  0
ARC
  8
_0-3_躯体と製品
  6
CONTINUOUS
 62
    3
 10
2633.1273500000025
 20
466.71145999999953
 40
3
 50
270
 51
295.01689299999992
  0
LINE
  8
_0-3_躯体と製品
  6
CONTINUOUS
 62
    3
 10
2634.39599000001
 20
463.99290000000065
 11
2642.6333700000105
 21
467.83701999999948
  0
LINE
  8
_0-3_躯体と製品
  6
PLINE2
 62
    6
 10
2682.8238300000048
 20
459.50706000000059
 11
2715.0183100000049
 21
491.70152000000053
  0
LINE
  8
_0-3_躯体と製品
  6
PLINE2
 62
    6
 10
2664.7575700000089
 20
476.79612000000157
 11
2679.6629700000067
 21
491.70152000000053
  0
ARC
  8
_0-3_躯体と製品
  6
CONTINUOUS
 62
    3
 10
2658.0897300000088
 20
479.62896000000069
 40
7.155219999999999
 50
338.73022400000173
 51
29.784968000002742
  0
LINE
  8
_0-3_躯体と製品
  6
CONTINUOUS
 62
    3
 10
2674.4584300000024
 20
463.71146000000158
 11
2678.7928900000115
 21
463.71146000000158
  0
ARC
  8
_0-3_躯体と製品
  6
CONTINUOUS
 62
    3
 10
2674.4584300000024
 20
466.71145999999953
 40
3
 50
244.98310699999996
 51
270
  0
LINE
  8
_0-3_躯体と製品
  6
CONTINUOUS
 62
    3
 10
2673.1897700000063
 20
463.99290000000065
 11
2664.7575700000089
 21
467.92793999999958
  0
LINE
  8
_0-3_躯体と製品
  6
PLINE2
 62
    6
 10
2747.7397500000097
 20
383.00162000000068
 11
2856.4396500000075
 21
491.70152000000053
  0
LINE
  8
_0-3_躯体と製品
  6
PLINE2
 62
    6
 10
2879.7976500000077
 20
406.66220000000067
 11
2794.7583100000047
 21
491.70152000000053
  0
LINE
  8
_0-3_躯体と製品
  6
PLINE2
 62
    6
 10
2863.4625900000046
 20
387.64192000000162
 11
2759.4029700000083
 21
491.70152000000053
  0
LINE
  8
_0-3_躯体と製品
  6
CONTINUOUS
 62
    3
 10
2855.7928900000097
 20
373.71146000000158
 11
2751.7928900000061
 21
373.71146000000158
  0
LINE
  8
_0-3_躯体と製品
  6
CONTINUOUS
 62
    3
 10
2751.7928900000061
 20
378.71146000000249
 11
2751.7928900000061
 21
373.71146000000158
  0
LINE
  8
_0-3_躯体と製品
  6
CONTINUOUS
 62
    3
 10
2855.7928900000097
 20
378.71146000000249
 11
2855.7928900000097
 21
373.71146000000158
  0
LINE
  8
_0-3_躯体と製品
  6
CONTINUOUS
 62
    4
 10
2588.7928900000115
 20
564.58738000000062
 11
2588.7928900000115
 21
664.58738000000062
  0
LINE
  8
_0-3_躯体と製品
  6
CONTINUOUS
 62
    4
 10
2413.7928900000079
 20
1049.5347000000002
 11
2753.7928900000115
 21
1049.5347000000002
  0
LINE
  8
_0-3_躯体と製品
  6
CONTINUOUS
 62
    4
 10
2413.7928900000079
 20
1077.0493400000007
 11
2753.7928900000115
 21
1077.0493400000007
  0
LINE
  8
_0-3_躯体と製品
  6
CONTINUOUS
 62
    3
 10
2548.7928900000079
 20
755.9186599999997
 11
2578.7928900000097
 21
755.9186599999997
  0
LINE
  8
_0-3_躯体と製品
  6
CONTINUOUS
 62
    3
 10
2548.7928900000079
 20
902.72327999999993
 11
2578.7928900000097
 21
902.72327999999993
  0
LINE
  8
_0-3_躯体と製品
  6
CONTINUOUS
 62
    3
 10
2548.7928900000079
 20
1043.2495200000003
 11
2578.7928900000097
 21
1043.2495200000003
  0
LINE
  8
_0-3_躯体と製品
  6
CONTINUOUS
 62
    3
 10
2548.7928900000079
 20
1119.5309399999994
 11
2578.7928900000097
 21
1119.5309399999994
  0
LINE
  8
_0-3_躯体と製品
  6
CONTINUOUS
 62
    4
 10
2243.7928900000079
 20
1424.5873800000002
 11
2393.7928900000079
 21
1424.5873800000002
  0
LINE
  8
_0-3_躯体と製品
  6
CONTINUOUS
 62
    4
 10
1838.792890000007
 20
1584.5873800000002
 11
2393.7928900000079
 21
1584.5873800000002
  0
LINE
  8
_0-3_躯体と製品
  6
CONTINUOUS
 62
    4
 10
2224.7928900000061
 20
1584.5873800000002
 11
2224.7928900000061
 21
1614.5873800000002
  0
ARC
  8
_0-3_躯体と製品
  6
CONTINUOUS
 62
    4
 10
2233.7928900000079
 20
1593.5873799999999
 40
3
 50
180
 51
270
  0
LINE
  8
_0-3_躯体と製品
  6
CONTINUOUS
 62
    4
 10
1838.792890000007
 20
1424.5873800000002
 11
2243.7928900000079
 21
1424.5873800000002
  0
LINE
  8
_0-3_躯体と製品
  6
CONTINUOUS
 62
    3
 10
2228.7928900000097
 20
1380.8861200000001
 11
2258.7928900000079
 21
1380.8861200000001
  0
LINE
  8
_0-3_躯体と製品
  6
CONTINUOUS
 62
    4
 10
2254.7928900000061
 20
1584.5873800000002
 11
2224.7928900000061
 21
1584.5873800000002
  0
LINE
  8
_0-3_躯体と製品
  6
CONTINUOUS
 62
    4
 10
2254.7928900000061
 20
1587.5873799999997
 11
2254.7928900000061
 21
1584.5873800000002
  0
ARC
  8
_0-3_躯体と製品
  6
CONTINUOUS
 62
    4
 10
2251.7928900000061
 20
1587.5873799999997
 40
3
 50
0
 51
90
  0
LINE
  8
_0-3_躯体と製品
  6
CONTINUOUS
 62
    4
 10
2233.7928900000079
 20
1590.5873800000004
 11
2251.7928900000061
 21
1590.5873800000004
  0
LINE
  8
_0-3_躯体と製品
  6
CONTINUOUS
 62
    3
 10
2228.7928900000097
 20
1549.2320400000003
 11
2258.7928900000079
 21
1549.2320400000003
  0
LINE
  8
_0-3_躯体と製品
  6
CONTINUOUS
 62
    4
 10
2230.7928900000043
 20
1611.5873800000006
 11
2230.7928900000043
 21
1593.5873799999999
  0
ARC
  8
_0-3_躯体と製品
  6
CONTINUOUS
 62
    4
 10
2227.7928900000079
 20
1611.5873800000006
 40
3
 50
0
 51
90
  0
LINE
  8
_0-3_躯体と製品
  6
CONTINUOUS
 62
    4
 10
2224.7928900000061
 20
1614.5873800000002
 11
2227.7928900000079
 21
1614.5873800000002
  0
LINE
  8
_0-3_躯体と製品
  6
CONTINUOUS
 62
    4
 10
2544.7928900000061
 20
1584.5873800000002
 11
2544.7928900000061
 21
1614.5873800000002
  0
ARC
  8
_0-3_躯体と製品
  6
CONTINUOUS
 62
    4
 10
2553.7928900000079
 20
1593.5873799999999
 40
3
 50
180
 51
270
  0
LINE
  8
_0-3_躯体と製品
  6
CONTINUOUS
 62
    4
 10
2563.7928900000115
 20
1424.5873800000002
 11
2753.7928900000115
 21
1424.5873800000002
  0
LINE
  8
_0-3_躯体と製品
  6
CONTINUOUS
 62
    4
 10
2413.7928900000079
 20
1584.5873800000002
 11
2753.7928900000115
 21
1584.5873800000002
  0
LINE
  8
_0-3_躯体と製品
  6
CONTINUOUS
 62
    3
 10
2548.7928900000079
 20
1380.8861200000001
 11
2578.7928900000097
 21
1380.8861200000001
  0
LINE
  8
_0-3_躯体と製品
  6
CONTINUOUS
 62
    4
 10
2413.7928900000079
 20
1424.5873800000002
 11
2563.7928900000115
 21
1424.5873800000002
  0
LINE
  8
_0-3_躯体と製品
  6
CONTINUOUS
 62
    4
 10
2574.7928900000061
 20
1584.5873800000002
 11
2544.7928900000061
 21
1584.5873800000002
  0
LINE
  8
_0-3_躯体と製品
  6
CONTINUOUS
 62
    4
 10
2574.7928900000061
 20
1587.5873799999997
 11
2574.7928900000061
 21
1584.5873800000002
  0
ARC
  8
_0-3_躯体と製品
  6
CONTINUOUS
 62
    4
 10
2571.7928900000061
 20
1587.5873799999997
 40
3
 50
0
 51
90
  0
LINE
  8
_0-3_躯体と製品
  6
CONTINUOUS
 62
    4
 10
2553.7928900000079
 20
1590.5873800000004
 11
2571.7928900000061
 21
1590.5873800000004
  0
LINE
  8
_0-3_躯体と製品
  6
CONTINUOUS
 62
    3
 10
2548.7928900000079
 20
1549.2320400000003
 11
2578.7928900000097
 21
1549.2320400000003
  0
LINE
  8
_0-3_躯体と製品
  6
CONTINUOUS
 62
    3
 10
2721.7928900000043
 20
1248.5873799999999
 11
2735.7928900000097
 21
1248.5873799999999
  0
LINE
  8
_0-3_躯体と製品
  6
CONTINUOUS
 62
    3
 10
2721.7928900000043
 20
1281.5873800000006
 11
2735.7928900000097
 21
1281.5873800000006
  0
LINE
  8
_0-3_躯体と製品
  6
PLINE2
 62
    4
 10
2703.7928900000097
 20
1358.5873799999999
 11
2747.7928900000079
 21
1358.5873799999999
  0
LINE
  8
_0-3_躯体と製品
  6
PLINE5
 62
    4
 10
2703.7928900000097
 20
1214.5873800000002
 11
2753.7928900000115
 21
1214.5873800000002
  0
LINE
  8
_0-3_躯体と製品
  6
PLINE5
 62
    4
 10
2753.7928900000115
 20
1364.5873800000002
 11
2703.7928900000097
 21
1364.5873800000002
  0
LINE
  8
_0-3_躯体と製品
  6
CONTINUOUS
 62
    3
 10
2728.7928900000115
 20
1288.5873799999999
 11
2728.7928900000115
 21
1274.5873800000002
  0
LINE
  8
_0-3_躯体と製品
  6
PLINE5
 62
    4
 10
2703.7928900000097
 20
1364.5873800000002
 11
2703.7928900000097
 21
1214.5873800000002
  0
LINE
  8
_0-3_躯体と製品
  6
CONTINUOUS
 62
    3
 10
2728.7928900000115
 20
1255.5873800000004
 11
2728.7928900000115
 21
1241.5873800000006
  0
LINE
  8
_0-3_躯体と製品
  6
PLINE2
 62
    4
 10
2747.7928900000079
 20
1314.5873800000002
 11
2753.7928900000115
 21
1314.5873800000002
  0
LINE
  8
_0-3_躯体と製品
  6
PLINE2
 62
    4
 10
2747.7928900000079
 20
1358.5873799999999
 11
2747.7928900000079
 21
1314.5873800000002
  0
LINE
  8
_0-3_躯体と製品
  6
CONTINUOUS
 62
    7
 10
2753.7928900000115
 20
1584.5873800000002
 11
2703.7928900000097
 21
1584.5873800000002
  0
LINE
  8
_0-3_躯体と製品
  6
CONTINUOUS
 62
    7
 10
2703.7928900000097
 20
1564.4590200000002
 11
2703.7928900000097
 21
1584.5873800000002
  0
LINE
  8
_0-3_躯体と製品
  6
CONTINUOUS
 62
    4
 10
2550.7928900000043
 20
1611.5873800000006
 11
2550.7928900000043
 21
1593.5873799999999
  0
ARC
  8
_0-3_躯体と製品
  6
CONTINUOUS
 62
    4
 10
2547.7928900000079
 20
1611.5873800000006
 40
3
 50
0
 51
90
  0
LINE
  8
_0-3_躯体と製品
  6
CONTINUOUS
 62
    4
 10
2544.7928900000061
 20
1614.5873800000002
 11
2547.7928900000079
 21
1614.5873800000002
  0
LINE
  8
_0-3_躯体と製品
  6
CONTINUOUS
 62
    3
 10
3228.7928900000115
 20
533.58738000000062
 11
3155.7928900000079
 21
448.58738000000153
  0
LINE
  8
_0-3_躯体と製品
  6
CONTINUOUS
 62
    3
 10
2993.7928900000115
 20
561.58374000000163
 11
3027.1357500000049
 21
488.86336000000051
  0
LINE
  8
_0-3_躯体と製品
  6
CONTINUOUS
 62
    3
 10
2993.7928900000115
 20
561.58374000000163
 11
2993.7928900000115
 21
491.70152000000053
  0
LINE
  8
_0-3_躯体と製品
  6
CONTINUOUS
 62
    3
 10
3029.7148900000029
 20
474.29464000000053
 11
3051.7928900000043
 21
448.58738000000153
  0
LINE
  8
_0-3_躯体と製品
  6
CONTINUOUS
 62
    7
 10
2993.7928900000115
 20
491.70152000000053
 11
3027.1357500000049
 21
418.98114000000055
  0
LINE
  8
_0-3_躯体と製品
  6
CONTINUOUS
 62
    3
 10
3029.7148900000029
 20
404.42508000000157
 11
3029.7148900000029
 21
474.30728000000067
  0
LINE
  8
_0-3_躯体と製品
  6
CONTINUOUS
 62
    3
 10
3027.1357500000049
 20
418.98114000000055
 11
3027.1357500000049
 21
488.86336000000051
  0
LINE
  8
_0-3_躯体と製品
  6
CONTINUOUS
 62
    7
 10
3027.1357500000049
 20
418.98114000000055
 11
3029.7148900000029
 21
404.42508000000157
  0
LINE
  8
_0-3_躯体と製品
  6
CONTINUOUS
 62
    3
 10
2973.1897700000045
 20
463.99290000000065
 11
2960.5242300000082
 21
469.90350000000058
  0
LINE
  8
_0-3_躯体と製品
  6
CONTINUOUS
 62
    3
 10
2964.2997300000079
 20
483.18328000000065
 11
2963.6309300000066
 21
484.40762000000063
  0
LINE
  8
_0-3_躯体と製品
  6
CONTINUOUS
 62
    3
 10
2963.6309300000066
 20
484.40762000000063
 11
2962.8069900000046
 21
485.54212000000052
  0
LINE
  8
_0-3_躯体と製品
  6
CONTINUOUS
 62
    3
 10
2962.8069900000046
 20
485.54212000000052
 11
2961.8408700000036
 21
486.56889999999953
  0
LINE
  8
_0-3_躯体と製品
  6
CONTINUOUS
 62
    3
 10
2961.8408700000036
 20
486.56889999999953
 11
2960.7478500000052
 21
487.47178000000054
  0
LINE
  8
_0-3_躯体と製品
  6
CONTINUOUS
 62
    3
 10
2960.7478500000052
 20
487.47178000000054
 11
2959.5451500000127
 21
488.23648000000048
  0
LINE
  8
_0-3_躯体と製品
  6
CONTINUOUS
 62
    3
 10
2959.5451500000127
 20
488.23648000000048
 11
2958.251730000009
 21
488.85097999999948
  0
LINE
  8
_0-3_躯体と製品
  6
CONTINUOUS
 62
    3
 10
2958.251730000009
 20
488.85097999999948
 11
2956.8879700000052
 21
489.30558000000065
  0
LINE
  8
_0-3_躯体と製品
  6
CONTINUOUS
 62
    3
 10
2956.8879700000052
 20
489.30558000000065
 11
2955.4754300000041
 21
489.59308000000055
  0
LINE
  8
_0-3_躯体と製品
  6
CONTINUOUS
 62
    3
 10
2955.4754300000041
 20
489.59308000000055
 11
2954.0363300000081
 21
489.70898000000057
  0
LINE
  8
_0-3_躯体と製品
  6
CONTINUOUS
 62
    3
 10
2954.0363300000081
 20
489.70898000000057
 11
2953.7928900000097
 21
489.71146000000067
  0
LINE
  8
_0-3_躯体と製品
  6
PLINE2
 62
    6
 10
2935.9184300000088
 20
465.11428000000069
 11
2946.076230000006
 21
475.27207999999951
  0
LINE
  8
_0-3_躯体と製品
  6
PLINE2
 62
    6
 10
2943.3913300000004
 20
484.48988000000168
 11
2936.1796700000086
 21
491.70152000000053
  0
LINE
  8
_0-3_躯体と製品
  6
PLINE2
 62
    6
 10
2928.8095500000054
 20
463.7163000000005
 11
2900.8243300000031
 21
491.70152000000053
  0
LINE
  8
_0-3_躯体と製品
  6
CONTINUOUS
 62
    3
 10
2933.1273500000025
 20
463.71146000000158
 11
2928.7928900000115
 21
463.71146000000158
  0
ARC
  8
_0-3_躯体と製品
  6
CONTINUOUS
 62
    3
 10
2933.1273500000025
 20
466.71145999999953
 40
3
 50
270
 51
295.01689299999992
  0
LINE
  8
_0-3_躯体と製品
  6
CONTINUOUS
 62
    3
 10
2934.39599000001
 20
463.99290000000065
 11
2947.0615500000058
 21
469.90350000000058
  0
ARC
  8
_0-3_躯体と製品
  6
CONTINUOUS
 62
    3
 10
2949.4960300000075
 20
479.62896000000069
 40
7.155219999999999
 50
150.21503199999719
 51
190.0907490000026
  0
ARC
  8
_0-3_躯体と製品
  6
CONTINUOUS
 62
    3
 10
2946.6185100000057
 20
479.93975999999952
 40
4.4509999999999987
 50
200.57807999999901
 51
206.44862599999749
  0
LINE
  8
_0-3_躯体と製品
  6
CONTINUOUS
 62
    3
 10
2953.7928900000097
 20
489.71146000000067
 11
2952.3515500000103
 21
489.62472000000048
  0
LINE
  8
_0-3_躯体と製品
  6
CONTINUOUS
 62
    3
 10
2952.3515500000103
 20
489.62472000000048
 11
2950.932950000004
 21
489.36586000000057
  0
LINE
  8
_0-3_躯体と製品
  6
CONTINUOUS
 62
    3
 10
2950.932950000004
 20
489.36586000000057
 11
2949.5594500000025
 21
488.93900000000053
  0
LINE
  8
_0-3_躯体と製品
  6
CONTINUOUS
 62
    3
 10
2949.5594500000025
 20
488.93900000000053
 11
2948.2527300000111
 21
488.35082000000057
  0
LINE
  8
_0-3_躯体と製品
  6
CONTINUOUS
 62
    3
 10
2948.2527300000111
 20
488.35082000000057
 11
2947.0333500000088
 21
487.61064000000056
  0
LINE
  8
_0-3_躯体と製品
  6
CONTINUOUS
 62
    3
 10
2947.0333500000088
 20
487.61064000000056
 11
2945.9205900000015
 21
486.73009999999954
  0
LINE
  8
_0-3_躯体と製品
  6
CONTINUOUS
 62
    3
 10
2945.9205900000015
 20
486.73009999999954
 11
2944.9319900000119
 21
485.72312000000056
  0
LINE
  8
_0-3_躯体と製品
  6
CONTINUOUS
 62
    3
 10
2944.9319900000119
 20
485.72312000000056
 11
2944.0831100000087
 21
484.60553999999956
  0
LINE
  8
_0-3_躯体と製品
  6
CONTINUOUS
 62
    3
 10
2944.0831100000087
 20
484.60553999999956
 11
2943.3873700000076
 21
483.39502000000061
  0
LINE
  8
_0-3_躯体と製品
  6
CONTINUOUS
 62
    3
 10
2943.3873700000076
 20
483.39502000000061
 11
2943.2860500000061
 21
483.18328000000065
  0
LINE
  8
_0-3_躯体と製品
  6
CONTINUOUS
 62
    3
 10
3027.1357500000049
 20
488.86336000000051
 11
3029.7148900000029
 21
474.30728000000067
  0
LINE
  8
_0-3_躯体と製品
  6
CONTINUOUS
 62
    3
 10
2974.4584300000024
 20
463.71146000000158
 11
2978.7928900000115
 21
463.71146000000158
  0
ARC
  8
_0-3_躯体と製品
  6
CONTINUOUS
 62
    3
 10
2974.4584300000024
 20
466.71145999999953
 40
3
 50
244.98310699999996
 51
270
  0
ARC
  8
_0-3_躯体と製品
  6
CONTINUOUS
 62
    3
 10
2958.0897300000088
 20
479.62896000000069
 40
7.155219999999999
 50
338.73022400000173
 51
29.784968000002742
  0
LINE
  8
_0-3_躯体と製品
  6
CONTINUOUS
 62
    3
 10
3155.7928900000079
 20
443.58738000000153
 11
3051.7928900000043
 21
443.58738000000153
  0
LINE
  8
_0-3_躯体と製品
  6
CONTINUOUS
 62
    3
 10
3051.7928900000043
 20
448.58738000000153
 11
3051.7928900000043
 21
443.58738000000153
  0
LINE
  8
_0-3_躯体と製品
  6
CONTINUOUS
 62
    3
 10
3155.7928900000079
 20
448.58738000000153
 11
3155.7928900000079
 21
443.58738000000153
  0
INSERT
  2
-001-_D4
  8
_0-2_寸法
 10
-6259.5373007871058
 20
1694.4751174797616
 41
10
 42
10
 50
0
  0
INSERT
  2
-002-_D5
  8
_0-2_寸法
 10
-6259.5373007871058
 20
1694.4751174797616
 41
10
 42
10
 50
0
  0
INSERT
  2
-003-_D6
  8
_0-2_寸法
 10
-6259.5373007871058
 20
1694.4751174797616
 41
10
 42
10
 50
0
  0
INSERT
  2
-004-_D7
  8
_0-2_寸法
 10
-6259.5373007871058
 20
1694.4751174797616
 41
10
 42
10
 50
0
  0
INSERT
  2
-005-_D8
  8
_0-2_寸法
 10
-6259.5373007871058
 20
1694.4751174797616
 41
10
 42
10
 50
0
  0
INSERT
  2
-006-_D9
  8
_0-2_寸法
 10
-6259.5373007871058
 20
1694.4751174797616
 41
10
 42
10
 50
0
  0
INSERT
  2
-007-_D10
  8
_0-2_寸法
 10
-6259.5373007871058
 20
1694.4751174797616
 41
10
 42
10
 50
0
  0
INSERT
  2
-008-_D11
  8
_0-2_寸法
 10
-6259.5373007871058
 20
1694.4751174797616
 41
10
 42
10
 50
0
  0
INSERT
  2
-009-_D12
  8
_0-2_寸法
 10
-6259.5373007871058
 20
1694.4751174797616
 41
10
 42
10
 50
0
  0
INSERT
  2
-010-_D13
  8
_0-2_寸法
 10
-6259.5373007871058
 20
1694.4751174797616
 41
10
 42
10
 50
0
  0
INSERT
  2
-011-_D14
  8
_0-2_寸法
 10
-6259.5373007871058
 20
1694.4751174797616
 41
10
 42
10
 50
0
  0
INSERT
  2
-012-_D15
  8
_0-2_寸法
 10
-6259.5373007871058
 20
1694.4751174797616
 41
10
 42
10
 50
0
  0
INSERT
  2
-013-_D16
  8
_0-2_寸法
 10
-6259.5373007871058
 20
1694.4751174797616
 41
10
 42
10
 50
0
  0
INSERT
  2
-014-_D17
  8
_0-2_寸法
 10
-6259.5373007871058
 20
1694.4751174797616
 41
10
 42
10
 50
0
  0
ENDSEC
  0
EOF
