  0
SECTION
  2
HEADER
  9
$ACADVER
  1
AC1009
  9
$INSBASE
 10
0
 20
0
 30
0
  9
$EXTMIN
 10
0
 20
0
  9
$EXTMAX
 10
841
 20
594
  9
$LIMMIN
 10
0
 20
0
  9
$LIMMAX
 10
841
 20
594
  9
$LTSCALE
 40
1
  0
ENDSEC
  0
SECTION
  2
TABLES
  0
TABLE
  2
LTYPE
 70
     9
  0
LTYPE
  2
CONTINUOUS
 70
    64
  3
実線
 72
    65
 73
     0
 40
0.0
  0
LTYPE
  2
DASHED1
 70
    64
  3
--  --  --  --  --  --  --  --  
 72
    65
 73
     2
 40
2.5
 49
1.25
 49
-1.25
  0
LTYPE
  2
DASHED2
 70
    64
  3
----    ----    ----    ----    
 72
    65
 73
     2
 40
5.0
 49
2.5
 49
-2.5
  0
LTYPE
  2
DASHED3
 70
    64
  3
------  ------  ------  ------  
 72
    65
 73
     2
 40
5.0
 49
3.75
 49
-1.25
  0
LTYPE
  2
CENTER1
 70
    64
  3
----- - ----- - ----- - ----- - 
 72
    65
 73
     4
 40
10.0
 49
6.25
 49
-1.25
 49
1.25
 49
-1.25
  0
LTYPE
  2
CENTER2
 70
    64
  3
----------  --  ----------  --  
 72
    65
 73
     4
 40
20.0
 49
12.5
 49
-2.5
 49
2.5
 49
-2.5
  0
LTYPE
  2
PHANTOM1
 70
    64
  3
--- - - --- - - --- - - --- - - 
 72
    65
 73
     6
 40
10.0
 49
3.25
 49
-1.25
 49
1.25
 49
-1.25
 49
1.25
 49
-1.25
  0
LTYPE
  2
PHANTOM2
 70
    64
  3
--------  -  -  --------  -  -  
 72
    65
 73
     6
 40
20.0
 49
10.0
 49
-2.5
 49
1.25
 49
-2.5
 49
1.25
 49
-2.5
  0
LTYPE
  2
DOT
 70
    64
  3
-   -   -   -   -   -   -   -   
 72
    65
 73
     2
 40
2.5
 49
0.625
 49
-1.875
  0
LTYPE
  2
DUMMY
 70
    64
  3
ダミー
 72
    65
 73
     0
 40
0.0
  0
LTYPE
  2
RAND1
 70
    64
  3
ランダム線1
 72
    65
 73
     4
 40
10.0
 49
1.0
 49
-2.0
 49
3.0
 49
-4.0
  0
LTYPE
  2
RAND2
 70
    64
  3
ランダム線2
 72
    65
 73
     4
 40
14.0
 49
2.0
 49
-3.0
 49
4.0
 49
-5.0
  0
LTYPE
  2
RAND3
 70
    64
  3
ランダム線3
 72
    65
 73
     4
 40
18.0
 49
3.0
 49
-4.0
 49
5.0
 49
-6.0
  0
LTYPE
  2
RAND4
 70
    64
  3
ランダム線4
 72
    65
 73
     4
 40
22.0
 49
4.0
 49
-5.0
 49
6.0
 49
-7.0
  0
LTYPE
  2
RAND5
 70
    64
  3
ランダム線5
 72
    65
 73
     4
 40
26.0
 49
5.0
 49
-6.0
 49
7.0
 49
-8.0
  0
LTYPE
  2
LONG1
 70
    64
  3
----------  --  ----------  --  
 72
    65
 73
     4
 40
40.0
 49
32.5
 49
-2.5
 49
2.5
 49
-2.5
  0
LTYPE
  2
LONG2
 70
    64
  3
--------  -  -  --------  -  -  
 72
    65
 73
     6
 40
40.0
 49
30.0
 49
-2.5
 49
1.25
 49
-2.5
 49
1.25
 49
-2.5
  0
LTYPE
  2
LONG3
 70
    64
  3
+++++++++++++++..+++++++++++++++
 72
    65
 73
     2
 40
40.0
 49
37.5
 49
-2.5
  0
LTYPE
  2
LONG4
 70
    64
  3
+++++++++++++++..+++++++++++++++
 72
    65
 73
     2
 40
80.0
 49
75.0
 49
-5.0
  0
LTYPE
  2
LONG5
 70
    64
  3
----------  --  ----------  --  
 72
    65
 73
     4
 40
60.0
 49
37.5
 49
-7.5
 49
7.5
 49
-7.5
  0
LTYPE
  2
dashed
 70
   64
  3
-------   -------------   ------
 72
   65
 73
    2
 40
7.5
 49
6
 49
-1.5
  0
LTYPE
  2
dashed_spaced
 70
   64
  3
----        --------        ----
 72
   65
 73
    2
 40
12
 49
6
 49
-6
  0
LTYPE
  2
long_dashed_dotted
 70
   64
  3
------------- --- --------------
 72
   65
 73
    4
 40
15.25
 49
12
 49
-1.5
 49
0.25
 49
-1.5
  0
LTYPE
  2
long_dashed_double-dotted
 70
   64
  3
----------- --- --- ------------
 72
   65
 73
    6
 40
17
 49
12
 49
-1.5
 49
0.25
 49
-1.5
 49
0.25
 49
-1.5
  0
LTYPE
  2
long_dashed_triplicate-dotted
 70
   64
  3
--------- --- --- --- ----------
 72
   65
 73
    8
 40
18.75
 49
12
 49
-1.5
 49
0.25
 49
-1.5
 49
0.25
 49
-1.5
 49
0.25
 49
-1.5
  0
LTYPE
  2
dotted
 70
   64
  3
   -       -       -       -    
 72
   65
 73
    2
 40
1.75
 49
0.25
 49
-1.5
  0
LTYPE
  2
chain
 70
   64
  3
-------------- -- --------------
 72
   65
 73
    4
 40
18.5
 49
12
 49
-1.5
 49
3.5
 49
-1.5
  0
LTYPE
  2
chain_double_dash
 70
   64
  3
------------ -- -- -------------
 72
   65
 73
    6
 40
23.5
 49
12
 49
-1.5
 49
3.5
 49
-1.5
 49
3.5
 49
-1.5
  0
LTYPE
  2
dashed_dotted
 70
   64
  3
-----------     -     ----------
 72
   65
 73
    4
 40
9.25
 49
6
 49
-1.5
 49
0.25
 49
-1.5
  0
LTYPE
  2
double-dashed_dotted
 70
   64
  3
------   -----------   -   -----
 72
   65
 73
    6
 40
16.75
 49
6
 49
-1.5
 49
6
 49
-1.5
 49
0.25
 49
-1.5
  0
LTYPE
  2
dashed_double-dotted
 70
   64
  3
---------    -    -    ---------
 72
   65
 73
    6
 40
11
 49
6
 49
-1.5
 49
0.25
 49
-1.5
 49
0.25
 49
-1.5
  0
LTYPE
  2
double-dashed_double-dotted
 70
   64
  3
-----   ---------   -   -   ----
 72
   65
 73
    8
 40
18.5
 49
6
 49
-1.5
 49
6
 49
-1.5
 49
0.25
 49
-1.5
 49
0.25
 49
-1.5
  0
LTYPE
  2
dashed_triplicate-dotted
 70
   64
  3
-------    -    -    -    ------
 72
   65
 73
    8
 40
12.75
 49
6
 49
-1.5
 49
0.25
 49
-1.5
 49
0.25
 49
-1.5
 49
0.25
 49
-1.5
  0
LTYPE
  2
double-dashed_triplicate-dotted
 70
   64
  3
-----  ---------  -  -  -  -----
 72
   65
 73
   10
 40
20.25
 49
6
 49
-1.5
 49
6
 49
-1.5
 49
0.25
 49
-1.5
 49
0.25
 49
-1.5
 49
0.25
 49
-1.5
  0
LTYPE
  2
undefined
 70
   64
  3
--------------------------------
 72
   65
 73
    0
 40
0
  0
LTYPE
  2
PLINE2
 70
   64
  3
------     -----------     -----
 72
   65
 73
    2
 40
3
 49
2.1000000000000001
 49
-0.9
  0
LTYPE
  2
PLINE3
 70
   64
  3
------------   ---   -----------
 72
   65
 73
    4
 40
10
 49
7
 49
-1
 49
1
 49
-1
  0
LTYPE
  2
PLINE4
 70
   64
  3
---------   ---   ---   --------
 72
   65
 73
    6
 40
10
 49
5
 49
-1
 49
1
 49
-1
 49
1
 49
-1
  0
LTYPE
  2
PLINE5
 70
   64
  3
------     -----------     -----
 72
   65
 73
    2
 40
5
 49
3.5
 49
-1.5
  0
LTYPE
  2
PLINE6
 70
   64
  3
------------   ---   -----------
 72
   65
 73
    4
 40
15
 49
10.5
 49
-1.5
 49
1.5
 49
-1.5
  0
LTYPE
  2
PLINE7
 70
   64
  3
---------   ---   ---   --------
 72
   65
 73
    6
 40
15
 49
7.5
 49
-1.5
 49
1.5
 49
-1.5
 49
1.5
 49
-1.5
  0
LTYPE
  2
PLINE8
 70
   64
  3
------     -----------     -----
 72
   65
 73
    2
 40
7
 49
4.9000000000000004
 49
-2.1000000000000001
  0
LTYPE
  2
PLINE9
 70
   64
  3
------------   ---   -----------
 72
   65
 73
    4
 40
20
 49
14
 49
-2
 49
2
 49
-2
  0
LTYPE
  2
PLINE10
 70
   64
  3
---------   ---   ---   --------
 72
   65
 73
    6
 40
20
 49
10
 49
-2
 49
2
 49
-2
 49
2
 49
-2
  0
LTYPE
  2
PLINE11
 70
   64
  3
------     -----------     -----
 72
   65
 73
    2
 40
9
 49
6.2999999999999989
 49
-2.7000000000000002
  0
LTYPE
  2
PLINE12
 70
   64
  3
------------   ---   -----------
 72
   65
 73
    4
 40
25
 49
17.5
 49
-2.5
 49
2.5
 49
-2.5
  0
LTYPE
  2
PLINE13
 70
   64
  3
---------   ---   ---   --------
 72
   65
 73
    6
 40
25
 49
12.5
 49
-2.5
 49
2.5
 49
-2.5
 49
2.5
 49
-2.5
  0
LTYPE
  2
PLINE14
 70
   64
  3
------     -----------     -----
 72
   65
 73
    2
 40
11
 49
7.7000000000000002
 49
-3.2999999999999989
  0
LTYPE
  2
PLINE15
 70
   64
  3
------------   ---   -----------
 72
   65
 73
    4
 40
30
 49
21
 49
-3
 49
3
 49
-3
  0
LTYPE
  2
PLINE16
 70
   64
  3
---------   ---   ---   --------
 72
   65
 73
    6
 40
30
 49
15
 49
-3
 49
3
 49
-3
 49
3
 49
-3
  0
ENDTAB
  0
TABLE
  2
STYLE
  5
3
100
AcDbSymbolTable
 70
     1
  0
STYLE
  5
10
100
AcDbSymbolTableRecord
100
AcDbTextStyleTableRecord
  2
STANDARD
 70
     0
 40
0.0
 41
1.0
 50
0.0
 71
     0
 42
0.2
  3
txt
  4
bigfont.shx
  0
STYLE
  5
26
100
AcDbSymbolTableRecord
100
AcDbTextStyleTableRecord
  2
TATEGAKI
 70
    68
 40
0.0
 41
1.0
 50
0.0
 71
     0
 42
1.0
  3
txt
  4
bigfont.shx
  0
ENDTAB
  0
TABLE
  2
LAYER
 70
    4
  0
LAYER
  2
_0-2_寸法
 70
   64
 62
    7
  6
CONTINUOUS
  0
LAYER
  2
_0-3_躯体と製品
 70
   64
 62
    7
  6
CONTINUOUS
  0
LAYER
  2
_0-4_図面枠
 70
   64
 62
    7
  6
CONTINUOUS
  0
LAYER
  2
ADD_LINE
 70
   64
 62
    7
  6
CONTINUOUS
  0
ENDTAB
  0
ENDSEC
  0
SECTION
  2
BLOCKS
  0
BLOCK
  2
-000-_Dot
 70
   64
 10
0
 20
0
 30
0
  0
CIRCLE
  8
_0-0_0
  6
CONTINUOUS
 62
    7
 10
0
 20
0
 40
0.025
  0
LINE
  8
_0-0_0
  6
CONTINUOUS
 62
    7
 10
0.025
 20
0
 11
-0.025
 21
0
  0
LINE
  8
_0-0_0
  6
CONTINUOUS
 62
    7
 10
-0.05
 20
0
 11
-0.1
 21
0
  0
ENDBLK
  0
BLOCK
  2
-001-_D4
 70
   64
 10
0
 20
0
 30
0
  0
LINE
  8
_0-2_寸法
  6
CONTINUOUS
 62
    4
 10
572.64133898757132
 20
-22.495299473038639
 11
572.64133898757132
 21
74.030472526961375
  0
LINE
  8
_0-2_寸法
  6
CONTINUOUS
 62
    4
 10
752.64133898757132
 20
-10.084411473038639
 11
752.64133898757132
 21
74.030472526961375
  0
LINE
  8
_0-2_寸法
  6
CONTINUOUS
 62
    4
 10
572.74133898757134
 20
74.030472526961375
 11
752.54133898757129
 21
74.030472526961375
  0
INSERT
  2
-000-_Dot
  8
_0-2_寸法
 10
572.64133898757132
 20
74.030472526961375
 41
1
 42
1
 50
180
  0
INSERT
  2
-000-_Dot
  8
_0-2_寸法
 10
752.64133898757132
 20
74.030472526961375
 41
1
 42
1
 50
0
  0
TEXT
  8
_0-2_寸法
 62
    7
 10
661.39133898757132
 20
74.11047252696136
 40
5
 41
1
 50
0
  1
E
  0
POINT
  8
_0-1_Defpoints
 62
    7
 10
572.64133898757132
 20
-22.495299473038639
  0
POINT
  8
_0-1_Defpoints
 62
    7
 10
752.64133898757132
 20
-10.084411473038639
  0
POINT
  8
_0-1_Defpoints
 62
    7
 10
752.64133898757132
 20
74.030472526961375
  0
ENDBLK
  0
BLOCK
  2
-002-_D5
 70
   64
 10
0
 20
0
 30
0
  0
LINE
  8
_0-2_寸法
  6
CONTINUOUS
 62
    4
 10
606.33465098757074
 20
26.278200526961371
 11
553.03861898757157
 21
26.278200526961381
  0
LINE
  8
_0-2_寸法
  6
CONTINUOUS
 62
    4
 10
601.54232898757107
 20
-63.721799473038615
 11
553.03861898757157
 21
-63.721799473038615
  0
LINE
  8
_0-2_寸法
  6
CONTINUOUS
 62
    4
 10
553.03861898757157
 20
26.178200526961383
 11
553.03861898757157
 21
-63.621799473038621
  0
INSERT
  2
-000-_Dot
  8
_0-2_寸法
 10
553.03861898757157
 20
26.278200526961381
 41
1
 42
1
 50
90
  0
INSERT
  2
-000-_Dot
  8
_0-2_寸法
 10
553.03861898757157
 20
-63.721799473038615
 41
1
 42
1
 50
270
  0
TEXT
  8
_0-2_寸法
 62
    7
 10
552.95861898757153
 20
-21.221799473038519
 40
5
 41
1
 50
90
  1
 I
  0
POINT
  8
_0-1_Defpoints
 62
    7
 10
606.33465098757074
 20
26.278200526961371
  0
POINT
  8
_0-1_Defpoints
 62
    7
 10
601.54232898757107
 20
-63.721799473038615
  0
POINT
  8
_0-1_Defpoints
 62
    7
 10
553.03861898757157
 20
-63.721799473038615
  0
ENDBLK
  0
BLOCK
  2
-003-_D6
 70
   64
 10
0
 20
0
 30
0
  0
LINE
  8
_0-2_寸法
  6
CONTINUOUS
 62
    4
 10
601.54232898757107
 20
-63.721799473038615
 11
553.03861898757157
 21
-63.721799473038615
  0
LINE
  8
_0-2_寸法
  6
CONTINUOUS
 62
    4
 10
614.45593098757104
 20
-78.721799473038615
 11
553.03861898757157
 21
-78.721799473038615
  0
LINE
  8
_0-2_寸法
  6
CONTINUOUS
 62
    4
 10
553.03861898757157
 20
-63.82179947303861
 11
553.03861898757157
 21
-78.621799473038621
  0
INSERT
  2
-000-_Dot
  8
_0-2_寸法
 10
553.03861898757157
 20
-63.721799473038615
 41
1
 42
1
 50
90
  0
INSERT
  2
-000-_Dot
  8
_0-2_寸法
 10
553.03861898757157
 20
-78.721799473038615
 41
1
 42
1
 50
270
  0
TEXT
  8
_0-2_寸法
 62
    7
 10
552.95861898757153
 20
-72.47179947303853
 40
5
 41
1
 50
90
  1
J
  0
POINT
  8
_0-1_Defpoints
 62
    7
 10
601.54232898757107
 20
-63.721799473038615
  0
POINT
  8
_0-1_Defpoints
 62
    7
 10
614.45593098757104
 20
-78.721799473038615
  0
POINT
  8
_0-1_Defpoints
 62
    7
 10
553.03861898757157
 20
-78.721799473038615
  0
ENDBLK
  0
BLOCK
  2
-004-_D7
 70
   64
 10
0
 20
0
 30
0
  0
LINE
  8
_0-2_寸法
  6
CONTINUOUS
 62
    4
 10
617.64133898757132
 20
-105.3569804874511
 11
617.64133898757132
 21
-159.79410947303862
  0
LINE
  8
_0-2_寸法
  6
CONTINUOUS
 62
    4
 10
707.64133898757132
 20
-105.3569804874511
 11
707.64133898757132
 21
-159.79410947303862
  0
LINE
  8
_0-2_寸法
  6
CONTINUOUS
 62
    4
 10
617.74133898757123
 20
-159.79410947303862
 11
707.54133898757129
 21
-159.79410947303862
  0
INSERT
  2
-000-_Dot
  8
_0-2_寸法
 10
617.64133898757132
 20
-159.79410947303862
 41
1
 42
1
 50
180
  0
INSERT
  2
-000-_Dot
  8
_0-2_寸法
 10
707.64133898757132
 20
-159.79410947303862
 41
1
 42
1
 50
0
  0
TEXT
  8
_0-2_寸法
 62
    7
 10
652.64133898757132
 20
-159.7141094730386
 40
5
 41
1
 50
0
  1
Ａ　開口
  0
POINT
  8
_0-1_Defpoints
 62
    7
 10
617.64133898757132
 20
-105.3569804874511
  0
POINT
  8
_0-1_Defpoints
 62
    7
 10
707.64133898757132
 20
-105.3569804874511
  0
POINT
  8
_0-1_Defpoints
 62
    7
 10
707.64133898757132
 20
-159.79410947303862
  0
ENDBLK
  0
BLOCK
  2
-005-_D8
 70
   64
 10
0
 20
0
 30
0
  0
LINE
  8
_0-2_寸法
  6
CONTINUOUS
 62
    4
 10
842.28955898757124
 20
-73.022163473038674
 11
842.28955898757124
 21
-65.802535473038674
  0
LINE
  8
_0-2_寸法
  6
CONTINUOUS
 62
    4
 10
842.38955898757126
 20
-65.802535473038674
 11
866.18955898757122
 21
-65.802535473038674
  0
INSERT
  2
-000-_Dot
  8
_0-2_寸法
 10
842.28955898757124
 20
-65.802535473038674
 41
1
 42
1
 50
180
  0
INSERT
  2
-000-_Dot
  8
_0-2_寸法
 10
866.28955898757124
 20
-65.802535473038674
 41
1
 42
1
 50
0
  0
TEXT
  8
_0-2_寸法
 62
    7
 10
841.78955898757124
 20
-65.72253547303869
 40
5
 41
1
 50
0
  1
現場合わせ
  0
POINT
  8
_0-1_Defpoints
 62
    7
 10
842.28955898757124
 20
-73.022163473038674
  0
POINT
  8
_0-1_Defpoints
 62
    7
 10
866.28955898757124
 20
-65.802535473038674
  0
POINT
  8
_0-1_Defpoints
 62
    7
 10
866.28955898757124
 20
-65.802535473038674
  0
ENDBLK
  0
BLOCK
  2
-006-_D9
 70
   64
 10
0
 20
0
 30
0
  0
LINE
  8
_0-2_寸法
  6
CONTINUOUS
 62
    4
 10
1076.2895589875711
 20
-73.022163473038674
 11
1076.2895589875711
 21
-67.354907473038679
  0
LINE
  8
_0-2_寸法
  6
CONTINUOUS
 62
    4
 10
1052.389558987571
 20
-67.354907473038679
 11
1076.189558987571
 21
-67.354907473038679
  0
INSERT
  2
-000-_Dot
  8
_0-2_寸法
 10
1052.2895589875711
 20
-67.354907473038679
 41
1
 42
1
 50
180
  0
INSERT
  2
-000-_Dot
  8
_0-2_寸法
 10
1076.2895589875711
 20
-67.354907473038679
 41
1
 42
1
 50
0
  0
TEXT
  8
_0-2_寸法
 62
    7
 10
1051.7895589875711
 20
-67.274907473038681
 40
5
 41
1
 50
0
  1
現場合わせ
  0
POINT
  8
_0-1_Defpoints
 62
    7
 10
1052.2895589875711
 20
-67.354907473038679
  0
POINT
  8
_0-1_Defpoints
 62
    7
 10
1076.2895589875711
 20
-73.022163473038674
  0
POINT
  8
_0-1_Defpoints
 62
    7
 10
1076.2895589875711
 20
-67.354907473038679
  0
ENDBLK
  0
BLOCK
  2
-007-_D10
 70
   64
 10
0
 20
0
 30
0
  0
LINE
  8
_0-2_寸法
  6
CONTINUOUS
 62
    4
 10
1052.2895589875711
 20
-121.06562547303869
 11
1052.2895589875711
 21
-160.39410947303861
  0
LINE
  8
_0-2_寸法
  6
CONTINUOUS
 62
    4
 10
1042.2895589875711
 20
-121.06562547303869
 11
1042.2895589875711
 21
-160.39410947303861
  0
LINE
  8
_0-2_寸法
  6
CONTINUOUS
 62
    4
 10
1052.189558987571
 20
-160.39410947303861
 11
1042.389558987571
 21
-160.39410947303861
  0
INSERT
  2
-000-_Dot
  8
_0-2_寸法
 10
1052.2895589875711
 20
-160.39410947303861
 41
1
 42
1
 50
0
  0
INSERT
  2
-000-_Dot
  8
_0-2_寸法
 10
1042.2895589875711
 20
-160.39410947303861
 41
1
 42
1
 50
180
  0
TEXT
  8
_0-2_寸法
 62
    7
 10
1043.5395589875711
 20
-160.3141094730386
 40
5
 41
1
 50
0
  1
100
  0
POINT
  8
_0-1_Defpoints
 62
    7
 10
1052.2895589875711
 20
-121.06562547303869
  0
POINT
  8
_0-1_Defpoints
 62
    7
 10
1042.2895589875711
 20
-121.06562547303869
  0
POINT
  8
_0-1_Defpoints
 62
    7
 10
1042.2895589875711
 20
-160.39410947303861
  0
ENDBLK
  0
BLOCK
  2
-008-_D11
 70
   64
 10
0
 20
0
 30
0
  0
LINE
  8
_0-2_寸法
  6
CONTINUOUS
 62
    4
 10
1042.2895589875711
 20
-121.06562547303869
 11
1042.2895589875711
 21
-160.39410947303861
  0
LINE
  8
_0-2_寸法
  6
CONTINUOUS
 62
    4
 10
876.28955898757124
 20
-107.51636686867059
 11
876.28955898757124
 21
-160.39410947303861
  0
LINE
  8
_0-2_寸法
  6
CONTINUOUS
 62
    4
 10
1042.189558987571
 20
-160.39410947303861
 11
876.38955898757126
 21
-160.39410947303861
  0
INSERT
  2
-000-_Dot
  8
_0-2_寸法
 10
1042.2895589875711
 20
-160.39410947303861
 41
1
 42
1
 50
0
  0
INSERT
  2
-000-_Dot
  8
_0-2_寸法
 10
876.28955898757124
 20
-160.39410947303861
 41
1
 42
1
 50
180
  0
TEXT
  8
_0-2_寸法
 62
    7
 10
954.28955898757124
 20
-160.3141094730386
 40
5
 41
1
 50
0
  1
開口
  0
POINT
  8
_0-1_Defpoints
 62
    7
 10
1042.2895589875711
 20
-121.06562547303869
  0
POINT
  8
_0-1_Defpoints
 62
    7
 10
876.28955898757124
 20
-107.51636686867059
  0
POINT
  8
_0-1_Defpoints
 62
    7
 10
876.28955898757124
 20
-160.39410947303861
  0
ENDBLK
  0
BLOCK
  2
-009-_D12
 70
   64
 10
0
 20
0
 30
0
  0
LINE
  8
_0-2_寸法
  6
CONTINUOUS
 62
    4
 10
876.28955898757124
 20
-107.51636686867059
 11
876.28955898757124
 21
-160.39410947303861
  0
LINE
  8
_0-2_寸法
  6
CONTINUOUS
 62
    4
 10
866.28955898757124
 20
-107.51636686867059
 11
866.28955898757124
 21
-160.39410947303861
  0
LINE
  8
_0-2_寸法
  6
CONTINUOUS
 62
    4
 10
876.18955898757099
 20
-160.39410947303861
 11
866.38955898757126
 21
-160.39410947303861
  0
INSERT
  2
-000-_Dot
  8
_0-2_寸法
 10
876.28955898757124
 20
-160.39410947303861
 41
1
 42
1
 50
0
  0
INSERT
  2
-000-_Dot
  8
_0-2_寸法
 10
866.28955898757124
 20
-160.39410947303861
 41
1
 42
1
 50
180
  0
TEXT
  8
_0-2_寸法
 62
    7
 10
867.53955898757124
 20
-160.3141094730386
 40
5
 41
1
 50
0
  1
100
  0
POINT
  8
_0-1_Defpoints
 62
    7
 10
876.28955898757124
 20
-107.51636686867059
  0
POINT
  8
_0-1_Defpoints
 62
    7
 10
866.28955898757124
 20
-107.51636686867059
  0
POINT
  8
_0-1_Defpoints
 62
    7
 10
866.28955898757124
 20
-160.39410947303861
  0
ENDBLK
  0
BLOCK
  2
-010-_D13
 70
   64
 10
0
 20
0
 30
0
  0
LINE
  8
_0-2_寸法
  6
CONTINUOUS
 62
    4
 10
554.34609898757094
 20
-91.249217473038698
 11
535.05657153590562
 21
-95.107123344021517
  0
LINE
  8
_0-2_寸法
  6
CONTINUOUS
 62
    4
 10
556.63523043551584
 20
-102.69487358344959
 11
537.34570298385052
 21
-106.5527794544324
  0
LINE
  8
_0-2_寸法
  6
CONTINUOUS
 62
    4
 10
535.0369599205311
 20
-95.009065276824543
 11
535.0173483051567
 21
-94.91100720962757
  0
LINE
  8
_0-2_寸法
  6
CONTINUOUS
 62
    4
 10
537.36531459922503
 20
-106.65083752162941
 11
537.38492621459932
 21
-106.7488955888264
  0
INSERT
  2
-000-_Dot
  8
_0-2_寸法
 10
535.05657153590562
 20
-95.107123344021517
 41
1
 42
1
 50
281.30993356117961
  0
INSERT
  2
-000-_Dot
  8
_0-2_寸法
 10
537.34570298385052
 20
-106.5527794544324
 41
1
 42
1
 50
101.30993356117959
  0
TEXT
  8
_0-2_寸法
 62
    7
 10
534.80871256055389
 20
-93.459907067154674
 40
5
 41
1
 50
-78.690066438819272
  1
屋根高
  0
POINT
  8
_0-1_Defpoints
 62
    7
 10
554.34609898757094
 20
-91.249217473038698
  0
POINT
  8
_0-1_Defpoints
 62
    7
 10
556.63523043551584
 20
-102.69487358344959
  0
POINT
  8
_0-1_Defpoints
 62
    7
 10
537.34570298385052
 20
-106.5527794544324
  0
ENDBLK
  0
BLOCK
  2
-011-_D14
 70
   64
 10
0
 20
0
 30
0
  0
LINE
  8
_0-2_寸法
  6
CONTINUOUS
 62
    4
 10
592.89140498757138
 20
-82.39014947303869
 11
591.31998844192162
 21
-75.321598566667177
  0
LINE
  8
_0-2_寸法
  6
CONTINUOUS
 62
    4
 10
617.29080769686198
 20
-76.96589411586406
 11
615.71939115121233
 21
-69.897343209492561
  0
LINE
  8
_0-2_寸法
  6
CONTINUOUS
 62
    4
 10
591.2223715712305
 20
-75.343299869773048
 11
591.12475470053948
 21
-75.36500117287892
  0
LINE
  8
_0-2_寸法
  6
CONTINUOUS
 62
    4
 10
615.81700802190323
 20
-69.875641906386676
 11
615.91462489259436
 21
-69.853940603280833
  0
INSERT
  2
-000-_Dot
  8
_0-2_寸法
 10
591.31998844192162
 20
-75.321598566667177
 41
1
 42
1
 50
12.533654262458459
  0
INSERT
  2
-000-_Dot
  8
_0-2_寸法
 10
615.71939115121233
 20
-69.897343209492561
 41
1
 42
1
 50
192.53365426245841
  0
TEXT
  8
_0-2_寸法
 62
    7
 10
581.5385328486027
 20
-77.414170590346629
 40
5
 41
1
 50
12.53365426245812
  1
水切巾　現場合わせ
  0
POINT
  8
_0-1_Defpoints
 62
    7
 10
592.89140498757138
 20
-82.39014947303869
  0
POINT
  8
_0-1_Defpoints
 62
    7
 10
617.29080769686198
 20
-76.96589411586406
  0
POINT
  8
_0-1_Defpoints
 62
    7
 10
615.71939115121233
 20
-69.897343209492561
  0
ENDBLK
  0
BLOCK
  2
-012-_D15
 70
   64
 10
0
 20
0
 30
0
  0
LINE
  8
_0-2_寸法
  6
CONTINUOUS
 62
    4
 10
734.02025037905469
 20
-83.939708938157452
 11
741.44469383799026
 21
-85.424597052741262
  0
LINE
  8
_0-2_寸法
  6
CONTINUOUS
 62
    4
 10
732.45132191388609
 20
-91.784354313356829
 11
739.87576537282143
 21
-93.269242427940668
  0
LINE
  8
_0-2_寸法
  6
CONTINUOUS
 62
    4
 10
741.46430544417376
 20
-85.326538983706129
 11
741.48391705035749
 21
-85.228480914670996
  0
LINE
  8
_0-2_寸法
  6
CONTINUOUS
 62
    4
 10
739.85615376663804
 20
-93.367300496975801
 11
739.83654216045443
 21
-93.465358566010934
  0
INSERT
  2
-000-_Dot
  8
_0-2_寸法
 10
741.44469383799026
 20
-85.424597052741262
 41
1
 42
1
 50
258.69007180903998
  0
INSERT
  2
-000-_Dot
  8
_0-2_寸法
 10
739.87576537282143
 20
-93.269242427940668
 41
1
 42
1
 50
78.690071809040091
  0
TEXT
  8
_0-2_寸法
 62
    7
 10
738.13033237722277
 20
-101.58848908478504
 40
5
 41
1
 50
78.690071809037164
  1
現場合わせ
  0
POINT
  8
_0-1_Defpoints
 62
    7
 10
734.02025037905469
 20
-83.939708938157452
  0
POINT
  8
_0-1_Defpoints
 62
    7
 10
732.45132191388609
 20
-91.784354313356829
  0
POINT
  8
_0-1_Defpoints
 62
    7
 10
739.87576537282143
 20
-93.269242427940668
  0
ENDBLK
  0
BLOCK
  2
-013-_D16
 70
   64
 10
0
 20
0
 30
0
  0
LINE
  8
_0-2_寸法
  6
CONTINUOUS
 62
    4
 10
917.35371698757137
 20
42.946538526961305
 11
917.35371698757137
 21
49.495462526961319
  0
LINE
  8
_0-2_寸法
  6
CONTINUOUS
 62
    4
 10
1001.3833529875699
 20
42.946538526961305
 11
1001.3833529875699
 21
49.495462526961319
  0
LINE
  8
_0-2_寸法
  6
CONTINUOUS
 62
    4
 10
917.45371698757151
 20
49.495462526961319
 11
1001.28335298757
 21
49.495462526961319
  0
INSERT
  2
-000-_Dot
  8
_0-2_寸法
 10
917.35371698757137
 20
49.495462526961319
 41
1
 42
1
 50
180
  0
INSERT
  2
-000-_Dot
  8
_0-2_寸法
 10
1001.3833529875699
 20
49.495462526961319
 41
1
 42
1
 50
0
  0
TEXT
  8
_0-2_寸法
 62
    7
 10
944.36853498757114
 20
49.575462526961317
 40
5
 41
1
 50
0
  1
８４０ピッチ
  0
POINT
  8
_0-1_Defpoints
 62
    7
 10
917.35371698757137
 20
42.946538526961305
  0
POINT
  8
_0-1_Defpoints
 62
    7
 10
1001.3833529875699
 20
42.946538526961305
  0
POINT
  8
_0-1_Defpoints
 62
    7
 10
1001.3833529875699
 20
49.495462526961319
  0
ENDBLK
  0
BLOCK
  2
-014-_D17
 70
   64
 10
0
 20
0
 30
0
  0
LINE
  8
_0-2_寸法
  6
CONTINUOUS
 62
    4
 10
1052.2895589875711
 20
45.22083252696131
 11
1052.2895589875711
 21
60.172668526961374
  0
LINE
  8
_0-2_寸法
  6
CONTINUOUS
 62
    4
 10
866.28955898757124
 20
45.22083252696131
 11
866.28955898757124
 21
60.172668526961374
  0
LINE
  8
_0-2_寸法
  6
CONTINUOUS
 62
    4
 10
1052.189558987571
 20
60.172668526961374
 11
866.38955898757126
 21
60.172668526961374
  0
INSERT
  2
-000-_Dot
  8
_0-2_寸法
 10
1052.2895589875711
 20
60.172668526961374
 41
1
 42
1
 50
0
  0
INSERT
  2
-000-_Dot
  8
_0-2_寸法
 10
866.28955898757124
 20
60.172668526961374
 41
1
 42
1
 50
180
  0
TEXT
  8
_0-2_寸法
 62
    7
 10
954.28955898757124
 20
60.252668526961386
 40
5
 41
1
 50
0
  1
全長
  0
POINT
  8
_0-1_Defpoints
 62
    7
 10
1052.2895589875711
 20
45.22083252696131
  0
POINT
  8
_0-1_Defpoints
 62
    7
 10
866.28955898757124
 20
45.22083252696131
  0
POINT
  8
_0-1_Defpoints
 62
    7
 10
866.28955898757124
 20
60.172668526961374
  0
ENDBLK
  0
ENDSEC
  0
SECTION
  2
ENTITIES
  0
LINE
  8
_0-3_躯体と製品
  6
CONTINUOUS
 62
    7
 10
519.96993640415894
 20
624.10356756684348
 11
278.96993640416258
 21
624.10356756684348
  0
TEXT
  8
_0-4_図面枠
 62
    7
 10
430.33727640415964
 20
-726.29561243315652
 40
60
 41
0.8000000000000001
 50
0
  1
Ｊ
  0
LINE
  8
_0-4_図面枠
  6
CONTINUOUS
 62
    3
 10
529.15149640416348
 20
1102.9349875668438
 11
380.89647640416115
 21
1359.7202275668442
  0
LINE
  8
_0-3_躯体と製品
  6
CONTINUOUS
 62
    3
 10
576.53281640416026
 20
575.80370756684385
 11
361.40705640415763
 21
575.80370756684385
  0
LINE
  8
_0-3_躯体と製品
  6
PLINE2
 62
    6
 10
492.04295640416603
 20
575.80370756684385
 11
422.34645640415511
 21
506.10720756684384
  0
LINE
  8
_0-3_躯体と製品
  6
PLINE2
 62
    6
 10
456.68761640416051
 20
575.80370756684385
 11
405.42909640415746
 21
524.54518756684388
  0
LINE
  8
_0-3_躯体と製品
  6
PLINE2
 62
    6
 10
442.93937640416334
 20
575.80370756684385
 11
512.63587640416517
 21
506.10720756684384
  0
LINE
  8
_0-3_躯体と製品
  6
PLINE2
 62
    6
 10
407.58403640415781
 20
575.80370756684385
 11
477.28053640415965
 21
506.10720756684384
  0
LINE
  8
_0-3_躯体と製品
  6
CONTINUOUS
 62
    3
 10
520.9699364041644
 20
506.10720756684384
 11
416.96993640416622
 21
506.10720756684384
  0
LINE
  8
_0-4_図面枠
  6
CONTINUOUS
 62
    3
 10
522.52819640416419
 20
1348.4605475668436
 11
384.20629640416155
 21
1588.0411075668435
  0
TEXT
  8
_0-4_図面枠
 62
    7
 10
-1338.6640435958361
 20
2715.2787875668437
 40
200
 41
0.8
 50
0
  1
連続式ベンチレーター　ＳＣ標準型施工図
  0
LINE
  8
_0-4_図面枠
  6
CONTINUOUS
 62
    4
 10
-1071.4349435958411
 20
-2267.8287124331555
 11
1577.4712564041583
 21
-2267.8287124331555
  0
TEXT
  8
_0-4_図面枠
 62
    7
 10
307.05417640416272
 20
-2243.4402724331567
 40
60
 41
0.8000000000000001
 50
0
  1
　１５０
  0
LINE
  8
_0-4_図面枠
  6
CONTINUOUS
 62
    3
 10
-1071.4349435958411
 20
-2117.8287124331555
 11
1577.4712564041583
 21
-2117.8287124331555
  0
LINE
  8
_0-4_図面枠
  6
CONTINUOUS
 62
    3
 10
-1071.4349435958411
 20
-1967.8287124331555
 11
1577.4712564041583
 21
-1967.8287124331555
  0
LINE
  8
_0-4_図面枠
  6
CONTINUOUS
 62
    3
 10
-1071.4349435958411
 20
-1817.8287124331564
 11
1577.4712564041583
 21
-1817.8287124331564
  0
TEXT
  8
_0-4_図面枠
 62
    7
 10
314.86363640415948
 20
-2087.2526724331565
 40
60
 41
0.8000000000000001
 50
0
  1
　１５０
  0
TEXT
  8
_0-4_図面枠
 62
    7
 10
314.86363640415948
 20
-1937.2526724331565
 40
60
 41
0.8000000000000001
 50
0
  1
　１５０
  0
TEXT
  8
_0-4_図面枠
 62
    7
 10
314.86363640415948
 20
-1787.2527524331554
 40
60
 41
0.8000000000000001
 50
0
  1
　１５０
  0
LINE
  8
_0-4_図面枠
  6
CONTINUOUS
 62
    4
 10
1577.4712564041583
 20
-617.82871243315572
 11
-1071.4349435958411
 21
-617.82871243315572
  0
LINE
  8
_0-4_図面枠
  6
CONTINUOUS
 62
    3
 10
-1071.4349435958411
 20
-1667.8287124331557
 11
1577.4712564041583
 21
-1667.8287124331557
  0
TEXT
  8
_0-4_図面枠
 62
    7
 10
323.54099640416098
 20
-888.00673243315555
 40
60
 41
0.8000000000000001
 50
0
  1
　１００
  0
TEXT
  8
_0-4_図面枠
 62
    7
 10
323.54099640416098
 20
-1038.0067324331565
 40
60
 41
0.8000000000000001
 50
0
  1
　１００
  0
TEXT
  8
_0-4_図面枠
 62
    7
 10
323.54099640416098
 20
-1188.0068724331568
 40
60
 41
0.8000000000000001
 50
0
  1
　１００
  0
LINE
  8
_0-4_図面枠
  6
CONTINUOUS
 62
    3
 10
-1071.4349435958411
 20
-1517.8287124331557
 11
1577.4712564041583
 21
-1517.8287124331557
  0
LINE
  8
_0-4_図面枠
  6
CONTINUOUS
 62
    3
 10
-1071.4349435958411
 20
-1367.8287124331557
 11
1577.4712564041583
 21
-1367.8287124331557
  0
LINE
  8
_0-4_図面枠
  6
CONTINUOUS
 62
    3
 10
-1071.4349435958411
 20
-1217.8287124331557
 11
1577.4712564041583
 21
-1217.8287124331557
  0
LINE
  8
_0-4_図面枠
  6
CONTINUOUS
 62
    3
 10
-1071.4349435958411
 20
-1067.8287124331566
 11
1577.4712564041583
 21
-1067.8287124331566
  0
LINE
  8
_0-4_図面枠
  6
CONTINUOUS
 62
    3
 10
-1071.4349435958411
 20
-917.82871243315572
 11
1577.4712564041583
 21
-917.82871243315572
  0
TEXT
  8
_0-4_図面枠
 62
    7
 10
307.05479640416161
 20
-1643.4404524331558
 40
60
 41
0.8000000000000001
 50
0
  1
　１５０
  0
TEXT
  8
_0-4_図面枠
 62
    7
 10
314.86423640416251
 20
-1487.2528724331567
 40
60
 41
0.8000000000000001
 50
0
  1
　１５０
  0
TEXT
  8
_0-4_図面枠
 62
    7
 10
323.54099640416098
 20
-1338.0068724331554
 40
60
 41
0.8000000000000001
 50
0
  1
　１００
  0
LINE
  8
_0-4_図面枠
  6
CONTINUOUS
 62
    3
 10
-1071.4349435958411
 20
-757.82871243315572
 11
1577.4712564041583
 21
-757.82871243315572
  0
LINE
  8
_0-4_図面枠
  6
CONTINUOUS
 62
    3
 10
-1071.4349435958411
 20
-767.82871243315572
 11
1577.4712564041583
 21
-767.82871243315572
  0
LINE
  8
_0-4_図面枠
  6
CONTINUOUS
 62
    7
 10
-3451.165723595841
 20
-2373.0000124331555
 11
4292.1676164041473
 21
-2373.0000124331555
  0
LINE
  8
_0-4_図面枠
  6
CONTINUOUS
 62
    7
 10
-3451.165723595841
 20
2633.6666475668435
 11
4292.1676164041473
 21
2633.6666475668435
  0
LINE
  8
_0-4_図面枠
  6
CONTINUOUS
 62
    7
 10
-3451.165723595841
 20
2966.9999875668436
 11
4292.1676164041473
 21
2966.9999875668436
  0
LINE
  8
_0-3_躯体と製品
  6
CONTINUOUS
 62
    3
 10
-1047.6064835958368
 20
457.44712756684362
 11
-278.26044359583739
 21
303.5779275668433
  0
LINE
  8
_0-3_躯体と製品
  6
CONTINUOUS
 62
    3
 10
-1517.5122635958369
 20
549.38868756684394
 11
-278.65268359583843
 21
301.61676756684437
  0
LINE
  8
_0-4_図面枠
  6
CONTINUOUS
 62
    3
 10
-1935.1780035958391
 20
566.99728756684362
 11
-1754.0619235958375
 21
253.29502756684428
  0
LINE
  8
_0-4_図面枠
  6
CONTINUOUS
 62
    3
 10
-2181.1483835958379
 20
526.00554756684369
 11
-2386.9379635958385
 21
169.56756756684445
  0
LINE
  8
_0-3_躯体と製品
  6
PLINE4
 62
    4
 10
-2563.5822035958436
 20
324.87762756684447
 11
-2016.6141235958385
 21
434.27124756684361
  0
LINE
  8
_0-3_躯体と製品
  6
PLINE4
 62
    4
 10
-281.594423595835
 20
286.90804756684429
 11
-1018.4104035958362
 21
434.27124756684361
  0
LINE
  8
_0-4_図面枠
  6
CONTINUOUS
 62
    3
 10
-2127.4945035958362
 20
549.4115875668441
 11
-2409.4038835958436
 21
61.13018756684437
  0
LINE
  8
_0-4_図面枠
  6
CONTINUOUS
 62
    3
 10
-1995.6127635958374
 20
527.99950756684404
 11
-2398.0718835958414
 21
-169.08015243315663
  0
LINE
  8
_0-4_図面枠
  6
CONTINUOUS
 62
    3
 10
-2108.4833835958416
 20
448.99390756684352
 11
-2409.4333635958365
 21
-72.266772433155666
  0
LINE
  8
_0-4_図面枠
  6
CONTINUOUS
 62
    7
 10
-3451.165723595841
 20
2966.9999875668436
 11
-3451.165723595841
 21
-2373.0000124331555
  0
LINE
  8
_0-4_図面枠
  6
CONTINUOUS
 62
    3
 10
-1953.4391235958374
 20
347.43988756684439
 11
-1964.7788635958395
 21
307.79886756684346
  0
LINE
  8
_0-4_図面枠
  6
CONTINUOUS
 62
    3
 10
-1953.4391235958374
 20
347.43988756684439
 11
-2318.0458435958381
 21
-284.07749243315561
  0
LINE
  8
_0-4_図面枠
  6
CONTINUOUS
 62
    3
 10
-2386.9379635958385
 20
169.56756756684445
 11
-2616.8714035958428
 21
169.56756756684445
  0
LINE
  8
_0-4_図面枠
  6
CONTINUOUS
 62
    3
 10
-2409.4038835958436
 20
61.13018756684437
 11
-2602.0237635958356
 21
61.13018756684437
  0
TEXT
  8
_0-4_図面枠
 62
    7
 10
-2788.4715435958378
 20
-159.0802405708057
 40
60.000000000000007
 41
0.8000000000000008
 50
0.0000099999993779
  1
止めメンド処理
  0
LINE
  8
_0-4_図面枠
  6
CONTINUOUS
 62
    3
 10
-2398.0718835958414
 20
-169.08015243315663
 11
-2771.8436835958355
 21
-169.08015243315663
  0
TEXT
  8
_0-4_図面枠
 62
    7
 10
-2796.6332435958366
 20
-62.266900012299629
 40
60.000000000000007
 41
0.7999999999999986
 50
0.0000099999993779
  1
タイトフレーム
  0
LINE
  8
_0-4_図面枠
  6
CONTINUOUS
 62
    3
 10
-2409.4333635958365
 20
-72.266772433155666
 11
-2769.0597435958362
 21
-72.266772433155666
  0
TEXT
  8
_0-4_図面枠
 62
    7
 10
-2474.845843595836
 20
-274.07761979991756
 40
59.99999999999995
 41
0.8000000000000013
 50
0.0000099999993779
  1
添母屋
  0
LINE
  8
_0-4_図面枠
  6
CONTINUOUS
 62
    3
 10
-2318.0458435958381
 20
-284.07749243315561
 11
-2498.119583595836
 21
-284.07749243315561
  0
TEXT
  8
_0-4_図面枠
 62
    7
 10
-2569.4038635958323
 20
71.130199641578429
 40
60.000000000000007
 41
0.799999999999998
 50
0.0000099999993779
  1
水切板
  0
TEXT
  8
_0-4_図面枠
 62
    7
 10
-2598.137903595833
 20
179.56755070549343
 40
60
 41
0.7999999999999971
 50
0.0000099999993779
  1
エプロン
  0
LINE
  8
_0-4_図面枠
  6
CONTINUOUS
 62
    4
 10
-1071.4349435958411
 20
-617.82871243315572
 11
-1071.4349435958411
 21
-1667.8287124331557
  0
LINE
  8
_0-4_図面枠
  6
CONTINUOUS
 62
    3
 10
227.47125640415834
 20
-617.82871243315572
 11
227.47125640415834
 21
-1667.8287124331557
  0
LINE
  8
_0-4_図面枠
  6
CONTINUOUS
 62
    3
 10
-172.52874359583984
 20
-617.82871243315572
 11
-172.52874359583984
 21
-1667.8287124331557
  0
LINE
  8
_0-4_図面枠
  6
CONTINUOUS
 62
    3
 10
-572.52874359583984
 20
-617.82871243315572
 11
-572.52874359583984
 21
-1667.8287124331557
  0
TEXT
  8
_0-4_図面枠
 62
    7
 10
-997.10520359583825
 20
-2234.4297924331559
 40
60
 41
0.7999999999999999
 50
0
  1
ＳＣ１５００
  0
TEXT
  8
_0-4_図面枠
 62
    7
 10
-1001.3093035958354
 20
-1796.2546724331569
 40
60
 41
0.7999999999999999
 50
0
  1
ＳＣ　９００
  0
TEXT
  8
_0-4_図面枠
 62
    7
 10
-986.17564359583503
 20
-1949.4168324331558
 40
60
 41
0.7999999999999999
 50
0
  1
ＳＣ１０００
  0
TEXT
  8
_0-4_図面枠
 62
    7
 10
-989.53868359583794
 20
-2094.8660524331553
 40
60
 41
0.7999999999999999
 50
0
  1
ＳＣ１２００
  0
TEXT
  8
_0-4_図面枠
 62
    7
 10
-989.53868359583794
 20
-1494.8661524331558
 40
60
 41
0.8000000000000001
 50
0
  1
ＳＣ６００
  0
TEXT
  8
_0-4_図面枠
 62
    7
 10
-997.10520359583825
 20
-1634.4299924331556
 40
60
 41
0.8000000000000001
 50
0
  1
ＳＣ７５０
  0
LINE
  8
_0-4_図面枠
  6
CONTINUOUS
 62
    4
 10
-1071.4349435958411
 20
-1667.8287124331557
 11
-1071.4349435958411
 21
-2267.8287124331555
  0
TEXT
  8
_0-4_図面枠
 62
    7
 10
-486.9649835958362
 20
-2237.1193124331567
 40
60
 41
0.8
 50
0
  1
１５００
  0
LINE
  8
_0-4_図面枠
  6
CONTINUOUS
 62
    3
 10
227.47125640415834
 20
-1667.8287124331557
 11
227.47125640415834
 21
-2267.8287124331555
  0
LINE
  8
_0-4_図面枠
  6
CONTINUOUS
 62
    3
 10
-172.52874359583984
 20
-1667.8287124331557
 11
-172.52874359583984
 21
-2267.8287124331555
  0
LINE
  8
_0-4_図面枠
  6
CONTINUOUS
 62
    3
 10
-572.52874359583984
 20
-1667.8287124331557
 11
-572.52874359583984
 21
-2267.8287124331555
  0
TEXT
  8
_0-4_図面枠
 62
    7
 10
-81.090343595843478
 20
-2236.0540924331553
 40
60
 41
0.8000000000000002
 50
0
  1
１５００
  0
TEXT
  8
_0-4_図面枠
 62
    7
 10
-419.51228359584184
 20
-1787.9937124331555
 40
60
 41
0.7999999999999999
 50
0
  1
９００
  0
TEXT
  8
_0-4_図面枠
 62
    7
 10
-482.08582359583579
 20
-2083.1117524331557
 40
60
 41
0.8
 50
0
  1
１２００
  0
TEXT
  8
_0-4_図面枠
 62
    7
 10
-482.08582359583579
 20
-1933.1117524331557
 40
60
 41
0.8
 50
0
  1
１０００
  0
TEXT
  8
_0-4_図面枠
 62
    7
 10
-410.26454359584204
 20
-1640.3153124331554
 40
60
 41
0.7999999999999999
 50
0
  1
７５０
  0
TEXT
  8
_0-4_図面枠
 62
    7
 10
-407.74256359583978
 20
-1490.6624324331567
 40
60
 41
0.7999999999999999
 50
0
  1
６００
  0
TEXT
  8
_0-4_図面枠
 62
    7
 10
-19.512283595841836
 20
-1787.9937124331555
 40
60
 41
0.8000000000000002
 50
0
  1
９００
  0
TEXT
  8
_0-4_図面枠
 62
    7
 10
-82.086443595836499
 20
-2083.1117524331557
 40
60
 41
0.8000000000000002
 50
0
  1
１２００
  0
TEXT
  8
_0-4_図面枠
 62
    7
 10
-82.086443595836499
 20
-1933.1117524331557
 40
60
 41
0.8000000000000002
 50
0
  1
１０００
  0
TEXT
  8
_0-4_図面枠
 62
    7
 10
-10.264243595840526
 20
-1640.3153124331554
 40
60
 41
0.8
 50
0
  1
７５０
  0
TEXT
  8
_0-4_図面枠
 62
    7
 10
-7.7422635958373576
 20
-1490.6624324331567
 40
60
 41
0.8000000000000002
 50
0
  1
６００
  0
TEXT
  8
_0-4_図面枠
 62
    7
 10
-1001.3093035958354
 20
-896.2545524331556
 40
60
 41
0.8000000000000001
 50
0
  1
ＳＣ３００
  0
TEXT
  8
_0-4_図面枠
 62
    7
 10
-996.26474359583881
 20
-1054.3150124331564
 40
60
 41
0.8000000000000001
 50
0
  1
ＳＣ４００
  0
TEXT
  8
_0-4_図面枠
 62
    7
 10
-987.85716359583694
 20
-1200.6048324331566
 40
60
 41
0.8000000000000001
 50
0
  1
ＳＣ４５０
  0
TEXT
  8
_0-4_図面枠
 62
    7
 10
-986.17564359583503
 20
-1349.4170124331565
 40
60
 41
0.8000000000000001
 50
0
  1
ＳＣ５００
  0
TEXT
  8
_0-4_図面枠
 62
    7
 10
-974.55150359584059
 20
-738.41977243315682
 40
60
 41
0.8
 50
0
  1
型　　式
  0
TEXT
  8
_0-4_図面枠
 62
    7
 10
-1845.9572835958361
 20
-483.61295243315567
 40
60
 41
0.7999999999999999
 50
0
  1
ＳＣ標準型　正面図
  0
LINE
  8
_0-4_図面枠
  6
CONTINUOUS
 62
    3
 10
-1220.5892435958422
 20
-379.50223243315554
 11
-1858.5469435958394
 21
-379.50223243315554
  0
LINE
  8
_0-4_図面枠
  6
CONTINUOUS
 62
    3
 10
-1858.5469435958394
 20
-495.41471243315573
 11
-1220.5892435958422
 21
-495.41471243315573
  0
LINE
  8
_0-4_図面枠
  6
CONTINUOUS
 62
    3
 10
-1858.5469435958394
 20
-379.50223243315554
 11
-1858.5469435958394
 21
-495.41471243315573
  0
TEXT
  8
_0-4_図面枠
 62
    7
 10
-1754.0615435958362
 20
263.29514756684443
 40
60
 41
0.8000000000000006
 50
0
  1
支柱
  0
LINE
  8
_0-4_図面枠
  6
CONTINUOUS
 62
    3
 10
-1754.0619235958375
 20
253.29502756684428
 11
-1617.8703835958386
 21
253.29502756684428
  0
LINE
  8
_0-4_図面枠
  6
CONTINUOUS
 62
    3
 10
-1220.5892435958422
 20
-495.41471243315573
 11
-1220.5892435958422
 21
-379.50223243315554
  0
TEXT
  8
_0-4_図面枠
 62
    7
 10
-419.51258359584335
 20
-1187.9937524331558
 40
60
 41
0.7999999999999999
 50
0
  1
４５０
  0
TEXT
  8
_0-4_図面枠
 62
    7
 10
-411.1056035958436
 20
-1349.4170124331565
 40
60
 41
0.7999999999999999
 50
0
  1
５００
  0
TEXT
  8
_0-4_図面枠
 62
    7
 10
-410.26454359584204
 20
-1041.7036324331571
 40
60
 41
0.7999999999999999
 50
0
  1
４００
  0
TEXT
  8
_0-4_図面枠
 62
    7
 10
-403.5384635958435
 20
-898.77683243315573
 40
60
 41
0.7999999999999999
 50
0
  1
３００
  0
TEXT
  8
_0-4_図面枠
 62
    7
 10
-390.22608359583501
 20
-729.49155243315568
 40
60
 41
0.8000000000000006
 50
0
  1
Ａ
  0
TEXT
  8
_0-4_図面枠
 62
    7
 10
-11.105303595840269
 20
-1349.4170124331565
 40
60
 41
0.8
 50
0
  1
５００
  0
TEXT
  8
_0-4_図面枠
 62
    7
 10
-19.512283595841836
 20
-1187.9937524331558
 40
60
 41
0.8000000000000002
 50
0
  1
４５０
  0
TEXT
  8
_0-4_図面枠
 62
    7
 10
-10.264243595840526
 20
-1041.7036324331571
 40
60
 41
0.8
 50
0
  1
４００
  0
TEXT
  8
_0-4_図面枠
 62
    7
 10
-3.5381635958410698
 20
-898.77683243315573
 40
60
 41
0.8000000000000002
 50
0
  1
３００
  0
TEXT
  8
_0-4_図面枠
 62
    7
 10
10.867356404159182
 20
-734.28541243315544
 40
60
 41
0.8000000000000003
 50
0
  1
Ｉ
  0
LINE
  8
_0-3_躯体と製品
  6
CONTINUOUS
 62
    3
 10
-2307.1803435958382
 20
1415.8772875668433
 11
-1951.0689235958416
 21
1539.8883875668434
  0
LINE
  8
_0-3_躯体と製品
  6
PLINE5
 62
    3
 10
-2346.9495635958374
 20
1448.6197675668434
 11
-1965.5390635958438
 21
1581.4409475668435
  0
LINE
  8
_0-3_躯体と製品
  6
CONTINUOUS
 62
    3
 10
-1517.5122635958369
 20
1553.2118075668434
 11
-2230.5259435958415
 21
1304.9141875668438
  0
LINE
  8
_0-3_躯体と製品
  6
PLINE5
 62
    3
 10
-1517.5122635958369
 20
1546.8584075668434
 11
-2375.6039035958402
 21
1248.0392875668435
  0
LINE
  8
_0-3_躯体と製品
  6
CONTINUOUS
 62
    3
 10
-1955.4619035958431
 20
1347.7566275668439
 11
-2223.068183595843
 21
1254.5662475668435
  0
LINE
  8
_0-3_躯体と製品
  6
CONTINUOUS
 62
    7
 10
-2193.3991035958406
 20
1319.9609075668436
 11
-1517.5122635958369
 21
1555.3296075668436
  0
LINE
  8
_0-3_躯体と製品
  6
CONTINUOUS
 62
    7
 10
-1967.5122635958369
 20
1587.107207566844
 11
-2355.7743435958409
 21
1451.9000475668436
  0
LINE
  8
_0-3_躯体と製品
  6
CONTINUOUS
 62
    7
 10
-2006.6591435958353
 20
1037.2704875668433
 11
-1968.5122635958414
 21
1047.4919075668438
  0
LINE
  8
_0-3_躯体と製品
  6
CONTINUOUS
 62
    3
 10
-1973.5122635958414
 20
1280.3800075668437
 11
-2105.4002635958404
 21
1169.7128275668433
  0
LINE
  8
_0-3_躯体と製品
  6
CONTINUOUS
 62
    3
 10
-2105.4002635958404
 20
1169.7128275668433
 11
-1973.5122635958414
 21
1134.3735475668441
  0
LINE
  8
_0-3_躯体と製品
  6
CONTINUOUS
 62
    3
 10
-1967.5122635958369
 20
1277.5821475668438
 11
-2092.7141835958364
 21
1172.5252675668437
  0
LINE
  8
_0-3_躯体と製品
  6
CONTINUOUS
 62
    3
 10
-2092.7141835958364
 20
1172.5252675668437
 11
-1967.5122635958369
 21
1138.9775075668435
  0
LINE
  8
_0-3_躯体と製品
  6
CONTINUOUS
 62
    7
 10
-2120.7211435958388
 20
1157.2487075668439
 11
-1983.0260235958403
 21
1272.7886275668438
  0
LINE
  8
_0-3_躯体と製品
  6
PLINE5
 62
    3
 10
-1977.5122635958369
 20
740.10434756684344
 11
-2411.009163595837
 21
1000.2024875668435
  0
LINE
  8
_0-3_躯体と製品
  6
CONTINUOUS
 62
    3
 10
-2238.677043595836
 20
1082.2274875668436
 11
-1977.5122635958369
 21
925.52862756684374
  0
LINE
  8
_0-3_躯体と製品
  6
CONTINUOUS
 62
    3
 10
-1977.5122635958369
 20
791.41672756684397
 11
-2363.3197835958363
 21
1022.9012275668437
  0
LINE
  8
_0-3_躯体と製品
  6
PLINE2
 62
    6
 10
-2071.4561635958398
 20
847.78306756684356
 11
-1987.6362235958368
 21
931.60298756684392
  0
LINE
  8
_0-3_躯体と製品
  6
PLINE2
 62
    6
 10
-2049.3590635958399
 20
834.52480756684361
 11
-1977.5122635958369
 21
906.37160756684364
  0
LINE
  8
_0-3_躯体と製品
  6
PLINE2
 62
    6
 10
-2027.2619835958376
 20
821.26656756684395
 11
-1977.5122635958369
 21
871.01626756684323
  0
LINE
  8
_0-3_躯体と製品
  6
PLINE2
 62
    6
 10
-2005.1648835958358
 20
808.00830756684331
 11
-1977.5122635958369
 21
835.6609275668435
  0
LINE
  8
_0-3_躯体と製品
  6
CONTINUOUS
 62
    3
 10
-1977.5122635958369
 20
733.10720756684373
 11
-2057.5122635958369
 21
781.10720756684384
  0
LINE
  8
_0-3_躯体と製品
  6
CONTINUOUS
 62
    3
 10
-1995.6297035958423
 20
329.34912756684434
 11
-1897.5716235958425
 21
348.96072756684441
  0
LINE
  8
_0-3_躯体と製品
  6
CONTINUOUS
 62
    3
 10
-1967.7083835958374
 20
459.34946756684337
 11
-1990.3558435958366
 21
572.58674756684354
  0
LINE
  8
_0-3_躯体と製品
  6
CONTINUOUS
 62
    3
 10
-2016.6141235958385
 20
434.27124756684361
 11
-1967.5122635958369
 21
444.09162756684361
  0
LINE
  8
_0-3_躯体と製品
  6
CONTINUOUS
 62
    3
 10
-2013.0840235958394
 20
431.91786756684348
 11
-1969.9384835958435
 21
440.54696756684359
  0
LINE
  8
_0-3_躯体と製品
  6
CONTINUOUS
 62
    3
 10
-1993.2763035958405
 20
332.87920756684434
 11
-1950.1307435958379
 21
341.5083275668444
  0
LINE
  8
_0-3_躯体と製品
  6
CONTINUOUS
 62
    3
 10
-1967.5122635958369
 20
577.10720756684418
 11
-2591.8943235958432
 21
453.54970756684406
  0
LINE
  8
_0-3_躯体と製品
  6
PLINE2
 62
    6
 10
-2019.7015235958424
 20
566.34460756684359
 11
-1983.093183595839
 21
536.27346756684369
  0
LINE
  8
_0-3_躯体と製品
  6
PLINE2
 62
    6
 10
-2004.2163435958373
 20
488.91866756684351
 11
-1970.1158835958358
 21
460.90756756684368
  0
LINE
  8
_0-3_躯体と製品
  6
PLINE2
 62
    6
 10
-2011.9589235958401
 20
527.63162756684392
 11
-1975.3505835958385
 21
497.5604875668439
  0
LINE
  8
_0-3_躯体と製品
  6
CONTINUOUS
 62
    4
 10
-1967.5122635958369
 20
458.36888756684368
 11
-1996.9296835958367
 21
452.48538756684366
  0
LINE
  8
_0-3_躯体と製品
  6
CONTINUOUS
 62
    4
 10
-1997.5180235958405
 20
455.42712756684364
 11
-1968.1006035958399
 21
461.31062756684366
  0
LINE
  8
_0-3_躯体と製品
  6
CONTINUOUS
 62
    3
 10
-1968.1006035958399
 20
461.31062756684366
 11
-2568.1597635958415
 21
341.29878756684332
  0
LINE
  8
_0-3_躯体と製品
  6
CONTINUOUS
 62
    3
 10
-1967.7083835958374
 20
459.34946756684337
 11
-2567.7675435958372
 21
339.33762756684428
  0
LINE
  8
_0-3_躯体と製品
  6
CONTINUOUS
 62
    7
 10
-2213.0496635958389
 20
530.61806756684371
 11
-1968.5122635958414
 21
579.52554756684401
  0
LINE
  8
_0-4_図面枠
  6
CONTINUOUS
 62
    3
 10
-2161.0898035958435
 20
1523.4295875668438
 11
-1955.9355635958409
 21
1878.7671475668435
  0
TEXT
  8
_0-4_図面枠
 62
    7
 10
-2840.6991435958325
 20
2013.9838795353862
 40
60
 41
0.7999999999999992
 50
0.0000099999993779
  1
排気誘導板
  0
LINE
  8
_0-3_躯体と製品
  6
CONTINUOUS
 62
    3
 10
-2363.3197835958363
 20
1022.9012275668437
 11
-2307.1803435958382
 21
1415.8772875668433
  0
LINE
  8
_0-3_躯体と製品
  6
PLINE5
 62
    3
 10
-2411.009163595837
 20
1000.2024875668435
 11
-2346.9495635958374
 21
1448.6197675668434
  0
LINE
  8
_0-3_躯体と製品
  6
CONTINUOUS
 62
    3
 10
-2184.931123595843
 20
1458.4489475668438
 11
-2238.677043595836
 21
1082.2274875668436
  0
LINE
  8
_0-3_躯体と製品
  6
CONTINUOUS
 62
    7
 10
-2418.0032835958364
 20
993.67000756684388
 11
-2352.3726235958393
 21
1453.0846475668438
  0
LINE
  8
_0-3_躯体と製品
  6
PLINE2
 62
    6
 10
-2346.8691635958394
 20
1138.0554675668436
 11
-2211.3403635958384
 21
1273.5842675668432
  0
LINE
  8
_0-3_躯体と製品
  6
PLINE2
 62
    6
 10
-2352.7617235958423
 20
1096.8075675668435
 11
-2217.2329235958396
 21
1232.3363675668436
  0
LINE
  8
_0-3_躯体と製品
  6
PLINE2
 62
    6
 10
-2358.6542835958435
 20
1055.5596875668439
 11
-2223.1254835958425
 21
1191.0884875668435
  0
LINE
  8
_0-3_躯体と製品
  6
CONTINUOUS
 62
    7
 10
-2057.5122635958369
 20
781.10720756684384
 11
-2057.5122635958369
 21
727.10720756684418
  0
LINE
  8
_0-3_躯体と製品
  6
CONTINUOUS
 62
    3
 10
-2014.7762435958439
 20
541.71822756684401
 11
-2585.4179835958348
 21
427.58988756684357
  0
LINE
  8
_0-3_躯体と製品
  6
CONTINUOUS
 62
    4
 10
-2020.0713835958431
 20
568.19390756684379
 11
-1997.5180235958405
 21
455.42712756684364
  0
LINE
  8
_0-4_図面枠
  6
CONTINUOUS
 62
    3
 10
-2127.4945035958362
 20
549.4115875668441
 11
-2138.8342435958402
 21
509.77056756684362
  0
LINE
  8
_0-3_躯体と製品
  6
CONTINUOUS
 62
    7
 10
-2213.0496635958389
 20
530.61806756684371
 11
-2212.4613235958359
 21
527.67632756684361
  0
LINE
  8
_0-3_躯体と製品
  6
CONTINUOUS
 62
    7
 10
-2212.4613235958359
 20
527.67632756684361
 11
-2202.6555035958445
 21
529.63748756684379
  0
LINE
  8
_0-3_躯体と製品
  6
CONTINUOUS
 62
    7
 10
-2212.8535435958393
 20
529.63748756684379
 11
-2183.4361235958404
 21
535.52096756684375
  0
LINE
  8
_0-3_躯体と製品
  6
CONTINUOUS
 62
    7
 10
-2183.4361235958404
 20
535.52096756684375
 11
-2165.9384435958436
 21
448.03254756684362
  0
LINE
  8
_0-4_図面枠
  6
CONTINUOUS
 62
    3
 10
-2181.1483835958379
 20
526.00554756684369
 11
-2192.4881435958387
 21
486.36454756684384
  0
LINE
  8
_0-3_躯体と製品
  6
PLINE2
 62
    3
 10
-2124.5003435958379
 20
519.77342756684334
 11
-2106.8498835958426
 21
431.52114756684341
  0
LINE
  8
_0-3_躯体と製品
  6
CONTINUOUS
 62
    3
 10
-2057.8208635958354
 20
441.3269675668439
 11
-2054.8791235958388
 21
426.61824756684337
  0
LINE
  8
_0-3_躯体と製品
  6
CONTINUOUS
 62
    3
 10
-2105.1829035958435
 20
423.18622756684374
 11
-2056.1538635958386
 21
432.9920275668436
  0
LINE
  8
_0-3_躯体と製品
  6
CONTINUOUS
 62
    3
 10
-2012.6918035958361
 20
414.65964756684355
 11
-2016.6141235958385
 21
434.27124756684361
  0
LINE
  8
_0-4_図面枠
  6
CONTINUOUS
 62
    3
 10
-2108.4833835958416
 20
448.99390756684352
 11
-2119.8231235958447
 21
409.35288756684338
  0
LINE
  8
_0-3_躯体と製品
  6
CONTINUOUS
 62
    3
 10
-2106.8498835958426
 20
431.52114756684341
 11
-2103.908143595836
 21
416.81244756684362
  0
LINE
  8
_0-3_躯体と製品
  6
CONTINUOUS
 62
    3
 10
-1999.5520235958438
 20
348.96072756684441
 11
-1995.6297035958423
 21
329.34912756684434
  0
LINE
  8
_0-3_躯体と製品
  6
CONTINUOUS
 62
    3
 10
-2009.7500635958404
 20
415.24798756684334
 11
-2013.0840235958394
 21
431.91786756684348
  0
LINE
  8
_0-3_躯体と製品
  6
CONTINUOUS
 62
    3
 10
-1996.6102835958382
 20
349.54908756684438
 11
-1993.2763035958405
 21
332.87920756684434
  0
LINE
  8
_0-3_躯体と製品
  6
CONTINUOUS
 62
    3
 10
-2012.6918035958361
 20
414.65964756684355
 11
-2009.7500635958404
 21
415.24798756684334
  0
LINE
  8
_0-3_躯体と製品
  6
CONTINUOUS
 62
    3
 10
-1999.5520235958438
 20
348.96072756684441
 11
-1996.6102835958382
 21
349.54908756684438
  0
LINE
  8
_0-3_躯体と製品
  6
PLINE2
 62
    3
 10
-2075.4713035958421
 20
529.57922756684366
 11
-2057.8208635958354
 21
441.3269675668439
  0
LINE
  8
_0-3_躯体と製品
  6
PLINE5
 62
    3
 10
-2123.6178235958414
 20
515.36080756684339
 11
-2074.5887835958374
 21
525.16660756684371
  0
LINE
  8
_0-3_躯体と製品
  6
CONTINUOUS
 62
    3
 10
-1995.6127635958374
 20
527.99950756684404
 11
-2006.9525235958381
 21
488.35848756684368
  0
LINE
  8
_0-3_躯体と製品
  6
CONTINUOUS
 62
    4
 10
-2049.488803595842
 20
562.31042756684371
 11
-2020.0713835958431
 21
568.19390756684379
  0
LINE
  8
_0-3_躯体と製品
  6
CONTINUOUS
 62
    7
 10
-2054.3122635958398
 20
727.10720756684418
 11
-2057.5122635958369
 21
727.10720756684418
  0
LINE
  8
_0-3_躯体と製品
  6
CONTINUOUS
 62
    7
 10
-2054.3122635958398
 20
739.68450756684388
 11
-2054.3122635958398
 21
727.10720756684418
  0
LINE
  8
_0-3_躯体と製品
  6
PLINE2
 62
    6
 10
-2358.7182835958365
 20
1020.1403475668435
 11
-2229.0180435958437
 21
1149.8405875668436
  0
LINE
  8
_0-3_躯体と製品
  6
PLINE2
 62
    6
 10
-2336.6212035958424
 20
1006.8820875668434
 11
-2234.9106035958366
 21
1108.5926875668436
  0
LINE
  8
_0-3_躯体と製品
  6
PLINE2
 62
    6
 10
-2314.5241035958425
 20
993.62382756684349
 11
-2230.7041835958362
 21
1077.4437675668437
  0
LINE
  8
_0-3_躯体と製品
  6
CONTINUOUS
 62
    7
 10
-2417.5122635958369
 20
997.10720756684407
 11
-2057.5122635958369
 21
781.10720756684384
  0
LINE
  8
_0-3_躯体と製品
  6
CONTINUOUS
 62
    3
 10
-2368.7586435958392
 20
952.69456756684372
 11
-2355.8962435958356
 21
974.13188756684372
  0
LINE
  8
_0-3_躯体と製品
  6
CONTINUOUS
 62
    3
 10
-2423.6456635958366
 20
1042.5617675668436
 11
-2398.8969235958402
 21
1039.0262275668438
  0
LINE
  8
_0-3_躯体と製品
  6
CONTINUOUS
 62
    7
 10
-2418.0032835958364
 20
993.67000756684388
 11
-2376.2840035958388
 21
968.63844756684352
  0
LINE
  8
_0-3_躯体と製品
  6
PLINE2
 62
    6
 10
-2248.2328435958443
 20
953.84908756684376
 11
-2164.412923595838
 21
1037.6690075668439
  0
LINE
  8
_0-3_躯体と製品
  6
PLINE2
 62
    6
 10
-2226.1357635958402
 20
940.5908275668437
 11
-2142.3158235958372
 21
1024.4107675668433
  0
LINE
  8
_0-3_躯体と製品
  6
PLINE2
 62
    6
 10
-2204.038683595837
 20
927.33256756684364
 11
-2120.2187435958431
 21
1011.1525075668437
  0
LINE
  8
_0-3_躯体と製品
  6
PLINE2
 62
    6
 10
-2181.9415835958362
 20
914.07432756684329
 11
-2098.121663595839
 21
997.89424756684377
  0
LINE
  8
_0-3_躯体と製品
  6
PLINE2
 62
    6
 10
-2159.8445035958421
 20
900.81606756684391
 11
-2076.024563595839
 21
984.63600756684355
  0
LINE
  8
_0-3_躯体と製品
  6
PLINE2
 62
    6
 10
-2137.747423595838
 20
887.55782756684334
 11
-2053.9274835958358
 21
971.37774756684348
  0
LINE
  8
_0-3_躯体と製品
  6
CONTINUOUS
 62
    3
 10
-2223.5435635958411
 20
894.7202675668434
 11
-2236.4059435958379
 21
873.2829475668434
  0
LINE
  8
_0-3_躯体と製品
  6
CONTINUOUS
 62
    3
 10
-2076.3488035958389
 20
806.40342756684345
 11
-2089.2112035958435
 21
784.96610756684402
  0
LINE
  8
_0-3_躯体と製品
  6
PLINE2
 62
    6
 10
-2115.650323595838
 20
874.29956756684373
 11
-2031.8304035958427
 21
958.11950756684337
  0
LINE
  8
_0-3_躯体と製品
  6
PLINE2
 62
    6
 10
-2093.5532435958439
 20
861.04130756684367
 11
-2009.7333035958409
 21
944.8612475668433
  0
LINE
  8
_0-3_躯体と製品
  6
PLINE2
 62
    6
 10
-2292.4270235958384
 20
980.36558756684394
 11
-2208.6070835958353
 21
1064.1855275668436
  0
LINE
  8
_0-3_躯体と製品
  6
PLINE2
 62
    6
 10
-2270.3299435958352
 20
967.1073275668432
 11
-2186.5100035958412
 21
1050.9272675668435
  0
LINE
  8
_0-3_躯体と製品
  6
CONTINUOUS
 62
    7
 10
-2120.7211435958388
 20
1142.0868875668436
 11
-2120.7211435958388
 21
1157.2487075668439
  0
LINE
  8
_0-4_図面枠
  6
CONTINUOUS
 62
    3
 10
-2565.49878359584
 20
2003.9836275668431
 11
-2832.9799035958431
 21
2003.9836275668431
  0
LINE
  8
_0-4_図面枠
  6
CONTINUOUS
 62
    3
 10
-2374.203843595842
 20
1262.5900675668438
 11
-2665.1991835958434
 21
1766.6087875668434
  0
TEXT
  8
_0-4_図面枠
 62
    7
 10
-2767.5989235958355
 20
1776.6087296946728
 40
60.000000000000007
 41
0.8000000000000008
 50
0.0000099999995136
  1
外板
  0
LINE
  8
_0-4_図面枠
  6
CONTINUOUS
 62
    3
 10
-2665.1991835958434
 20
1766.6087875668434
 11
-2773.3134835958399
 21
1766.6087875668434
  0
LINE
  8
_0-4_図面枠
  6
CONTINUOUS
 62
    3
 10
-2220.5816235958364
 20
1406.5695475668435
 11
-2565.49878359584
 21
2003.9836275668431
  0
LINE
  8
_0-3_躯体と製品
  6
CONTINUOUS
 62
    3
 10
-2264.2998035958426
 20
1240.2078875668435
 11
-2298.4312235958359
 21
1228.3220675668435
  0
LINE
  8
_0-3_躯体と製品
  6
PLINE2
 62
    6
 10
-2311.513823595843
 20
1385.5428475668436
 11
-2267.287103595836
 21
1429.7695675668433
  0
LINE
  8
_0-3_躯体と製品
  6
PLINE2
 62
    6
 10
-2317.4063835958359
 20
1344.2949475668433
 11
-2213.0414235958424
 21
1448.6599275668436
  0
LINE
  8
_0-3_躯体と製品
  6
PLINE2
 62
    6
 10
-2323.298943595838
 20
1303.047047566844
 11
-2187.7701435958361
 21
1438.5758475668435
  0
LINE
  8
_0-3_躯体と製品
  6
PLINE2
 62
    6
 10
-2329.1915035958391
 20
1261.7991675668436
 11
-2193.6627035958381
 21
1397.3279675668437
  0
LINE
  8
_0-3_躯体と製品
  6
PLINE2
 62
    6
 10
-2335.0840635958421
 20
1220.5512675668433
 11
-2199.5552635958402
 21
1356.0800675668436
  0
LINE
  8
_0-3_躯体と製品
  6
PLINE2
 62
    6
 10
-2340.976623595835
 20
1179.3033675668432
 11
-2205.4478235958422
 21
1314.832167566844
  0
LINE
  8
_0-3_躯体と製品
  6
CONTINUOUS
 62
    3
 10
-2306.3891235958372
 20
1278.4958275668437
 11
-2349.0711435958392
 21
1263.6323675668434
  0
LINE
  8
_0-4_図面枠
  6
CONTINUOUS
 62
    3
 10
-2374.203843595842
 20
1262.5900675668438
 11
-2411.5243635958359
 21
1287.2310875668441
  0
LINE
  8
_0-3_躯体と製品
  6
CONTINUOUS
 62
    3
 10
-2355.364563595841
 20
1261.4407675668435
 11
-2374.6487635958429
 21
1254.7253075668432
  0
LINE
  8
_0-3_躯体と製品
  6
CONTINUOUS
 62
    3
 10
-2369.6010035958361
 20
1203.5381275668437
 11
-2382.6083035958363
 21
1199.0085075668437
  0
LINE
  8
_0-3_躯体と製品
  6
CONTINUOUS
 62
    3
 10
-2399.0267835958384
 20
1214.8939075668438
 11
-2374.2780435958421
 21
1211.3583675668435
  0
LINE
  8
_0-3_躯体と製品
  6
CONTINUOUS
 62
    3
 10
-2311.203183595836
 20
1223.8744075668435
 11
-2355.8432235958398
 21
1208.3290875668436
  0
LINE
  8
_0-3_躯体と製品
  6
CONTINUOUS
 62
    3
 10
-2363.3397435958441
 20
1231.6726275668436
 11
-2349.4804435958404
 21
1229.6927275668436
  0
LINE
  8
_0-3_躯体と製品
  6
CONTINUOUS
 62
    3
 10
-2355.4201435958394
 20
1237.6123275668438
 11
-2357.400043595836
 21
1223.7530275668435
  0
LINE
  8
_0-3_躯体と製品
  6
CONTINUOUS
 62
    3
 10
-2374.4551235958361
 20
1386.8955875668435
 11
-2349.7063835958415
 21
1383.3600675668436
  0
LINE
  8
_0-3_躯体と製品
  6
CONTINUOUS
 62
    3
 10
-2306.2360835958416
 20
1476.0339475668434
 11
-2298.0144235958423
 21
1452.4245275668438
  0
LINE
  8
_0-3_躯体と製品
  6
CONTINUOUS
 62
    7
 10
-2355.7743435958409
 20
1451.9000475668436
 11
-2362.6115435958409
 21
1404.0397275668438
  0
LINE
  8
_0-3_躯体と製品
  6
CONTINUOUS
 62
    3
 10
-2233.5842635958415
 20
1250.9041675668436
 11
-2257.5882835958419
 21
1242.5450875668434
  0
LINE
  8
_0-3_躯体と製品
  6
CONTINUOUS
 62
    3
 10
-2242.7609035958376
 20
1300.6535075668439
 11
-2287.3531235958417
 21
1285.1248675668435
  0
LINE
  8
_0-3_躯体と製品
  6
CONTINUOUS
 62
    7
 10
-2193.3991035958406
 20
1309.9609075668436
 11
-2193.3991035958406
 21
1319.9609075668436
  0
LINE
  8
_0-3_躯体と製品
  6
CONTINUOUS
 62
    3
 10
-2046.0981235958407
 20
1239.0543475668433
 11
-2026.8144835958374
 21
1216.0730075668439
  0
LINE
  8
_0-3_躯体と製品
  6
CONTINUOUS
 62
    3
 10
-2110.7205235958381
 20
1361.9888875668439
 11
-2102.4988435958412
 21
1338.3794875668436
  0
LINE
  8
_0-3_躯体と製品
  6
CONTINUOUS
 62
    3
 10
-2180.3946835958423
 20
1490.2040875668433
 11
-2183.1252835958376
 21
1471.0899275668437
  0
LINE
  8
_0-4_図面枠
  6
CONTINUOUS
 62
    3
 10
-2220.5816235958364
 20
1406.5695475668435
 11
-2257.9021235958426
 21
1431.2105675668438
  0
LINE
  8
_0-3_躯体と製品
  6
CONTINUOUS
 62
    3
 10
-2183.4724835958432
 20
1468.6594275668433
 11
-2184.931123595843
 21
1458.4489475668438
  0
LINE
  8
_0-3_躯体と製品
  6
CONTINUOUS
 62
    3
 10
-2177.9267235958387
 20
1507.4797475668436
 11
-2179.6444435958356
 21
1495.4557075668436
  0
LINE
  8
_0-3_躯体と製品
  6
CONTINUOUS
 62
    3
 10
-2167.3615035958401
 20
1524.3951875668438
 11
-2159.1398235958432
 21
1500.7857875668435
  0
LINE
  8
_0-4_図面枠
  6
CONTINUOUS
 62
    3
 10
-2161.0898035958435
 20
1523.4295875668438
 11
-2158.4103035958378
 21
1568.0705875668434
  0
LINE
  8
_0-3_躯体と製品
  6
CONTINUOUS
 62
    3
 10
-2036.7036235958412
 20
1550.3054275668433
 11
-1990.6658835958406
 21
1566.3374675668433
  0
LINE
  8
_0-3_躯体と製品
  6
CONTINUOUS
 62
    3
 10
-2058.0035035958381
 20
1542.8880275668434
 11
-2043.2676635958351
 21
1548.0195875668437
  0
LINE
  8
_0-3_躯体と製品
  6
CONTINUOUS
 62
    3
 10
-2059.9767035958403
 20
1548.5542875668432
 11
-2058.0035035958381
 21
1542.8880275668434
  0
LINE
  8
_0-3_躯体と製品
  6
CONTINUOUS
 62
    3
 10
-2020.9871235958435
 20
1575.3681475668436
 11
-2012.7654635958434
 21
1551.7587275668438
  0
TEXT
  8
_0-4_図面枠
 62
    7
 10
-3259.986923595844
 20
2678.2521275668432
 40
60
 41
0.8000000000000006
 50
0
  1
縮　　尺
  0
TEXT
  8
_0-4_図面枠
 62
    7
 10
-3294.8171235958398
 20
2835.8519075668437
 40
60
 41
0.8000000000000001
 50
0
  1
ファイル名
  0
LINE
  8
_0-4_図面枠
  6
CONTINUOUS
 62
    3
 10
-2117.8323835958427
 20
2800.3333275668433
 11
-3451.165723595841
 21
2800.3333275668433
  0
TEXT
  8
_0-4_図面枠
 62
    7
 10
-2658.4866635958415
 20
2839.7441275668434
 40
60
 41
0.800000000000001
 50
0
  1
ＭＯＮ００８
  0
LINE
  8
_0-4_図面枠
  6
CONTINUOUS
 62
    7
 10
-2117.8323835958427
 20
2966.9999875668436
 11
-2117.8323835958427
 21
2633.6666475668435
  0
LINE
  8
_0-4_図面枠
  6
CONTINUOUS
 62
    3
 10
-2784.4990635958411
 20
2966.9999875668436
 11
-2784.4990635958411
 21
2633.6666475668435
  0
TEXT
  8
_0-4_図面枠
 62
    7
 10
-2656.668503595838
 20
2675.0441075668432
 40
60
 41
0.7999999999999999
 50
0
  1
Ｓ　１：２０
  0
TEXT
  8
_0-4_図面枠
 62
    7
 10
-3201.0820235958372
 20
2434.2875875668424
 40
60
 41
0.8000000000000007
 50
0
  1
図中は、ＳＣ－９００型
  0
LINE
  8
_0-3_躯体と製品
  6
CONTINUOUS
 62
    3
 10
-660.05576359583938
 20
1471.6883275668431
 11
-1067.512263595836
 21
1613.5797075668438
  0
LINE
  8
_0-3_躯体と製品
  6
CONTINUOUS
 62
    3
 10
-952.51226359583598
 20
766.95244756684372
 11
-590.41602359583703
 21
984.21018756684384
  0
LINE
  8
_0-3_躯体と製品
  6
CONTINUOUS
 62
    3
 10
-822.3859235958389
 20
528.6606675668437
 11
-255.9032035958362
 21
415.36412756684342
  0
LINE
  8
_0-3_躯体と製品
  6
CONTINUOUS
 62
    3
 10
-827.476123595844
 20
503.1638075668435
 11
-261.00222359584313
 21
389.86902756684367
  0
LINE
  8
_0-3_躯体と製品
  6
PLINE2
 62
    3
 10
-1961.5122635958423
 20
444.30704756684361
 11
-1961.5122635958423
 21
1324.7028875668436
  0
LINE
  8
_0-3_躯体と製品
  6
CONTINUOUS
 62
    3
 10
-1917.5122635958369
 20
448.66390756684348
 11
-1917.5122635958369
 21
1407.5636875668438
  0
LINE
  8
_0-3_躯体と製品
  6
CONTINUOUS
 62
    3
 10
-1967.5122635958369
 20
577.10720756684418
 11
-1967.5122635958369
 21
1390.1518275668434
  0
LINE
  8
_0-3_躯体と製品
  6
PLINE3
 62
    3
 10
-1517.5122635958369
 20
1768.1539875668436
 11
-1517.5122635958369
 21
426.32432756684375
  0
LINE
  8
_0-3_躯体と製品
  6
PLINE5
 62
    3
 10
-1517.5122635958369
 20
1047.4919075668438
 11
-799.28886359584067
 21
1047.4919075668438
  0
LINE
  8
_0-3_躯体と製品
  6
PLINE5
 62
    3
 10
-1517.5122635958369
 20
1097.4919075668438
 11
-799.28886359584067
 21
1097.4919075668438
  0
LINE
  8
_0-3_躯体と製品
  6
PLINE5
 62
    3
 10
-1517.5122635958369
 20
1091.4919075668436
 11
-799.28886359584067
 21
1091.4919075668436
  0
LINE
  8
_0-3_躯体と製品
  6
CONTINUOUS
 62
    3
 10
-1517.5122635958369
 20
586.10162756684372
 11
-838.05638359584009
 21
450.21044756684398
  0
LINE
  8
_0-3_躯体と製品
  6
CONTINUOUS
 62
    3
 10
-1517.5122635958369
 20
669.72554756684372
 11
-1066.3306835958429
 21
579.48922756684419
  0
LINE
  8
_0-3_躯体と製品
  6
CONTINUOUS
 62
    3
 10
-1517.5122635958369
 20
551.42828756684321
 11
-1047.6064835958368
 21
457.44712756684362
  0
LINE
  8
_0-3_躯体と製品
  6
PLINE2
 62
    3
 10
-1517.5122635958369
 20
667.68592756684382
 11
-822.44012359584303
 21
528.6715075668435
  0
LINE
  8
_0-3_躯体と製品
  6
PLINE2
 62
    3
 10
-1517.5122635958369
 20
641.17102756684369
 11
-827.64748359583882
 21
503.19808756684381
  0
LINE
  8
_0-3_躯体と製品
  6
PLINE4
 62
    4
 10
-1117.512263595836
 20
454.09162756684361
 11
-1517.5122635958369
 21
534.09162756684361
  0
LINE
  8
_0-3_躯体と製品
  6
CONTINUOUS
 62
    7
 10
-1968.5122635958414
 20
579.52554756684401
 11
-1968.5122635958414
 21
1047.4919075668438
  0
LINE
  8
_0-3_躯体と製品
  6
CONTINUOUS
 62
    3
 10
-1977.5122635958369
 20
627.10720756684418
 11
-1977.5122635958369
 21
925.52862756684374
  0
LINE
  8
_0-3_躯体と製品
  6
CONTINUOUS
 62
    3
 10
-1517.5122635958369
 20
666.15664756684362
 11
-1917.5122635958369
 21
587.00158756684357
  0
LINE
  8
_0-3_躯体と製品
  6
PLINE4
 62
    4
 10
-1917.5122635958369
 20
454.09162756684361
 11
-1517.5122635958369
 21
534.09162756684361
  0
LINE
  8
_0-4_図面枠
  6
CONTINUOUS
 62
    3
 10
-1935.1780035958391
 20
566.99728756684362
 11
-1906.5177635958398
 21
537.35626756684337
  0
LINE
  8
_0-3_躯体と製品
  6
CONTINUOUS
 62
    3
 10
-1967.5122635958369
 20
577.10720756684418
 11
-1967.5122635958369
 21
443.71294756684358
  0
LINE
  8
_0-3_躯体と製品
  6
PLINE2
 62
    3
 10
-1940.7171835958352
 20
340.33162756684442
 11
-1961.5122635958423
 21
444.30704756684361
  0
LINE
  8
_0-3_躯体と製品
  6
CONTINUOUS
 62
    3
 10
-1969.9384835958435
 20
440.54696756684359
 11
-1950.1307435958379
 21
341.5083275668444
  0
LINE
  8
_0-3_躯体と製品
  6
CONTINUOUS
 62
    3
 10
-1917.5122635958369
 20
448.66390756684348
 11
-1897.5716235958425
 21
348.96072756684441
  0
LINE
  8
_0-3_躯体と製品
  6
CONTINUOUS
 62
    3
 10
-1967.5122635958369
 20
443.71294756684358
 11
-1946.6006635958374
 21
339.15492756684444
  0
LINE
  8
_0-3_躯体と製品
  6
CONTINUOUS
 62
    4
 10
-1968.1006035958399
 20
461.31062756684366
 11
-1967.5122635958369
 21
458.36888756684368
  0
LINE
  8
_0-3_躯体と製品
  6
CONTINUOUS
 62
    3
 10
-1967.5122635958369
 20
627.10720756684418
 11
-1977.5122635958369
 21
627.10720756684418
  0
LINE
  8
_0-3_躯体と製品
  6
CONTINUOUS
 62
    3
 10
-1984.0573235958354
 20
708.2947675668438
 11
-1954.0573235958354
 21
708.2947675668438
  0
LINE
  8
_0-3_躯体と製品
  6
CONTINUOUS
 62
    3
 10
-1984.0573235958354
 20
661.9081475668437
 11
-1954.0573235958354
 21
661.9081475668437
  0
LINE
  8
_0-3_躯体と製品
  6
CONTINUOUS
 62
    3
 10
-1517.5122635958369
 20
1047.4919075668438
 11
-1961.5122635958423
 21
1047.4919075668438
  0
LINE
  8
_0-3_躯体と製品
  6
CONTINUOUS
 62
    3
 10
-1517.5122635958369
 20
997.49190756684379
 11
-1932.8688635958415
 21
997.49190756684379
  0
LINE
  8
_0-3_躯体と製品
  6
PLINE5
 62
    3
 10
-1517.5122635958369
 20
1041.4919075668436
 11
-1961.5122635958423
 21
1041.4919075668436
  0
LINE
  8
_0-3_躯体と製品
  6
PLINE2
 62
    6
 10
-1983.0678035958408
 20
794.75004756684382
 11
-1977.5122635958369
 21
800.30560756684361
  0
LINE
  8
_0-3_躯体と製品
  6
CONTINUOUS
 62
    3
 10
-1977.5122635958369
 20
791.41672756684397
 11
-1967.5122635958369
 21
791.41672756684397
  0
LINE
  8
_0-3_躯体と製品
  6
CONTINUOUS
 62
    3
 10
-1948.761723595836
 20
997.49190756684379
 11
-1961.5122635958423
 21
997.49190756684379
  0
LINE
  8
_0-3_躯体と製品
  6
CONTINUOUS
 62
    3
 10
-1940.0265835958371
 20
1025.8153075668438
 11
-1940.0265835958371
 21
1011.8153075668433
  0
LINE
  8
_0-3_躯体と製品
  6
CONTINUOUS
 62
    3
 10
-1947.0265835958353
 20
1018.8153075668438
 11
-1933.026583595838
 21
1018.8153075668438
  0
LINE
  8
_0-3_躯体と製品
  6
CONTINUOUS
 62
    3
 10
-1984.0573235958354
 20
1123.9775075668435
 11
-1954.0573235958354
 21
1123.9775075668435
  0
LINE
  8
_0-3_躯体と製品
  6
CONTINUOUS
 62
    3
 10
-1973.5122635958414
 20
1134.3735475668441
 11
-1973.5122635958414
 21
1108.9775075668435
  0
LINE
  8
_0-3_躯体と製品
  6
CONTINUOUS
 62
    3
 10
-1973.5122635958414
 20
1108.9775075668435
 11
-1967.5122635958369
 21
1108.9775075668435
  0
LINE
  8
_0-3_躯体と製品
  6
CONTINUOUS
 62
    3
 10
-1450.0647235958431
 20
1075.5603075668432
 11
-1450.0647235958431
 21
1061.5603075668437
  0
LINE
  8
_0-3_躯体と製品
  6
CONTINUOUS
 62
    3
 10
-1457.0647235958413
 20
1068.5603075668434
 11
-1443.0647235958349
 21
1068.5603075668434
  0
LINE
  8
_0-3_躯体と製品
  6
CONTINUOUS
 62
    3
 10
-952.51226359583598
 20
766.95244756684372
 11
-952.51226359583598
 21
556.72554756684372
  0
LINE
  8
_0-3_躯体と製品
  6
CONTINUOUS
 62
    3
 10
-1039.3948235958405
 20
329.34912756684434
 11
-1088.4238635958363
 21
339.15492756684444
  0
LINE
  8
_0-3_躯体と製品
  6
CONTINUOUS
 62
    3
 10
-1065.0860435958393
 20
440.54696756684359
 11
-1084.8937835958359
 21
341.5083275668444
  0
LINE
  8
_0-3_躯体と製品
  6
CONTINUOUS
 62
    3
 10
-1041.7482235958423
 20
332.87920756684434
 11
-1084.8937835958359
 21
341.5083275668444
  0
LINE
  8
_0-3_躯体と製品
  6
CONTINUOUS
 62
    3
 10
-1067.512263595836
 20
443.71294756684358
 11
-1088.4238635958363
 21
339.15492756684444
  0
LINE
  8
_0-3_躯体と製品
  6
PLINE2
 62
    3
 10
-1073.3816035958362
 20
444.96030756684331
 11
-1094.3073435958386
 21
340.33162756684442
  0
LINE
  8
_0-3_躯体と製品
  6
PLINE2
 62
    3
 10
-1117.512263595836
 20
469.38868756684383
 11
-1117.512263595836
 21
727.10720756684418
  0
LINE
  8
_0-3_躯体と製品
  6
CONTINUOUS
 62
    3
 10
-1117.512263595836
 20
448.66390756684348
 11
-1137.4529035958412
 21
348.96072756684441
  0
LINE
  8
_0-3_躯体と製品
  6
CONTINUOUS
 62
    3
 10
-1088.4238635958363
 20
339.15492756684444
 11
-1137.4529035958412
 21
348.96072756684441
  0
LINE
  8
_0-3_躯体と製品
  6
CONTINUOUS
 62
    3
 10
-1117.512263595836
 20
469.38868756684383
 11
-1117.512263595836
 21
448.66390756684348
  0
LINE
  8
_0-3_躯体と製品
  6
PLINE2
 62
    3
 10
-1073.5122635958396
 20
460.58868756684399
 11
-1073.5122635958396
 21
727.10720756684418
  0
LINE
  8
_0-3_躯体と製品
  6
PLINE2
 62
    3
 10
-1067.512263595836
 20
459.38868756684394
 11
-1067.512263595836
 21
727.10720756684418
  0
LINE
  8
_0-3_躯体と製品
  6
PLINE2
 62
    6
 10
-1054.3884635958429
 20
525.00770756684369
 11
-1017.7801035958437
 21
555.07884756684359
  0
LINE
  8
_0-3_躯体と製品
  6
PLINE2
 62
    7
 10
-1037.7026035958361
 20
455.46636756684359
 11
-1015.1492635958411
 21
568.23314756684351
  0
LINE
  8
_0-3_躯体と製品
  6
PLINE2
 62
    3
 10
-1067.512263595836
 20
459.38868756684394
 11
-1044.7627835958447
 21
573.13604756684379
  0
LINE
  8
_0-3_躯体と製品
  6
PLINE2
 62
    7
 10
-821.97486359584309
 20
530.61806756684371
 11
-1066.3306835958429
 21
579.48922756684419
  0
LINE
  8
_0-3_躯体と製品
  6
PLINE2
 62
    3
 10
-910.52418359583589
 20
519.77342756684334
 11
-928.17464359584028
 21
431.52114756684341
  0
LINE
  8
_0-3_躯体と製品
  6
PLINE5
 62
    3
 10
-911.40670359584146
 20
515.36080756684339
 11
-960.43574359583636
 21
525.16660756684371
  0
LINE
  8
_0-3_躯体と製品
  6
CONTINUOUS
 62
    3
 10
-1022.3327235958368
 20
414.65964756684355
 11
-1018.4104035958362
 21
434.27124756684361
  0
LINE
  8
_0-3_躯体と製品
  6
CONTINUOUS
 62
    3
 10
-1021.9405035958443
 20
431.91786756684348
 11
-1065.0860435958393
 21
440.54696756684359
  0
LINE
  8
_0-3_躯体と製品
  6
CONTINUOUS
 62
    3
 10
-977.20366359583841
 20
441.3269675668439
 11
-980.14540359584316
 21
426.61824756684337
  0
LINE
  8
_0-3_躯体と製品
  6
CONTINUOUS
 62
    3
 10
-929.84162359584025
 20
423.18622756684374
 11
-978.87066359583605
 21
432.9920275668436
  0
LINE
  8
_0-3_躯体と製品
  6
CONTINUOUS
 62
    3
 10
-1035.472503595839
 20
348.96072756684441
 11
-1039.3948235958405
 21
329.34912756684434
  0
LINE
  8
_0-3_躯体と製品
  6
CONTINUOUS
 62
    3
 10
-1025.2744635958434
 20
415.24798756684334
 11
-1021.9405035958443
 21
431.91786756684348
  0
LINE
  8
_0-3_躯体と製品
  6
CONTINUOUS
 62
    3
 10
-1038.4142435958365
 20
349.54908756684438
 11
-1041.7482235958423
 21
332.87920756684434
  0
LINE
  8
_0-3_躯体と製品
  6
CONTINUOUS
 62
    3
 10
-1022.3327235958368
 20
414.65964756684355
 11
-1025.2744635958434
 21
415.24798756684334
  0
LINE
  8
_0-3_躯体と製品
  6
CONTINUOUS
 62
    3
 10
-1035.472503595839
 20
348.96072756684441
 11
-1038.4142435958365
 21
349.54908756684438
  0
LINE
  8
_0-3_躯体と製品
  6
CONTINUOUS
 62
    3
 10
-928.17464359584028
 20
431.52114756684341
 11
-931.11638359583594
 21
416.81244756684362
  0
LINE
  8
_0-3_躯体と製品
  6
CONTINUOUS
 62
    3
 10
-1067.512263595836
 20
459.38868756684394
 11
-1067.512263595836
 21
443.71294756684358
  0
LINE
  8
_0-3_躯体と製品
  6
PLINE2
 62
    3
 10
-1073.5122635958396
 20
460.58868756684399
 11
-1073.5122635958396
 21
444.30704756684361
  0
LINE
  8
_0-3_躯体と製品
  6
PLINE2
 62
    6
 10
-1055.8552435958445
 20
459.09688756684329
 11
-1033.2653035958365
 21
477.65290756684351
  0
LINE
  8
_0-3_躯体と製品
  6
PLINE2
 62
    6
 10
-1062.1310435958376
 20
486.2947475668434
 11
-1025.5227035958342
 21
516.36588756684341
  0
LINE
  8
_0-3_躯体と製品
  6
PLINE2
 62
    7
 10
-1037.7026035958361
 20
455.46636756684359
 11
-1067.1200235958349
 21
461.34984756684344
  0
LINE
  8
_0-3_躯体と製品
  6
PLINE2
 62
    7
 10
-1067.7083835958374
 20
458.40810756684402
 11
-1038.2909635958385
 21
452.52462756684361
  0
LINE
  8
_0-3_躯体と製品
  6
CONTINUOUS
 62
    3
 10
-1018.4104035958362
 20
434.27124756684361
 11
-1067.512263595836
 21
444.09162756684361
  0
LINE
  8
_0-3_躯体と製品
  6
PLINE2
 62
    3
 10
-959.55322359584079
 20
529.57922756684366
 11
-977.20366359583841
 21
441.3269675668439
  0
LINE
  8
_0-3_躯体と製品
  6
PLINE2
 62
    7
 10
-851.58840359584246
 20
535.52096756684375
 11
-822.17098359584361
 21
529.63748756684379
  0
LINE
  8
_0-3_躯体と製品
  6
PLINE2
 62
    7
 10
-869.08608359584014
 20
448.03254756684362
 11
-851.58840359584246
 21
535.52096756684375
  0
LINE
  8
_0-3_躯体と製品
  6
PLINE2
 62
    7
 10
-821.97486359584309
 20
530.61806756684371
 11
-822.56320359583788
 21
527.67632756684361
  0
LINE
  8
_0-3_躯体と製品
  6
PLINE2
 62
    7
 10
-822.56320359583788
 20
527.67632756684361
 11
-842.1748235958421
 21
531.59864756684408
  0
LINE
  8
_0-3_躯体と製品
  6
CONTINUOUS
 62
    3
 10
-838.05638359584009
 20
450.21044756684398
 11
-822.56320359583788
 21
527.67632756684361
  0
LINE
  8
_0-3_躯体と製品
  6
PLINE2
 62
    7
 10
-1066.3306835958429
 20
579.48922756684419
 11
-1066.3306835958429
 21
727.10720756684418
  0
LINE
  8
_0-3_躯体と製品
  6
PLINE2
 62
    7
 10
-985.73184359584138
 20
562.34964756684371
 11
-1015.1492635958411
 21
568.23314756684351
  0
LINE
  8
_0-3_躯体と製品
  6
PLINE2
 62
    6
 10
-1037.0593235958422
 20
571.59534756684388
 11
-1046.6458635958415
 21
563.72068756684382
  0
LINE
  8
_0-3_躯体と製品
  6
CONTINUOUS
 62
    3
 10
-1326.8341035958392
 20
1074.1849675668436
 11
-1326.8341035958392
 21
1060.1849675668434
  0
LINE
  8
_0-3_躯体と製品
  6
CONTINUOUS
 62
    3
 10
-1333.8341035958374
 20
1067.1849675668439
 11
-1319.834103595841
 21
1067.1849675668439
  0
LINE
  8
_0-3_躯体と製品
  6
CONTINUOUS
 62
    3
 10
-1201.6780235958413
 20
1074.1849675668436
 11
-1201.6780235958413
 21
1060.1849675668434
  0
LINE
  8
_0-3_躯体と製品
  6
CONTINUOUS
 62
    3
 10
-1208.6780235958413
 20
1067.1849675668439
 11
-1194.6780235958431
 21
1067.1849675668439
  0
LINE
  8
_0-3_躯体と製品
  6
CONTINUOUS
 62
    3
 10
-961.36484359583937
 20
1077.1711475668435
 11
-961.36484359583937
 21
1063.1711475668437
  0
LINE
  8
_0-3_躯体と製品
  6
CONTINUOUS
 62
    3
 10
-1065.519183595844
 20
1073.9099075668437
 11
-1065.519183595844
 21
1059.9099075668439
  0
LINE
  8
_0-3_躯体と製品
  6
PLINE2
 62
    3
 10
-1001.0769435958355
 20
1147.4919075668438
 11
-1001.0769435958355
 21
1097.4919075668438
  0
LINE
  8
_0-3_躯体と製品
  6
PLINE2
 62
    3
 10
-1007.07694359584
 20
1147.4919075668438
 11
-1001.0769435958355
 21
1147.4919075668438
  0
LINE
  8
_0-3_躯体と製品
  6
PLINE2
 62
    3
 10
-1007.07694359584
 20
1103.4919075668433
 11
-1007.07694359584
 21
1147.4919075668438
  0
LINE
  8
_0-3_躯体と製品
  6
PLINE2
 62
    3
 10
-1051.0769435958364
 20
1103.4919075668433
 11
-1007.07694359584
 21
1103.4919075668433
  0
LINE
  8
_0-3_躯体と製品
  6
PLINE2
 62
    3
 10
-1051.0769435958364
 20
1097.4919075668438
 11
-1051.0769435958364
 21
1103.4919075668433
  0
LINE
  8
_0-3_躯体と製品
  6
CONTINUOUS
 62
    3
 10
-1072.5191835958422
 20
1066.9099075668437
 11
-1058.5191835958358
 21
1066.9099075668437
  0
LINE
  8
_0-3_躯体と製品
  6
CONTINUOUS
 62
    3
 10
-968.36484359583756
 20
1070.1711475668437
 11
-954.36484359584119
 21
1070.1711475668437
  0
LINE
  8
_0-3_躯体と製品
  6
CONTINUOUS
 62
    3
 10
-857.01738359584033
 20
1076.3855075668439
 11
-857.01738359584033
 21
1062.3855075668434
  0
LINE
  8
_0-3_躯体と製品
  6
CONTINUOUS
 62
    3
 10
-864.01738359583851
 20
1069.3855075668439
 11
-850.01738359584124
 21
1069.3855075668439
  0
LINE
  8
_0-3_躯体と製品
  6
CONTINUOUS
 62
    3
 10
-1517.5122635958369
 20
1627.107207566844
 11
-1067.512263595836
 21
1627.107207566844
  0
LINE
  8
_0-4_図面枠
  6
CONTINUOUS
 62
    3
 10
-1925.763803595838
 20
1587.9643675668435
 11
-1923.0843035958433
 21
1632.6053675668436
  0
LINE
  8
_0-4_図面枠
  6
CONTINUOUS
 62
    3
 10
-1925.763803595838
 20
1587.9643675668435
 11
-1838.331683595844
 21
1739.401227566844
  0
LINE
  8
_0-3_躯体と製品
  6
CONTINUOUS
 62
    7
 10
-1967.5122635958369
 20
1587.107207566844
 11
-1967.5122635958369
 21
1627.107207566844
  0
LINE
  8
_0-3_躯体と製品
  6
CONTINUOUS
 62
    3
 10
-1517.5122635958369
 20
1500.2668275668436
 11
-1934.2857035958432
 21
1355.1309475668434
  0
LINE
  8
_0-3_躯体と製品
  6
CONTINUOUS
 62
    3
 10
-1948.2529635958435
 20
1581.107207566844
 11
-1517.5122635958369
 21
1581.107207566844
  0
LINE
  8
_0-3_躯体と製品
  6
CONTINUOUS
 62
    3
 10
-1949.267783595843
 20
1587.107207566844
 11
-1517.5122635958369
 21
1587.107207566844
  0
LINE
  8
_0-3_躯体と製品
  6
CONTINUOUS
 62
    7
 10
-1983.0260235958403
 20
1287.7886275668438
 11
-1983.0260235958403
 21
1272.7886275668438
  0
LINE
  8
_0-3_躯体と製品
  6
CONTINUOUS
 62
    3
 10
-1967.5122635958369
 20
1324.7028875668436
 11
-1961.5122635958423
 21
1324.7028875668436
  0
LINE
  8
_0-3_躯体と製品
  6
CONTINUOUS
 62
    3
 10
-1967.5122635958369
 20
1307.5821475668438
 11
-1973.5122635958414
 21
1307.5821475668438
  0
LINE
  8
_0-3_躯体と製品
  6
CONTINUOUS
 62
    3
 10
-1973.5122635958414
 20
1280.3800075668437
 11
-1973.5122635958414
 21
1307.5821475668438
  0
LINE
  8
_0-3_躯体と製品
  6
CONTINUOUS
 62
    3
 10
-1984.0573235958354
 20
1292.5821475668438
 11
-1954.0573235958354
 21
1292.5821475668438
  0
LINE
  8
_0-3_躯体と製品
  6
CONTINUOUS
 62
    3
 10
-1942.4604835958435
 20
1378.8231275668438
 11
-1942.4604835958435
 21
1364.8231275668436
  0
LINE
  8
_0-3_躯体と製品
  6
CONTINUOUS
 62
    3
 10
-1949.4604835958417
 20
1371.8231275668438
 11
-1935.4604835958353
 21
1371.8231275668438
  0
LINE
  8
_0-3_躯体と製品
  6
CONTINUOUS
 62
    3
 10
-1967.5122635958369
 20
1587.107207566844
 11
-1951.0689235958416
 21
1539.8883875668434
  0
LINE
  8
_0-3_躯体と製品
  6
CONTINUOUS
 62
    3
 10
-1983.3093835958434
 20
1568.899267566843
 11
-1948.2529635958435
 21
1581.107207566844
  0
LINE
  8
_0-3_躯体と製品
  6
CONTINUOUS
 62
    3
 10
-1965.5390635958438
 20
1581.4409475668435
 11
-1949.267783595843
 21
1587.107207566844
  0
LINE
  8
_0-3_躯体と製品
  6
CONTINUOUS
 62
    3
 10
-1736.4833035958409
 20
1490.1942875668431
 11
-1728.2616235958367
 21
1466.5848675668435
  0
TEXT
  8
_0-4_図面枠
 62
    7
 10
-1838.3315635958388
 20
1749.4014075668435
 40
60
 41
0.8000000000000006
 50
0
  1
渡し金具
  0
LINE
  8
_0-4_図面枠
  6
CONTINUOUS
 62
    3
 10
-1838.331683595844
 20
1739.401227566844
 11
-1554.531683595842
 21
1739.401227566844
  0
LINE
  8
_0-3_躯体と製品
  6
CONTINUOUS
 62
    7
 10
-1964.3122635958398
 20
1613.1950475668436
 11
-1964.3122635958398
 21
1627.107207566844
  0
LINE
  8
_0-3_躯体と製品
  6
CONTINUOUS
 62
    7
 10
-1967.5122635958369
 20
1627.107207566844
 11
-1964.3122635958398
 21
1627.107207566844
  0
TEXT
  8
_0-4_図面枠
 62
    7
 10
-1955.935623595843
 20
1888.7675675668438
 40
60
 41
0.8000000000000001
 50
0
  1
六角ボルト
  0
LINE
  8
_0-4_図面枠
  6
CONTINUOUS
 62
    3
 10
-1955.9355635958409
 20
1878.7671475668435
 11
-1697.9355635958391
 21
1878.7671475668435
  0
LINE
  8
_0-3_躯体と製品
  6
CONTINUOUS
 62
    3
 10
-1021.0547435958424
 20
1559.3784875668434
 11
-1007.8334635958354
 21
1554.7743475668433
  0
LINE
  8
_0-3_躯体と製品
  6
CONTINUOUS
 62
    3
 10
-1012.1420235958431
 20
1563.6870475668434
 11
-1016.7461635958352
 21
1550.4657875668431
  0
LINE
  8
_0-3_躯体と製品
  6
CONTINUOUS
 62
    3
 10
-819.2461235958408
 20
1489.1012875668434
 11
-806.02484359584196
 21
1484.497147566844
  0
LINE
  8
_0-3_躯体と製品
  6
CONTINUOUS
 62
    3
 10
-810.33342359583912
 20
1493.4098675668436
 11
-814.93754359584455
 21
1480.1885875668438
  0
LINE
  8
_0-3_躯体と製品
  6
CONTINUOUS
 62
    3
 10
-904.67254359583512
 20
1518.8499275668437
 11
-891.45128359584396
 21
1514.2457875668435
  0
LINE
  8
_0-3_躯体と製品
  6
CONTINUOUS
 62
    3
 10
-895.75984359584436
 20
1523.1584875668439
 11
-900.36398359583654
 21
1509.9372275668436
  0
LINE
  8
_0-3_躯体と製品
  6
CONTINUOUS
 62
    3
 10
-1067.512263595836
 20
1613.5797075668438
 11
-1067.512263595836
 21
1627.107207566844
  0
LINE
  8
_0-4_図面枠
  6
CONTINUOUS
 62
    3
 10
-664.9378035958398
 20
1079.3298675668434
 11
-589.29970359584331
 21
1210.3389275668435
  0
LINE
  8
_0-3_躯体と製品
  6
CONTINUOUS
 62
    3
 10
-590.41602359583703
 20
984.21018756684384
 11
-660.05576359583938
 21
1471.6883275668431
  0
TEXT
  8
_0-4_図面枠
 62
    7
 10
-526.61280359583725
 20
691.15068756684377
 40
60
 41
0.7999999999999999
 50
0
  1
屋根材
  0
LINE
  8
_0-4_図面枠
  6
CONTINUOUS
 62
    3
 10
-522.8241235958385
 20
685.48044756684374
 11
-375.21306359583832
 21
685.48044756684374
  0
LINE
  8
_0-4_図面枠
  6
CONTINUOUS
 62
    3
 10
-633.35750359583562
 20
494.03104756684354
 11
-522.8241235958385
 21
685.48044756684374
  0
LINE
  8
_0-4_図面枠
  6
CONTINUOUS
 62
    3
 10
-633.35750359583562
 20
494.03104756684354
 11
-622.01774359584397
 21
533.67206756684391
  0
LINE
  8
_0-4_図面枠
  6
CONTINUOUS
 62
    3
 10
-664.9378035958398
 20
1079.3298675668434
 11
-662.25832359584456
 21
1123.9708875668437
  0
LINE
  8
_0-3_躯体と製品
  6
CONTINUOUS
 62
    3
 10
220.96993640416258
 20
506.10720756684384
 11
116.96993640416804
 21
506.10720756684384
  0
LINE
  8
_0-3_躯体と製品
  6
CONTINUOUS
 62
    3
 10
43.969936404163491
 20
596.10720756684384
 11
116.96993640416804
 21
511.10720756684395
  0
LINE
  8
_0-3_躯体と製品
  6
CONTINUOUS
 62
    3
 10
116.96993640416804
 20
511.10720756684395
 11
116.96993640416804
 21
506.10720756684384
  0
LINE
  8
_0-3_躯体と製品
  6
CONTINUOUS
 62
    7
 10
245.62707640416193
 20
551.38318756684396
 11
243.04793640416392
 21
536.82710756684355
  0
LINE
  8
_0-3_躯体と製品
  6
CONTINUOUS
 62
    3
 10
293.96993640416258
 20
596.10720756684384
 11
220.96993640416258
 21
511.10720756684395
  0
LINE
  8
_0-3_躯体と製品
  6
CONTINUOUS
 62
    3
 10
343.96993640416258
 20
596.10720756684384
 11
416.96993640416622
 21
511.10720756684395
  0
LINE
  8
_0-3_躯体と製品
  6
PLINE2
 62
    6
 10
372.2286964041632
 20
575.80370756684385
 11
441.9251964041614
 21
506.10720756684384
  0
LINE
  8
_0-3_躯体と製品
  6
CONTINUOUS
 62
    3
 10
220.96993640416258
 20
511.10720756684395
 11
220.96993640416258
 21
506.10720756684384
  0
LINE
  8
_0-3_躯体と製品
  6
CONTINUOUS
 62
    3
 10
416.96993640416622
 20
511.10720756684395
 11
416.96993640416622
 21
506.10720756684384
  0
LINE
  8
_0-3_躯体と製品
  6
CONTINUOUS
 62
    3
 10
298.30439640416444
 20
596.10720756684384
 11
293.96993640416258
 21
596.10720756684384
  0
LINE
  8
_0-3_躯体と製品
  6
CONTINUOUS
 62
    7
 10
278.96993640416258
 20
624.10356756684348
 11
245.62707640416193
 21
551.38318756684396
  0
ARC
  8
_0-3_躯体と製品
  6
CONTINUOUS
 62
    3
 10
310.96993640416258
 20
605.01780756684377
 40
3
 50
295.01689299999992
 51
0
  0
ARC
  8
_0-3_躯体と製品
  6
CONTINUOUS
 62
    3
 10
314.67309640415624
 20
612.02470756684374
 40
7.155219999999999
 50
150.21503199999719
 51
190.09074899999942
  0
ARC
  8
_0-3_躯体と製品
  6
CONTINUOUS
 62
    3
 10
310.9549564041663
 20
603.65914756684401
 40
4.265979999999999
 50
44.87424399999265
 51
84.466247999999013
  0
ARC
  8
_0-3_躯体と製品
  6
CONTINUOUS
 62
    3
 10
311.79555640415856
 20
612.33550756684349
 40
4.4509999999999987
 50
200.57807999999753
 51
264.46624799999898
  0
LINE
  8
_0-3_躯体と製品
  6
CONTINUOUS
 62
    3
 10
313.97807640416431
 20
606.66902756684362
 11
313.96993640416258
 21
606.1877075668441
  0
LINE
  8
_0-3_躯体と製品
  6
CONTINUOUS
 62
    3
 10
318.96993640416258
 20
622.10720756684418
 11
317.52861640416086
 21
622.02046756684376
  0
LINE
  8
_0-3_躯体と製品
  6
CONTINUOUS
 62
    3
 10
317.52861640416086
 20
622.02046756684376
 11
316.11001640416362
 21
621.76162756684403
  0
LINE
  8
_0-3_躯体と製品
  6
CONTINUOUS
 62
    3
 10
316.11001640416362
 20
621.76162756684403
 11
314.7365164041621
 21
621.33474756684348
  0
LINE
  8
_0-3_躯体と製品
  6
CONTINUOUS
 62
    3
 10
314.7365164041621
 20
621.33474756684348
 11
313.42977640416211
 21
620.74658756684369
  0
LINE
  8
_0-3_躯体と製品
  6
CONTINUOUS
 62
    3
 10
313.42977640416211
 20
620.74658756684369
 11
312.21041640415933
 21
620.00638756684361
  0
LINE
  8
_0-3_躯体と製品
  6
CONTINUOUS
 62
    3
 10
312.21041640415933
 20
620.00638756684361
 11
311.09765640416299
 21
619.12586756684345
  0
LINE
  8
_0-3_躯体と製品
  6
CONTINUOUS
 62
    3
 10
311.09765640416299
 20
619.12586756684345
 11
310.10903640416291
 21
618.11886756684339
  0
LINE
  8
_0-3_躯体と製品
  6
CONTINUOUS
 62
    3
 10
310.10903640416291
 20
618.11886756684339
 11
309.26017640415921
 21
617.00130756684371
  0
LINE
  8
_0-3_躯体と製品
  6
CONTINUOUS
 62
    3
 10
309.26017640415921
 20
617.00130756684371
 11
308.56443640415819
 21
615.79078756684351
  0
LINE
  8
_0-3_躯体と製品
  6
CONTINUOUS
 62
    3
 10
308.56443640415819
 20
615.79078756684351
 11
308.46311640416388
 21
615.57902756684382
  0
LINE
  8
_0-3_躯体と製品
  6
CONTINUOUS
 62
    3
 10
313.96993640416258
 20
606.1877075668441
 11
313.96993640416258
 21
605.01780756684377
  0
ARC
  8
_0-3_躯体と製品
  6
CONTINUOUS
 62
    3
 10
298.30439640416444
 20
599.10720756684395
 40
3
 50
270
 51
295.01689299999992
  0
LINE
  8
_0-3_躯体と製品
  6
CONTINUOUS
 62
    3
 10
299.57305640415689
 20
596.38866756684376
 11
312.23859640415685
 21
602.29924756684352
  0
ARC
  8
_0-3_躯体と製品
  6
CONTINUOUS
 62
    3
 10
326.96993640416622
 20
605.01780756684377
 40
3
 50
180
 51
244.98310699999996
  0
ARC
  8
_0-3_躯体と製品
  6
CONTINUOUS
 62
    3
 10
323.2667964041575
 20
612.02470756684374
 40
7.155219999999999
 50
349.90925100000067
 51
29.784968000002817
  0
ARC
  8
_0-3_躯体と製品
  6
CONTINUOUS
 62
    3
 10
326.9849164041625
 20
603.65914756684401
 40
4.265979999999999
 50
95.533752000000973
 51
135.1257560000073
  0
ARC
  8
_0-3_躯体と製品
  6
CONTINUOUS
 62
    3
 10
326.14433640415882
 20
612.33550756684349
 40
4.4509999999999987
 50
275.5337520000009
 51
339.42192000000227
  0
LINE
  8
_0-3_躯体と製品
  6
CONTINUOUS
 62
    3
 10
323.96179640416449
 20
606.66902756684362
 11
323.96993640416258
 21
606.1877075668441
  0
LINE
  8
_0-3_躯体と製品
  6
CONTINUOUS
 62
    3
 10
329.47677640416259
 20
615.57902756684382
 11
328.80797640415767
 21
616.80336756684324
  0
LINE
  8
_0-3_躯体と製品
  6
CONTINUOUS
 62
    3
 10
328.80797640415767
 20
616.80336756684324
 11
327.98403640416109
 21
617.93788756684376
  0
LINE
  8
_0-3_躯体と製品
  6
CONTINUOUS
 62
    3
 10
327.98403640416109
 20
617.93788756684376
 11
327.01793640416145
 21
618.96466756684401
  0
LINE
  8
_0-3_躯体と製品
  6
CONTINUOUS
 62
    3
 10
327.01793640416145
 20
618.96466756684401
 11
325.92491640416665
 21
619.86752756684393
  0
LINE
  8
_0-3_躯体と製品
  6
CONTINUOUS
 62
    3
 10
325.92491640416665
 20
619.86752756684393
 11
324.7221964041637
 21
620.6322475668436
  0
LINE
  8
_0-3_躯体と製品
  6
CONTINUOUS
 62
    3
 10
324.7221964041637
 20
620.6322475668436
 11
323.42877640416191
 21
621.24674756684351
  0
LINE
  8
_0-3_躯体と製品
  6
CONTINUOUS
 62
    3
 10
323.42877640416191
 20
621.24674756684351
 11
322.06503640416486
 21
621.70132756684336
  0
LINE
  8
_0-3_躯体と製品
  6
CONTINUOUS
 62
    3
 10
322.06503640416486
 20
621.70132756684336
 11
320.6524764041551
 21
621.98884756684333
  0
LINE
  8
_0-3_躯体と製品
  6
CONTINUOUS
 62
    3
 10
320.6524764041551
 20
621.98884756684333
 11
319.21339640415681
 21
622.10474756684346
  0
LINE
  8
_0-3_躯体と製品
  6
CONTINUOUS
 62
    3
 10
319.21339640415681
 20
622.10474756684346
 11
318.96993640416258
 21
622.10720756684418
  0
LINE
  8
_0-3_躯体と製品
  6
CONTINUOUS
 62
    3
 10
323.96993640416258
 20
606.1877075668441
 11
323.96993640416258
 21
605.01780756684377
  0
LINE
  8
_0-3_躯体と製品
  6
CONTINUOUS
 62
    3
 10
339.63549640416022
 20
596.10720756684384
 11
343.96993640416258
 21
596.10720756684384
  0
ARC
  8
_0-3_躯体と製品
  6
CONTINUOUS
 62
    3
 10
339.63549640416022
 20
599.10720756684395
 40
3
 50
244.98310699999996
 51
270
  0
LINE
  8
_0-3_躯体と製品
  6
CONTINUOUS
 62
    3
 10
338.36683640416595
 20
596.38866756684376
 11
325.70129640415689
 21
602.29924756684352
  0
LINE
  8
_0-3_躯体と製品
  6
PLINE2
 62
    6
 10
385.97693640415673
 20
575.80370756684385
 11
372.75897640416588
 21
562.58574756684322
  0
LINE
  8
_0-3_躯体と製品
  6
PLINE2
 62
    6
 10
421.33227640416226
 20
575.80370756684385
 11
389.09403640415621
 21
543.56546756684349
  0
TEXT
  8
_0-4_図面枠
 62
    7
 10
-589.29958359583998
 20
1220.3389075668435
 40
60
 41
0.7999999999999996
 50
0
  1
妻板
  0
LINE
  8
_0-4_図面枠
  6
CONTINUOUS
 62
    3
 10
-589.29970359584331
 20
1210.3389275668435
 11
-467.74990359584081
 21
1210.3389275668435
  0
LINE
  8
_0-3_躯体と製品
  6
CONTINUOUS
 62
    3
 10
-734.95248359583547
 20
1459.7471475668438
 11
-721.73122359583522
 21
1455.1430075668436
  0
LINE
  8
_0-3_躯体と製品
  6
CONTINUOUS
 62
    3
 10
-726.03978359584289
 20
1464.0557075668439
 11
-730.64392359583599
 21
1450.8344475668434
  0
TEXT
  8
_0-4_図面枠
 62
    7
 10
163.29695640415957
 20
1369.7202895884811
 40
60.000000000000007
 41
0.8000000000000002
 50
0.0000099999993779
  1
妻板補強
  0
LINE
  8
_0-4_図面枠
  6
CONTINUOUS
 62
    3
 10
380.89647640416115
 20
1359.7202275668442
 11
171.0040764041587
 21
1359.7202275668442
  0
LINE
  8
_0-4_図面枠
  6
CONTINUOUS
 62
    3
 10
384.20629640416155
 20
1588.0411075668435
 11
273.00445640415819
 21
1588.0411075668435
  0
TEXT
  8
_0-4_図面枠
 62
    7
 10
281.80627640416782
 20
1598.0412296946724
 40
60.000000000000007
 41
0.8000000000000002
 50
0.0000099999993779
  1
妻板
  0
LINE
  8
_0-4_図面枠
  6
CONTINUOUS
 62
    3
 10
1088.4305364041575
 20
395.9935275668438
 11
1211.8998164041659
 21
182.13848756684433
  0
LINE
  8
_0-3_躯体と製品
  6
CONTINUOUS
 62
    3
 10
2553.9699364041571
 20
526.23128756684321
 11
2553.9699364041571
 21
193.66824756684332
  0
LINE
  8
_0-3_躯体と製品
  6
CONTINUOUS
 62
    3
 10
2480.2632764041573
 20
436.23128756684321
 11
2480.2632764041573
 21
193.66824756684332
  0
LINE
  8
_0-3_躯体と製品
  6
CONTINUOUS
 62
    3
 10
2303.9699364041571
 20
526.23128756684321
 11
2303.8758964041572
 21
193.66824756684332
  0
LINE
  8
_0-3_躯体と製品
  6
CONTINUOUS
 62
    3
 10
2253.9699364041571
 20
526.23128756684321
 11
2253.9699364041571
 21
193.66824756684332
  0
LINE
  8
_0-3_躯体と製品
  6
CONTINUOUS
 62
    3
 10
2376.9699364041662
 20
436.23128756684321
 11
2376.9699364041662
 21
193.66824756684332
  0
LINE
  8
_0-3_躯体と製品
  6
CONTINUOUS
 62
    3
 10
2076.9699364041662
 20
193.66824756684332
 11
2076.9699364041662
 21
436.23128756684321
  0
LINE
  8
_0-3_躯体と製品
  6
CONTINUOUS
 62
    3
 10
2180.2228764041574
 20
193.66824756684332
 11
2180.2228764041574
 21
436.23128756684321
  0
LINE
  8
_0-3_躯体と製品
  6
CONTINUOUS
 62
    3
 10
1880.9699364041571
 20
436.23128756684321
 11
1880.9699364041571
 21
193.66824756684332
  0
LINE
  8
_0-3_躯体と製品
  6
CONTINUOUS
 62
    3
 10
1776.9699364041662
 20
436.23128756684321
 11
1776.9699364041662
 21
193.66824756684332
  0
LINE
  8
_0-3_躯体と製品
  6
CONTINUOUS
 62
    3
 10
1580.9699364041626
 20
436.23128756684321
 11
1580.9699364041626
 21
193.66824756684332
  0
LINE
  8
_0-3_躯体と製品
  6
CONTINUOUS
 62
    3
 10
1476.9699364041662
 20
436.23128756684321
 11
1476.9699364041662
 21
193.66824756684332
  0
LINE
  8
_0-3_躯体と製品
  6
CONTINUOUS
 62
    3
 10
2676.9699364041662
 20
506.10720756684384
 11
2676.9699364041662
 21
193.66824756684332
  0
LINE
  8
_0-3_躯体と製品
  6
CONTINUOUS
 62
    3
 10
2780.9699364041571
 20
506.10720756684384
 11
2780.9699364041571
 21
193.66824756684332
  0
LINE
  8
_0-3_躯体と製品
  6
CONTINUOUS
 62
    3
 10
2267.8104164041561
 20
193.66824756684332
 11
2267.8104164041561
 21
540.47712756684371
  0
LINE
  8
_0-3_躯体と製品
  6
CONTINUOUS
 62
    3
 10
2289.9346164041563
 20
540.12610756684376
 11
2289.9346164041563
 21
193.66824756684332
  0
LINE
  8
_0-3_躯体と製品
  6
CONTINUOUS
 62
    3
 10
2590.2780964041576
 20
193.66824756684332
 11
2590.2780964041576
 21
540.72092756684378
  0
LINE
  8
_0-3_躯体と製品
  6
CONTINUOUS
 62
    3
 10
2567.6285564041573
 20
540.89512756684371
 11
2567.6285564041573
 21
198.54080756684334
  0
LINE
  8
_0-3_躯体と製品
  6
CONTINUOUS
 62
    3
 10
2604.2193764041567
 20
552.23128756684355
 11
2604.2193764041567
 21
193.66824756684332
  0
LINE
  8
_0-3_躯体と製品
  6
CONTINUOUS
 62
    3
 10
2003.9699364041571
 20
526.23128756684321
 11
2003.8758964041572
 21
193.66824756684332
  0
LINE
  8
_0-3_躯体と製品
  6
CONTINUOUS
 62
    3
 10
1953.9699364041571
 20
526.23128756684321
 11
1953.9699364041571
 21
193.66824756684332
  0
LINE
  8
_0-3_躯体と製品
  6
CONTINUOUS
 62
    3
 10
1989.9346164041563
 20
539.55314756684368
 11
1989.9346164041563
 21
193.66824756684332
  0
LINE
  8
_0-3_躯体と製品
  6
CONTINUOUS
 62
    3
 10
1967.8104164041561
 20
193.66824756684332
 11
1967.8104164041561
 21
540.47712756684371
  0
LINE
  8
_0-3_躯体と製品
  6
CONTINUOUS
 62
    3
 10
1703.9699364041644
 20
526.23128756684321
 11
1703.875896404159
 21
193.66824756684332
  0
LINE
  8
_0-3_躯体と製品
  6
CONTINUOUS
 62
    3
 10
1653.9699364041626
 20
526.23128756684321
 11
1653.9699364041626
 21
193.66824756684332
  0
LINE
  8
_0-3_躯体と製品
  6
CONTINUOUS
 62
    3
 10
1667.8104164041615
 20
193.66824756684332
 11
1667.8104164041615
 21
540.47712756684371
  0
LINE
  8
_0-3_躯体と製品
  6
CONTINUOUS
 62
    3
 10
1689.9346164041599
 20
539.55314756684368
 11
1689.9346164041599
 21
193.66824756684332
  0
LINE
  8
_0-4_図面枠
  6
CONTINUOUS
 62
    3
 10
582.87289640415838
 20
342.82436756684331
 11
611.53315640415713
 21
313.1833475668443
  0
LINE
  8
_0-4_図面枠
  6
CONTINUOUS
 62
    3
 10
582.87289640415838
 20
342.82436756684331
 11
706.34217640415955
 21
128.96932756684441
  0
LINE
  8
_0-3_躯体と製品
  6
CONTINUOUS
 62
    3
 10
858.96993640416258
 20
1659.6960075668439
 11
858.96993640416258
 21
293.75500756684437
  0
LINE
  8
_0-3_躯体と製品
  6
CONTINUOUS
 62
    3
 10
878.96993640416258
 20
293.75500756684437
 11
878.96993640416258
 21
1659.6960075668439
  0
LINE
  8
_0-3_躯体と製品
  6
CONTINUOUS
 62
    3
 10
1463.9699364041644
 20
1707.4141675668438
 11
1463.9699364041644
 21
193.66824756684332
  0
LINE
  8
_0-3_躯体と製品
  6
CONTINUOUS
 62
    3
 10
1433.9699364041626
 20
193.66824756684332
 11
1433.9699364041626
 21
1706.0364075668435
  0
LINE
  8
_0-3_躯体と製品
  6
PLINE3
 62
    3
 10
2188.9699364041571
 20
1662.2109675668435
 11
2188.9699364041571
 21
148.65076756684334
  0
LINE
  8
_0-3_躯体と製品
  6
PLINE3
 62
    3
 10
1868.9699364041571
 20
1662.2109675668435
 11
1868.9699364041571
 21
148.65076756684334
  0
LINE
  8
_0-3_躯体と製品
  6
CONTINUOUS
 62
    3
 10
2018.9699364041571
 20
1662.2109675668435
 11
2018.9699364041571
 21
148.65076756684334
  0
LINE
  8
_0-3_躯体と製品
  6
CONTINUOUS
 62
    3
 10
2038.9699364041571
 20
148.65076756684334
 11
2038.9699364041571
 21
1662.2109675668435
  0
LINE
  8
_0-4_図面枠
  6
CONTINUOUS
 62
    7
 10
4292.1676164041473
 20
-2373.0000124331555
 11
4292.1676164041473
 21
2966.9999875668436
  0
LINE
  8
_0-4_図面枠
  6
CONTINUOUS
 62
    4
 10
1577.4712564041583
 20
-1667.8287124331557
 11
1577.4712564041583
 21
-617.82871243315572
  0
LINE
  8
_0-4_図面枠
  6
CONTINUOUS
 62
    3
 10
1277.4712564041583
 20
-617.82871243315572
 11
1277.4712564041583
 21
-1667.8287124331557
  0
LINE
  8
_0-4_図面枠
  6
CONTINUOUS
 62
    3
 10
627.47125640415834
 20
-617.82871243315572
 11
627.47125640415834
 21
-1667.8287124331557
  0
LINE
  8
_0-4_図面枠
  6
CONTINUOUS
 62
    3
 10
1027.4712564041583
 20
-617.82871243315572
 11
1027.4712564041583
 21
-1667.8287124331557
  0
LINE
  8
_0-4_図面枠
  6
CONTINUOUS
 62
    4
 10
1577.4712564041583
 20
-2267.8287124331555
 11
1577.4712564041583
 21
-1667.8287124331557
  0
TEXT
  8
_0-4_図面枠
 62
    7
 10
707.05417640416454
 20
-2243.4402724331567
 40
60
 41
0.8
 50
0
  1
３０００
  0
TEXT
  8
_0-4_図面枠
 62
    7
 10
1088.8461764041567
 20
-2250.6813324331561
 40
60
 41
0.7999999999999999
 50
0
  1
１．０
  0
TEXT
  8
_0-4_図面枠
 62
    7
 10
1327.4911964041603
 20
-2229.6188524331556
 40
60
 41
0.7999999999999999
 50
0
  1
Ｌ型鋼
  0
LINE
  8
_0-4_図面枠
  6
CONTINUOUS
 62
    3
 10
1277.4712564041583
 20
-1667.8287124331557
 11
1277.4712564041583
 21
-2267.8287124331555
  0
LINE
  8
_0-4_図面枠
  6
CONTINUOUS
 62
    3
 10
627.47125640415834
 20
-1667.8287124331557
 11
627.47125640415834
 21
-2267.8287124331555
  0
LINE
  8
_0-4_図面枠
  6
CONTINUOUS
 62
    3
 10
1027.4712564041583
 20
-1667.8287124331557
 11
1027.4712564041583
 21
-2267.8287124331555
  0
TEXT
  8
_0-4_図面枠
 62
    7
 10
715.65403640415934
 20
-1795.7024524331555
 40
60
 41
0.8
 50
0
  1
１８００
  0
TEXT
  8
_0-4_図面枠
 62
    7
 10
714.8636364041613
 20
-2087.2526724331565
 40
60
 41
0.8000000000000001
 50
0
  1
２４００
  0
TEXT
  8
_0-4_図面枠
 62
    7
 10
723.54039640415795
 20
-1938.0067724331557
 40
60
 41
0.8
 50
0
  1
２０００
  0
TEXT
  8
_0-4_図面枠
 62
    7
 10
707.05479640416161
 20
-1643.4404524331558
 40
60
 41
0.8
 50
0
  1
１５００
  0
TEXT
  8
_0-4_図面枠
 62
    7
 10
714.86423640416251
 20
-1487.2528724331567
 40
60
 41
0.8
 50
0
  1
１２００
  0
TEXT
  8
_0-4_図面枠
 62
    7
 10
1088.8461764041567
 20
-1800.6813924331555
 40
60
 41
0.7999999999999999
 50
0
  1
０．８
  0
TEXT
  8
_0-4_図面枠
 62
    7
 10
1327.4911964041603
 20
-1929.6188524331565
 40
60
 41
0.7999999999999999
 50
0
  1
Ｌ型鋼
  0
TEXT
  8
_0-4_図面枠
 62
    7
 10
1327.4911964041603
 20
-2079.6188524331565
 40
60
 41
0.7999999999999999
 50
0
  1
Ｌ型鋼
  0
TEXT
  8
_0-4_図面枠
 62
    7
 10
1088.8461764041567
 20
-2100.6813324331561
 40
60
 41
0.7999999999999999
 50
0
  1
１．０
  0
TEXT
  8
_0-4_図面枠
 62
    7
 10
1088.8461764041567
 20
-1950.6813324331561
 40
60
 41
0.7999999999999999
 50
0
  1
０．８
  0
TEXT
  8
_0-4_図面枠
 62
    7
 10
1327.4911964041603
 20
-1779.6189324331563
 40
60
 41
0.7999999999999999
 50
0
  1
Ｌ型鋼
  0
TEXT
  8
_0-4_図面枠
 62
    7
 10
1335.055276404164
 20
-1483.2834524331558
 40
60
 41
0.7999999999999999
 50
0
  1
Ｌ型鋼
  0
TEXT
  8
_0-4_図面枠
 62
    7
 10
1335.055276404164
 20
-1633.2834524331558
 40
60
 41
0.7999999999999999
 50
0
  1
Ｌ型鋼
  0
TEXT
  8
_0-4_図面枠
 62
    7
 10
1088.8467964041592
 20
-1650.6815124331556
 40
60
 41
0.8000000000000003
 50
0
  1
０．８
  0
TEXT
  8
_0-4_図面枠
 62
    7
 10
1088.8467964041592
 20
-1500.6815124331556
 40
60
 41
0.8000000000000003
 50
0
  1
０．６
  0
TEXT
  8
_0-4_図面枠
 62
    7
 10
1149.2783164041612
 20
-485.10389243315558
 40
60
 41
0.8000000000000001
 50
0
  1
ＳＣ標準型　側面図
  0
LINE
  8
_0-4_図面枠
  6
CONTINUOUS
 62
    3
 10
1779.6535364041556
 20
-389.93511243315675
 11
1136.0865364041638
 21
-389.93511243315675
  0
LINE
  8
_0-4_図面枠
  6
CONTINUOUS
 62
    3
 10
1136.0865364041638
 20
-495.46879243315561
 11
1779.6535364041556
 21
-495.46879243315561
  0
TEXT
  8
_0-4_図面枠
 62
    7
 10
723.54099640416098
 20
-1338.0068724331554
 40
60
 41
0.8
 50
0
  1
１０００
  0
TEXT
  8
_0-4_図面枠
 62
    7
 10
794.69333640416153
 20
-1195.7024924331556
 40
60
 41
0.8000000000000003
 50
0
  1
９００
  0
TEXT
  8
_0-4_図面枠
 62
    7
 10
796.4285764041615
 20
-1038.6469924331566
 40
60
 41
0.8000000000000002
 50
0
  1
８００
  0
TEXT
  8
_0-4_図面枠
 62
    7
 10
796.4285764041615
 20
-897.21053243315669
 40
60
 41
0.8000000000000002
 50
0
  1
６００
  0
TEXT
  8
_0-4_図面枠
 62
    7
 10
830.33727640415964
 20
-726.29561243315652
 40
60
 41
0.8000000000000006
 50
0
  1
Ｅ
  0
TEXT
  8
_0-4_図面枠
 62
    7
 10
1335.055276404164
 20
-1183.2833724331567
 40
60
 41
0.7999999999999999
 50
0
  1
Ｌ型鋼
  0
TEXT
  8
_0-4_図面枠
 62
    7
 10
1335.055276404164
 20
-1333.2833724331554
 40
60
 41
0.7999999999999999
 50
0
  1
Ｌ型鋼
  0
TEXT
  8
_0-4_図面枠
 62
    7
 10
1088.8467964041592
 20
-1200.6814324331556
 40
60
 41
0.8000000000000003
 50
0
  1
０．６
  0
TEXT
  8
_0-4_図面枠
 62
    7
 10
1088.8467964041592
 20
-1350.6815124331556
 40
60
 41
0.8000000000000003
 50
0
  1
０．６
  0
TEXT
  8
_0-4_図面枠
 62
    7
 10
1088.8467964041592
 20
-1050.6814324331556
 40
60
 41
0.8000000000000003
 50
0
  1
０．６
  0
TEXT
  8
_0-4_図面枠
 62
    7
 10
1366.1191364041588
 20
-1041.9512724331555
 40
60
 41
0.7999999999999993
 50
0
  1
ＦＢ
  0
TEXT
  8
_0-4_図面枠
 62
    7
 10
1358.4708164041585
 20
-734.28541243315544
 40
60
 41
0.8000000000000006
 50
0
  1
支柱
  0
TEXT
  8
_0-4_図面枠
 62
    7
 10
1084.4168564041574
 20
-735.08451243315562
 40
60
 41
0.8000000000000006
 50
0
  1
板厚
  0
TEXT
  8
_0-4_図面枠
 62
    7
 10
1088.8467964041592
 20
-900.68129243315548
 40
60
 41
0.8000000000000003
 50
0
  1
０．６
  0
TEXT
  8
_0-4_図面枠
 62
    7
 10
1366.1191364041588
 20
-891.95127243315551
 40
60
 41
0.7999999999999993
 50
0
  1
ＦＢ
  0
TEXT
  8
_0-4_図面枠
 62
    7
 10
706.34251640416551
 20
138.96928756684429
 40
59.999999999999993
 41
0.8000000000000004
 50
0.0000099999993779
  1
受枠
  0
LINE
  8
_0-4_図面枠
  6
CONTINUOUS
 62
    3
 10
706.34217640415955
 20
128.96932756684441
 11
801.58687640416247
 21
128.96932756684441
  0
LINE
  8
_0-4_図面枠
  6
CONTINUOUS
 62
    3
 10
1136.0865364041638
 20
-389.93511243315675
 11
1136.0865364041638
 21
-495.46879243315561
  0
LINE
  8
_0-4_図面枠
  6
CONTINUOUS
 62
    3
 10
1211.8998164041659
 20
182.13848756684433
 11
1364.9668164041577
 21
182.13848756684433
  0
TEXT
  8
_0-4_図面枠
 62
    7
 10
1211.9003764041627
 20
192.13852756684446
 40
60.000000000000007
 41
0.7999999999999998
 50
0
  1
添母屋
  0
LINE
  8
_0-4_図面枠
  6
CONTINUOUS
 62
    3
 10
1779.6535364041556
 20
-495.46879243315561
 11
1779.6535364041556
 21
-389.93511243315675
  0
LINE
  8
_0-4_図面枠
  6
CONTINUOUS
 62
    3
 10
1792.1048964041638
 20
63.028687566844383
 11
1974.5144364041571
 21
63.028687566844383
  0
TEXT
  8
_0-4_図面枠
 62
    7
 10
1796.829276404158
 20
68.698907566844355
 40
59.999999999999979
 41
0.8000000000000001
 50
0.0000099999993666
  1
屋根材
  0
LINE
  8
_0-4_図面枠
  6
CONTINUOUS
 62
    3
 10
1694.3451364041612
 20
232.35358756684445
 11
1792.1048964041638
 21
63.028687566844383
  0
LINE
  8
_0-4_図面枠
  6
CONTINUOUS
 62
    3
 10
1694.3451364041612
 20
232.35358756684445
 11
1723.0053764041622
 21
202.71256756684329
  0
TEXT
  8
_0-4_図面枠
 62
    7
 10
2002.949276404157
 20
2722.1663075668439
 40
199.99999999999955
 41
0.8000000000000018
 50
0
  1
（折版　棟割）
  0
LINE
  8
_0-3_躯体と製品
  6
PLINE2
 62
    3
 10
1463.9699364041644
 20
1613.1950475668436
 11
2018.9699364041571
 21
1613.1950475668436
  0
LINE
  8
_0-3_躯体と製品
  6
CONTINUOUS
 62
    3
 10
1463.9699364041644
 20
1587.107207566844
 11
2018.9699364041571
 21
1587.107207566844
  0
LINE
  8
_0-3_躯体と製品
  6
CONTINUOUS
 62
    3
 10
1463.9699364041644
 20
1453.0846475668438
 11
2018.9699364041571
 21
1453.0846475668438
  0
LINE
  8
_0-3_躯体と製品
  6
CONTINUOUS
 62
    3
 10
1463.9699364041644
 20
1404.0397275668438
 11
2018.9699364041571
 21
1404.0397275668438
  0
LINE
  8
_0-3_躯体と製品
  6
CONTINUOUS
 62
    3
 10
1463.9699364041644
 20
997.10720756684407
 11
2018.9699364041571
 21
997.10720756684407
  0
LINE
  8
_0-3_躯体と製品
  6
CONTINUOUS
 62
    3
 10
1463.9699364041644
 20
968.63844756684352
 11
2018.9699364041571
 21
968.63844756684352
  0
LINE
  8
_0-3_躯体と製品
  6
CONTINUOUS
 62
    3
 10
1463.9699364041644
 20
726.60720756684395
 11
2018.9699364041571
 21
726.60720756684395
  0
LINE
  8
_0-3_躯体と製品
  6
CONTINUOUS
 62
    3
 10
1463.9699364041644
 20
781.10720756684384
 11
2018.9699364041571
 21
781.10720756684384
  0
LINE
  8
_0-3_躯体と製品
  6
CONTINUOUS
 62
    3
 10
1463.9699364041644
 20
579.06718756684381
 11
2018.9699364041571
 21
579.06718756684381
  0
LINE
  8
_0-3_躯体と製品
  6
CONTINUOUS
 62
    7
 10
1463.9699364041644
 20
554.22134756684352
 11
2018.9699364041571
 21
554.22134756684352
  0
LINE
  8
_0-3_躯体と製品
  6
PLINE2
 62
    6
 10
1550.4538364041582
 20
436.23128756684321
 11
1668.4439164041596
 21
554.22134756684352
  0
LINE
  8
_0-3_躯体と製品
  6
CONTINUOUS
 62
    3
 10
1659.5730564041605
 20
526.51272756684375
 11
1667.8104164041615
 21
530.35684756684361
  0
ARC
  8
_0-3_躯体と製品
  6
CONTINUOUS
 62
    3
 10
1674.6730964041581
 20
542.14876756684328
 40
7.155219999999999
 50
150.21503199999719
 51
190.09074899999942
  0
LINE
  8
_0-3_躯体と製品
  6
CONTINUOUS
 62
    3
 10
1463.9699364041644
 20
1627.107207566844
 11
2018.9699364041571
 21
1627.107207566844
  0
LINE
  8
_0-3_躯体と製品
  6
CONTINUOUS
 62
    3
 10
1053.9699364041644
 20
1343.5602475668436
 11
1053.9699364041644
 21
1047.5636875668438
  0
LINE
  8
_0-3_躯体と製品
  6
CONTINUOUS
 62
    3
 10
1009.9699364041589
 20
341.57620756684435
 11
1009.9699364041589
 21
1581.107207566844
  0
LINE
  8
_0-3_躯体と製品
  6
CONTINUOUS
 62
    3
 10
733.96993640416258
 20
1343.5602475668436
 11
733.96993640416258
 21
1047.5636875668438
  0
LINE
  8
_0-3_躯体と製品
  6
CONTINUOUS
 62
    3
 10
689.96993640415894
 20
338.57620756684446
 11
689.96993640415894
 21
1581.107207566844
  0
LINE
  8
_0-3_躯体と製品
  6
CONTINUOUS
 62
    3
 10
1003.9699364041626
 20
1436.7462675668435
 11
1003.9699364041626
 21
341.57620756684435
  0
LINE
  8
_0-3_躯体と製品
  6
CONTINUOUS
 62
    3
 10
683.96993640416258
 20
1436.7462675668435
 11
683.96993640416258
 21
338.57620756684446
  0
LINE
  8
_0-3_躯体と製品
  6
CONTINUOUS
 62
    7
 10
518.96993640416258
 20
624.10356756684348
 11
518.96993640416258
 21
1627.107207566844
  0
LINE
  8
_0-3_躯体と製品
  6
PLINE3
 62
    3
 10
1028.9699364041626
 20
1662.2109675668435
 11
1028.9699364041626
 21
338.57620756684446
  0
LINE
  8
_0-3_躯体と製品
  6
PLINE3
 62
    3
 10
708.96993640416258
 20
1662.2109675668435
 11
708.96993640416258
 21
338.57620756684446
  0
LINE
  8
_0-3_躯体と製品
  6
CONTINUOUS
 62
    3
 10
1060.3873364041647
 20
1047.5636875668438
 11
1009.9699364041589
 21
1047.5636875668438
  0
ARC
  8
_0-3_躯体と製品
  6
CONTINUOUS
 62
    3
 10
1057.387336404161
 20
1044.5636875668438
 40
3
 50
270
 51
0
  0
LINE
  8
_0-3_躯体と製品
  6
CONTINUOUS
 62
    3
 10
1053.9699364041644
 20
1157.0868875668436
 11
1433.9699364041626
 21
1157.0868875668436
  0
LINE
  8
_0-3_躯体と製品
  6
CONTINUOUS
 62
    3
 10
1433.9699364041626
 20
1142.0868875668436
 11
1053.9699364041644
 21
1142.0868875668436
  0
LINE
  8
_0-3_躯体と製品
  6
CONTINUOUS
 62
    3
 10
878.96993640416258
 20
328.77038756684328
 11
1433.9699364041626
 21
328.77038756684328
  0
LINE
  8
_0-3_躯体と製品
  6
PLINE2
 62
    3
 10
1053.9699364041644
 20
341.57620756684435
 11
1433.9699364041626
 21
341.57620756684435
  0
LINE
  8
_0-3_躯体と製品
  6
PLINE2
 62
    3
 10
1433.9699364041626
 20
441.95404756684366
 11
1053.9699364041644
 21
441.95404756684366
  0
LINE
  8
_0-3_躯体と製品
  6
PLINE2
 62
    3
 10
1053.9699364041644
 20
358.57620756684435
 11
1433.9699364041626
 21
358.57620756684435
  0
LINE
  8
_0-3_躯体と製品
  6
PLINE2
 62
    3
 10
1433.9699364041626
 20
424.95404756684388
 11
1053.9699364041644
 21
424.95404756684388
  0
LINE
  8
_0-3_躯体と製品
  6
PLINE2
 62
    6
 10
1054.8293564041596
 20
555.95244756684349
 11
1074.6806164041554
 21
575.80370756684385
  0
LINE
  8
_0-3_躯体と製品
  6
PLINE2
 62
    6
 10
1054.8293564041596
 20
520.59710756684376
 11
1110.035956404161
 21
575.80370756684385
  0
LINE
  8
_0-3_躯体と製品
  6
PLINE2
 62
    6
 10
1054.8293564041596
 20
485.24176756684324
 11
1145.3912964041592
 21
575.80370756684385
  0
LINE
  8
_0-3_躯体と製品
  6
PLINE2
 62
    6
 10
1125.4821364041582
 20
469.83568756684372
 11
1054.8293564041596
 21
540.4884675668435
  0
LINE
  8
_0-3_躯体と製品
  6
PLINE2
 62
    6
 10
1100.158776404156
 20
459.80370756684374
 11
1054.8293564041596
 21
505.13312756684354
  0
LINE
  8
_0-3_躯体と製品
  6
CONTINUOUS
 62
    3
 10
1121.8293564041596
 20
459.80370756684374
 11
1053.9699364041644
 21
459.80370756684374
  0
LINE
  8
_0-3_躯体と製品
  6
CONTINUOUS
 62
    3
 10
1053.9699364041644
 20
579.06718756684381
 11
1433.9699364041626
 21
579.06718756684381
  0
LINE
  8
_0-3_躯体と製品
  6
CONTINUOUS
 62
    3
 10
1054.8293564041596
 20
575.80370756684385
 11
1434.8293564041596
 21
575.80370756684385
  0
LINE
  8
_0-3_躯体と製品
  6
PLINE2
 62
    6
 10
1141.7512964041653
 20
488.92186756684362
 11
1054.8694564041562
 21
575.80370756684385
  0
LINE
  8
_0-3_躯体と製品
  6
CONTINUOUS
 62
    3
 10
1433.9699364041626
 20
444.95404756684377
 11
1053.9699364041644
 21
444.95404756684377
  0
LINE
  8
_0-3_躯体と製品
  6
CONTINUOUS
 62
    3
 10
878.96993640416258
 20
338.57620756684446
 11
1433.9699364041626
 21
338.57620756684446
  0
LINE
  8
_0-4_図面枠
  6
CONTINUOUS
 62
    3
 10
1029.9312364041616
 20
828.57242756684354
 11
1058.5914964041585
 21
798.9314075668434
  0
LINE
  8
_0-4_図面枠
  6
CONTINUOUS
 62
    3
 10
1029.9312364041616
 20
828.57242756684354
 11
1113.41171640416
 21
683.98000756684348
  0
LINE
  8
_0-3_躯体と製品
  6
CONTINUOUS
 62
    3
 10
1053.9699364041644
 20
1041.5636875668436
 11
1053.9699364041644
 21
338.57620756684446
  0
LINE
  8
_0-3_躯体と製品
  6
CONTINUOUS
 62
    3
 10
733.96993640416258
 20
1041.5636875668436
 11
733.96993640416258
 21
338.57620756684446
  0
LINE
  8
_0-3_躯体と製品
  6
CONTINUOUS
 62
    3
 10
618.96993640416258
 20
328.77038756684328
 11
858.96993640416258
 21
328.77038756684328
  0
LINE
  8
_0-3_躯体と製品
  6
PLINE2
 62
    3
 10
858.96993640416258
 20
341.57620756684435
 11
733.96993640416258
 21
341.57620756684435
  0
LINE
  8
_0-3_躯体と製品
  6
PLINE2
 62
    3
 10
733.96993640416258
 20
441.95404756684366
 11
858.96993640416258
 21
441.95404756684366
  0
LINE
  8
_0-3_躯体と製品
  6
PLINE2
 62
    3
 10
733.96993640416258
 20
424.95404756684388
 11
858.96993640416258
 21
424.95404756684388
  0
LINE
  8
_0-3_躯体と製品
  6
PLINE2
 62
    3
 10
858.96993640416258
 20
358.57620756684435
 11
733.96993640416258
 21
358.57620756684435
  0
LINE
  8
_0-3_躯体と製品
  6
CONTINUOUS
 62
    3
 10
733.96993640416258
 20
579.06718756684381
 11
858.96993640416258
 21
579.06718756684381
  0
LINE
  8
_0-3_躯体と製品
  6
PLINE2
 62
    6
 10
734.82935640416144
 20
554.15048756684394
 11
756.48257640415977
 21
575.80370756684385
  0
LINE
  8
_0-3_躯体と製品
  6
PLINE2
 62
    6
 10
734.82935640416144
 20
518.79514756684409
 11
791.8379164041653
 21
575.80370756684385
  0
LINE
  8
_0-3_躯体と製品
  6
PLINE2
 62
    6
 10
734.82935640416144
 20
483.43980756684357
 11
827.19325640415991
 21
575.80370756684385
  0
LINE
  8
_0-3_躯体と製品
  6
PLINE2
 62
    6
 10
817.31605640416092
 20
459.80370756684374
 11
734.82935640416144
 21
542.29042756684362
  0
LINE
  8
_0-3_躯体と製品
  6
PLINE2
 62
    6
 10
781.96071640416449
 20
459.80370756684374
 11
734.82935640416144
 21
506.93508756684378
  0
LINE
  8
_0-3_躯体と製品
  6
PLINE2
 62
    6
 10
833.76903640416458
 20
478.70608756684385
 11
736.67139640416099
 21
575.80370756684385
  0
LINE
  8
_0-3_躯体と製品
  6
PLINE2
 62
    6
 10
746.12923640415829
 20
459.38436756684337
 11
858.96993640416258
 21
572.22506756684379
  0
LINE
  8
_0-3_躯体と製品
  6
CONTINUOUS
 62
    3
 10
733.96993640416258
 20
444.95404756684377
 11
858.96993640416258
 21
444.95404756684377
  0
LINE
  8
_0-3_躯体と製品
  6
CONTINUOUS
 62
    3
 10
821.82935640415963
 20
459.80370756684374
 11
733.96993640416258
 21
459.80370756684374
  0
LINE
  8
_0-3_躯体と製品
  6
CONTINUOUS
 62
    3
 10
734.82935640416144
 20
575.80370756684385
 11
859.82935640416144
 21
575.80370756684385
  0
LINE
  8
_0-3_躯体と製品
  6
CONTINUOUS
 62
    3
 10
858.96993640416258
 20
338.57620756684446
 11
618.96993640416258
 21
338.57620756684446
  0
LINE
  8
_0-3_躯体と製品
  6
PLINE2
 62
    6
 10
667.86881640415959
 20
522.54528756684363
 11
684.82935640415963
 21
539.50582756684366
  0
LINE
  8
_0-3_躯体と製品
  6
PLINE2
 62
    6
 10
684.82935640415963
 20
521.57974756684337
 11
630.60537640416442
 21
575.80370756684385
  0
LINE
  8
_0-3_躯体と製品
  6
CONTINUOUS
 62
    3
 10
644.82935640415963
 20
549.80370756684374
 11
683.96993640416258
 21
504.22904756684375
  0
LINE
  8
_0-3_躯体と製品
  6
PLINE2
 62
    6
 10
562.7536364041589
 20
575.80370756684385
 11
493.05713640415706
 21
506.10720756684384
  0
LINE
  8
_0-3_躯体と製品
  6
PLINE2
 62
    6
 10
527.39829640416247
 20
575.80370756684385
 11
457.70179640416245
 21
506.10720756684384
  0
LINE
  8
_0-3_躯体と製品
  6
PLINE2
 62
    6
 10
478.29471640416341
 20
575.80370756684385
 11
531.14433640415882
 21
522.95408756684378
  0
LINE
  8
_0-3_躯体と製品
  6
CONTINUOUS
 62
    3
 10
593.96993640416258
 20
596.10720756684384
 11
520.9699364041644
 21
511.10720756684395
  0
LINE
  8
_0-3_躯体と製品
  6
CONTINUOUS
 62
    3
 10
568.96993640416258
 20
444.95404756684377
 11
618.96993640416258
 21
444.95404756684377
  0
LINE
  8
_0-3_躯体と製品
  6
CONTINUOUS
 62
    3
 10
568.96993640416258
 20
338.57620756684446
 11
618.96993640416258
 21
338.57620756684446
  0
LINE
  8
_0-3_躯体と製品
  6
CONTINUOUS
 62
    3
 10
571.96993640416622
 20
441.95404756684366
 11
615.96993640416258
 21
441.95404756684366
  0
LINE
  8
_0-3_躯体と製品
  6
CONTINUOUS
 62
    3
 10
615.96993640416258
 20
341.57620756684435
 11
571.96993640416622
 21
341.57620756684435
  0
LINE
  8
_0-3_躯体と製品
  6
CONTINUOUS
 62
    3
 10
568.96993640416258
 20
424.95404756684388
 11
568.96993640416258
 21
444.95404756684377
  0
LINE
  8
_0-3_躯体と製品
  6
CONTINUOUS
 62
    3
 10
571.96993640416622
 20
441.95404756684366
 11
571.96993640416622
 21
424.95404756684388
  0
LINE
  8
_0-3_躯体と製品
  6
CONTINUOUS
 62
    3
 10
571.96993640416622
 20
424.95404756684388
 11
568.96993640416258
 21
424.95404756684388
  0
LINE
  8
_0-3_躯体と製品
  6
CONTINUOUS
 62
    3
 10
568.96993640416258
 20
341.57620756684435
 11
568.96993640416258
 21
338.57620756684446
  0
LINE
  8
_0-3_躯体と製品
  6
CONTINUOUS
 62
    3
 10
571.96993640416622
 20
358.57620756684435
 11
571.96993640416622
 21
341.57620756684435
  0
LINE
  8
_0-3_躯体と製品
  6
CONTINUOUS
 62
    3
 10
568.96993640416258
 20
358.57620756684435
 11
571.96993640416622
 21
358.57620756684435
  0
LINE
  8
_0-3_躯体と製品
  6
CONTINUOUS
 62
    3
 10
568.96993640416258
 20
341.57620756684435
 11
568.96993640416258
 21
358.57620756684435
  0
LINE
  8
_0-3_躯体と製品
  6
CONTINUOUS
 62
    3
 10
520.9699364041644
 20
511.10720756684395
 11
520.9699364041644
 21
506.10720756684384
  0
LINE
  8
_0-3_躯体と製品
  6
CONTINUOUS
 62
    3
 10
615.96993640416258
 20
441.95404756684366
 11
615.96993640416258
 21
341.57620756684435
  0
LINE
  8
_0-3_躯体と製品
  6
PLINE2
 62
    3
 10
683.96993640416258
 20
341.57620756684435
 11
618.96993640416258
 21
341.57620756684435
  0
LINE
  8
_0-3_躯体と製品
  6
PLINE2
 62
    3
 10
683.96993640416258
 20
424.95404756684388
 11
618.96993640416258
 21
424.95404756684388
  0
LINE
  8
_0-3_躯体と製品
  6
PLINE2
 62
    3
 10
683.96993640416258
 20
358.57620756684435
 11
618.96993640416258
 21
358.57620756684435
  0
LINE
  8
_0-3_躯体と製品
  6
PLINE2
 62
    3
 10
683.96993640416258
 20
441.95404756684366
 11
618.96993640416258
 21
441.95404756684366
  0
LINE
  8
_0-3_躯体と製品
  6
CONTINUOUS
 62
    3
 10
683.96993640416258
 20
444.95404756684377
 11
618.96993640416258
 21
444.95404756684377
  0
LINE
  8
_0-3_躯体と製品
  6
CONTINUOUS
 62
    3
 10
599.57305640415871
 20
596.38866756684376
 11
612.23859640415867
 21
602.29924756684352
  0
LINE
  8
_0-3_躯体と製品
  6
CONTINUOUS
 62
    3
 10
600.43245640415989
 20
550.08516756684367
 11
613.09801640416663
 21
555.99574756684331
  0
LINE
  8
_0-3_躯体と製品
  6
CONTINUOUS
 62
    7
 10
519.96993640415894
 20
724.10356756684348
 11
519.96993640415894
 21
624.10356756684348
  0
LINE
  8
_0-3_躯体と製品
  6
CONTINUOUS
 62
    3
 10
518.96993640416258
 20
579.06718756684381
 11
579.33557640416257
 21
579.06718756684381
  0
LINE
  8
_0-3_躯体と製品
  6
PLINE2
 62
    6
 10
513.6500564041562
 20
575.80370756684385
 11
547.47939640416007
 21
541.97436756684351
  0
LINE
  8
_0-3_躯体と製品
  6
CONTINUOUS
 62
    3
 10
598.30439640416444
 20
596.10720756684384
 11
593.96993640416258
 21
596.10720756684384
  0
ARC
  8
_0-3_躯体と製品
  6
CONTINUOUS
 62
    3
 10
598.30439640416444
 20
599.10720756684395
 40
3
 50
270
 51
295.01689299999992
  0
LINE
  8
_0-3_躯体と製品
  6
CONTINUOUS
 62
    3
 10
599.16379640416199
 20
549.80370756684374
 11
594.82935640415963
 21
549.80370756684374
  0
ARC
  8
_0-3_躯体と製品
  6
CONTINUOUS
 62
    3
 10
599.16379640416199
 20
552.80370756684385
 40
3
 50
270
 51
295.01689299999992
  0
LINE
  8
_0-3_躯体と製品
  6
CONTINUOUS
 62
    3
 10
594.82935640415963
 20
549.80370756684374
 11
586.20295640415861
 21
539.75926756684339
  0
LINE
  8
_0-3_躯体と製品
  6
PLINE2
 62
    6
 10
549.00539640416173
 20
575.80370756684385
 11
563.81445640416132
 21
560.99464756684392
  0
LINE
  8
_0-3_躯体と製品
  6
CONTINUOUS
 62
    3
 10
507.66653640415825
 20
677.45832756684376
 11
532.66653640415825
 21
677.45832756684376
  0
LINE
  8
_0-3_躯体と製品
  6
CONTINUOUS
 62
    3
 10
618.96993640416258
 20
579.06718756684381
 11
683.96993640416258
 21
579.06718756684381
  0
LINE
  8
_0-3_躯体と製品
  6
PLINE2
 62
    6
 10
665.96071640415903
 20
575.80370756684385
 11
684.82935640415963
 21
556.93508756684378
  0
LINE
  8
_0-3_躯体と製品
  6
PLINE2
 62
    6
 10
651.61217640415998
 20
541.64398756684386
 11
685.77189640415418
 21
575.80370756684385
  0
LINE
  8
_0-3_躯体と製品
  6
CONTINUOUS
 62
    3
 10
619.82935640416144
 20
575.80370756684385
 11
684.82935640415963
 21
575.80370756684385
  0
LINE
  8
_0-3_躯体と製品
  6
CONTINUOUS
 62
    3
 10
643.96993640416258
 20
596.10720756684384
 11
643.96993640416258
 21
549.80370756684374
  0
LINE
  8
_0-3_躯体と製品
  6
PLINE2
 62
    6
 10
629.32955640416185
 20
554.71670756684398
 11
650.41655640416138
 21
575.80370756684385
  0
ARC
  8
_0-3_躯体と製品
  6
CONTINUOUS
 62
    3
 10
610.96993640416258
 20
605.01780756684377
 40
3
 50
295.01689299999992
 51
0
  0
ARC
  8
_0-3_躯体と製品
  6
CONTINUOUS
 62
    3
 10
614.67309640415624
 20
612.02470756684374
 40
7.155219999999999
 50
150.21503199999719
 51
190.09074899999942
  0
ARC
  8
_0-3_躯体と製品
  6
CONTINUOUS
 62
    3
 10
610.9549564041663
 20
603.65914756684401
 40
4.265979999999999
 50
44.87424399999265
 51
84.466247999999013
  0
ARC
  8
_0-3_躯体と製品
  6
CONTINUOUS
 62
    3
 10
611.79555640415856
 20
612.33550756684349
 40
4.4509999999999987
 50
200.57807999999753
 51
264.46624799999898
  0
LINE
  8
_0-3_躯体と製品
  6
CONTINUOUS
 62
    3
 10
613.97807640416431
 20
606.66902756684362
 11
613.96993640416258
 21
606.1877075668441
  0
LINE
  8
_0-3_躯体と製品
  6
CONTINUOUS
 62
    3
 10
618.96993640416258
 20
622.10720756684418
 11
617.52861640416268
 21
622.02046756684376
  0
LINE
  8
_0-3_躯体と製品
  6
CONTINUOUS
 62
    3
 10
617.52861640416268
 20
622.02046756684376
 11
616.11001640416362
 21
621.76162756684403
  0
LINE
  8
_0-3_躯体と製品
  6
CONTINUOUS
 62
    3
 10
616.11001640416362
 20
621.76162756684403
 11
614.7365164041621
 21
621.33474756684348
  0
LINE
  8
_0-3_躯体と製品
  6
CONTINUOUS
 62
    3
 10
614.7365164041621
 20
621.33474756684348
 11
613.42977640416211
 21
620.74658756684369
  0
LINE
  8
_0-3_躯体と製品
  6
CONTINUOUS
 62
    3
 10
613.42977640416211
 20
620.74658756684369
 11
612.21041640415933
 21
620.00638756684361
  0
LINE
  8
_0-3_躯体と製品
  6
CONTINUOUS
 62
    3
 10
612.21041640415933
 20
620.00638756684361
 11
611.09765640416117
 21
619.12586756684345
  0
LINE
  8
_0-3_躯体と製品
  6
CONTINUOUS
 62
    3
 10
611.09765640416117
 20
619.12586756684345
 11
610.10903640416291
 21
618.11886756684339
  0
LINE
  8
_0-3_躯体と製品
  6
CONTINUOUS
 62
    3
 10
610.10903640416291
 20
618.11886756684339
 11
609.26017640415739
 21
617.00130756684371
  0
LINE
  8
_0-3_躯体と製品
  6
CONTINUOUS
 62
    3
 10
609.26017640415739
 20
617.00130756684371
 11
608.56443640415819
 21
615.79078756684351
  0
LINE
  8
_0-3_躯体と製品
  6
CONTINUOUS
 62
    3
 10
608.56443640415819
 20
615.79078756684351
 11
608.46311640416388
 21
615.57902756684382
  0
LINE
  8
_0-3_躯体と製品
  6
CONTINUOUS
 62
    3
 10
613.96993640416258
 20
606.1877075668441
 11
613.96993640416258
 21
605.01780756684377
  0
ARC
  8
_0-3_躯体と製品
  6
CONTINUOUS
 62
    3
 10
626.96993640416622
 20
605.01780756684377
 40
3
 50
180
 51
244.98310699999996
  0
ARC
  8
_0-3_躯体と製品
  6
CONTINUOUS
 62
    3
 10
623.2667964041575
 20
612.02470756684374
 40
7.155219999999999
 50
349.90925100000067
 51
29.784968000002817
  0
ARC
  8
_0-3_躯体と製品
  6
CONTINUOUS
 62
    3
 10
626.9849164041625
 20
603.65914756684401
 40
4.265979999999999
 50
95.533752000000973
 51
135.1257560000073
  0
ARC
  8
_0-3_躯体と製品
  6
CONTINUOUS
 62
    3
 10
626.14433640416064
 20
612.33550756684349
 40
4.4509999999999987
 50
275.5337520000009
 51
339.42192000000227
  0
LINE
  8
_0-3_躯体と製品
  6
CONTINUOUS
 62
    3
 10
623.96179640416449
 20
606.66902756684362
 11
623.9699364041644
 21
606.1877075668441
  0
LINE
  8
_0-3_躯体と製品
  6
CONTINUOUS
 62
    3
 10
629.47677640416077
 20
615.57902756684382
 11
628.80797640415767
 21
616.80336756684324
  0
LINE
  8
_0-3_躯体と製品
  6
CONTINUOUS
 62
    3
 10
628.80797640415767
 20
616.80336756684324
 11
627.98403640415927
 21
617.93788756684376
  0
LINE
  8
_0-3_躯体と製品
  6
CONTINUOUS
 62
    3
 10
627.98403640415927
 20
617.93788756684376
 11
627.01793640416145
 21
618.96466756684401
  0
LINE
  8
_0-3_躯体と製品
  6
CONTINUOUS
 62
    3
 10
627.01793640416145
 20
618.96466756684401
 11
625.92491640416665
 21
619.86752756684393
  0
LINE
  8
_0-3_躯体と製品
  6
CONTINUOUS
 62
    3
 10
625.92491640416665
 20
619.86752756684393
 11
624.7221964041637
 21
620.6322475668436
  0
LINE
  8
_0-3_躯体と製品
  6
CONTINUOUS
 62
    3
 10
624.7221964041637
 20
620.6322475668436
 11
623.42877640416009
 21
621.24674756684351
  0
LINE
  8
_0-3_躯体と製品
  6
CONTINUOUS
 62
    3
 10
623.42877640416009
 20
621.24674756684351
 11
622.06503640416668
 21
621.70132756684336
  0
LINE
  8
_0-3_躯体と製品
  6
CONTINUOUS
 62
    3
 10
622.06503640416668
 20
621.70132756684336
 11
620.65247640415691
 21
621.98884756684333
  0
LINE
  8
_0-3_躯体と製品
  6
CONTINUOUS
 62
    3
 10
620.65247640415691
 20
621.98884756684333
 11
619.21339640415499
 21
622.10474756684346
  0
LINE
  8
_0-3_躯体と製品
  6
CONTINUOUS
 62
    3
 10
619.21339640415499
 20
622.10474756684346
 11
618.96993640416258
 21
622.10720756684418
  0
LINE
  8
_0-3_躯体と製品
  6
CONTINUOUS
 62
    3
 10
623.9699364041644
 20
606.1877075668441
 11
623.9699364041644
 21
605.01780756684377
  0
LINE
  8
_0-3_躯体と製品
  6
CONTINUOUS
 62
    3
 10
639.63549640416022
 20
596.10720756684384
 11
643.96993640416258
 21
596.10720756684384
  0
ARC
  8
_0-3_躯体と製品
  6
CONTINUOUS
 62
    3
 10
639.63549640416022
 20
599.10720756684395
 40
3
 50
244.98310699999996
 51
270
  0
LINE
  8
_0-3_躯体と製品
  6
CONTINUOUS
 62
    3
 10
638.36683640416595
 20
596.38866756684376
 11
625.70129640415689
 21
602.29924756684352
  0
LINE
  8
_0-3_躯体と製品
  6
CONTINUOUS
 62
    3
 10
643.96993640416258
 20
596.10720756684384
 11
647.4753764041634
 21
592.02554756684401
  0
ARC
  8
_0-3_躯体と製品
  6
CONTINUOUS
 62
    3
 10
611.82935640415963
 20
558.71430756684344
 40
3
 50
295.01689299999992
 51
0
  0
ARC
  8
_0-3_躯体と製品
  6
CONTINUOUS
 62
    3
 10
615.53249640415743
 20
565.72120756684421
 40
7.155219999999999
 50
150.21503199999719
 51
190.09074899999942
  0
ARC
  8
_0-3_躯体と製品
  6
CONTINUOUS
 62
    3
 10
611.81437640416334
 20
557.35564756684391
 40
4.265979999999999
 50
44.87424399999265
 51
84.466247999999013
  0
ARC
  8
_0-3_躯体と製品
  6
CONTINUOUS
 62
    3
 10
612.65495640415611
 20
566.03200756684384
 40
4.4509999999999987
 50
200.57807999999753
 51
264.46624799999898
  0
LINE
  8
_0-3_躯体と製品
  6
CONTINUOUS
 62
    3
 10
614.83749640416136
 20
560.36552756684341
 11
614.82935640415963
 21
559.88420756684388
  0
LINE
  8
_0-3_躯体と製品
  6
CONTINUOUS
 62
    3
 10
619.82935640416144
 20
575.80370756684385
 11
618.38801640415841
 21
575.71696756684344
  0
LINE
  8
_0-3_躯体と製品
  6
CONTINUOUS
 62
    3
 10
618.38801640415841
 20
575.71696756684344
 11
616.96941640415935
 21
575.45812756684381
  0
LINE
  8
_0-3_躯体と製品
  6
CONTINUOUS
 62
    3
 10
616.96941640415935
 20
575.45812756684381
 11
615.59591640416329
 21
575.03124756684338
  0
LINE
  8
_0-3_躯体と製品
  6
CONTINUOUS
 62
    3
 10
615.59591640416329
 20
575.03124756684338
 11
614.2891764041633
 21
574.44308756684347
  0
LINE
  8
_0-3_躯体と製品
  6
CONTINUOUS
 62
    3
 10
614.2891764041633
 20
574.44308756684347
 11
613.06981640415506
 21
573.70290756684381
  0
LINE
  8
_0-3_躯体と製品
  6
CONTINUOUS
 62
    3
 10
613.06981640415506
 20
573.70290756684381
 11
611.95705640416054
 21
572.82236756684324
  0
LINE
  8
_0-3_躯体と製品
  6
CONTINUOUS
 62
    3
 10
611.95705640416054
 20
572.82236756684324
 11
610.96845640415995
 21
571.81536756684363
  0
LINE
  8
_0-3_躯体と製品
  6
CONTINUOUS
 62
    3
 10
610.96845640415995
 20
571.81536756684363
 11
610.11957640415858
 21
570.69780756684349
  0
LINE
  8
_0-3_躯体と製品
  6
CONTINUOUS
 62
    3
 10
610.11957640415858
 20
570.69780756684349
 11
609.42383640415574
 21
569.48728756684341
  0
LINE
  8
_0-3_躯体と製品
  6
CONTINUOUS
 62
    3
 10
609.42383640415574
 20
569.48728756684341
 11
609.32251640416325
 21
569.27552756684361
  0
LINE
  8
_0-3_躯体と製品
  6
CONTINUOUS
 62
    3
 10
614.82935640415963
 20
559.88420756684388
 11
614.82935640415963
 21
558.71430756684344
  0
ARC
  8
_0-3_躯体と製品
  6
CONTINUOUS
 62
    3
 10
627.82935640416326
 20
558.71430756684344
 40
3
 50
180
 51
244.98310699999996
  0
ARC
  8
_0-3_躯体と製品
  6
CONTINUOUS
 62
    3
 10
624.12619640415869
 20
565.72120756684421
 40
7.155219999999999
 50
349.90925100000067
 51
29.784968000002817
  0
ARC
  8
_0-3_躯体と製品
  6
CONTINUOUS
 62
    3
 10
627.84433640415955
 20
557.35564756684391
 40
4.265979999999999
 50
95.533752000000973
 51
135.1257560000073
  0
ARC
  8
_0-3_躯体と製品
  6
CONTINUOUS
 62
    3
 10
627.00373640415637
 20
566.03200756684384
 40
4.4509999999999987
 50
275.5337520000009
 51
339.42192000000227
  0
LINE
  8
_0-3_躯体と製品
  6
CONTINUOUS
 62
    3
 10
624.82121640416153
 20
560.36552756684341
 11
624.82935640415963
 21
559.88420756684388
  0
LINE
  8
_0-3_躯体と製品
  6
CONTINUOUS
 62
    3
 10
630.33617640416196
 20
569.27552756684361
 11
629.66739640416563
 21
570.4998675668437
  0
LINE
  8
_0-3_躯体と製品
  6
CONTINUOUS
 62
    3
 10
629.66739640416563
 20
570.4998675668437
 11
628.84343640415682
 21
571.63438756684354
  0
LINE
  8
_0-3_躯体と製品
  6
CONTINUOUS
 62
    3
 10
628.84343640415682
 20
571.63438756684354
 11
627.87733640416263
 21
572.66116756684391
  0
LINE
  8
_0-3_躯体と製品
  6
CONTINUOUS
 62
    3
 10
627.87733640416263
 20
572.66116756684391
 11
626.78431640416238
 21
573.56402756684372
  0
LINE
  8
_0-3_躯体と製品
  6
CONTINUOUS
 62
    3
 10
626.78431640416238
 20
573.56402756684372
 11
625.58161640416256
 21
574.3287475668435
  0
LINE
  8
_0-3_躯体と製品
  6
CONTINUOUS
 62
    3
 10
625.58161640416256
 20
574.3287475668435
 11
624.28817640415946
 21
574.94324756684318
  0
LINE
  8
_0-3_躯体と製品
  6
CONTINUOUS
 62
    3
 10
624.28817640415946
 20
574.94324756684318
 11
622.92443640416241
 21
575.39782756684372
  0
LINE
  8
_0-3_躯体と製品
  6
CONTINUOUS
 62
    3
 10
622.92443640416241
 20
575.39782756684372
 11
621.51187640416538
 21
575.6853475668438
  0
LINE
  8
_0-3_躯体と製品
  6
CONTINUOUS
 62
    3
 10
621.51187640416538
 20
575.6853475668438
 11
620.07279640416527
 21
575.80124756684336
  0
LINE
  8
_0-3_躯体と製品
  6
CONTINUOUS
 62
    3
 10
620.07279640416527
 20
575.80124756684336
 11
619.82935640416144
 21
575.80370756684385
  0
LINE
  8
_0-3_躯体と製品
  6
CONTINUOUS
 62
    3
 10
624.82935640415963
 20
559.88420756684388
 11
624.82935640415963
 21
558.71430756684344
  0
LINE
  8
_0-3_躯体と製品
  6
CONTINUOUS
 62
    3
 10
640.49489640416141
 20
549.80370756684374
 11
644.82935640415963
 21
549.80370756684374
  0
ARC
  8
_0-3_躯体と製品
  6
CONTINUOUS
 62
    3
 10
640.49489640416141
 20
552.80370756684385
 40
3
 50
244.98310699999996
 51
270
  0
LINE
  8
_0-3_躯体と製品
  6
CONTINUOUS
 62
    3
 10
639.2262364041635
 20
550.08516756684367
 11
626.56069640415808
 21
555.99574756684331
  0
LINE
  8
_0-3_躯体と製品
  6
PLINE2
 62
    6
 10
977.04779640415836
 20
513.52622756684366
 11
1003.9699364041626
 21
540.44836756684344
  0
LINE
  8
_0-3_躯体と製品
  6
PLINE2
 62
    6
 10
1003.9699364041626
 20
520.63720756684359
 11
948.8034364041614
 21
575.80370756684385
  0
LINE
  8
_0-3_躯体と製品
  6
PLINE2
 62
    6
 10
850.10409640416401
 20
497.72634756684351
 11
772.02673640415742
 21
575.80370756684385
  0
LINE
  8
_0-3_躯体と製品
  6
PLINE2
 62
    6
 10
858.96993640416258
 20
524.21584756684365
 11
807.38207640416294
 21
575.80370756684385
  0
LINE
  8
_0-3_躯体と製品
  6
PLINE2
 62
    6
 10
960.54863640416443
 20
532.38240756684331
 11
1003.9699364041626
 21
575.80370756684385
  0
LINE
  8
_0-3_躯体と製品
  6
CONTINUOUS
 62
    3
 10
894.82935640415963
 20
549.80370756684374
 11
878.96993640416258
 21
531.33728756684332
  0
LINE
  8
_0-3_躯体と製品
  6
CONTINUOUS
 62
    3
 10
944.82935640415963
 20
549.80370756684374
 11
1003.9699364041626
 21
480.94136756684361
  0
LINE
  8
_0-3_躯体と製品
  6
PLINE2
 62
    3
 10
878.96993640416258
 20
341.57620756684435
 11
1003.9699364041626
 21
341.57620756684435
  0
LINE
  8
_0-3_躯体と製品
  6
PLINE2
 62
    3
 10
878.96993640416258
 20
441.95404756684366
 11
1003.9699364041626
 21
441.95404756684366
  0
LINE
  8
_0-3_躯体と製品
  6
PLINE2
 62
    3
 10
878.96993640416258
 20
358.57620756684435
 11
1003.9699364041626
 21
358.57620756684435
  0
LINE
  8
_0-3_躯体と製品
  6
PLINE2
 62
    3
 10
878.96993640416258
 20
421.95404756684366
 11
1003.9699364041626
 21
421.95404756684366
  0
LINE
  8
_0-3_躯体と製品
  6
CONTINUOUS
 62
    3
 10
878.96993640416258
 20
444.95404756684377
 11
1003.9699364041626
 21
444.95404756684377
  0
LINE
  8
_0-3_躯体と製品
  6
PLINE2
 62
    6
 10
781.90391640416055
 20
459.80370756684374
 11
859.82935640416144
 21
537.729127566844
  0
LINE
  8
_0-3_躯体と製品
  6
CONTINUOUS
 62
    3
 10
858.96993640416258
 20
508.04960756684352
 11
821.82935640415963
 21
464.80370756684351
  0
LINE
  8
_0-3_躯体と製品
  6
CONTINUOUS
 62
    3
 10
821.82935640415963
 20
464.80370756684351
 11
821.82935640415963
 21
459.80370756684374
  0
LINE
  8
_0-3_躯体と製品
  6
PLINE2
 62
    6
 10
993.80371640416342
 20
492.77876756684361
 11
1003.9699364041626
 21
502.94498756684334
  0
LINE
  8
_0-3_躯体と製品
  6
CONTINUOUS
 62
    3
 10
878.96993640416258
 20
579.06718756684381
 11
1003.9699364041626
 21
579.06718756684381
  0
LINE
  8
_0-3_躯体と製品
  6
CONTINUOUS
 62
    3
 10
900.43245640415989
 20
550.08516756684367
 11
913.09801640416481
 21
555.99574756684331
  0
LINE
  8
_0-3_躯体と製品
  6
CONTINUOUS
 62
    3
 10
879.82935640415963
 20
575.80370756684385
 11
1004.8293564041596
 21
575.80370756684385
  0
LINE
  8
_0-3_躯体と製品
  6
PLINE2
 62
    6
 10
902.68931640415758
 20
551.20714756684401
 11
879.82935640415963
 21
574.06710756684402
  0
LINE
  8
_0-3_躯体と製品
  6
PLINE2
 62
    6
 10
879.82935640415963
 20
557.72912756684389
 11
897.90391640415692
 21
575.80370756684385
  0
LINE
  8
_0-3_躯体と製品
  6
PLINE2
 62
    6
 10
858.96993640416258
 20
559.57118756684406
 11
842.73741640416119
 21
575.80370756684385
  0
LINE
  8
_0-3_躯体と製品
  6
CONTINUOUS
 62
    3
 10
899.16379640416199
 20
549.80370756684374
 11
894.82935640415963
 21
549.80370756684374
  0
ARC
  8
_0-3_躯体と製品
  6
CONTINUOUS
 62
    3
 10
899.16379640416199
 20
552.80370756684385
 40
3
 50
270
 51
295.01689299999992
  0
LINE
  8
_0-3_躯体と製品
  6
PLINE2
 62
    6
 10
928.75553640415819
 20
571.2999875668437
 11
933.25925640416244
 21
575.80370756684385
  0
LINE
  8
_0-3_躯体と製品
  6
PLINE2
 62
    6
 10
942.85093640416198
 20
550.04004756684378
 11
968.61459640415887
 21
575.80370756684385
  0
ARC
  8
_0-3_躯体と製品
  6
CONTINUOUS
 62
    3
 10
911.82935640416144
 20
558.71430756684344
 40
3
 50
295.01689299999992
 51
0
  0
ARC
  8
_0-3_躯体と製品
  6
CONTINUOUS
 62
    3
 10
915.53249640415743
 20
565.72120756684421
 40
7.155219999999999
 50
150.21503199999719
 51
190.09074899999942
  0
ARC
  8
_0-3_躯体と製品
  6
CONTINUOUS
 62
    3
 10
911.81437640416516
 20
557.35564756684391
 40
4.265979999999999
 50
44.87424399999265
 51
84.466247999999013
  0
ARC
  8
_0-3_躯体と製品
  6
CONTINUOUS
 62
    3
 10
912.65495640415611
 20
566.03200756684384
 40
4.4509999999999987
 50
200.57807999999753
 51
264.46624799999898
  0
LINE
  8
_0-3_躯体と製品
  6
CONTINUOUS
 62
    3
 10
914.83749640416136
 20
560.36552756684341
 11
914.82935640416144
 21
559.88420756684388
  0
LINE
  8
_0-3_躯体と製品
  6
CONTINUOUS
 62
    3
 10
919.82935640415963
 20
575.80370756684385
 11
918.38801640415841
 21
575.71696756684344
  0
LINE
  8
_0-3_躯体と製品
  6
CONTINUOUS
 62
    3
 10
918.38801640415841
 20
575.71696756684344
 11
916.96941640416117
 21
575.45812756684381
  0
LINE
  8
_0-3_躯体と製品
  6
CONTINUOUS
 62
    3
 10
916.96941640416117
 20
575.45812756684381
 11
915.59591640416511
 21
575.03124756684338
  0
LINE
  8
_0-3_躯体と製品
  6
CONTINUOUS
 62
    3
 10
915.59591640416511
 20
575.03124756684338
 11
914.2891764041633
 21
574.44308756684347
  0
LINE
  8
_0-3_躯体と製品
  6
CONTINUOUS
 62
    3
 10
914.2891764041633
 20
574.44308756684347
 11
913.06981640415688
 21
573.70290756684381
  0
LINE
  8
_0-3_躯体と製品
  6
CONTINUOUS
 62
    3
 10
913.06981640415688
 20
573.70290756684381
 11
911.95705640416054
 21
572.82236756684324
  0
LINE
  8
_0-3_躯体と製品
  6
CONTINUOUS
 62
    3
 10
911.95705640416054
 20
572.82236756684324
 11
910.96845640415995
 21
571.81536756684363
  0
LINE
  8
_0-3_躯体と製品
  6
CONTINUOUS
 62
    3
 10
910.96845640415995
 20
571.81536756684363
 11
910.11957640415858
 21
570.69780756684349
  0
LINE
  8
_0-3_躯体と製品
  6
CONTINUOUS
 62
    3
 10
910.11957640415858
 20
570.69780756684349
 11
909.42383640415756
 21
569.48728756684341
  0
LINE
  8
_0-3_躯体と製品
  6
CONTINUOUS
 62
    3
 10
909.42383640415756
 20
569.48728756684341
 11
909.32251640416143
 21
569.27552756684361
  0
LINE
  8
_0-3_躯体と製品
  6
CONTINUOUS
 62
    3
 10
914.82935640416144
 20
559.88420756684388
 11
914.82935640416144
 21
558.71430756684344
  0
ARC
  8
_0-3_躯体と製品
  6
CONTINUOUS
 62
    3
 10
927.82935640416326
 20
558.71430756684344
 40
3
 50
180
 51
244.98310699999996
  0
ARC
  8
_0-3_躯体と製品
  6
CONTINUOUS
 62
    3
 10
924.12619640416051
 20
565.72120756684421
 40
7.155219999999999
 50
349.90925100000067
 51
29.784968000002817
  0
ARC
  8
_0-3_躯体と製品
  6
CONTINUOUS
 62
    3
 10
927.84433640415955
 20
557.35564756684391
 40
4.265979999999999
 50
95.533752000000973
 51
135.1257560000073
  0
ARC
  8
_0-3_躯体と製品
  6
CONTINUOUS
 62
    3
 10
927.00373640415637
 20
566.03200756684384
 40
4.4509999999999987
 50
275.5337520000009
 51
339.42192000000227
  0
LINE
  8
_0-3_躯体と製品
  6
CONTINUOUS
 62
    3
 10
924.82121640416153
 20
560.36552756684341
 11
924.82935640415963
 21
559.88420756684388
  0
LINE
  8
_0-3_躯体と製品
  6
CONTINUOUS
 62
    3
 10
930.33617640416014
 20
569.27552756684361
 11
929.66739640416563
 21
570.4998675668437
  0
LINE
  8
_0-3_躯体と製品
  6
CONTINUOUS
 62
    3
 10
929.66739640416563
 20
570.4998675668437
 11
928.84343640415864
 21
571.63438756684354
  0
LINE
  8
_0-3_躯体と製品
  6
CONTINUOUS
 62
    3
 10
928.84343640415864
 20
571.63438756684354
 11
927.87733640416445
 21
572.66116756684391
  0
LINE
  8
_0-3_躯体と製品
  6
CONTINUOUS
 62
    3
 10
927.87733640416445
 20
572.66116756684391
 11
926.78431640416238
 21
573.56402756684372
  0
LINE
  8
_0-3_躯体と製品
  6
CONTINUOUS
 62
    3
 10
926.78431640416238
 20
573.56402756684372
 11
925.58161640416074
 21
574.3287475668435
  0
LINE
  8
_0-3_躯体と製品
  6
CONTINUOUS
 62
    3
 10
925.58161640416074
 20
574.3287475668435
 11
924.28817640415946
 21
574.94324756684318
  0
LINE
  8
_0-3_躯体と製品
  6
CONTINUOUS
 62
    3
 10
924.28817640415946
 20
574.94324756684318
 11
922.92443640416241
 21
575.39782756684372
  0
LINE
  8
_0-3_躯体と製品
  6
CONTINUOUS
 62
    3
 10
922.92443640416241
 20
575.39782756684372
 11
921.51187640416538
 21
575.6853475668438
  0
LINE
  8
_0-3_躯体と製品
  6
CONTINUOUS
 62
    3
 10
921.51187640416538
 20
575.6853475668438
 11
920.07279640416527
 21
575.80124756684336
  0
LINE
  8
_0-3_躯体と製品
  6
CONTINUOUS
 62
    3
 10
920.07279640416527
 20
575.80124756684336
 11
919.82935640415963
 21
575.80370756684385
  0
LINE
  8
_0-3_躯体と製品
  6
CONTINUOUS
 62
    3
 10
924.82935640415963
 20
559.88420756684388
 11
924.82935640415963
 21
558.71430756684344
  0
LINE
  8
_0-3_躯体と製品
  6
CONTINUOUS
 62
    3
 10
940.49489640416141
 20
549.80370756684374
 11
944.82935640415963
 21
549.80370756684374
  0
ARC
  8
_0-3_躯体と製品
  6
CONTINUOUS
 62
    3
 10
940.49489640416141
 20
552.80370756684385
 40
3
 50
244.98310699999996
 51
270
  0
LINE
  8
_0-3_躯体と製品
  6
CONTINUOUS
 62
    3
 10
939.2262364041635
 20
550.08516756684367
 11
926.5606964041599
 21
555.99574756684331
  0
LINE
  8
_0-3_躯体と製品
  6
PLINE2
 62
    6
 10
927.64201640415922
 20
561.60978756684381
 11
939.24337640415615
 21
550.00842756684358
  0
LINE
  8
_0-3_躯体と製品
  6
PLINE2
 62
    6
 10
913.58081640416458
 20
575.67098756684356
 11
913.44809640416133
 21
575.80370756684385
  0
LINE
  8
_0-3_躯体と製品
  6
PLINE2
 62
    6
 10
983.94341640416314
 20
575.80370756684385
 11
1003.9699364041626
 21
555.77718756684385
  0
LINE
  8
_0-3_躯体と製品
  6
CONTINUOUS
 62
    3
 10
733.96993640416258
 20
1157.0868875668436
 11
858.96993640416258
 21
1157.0868875668436
  0
LINE
  8
_0-3_躯体と製品
  6
CONTINUOUS
 62
    3
 10
858.96993640416258
 20
1142.0868875668436
 11
733.96993640416258
 21
1142.0868875668436
  0
LINE
  8
_0-3_躯体と製品
  6
CONTINUOUS
 62
    3
 10
740.38733640416467
 20
1047.5636875668438
 11
858.96993640416258
 21
1047.5636875668438
  0
LINE
  8
_0-3_躯体と製品
  6
CONTINUOUS
 62
    3
 10
521.96993640416622
 20
1047.5636875668438
 11
683.96993640416258
 21
1047.5636875668438
  0
LINE
  8
_0-3_躯体と製品
  6
CONTINUOUS
 62
    3
 10
518.96993640416258
 20
1142.0868875668436
 11
683.96993640416258
 21
1142.0868875668436
  0
LINE
  8
_0-3_躯体と製品
  6
CONTINUOUS
 62
    3
 10
518.96993640416258
 20
1157.0868875668436
 11
689.96993640415894
 21
1157.0868875668436
  0
LINE
  8
_0-3_躯体と製品
  6
CONTINUOUS
 62
    3
 10
524.96993640415894
 20
1050.4919075668438
 11
524.96993640415894
 21
1088.4919075668433
  0
ARC
  8
_0-3_躯体と製品
  6
CONTINUOUS
 62
    3
 10
521.96993640416622
 20
1050.4919075668438
 40
3
 50
270
 51
0
  0
LINE
  8
_0-3_躯体と製品
  6
CONTINUOUS
 62
    3
 10
518.96993640416258
 20
1047.4919075668438
 11
521.96993640416622
 21
1047.4919075668438
  0
LINE
  8
_0-3_躯体と製品
  6
CONTINUOUS
 62
    3
 10
506.46993640416258
 20
1071.238207566844
 11
531.46993640416258
 21
1071.238207566844
  0
LINE
  8
_0-3_躯体と製品
  6
PLINE2
 62
    3
 10
568.96993640416258
 20
1147.4919075668438
 11
518.96993640416258
 21
1147.4919075668438
  0
ARC
  8
_0-3_躯体と製品
  6
CONTINUOUS
 62
    3
 10
527.96993640415894
 20
1088.4919075668433
 40
3
 50
90
 51
180
  0
LINE
  8
_0-3_躯体と製品
  6
CONTINUOUS
 62
    3
 10
568.96993640416258
 20
1103.4919075668433
 11
518.96993640416258
 21
1103.4919075668433
  0
LINE
  8
_0-3_躯体と製品
  6
CONTINUOUS
 62
    3
 10
518.96993640416258
 20
1097.4919075668438
 11
568.96993640416258
 21
1097.4919075668438
  0
LINE
  8
_0-3_躯体と製品
  6
PLINE2
 62
    3
 10
568.96993640416258
 20
1147.4919075668438
 11
518.96993640416258
 21
1147.4919075668438
  0
LINE
  8
_0-4_図面枠
  6
CONTINUOUS
 62
    3
 10
529.15149640416348
 20
1102.9349875668438
 11
491.83099640416003
 21
1127.5760075668436
  0
LINE
  8
_0-3_躯体と製品
  6
CONTINUOUS
 62
    3
 10
568.96993640416258
 20
1094.4919075668436
 11
568.96993640416258
 21
1097.4919075668438
  0
ARC
  8
_0-3_躯体と製品
  6
CONTINUOUS
 62
    3
 10
565.96993640416258
 20
1094.4919075668436
 40
3
 50
270
 51
0
  0
LINE
  8
_0-3_躯体と製品
  6
CONTINUOUS
 62
    3
 10
527.96993640415894
 20
1091.4919075668436
 11
565.96993640416258
 21
1091.4919075668436
  0
LINE
  8
_0-3_躯体と製品
  6
CONTINUOUS
 62
    3
 10
568.96993640416258
 20
1097.4919075668438
 11
568.96993640416258
 21
1103.4919075668433
  0
LINE
  8
_0-3_躯体と製品
  6
PLINE2
 62
    3
 10
568.96993640416258
 20
1103.4919075668433
 11
568.96993640416258
 21
1147.4919075668438
  0
LINE
  8
_0-3_躯体と製品
  6
CONTINUOUS
 62
    3
 10
740.38733640416467
 20
1047.5636875668438
 11
689.96993640415894
 21
1047.5636875668438
  0
LINE
  8
_0-3_躯体と製品
  6
CONTINUOUS
 62
    3
 10
740.38733640416467
 20
1044.5636875668438
 11
740.38733640416467
 21
1047.5636875668438
  0
ARC
  8
_0-3_躯体と製品
  6
CONTINUOUS
 62
    3
 10
737.38733640416103
 20
1044.5636875668438
 40
3
 50
270
 51
0
  0
LINE
  8
_0-3_躯体と製品
  6
CONTINUOUS
 62
    3
 10
698.96993640416258
 20
1041.5636875668436
 11
737.38733640416103
 21
1041.5636875668436
  0
ARC
  8
_0-3_躯体と製品
  6
CONTINUOUS
 62
    3
 10
698.96993640416258
 20
1038.563687566844
 40
3
 50
90
 51
180
  0
LINE
  8
_0-3_躯体と製品
  6
CONTINUOUS
 62
    3
 10
695.96993640416258
 20
1000.563687566844
 11
695.96993640416258
 21
1038.563687566844
  0
ARC
  8
_0-3_躯体と製品
  6
CONTINUOUS
 62
    3
 10
692.96993640415894
 20
1000.563687566844
 40
3
 50
270
 51
0
  0
LINE
  8
_0-3_躯体と製品
  6
CONTINUOUS
 62
    3
 10
689.96993640415894
 20
997.56368756684378
 11
692.96993640415894
 21
997.56368756684378
  0
LINE
  8
_0-3_躯体と製品
  6
CONTINUOUS
 62
    3
 10
677.46993640415712
 20
1023.5252875668432
 11
702.46993640415894
 21
1023.5252875668432
  0
LINE
  8
_0-3_躯体と製品
  6
CONTINUOUS
 62
    3
 10
878.96993640416258
 20
1157.0868875668436
 11
1003.9699364041626
 21
1157.0868875668436
  0
LINE
  8
_0-3_躯体と製品
  6
CONTINUOUS
 62
    3
 10
1003.9699364041626
 20
1142.0868875668436
 11
878.96993640416258
 21
1142.0868875668436
  0
LINE
  8
_0-3_躯体と製品
  6
CONTINUOUS
 62
    3
 10
878.96993640416258
 20
1047.5636875668438
 11
1003.9699364041626
 21
1047.5636875668438
  0
LINE
  8
_0-3_躯体と製品
  6
CONTINUOUS
 62
    3
 10
1018.9699364041626
 20
1041.5636875668436
 11
1057.387336404161
 21
1041.5636875668436
  0
ARC
  8
_0-3_躯体と製品
  6
CONTINUOUS
 62
    3
 10
1018.9699364041626
 20
1038.563687566844
 40
3
 50
90
 51
180
  0
LINE
  8
_0-3_躯体と製品
  6
CONTINUOUS
 62
    3
 10
1015.9699364041626
 20
1000.563687566844
 11
1015.9699364041626
 21
1038.563687566844
  0
ARC
  8
_0-3_躯体と製品
  6
CONTINUOUS
 62
    3
 10
1012.9699364041589
 20
1000.563687566844
 40
3
 50
270
 51
0
  0
LINE
  8
_0-3_躯体と製品
  6
CONTINUOUS
 62
    3
 10
1009.9699364041589
 20
997.56368756684378
 11
1012.9699364041589
 21
997.56368756684378
  0
LINE
  8
_0-3_躯体と製品
  6
CONTINUOUS
 62
    3
 10
997.46993640415712
 20
1023.5252875668432
 11
1022.4699364041589
 21
1023.5252875668432
  0
TEXT
  8
_0-4_図面枠
 62
    7
 10
1122.4728964041624
 20
691.8101675668438
 40
60
 41
0.8000000000000006
 50
0
  1
支柱
  0
LINE
  8
_0-3_躯体と製品
  6
PLINE2
 62
    6
 10
1433.9699364041626
 20
479.5459275668436
 11
1337.712156404159
 21
575.80370756684385
  0
LINE
  8
_0-3_躯体と製品
  6
PLINE2
 62
    6
 10
1383.0014764041589
 20
459.80370756684374
 11
1267.0014764041662
 21
575.80370756684385
  0
LINE
  8
_0-3_躯体と製品
  6
PLINE2
 62
    6
 10
1418.3568164041553
 20
459.80370756684374
 11
1302.3568164041626
 21
575.80370756684385
  0
LINE
  8
_0-3_躯体と製品
  6
PLINE2
 62
    6
 10
1301.5579964041626
 20
484.48302756684382
 11
1392.8786764041615
 21
575.80370756684385
  0
LINE
  8
_0-3_躯体と製品
  6
PLINE2
 62
    6
 10
1317.5542964041615
 20
465.12398756684388
 11
1428.2340164041561
 21
575.80370756684385
  0
LINE
  8
_0-3_躯体と製品
  6
PLINE2
 62
    6
 10
1347.1699964041618
 20
459.38436756684337
 11
1434.7631364041627
 21
546.97750756684354
  0
LINE
  8
_0-3_躯体と製品
  6
CONTINUOUS
 62
    3
 10
1421.8293564041596
 20
459.80370756684374
 11
1317.8293564041633
 21
459.80370756684374
  0
LINE
  8
_0-3_躯体と製品
  6
PLINE2
 62
    6
 10
1064.7466364041611
 20
459.80370756684374
 11
1180.7466364041666
 21
575.80370756684385
  0
LINE
  8
_0-3_躯体と製品
  6
CONTINUOUS
 62
    3
 10
1194.8293564041596
 20
549.80370756684374
 11
1121.8293564041596
 21
464.80370756684351
  0
LINE
  8
_0-3_躯体と製品
  6
PLINE2
 62
    6
 10
1096.4011364041653
 20
459.80370756684374
 11
1212.401136404158
 21
575.80370756684385
  0
LINE
  8
_0-3_躯体と製品
  6
PLINE2
 62
    6
 10
1174.28959640416
 20
527.09424756684325
 11
1125.5801164041623
 21
575.80370756684385
  0
LINE
  8
_0-3_躯体と製品
  6
PLINE2
 62
    6
 10
1158.0204364041583
 20
508.0080475668434
 11
1090.2247964041653
 21
575.80370756684385
  0
LINE
  8
_0-3_躯体と製品
  6
PLINE2
 62
    6
 10
1347.6461364041661
 20
459.80370756684374
 11
1231.6461364041606
 21
575.80370756684385
  0
LINE
  8
_0-3_躯体と製品
  6
CONTINUOUS
 62
    3
 10
1244.8293564041614
 20
549.80370756684374
 11
1317.8293564041633
 21
464.80370756684351
  0
LINE
  8
_0-3_躯体と製品
  6
PLINE2
 62
    6
 10
1268.3400964041612
 20
521.97580756684329
 11
1322.1679964041577
 21
575.80370756684385
  0
LINE
  8
_0-3_躯体と製品
  6
PLINE2
 62
    6
 10
1284.9490364041594
 20
503.22942756684381
 11
1357.5233364041633
 21
575.80370756684385
  0
LINE
  8
_0-4_図面枠
  6
CONTINUOUS
 62
    3
 10
1088.4305364041575
 20
395.9935275668438
 11
1117.0907964041635
 21
366.35252756684349
  0
LINE
  8
_0-3_躯体と製品
  6
CONTINUOUS
 62
    3
 10
1121.8293564041596
 20
464.80370756684351
 11
1121.8293564041596
 21
459.80370756684374
  0
LINE
  8
_0-3_躯体と製品
  6
CONTINUOUS
 62
    3
 10
1317.8293564041633
 20
464.80370756684351
 11
1317.8293564041633
 21
459.80370756684374
  0
ARC
  8
_0-3_躯体と製品
  6
CONTINUOUS
 62
    3
 10
1212.6549564041561
 20
566.03200756684384
 40
4.4509999999999987
 50
200.57807999999753
 51
264.46624799999898
  0
LINE
  8
_0-3_躯体と製品
  6
CONTINUOUS
 62
    3
 10
1219.8293564041596
 20
575.80370756684385
 11
1218.3880164041584
 21
575.71696756684344
  0
LINE
  8
_0-3_躯体と製品
  6
CONTINUOUS
 62
    3
 10
1218.3880164041584
 20
575.71696756684344
 11
1216.9694164041612
 21
575.45812756684381
  0
LINE
  8
_0-3_躯体と製品
  6
CONTINUOUS
 62
    3
 10
1216.9694164041612
 20
575.45812756684381
 11
1215.5959164041633
 21
575.03124756684338
  0
LINE
  8
_0-3_躯体と製品
  6
CONTINUOUS
 62
    3
 10
1215.5959164041633
 20
575.03124756684338
 11
1214.2891764041633
 21
574.44308756684347
  0
LINE
  8
_0-3_躯体と製品
  6
CONTINUOUS
 62
    3
 10
1214.2891764041633
 20
574.44308756684347
 11
1213.0698164041569
 21
573.70290756684381
  0
LINE
  8
_0-3_躯体と製品
  6
CONTINUOUS
 62
    3
 10
1213.0698164041569
 20
573.70290756684381
 11
1211.9570564041605
 21
572.82236756684324
  0
LINE
  8
_0-3_躯体と製品
  6
CONTINUOUS
 62
    3
 10
1211.9570564041605
 20
572.82236756684324
 11
1210.96845640416
 21
571.81536756684363
  0
LINE
  8
_0-3_躯体と製品
  6
CONTINUOUS
 62
    3
 10
1210.96845640416
 20
571.81536756684363
 11
1210.1195764041586
 21
570.69780756684349
  0
LINE
  8
_0-3_躯体と製品
  6
CONTINUOUS
 62
    3
 10
1210.1195764041586
 20
570.69780756684349
 11
1209.4238364041557
 21
569.48728756684341
  0
LINE
  8
_0-3_躯体と製品
  6
CONTINUOUS
 62
    3
 10
1209.4238364041557
 20
569.48728756684341
 11
1209.3225164041614
 21
569.27552756684361
  0
LINE
  8
_0-3_躯体と製品
  6
CONTINUOUS
 62
    3
 10
1200.4324564041599
 20
550.08516756684367
 11
1213.0980164041666
 21
555.99574756684331
  0
LINE
  8
_0-3_躯体と製品
  6
PLINE2
 62
    6
 10
1213.8315164041596
 20
558.26300756684373
 11
1196.2907964041624
 21
575.80370756684385
  0
LINE
  8
_0-4_図面枠
  6
CONTINUOUS
 62
    3
 10
1113.41171640416
 20
683.98000756684348
 11
1241.5677364041585
 21
683.98000756684348
  0
ARC
  8
_0-3_躯体と製品
  6
CONTINUOUS
 62
    3
 10
1215.5324964041574
 20
565.72120756684421
 40
7.155219999999999
 50
150.21503199999719
 51
190.09074899999942
  0
LINE
  8
_0-3_躯体と製品
  6
CONTINUOUS
 62
    3
 10
1199.163796404162
 20
549.80370756684374
 11
1194.8293564041596
 21
549.80370756684374
  0
ARC
  8
_0-3_躯体と製品
  6
CONTINUOUS
 62
    3
 10
1199.163796404162
 20
552.80370756684385
 40
3
 50
270
 51
295.01689299999992
  0
LINE
  8
_0-3_躯体と製品
  6
PLINE2
 62
    6
 10
1190.5587564041598
 20
546.18042756684372
 11
1160.9354564041569
 21
575.80370756684385
  0
LINE
  8
_0-3_躯体と製品
  6
PLINE2
 62
    6
 10
1251.7311364041598
 20
540.72220756684385
 11
1286.8126564041631
 21
575.80370756684385
  0
LINE
  8
_0-3_躯体と製品
  6
PLINE2
 62
    6
 10
1215.7917364041605
 20
575.49346756684383
 11
1216.1019764041594
 21
575.80370756684385
  0
LINE
  8
_0-3_躯体と製品
  6
PLINE2
 62
    6
 10
1230.5236564041552
 20
554.87004756684382
 11
1251.4573164041576
 21
575.80370756684385
  0
ARC
  8
_0-3_躯体と製品
  6
CONTINUOUS
 62
    3
 10
1211.8293564041596
 20
558.71430756684344
 40
3
 50
295.01689299999992
 51
0
  0
ARC
  8
_0-3_躯体と製品
  6
CONTINUOUS
 62
    3
 10
1211.8143764041633
 20
557.35564756684391
 40
4.265979999999999
 50
44.87424399999265
 51
84.466247999999013
  0
LINE
  8
_0-3_躯体と製品
  6
CONTINUOUS
 62
    3
 10
1214.8374964041614
 20
560.36552756684341
 11
1214.8293564041596
 21
559.88420756684388
  0
LINE
  8
_0-3_躯体と製品
  6
CONTINUOUS
 62
    3
 10
1214.8293564041596
 20
559.88420756684388
 11
1214.8293564041596
 21
558.71430756684344
  0
ARC
  8
_0-3_躯体と製品
  6
CONTINUOUS
 62
    3
 10
1227.8293564041651
 20
558.71430756684344
 40
3
 50
180
 51
244.98310699999996
  0
ARC
  8
_0-3_躯体と製品
  6
CONTINUOUS
 62
    3
 10
1224.1261964041587
 20
565.72120756684421
 40
7.155219999999999
 50
349.90925100000067
 51
29.784968000002817
  0
ARC
  8
_0-3_躯体と製品
  6
CONTINUOUS
 62
    3
 10
1227.8443364041614
 20
557.35564756684391
 40
4.265979999999999
 50
95.533752000000973
 51
135.1257560000073
  0
ARC
  8
_0-3_躯体と製品
  6
CONTINUOUS
 62
    3
 10
1227.0037364041564
 20
566.03200756684384
 40
4.4509999999999987
 50
275.5337520000009
 51
339.42192000000227
  0
LINE
  8
_0-3_躯体と製品
  6
CONTINUOUS
 62
    3
 10
1224.8212164041615
 20
560.36552756684341
 11
1224.8293564041596
 21
559.88420756684388
  0
LINE
  8
_0-3_躯体と製品
  6
CONTINUOUS
 62
    3
 10
1230.336176404162
 20
569.27552756684361
 11
1229.6673964041656
 21
570.4998675668437
  0
LINE
  8
_0-3_躯体と製品
  6
CONTINUOUS
 62
    3
 10
1229.6673964041656
 20
570.4998675668437
 11
1228.8434364041568
 21
571.63438756684354
  0
LINE
  8
_0-3_躯体と製品
  6
CONTINUOUS
 62
    3
 10
1228.8434364041568
 20
571.63438756684354
 11
1227.8773364041626
 21
572.66116756684391
  0
LINE
  8
_0-3_躯体と製品
  6
CONTINUOUS
 62
    3
 10
1227.8773364041626
 20
572.66116756684391
 11
1226.7843164041642
 21
573.56402756684372
  0
LINE
  8
_0-3_躯体と製品
  6
CONTINUOUS
 62
    3
 10
1226.7843164041642
 20
573.56402756684372
 11
1225.5816164041626
 21
574.3287475668435
  0
LINE
  8
_0-3_躯体と製品
  6
CONTINUOUS
 62
    3
 10
1225.5816164041626
 20
574.3287475668435
 11
1224.2881764041595
 21
574.94324756684318
  0
LINE
  8
_0-3_躯体と製品
  6
CONTINUOUS
 62
    3
 10
1224.2881764041595
 20
574.94324756684318
 11
1222.9244364041624
 21
575.39782756684372
  0
LINE
  8
_0-3_躯体と製品
  6
CONTINUOUS
 62
    3
 10
1222.9244364041624
 20
575.39782756684372
 11
1221.5118764041654
 21
575.6853475668438
  0
LINE
  8
_0-3_躯体と製品
  6
CONTINUOUS
 62
    3
 10
1221.5118764041654
 20
575.6853475668438
 11
1220.0727964041653
 21
575.80124756684336
  0
LINE
  8
_0-3_躯体と製品
  6
CONTINUOUS
 62
    3
 10
1220.0727964041653
 20
575.80124756684336
 11
1219.8293564041596
 21
575.80370756684385
  0
LINE
  8
_0-3_躯体と製品
  6
CONTINUOUS
 62
    3
 10
1224.8293564041596
 20
559.88420756684388
 11
1224.8293564041596
 21
558.71430756684344
  0
LINE
  8
_0-3_躯体と製品
  6
CONTINUOUS
 62
    3
 10
1240.4948964041614
 20
549.80370756684374
 11
1244.8293564041614
 21
549.80370756684374
  0
ARC
  8
_0-3_躯体と製品
  6
CONTINUOUS
 62
    3
 10
1240.4948964041614
 20
552.80370756684385
 40
3
 50
244.98310699999996
 51
270
  0
LINE
  8
_0-3_躯体と製品
  6
CONTINUOUS
 62
    3
 10
1239.2262364041635
 20
550.08516756684367
 11
1226.5606964041581
 21
555.99574756684331
  0
LINE
  8
_0-3_躯体と製品
  6
PLINE2
 62
    6
 10
1434.8862564041592
 20
513.98494756684352
 11
1373.0674964041646
 21
575.80370756684385
  0
LINE
  8
_0-3_躯体と製品
  6
PLINE2
 62
    6
 10
1463.9699364041644
 20
526.52408756684349
 11
1491.6672164041665
 21
554.22134756684352
  0
LINE
  8
_0-3_躯体と製品
  6
PLINE2
 62
    6
 10
1515.09849640416
 20
436.23128756684321
 11
1633.0885764041614
 21
554.22134756684352
  0
LINE
  8
_0-3_躯体と製品
  6
PLINE2
 62
    6
 10
1479.7431564041653
 20
436.23128756684321
 11
1597.7332364041649
 21
554.22134756684352
  0
LINE
  8
_0-3_躯体と製品
  6
PLINE2
 62
    6
 10
1464.2262964041583
 20
456.06976756684344
 11
1562.3778964041594
 21
554.22134756684352
  0
LINE
  8
_0-3_躯体と製品
  6
PLINE2
 62
    6
 10
1463.9699364041644
 20
491.16874756684376
 11
1527.022556404163
 21
554.22134756684352
  0
LINE
  8
_0-3_躯体と製品
  6
PLINE2
 62
    6
 10
1666.3925564041601
 20
529.94670756684411
 11
1642.1179164041569
 21
554.22134756684352
  0
LINE
  8
_0-3_躯体と製品
  6
PLINE2
 62
    6
 10
1645.0910564041642
 20
515.89286756684339
 11
1606.7625764041622
 21
554.22134756684352
  0
LINE
  8
_0-3_躯体と製品
  6
PLINE2
 62
    6
 10
1628.7559964041611
 20
496.87258756684355
 11
1571.4072364041567
 21
554.22134756684352
  0
LINE
  8
_0-3_躯体と製品
  6
PLINE2
 62
    6
 10
1612.4209364041599
 20
477.85230756684314
 11
1536.0518964041585
 21
554.22134756684352
  0
LINE
  8
_0-3_躯体と製品
  6
PLINE2
 62
    6
 10
1596.0858764041586
 20
458.83202756684352
 11
1500.6965564041657
 21
554.22134756684352
  0
LINE
  8
_0-3_躯体と製品
  6
PLINE2
 62
    6
 10
1580.9699364041626
 20
438.59262756684382
 11
1465.3412164041583
 21
554.22134756684352
  0
LINE
  8
_0-3_躯体と製品
  6
PLINE2
 62
    6
 10
1463.9699364041644
 20
520.23728756684329
 11
1547.9759564041615
 21
436.23128756684321
  0
LINE
  8
_0-3_躯体と製品
  6
CONTINUOUS
 62
    3
 10
1580.9699364041626
 20
436.23128756684321
 11
1476.9699364041662
 21
436.23128756684321
  0
LINE
  8
_0-3_躯体と製品
  6
PLINE2
 62
    6
 10
1382.52533640416
 20
459.38436756684337
 11
1434.6817564041594
 21
511.54076756684344
  0
LINE
  8
_0-3_躯体と製品
  6
CONTINUOUS
 62
    3
 10
1421.8293564041596
 20
464.80370756684351
 11
1421.8293564041596
 21
459.80370756684374
  0
LINE
  8
_0-3_躯体と製品
  6
CONTINUOUS
 62
    3
 10
1433.9699364041626
 20
478.9400275668437
 11
1421.8293564041596
 21
464.80370756684351
  0
LINE
  8
_0-3_躯体と製品
  6
PLINE2
 62
    6
 10
1476.9699364041662
 20
436.52660756684395
 11
1477.2652764041613
 21
436.23128756684321
  0
LINE
  8
_0-3_躯体と製品
  6
PLINE2
 62
    6
 10
1463.9699364041644
 20
484.88194756684334
 11
1512.620616404165
 21
436.23128756684321
  0
LINE
  8
_0-3_躯体と製品
  6
CONTINUOUS
 62
    3
 10
1476.9699364041662
 20
441.23128756684321
 11
1476.9699364041662
 21
436.23128756684321
  0
LINE
  8
_0-3_躯体と製品
  6
CONTINUOUS
 62
    3
 10
1463.9699364041644
 20
456.36826756684354
 11
1476.9699364041662
 21
441.23128756684321
  0
LINE
  8
_0-3_躯体と製品
  6
CONTINUOUS
 62
    3
 10
1653.9699364041626
 20
526.23128756684321
 11
1580.9699364041626
 21
441.23128756684321
  0
LINE
  8
_0-3_躯体と製品
  6
CONTINUOUS
 62
    3
 10
1580.9699364041626
 20
441.23128756684321
 11
1580.9699364041626
 21
436.23128756684321
  0
LINE
  8
_0-3_躯体と製品
  6
CONTINUOUS
 62
    3
 10
1658.3043964041644
 20
526.23128756684321
 11
1653.9699364041626
 21
526.23128756684321
  0
ARC
  8
_0-3_躯体と製品
  6
CONTINUOUS
 62
    3
 10
1658.3043964041644
 20
529.23128756684332
 40
3
 50
270
 51
295.01689299999992
  0
LINE
  8
_0-3_躯体と製品
  6
PLINE2
 62
    6
 10
1434.8536764041619
 20
549.37286756684341
 11
1408.4228364041592
 21
575.80370756684385
  0
LINE
  8
_0-3_躯体と製品
  6
CONTINUOUS
 62
    3
 10
1060.3873364041647
 20
1047.5636875668438
 11
1433.9699364041626
 21
1047.5636875668438
  0
LINE
  8
_0-3_躯体と製品
  6
CONTINUOUS
 62
    3
 10
1060.3873364041647
 20
1044.5636875668438
 11
1060.3873364041647
 21
1047.5636875668438
  0
LINE
  8
_0-3_躯体と製品
  6
PLINE2
 62
    3
 10
1059.9699364041571
 20
1254.7253075668432
 11
1015.9699364041626
 21
1254.7253075668432
  0
LINE
  8
_0-3_躯体と製品
  6
CONTINUOUS
 62
    3
 10
1015.9699364041626
 20
1547.2118075668436
 11
1059.9699364041571
 21
1547.2118075668436
  0
LINE
  8
_0-3_躯体と製品
  6
CONTINUOUS
 62
    7
 10
1433.9699364041626
 20
1553.2118075668434
 11
878.96993640416258
 21
1553.2118075668434
  0
LINE
  8
_0-3_躯体と製品
  6
CONTINUOUS
 62
    3
 10
1433.9699364041626
 20
1587.107207566844
 11
878.96993640416258
 21
1587.107207566844
  0
LINE
  8
_0-3_躯体と製品
  6
CONTINUOUS
 62
    3
 10
878.96993640416258
 20
1613.1950475668436
 11
1433.9699364041626
 21
1613.1950475668436
  0
LINE
  8
_0-3_躯体と製品
  6
CONTINUOUS
 62
    3
 10
1433.9699364041626
 20
1627.107207566844
 11
878.96993640416258
 21
1627.107207566844
  0
LINE
  8
_0-3_躯体と製品
  6
CONTINUOUS
 62
    3
 10
739.96993640415712
 20
1309.9609075668436
 11
858.96993640416258
 21
1309.9609075668436
  0
LINE
  8
_0-3_躯体と製品
  6
CONTINUOUS
 62
    3
 10
858.96993640416258
 20
1287.7886275668438
 11
739.96993640415712
 21
1287.7886275668438
  0
LINE
  8
_0-3_躯体と製品
  6
CONTINUOUS
 62
    3
 10
739.96993640415712
 20
1272.7886275668438
 11
858.96993640416258
 21
1272.7886275668438
  0
LINE
  8
_0-3_躯体と製品
  6
CONTINUOUS
 62
    7
 10
858.96993640416258
 20
1553.2118075668434
 11
518.96993640416258
 21
1553.2118075668434
  0
LINE
  8
_0-3_躯体と製品
  6
CONTINUOUS
 62
    3
 10
858.96993640416258
 20
1587.107207566844
 11
518.96993640416258
 21
1587.107207566844
  0
LINE
  8
_0-3_躯体と製品
  6
CONTINUOUS
 62
    3
 10
739.96993640415712
 20
1553.2118075668434
 11
739.96993640415712
 21
1254.7253075668432
  0
LINE
  8
_0-3_躯体と製品
  6
PLINE2
 62
    3
 10
733.96993640416258
 20
1343.5602475668436
 11
733.96993640416258
 21
1547.2118075668436
  0
LINE
  8
_0-3_躯体と製品
  6
CONTINUOUS
 62
    3
 10
695.96993640416258
 20
1199.0085075668437
 11
695.96993640416258
 21
1547.2118075668436
  0
LINE
  8
_0-3_躯体と製品
  6
CONTINUOUS
 62
    3
 10
518.96993640416258
 20
1309.9609075668436
 11
683.96993640416258
 21
1309.9609075668436
  0
LINE
  8
_0-3_躯体と製品
  6
CONTINUOUS
 62
    3
 10
518.96993640416258
 20
1272.7886275668438
 11
683.96993640416258
 21
1272.7886275668438
  0
LINE
  8
_0-3_躯体と製品
  6
CONTINUOUS
 62
    3
 10
517.96993640415894
 20
1287.7886275668438
 11
683.96993640416258
 21
1287.7886275668438
  0
LINE
  8
_0-4_図面枠
  6
CONTINUOUS
 62
    3
 10
522.52819640416419
 20
1348.4605475668436
 11
485.20769640415892
 21
1373.1015475668437
  0
LINE
  8
_0-3_躯体と製品
  6
PLINE2
 62
    3
 10
739.96993640415712
 20
1254.7253075668432
 11
695.96993640416258
 21
1254.7253075668432
  0
LINE
  8
_0-3_躯体と製品
  6
CONTINUOUS
 62
    3
 10
689.96993640415894
 20
1199.0085075668437
 11
695.96993640416258
 21
1199.0085075668437
  0
LINE
  8
_0-3_躯体と製品
  6
CONTINUOUS
 62
    3
 10
677.46993640415712
 20
1231.7832275668441
 11
702.46993640415894
 21
1231.7832275668441
  0
LINE
  8
_0-3_躯体と製品
  6
CONTINUOUS
 62
    3
 10
689.96993640415894
 20
1343.5602475668436
 11
733.96993640416258
 21
1343.5602475668436
  0
LINE
  8
_0-3_躯体と製品
  6
CONTINUOUS
 62
    3
 10
677.46993640415712
 20
1376.4582675668437
 11
702.46993640415894
 21
1376.4582675668437
  0
LINE
  8
_0-3_躯体と製品
  6
CONTINUOUS
 62
    3
 10
506.46993640416258
 20
1486.2617075668436
 11
531.46993640416258
 21
1486.2617075668436
  0
LINE
  8
_0-3_躯体と製品
  6
CONTINUOUS
 62
    3
 10
506.46993640416258
 20
1578.9051475668437
 11
531.46993640416258
 21
1578.9051475668437
  0
LINE
  8
_0-3_躯体と製品
  6
CONTINUOUS
 62
    3
 10
506.46993640416258
 20
1538.9000275668434
 11
531.46993640416258
 21
1538.9000275668434
  0
LINE
  8
_0-3_躯体と製品
  6
CONTINUOUS
 62
    3
 10
506.46993640416258
 20
1516.0630875668437
 11
531.46993640416258
 21
1516.0630875668437
  0
LINE
  8
_0-3_躯体と製品
  6
CONTINUOUS
 62
    3
 10
683.96993640416258
 20
1510.2929275668437
 11
683.96993640416258
 21
1482.186707566844
  0
LINE
  8
_0-3_躯体と製品
  6
CONTINUOUS
 62
    3
 10
683.96993640416258
 20
1407.5636875668438
 11
689.96993640415894
 21
1407.5636875668438
  0
LINE
  8
_0-3_躯体と製品
  6
CONTINUOUS
 62
    3
 10
683.96993640416258
 20
1447.3944275668437
 11
683.96993640416258
 21
1445.1657475668435
  0
LINE
  8
_0-3_躯体と製品
  6
CONTINUOUS
 62
    3
 10
683.96993640416258
 20
1474.7577475668431
 11
683.96993640416258
 21
1448.0135075668438
  0
LINE
  8
_0-3_躯体と製品
  6
CONTINUOUS
 62
    3
 10
733.96993640416258
 20
1553.2118075668434
 11
733.96993640416258
 21
1587.107207566844
  0
LINE
  8
_0-3_躯体と製品
  6
CONTINUOUS
 62
    3
 10
695.96993640416258
 20
1547.2118075668436
 11
739.96993640415712
 21
1547.2118075668436
  0
LINE
  8
_0-3_躯体と製品
  6
CONTINUOUS
 62
    3
 10
689.96993640415894
 20
1581.107207566844
 11
733.96993640416258
 21
1581.107207566844
  0
LINE
  8
_0-3_躯体と製品
  6
CONTINUOUS
 62
    3
 10
683.96993640416258
 20
1587.107207566844
 11
683.96993640416258
 21
1518.7124075668437
  0
LINE
  8
_0-3_躯体と製品
  6
PLINE2
 62
    3
 10
1053.9699364041644
 20
1343.5602475668436
 11
1053.9699364041644
 21
1547.2118075668436
  0
LINE
  8
_0-3_躯体と製品
  6
CONTINUOUS
 62
    3
 10
1015.9699364041626
 20
1199.0085075668437
 11
1015.9699364041626
 21
1547.2118075668436
  0
LINE
  8
_0-3_躯体と製品
  6
CONTINUOUS
 62
    3
 10
878.96993640416258
 20
1309.9609075668436
 11
1003.9699364041626
 21
1309.9609075668436
  0
LINE
  8
_0-3_躯体と製品
  6
CONTINUOUS
 62
    3
 10
1003.9699364041626
 20
1287.7886275668438
 11
878.96993640416258
 21
1287.7886275668438
  0
LINE
  8
_0-3_躯体と製品
  6
CONTINUOUS
 62
    3
 10
878.96993640416258
 20
1272.7886275668438
 11
1003.9699364041626
 21
1272.7886275668438
  0
LINE
  8
_0-3_躯体と製品
  6
CONTINUOUS
 62
    3
 10
1009.9699364041589
 20
1199.0085075668437
 11
1015.9699364041626
 21
1199.0085075668437
  0
LINE
  8
_0-3_躯体と製品
  6
CONTINUOUS
 62
    3
 10
997.46993640415712
 20
1231.7832275668441
 11
1022.4699364041589
 21
1231.7832275668441
  0
LINE
  8
_0-3_躯体と製品
  6
CONTINUOUS
 62
    3
 10
1009.9699364041589
 20
1343.5602475668436
 11
1053.9699364041644
 21
1343.5602475668436
  0
LINE
  8
_0-3_躯体と製品
  6
CONTINUOUS
 62
    3
 10
997.46993640415712
 20
1376.4582675668437
 11
1022.4699364041589
 21
1376.4582675668437
  0
LINE
  8
_0-3_躯体と製品
  6
CONTINUOUS
 62
    3
 10
1003.9699364041626
 20
1510.2929275668437
 11
1003.9699364041626
 21
1482.186707566844
  0
LINE
  8
_0-3_躯体と製品
  6
CONTINUOUS
 62
    3
 10
1003.9699364041626
 20
1407.5636875668438
 11
1009.9699364041589
 21
1407.5636875668438
  0
LINE
  8
_0-3_躯体と製品
  6
CONTINUOUS
 62
    3
 10
1003.9699364041626
 20
1447.3944275668437
 11
1003.9699364041626
 21
1445.1657475668435
  0
LINE
  8
_0-3_躯体と製品
  6
CONTINUOUS
 62
    3
 10
1003.9699364041626
 20
1474.7577475668431
 11
1003.9699364041626
 21
1448.0135075668438
  0
LINE
  8
_0-3_躯体と製品
  6
CONTINUOUS
 62
    3
 10
1053.9699364041644
 20
1553.2118075668434
 11
1053.9699364041644
 21
1587.107207566844
  0
LINE
  8
_0-3_躯体と製品
  6
CONTINUOUS
 62
    3
 10
1009.9699364041589
 20
1581.107207566844
 11
1053.9699364041644
 21
1581.107207566844
  0
LINE
  8
_0-3_躯体と製品
  6
CONTINUOUS
 62
    3
 10
1003.9699364041626
 20
1587.107207566844
 11
1003.9699364041626
 21
1518.7124075668437
  0
LINE
  8
_0-3_躯体と製品
  6
CONTINUOUS
 62
    3
 10
518.96993640416258
 20
1613.1950475668436
 11
858.96993640416258
 21
1613.1950475668436
  0
LINE
  8
_0-3_躯体と製品
  6
CONTINUOUS
 62
    3
 10
858.96993640416258
 20
1627.107207566844
 11
568.96993640416258
 21
1627.107207566844
  0
LINE
  8
_0-3_躯体と製品
  6
CONTINUOUS
 62
    7
 10
568.96993640416258
 20
1627.107207566844
 11
518.96993640416258
 21
1627.107207566844
  0
LINE
  8
_0-3_躯体と製品
  6
CONTINUOUS
 62
    7
 10
568.96993640416258
 20
1599.1518675668437
 11
568.96993640416258
 21
1627.107207566844
  0
LINE
  8
_0-3_躯体と製品
  6
CONTINUOUS
 62
    3
 10
1433.9699364041626
 20
1309.9609075668436
 11
1059.9699364041571
 21
1309.9609075668436
  0
LINE
  8
_0-3_躯体と製品
  6
CONTINUOUS
 62
    3
 10
1059.9699364041571
 20
1287.7886275668438
 11
1433.9699364041626
 21
1287.7886275668438
  0
LINE
  8
_0-3_躯体と製品
  6
CONTINUOUS
 62
    3
 10
1433.9699364041626
 20
1272.7886275668438
 11
1059.9699364041571
 21
1272.7886275668438
  0
LINE
  8
_0-3_躯体と製品
  6
CONTINUOUS
 62
    3
 10
1059.9699364041571
 20
1553.2118075668434
 11
1059.9699364041571
 21
1254.7253075668432
  0
LINE
  8
_0-3_躯体と製品
  6
PLINE2
 62
    3
 10
2328.9699364041571
 20
1250.039727566844
 11
2328.9699364041571
 21
1104.0397275668438
  0
LINE
  8
_0-4_図面枠
  6
CONTINUOUS
 62
    3
 10
2184.2805564041573
 20
1385.5288475668438
 11
2446.0172964041576
 21
932.18752756684364
  0
LINE
  8
_0-3_躯体と製品
  6
CONTINUOUS
 62
    7
 10
2378.9699364041571
 20
577.10720756684418
 11
2378.9699364041571
 21
1627.107207566844
  0
LINE
  8
_0-3_躯体と製品
  6
CONTINUOUS
 62
    3
 10
2038.9699364041571
 20
997.10720756684407
 11
2378.9699364041571
 21
997.10720756684407
  0
LINE
  8
_0-3_躯体と製品
  6
CONTINUOUS
 62
    3
 10
2038.9699364041571
 20
968.63844756684352
 11
2378.9699364041571
 21
968.63844756684352
  0
LINE
  8
_0-3_躯体と製品
  6
CONTINUOUS
 62
    3
 10
2038.9699364041571
 20
726.60720756684395
 11
2378.9699364041571
 21
726.60720756684395
  0
LINE
  8
_0-3_躯体と製品
  6
CONTINUOUS
 62
    3
 10
2038.9699364041571
 20
781.10720756684384
 11
2378.9699364041571
 21
781.10720756684384
  0
LINE
  8
_0-3_躯体と製品
  6
CONTINUOUS
 62
    3
 10
2038.9699364041571
 20
579.06718756684381
 11
2378.9699364041571
 21
579.06718756684381
  0
LINE
  8
_0-3_躯体と製品
  6
CONTINUOUS
 62
    7
 10
2038.9699364041571
 20
554.22134756684352
 11
2618.9699364041571
 21
554.22134756684352
  0
LINE
  8
_0-3_躯体と製品
  6
CONTINUOUS
 62
    3
 10
2278.9699364041571
 20
552.23128756684355
 11
2277.5286164041572
 21
552.1445475668437
  0
LINE
  8
_0-3_躯体と製品
  6
CONTINUOUS
 62
    3
 10
2277.5286164041572
 20
552.1445475668437
 11
2276.1100164041563
 21
551.88568756684401
  0
LINE
  8
_0-3_躯体と製品
  6
CONTINUOUS
 62
    3
 10
2276.1100164041563
 20
551.88568756684401
 11
2274.7365164041566
 21
551.45882756684341
  0
LINE
  8
_0-3_躯体と製品
  6
CONTINUOUS
 62
    3
 10
2274.7365164041566
 20
551.45882756684341
 11
2273.4297764041567
 21
550.87064756684367
  0
LINE
  8
_0-3_躯体と製品
  6
CONTINUOUS
 62
    3
 10
2273.4297764041567
 20
550.87064756684367
 11
2272.2104164041575
 21
550.13046756684344
  0
LINE
  8
_0-3_躯体と製品
  6
CONTINUOUS
 62
    3
 10
2272.2104164041575
 20
550.13046756684344
 11
2271.0976564041575
 21
549.24992756684344
  0
LINE
  8
_0-3_躯体と製品
  6
CONTINUOUS
 62
    3
 10
2271.0976564041575
 20
549.24992756684344
 11
2270.1090364041575
 21
548.2429475668439
  0
LINE
  8
_0-3_躯体と製品
  6
CONTINUOUS
 62
    3
 10
2270.1090364041575
 20
548.2429475668439
 11
2269.2601764041574
 21
547.12536756684381
  0
LINE
  8
_0-3_躯体と製品
  6
CONTINUOUS
 62
    3
 10
2269.2601764041574
 20
547.12536756684381
 11
2268.5644364041564
 21
545.9148475668436
  0
LINE
  8
_0-3_躯体と製品
  6
CONTINUOUS
 62
    3
 10
2268.5644364041564
 20
545.9148475668436
 11
2268.4631164041566
 21
545.70310756684376
  0
LINE
  8
_0-3_躯体と製品
  6
CONTINUOUS
 62
    3
 10
1978.9699364041571
 20
552.23128756684355
 11
1977.5286164041572
 21
552.1445475668437
  0
LINE
  8
_0-3_躯体と製品
  6
CONTINUOUS
 62
    3
 10
1977.5286164041572
 20
552.1445475668437
 11
1976.1100164041563
 21
551.88568756684401
  0
LINE
  8
_0-3_躯体と製品
  6
CONTINUOUS
 62
    3
 10
1976.1100164041563
 20
551.88568756684401
 11
1974.7365164041566
 21
551.45882756684341
  0
LINE
  8
_0-3_躯体と製品
  6
CONTINUOUS
 62
    3
 10
1974.7365164041566
 20
551.45882756684341
 11
1973.4297764041567
 21
550.87064756684367
  0
LINE
  8
_0-3_躯体と製品
  6
CONTINUOUS
 62
    3
 10
1973.4297764041567
 20
550.87064756684367
 11
1972.2104164041575
 21
550.13046756684344
  0
LINE
  8
_0-3_躯体と製品
  6
CONTINUOUS
 62
    3
 10
1972.2104164041575
 20
550.13046756684344
 11
1971.0976564041575
 21
549.24992756684344
  0
LINE
  8
_0-3_躯体と製品
  6
CONTINUOUS
 62
    3
 10
1971.0976564041575
 20
549.24992756684344
 11
1970.1090364041575
 21
548.2429475668439
  0
LINE
  8
_0-3_躯体と製品
  6
CONTINUOUS
 62
    3
 10
1970.1090364041575
 20
548.2429475668439
 11
1969.2601764041574
 21
547.12536756684381
  0
LINE
  8
_0-3_躯体と製品
  6
CONTINUOUS
 62
    3
 10
1969.2601764041574
 20
547.12536756684381
 11
1968.5644364041564
 21
545.9148475668436
  0
LINE
  8
_0-3_躯体と製品
  6
CONTINUOUS
 62
    3
 10
1968.5644364041564
 20
545.9148475668436
 11
1968.4631164041566
 21
545.70310756684376
  0
LINE
  8
_0-3_躯体と製品
  6
PLINE2
 62
    6
 10
1833.296556404166
 20
436.23128756684321
 11
1951.2866364041565
 21
554.22134756684352
  0
LINE
  8
_0-3_躯体と製品
  6
PLINE2
 62
    6
 10
1797.9412164041623
 20
436.23128756684321
 11
1915.9312964041565
 21
554.22134756684352
  0
LINE
  8
_0-3_躯体と製品
  6
PLINE2
 62
    6
 10
1772.6256164041661
 20
446.2710275668436
 11
1880.5759564041564
 21
554.22134756684352
  0
LINE
  8
_0-3_躯体と製品
  6
PLINE2
 62
    6
 10
1756.2579564041589
 20
465.25868756684372
 11
1845.2206164041563
 21
554.22134756684352
  0
LINE
  8
_0-3_躯体と製品
  6
PLINE2
 62
    6
 10
1739.8902964041645
 20
484.24636756684345
 11
1809.8652764041617
 21
554.22134756684352
  0
LINE
  8
_0-3_躯体と製品
  6
PLINE2
 62
    6
 10
1723.5226164041615
 20
503.23404756684351
 11
1774.5099364041653
 21
554.22134756684352
  0
LINE
  8
_0-3_躯体と製品
  6
PLINE2
 62
    6
 10
1707.1549564041561
 20
522.2217275668437
 11
1739.1545964041561
 21
554.22134756684352
  0
LINE
  8
_0-3_躯体と製品
  6
PLINE2
 62
    6
 10
1953.4990164041665
 20
525.6829475668435
 11
1924.9606164041561
 21
554.22134756684352
  0
LINE
  8
_0-3_躯体と製品
  6
PLINE2
 62
    6
 10
1937.1639564041561
 20
506.66266756684388
 11
1889.605276404156
 21
554.22134756684352
  0
LINE
  8
_0-3_躯体と製品
  6
PLINE2
 62
    6
 10
1920.8288964041567
 20
487.64238756684358
 11
1854.2499364041596
 21
554.22134756684352
  0
LINE
  8
_0-3_躯体と製品
  6
PLINE2
 62
    6
 10
1904.4938364041573
 20
468.6221275668438
 11
1818.8945964041595
 21
554.22134756684352
  0
LINE
  8
_0-3_躯体と製品
  6
PLINE2
 62
    6
 10
1888.158776404156
 20
449.6018475668435
 11
1783.5392764041608
 21
554.22134756684352
  0
LINE
  8
_0-3_躯体と製品
  6
PLINE2
 62
    6
 10
1866.2298164041567
 20
436.17546756684362
 11
1748.183936404168
 21
554.22134756684352
  0
LINE
  8
_0-3_躯体と製品
  6
PLINE2
 62
    6
 10
1831.0078764041646
 20
436.04206756684346
 11
1712.8285964041606
 21
554.22134756684352
  0
LINE
  8
_0-3_躯体と製品
  6
PLINE2
 62
    6
 10
1690.3739364041594
 20
541.32066756684378
 11
1795.7859164041656
 21
435.90868756684381
  0
LINE
  8
_0-3_躯体と製品
  6
CONTINUOUS
 62
    3
 10
1880.9699364041571
 20
436.23128756684321
 11
1776.9699364041662
 21
436.23128756684321
  0
LINE
  8
_0-3_躯体と製品
  6
CONTINUOUS
 62
    3
 10
1703.9699364041644
 20
526.23128756684321
 11
1776.9699364041662
 21
441.23128756684321
  0
LINE
  8
_0-3_躯体と製品
  6
CONTINUOUS
 62
    3
 10
1699.6354964041602
 20
526.23128756684321
 11
1703.9699364041644
 21
526.23128756684321
  0
ARC
  8
_0-3_躯体と製品
  6
CONTINUOUS
 62
    3
 10
1699.6354964041602
 20
529.23128756684332
 40
3
 50
244.98310699999996
 51
270
  0
LINE
  8
_0-3_躯体と製品
  6
CONTINUOUS
 62
    3
 10
1698.366836404166
 20
526.51272756684375
 11
1689.9346164041599
 21
530.44776756684325
  0
LINE
  8
_0-3_躯体と製品
  6
CONTINUOUS
 62
    3
 10
1776.9699364041662
 20
441.23128756684321
 11
1776.9699364041662
 21
436.23128756684321
  0
LINE
  8
_0-3_躯体と製品
  6
PLINE2
 62
    6
 10
1868.651896404157
 20
436.23128756684321
 11
1925.4880964041567
 21
493.06746756684356
  0
LINE
  8
_0-3_躯体と製品
  6
CONTINUOUS
 62
    3
 10
1953.9699364041571
 20
526.23128756684321
 11
1880.9699364041571
 21
441.23128756684321
  0
LINE
  8
_0-3_躯体と製品
  6
CONTINUOUS
 62
    3
 10
1880.9699364041571
 20
441.23128756684321
 11
1880.9699364041571
 21
436.23128756684321
  0
LINE
  8
_0-3_躯体と製品
  6
PLINE2
 62
    6
 10
1958.8995164041571
 20
526.47890756684342
 11
1967.8104164041561
 21
535.3898075668435
  0
LINE
  8
_0-3_躯体と製品
  6
CONTINUOUS
 62
    3
 10
1958.3043964041572
 20
526.23128756684321
 11
1953.9699364041571
 21
526.23128756684321
  0
ARC
  8
_0-3_躯体と製品
  6
CONTINUOUS
 62
    3
 10
1958.3043964041572
 20
529.23128756684332
 40
3
 50
270
 51
295.01689299999992
  0
LINE
  8
_0-3_躯体と製品
  6
CONTINUOUS
 62
    3
 10
1959.5730564041569
 20
526.51272756684375
 11
1967.8104164041561
 21
530.35684756684361
  0
ARC
  8
_0-3_躯体と製品
  6
CONTINUOUS
 62
    3
 10
1671.7955564041586
 20
542.45958756684399
 40
4.4509999999999987
 50
200.57807999999753
 51
206.44862600000042
  0
LINE
  8
_0-3_躯体と製品
  6
CONTINUOUS
 62
    3
 10
1678.9699364041644
 20
552.23128756684355
 11
1677.5286164041627
 21
552.1445475668437
  0
LINE
  8
_0-3_躯体と製品
  6
CONTINUOUS
 62
    3
 10
1677.5286164041627
 20
552.1445475668437
 11
1676.1100164041654
 21
551.88568756684401
  0
LINE
  8
_0-3_躯体と製品
  6
CONTINUOUS
 62
    3
 10
1676.1100164041654
 20
551.88568756684401
 11
1674.7365164041621
 21
551.45882756684341
  0
LINE
  8
_0-3_躯体と製品
  6
CONTINUOUS
 62
    3
 10
1674.7365164041621
 20
551.45882756684341
 11
1673.4297764041621
 21
550.87064756684367
  0
LINE
  8
_0-3_躯体と製品
  6
CONTINUOUS
 62
    3
 10
1673.4297764041621
 20
550.87064756684367
 11
1672.2104164041593
 21
550.13046756684344
  0
LINE
  8
_0-3_躯体と製品
  6
CONTINUOUS
 62
    3
 10
1672.2104164041593
 20
550.13046756684344
 11
1671.0976564041648
 21
549.24992756684344
  0
LINE
  8
_0-3_躯体と製品
  6
CONTINUOUS
 62
    3
 10
1671.0976564041648
 20
549.24992756684344
 11
1670.1090364041629
 21
548.2429475668439
  0
LINE
  8
_0-3_躯体と製品
  6
CONTINUOUS
 62
    3
 10
1670.1090364041629
 20
548.2429475668439
 11
1669.2601764041574
 21
547.12536756684381
  0
LINE
  8
_0-3_躯体と製品
  6
CONTINUOUS
 62
    3
 10
1669.2601764041574
 20
547.12536756684381
 11
1668.5644364041582
 21
545.9148475668436
  0
LINE
  8
_0-3_躯体と製品
  6
CONTINUOUS
 62
    3
 10
1668.5644364041582
 20
545.9148475668436
 11
1668.4631164041639
 21
545.70310756684376
  0
LINE
  8
_0-3_躯体と製品
  6
CONTINUOUS
 62
    3
 10
1689.4767764041626
 20
545.70310756684376
 11
1688.8079764041577
 21
546.92744756684374
  0
LINE
  8
_0-3_躯体と製品
  6
CONTINUOUS
 62
    3
 10
1688.8079764041577
 20
546.92744756684374
 11
1687.9840364041593
 21
548.06194756684374
  0
LINE
  8
_0-3_躯体と製品
  6
CONTINUOUS
 62
    3
 10
1687.9840364041593
 20
548.06194756684374
 11
1687.0179364041614
 21
549.08872756684411
  0
LINE
  8
_0-3_躯体と製品
  6
CONTINUOUS
 62
    3
 10
1687.0179364041614
 20
549.08872756684411
 11
1685.9249164041648
 21
549.99160756684398
  0
LINE
  8
_0-3_躯体と製品
  6
CONTINUOUS
 62
    3
 10
1685.9249164041648
 20
549.99160756684398
 11
1684.7221964041655
 21
550.7563075668437
  0
LINE
  8
_0-3_躯体と製品
  6
CONTINUOUS
 62
    3
 10
1684.7221964041655
 20
550.7563075668437
 11
1683.4287764041619
 21
551.3708075668435
  0
LINE
  8
_0-3_躯体と製品
  6
CONTINUOUS
 62
    3
 10
1683.4287764041619
 20
551.3708075668435
 11
1682.0650364041649
 21
551.82538756684335
  0
LINE
  8
_0-3_躯体と製品
  6
CONTINUOUS
 62
    3
 10
1682.0650364041649
 20
551.82538756684335
 11
1680.6524764041569
 21
552.11290756684332
  0
LINE
  8
_0-3_躯体と製品
  6
CONTINUOUS
 62
    3
 10
1680.6524764041569
 20
552.11290756684332
 11
1679.2133964041586
 21
552.22880756684356
  0
LINE
  8
_0-3_躯体と製品
  6
CONTINUOUS
 62
    3
 10
1679.2133964041586
 20
552.22880756684356
 11
1678.9699364041644
 21
552.23128756684355
  0
ARC
  8
_0-3_躯体と製品
  6
CONTINUOUS
 62
    3
 10
1683.2667964041575
 20
542.14876756684328
 40
7.155219999999999
 50
338.73022399999701
 51
29.784968000002785
  0
LINE
  8
_0-3_躯体と製品
  6
CONTINUOUS
 62
    3
 10
1893.9699364041571
 20
627.10720756684418
 11
1893.9699364041571
 21
726.60720756684395
  0
LINE
  8
_0-3_躯体と製品
  6
CONTINUOUS
 62
    3
 10
1843.9699364041626
 20
726.60720756684395
 11
1843.9699364041626
 21
627.10720756684418
  0
LINE
  8
_0-3_躯体と製品
  6
CONTINUOUS
 62
    3
 10
1843.9699364041626
 20
627.10720756684418
 11
1893.9699364041571
 21
627.10720756684418
  0
ARC
  8
_0-3_躯体と製品
  6
CONTINUOUS
 62
    3
 10
1974.6730964041471
 20
542.14876756684328
 40
7.155219999999999
 50
150.21503199999719
 51
190.09074899999942
  0
ARC
  8
_0-3_躯体と製品
  6
CONTINUOUS
 62
    3
 10
1971.7955564041567
 20
542.45958756684399
 40
4.4509999999999987
 50
200.57807999999753
 51
206.44862600000042
  0
LINE
  8
_0-3_躯体と製品
  6
CONTINUOUS
 62
    3
 10
1856.4699364041571
 20
692.12470756684365
 11
1881.4699364041571
 21
692.12470756684365
  0
LINE
  8
_0-3_躯体と製品
  6
CONTINUOUS
 62
    3
 10
1856.4699364041571
 20
657.75542756684342
 11
1881.4699364041571
 21
657.75542756684342
  0
LINE
  8
_0-3_躯体と製品
  6
PLINE2
 62
    6
 10
2151.4119364041562
 20
436.14862756684386
 11
2269.4846764041577
 21
554.22134756684352
  0
LINE
  8
_0-3_躯体と製品
  6
PLINE2
 62
    6
 10
2115.834036404156
 20
435.9260675668437
 11
2234.1293364041467
 21
554.22134756684352
  0
LINE
  8
_0-3_躯体と製品
  6
PLINE2
 62
    6
 10
2080.2561564041462
 20
435.70350756684388
 11
2198.7739964041575
 21
554.22134756684352
  0
LINE
  8
_0-3_躯体と製品
  6
PLINE2
 62
    6
 10
2064.7596364041565
 20
455.56232756684335
 11
2163.4186564041574
 21
554.22134756684352
  0
LINE
  8
_0-3_躯体と製品
  6
PLINE2
 62
    6
 10
2048.4497564041576
 20
474.60778756684329
 11
2128.0633164041574
 21
554.22134756684352
  0
LINE
  8
_0-3_躯体と製品
  6
PLINE2
 62
    6
 10
2267.1710764041563
 20
530.20896756684351
 11
2243.1586764041567
 21
554.22134756684352
  0
LINE
  8
_0-3_躯体と製品
  6
PLINE2
 62
    6
 10
2245.5719164041566
 20
516.45276756684336
 11
2207.8033364041567
 21
554.22134756684352
  0
LINE
  8
_0-3_躯体と製品
  6
PLINE2
 62
    6
 10
2229.2368564041572
 20
497.43248756684375
 11
2172.4479964041566
 21
554.22134756684352
  0
LINE
  8
_0-3_躯体と製品
  6
PLINE2
 62
    6
 10
2212.9017964041468
 20
478.41220756684402
 11
2137.0926564041674
 21
554.22134756684352
  0
LINE
  8
_0-3_躯体と製品
  6
PLINE2
 62
    6
 10
2196.5667364041565
 20
459.39192756684361
 11
2101.7373164041564
 21
554.22134756684352
  0
LINE
  8
_0-3_躯体と製品
  6
PLINE2
 62
    6
 10
2180.7622364041563
 20
439.84110756684345
 11
2066.3819764041564
 21
554.22134756684352
  0
LINE
  8
_0-3_躯体と製品
  6
PLINE2
 62
    6
 10
2038.9699364041571
 20
535.83864756684375
 11
2057.3526364041572
 21
554.22134756684352
  0
LINE
  8
_0-3_躯体と製品
  6
PLINE2
 62
    6
 10
2038.9699364041571
 20
500.48330756684334
 11
2092.7079764041573
 21
554.22134756684352
  0
LINE
  8
_0-3_躯体と製品
  6
PLINE2
 62
    6
 10
2149.0167164041559
 20
436.23128756684321
 11
2038.9699364041571
 21
546.27804756684407
  0
LINE
  8
_0-3_躯体と製品
  6
PLINE2
 62
    6
 10
1995.7766964041566
 20
554.22134756684352
 11
2018.9699364041571
 21
531.02810756684357
  0
LINE
  8
_0-3_躯体と製品
  6
PLINE2
 62
    6
 10
1995.5862764041576
 20
527.81032756684351
 11
2018.9699364041571
 21
551.19398756684359
  0
LINE
  8
_0-3_躯体と製品
  6
CONTINUOUS
 62
    3
 10
2180.9699364041571
 20
436.23128756684321
 11
2076.9699364041662
 21
436.23128756684321
  0
LINE
  8
_0-3_躯体と製品
  6
PLINE2
 62
    6
 10
2113.6613764041576
 20
436.23128756684321
 11
2038.9699364041571
 21
510.92270756684411
  0
LINE
  8
_0-3_躯体と製品
  6
CONTINUOUS
 62
    3
 10
2038.9699364041571
 20
485.47784756684348
 11
2076.9699364041662
 21
441.23128756684321
  0
LINE
  8
_0-3_躯体と製品
  6
CONTINUOUS
 62
    3
 10
1999.6354964041566
 20
526.23128756684321
 11
2003.9699364041571
 21
526.23128756684321
  0
ARC
  8
_0-3_躯体と製品
  6
CONTINUOUS
 62
    3
 10
1999.6354964041566
 20
529.23128756684332
 40
3
 50
244.98310699999996
 51
270
  0
LINE
  8
_0-3_躯体と製品
  6
CONTINUOUS
 62
    3
 10
1998.3668364041569
 20
526.51272756684375
 11
1989.9346164041563
 21
530.44776756684325
  0
LINE
  8
_0-3_躯体と製品
  6
CONTINUOUS
 62
    3
 10
2003.9699364041571
 20
526.23128756684321
 11
2018.9699364041571
 21
508.76552756684373
  0
LINE
  8
_0-3_躯体と製品
  6
PLINE2
 62
    6
 10
2076.9699364041662
 20
437.5673675668437
 11
2078.3060364041576
 21
436.23128756684321
  0
LINE
  8
_0-3_躯体と製品
  6
CONTINUOUS
 62
    3
 10
2076.9699364041662
 20
441.23128756684321
 11
2076.9699364041662
 21
436.23128756684321
  0
LINE
  8
_0-3_躯体と製品
  6
CONTINUOUS
 62
    3
 10
2253.9699364041571
 20
526.23128756684321
 11
2180.9699364041571
 21
441.23128756684321
  0
LINE
  8
_0-3_躯体と製品
  6
CONTINUOUS
 62
    3
 10
2180.9699364041571
 20
441.23128756684321
 11
2180.9699364041571
 21
436.23128756684321
  0
LINE
  8
_0-3_躯体と製品
  6
CONTINUOUS
 62
    3
 10
2258.3043964041572
 20
526.23128756684321
 11
2253.9699364041571
 21
526.23128756684321
  0
ARC
  8
_0-3_躯体と製品
  6
CONTINUOUS
 62
    3
 10
2258.3043964041572
 20
529.23128756684332
 40
3
 50
270
 51
295.01689299999992
  0
LINE
  8
_0-3_躯体と製品
  6
CONTINUOUS
 62
    3
 10
2259.5730564041569
 20
526.51272756684375
 11
2267.8104164041561
 21
530.35684756684361
  0
LINE
  8
_0-3_躯体と製品
  6
CONTINUOUS
 62
    3
 10
1989.4767764041571
 20
545.70310756684376
 11
1988.8079764041577
 21
546.92744756684374
  0
LINE
  8
_0-3_躯体と製品
  6
CONTINUOUS
 62
    3
 10
1988.8079764041577
 20
546.92744756684374
 11
1987.9840364041575
 21
548.06194756684374
  0
LINE
  8
_0-3_躯体と製品
  6
CONTINUOUS
 62
    3
 10
1987.9840364041575
 20
548.06194756684374
 11
1987.017936404156
 21
549.08872756684411
  0
LINE
  8
_0-3_躯体と製品
  6
CONTINUOUS
 62
    3
 10
1987.017936404156
 20
549.08872756684411
 11
1985.9249164041576
 21
549.99160756684398
  0
LINE
  8
_0-3_躯体と製品
  6
CONTINUOUS
 62
    3
 10
1985.9249164041576
 20
549.99160756684398
 11
1984.7221964041564
 21
550.7563075668437
  0
LINE
  8
_0-3_躯体と製品
  6
CONTINUOUS
 62
    3
 10
1984.7221964041564
 20
550.7563075668437
 11
1983.4287764041565
 21
551.3708075668435
  0
LINE
  8
_0-3_躯体と製品
  6
CONTINUOUS
 62
    3
 10
1983.4287764041565
 20
551.3708075668435
 11
1982.0650364041576
 21
551.82538756684335
  0
LINE
  8
_0-3_躯体と製品
  6
CONTINUOUS
 62
    3
 10
1982.0650364041576
 20
551.82538756684335
 11
1980.652476404146
 21
552.11290756684332
  0
LINE
  8
_0-3_躯体と製品
  6
CONTINUOUS
 62
    3
 10
1980.652476404146
 20
552.11290756684332
 11
1979.2133964041568
 21
552.22880756684356
  0
LINE
  8
_0-3_躯体と製品
  6
CONTINUOUS
 62
    3
 10
1979.2133964041568
 20
552.22880756684356
 11
1978.9699364041571
 21
552.23128756684355
  0
ARC
  8
_0-3_躯体と製品
  6
CONTINUOUS
 62
    3
 10
1983.2667964041575
 20
542.14876756684328
 40
7.155219999999999
 50
338.73022399999701
 51
29.784968000002785
  0
LINE
  8
_0-3_躯体と製品
  6
CONTINUOUS
 62
    3
 10
2163.9699364041571
 20
726.60720756684395
 11
2163.9699364041571
 21
627.10720756684418
  0
LINE
  8
_0-3_躯体と製品
  6
CONTINUOUS
 62
    3
 10
2213.9699364041571
 20
627.10720756684418
 11
2213.9699364041571
 21
726.60720756684395
  0
LINE
  8
_0-3_躯体と製品
  6
CONTINUOUS
 62
    3
 10
2163.9699364041571
 20
627.10720756684418
 11
2213.9699364041571
 21
627.10720756684418
  0
ARC
  8
_0-3_躯体と製品
  6
CONTINUOUS
 62
    3
 10
2274.6730964041471
 20
542.14876756684328
 40
7.155219999999999
 50
150.21503199999719
 51
190.09074899999942
  0
ARC
  8
_0-3_躯体と製品
  6
CONTINUOUS
 62
    3
 10
2271.7955564041567
 20
542.45958756684399
 40
4.4509999999999987
 50
200.57807999999753
 51
206.44862600000042
  0
LINE
  8
_0-3_躯体と製品
  6
CONTINUOUS
 62
    3
 10
2176.4699364041571
 20
698.57932756684386
 11
2201.4699364041571
 21
698.57932756684386
  0
LINE
  8
_0-3_躯体と製品
  6
CONTINUOUS
 62
    3
 10
2176.4699364041571
 20
657.47738756684339
 11
2201.4699364041571
 21
657.47738756684339
  0
LINE
  8
_0-3_躯体と製品
  6
CONTINUOUS
 62
    3
 10
1856.4699364041571
 20
831.26884756684331
 11
1881.4699364041571
 21
831.26884756684331
  0
LINE
  8
_0-3_躯体と製品
  6
CONTINUOUS
 62
    3
 10
1856.4699364041571
 20
882.09912756684389
 11
1881.4699364041571
 21
882.09912756684389
  0
LINE
  8
_0-3_躯体と製品
  6
CONTINUOUS
 62
    3
 10
1856.4699364041571
 20
922.87366756684401
 11
1881.4699364041571
 21
922.87366756684401
  0
LINE
  8
_0-3_躯体と製品
  6
CONTINUOUS
 62
    3
 10
1856.4699364041571
 20
1040.6339475668437
 11
1881.4699364041571
 21
1040.6339475668437
  0
LINE
  8
_0-3_躯体と製品
  6
CONTINUOUS
 62
    3
 10
2176.4699364041571
 20
831.26884756684331
 11
2201.4699364041571
 21
831.26884756684331
  0
LINE
  8
_0-3_躯体と製品
  6
CONTINUOUS
 62
    3
 10
2176.4699364041571
 20
882.09912756684389
 11
2201.4699364041571
 21
882.09912756684389
  0
LINE
  8
_0-3_躯体と製品
  6
CONTINUOUS
 62
    3
 10
2176.4699364041571
 20
922.87366756684401
 11
2201.4699364041571
 21
922.87366756684401
  0
LINE
  8
_0-3_躯体と製品
  6
CONTINUOUS
 62
    3
 10
2176.4699364041571
 20
1040.6339475668437
 11
2201.4699364041571
 21
1040.6339475668437
  0
LINE
  8
_0-3_躯体と製品
  6
CONTINUOUS
 62
    3
 10
2378.9699364041571
 20
816.24148756684372
 11
2378.9699364041571
 21
690.77612756684357
  0
LINE
  8
_0-3_躯体と製品
  6
CONTINUOUS
 62
    3
 10
2378.9699364041571
 20
624.10356756684348
 11
2618.9699364041571
 21
624.10356756684348
  0
LINE
  8
_0-3_躯体と製品
  6
CONTINUOUS
 62
    3
 10
2589.4767764041571
 20
545.70310756684376
 11
2588.8079764041577
 21
546.92744756684374
  0
LINE
  8
_0-3_躯体と製品
  6
CONTINUOUS
 62
    3
 10
2588.8079764041577
 20
546.92744756684374
 11
2587.9840364041575
 21
548.06194756684374
  0
LINE
  8
_0-3_躯体と製品
  6
CONTINUOUS
 62
    3
 10
2587.9840364041575
 20
548.06194756684374
 11
2587.017936404156
 21
549.08872756684411
  0
LINE
  8
_0-3_躯体と製品
  6
CONTINUOUS
 62
    3
 10
2587.017936404156
 20
549.08872756684411
 11
2585.9249164041576
 21
549.99160756684398
  0
LINE
  8
_0-3_躯体と製品
  6
CONTINUOUS
 62
    3
 10
2585.9249164041576
 20
549.99160756684398
 11
2584.7221964041564
 21
550.7563075668437
  0
LINE
  8
_0-3_躯体と製品
  6
CONTINUOUS
 62
    3
 10
2584.7221964041564
 20
550.7563075668437
 11
2583.4287764041565
 21
551.3708075668435
  0
LINE
  8
_0-3_躯体と製品
  6
CONTINUOUS
 62
    3
 10
2583.4287764041565
 20
551.3708075668435
 11
2582.0650364041576
 21
551.82538756684335
  0
LINE
  8
_0-3_躯体と製品
  6
CONTINUOUS
 62
    3
 10
2582.0650364041576
 20
551.82538756684335
 11
2580.6524764041569
 21
552.11290756684332
  0
LINE
  8
_0-3_躯体と製品
  6
CONTINUOUS
 62
    3
 10
2580.6524764041569
 20
552.11290756684332
 11
2579.2133964041459
 21
552.22880756684356
  0
LINE
  8
_0-3_躯体と製品
  6
CONTINUOUS
 62
    3
 10
2579.2133964041459
 20
552.22880756684356
 11
2578.9699364041571
 21
552.23128756684355
  0
LINE
  8
_0-3_躯体と製品
  6
PLINE2
 62
    6
 10
2435.0675164041568
 20
436.96148756684363
 11
2552.3273964041564
 21
554.22134756684352
  0
LINE
  8
_0-3_躯体と製品
  6
PLINE2
 62
    6
 10
2399.8732564041566
 20
437.12256756684394
 11
2516.9720564041563
 21
554.22134756684352
  0
LINE
  8
_0-3_躯体と製品
  6
PLINE2
 62
    6
 10
2372.9167964041571
 20
445.52144756684368
 11
2481.6167164041563
 21
554.22134756684352
  0
LINE
  8
_0-3_躯体と製品
  6
PLINE2
 62
    6
 10
2356.7543564041571
 20
464.71434756684368
 11
2446.2613764041562
 21
554.22134756684352
  0
LINE
  8
_0-3_躯体と製品
  6
PLINE2
 62
    6
 10
2340.5291164041573
 20
483.84444756684331
 11
2410.9060364041561
 21
554.22134756684352
  0
LINE
  8
_0-3_躯体と製品
  6
PLINE2
 62
    6
 10
2324.265016404157
 20
502.93566756684379
 11
2375.550696404156
 21
554.22134756684352
  0
LINE
  8
_0-3_躯体と製品
  6
PLINE2
 62
    6
 10
2308.0008964041572
 20
522.02688756684336
 11
2340.195356404156
 21
554.22134756684352
  0
LINE
  8
_0-3_躯体と製品
  6
PLINE2
 62
    6
 10
2553.9866164041559
 20
526.23612756684349
 11
2526.0013964041573
 21
554.22134756684352
  0
LINE
  8
_0-3_躯体と製品
  6
PLINE2
 62
    6
 10
2537.6448164041576
 20
507.2225875668438
 11
2490.6460564041572
 21
554.22134756684352
  0
LINE
  8
_0-3_躯体と製品
  6
PLINE2
 62
    6
 10
2521.3097564041564
 20
488.20230756684361
 11
2455.2907164041571
 21
554.22134756684352
  0
LINE
  8
_0-3_躯体と製品
  6
PLINE2
 62
    6
 10
2504.9746964041569
 20
469.18202756684377
 11
2419.9353764041571
 21
554.22134756684352
  0
LINE
  8
_0-3_躯体と製品
  6
PLINE2
 62
    6
 10
2488.6396364041575
 20
450.16174756684347
 11
2384.580036404157
 21
554.22134756684352
  0
LINE
  8
_0-3_躯体と製品
  6
PLINE2
 62
    6
 10
2466.7656764041476
 20
436.68036756684342
 11
2349.2246964041569
 21
554.22134756684352
  0
LINE
  8
_0-3_躯体と製品
  6
PLINE2
 62
    6
 10
2431.5862764041576
 20
436.50442756684379
 11
2313.8693564041459
 21
554.22134756684352
  0
LINE
  8
_0-3_躯体と製品
  6
PLINE2
 62
    6
 10
2290.4200764041561
 20
542.31528756684349
 11
2396.4068764041567
 21
436.32848756684348
  0
LINE
  8
_0-3_躯体と製品
  6
CONTINUOUS
 62
    3
 10
2480.9699364041571
 20
436.23128756684321
 11
2376.9699364041662
 21
436.23128756684321
  0
LINE
  8
_0-3_躯体と製品
  6
CONTINUOUS
 62
    3
 10
2303.9699364041571
 20
526.23128756684321
 11
2376.9699364041662
 21
441.23128756684321
  0
LINE
  8
_0-3_躯体と製品
  6
CONTINUOUS
 62
    3
 10
2299.6354964041566
 20
526.23128756684321
 11
2303.9699364041571
 21
526.23128756684321
  0
ARC
  8
_0-3_躯体と製品
  6
CONTINUOUS
 62
    3
 10
2299.6354964041566
 20
529.23128756684332
 40
3
 50
244.98310699999996
 51
270
  0
LINE
  8
_0-3_躯体と製品
  6
CONTINUOUS
 62
    3
 10
2298.3668364041569
 20
526.51272756684375
 11
2289.9346164041563
 21
530.44776756684325
  0
LINE
  8
_0-3_躯体と製品
  6
CONTINUOUS
 62
    3
 10
2376.9699364041662
 20
441.23128756684321
 11
2376.9699364041662
 21
436.23128756684321
  0
LINE
  8
_0-3_躯体と製品
  6
PLINE2
 62
    6
 10
2470.2617964041474
 20
436.80040756684332
 11
2521.0662764041572
 21
487.60490756684374
  0
LINE
  8
_0-3_躯体と製品
  6
CONTINUOUS
 62
    3
 10
2553.9699364041571
 20
526.23128756684321
 11
2480.9699364041571
 21
441.23128756684321
  0
LINE
  8
_0-3_躯体と製品
  6
CONTINUOUS
 62
    3
 10
2480.9699364041571
 20
441.23128756684321
 11
2480.9699364041571
 21
436.23128756684321
  0
LINE
  8
_0-3_躯体と製品
  6
PLINE2
 62
    6
 10
2561.0954964041575
 20
527.63410756684391
 11
2571.2532764041571
 21
537.79190756684341
  0
LINE
  8
_0-3_躯体と製品
  6
CONTINUOUS
 62
    3
 10
2558.3043964041572
 20
526.23128756684321
 11
2553.9699364041571
 21
526.23128756684321
  0
ARC
  8
_0-3_躯体と製品
  6
CONTINUOUS
 62
    3
 10
2558.3043964041572
 20
529.23128756684332
 40
3
 50
270
 51
295.01689299999992
  0
LINE
  8
_0-3_躯体と製品
  6
CONTINUOUS
 62
    3
 10
2559.5730564041569
 20
526.51272756684375
 11
2567.6285564041573
 21
530.27196756684361
  0
LINE
  8
_0-3_躯体と製品
  6
PLINE2
 62
    6
 10
2281.1522764041565
 20
551.58310756684398
 11
2278.5140164041568
 21
554.22134756684352
  0
LINE
  8
_0-3_躯体と製品
  6
PLINE2
 62
    6
 10
2289.9346164041563
 20
539.31594756684399
 11
2304.8400164041559
 21
554.22134756684352
  0
LINE
  8
_0-3_躯体と製品
  6
CONTINUOUS
 62
    3
 10
2289.4767764041571
 20
545.70310756684376
 11
2288.8079764041577
 21
546.92744756684374
  0
LINE
  8
_0-3_躯体と製品
  6
CONTINUOUS
 62
    3
 10
2288.8079764041577
 20
546.92744756684374
 11
2287.9840364041575
 21
548.06194756684374
  0
LINE
  8
_0-3_躯体と製品
  6
CONTINUOUS
 62
    3
 10
2287.9840364041575
 20
548.06194756684374
 11
2287.017936404156
 21
549.08872756684411
  0
LINE
  8
_0-3_躯体と製品
  6
CONTINUOUS
 62
    3
 10
2287.017936404156
 20
549.08872756684411
 11
2285.9249164041576
 21
549.99160756684398
  0
LINE
  8
_0-3_躯体と製品
  6
CONTINUOUS
 62
    3
 10
2285.9249164041576
 20
549.99160756684398
 11
2284.7221964041564
 21
550.7563075668437
  0
LINE
  8
_0-3_躯体と製品
  6
CONTINUOUS
 62
    3
 10
2284.7221964041564
 20
550.7563075668437
 11
2283.4287764041565
 21
551.3708075668435
  0
LINE
  8
_0-3_躯体と製品
  6
CONTINUOUS
 62
    3
 10
2283.4287764041565
 20
551.3708075668435
 11
2282.0650364041576
 21
551.82538756684335
  0
LINE
  8
_0-3_躯体と製品
  6
CONTINUOUS
 62
    3
 10
2282.0650364041576
 20
551.82538756684335
 11
2280.6524764041569
 21
552.11290756684332
  0
LINE
  8
_0-3_躯体と製品
  6
CONTINUOUS
 62
    3
 10
2280.6524764041569
 20
552.11290756684332
 11
2279.2133964041568
 21
552.22880756684356
  0
LINE
  8
_0-3_躯体と製品
  6
CONTINUOUS
 62
    3
 10
2279.2133964041568
 20
552.22880756684356
 11
2278.9699364041571
 21
552.23128756684355
  0
ARC
  8
_0-3_躯体と製品
  6
CONTINUOUS
 62
    3
 10
2283.2667964041575
 20
542.14876756684328
 40
7.155219999999999
 50
338.73022399999701
 51
29.784968000002785
  0
LINE
  8
_0-3_躯体と製品
  6
PLINE2
 62
    6
 10
2568.5683764041569
 20
547.00970756684421
 11
2561.3567364041573
 21
554.22134756684352
  0
ARC
  8
_0-3_躯体と製品
  6
CONTINUOUS
 62
    3
 10
2574.6730964041471
 20
542.14876756684328
 40
7.155219999999999
 50
150.21503199999719
 51
190.09074899999942
  0
ARC
  8
_0-3_躯体と製品
  6
CONTINUOUS
 62
    3
 10
2571.7955564041567
 20
542.45958756684399
 40
4.4509999999999987
 50
200.57807999999753
 51
206.44862600000042
  0
LINE
  8
_0-3_躯体と製品
  6
CONTINUOUS
 62
    3
 10
2578.9699364041571
 20
552.23128756684355
 11
2577.5286164041572
 21
552.1445475668437
  0
LINE
  8
_0-3_躯体と製品
  6
CONTINUOUS
 62
    3
 10
2577.5286164041572
 20
552.1445475668437
 11
2576.1100164041563
 21
551.88568756684401
  0
LINE
  8
_0-3_躯体と製品
  6
CONTINUOUS
 62
    3
 10
2576.1100164041563
 20
551.88568756684401
 11
2574.7365164041566
 21
551.45882756684341
  0
LINE
  8
_0-3_躯体と製品
  6
CONTINUOUS
 62
    3
 10
2574.7365164041566
 20
551.45882756684341
 11
2573.4297764041567
 21
550.87064756684367
  0
LINE
  8
_0-3_躯体と製品
  6
CONTINUOUS
 62
    3
 10
2573.4297764041567
 20
550.87064756684367
 11
2572.2104164041575
 21
550.13046756684344
  0
LINE
  8
_0-3_躯体と製品
  6
CONTINUOUS
 62
    3
 10
2572.2104164041575
 20
550.13046756684344
 11
2571.0976564041575
 21
549.24992756684344
  0
LINE
  8
_0-3_躯体と製品
  6
CONTINUOUS
 62
    3
 10
2571.0976564041575
 20
549.24992756684344
 11
2570.1090364041575
 21
548.2429475668439
  0
LINE
  8
_0-3_躯体と製品
  6
CONTINUOUS
 62
    3
 10
2570.1090364041575
 20
548.2429475668439
 11
2569.2601764041574
 21
547.12536756684381
  0
LINE
  8
_0-3_躯体と製品
  6
CONTINUOUS
 62
    3
 10
2569.2601764041574
 20
547.12536756684381
 11
2568.5644364041564
 21
545.9148475668436
  0
LINE
  8
_0-3_躯体と製品
  6
CONTINUOUS
 62
    3
 10
2568.5644364041564
 20
545.9148475668436
 11
2568.4631164041566
 21
545.70310756684376
  0
LINE
  8
_0-3_躯体と製品
  6
CONTINUOUS
 62
    3
 10
2652.312796404156
 20
551.38318756684396
 11
2654.8919364041576
 21
536.82710756684355
  0
LINE
  8
_0-3_躯体と製品
  6
CONTINUOUS
 62
    7
 10
2618.9699364041571
 20
554.22134756684352
 11
2652.312796404156
 21
481.50096756684388
  0
LINE
  8
_0-3_躯体と製品
  6
CONTINUOUS
 62
    3
 10
2853.9699364041571
 20
596.10720756684384
 11
2780.9699364041571
 21
511.10720756684395
  0
LINE
  8
_0-3_躯体と製品
  6
CONTINUOUS
 62
    3
 10
2652.312796404156
 20
481.50096756684388
 11
2652.312796404156
 21
551.38318756684396
  0
LINE
  8
_0-3_躯体と製品
  6
CONTINUOUS
 62
    3
 10
2780.9699364041571
 20
506.10720756684384
 11
2676.9699364041662
 21
506.10720756684384
  0
LINE
  8
_0-3_躯体と製品
  6
CONTINUOUS
 62
    3
 10
2654.8919364041576
 20
536.81446756684363
 11
2676.9699364041662
 21
511.10720756684395
  0
LINE
  8
_0-3_躯体と製品
  6
CONTINUOUS
 62
    7
 10
2652.312796404156
 20
481.50096756684388
 11
2654.8919364041576
 21
466.94488756684359
  0
LINE
  8
_0-3_躯体と製品
  6
CONTINUOUS
 62
    3
 10
2599.6354964041566
 20
526.23128756684321
 11
2603.9699364041571
 21
526.23128756684321
  0
ARC
  8
_0-3_躯体と製品
  6
CONTINUOUS
 62
    3
 10
2599.6354964041566
 20
529.23128756684332
 40
3
 50
244.98310699999996
 51
270
  0
LINE
  8
_0-3_躯体と製品
  6
CONTINUOUS
 62
    3
 10
2654.8919364041576
 20
466.94488756684359
 11
2654.8919364041576
 21
536.82710756684355
  0
LINE
  8
_0-3_躯体と製品
  6
CONTINUOUS
 62
    3
 10
2598.3668364041569
 20
526.51272756684375
 11
2590.2780964041576
 21
530.28746756684382
  0
LINE
  8
_0-3_躯体と製品
  6
CONTINUOUS
 62
    3
 10
2676.9699364041662
 20
511.10720756684395
 11
2676.9699364041662
 21
506.10720756684384
  0
LINE
  8
_0-3_躯体と製品
  6
CONTINUOUS
 62
    3
 10
2780.9699364041571
 20
511.10720756684395
 11
2780.9699364041571
 21
506.10720756684384
  0
LINE
  8
_0-3_躯体と製品
  6
CONTINUOUS
 62
    3
 10
2618.9699364041571
 20
624.10356756684348
 11
2652.312796404156
 21
551.38318756684396
  0
LINE
  8
_0-3_躯体と製品
  6
CONTINUOUS
 62
    3
 10
2618.9699364041571
 20
624.10356756684348
 11
2618.9699364041571
 21
554.22134756684352
  0
ARC
  8
_0-3_躯体と製品
  6
CONTINUOUS
 62
    3
 10
2583.2667964041575
 20
542.14876756684328
 40
7.155219999999999
 50
338.73022399999701
 51
29.784968000002785
  0
TEXT
  8
_0-4_図面枠
 62
    7
 10
2446.0174964041562
 20
942.18766756684408
 40
60
 41
0.8000000000000009
 50
0.0000099999993779
  1
六角ボルト
  0
LINE
  8
_0-4_図面枠
  6
CONTINUOUS
 62
    3
 10
2446.0172964041576
 20
932.18752756684364
 11
2711.4883964041674
 21
932.18752756684364
  0
LINE
  8
_0-3_躯体と製品
  6
PLINE2
 62
    3
 10
2328.9699364041571
 20
1104.0397275668438
 11
2378.9699364041571
 21
1104.0397275668438
  0
LINE
  8
_0-3_躯体と製品
  6
CONTINUOUS
 62
    3
 10
2344.8963964041559
 20
1140.8083875668435
 11
2358.8963964041559
 21
1140.8083875668435
  0
LINE
  8
_0-3_躯体と製品
  6
CONTINUOUS
 62
    3
 10
2351.8963964041559
 20
1147.8083875668433
 11
2351.8963964041559
 21
1133.8083875668435
  0
LINE
  8
_0-3_躯体と製品
  6
PLINE2
 62
    3
 10
2038.9699364041571
 20
1613.1950475668436
 11
2378.9699364041571
 21
1613.1950475668436
  0
LINE
  8
_0-3_躯体と製品
  6
CONTINUOUS
 62
    3
 10
2038.9699364041571
 20
1587.107207566844
 11
2379.9699364041571
 21
1587.107207566844
  0
LINE
  8
_0-3_躯体と製品
  6
CONTINUOUS
 62
    3
 10
2038.9699364041571
 20
1453.0846475668438
 11
2378.9699364041571
 21
1453.0846475668438
  0
LINE
  8
_0-3_躯体と製品
  6
CONTINUOUS
 62
    3
 10
2038.9699364041571
 20
1404.0397275668438
 11
2378.9699364041571
 21
1404.0397275668438
  0
LINE
  8
_0-3_躯体と製品
  6
CONTINUOUS
 62
    3
 10
2038.9699364041571
 20
1627.107207566844
 11
2327.9699364041571
 21
1627.107207566844
  0
LINE
  8
_0-3_躯体と製品
  6
CONTINUOUS
 62
    3
 10
1856.4699364041571
 20
1212.6617275668441
 11
1881.4699364041571
 21
1212.6617275668441
  0
LINE
  8
_0-3_躯体と製品
  6
CONTINUOUS
 62
    3
 10
1856.4699364041571
 20
1468.9895475668436
 11
1881.4699364041571
 21
1468.9895475668436
  0
LINE
  8
_0-3_躯体と製品
  6
CONTINUOUS
 62
    3
 10
1856.4699364041571
 20
1384.1203875668436
 11
1881.4699364041571
 21
1384.1203875668436
  0
LINE
  8
_0-3_躯体と製品
  6
CONTINUOUS
 62
    3
 10
1856.4699364041571
 20
1568.1947275668438
 11
1881.4699364041571
 21
1568.1947275668438
  0
LINE
  8
_0-3_躯体と製品
  6
CONTINUOUS
 62
    3
 10
1856.4699364041571
 20
1517.1585475668435
 11
1881.4699364041571
 21
1517.1585475668435
  0
LINE
  8
_0-4_図面枠
  6
CONTINUOUS
 62
    3
 10
2184.2805564041573
 20
1385.5288475668438
 11
2212.9408164041561
 21
1355.8878275668435
  0
LINE
  8
_0-3_躯体と製品
  6
CONTINUOUS
 62
    3
 10
2176.4699364041571
 20
1212.6617275668441
 11
2201.4699364041571
 21
1212.6617275668441
  0
LINE
  8
_0-3_躯体と製品
  6
CONTINUOUS
 62
    3
 10
2176.4699364041571
 20
1384.1203875668436
 11
2201.4699364041571
 21
1384.1203875668436
  0
LINE
  8
_0-3_躯体と製品
  6
CONTINUOUS
 62
    3
 10
2176.4699364041571
 20
1468.9895475668436
 11
2201.4699364041571
 21
1468.9895475668436
  0
LINE
  8
_0-3_躯体と製品
  6
CONTINUOUS
 62
    3
 10
2176.4699364041571
 20
1517.1585475668435
 11
2201.4699364041571
 21
1517.1585475668435
  0
LINE
  8
_0-3_躯体と製品
  6
CONTINUOUS
 62
    3
 10
2176.4699364041571
 20
1568.1947275668438
 11
2201.4699364041571
 21
1568.1947275668438
  0
LINE
  8
_0-3_躯体と製品
  6
PLINE2
 62
    3
 10
2370.9699364041571
 20
1248.0397275668442
 11
2330.9699364041571
 21
1248.0397275668442
  0
LINE
  8
_0-3_躯体と製品
  6
PLINE2
 62
    3
 10
2378.9699364041571
 20
1254.0397275668438
 11
2328.9699364041571
 21
1254.0397275668438
  0
LINE
  8
_0-3_躯体と製品
  6
CONTINUOUS
 62
    3
 10
2345.6246764041462
 20
1200.891667566844
 11
2359.6246764041571
 21
1200.891667566844
  0
LINE
  8
_0-3_躯体と製品
  6
CONTINUOUS
 62
    3
 10
2352.6246764041571
 20
1207.8916675668438
 11
2352.6246764041571
 21
1193.8916675668438
  0
ARC
  8
_0-3_躯体と製品
  6
PLINE2
 62
    3
 10
2330.9699364041571
 20
1250.039727566844
 40
2
 50
180
 51
270
  0
LINE
  8
_0-3_躯体と製品
  6
PLINE2
 62
    3
 10
2328.9699364041571
 20
1250.039727566844
 11
2328.9699364041571
 21
1254.0397275668438
  0
LINE
  8
_0-3_躯体と製品
  6
PLINE2
 62
    3
 10
2374.9699364041571
 20
1204.0397275668438
 11
2378.9699364041571
 21
1204.0397275668438
  0
ARC
  8
_0-3_躯体と製品
  6
PLINE2
 62
    3
 10
2374.9699364041571
 20
1206.0397275668438
 40
2
 50
180
 51
270
  0
LINE
  8
_0-3_躯体と製品
  6
PLINE2
 62
    3
 10
2372.9699364041571
 20
1206.0397275668438
 11
2372.9699364041571
 21
1246.0397275668438
  0
ARC
  8
_0-3_躯体と製品
  6
PLINE2
 62
    3
 10
2370.9699364041571
 20
1246.0397275668438
 40
2
 50
0
 51
90
  0
LINE
  8
_0-3_躯体と製品
  6
CONTINUOUS
 62
    7
 10
2328.9699364041571
 20
1627.107207566844
 11
2378.9699364041571
 21
1627.107207566844
  0
LINE
  8
_0-3_躯体と製品
  6
CONTINUOUS
 62
    7
 10
2328.9699364041571
 20
1599.1518675668437
 11
2328.9699364041571
 21
1627.107207566844
  0
INSERT
  2
-001-_D4
  8
_0-2_寸法
 10
-8143.9256534715532
 20
1364.3252022972304
 41
10
 42
10
 50
0
  0
INSERT
  2
-002-_D5
  8
_0-2_寸法
 10
-8143.9256534715532
 20
1364.3252022972304
 41
10
 42
10
 50
0
  0
INSERT
  2
-003-_D6
  8
_0-2_寸法
 10
-8143.9256534715532
 20
1364.3252022972304
 41
10
 42
10
 50
0
  0
INSERT
  2
-004-_D7
  8
_0-2_寸法
 10
-8143.9256534715532
 20
1364.3252022972304
 41
10
 42
10
 50
0
  0
INSERT
  2
-005-_D8
  8
_0-2_寸法
 10
-8143.9256534715532
 20
1364.3252022972304
 41
10
 42
10
 50
0
  0
INSERT
  2
-006-_D9
  8
_0-2_寸法
 10
-8143.9256534715532
 20
1364.3252022972304
 41
10
 42
10
 50
0
  0
INSERT
  2
-007-_D10
  8
_0-2_寸法
 10
-8143.9256534715532
 20
1364.3252022972304
 41
10
 42
10
 50
0
  0
INSERT
  2
-008-_D11
  8
_0-2_寸法
 10
-8143.9256534715532
 20
1364.3252022972304
 41
10
 42
10
 50
0
  0
INSERT
  2
-009-_D12
  8
_0-2_寸法
 10
-8143.9256534715532
 20
1364.3252022972304
 41
10
 42
10
 50
0
  0
INSERT
  2
-010-_D13
  8
_0-2_寸法
 10
-8143.9256534715532
 20
1364.3252022972304
 41
10
 42
10
 50
0
  0
INSERT
  2
-011-_D14
  8
_0-2_寸法
 10
-8143.9256534715532
 20
1364.3252022972304
 41
10
 42
10
 50
0
  0
INSERT
  2
-012-_D15
  8
_0-2_寸法
 10
-8143.9256534715532
 20
1364.3252022972304
 41
10
 42
10
 50
0
  0
INSERT
  2
-013-_D16
  8
_0-2_寸法
 10
-8143.9256534715532
 20
1364.3252022972304
 41
10
 42
10
 50
0
  0
INSERT
  2
-014-_D17
  8
_0-2_寸法
 10
-8143.9256534715532
 20
1364.3252022972304
 41
10
 42
10
 50
0
  0
ENDSEC
  0
EOF
