  0
SECTION
  2
HEADER
  9
$ACADVER
  1
AC1009
  9
$INSBASE
 10
0
 20
0
 30
0
  9
$EXTMIN
 10
0
 20
0
  9
$EXTMAX
 10
841
 20
594
  9
$LIMMIN
 10
0
 20
0
  9
$LIMMAX
 10
841
 20
594
  9
$LTSCALE
 40
1
  0
ENDSEC
  0
SECTION
  2
TABLES
  0
TABLE
  2
LTYPE
 70
     9
  0
LTYPE
  2
CONTINUOUS
 70
    64
  3
実線
 72
    65
 73
     0
 40
0.0
  0
LTYPE
  2
DASHED1
 70
    64
  3
--  --  --  --  --  --  --  --  
 72
    65
 73
     2
 40
2.5
 49
1.25
 49
-1.25
  0
LTYPE
  2
DASHED2
 70
    64
  3
----    ----    ----    ----    
 72
    65
 73
     2
 40
5.0
 49
2.5
 49
-2.5
  0
LTYPE
  2
DASHED3
 70
    64
  3
------  ------  ------  ------  
 72
    65
 73
     2
 40
5.0
 49
3.75
 49
-1.25
  0
LTYPE
  2
CENTER1
 70
    64
  3
----- - ----- - ----- - ----- - 
 72
    65
 73
     4
 40
10.0
 49
6.25
 49
-1.25
 49
1.25
 49
-1.25
  0
LTYPE
  2
CENTER2
 70
    64
  3
----------  --  ----------  --  
 72
    65
 73
     4
 40
20.0
 49
12.5
 49
-2.5
 49
2.5
 49
-2.5
  0
LTYPE
  2
PHANTOM1
 70
    64
  3
--- - - --- - - --- - - --- - - 
 72
    65
 73
     6
 40
10.0
 49
3.25
 49
-1.25
 49
1.25
 49
-1.25
 49
1.25
 49
-1.25
  0
LTYPE
  2
PHANTOM2
 70
    64
  3
--------  -  -  --------  -  -  
 72
    65
 73
     6
 40
20.0
 49
10.0
 49
-2.5
 49
1.25
 49
-2.5
 49
1.25
 49
-2.5
  0
LTYPE
  2
DOT
 70
    64
  3
-   -   -   -   -   -   -   -   
 72
    65
 73
     2
 40
2.5
 49
0.625
 49
-1.875
  0
LTYPE
  2
DUMMY
 70
    64
  3
ダミー
 72
    65
 73
     0
 40
0.0
  0
LTYPE
  2
RAND1
 70
    64
  3
ランダム線1
 72
    65
 73
     4
 40
10.0
 49
1.0
 49
-2.0
 49
3.0
 49
-4.0
  0
LTYPE
  2
RAND2
 70
    64
  3
ランダム線2
 72
    65
 73
     4
 40
14.0
 49
2.0
 49
-3.0
 49
4.0
 49
-5.0
  0
LTYPE
  2
RAND3
 70
    64
  3
ランダム線3
 72
    65
 73
     4
 40
18.0
 49
3.0
 49
-4.0
 49
5.0
 49
-6.0
  0
LTYPE
  2
RAND4
 70
    64
  3
ランダム線4
 72
    65
 73
     4
 40
22.0
 49
4.0
 49
-5.0
 49
6.0
 49
-7.0
  0
LTYPE
  2
RAND5
 70
    64
  3
ランダム線5
 72
    65
 73
     4
 40
26.0
 49
5.0
 49
-6.0
 49
7.0
 49
-8.0
  0
LTYPE
  2
LONG1
 70
    64
  3
----------  --  ----------  --  
 72
    65
 73
     4
 40
40.0
 49
32.5
 49
-2.5
 49
2.5
 49
-2.5
  0
LTYPE
  2
LONG2
 70
    64
  3
--------  -  -  --------  -  -  
 72
    65
 73
     6
 40
40.0
 49
30.0
 49
-2.5
 49
1.25
 49
-2.5
 49
1.25
 49
-2.5
  0
LTYPE
  2
LONG3
 70
    64
  3
+++++++++++++++..+++++++++++++++
 72
    65
 73
     2
 40
40.0
 49
37.5
 49
-2.5
  0
LTYPE
  2
LONG4
 70
    64
  3
+++++++++++++++..+++++++++++++++
 72
    65
 73
     2
 40
80.0
 49
75.0
 49
-5.0
  0
LTYPE
  2
LONG5
 70
    64
  3
----------  --  ----------  --  
 72
    65
 73
     4
 40
60.0
 49
37.5
 49
-7.5
 49
7.5
 49
-7.5
  0
LTYPE
  2
dashed
 70
   64
  3
-------   -------------   ------
 72
   65
 73
    2
 40
7.5
 49
6
 49
-1.5
  0
LTYPE
  2
dashed_spaced
 70
   64
  3
----        --------        ----
 72
   65
 73
    2
 40
12
 49
6
 49
-6
  0
LTYPE
  2
long_dashed_dotted
 70
   64
  3
------------- --- --------------
 72
   65
 73
    4
 40
15.25
 49
12
 49
-1.5
 49
0.25
 49
-1.5
  0
LTYPE
  2
long_dashed_double-dotted
 70
   64
  3
----------- --- --- ------------
 72
   65
 73
    6
 40
17
 49
12
 49
-1.5
 49
0.25
 49
-1.5
 49
0.25
 49
-1.5
  0
LTYPE
  2
long_dashed_triplicate-dotted
 70
   64
  3
--------- --- --- --- ----------
 72
   65
 73
    8
 40
18.75
 49
12
 49
-1.5
 49
0.25
 49
-1.5
 49
0.25
 49
-1.5
 49
0.25
 49
-1.5
  0
LTYPE
  2
dotted
 70
   64
  3
   -       -       -       -    
 72
   65
 73
    2
 40
1.75
 49
0.25
 49
-1.5
  0
LTYPE
  2
chain
 70
   64
  3
-------------- -- --------------
 72
   65
 73
    4
 40
18.5
 49
12
 49
-1.5
 49
3.5
 49
-1.5
  0
LTYPE
  2
chain_double_dash
 70
   64
  3
------------ -- -- -------------
 72
   65
 73
    6
 40
23.5
 49
12
 49
-1.5
 49
3.5
 49
-1.5
 49
3.5
 49
-1.5
  0
LTYPE
  2
dashed_dotted
 70
   64
  3
-----------     -     ----------
 72
   65
 73
    4
 40
9.25
 49
6
 49
-1.5
 49
0.25
 49
-1.5
  0
LTYPE
  2
double-dashed_dotted
 70
   64
  3
------   -----------   -   -----
 72
   65
 73
    6
 40
16.75
 49
6
 49
-1.5
 49
6
 49
-1.5
 49
0.25
 49
-1.5
  0
LTYPE
  2
dashed_double-dotted
 70
   64
  3
---------    -    -    ---------
 72
   65
 73
    6
 40
11
 49
6
 49
-1.5
 49
0.25
 49
-1.5
 49
0.25
 49
-1.5
  0
LTYPE
  2
double-dashed_double-dotted
 70
   64
  3
-----   ---------   -   -   ----
 72
   65
 73
    8
 40
18.5
 49
6
 49
-1.5
 49
6
 49
-1.5
 49
0.25
 49
-1.5
 49
0.25
 49
-1.5
  0
LTYPE
  2
dashed_triplicate-dotted
 70
   64
  3
-------    -    -    -    ------
 72
   65
 73
    8
 40
12.75
 49
6
 49
-1.5
 49
0.25
 49
-1.5
 49
0.25
 49
-1.5
 49
0.25
 49
-1.5
  0
LTYPE
  2
double-dashed_triplicate-dotted
 70
   64
  3
-----  ---------  -  -  -  -----
 72
   65
 73
   10
 40
20.25
 49
6
 49
-1.5
 49
6
 49
-1.5
 49
0.25
 49
-1.5
 49
0.25
 49
-1.5
 49
0.25
 49
-1.5
  0
LTYPE
  2
undefined
 70
   64
  3
--------------------------------
 72
   65
 73
    0
 40
0
  0
LTYPE
  2
PLINE2
 70
   64
  3
------     -----------     -----
 72
   65
 73
    2
 40
3
 49
2.1000000000000001
 49
-0.9
  0
LTYPE
  2
PLINE3
 70
   64
  3
------------   ---   -----------
 72
   65
 73
    4
 40
10
 49
7
 49
-1
 49
1
 49
-1
  0
LTYPE
  2
PLINE4
 70
   64
  3
---------   ---   ---   --------
 72
   65
 73
    6
 40
10
 49
5
 49
-1
 49
1
 49
-1
 49
1
 49
-1
  0
LTYPE
  2
PLINE5
 70
   64
  3
------     -----------     -----
 72
   65
 73
    2
 40
5
 49
3.5
 49
-1.5
  0
LTYPE
  2
PLINE6
 70
   64
  3
------------   ---   -----------
 72
   65
 73
    4
 40
15
 49
10.5
 49
-1.5
 49
1.5
 49
-1.5
  0
LTYPE
  2
PLINE7
 70
   64
  3
---------   ---   ---   --------
 72
   65
 73
    6
 40
15
 49
7.5
 49
-1.5
 49
1.5
 49
-1.5
 49
1.5
 49
-1.5
  0
LTYPE
  2
PLINE8
 70
   64
  3
------     -----------     -----
 72
   65
 73
    2
 40
7
 49
4.9000000000000004
 49
-2.1000000000000001
  0
LTYPE
  2
PLINE9
 70
   64
  3
------------   ---   -----------
 72
   65
 73
    4
 40
20
 49
14
 49
-2
 49
2
 49
-2
  0
LTYPE
  2
PLINE10
 70
   64
  3
---------   ---   ---   --------
 72
   65
 73
    6
 40
20
 49
10
 49
-2
 49
2
 49
-2
 49
2
 49
-2
  0
LTYPE
  2
PLINE11
 70
   64
  3
------     -----------     -----
 72
   65
 73
    2
 40
9
 49
6.2999999999999989
 49
-2.7000000000000002
  0
LTYPE
  2
PLINE12
 70
   64
  3
------------   ---   -----------
 72
   65
 73
    4
 40
25
 49
17.5
 49
-2.5
 49
2.5
 49
-2.5
  0
LTYPE
  2
PLINE13
 70
   64
  3
---------   ---   ---   --------
 72
   65
 73
    6
 40
25
 49
12.5
 49
-2.5
 49
2.5
 49
-2.5
 49
2.5
 49
-2.5
  0
LTYPE
  2
PLINE14
 70
   64
  3
------     -----------     -----
 72
   65
 73
    2
 40
11
 49
7.7000000000000002
 49
-3.2999999999999989
  0
LTYPE
  2
PLINE15
 70
   64
  3
------------   ---   -----------
 72
   65
 73
    4
 40
30
 49
21
 49
-3
 49
3
 49
-3
  0
LTYPE
  2
PLINE16
 70
   64
  3
---------   ---   ---   --------
 72
   65
 73
    6
 40
30
 49
15
 49
-3
 49
3
 49
-3
 49
3
 49
-3
  0
ENDTAB
  0
TABLE
  2
STYLE
  5
3
100
AcDbSymbolTable
 70
     1
  0
STYLE
  5
10
100
AcDbSymbolTableRecord
100
AcDbTextStyleTableRecord
  2
STANDARD
 70
     0
 40
0.0
 41
1.0
 50
0.0
 71
     0
 42
0.2
  3
txt
  4
bigfont.shx
  0
STYLE
  5
26
100
AcDbSymbolTableRecord
100
AcDbTextStyleTableRecord
  2
TATEGAKI
 70
    68
 40
0.0
 41
1.0
 50
0.0
 71
     0
 42
1.0
  3
txt
  4
bigfont.shx
  0
ENDTAB
  0
TABLE
  2
LAYER
 70
    4
  0
LAYER
  2
_0-2_寸法
 70
   64
 62
    7
  6
CONTINUOUS
  0
LAYER
  2
_0-3_躯体と製品
 70
   64
 62
    7
  6
CONTINUOUS
  0
LAYER
  2
_0-4_図面枠
 70
   64
 62
    7
  6
CONTINUOUS
  0
LAYER
  2
ADD_LINE
 70
   64
 62
    7
  6
CONTINUOUS
  0
ENDTAB
  0
ENDSEC
  0
SECTION
  2
BLOCKS
  0
BLOCK
  2
-000-_Dot
 70
   64
 10
0
 20
0
 30
0
  0
CIRCLE
  8
_0-0_0
  6
CONTINUOUS
 62
    7
 10
0
 20
0
 40
0.025
  0
LINE
  8
_0-0_0
  6
CONTINUOUS
 62
    7
 10
0.025
 20
0
 11
-0.025
 21
0
  0
LINE
  8
_0-0_0
  6
CONTINUOUS
 62
    7
 10
-0.05
 20
0
 11
-0.1
 21
0
  0
ENDBLK
  0
BLOCK
  2
-001-_D4
 70
   64
 10
0
 20
0
 30
0
  0
LINE
  8
_0-2_寸法
  6
CONTINUOUS
 62
    4
 10
429.82565022032503
 20
-106.75547993301521
 11
429.82565022032503
 21
10.858204066984671
  0
LINE
  8
_0-2_寸法
  6
CONTINUOUS
 62
    4
 10
662.82565022032509
 20
-59.026867933015367
 11
662.82565022032509
 21
10.858204066984671
  0
LINE
  8
_0-2_寸法
  6
CONTINUOUS
 62
    4
 10
429.92565022032511
 20
10.858204066984671
 11
662.72565022032518
 21
10.858204066984671
  0
INSERT
  2
-000-_Dot
  8
_0-2_寸法
 10
429.82565022032503
 20
10.858204066984671
 41
1
 42
1
 50
180
  0
INSERT
  2
-000-_Dot
  8
_0-2_寸法
 10
662.82565022032509
 20
10.858204066984671
 41
1
 42
1
 50
0
  0
TEXT
  8
_0-2_寸法
 62
    7
 10
545.07565022032509
 20
10.938204066984671
 40
5
 41
1
 50
0
  1
E
  0
POINT
  8
_0-1_Defpoints
 62
    7
 10
429.82565022032503
 20
-106.75547993301521
  0
POINT
  8
_0-1_Defpoints
 62
    7
 10
662.82565022032509
 20
-59.026867933015367
  0
POINT
  8
_0-1_Defpoints
 62
    7
 10
662.82565022032509
 20
10.858204066984671
  0
ENDBLK
  0
BLOCK
  2
-002-_D5
 70
   64
 10
0
 20
0
 30
0
  0
LINE
  8
_0-2_寸法
  6
CONTINUOUS
 62
    4
 10
488.26487622032511
 20
-31.542109933015304
 11
415.4405042203245
 21
-31.542109933015279
  0
LINE
  8
_0-2_寸法
  6
CONTINUOUS
 62
    4
 10
495.34834222032453
 20
-154.5421099330153
 11
415.4405042203245
 21
-154.5421099330153
  0
LINE
  8
_0-2_寸法
  6
CONTINUOUS
 62
    4
 10
415.4405042203245
 20
-31.642109933015281
 11
415.4405042203245
 21
-154.44210993301519
  0
INSERT
  2
-000-_Dot
  8
_0-2_寸法
 10
415.4405042203245
 20
-31.542109933015279
 41
1
 42
1
 50
90
  0
INSERT
  2
-000-_Dot
  8
_0-2_寸法
 10
415.4405042203245
 20
-154.5421099330153
 41
1
 42
1
 50
270
  0
TEXT
  8
_0-2_寸法
 62
    7
 10
415.36050422032451
 20
-95.542109933015212
 40
5
 41
1
 50
90
  1
 I
  0
POINT
  8
_0-1_Defpoints
 62
    7
 10
488.26487622032511
 20
-31.542109933015304
  0
POINT
  8
_0-1_Defpoints
 62
    7
 10
495.34834222032453
 20
-154.5421099330153
  0
POINT
  8
_0-1_Defpoints
 62
    7
 10
415.4405042203245
 20
-154.5421099330153
  0
ENDBLK
  0
BLOCK
  2
-003-_D6
 70
   64
 10
0
 20
0
 30
0
  0
LINE
  8
_0-2_寸法
  6
CONTINUOUS
 62
    4
 10
495.34834222032453
 20
-154.5421099330153
 11
415.4405042203245
 21
-154.5421099330153
  0
LINE
  8
_0-2_寸法
  6
CONTINUOUS
 62
    4
 10
495.09064222032458
 20
-169.5421099330153
 11
415.4405042203245
 21
-169.5421099330153
  0
LINE
  8
_0-2_寸法
  6
CONTINUOUS
 62
    4
 10
415.4405042203245
 20
-154.64210993301532
 11
415.4405042203245
 21
-169.44210993301519
  0
INSERT
  2
-000-_Dot
  8
_0-2_寸法
 10
415.4405042203245
 20
-154.5421099330153
 41
1
 42
1
 50
90
  0
INSERT
  2
-000-_Dot
  8
_0-2_寸法
 10
415.4405042203245
 20
-169.5421099330153
 41
1
 42
1
 50
270
  0
TEXT
  8
_0-2_寸法
 62
    7
 10
415.36050422032451
 20
-163.29210993301518
 40
5
 41
1
 50
90
  1
J
  0
POINT
  8
_0-1_Defpoints
 62
    7
 10
495.34834222032453
 20
-154.5421099330153
  0
POINT
  8
_0-1_Defpoints
 62
    7
 10
495.09064222032458
 20
-169.5421099330153
  0
POINT
  8
_0-1_Defpoints
 62
    7
 10
415.4405042203245
 20
-169.5421099330153
  0
ENDBLK
  0
BLOCK
  2
-004-_D7
 70
   64
 10
0
 20
0
 30
0
  0
LINE
  8
_0-2_寸法
  6
CONTINUOUS
 62
    4
 10
501.30956022032552
 20
-198.3528473285761
 11
501.30956022032552
 21
-251.91762993301518
  0
LINE
  8
_0-2_寸法
  6
CONTINUOUS
 62
    4
 10
591.30956022032547
 20
-198.3528473285761
 11
591.30956022032547
 21
-251.91762993301518
  0
LINE
  8
_0-2_寸法
  6
CONTINUOUS
 62
    4
 10
501.40956022032549
 20
-251.91762993301518
 11
591.20956022032556
 21
-251.91762993301518
  0
INSERT
  2
-000-_Dot
  8
_0-2_寸法
 10
501.30956022032552
 20
-251.91762993301518
 41
1
 42
1
 50
180
  0
INSERT
  2
-000-_Dot
  8
_0-2_寸法
 10
591.30956022032547
 20
-251.91762993301518
 41
1
 42
1
 50
0
  0
TEXT
  8
_0-2_寸法
 62
    7
 10
536.30956022032547
 20
-251.83762993301519
 40
5
 41
1
 50
0
  1
Ａ　開口
  0
POINT
  8
_0-1_Defpoints
 62
    7
 10
501.30956022032552
 20
-198.3528473285761
  0
POINT
  8
_0-1_Defpoints
 62
    7
 10
591.30956022032547
 20
-198.3528473285761
  0
POINT
  8
_0-1_Defpoints
 62
    7
 10
591.30956022032547
 20
-251.91762993301518
  0
ENDBLK
  0
BLOCK
  2
-005-_D8
 70
   64
 10
0
 20
0
 30
0
  0
LINE
  8
_0-2_寸法
  6
CONTINUOUS
 62
    4
 10
792.41766822032582
 20
-163.84247593301521
 11
792.41766822032582
 21
-145.62868193301532
  0
LINE
  8
_0-2_寸法
  6
CONTINUOUS
 62
    4
 10
792.51766822032585
 20
-145.62868193301532
 11
816.31766822032591
 21
-145.62868193301532
  0
INSERT
  2
-000-_Dot
  8
_0-2_寸法
 10
792.41766822032582
 20
-145.62868193301532
 41
1
 42
1
 50
180
  0
INSERT
  2
-000-_Dot
  8
_0-2_寸法
 10
816.41766822032594
 20
-145.62868193301532
 41
1
 42
1
 50
0
  0
TEXT
  8
_0-2_寸法
 62
    7
 10
791.91766822032582
 20
-145.5486819330153
 40
5
 41
1
 50
0
  1
現場合わせ
  0
POINT
  8
_0-1_Defpoints
 62
    7
 10
792.41766822032582
 20
-163.84247593301521
  0
POINT
  8
_0-1_Defpoints
 62
    7
 10
816.41766822032594
 20
-145.62868193301532
  0
POINT
  8
_0-1_Defpoints
 62
    7
 10
816.41766822032594
 20
-145.62868193301532
  0
ENDBLK
  0
BLOCK
  2
-006-_D9
 70
   64
 10
0
 20
0
 30
0
  0
LINE
  8
_0-2_寸法
  6
CONTINUOUS
 62
    4
 10
816.41766822032594
 20
-183.2923394770032
 11
816.41766822032594
 21
-251.15307993301522
  0
LINE
  8
_0-2_寸法
  6
CONTINUOUS
 62
    4
 10
826.41766822032605
 20
-194.37579193301519
 11
826.41766822032605
 21
-251.15307993301522
  0
LINE
  8
_0-2_寸法
  6
CONTINUOUS
 62
    4
 10
816.51766822032573
 20
-251.15307993301522
 11
826.31766822032591
 21
-251.15307993301522
  0
INSERT
  2
-000-_Dot
  8
_0-2_寸法
 10
816.41766822032594
 20
-251.15307993301522
 41
1
 42
1
 50
180
  0
INSERT
  2
-000-_Dot
  8
_0-2_寸法
 10
826.41766822032605
 20
-251.15307993301522
 41
1
 42
1
 50
0
  0
TEXT
  8
_0-2_寸法
 62
    7
 10
817.66766822032582
 20
-251.07307993301521
 40
5
 41
1
 50
0
  1
100
  0
POINT
  8
_0-1_Defpoints
 62
    7
 10
816.41766822032594
 20
-183.2923394770032
  0
POINT
  8
_0-1_Defpoints
 62
    7
 10
826.41766822032605
 20
-194.37579193301519
  0
POINT
  8
_0-1_Defpoints
 62
    7
 10
826.41766822032605
 20
-251.15307993301522
  0
ENDBLK
  0
BLOCK
  2
-007-_D10
 70
   64
 10
0
 20
0
 30
0
  0
LINE
  8
_0-2_寸法
  6
CONTINUOUS
 62
    4
 10
826.41766822032605
 20
-194.37579193301519
 11
826.41766822032605
 21
-251.15307993301522
  0
LINE
  8
_0-2_寸法
  6
CONTINUOUS
 62
    4
 10
992.41766822032605
 20
-210.97296881056818
 11
992.41766822032605
 21
-251.15307993301522
  0
LINE
  8
_0-2_寸法
  6
CONTINUOUS
 62
    4
 10
826.51766822032585
 20
-251.15307993301522
 11
992.31766822032591
 21
-251.15307993301522
  0
INSERT
  2
-000-_Dot
  8
_0-2_寸法
 10
826.41766822032605
 20
-251.15307993301522
 41
1
 42
1
 50
180
  0
INSERT
  2
-000-_Dot
  8
_0-2_寸法
 10
992.41766822032605
 20
-251.15307993301522
 41
1
 42
1
 50
0
  0
TEXT
  8
_0-2_寸法
 62
    7
 10
904.41766822032605
 20
-251.07307993301521
 40
5
 41
1
 50
0
  1
開口
  0
POINT
  8
_0-1_Defpoints
 62
    7
 10
826.41766822032605
 20
-194.37579193301519
  0
POINT
  8
_0-1_Defpoints
 62
    7
 10
992.41766822032605
 20
-210.97296881056818
  0
POINT
  8
_0-1_Defpoints
 62
    7
 10
992.41766822032605
 20
-251.15307993301522
  0
ENDBLK
  0
BLOCK
  2
-008-_D11
 70
   64
 10
0
 20
0
 30
0
  0
LINE
  8
_0-2_寸法
  6
CONTINUOUS
 62
    4
 10
992.41766822032605
 20
-210.97296881056818
 11
992.41766822032605
 21
-251.15307993301522
  0
LINE
  8
_0-2_寸法
  6
CONTINUOUS
 62
    4
 10
1002.2176682203241
 20
-186.92731305174229
 11
1002.2176682203241
 21
-251.15307993301522
  0
LINE
  8
_0-2_寸法
  6
CONTINUOUS
 62
    4
 10
992.31766822032591
 20
-251.15307993301522
 11
992.21766822032589
 21
-251.15307993301522
  0
LINE
  8
_0-2_寸法
  6
CONTINUOUS
 62
    4
 10
1002.3176682203241
 20
-251.15307993301522
 11
1002.417668220324
 21
-251.15307993301522
  0
INSERT
  2
-000-_Dot
  8
_0-2_寸法
 10
992.41766822032605
 20
-251.15307993301522
 41
1
 42
1
 50
0
  0
INSERT
  2
-000-_Dot
  8
_0-2_寸法
 10
1002.2176682203241
 20
-251.15307993301522
 41
1
 42
1
 50
180
  0
TEXT
  8
_0-2_寸法
 62
    7
 10
993.56766822032512
 20
-251.07307993301521
 40
5
 41
1
 50
0
  1
100
  0
POINT
  8
_0-1_Defpoints
 62
    7
 10
992.41766822032605
 20
-210.97296881056818
  0
POINT
  8
_0-1_Defpoints
 62
    7
 10
1002.2176682203241
 20
-186.92731305174229
  0
POINT
  8
_0-1_Defpoints
 62
    7
 10
1002.2176682203241
 20
-251.15307993301522
  0
ENDBLK
  0
BLOCK
  2
-009-_D12
 70
   64
 10
0
 20
0
 30
0
  0
LINE
  8
_0-2_寸法
  6
CONTINUOUS
 62
    4
 10
816.41766822032594
 20
-30.542109933015308
 11
816.41766822032594
 21
9.2157580669847441
  0
LINE
  8
_0-2_寸法
  6
CONTINUOUS
 62
    4
 10
1002.4176682203249
 20
-16.802501933015257
 11
1002.4176682203249
 21
9.2157580669847441
  0
LINE
  8
_0-2_寸法
  6
CONTINUOUS
 62
    4
 10
816.51766822032573
 20
9.2157580669847441
 11
1002.317668220325
 21
9.2157580669847441
  0
INSERT
  2
-000-_Dot
  8
_0-2_寸法
 10
816.41766822032594
 20
9.2157580669847441
 41
1
 42
1
 50
180
  0
INSERT
  2
-000-_Dot
  8
_0-2_寸法
 10
1002.4176682203249
 20
9.2157580669847441
 41
1
 42
1
 50
0
  0
TEXT
  8
_0-2_寸法
 62
    7
 10
904.41766822032605
 20
9.2957580669847406
 40
5
 41
1
 50
0
  1
全長
  0
POINT
  8
_0-1_Defpoints
 62
    7
 10
816.41766822032594
 20
-30.542109933015308
  0
POINT
  8
_0-1_Defpoints
 62
    7
 10
1002.4176682203249
 20
-16.802501933015257
  0
POINT
  8
_0-1_Defpoints
 62
    7
 10
1002.4176682203249
 20
9.2157580669847441
  0
ENDBLK
  0
BLOCK
  2
-010-_D13
 70
   64
 10
0
 20
0
 30
0
  0
LINE
  8
_0-2_寸法
  6
CONTINUOUS
 62
    4
 10
867.41766822032582
 20
-17.802501933015257
 11
867.41766822032582
 21
-9.9224879330153275
  0
LINE
  8
_0-2_寸法
  6
CONTINUOUS
 62
    4
 10
951.41766822032605
 20
-17.802501933015257
 11
951.41766822032605
 21
-9.9224879330153275
  0
LINE
  8
_0-2_寸法
  6
CONTINUOUS
 62
    4
 10
867.51766822032585
 20
-9.9224879330153275
 11
951.31766822032591
 21
-9.9224879330153275
  0
INSERT
  2
-000-_Dot
  8
_0-2_寸法
 10
867.41766822032582
 20
-9.9224879330153275
 41
1
 42
1
 50
180
  0
INSERT
  2
-000-_Dot
  8
_0-2_寸法
 10
951.41766822032605
 20
-9.9224879330153275
 41
1
 42
1
 50
0
  0
TEXT
  8
_0-2_寸法
 62
    7
 10
894.41766822032605
 20
-9.8424879330153257
 40
5
 41
1
 50
0
  1
８４０ピッチ
  0
POINT
  8
_0-1_Defpoints
 62
    7
 10
867.41766822032582
 20
-17.802501933015257
  0
POINT
  8
_0-1_Defpoints
 62
    7
 10
951.41766822032605
 20
-17.802501933015257
  0
POINT
  8
_0-1_Defpoints
 62
    7
 10
951.41766822032605
 20
-9.9224879330153275
  0
ENDBLK
  0
BLOCK
  2
-011-_D14
 70
   64
 10
0
 20
0
 30
0
  0
LINE
  8
_0-2_寸法
  6
CONTINUOUS
 62
    4
 10
1026.4176682203249
 20
-163.84247593301521
 11
1026.4176682203249
 21
-145.62868193301532
  0
LINE
  8
_0-2_寸法
  6
CONTINUOUS
 62
    4
 10
1026.317668220325
 20
-145.62868193301532
 11
1002.5176682203249
 21
-145.62868193301532
  0
INSERT
  2
-000-_Dot
  8
_0-2_寸法
 10
1026.4176682203249
 20
-145.62868193301532
 41
1
 42
1
 50
0
  0
INSERT
  2
-000-_Dot
  8
_0-2_寸法
 10
1002.4176682203249
 20
-145.62868193301532
 41
1
 42
1
 50
180
  0
TEXT
  8
_0-2_寸法
 62
    7
 10
1001.9176682203249
 20
-145.5486819330153
 40
5
 41
1
 50
0
  1
現場合わせ
  0
POINT
  8
_0-1_Defpoints
 62
    7
 10
1026.4176682203249
 20
-163.84247593301521
  0
POINT
  8
_0-1_Defpoints
 62
    7
 10
1002.4176682203249
 20
-145.62868193301532
  0
POINT
  8
_0-1_Defpoints
 62
    7
 10
1002.4176682203249
 20
-145.62868193301532
  0
ENDBLK
  0
BLOCK
  2
-012-_D15
 70
   64
 10
0
 20
0
 30
0
  0
LINE
  8
_0-2_寸法
  6
CONTINUOUS
 62
    4
 10
617.51625866059703
 20
-174.78345120910768
 11
625.11291482670936
 21
-176.30278185173771
  0
LINE
  8
_0-2_寸法
  6
CONTINUOUS
 62
    4
 10
615.94733027001143
 20
-182.62809621139598
 11
623.54398643612365
 21
-184.14742685402609
  0
LINE
  8
_0-2_寸法
  6
CONTINUOUS
 62
    4
 10
625.13252643289286
 20
-176.20472378270262
 11
625.15213803907659
 21
-176.10666571366738
  0
LINE
  8
_0-2_寸法
  6
CONTINUOUS
 62
    4
 10
623.52437482993992
 20
-184.24548492306118
 11
623.50476322375653
 21
-184.34354299209639
  0
INSERT
  2
-000-_Dot
  8
_0-2_寸法
 10
625.11291482670936
 20
-176.30278185173771
 41
1
 42
1
 50
258.69007180904538
  0
INSERT
  2
-000-_Dot
  8
_0-2_寸法
 10
623.54398643612365
 20
-184.14742685402609
 41
1
 42
1
 50
78.690071809045421
  0
TEXT
  8
_0-2_寸法
 62
    7
 10
621.79855340323491
 20
-192.46667369732631
 40
5
 41
1
 50
78.6900718090438
  1
現場合わせ
  0
POINT
  8
_0-1_Defpoints
 62
    7
 10
617.51625866059703
 20
-174.78345120910768
  0
POINT
  8
_0-1_Defpoints
 62
    7
 10
615.94733027001143
 20
-182.62809621139598
  0
POINT
  8
_0-1_Defpoints
 62
    7
 10
623.54398643612365
 20
-184.14742685402609
  0
ENDBLK
  0
BLOCK
  2
-013-_D16
 70
   64
 10
0
 20
0
 30
0
  0
LINE
  8
_0-2_寸法
  6
CONTINUOUS
 62
    4
 10
438.01432022032452
 20
-182.12740193301519
 11
417.74421277237644
 21
-186.1814238226047
  0
LINE
  8
_0-2_寸法
  6
CONTINUOUS
 62
    4
 10
440.30345166826936
 20
-193.57305804342641
 11
420.03334422032128
 21
-197.62707993301589
  0
LINE
  8
_0-2_寸法
  6
CONTINUOUS
 62
    4
 10
417.72460115700176
 20
-186.08336575540778
 11
417.70498954162741
 21
-185.98530768821081
  0
LINE
  8
_0-2_寸法
  6
CONTINUOUS
 62
    4
 10
420.05295583569568
 20
-197.72513800021301
 11
420.07256745106997
 21
-197.8231960674099
  0
INSERT
  2
-000-_Dot
  8
_0-2_寸法
 10
417.74421277237644
 20
-186.1814238226047
 41
1
 42
1
 50
281.30993356117932
  0
INSERT
  2
-000-_Dot
  8
_0-2_寸法
 10
420.03334422032128
 20
-197.62707993301589
 41
1
 42
1
 50
101.30993356117931
  0
TEXT
  8
_0-2_寸法
 62
    7
 10
417.4963537970246
 20
-184.53420754573821
 40
5
 41
1
 50
-78.690066438819258
  1
屋根高
  0
POINT
  8
_0-1_Defpoints
 62
    7
 10
438.01432022032452
 20
-182.12740193301519
  0
POINT
  8
_0-1_Defpoints
 62
    7
 10
440.30345166826936
 20
-193.57305804342641
  0
POINT
  8
_0-1_Defpoints
 62
    7
 10
420.03334422032128
 20
-197.62707993301589
  0
ENDBLK
  0
BLOCK
  2
-014-_D17
 70
   64
 10
0
 20
0
 30
0
  0
LINE
  8
_0-2_寸法
  6
CONTINUOUS
 62
    4
 10
476.55962422032542
 20
-173.2683319330153
 11
475.03429815338615
 21
-165.6448665134586
  0
LINE
  8
_0-2_寸法
  6
CONTINUOUS
 62
    4
 10
501.06336449599837
 20
-168.3655493108088
 11
499.5380384290591
 21
-160.74208389125209
  0
LINE
  8
_0-2_寸法
  6
CONTINUOUS
 62
    4
 10
474.93624165184428
 20
-165.66448595548439
 11
474.83818515030259
 21
-165.68410539751022
  0
LINE
  8
_0-2_寸法
  6
CONTINUOUS
 62
    4
 10
499.63609493060096
 20
-160.72246444922629
 11
499.73415143214254
 21
-160.70284500720061
  0
INSERT
  2
-000-_Dot
  8
_0-2_寸法
 10
475.03429815338615
 20
-165.6448665134586
 41
1
 42
1
 50
11.314506746052251
  0
INSERT
  2
-000-_Dot
  8
_0-2_寸法
 10
499.5380384290591
 20
-160.74208389125209
 41
1
 42
1
 50
191.31450674605219
  0
TEXT
  8
_0-2_寸法
 62
    7
 10
465.20775989071927
 20
-167.52940445691979
 40
5
 41
1
 50
11.314506746052801
  1
水切巾　現場合わせ
  0
POINT
  8
_0-1_Defpoints
 62
    7
 10
476.55962422032542
 20
-173.2683319330153
  0
POINT
  8
_0-1_Defpoints
 62
    7
 10
501.06336449599837
 20
-168.3655493108088
  0
POINT
  8
_0-1_Defpoints
 62
    7
 10
499.5380384290591
 20
-160.74208389125209
  0
ENDBLK
  0
ENDSEC
  0
SECTION
  2
ENTITIES
  0
TEXT
  8
_0-4_図面枠
 62
    7
 10
-1338.6553607135065
 20
2715.2787875668437
 40
200
 41
0.8
 50
0
  1
連続式ベンチレーター　排煙Ｈ型施工図
  0
LINE
  8
_0-4_図面枠
  6
CONTINUOUS
 62
    7
 10
-3451.1570407135114
 20
2966.9999875668436
 11
4292.1762992864806
 21
2966.9999875668436
  0
LINE
  8
_0-4_図面枠
  6
CONTINUOUS
 62
    7
 10
-3451.1570407135114
 20
2633.6666475668444
 11
4292.1762992864806
 21
2633.6666475668444
  0
LINE
  8
_0-4_図面枠
  6
CONTINUOUS
 62
    7
 10
-3451.1570407135114
 20
-2373.0000124331555
 11
4292.1762992864806
 21
-2373.0000124331555
  0
TEXT
  8
_0-4_図面枠
 62
    7
 10
342.15715928649206
 20
-1700.9086524331565
 40
60
 41
0.8000000000000001
 50
0
  1
　１５０
  0
LINE
  8
_0-4_図面枠
  6
CONTINUOUS
 62
    3
 10
-1036.3322407135056
 20
-1725.2970524331558
 11
1612.5739592864938
 21
-1725.2970524331558
  0
LINE
  8
_0-4_図面枠
  6
CONTINUOUS
 62
    4
 10
1612.5739592864938
 20
-525.29705243315584
 11
-1036.3322407135056
 21
-525.29705243315584
  0
LINE
  8
_0-4_図面枠
  6
CONTINUOUS
 62
    3
 10
-1036.3322407135056
 20
-1575.2970524331558
 11
1612.5739592864938
 21
-1575.2970524331558
  0
LINE
  8
_0-4_図面枠
  6
CONTINUOUS
 62
    3
 10
-1036.3322407135056
 20
-675.29705243315584
 11
1612.5739592864938
 21
-675.29705243315584
  0
LINE
  8
_0-4_図面枠
  6
CONTINUOUS
 62
    3
 10
-1036.3322407135056
 20
-665.29705243315584
 11
1612.5739592864938
 21
-665.29705243315584
  0
TEXT
  8
_0-4_図面枠
 62
    7
 10
349.96661928649155
 20
-1394.7208924331567
 40
60
 41
0.8000000000000001
 50
0
  1
　１５０
  0
TEXT
  8
_0-4_図面枠
 62
    7
 10
342.15715928649206
 20
-1550.9086524331565
 40
60
 41
0.8000000000000001
 50
0
  1
　１５０
  0
LINE
  8
_0-4_図面枠
  6
CONTINUOUS
 62
    3
 10
-1036.3322407135056
 20
-825.29705243315584
 11
1612.5739592864938
 21
-825.29705243315584
  0
LINE
  8
_0-4_図面枠
  6
CONTINUOUS
 62
    3
 10
-1036.3322407135056
 20
-975.29705243315584
 11
1612.5739592864938
 21
-975.29705243315584
  0
LINE
  8
_0-4_図面枠
  6
CONTINUOUS
 62
    3
 10
-1036.3322407135056
 20
-1125.2970524331558
 11
1612.5739592864938
 21
-1125.2970524331558
  0
LINE
  8
_0-4_図面枠
  6
CONTINUOUS
 62
    3
 10
-1036.3322407135056
 20
-1275.2970524331558
 11
1612.5739592864938
 21
-1275.2970524331558
  0
LINE
  8
_0-4_図面枠
  6
CONTINUOUS
 62
    3
 10
-1036.3322407135056
 20
-1425.2970524331558
 11
1612.5739592864938
 21
-1425.2970524331558
  0
LINE
  8
_0-4_図面枠
  6
CONTINUOUS
 62
    3
 10
-1036.3322407135056
 20
-1875.2970524331558
 11
1612.5739592864938
 21
-1875.2970524331558
  0
LINE
  8
_0-4_図面枠
  6
CONTINUOUS
 62
    3
 10
-1036.3322407135056
 20
-2025.2970524331577
 11
1612.5739592864938
 21
-2025.2970524331577
  0
LINE
  8
_0-4_図面枠
  6
CONTINUOUS
 62
    3
 10
-1036.3322407135056
 20
-2175.2970524331577
 11
1612.5739592864938
 21
-2175.2970524331577
  0
LINE
  8
_0-4_図面枠
  6
CONTINUOUS
 62
    4
 10
-1036.3322407135056
 20
-2325.2970524331568
 11
1612.5739592864938
 21
-2325.2970524331568
  0
LINE
  8
_0-4_図面枠
  6
CONTINUOUS
 62
    3
 10
-1965.3676007135127
 20
380.27944756684337
 11
-2266.3176007135062
 21
-140.98121243315654
  0
LINE
  8
_0-4_図面枠
  6
CONTINUOUS
 62
    3
 10
-1852.497000713508
 20
459.28504756684333
 11
-2254.9561207135102
 21
-237.79459243315659
  0
LINE
  8
_0-4_図面枠
  6
CONTINUOUS
 62
    3
 10
-1984.3787207135083
 20
480.69712756684339
 11
-2266.2881207135124
 21
-7.5842724331555473
  0
LINE
  8
_0-3_躯体と製品
  6
PLINE4
 62
    4
 10
-138.47864071350796
 20
218.19360756684432
 11
-875.29462071350827
 21
365.55680756684342
  0
LINE
  8
_0-3_躯体と製品
  6
PLINE5
 62
    4
 10
-930.2658407135059
 20
376.24586756684334
 11
-951.1915807135083
 21
271.61716756684427
  0
LINE
  8
_0-3_躯体と製品
  6
CONTINUOUS
 62
    4
 10
-974.39648071350894
 20
379.9494675668434
 11
-994.33712071351238
 21
280.24628756684342
  0
LINE
  8
_0-3_躯体と製品
  6
CONTINUOUS
 62
    4
 10
-924.39648071350894
 20
374.99848756684446
 11
-945.30808071350748
 21
270.44046756684338
  0
LINE
  8
_0-3_躯体と製品
  6
CONTINUOUS
 62
    3
 10
-921.97026071351138
 20
371.83250756684333
 11
-941.77800071350794
 21
272.79386756684335
  0
LINE
  8
_0-3_躯体と製品
  6
PLINE4
 62
    4
 10
-2420.4664407135133
 20
256.16318756684427
 11
-1873.4983407135096
 21
365.55680756684342
  0
LINE
  8
_0-4_図面枠
  6
CONTINUOUS
 62
    3
 10
-2038.0326207135076
 20
457.29110756684327
 11
-2243.8221807135105
 21
100.85312756684334
  0
LINE
  8
_0-3_躯体と製品
  6
CONTINUOUS
 62
    4
 10
-1774.3964807135089
 20
379.9494675668434
 11
-1754.4558607135114
 21
280.24628756684342
  0
LINE
  8
_0-3_躯体と製品
  6
CONTINUOUS
 62
    4
 10
-1824.3964807135089
 20
374.99848756684446
 11
-1803.4848807135095
 21
270.44046756684338
  0
LINE
  8
_0-3_躯体と製品
  6
CONTINUOUS
 62
    3
 10
-1824.5926007135095
 20
390.63500756684334
 11
-2424.6517607135102
 21
270.62316756684345
  0
LINE
  8
_0-3_躯体と製品
  6
CONTINUOUS
 62
    3
 10
-1824.9848407135105
 20
392.59616756684341
 11
-2425.0440007135112
 21
272.58432756684442
  0
LINE
  8
_0-4_図面枠
  6
CONTINUOUS
 62
    3
 10
-1792.0622407135088
 20
498.28282756684325
 11
-1610.9461407135095
 21
184.58056756684437
  0
LINE
  8
_0-3_躯体と製品
  6
CONTINUOUS
 62
    3
 10
-1374.3964807135098
 20
480.67422756684437
 11
-135.53690071351048
 21
232.90230756684446
  0
LINE
  8
_0-3_躯体と製品
  6
CONTINUOUS
 62
    3
 10
-684.36036071350463
 20
434.44934756684438
 11
-117.88646071351377
 21
321.1545675668433
  0
LINE
  8
_0-3_躯体と製品
  6
CONTINUOUS
 62
    3
 10
-904.4907007135098
 20
388.73268756684433
 11
-135.14468071350802
 21
234.86346756684338
  0
LINE
  8
_0-3_躯体と製品
  6
CONTINUOUS
 62
    3
 10
-1826.8227007135056
 20
371.83250756684333
 11
-1807.0149807135076
 21
272.79386756684335
  0
LINE
  8
_0-3_躯体と製品
  6
PLINE5
 62
    4
 10
-1797.6014007135072
 20
271.61716756684427
 11
-1818.3964807135044
 21
375.5926075668433
  0
LINE
  8
_0-3_躯体と製品
  6
PLINE3
 62
    3
 10
-1374.3964807135098
 20
1961.1690875668426
 11
-1374.3964807135098
 21
67.706167566843305
  0
LINE
  8
_0-4_図面枠
  6
CONTINUOUS
 62
    7
 10
-3451.1570407135114
 20
2966.9999875668436
 11
-3451.1570407135114
 21
-2373.0000124331555
  0
LINE
  8
_0-4_図面枠
  6
CONTINUOUS
 62
    3
 10
-1810.3233407135085
 20
278.72542756684334
 11
-2174.9300807135078
 21
-352.79195243315644
  0
TEXT
  8
_0-4_図面枠
 62
    7
 10
-2653.5175607135052
 20
-130.98134001231074
 40
60.000000000000007
 41
0.7999999999999998
 50
0.0000100000010064
  1
タイトフレーム
  0
LINE
  8
_0-4_図面枠
  6
CONTINUOUS
 62
    3
 10
-2266.3176007135062
 20
-140.98121243315654
 11
-2625.9439607135082
 21
-140.98121243315654
  0
TEXT
  8
_0-4_図面枠
 62
    7
 10
-2645.3560207135079
 20
-227.79470057081744
 40
60.000000000000007
 41
0.8000000000000008
 50
0.0000100000010064
  1
止めメンド処理
  0
LINE
  8
_0-4_図面枠
  6
CONTINUOUS
 62
    3
 10
-2254.9561207135102
 20
-237.79459243315659
 11
-2628.7279007135076
 21
-237.79459243315659
  0
TEXT
  8
_0-4_図面枠
 62
    7
 10
-2331.7300807135043
 20
-342.79205979992184
 40
60.000000000000007
 41
0.8000000000000006
 50
0.0000100000009611
  1
添母屋
  0
LINE
  8
_0-4_図面枠
  6
CONTINUOUS
 62
    3
 10
-2174.9300807135078
 20
-352.79195243315644
 11
-2355.0038207135067
 21
-352.79195243315644
  0
TEXT
  8
_0-4_図面枠
 62
    7
 10
-2426.2881807135027
 20
2.4157596415725493
 40
59.999999999999979
 41
0.7999999999999983
 50
0.0000100000009838
  1
水切板
  0
LINE
  8
_0-4_図面枠
  6
CONTINUOUS
 62
    3
 10
-2266.2881207135124
 20
-7.5842724331555473
 11
-2458.9080007135053
 21
-7.5842724331555473
  0
TEXT
  8
_0-4_図面枠
 62
    7
 10
-2455.0222207135039
 20
110.85309070548647
 40
59.999999999999993
 41
0.7999999999999992
 50
0.0000100000010064
  1
エプロン
  0
LINE
  8
_0-4_図面枠
  6
CONTINUOUS
 62
    3
 10
-2243.8221807135105
 20
100.85312756684334
 11
-2473.7556407135125
 21
100.85312756684334
  0
TEXT
  8
_0-4_図面枠
 62
    7
 10
-626.80768071350576
 20
-1403.2359124331565
 40
60
 41
0.7999999999999987
 50
0
  1
Ｈ
  0
LINE
  8
_0-4_図面枠
  6
CONTINUOUS
 62
    4
 10
-1036.3322407135056
 20
-525.29705243315584
 11
-1036.3322407135056
 21
-1725.2970524331558
  0
LINE
  8
_0-4_図面枠
  6
CONTINUOUS
 62
    3
 10
-537.42604071350343
 20
-525.29705243315584
 11
-537.42604071350343
 21
-1725.2970524331558
  0
LINE
  8
_0-4_図面枠
  6
CONTINUOUS
 62
    3
 10
-137.42604071350524
 20
-525.29705243315584
 11
-137.42604071350524
 21
-1725.2970524331558
  0
LINE
  8
_0-4_図面枠
  6
CONTINUOUS
 62
    3
 10
262.57395928649566
 20
-525.29705243315584
 11
262.57395928649566
 21
-1725.2970524331558
  0
TEXT
  8
_0-4_図面枠
 62
    7
 10
-954.43646071351031
 20
-1402.3344324331565
 40
60
 41
0.8000000000000001
 50
0
  1
ＳＣ６００
  0
TEXT
  8
_0-4_図面枠
 62
    7
 10
-372.64020071350842
 20
-1398.1306324331558
 40
60
 41
0.8000000000000003
 50
0
  1
６００
  0
TEXT
  8
_0-4_図面枠
 62
    7
 10
27.35979928649158
 20
-1398.1306324331558
 40
60
 41
0.8000000000000002
 50
0
  1
８３５
  0
TEXT
  8
_0-4_図面枠
 62
    7
 10
-962.00298071351062
 20
-1691.8983324331557
 40
60
 41
0.8000000000000001
 50
0
  1
ＳＣ９００
  0
TEXT
  8
_0-4_図面枠
 62
    7
 10
-962.00298071351062
 20
-1541.8980324331565
 40
60
 41
0.8000000000000001
 50
0
  1
ＳＣ７５０
  0
TEXT
  8
_0-4_図面枠
 62
    7
 10
-1010.5045807135102
 20
-2306.885072433156
 40
60
 41
0.7999999999999999
 50
0
  1
ＳＣ２０００
  0
TEXT
  8
_0-4_図面枠
 62
    7
 10
-1012.186100713513
 20
-2158.0729724331568
 40
60
 41
0.7999999999999999
 50
0
  1
ＳＣ１５００
  0
TEXT
  8
_0-4_図面枠
 62
    7
 10
-1020.5936807135058
 20
-2011.7833124331555
 40
60
 41
0.7999999999999999
 50
0
  1
ＳＣ１２００
  0
TEXT
  8
_0-4_図面枠
 62
    7
 10
-1025.6382407135115
 20
-1853.7230124331568
 40
60
 41
0.7999999999999999
 50
0
  1
ＳＣ１０００
  0
LINE
  8
_0-4_図面枠
  6
CONTINUOUS
 62
    4
 10
-1036.3322407135056
 20
-1725.2970524331558
 11
-1036.3322407135056
 21
-2325.2970524331568
  0
LINE
  8
_0-4_図面枠
  6
CONTINUOUS
 62
    3
 10
-537.42604071350343
 20
-1725.2970524331558
 11
-537.42604071350343
 21
-2325.2970524331568
  0
LINE
  8
_0-4_図面枠
  6
CONTINUOUS
 62
    3
 10
-137.42604071350524
 20
-1725.2970524331558
 11
-137.42604071350524
 21
-2325.2970524331568
  0
LINE
  8
_0-4_図面枠
  6
CONTINUOUS
 62
    3
 10
262.57395928649566
 20
-1725.2970524331558
 11
262.57395928649566
 21
-2325.2970524331568
  0
TEXT
  8
_0-4_図面枠
 62
    7
 10
-618.36774071350737
 20
-2301.9839524331574
 40
60
 41
0.7999999999999987
 50
0
  1
Ｈ
  0
TEXT
  8
_0-4_図面枠
 62
    7
 10
-443.66040071351199
 20
-2298.4278924331566
 40
60
 41
0.8
 50
0
  1
２０００
  0
TEXT
  8
_0-4_図面枠
 62
    7
 10
-51.142700713513477
 20
-2296.7538524331558
 40
60
 41
0.8000000000000002
 50
0
  1
２６９０
  0
TEXT
  8
_0-4_図面枠
 62
    7
 10
-436.09326071351097
 20
-1847.7879524331556
 40
60
 41
0.8
 50
0
  1
１０００
  0
TEXT
  8
_0-4_図面枠
 62
    7
 10
-623.93170071350687
 20
-2011.2687924331567
 40
60
 41
0.7999999999999987
 50
0
  1
Ｈ
  0
TEXT
  8
_0-4_図面枠
 62
    7
 10
-620.45452071350701
 20
-2157.321632433157
 40
60
 41
0.7999999999999987
 50
0
  1
Ｈ
  0
TEXT
  8
_0-4_図面枠
 62
    7
 10
-630.19146071351042
 20
-1858.9564724331558
 40
60
 41
0.8000000000000006
 50
0
  1
Ｈ
  0
TEXT
  8
_0-4_図面枠
 62
    7
 10
-452.06738071351174
 20
-2137.0048524331578
 40
60
 41
0.8
 50
0
  1
１５００
  0
TEXT
  8
_0-4_図面枠
 62
    7
 10
-442.81934071350952
 20
-1990.7148924331577
 40
60
 41
0.8
 50
0
  1
１２００
  0
TEXT
  8
_0-4_図面枠
 62
    7
 10
-626.11248071350565
 20
-1692.5602524331557
 40
60
 41
0.7999999999999987
 50
0
  1
Ｈ
  0
TEXT
  8
_0-4_図面枠
 62
    7
 10
-626.80768071350576
 20
-1538.1611524331565
 40
60
 41
0.7999999999999987
 50
0
  1
Ｈ
  0
TEXT
  8
_0-4_図面枠
 62
    7
 10
-375.16216071351391
 20
-1697.7836524331565
 40
60
 41
0.7999999999999999
 50
0
  1
９００
  0
TEXT
  8
_0-4_図面枠
 62
    7
 10
-375.16216071351391
 20
-1547.7833324331568
 40
60
 41
0.7999999999999999
 50
0
  1
７５０
  0
TEXT
  8
_0-4_図面枠
 62
    7
 10
-54.101080713513511
 20
-1851.7048924331566
 40
60
 41
0.8000000000000002
 50
0
  1
１３７０
  0
TEXT
  8
_0-4_図面枠
 62
    7
 10
-51.568120713505778
 20
-1998.7498724331581
 40
60
 41
0.8000000000000002
 50
0
  1
１６３５
  0
TEXT
  8
_0-4_図面枠
 62
    7
 10
-46.885500713511647
 20
-2136.5971324331558
 40
60
 41
0.8000000000000002
 50
0
  1
２０３０
  0
TEXT
  8
_0-4_図面枠
 62
    7
 10
-43.08270071350853
 20
-1697.0759324331566
 40
60
 41
0.8000000000000002
 50
0
  1
１２３０
  0
TEXT
  8
_0-4_図面枠
 62
    7
 10
-33.177920713511412
 20
-1541.4158524331565
 40
60
 41
0.8000000000000002
 50
0
  1
１０３０
  0
TEXT
  8
_0-4_図面枠
 62
    7
 10
-939.44928071351114
 20
-645.88819243315675
 40
60
 41
0.8
 50
0
  1
型　　式
  0
TEXT
  8
_0-4_図面枠
 62
    7
 10
-951.07342071350649
 20
-1256.8852124331565
 40
60
 41
0.8000000000000001
 50
0
  1
ＳＣ５００
  0
TEXT
  8
_0-4_図面枠
 62
    7
 10
-952.7549407135084
 20
-1108.0729524331568
 40
60
 41
0.8000000000000001
 50
0
  1
ＳＣ４５０
  0
TEXT
  8
_0-4_図面枠
 62
    7
 10
-961.16254071350886
 20
-961.78327243315653
 40
60
 41
0.8000000000000001
 50
0
  1
ＳＣ４００
  0
TEXT
  8
_0-4_図面枠
 62
    7
 10
-966.20708071350782
 20
-803.72297243315643
 40
60
 41
0.8000000000000001
 50
0
  1
ＳＣ３００
  0
LINE
  8
_0-4_図面枠
  6
CONTINUOUS
 62
    4
 10
-1528.435240713512
 20
-454.96029243315752
 11
-1528.435240713512
 21
-540.97955243315664
  0
LINE
  8
_0-4_図面枠
  6
CONTINUOUS
 62
    4
 10
-1298.2622807135122
 20
-540.97955243315664
 11
-1298.2622807135122
 21
-454.96029243315752
  0
TEXT
  8
_0-4_図面枠
 62
    7
 10
-1493.4667392429992
 20
-526.87034620353552
 40
60
 41
0.7999999999999999
 50
0
  1
正面図
  0
LINE
  8
_0-4_図面枠
  6
CONTINUOUS
 62
    4
 10
-1528.435240713512
 20
-540.97955243315664
 11
-1298.2622807135122
 21
-540.97955243315664
  0
LINE
  8
_0-4_図面枠
  6
CONTINUOUS
 62
    4
 10
-1298.2622807135122
 20
-454.96029243315752
 11
-1528.435240713512
 21
-454.96029243315752
  0
LINE
  8
_0-3_躯体と製品
  6
CONTINUOUS
 62
    3
 10
-1850.1605207135126
 20
264.16474756684443
 11
-1807.0149807135076
 21
272.79386756684335
  0
LINE
  8
_0-3_躯体と製品
  6
CONTINUOUS
 62
    3
 10
-1852.5139207135044
 20
260.63466756684443
 11
-1803.4848807135095
 21
270.44046756684338
  0
LINE
  8
_0-3_躯体と製品
  6
CONTINUOUS
 62
    3
 10
-1856.4362407135068
 20
280.24628756684342
 11
-1853.4945007135102
 21
280.83462756684344
  0
LINE
  8
_0-3_躯体と製品
  6
CONTINUOUS
 62
    3
 10
-1853.4945007135102
 20
280.83462756684344
 11
-1850.1605207135126
 21
264.16474756684443
  0
LINE
  8
_0-3_躯体と製品
  6
CONTINUOUS
 62
    3
 10
-1856.4362407135068
 20
280.24628756684342
 11
-1852.5139207135044
 21
260.63466756684443
  0
LINE
  8
_0-3_躯体と製品
  6
CONTINUOUS
 62
    4
 10
-1803.4848807135095
 20
270.44046756684338
 11
-1754.4558607135114
 21
280.24628756684342
  0
LINE
  8
_0-4_図面枠
  6
CONTINUOUS
 62
    3
 10
-1810.3233407135085
 20
278.72542756684334
 11
-1821.6630807135116
 21
239.08442756684326
  0
TEXT
  8
_0-4_図面枠
 62
    7
 10
-1610.9458607135057
 20
194.58054756684328
 40
59.999999999999993
 41
0.8000000000000007
 50
0
  1
支柱
  0
LINE
  8
_0-4_図面枠
  6
CONTINUOUS
 62
    3
 10
-1610.9461407135095
 20
184.58056756684437
 11
-1474.7546007135097
 21
184.58056756684437
  0
LINE
  8
_0-3_躯体と製品
  6
CONTINUOUS
 62
    3
 10
-898.63244071350437
 20
264.16474756684443
 11
-941.77800071350794
 21
272.79386756684335
  0
LINE
  8
_0-3_躯体と製品
  6
CONTINUOUS
 62
    3
 10
-896.27906071350935
 20
260.63466756684443
 11
-945.30808071350748
 21
270.44046756684338
  0
LINE
  8
_0-3_躯体と製品
  6
CONTINUOUS
 62
    4
 10
-945.30808071350748
 20
270.44046756684338
 11
-994.33712071351238
 21
280.24628756684342
  0
LINE
  8
_0-3_躯体と製品
  6
CONTINUOUS
 62
    3
 10
-892.35674071350877
 20
280.24628756684342
 11
-895.29848071350534
 21
280.83462756684344
  0
LINE
  8
_0-3_躯体と製品
  6
CONTINUOUS
 62
    3
 10
-895.29848071350534
 20
280.83462756684344
 11
-898.63244071350437
 21
264.16474756684443
  0
LINE
  8
_0-3_躯体と製品
  6
CONTINUOUS
 62
    3
 10
-892.35674071350877
 20
280.24628756684342
 11
-896.27906071350935
 21
260.63466756684443
  0
TEXT
  8
_0-4_図面枠
 62
    7
 10
-629.58966071350551
 20
-956.03559243315658
 40
60
 41
0.7999999999999987
 50
0
  1
Ｈ
  0
TEXT
  8
_0-4_図面枠
 62
    7
 10
-375.16216071351391
 20
-949.17219243315549
 40
60
 41
0.7999999999999999
 50
0
  1
４００
  0
TEXT
  8
_0-4_図面枠
 62
    7
 10
-624.02570071350601
 20
-1246.7503124331565
 40
60
 41
0.7999999999999987
 50
0
  1
Ｈ
  0
TEXT
  8
_0-4_図面枠
 62
    7
 10
-626.11248071350565
 20
-1102.0884524331568
 40
60
 41
0.7999999999999987
 50
0
  1
Ｈ
  0
TEXT
  8
_0-4_図面枠
 62
    7
 10
-376.00324071351315
 20
-1256.8852124331565
 40
60
 41
0.7999999999999999
 50
0
  1
５００
  0
TEXT
  8
_0-4_図面枠
 62
    7
 10
-384.41022071351381
 20
-1095.4618724331558
 40
60
 41
0.7999999999999999
 50
0
  1
４５０
  0
TEXT
  8
_0-4_図面枠
 62
    7
 10
-635.84942071350815
 20
-803.72297243315643
 40
60
 41
0.7999999999999987
 50
0
  1
Ｈ
  0
TEXT
  8
_0-4_図面枠
 62
    7
 10
-368.43610071351122
 20
-806.24525243315566
 40
60
 41
0.8000000000000003
 50
0
  1
３００
  0
TEXT
  8
_0-4_図面枠
 62
    7
 10
-355.12372071350546
 20
-636.9599724331556
 40
60
 41
0.7999999999999987
 50
0
  1
Ａ
  0
TEXT
  8
_0-4_図面枠
 62
    7
 10
24.837839286486997
 20
-949.17219243315549
 40
60
 41
0.8000000000000001
 50
0
  1
５６０
  0
TEXT
  8
_0-4_図面枠
 62
    7
 10
15.589779286487101
 20
-1095.4618724331558
 40
60
 41
0.8000000000000002
 50
0
  1
６２５
  0
TEXT
  8
_0-4_図面枠
 62
    7
 10
23.996759286486849
 20
-1256.8852124331565
 40
60
 41
0.8000000000000001
 50
0
  1
６９０
  0
TEXT
  8
_0-4_図面枠
 62
    7
 10
24.837839286486997
 20
-799.17219243315549
 40
60
 41
0.8000000000000001
 50
0
  1
４３０
  0
TEXT
  8
_0-4_図面枠
 62
    7
 10
45.969419286487209
 20
-641.75397243315547
 40
60
 41
0.8000000000000006
 50
0
  1
Ｉ
  0
LINE
  8
_0-4_図面枠
  6
CONTINUOUS
 62
    3
 10
-1984.3787207135083
 20
480.69712756684339
 11
-1995.7184607135114
 21
441.05610756684428
  0
LINE
  8
_0-3_躯体と製品
  6
CONTINUOUS
 62
    3
 10
-1871.6604807135045
 20
473.00378756684336
 11
-2442.3022207135054
 21
358.87542756684434
  0
LINE
  8
_0-3_躯体と製品
  6
PLINE2
 62
    6
 10
-2090.6635007135046
 20
812.96606756684446
 11
-1982.0347807135067
 21
921.59480756684343
  0
LINE
  8
_0-3_躯体と製品
  6
PLINE2
 62
    6
 10
-2064.9994807135108
 20
803.27476756684337
 11
-1956.3707607135138
 21
911.90348756684443
  0
LINE
  8
_0-3_躯体と製品
  6
PLINE2
 62
    6
 10
-2039.3354607135052
 20
793.58344756684346
 11
-1930.7067207135105
 21
902.21218756684425
  0
LINE
  8
_0-3_躯体と製品
  6
PLINE2
 62
    6
 10
-2013.6714207135046
 20
783.89214756684328
 11
-1905.0427007135077
 21
892.52086756684344
  0
LINE
  8
_0-3_躯体と製品
  6
CONTINUOUS
 62
    4
 10
-1834.3964807135089
 20
865.8432875668434
 11
-2103.0770007135079
 21
967.30304756684336
  0
LINE
  8
_0-3_躯体と製品
  6
PLINE5
 62
    4
 10
-1912.2768407135081
 20
698.57060756684336
 11
-2532.9495407135128
 21
932.95050756684441
  0
LINE
  8
_0-3_躯体と製品
  6
CONTINUOUS
 62
    4
 10
-1834.3964807135089
 20
716.19390756684447
 11
-2485.671940713507
 21
962.1300875668444
  0
LINE
  8
_0-3_躯体と製品
  6
CONTINUOUS
 62
    7
 10
-1914.3964807135089
 20
692.95748756684338
 11
-2539.3964807135098
 21
928.97148756684328
  0
LINE
  8
_0-3_躯体と製品
  6
CONTINUOUS
 62
    7
 10
-2069.9338807135127
 20
461.90360756684436
 11
-1825.0853407135082
 21
510.87332756684327
  0
LINE
  8
_0-3_躯体と製品
  6
CONTINUOUS
 62
    3
 10
-1374.3964807135098
 20
597.44220756684331
 11
-2448.7785607135047
 21
384.83524756684346
  0
LINE
  8
_0-3_躯体と製品
  6
CONTINUOUS
 62
    4
 10
-2042.6127807135126
 20
1279.2572275668435
 11
-1810.7579407135063
 21
1337.0651275668438
  0
LINE
  8
_0-3_躯体と製品
  6
PLINE5
 62
    4
 10
-2048.0153007135104
 20
1323.2572275668433
 11
-1374.3964807135098
 21
1491.2092675668434
  0
LINE
  8
_0-3_躯体と製品
  6
CONTINUOUS
 62
    7
 10
-1374.4448807135059
 20
1497.5870075668438
 11
-2048.8004007135132
 21
1329.4512875668438
  0
LINE
  8
_0-3_躯体と製品
  6
CONTINUOUS
 62
    4
 10
-1374.3964807135098
 20
1497.3929475668426
 11
-2048.7520207135067
 21
1329.2572275668435
  0
LINE
  8
_0-3_躯体と製品
  6
CONTINUOUS
 62
    7
 10
-2463.8919407135072
 20
1689.5273675668427
 11
-1824.3964807135089
 21
1848.9714875668431
  0
LINE
  8
_0-3_躯体と製品
  6
PLINE5
 62
    4
 10
-2454.5407207135095
 20
1685.6751875668435
 11
-1822.9449607135084
 21
1843.1497075668431
  0
LINE
  8
_0-3_躯体と製品
  6
CONTINUOUS
 62
    4
 10
-1812.3004007135078
 20
1800.4566875668438
 11
-2413.9726807135103
 21
1650.4429475668433
  0
TEXT
  8
_0-4_図面枠
 62
    7
 10
-2364.6397007135101
 20
1959.9971275668433
 40
60
 41
0.8000000000000001
 50
0
  1
六角ボルト
  0
TEXT
  8
_0-4_図面枠
 62
    7
 10
-2368.5880807135136
 20
1141.8644875668433
 40
60
 41
0.8000000000000001
 50
0
  1
排気誘導板
  0
LINE
  8
_0-3_躯体と製品
  6
PLINE2
 62
    6
 10
-2372.9678207135075
 20
919.57048756684344
 11
-2077.2446607135107
 21
1215.2936475668428
  0
LINE
  8
_0-3_躯体と製品
  6
PLINE2
 62
    6
 10
-2347.3037807135051
 20
909.87918756684326
 11
-2081.3557407135122
 21
1175.8272275668444
  0
LINE
  8
_0-3_躯体と製品
  6
PLINE2
 62
    6
 10
-2240.5919407135088
 20
1158.0123875668435
 11
-2064.9114007135049
 21
1333.692927566844
  0
LINE
  8
_0-3_躯体と製品
  6
PLINE2
 62
    6
 10
-2233.7469607135126
 20
1129.5020275668433
 11
-2069.0224807135073
 21
1294.2265075668427
  0
LINE
  8
_0-3_躯体と製品
  6
PLINE2
 62
    6
 10
-2233.7469607135126
 20
1094.1466875668443
 11
-2073.1335607135097
 21
1254.7600875668438
  0
LINE
  8
_0-3_躯体と製品
  6
PLINE2
 62
    6
 10
-2466.7260807135117
 20
1144.0102875668433
 11
-2040.2448807135133
 21
1570.4914875668435
  0
LINE
  8
_0-3_躯体と製品
  6
PLINE2
 62
    6
 10
-2470.8371607135059
 20
1104.5438675668443
 11
-2044.3559607135066
 21
1531.0250475668436
  0
LINE
  8
_0-3_躯体と製品
  6
PLINE5
 62
    4
 10
-2532.9495407135128
 20
932.95050756684441
 11
-2454.5407207135095
 21
1685.6751875668435
  0
LINE
  8
_0-3_躯体と製品
  6
CONTINUOUS
 62
    7
 10
-2460.0727207135114
 20
1690.479587566844
 11
-2539.7393207135119
 21
925.68038756684427
  0
LINE
  8
_0-3_躯体と製品
  6
CONTINUOUS
 62
    4
 10
-2020.7007007135107
 20
1758.1156875668437
 11
-2103.0770007135079
 21
967.30304756684336
  0
LINE
  8
_0-3_躯体と製品
  6
CONTINUOUS
 62
    4
 10
-2413.9726807135103
 20
1650.4429475668433
 11
-2485.671940713507
 21
962.1300875668444
  0
LINE
  8
_0-4_図面枠
  6
CONTINUOUS
 62
    3
 10
-2038.0326207135076
 20
457.29110756684327
 11
-2049.3723607135107
 21
417.65008756684438
  0
LINE
  8
_0-3_躯体と製品
  6
CONTINUOUS
 62
    7
 10
-2040.3203607135092
 20
466.80650756684327
 11
-2022.8226607135057
 21
379.31808756684336
  0
LINE
  8
_0-3_躯体と製品
  6
CONTINUOUS
 62
    7
 10
-2069.737780713509
 20
460.9230275668433
 11
-2040.3203607135092
 21
466.80650756684327
  0
LINE
  8
_0-3_躯体と製品
  6
CONTINUOUS
 62
    7
 10
-2069.3455407135089
 20
458.96186756684438
 11
-2059.5397407135133
 21
460.9230275668433
  0
LINE
  8
_0-3_躯体と製品
  6
CONTINUOUS
 62
    7
 10
-2069.9338807135127
 20
461.90360756684436
 11
-2069.3455407135089
 21
458.96186756684438
  0
LINE
  8
_0-3_躯体と製品
  6
PLINE2
 62
    6
 10
-2398.6318407135122
 20
929.26180756684334
 11
-2237.2687607135113
 21
1090.6248875668434
  0
LINE
  8
_0-3_躯体と製品
  6
PLINE2
 62
    6
 10
-2321.6397607135123
 20
900.18786756684426
 11
-2085.4668207135055
 21
1136.3608075668433
  0
LINE
  8
_0-3_躯体と製品
  6
PLINE2
 62
    6
 10
-2295.9757407135075
 20
890.49656756684431
 11
-2089.5779207135056
 21
1096.8943875668444
  0
LINE
  8
_0-3_躯体と製品
  6
PLINE2
 62
    6
 10
-2449.9599007135084
 20
948.64442756684343
 11
-2260.9309607135083
 21
1137.6733675668443
  0
LINE
  8
_0-3_躯体と製品
  6
PLINE2
 62
    6
 10
-2424.2958807135128
 20
938.95310756684444
 11
-2225.5756207135128
 21
1137.6733675668443
  0
LINE
  8
_0-3_躯体と製品
  6
PLINE2
 62
    6
 10
-2475.6239207135113
 20
958.33574756684334
 11
-2296.2863007135065
 21
1137.6733675668443
  0
TEXT
  8
_0-4_図面枠
 62
    7
 10
-2523.3457007135057
 20
761.97860969466933
 40
60.000000000000007
 41
0.799999999999997
 50
0.0000100000010403
  1
外板
  0
LINE
  8
_0-4_図面枠
  6
CONTINUOUS
 62
    3
 10
-2419.4379807135065
 20
751.23756756684429
 11
-2523.6485207135102
 21
751.23756756684429
  0
LINE
  8
_0-3_躯体と製品
  6
CONTINUOUS
 62
    7
 10
-2539.7393207135119
 20
925.68038756684427
 11
-2502.3185007135062
 21
911.54944756684426
  0
LINE
  8
_0-3_躯体と製品
  6
CONTINUOUS
 62
    3
 10
-2468.7065007135116
 20
915.63890756684327
 11
-2477.8916207135135
 21
891.31538756684427
  0
LINE
  8
_0-4_図面枠
  6
CONTINUOUS
 62
    3
 10
-2356.0655007135083
 20
861.00192756684442
 11
-2367.4052407135123
 21
821.36090756684325
  0
LINE
  8
_0-4_図面枠
  6
CONTINUOUS
 62
    3
 10
-2356.0655007135083
 20
861.00192756684442
 11
-2419.4379807135065
 21
751.23756756684429
  0
LINE
  8
_0-3_躯体と製品
  6
CONTINUOUS
 62
    3
 10
-2295.4586407135102
 20
850.7511075668433
 11
-2304.6437607135122
 21
826.42758756684429
  0
LINE
  8
_0-3_躯体と製品
  6
PLINE2
 62
    6
 10
-2474.9482407135083
 20
1065.0774275668434
 11
-2380.2051207135046
 21
1159.8205675668444
  0
LINE
  8
_0-3_躯体と製品
  6
PLINE2
 62
    6
 10
-2479.0593407135075
 20
1025.6110075668444
 11
-2366.9969607135108
 21
1137.6733675668443
  0
LINE
  8
_0-3_躯体と製品
  6
PLINE2
 62
    6
 10
-2483.1704207135099
 20
986.14458756684326
 11
-2331.6416207135135
 21
1137.6733675668443
  0
LINE
  8
_0-3_躯体と製品
  6
CONTINUOUS
 62
    3
 10
-2548.6144807135097
 20
970.7799275668433
 11
-2522.7544007135075
 21
968.08616756684341
  0
LINE
  8
_0-3_躯体と製品
  6
PLINE2
 62
    6
 10
-2270.311700713507
 20
880.80524756684235
 11
-2093.689000713508
 21
1057.4279475668434
  0
LINE
  8
_0-3_躯体と製品
  6
PLINE2
 62
    6
 10
-2244.6476807135114
 20
871.11394756684331
 11
-2097.8000807135104
 21
1017.9615275668443
  0
LINE
  8
_0-3_躯体と製品
  6
PLINE2
 62
    6
 10
-2218.9836407135099
 20
861.42262756684431
 11
-2101.9111807135105
 21
978.49510756684344
  0
LINE
  8
_0-3_躯体と製品
  6
PLINE2
 62
    6
 10
-2193.319620713507
 20
851.73130756684327
 11
-2084.69090071351
 21
960.36004756684338
  0
LINE
  8
_0-3_躯体と製品
  6
PLINE2
 62
    6
 10
-2167.6556007135114
 20
842.04000756684445
 11
-2059.0268607135076
 21
950.66872756684438
  0
LINE
  8
_0-3_躯体と製品
  6
PLINE2
 62
    6
 10
-2141.9915607135099
 20
832.34868756684341
 11
-2033.3628407135138
 21
940.97742756684329
  0
LINE
  8
_0-3_躯体と製品
  6
PLINE2
 62
    6
 10
-2116.327540713507
 20
822.65738756684436
 11
-2007.6988007135114
 21
931.28610756684338
  0
LINE
  8
_0-3_躯体と製品
  6
CONTINUOUS
 62
    3
 10
-2113.0322207135096
 20
781.86280756684346
 11
-2122.2173207135129
 21
757.53928756684445
  0
LINE
  8
_0-3_躯体と製品
  6
PLINE2
 62
    6
 10
-2462.6150007135093
 20
1183.4767075668442
 11
-2036.1338007135118
 21
1609.9579075668435
  0
LINE
  8
_0-3_躯体と製品
  6
PLINE2
 62
    6
 10
-2421.5041407135104
 20
1578.1409675668435
 11
-2327.6892807135082
 21
1671.9558075668435
  0
LINE
  8
_0-3_躯体と製品
  6
PLINE2
 62
    6
 10
-2425.6152207135128
 20
1538.6745275668436
 11
-2280.5910207135057
 21
1683.6987275668439
  0
LINE
  8
_0-3_躯体と製品
  6
PLINE2
 62
    6
 10
-2429.726300713507
 20
1499.2081075668436
 11
-2233.4927807135109
 21
1695.4416475668445
  0
LINE
  8
_0-3_躯体と製品
  6
PLINE2
 62
    6
 10
-2433.8373807135085
 20
1459.7416875668437
 11
-2186.3945207135075
 21
1707.1845475668435
  0
LINE
  8
_0-3_躯体と製品
  6
PLINE2
 62
    6
 10
-2437.9484807135086
 20
1420.2752675668437
 11
-2139.296260713505
 21
1718.9274675668428
  0
LINE
  8
_0-3_躯体と製品
  6
PLINE2
 62
    6
 10
-2442.0595607135119
 20
1380.8088275668426
 11
-2092.1980207135093
 21
1730.6703875668431
  0
LINE
  8
_0-3_躯体と製品
  6
PLINE2
 62
    6
 10
-2446.1706407135134
 20
1341.3424075668438
 11
-2045.0997607135068
 21
1742.4132875668436
  0
LINE
  8
_0-3_躯体と製品
  6
PLINE2
 62
    6
 10
-2450.2817407135135
 20
1301.8759875668429
 11
-2023.8005407135051
 21
1728.3571875668433
  0
LINE
  8
_0-3_躯体と製品
  6
PLINE2
 62
    6
 10
-2454.3928207135077
 20
1262.4095675668439
 11
-2027.9116207135085
 21
1688.8907475668434
  0
LINE
  8
_0-3_躯体と製品
  6
PLINE2
 62
    6
 10
-2458.5039007135092
 20
1222.943127566843
 11
-2032.0227207135085
 21
1649.4243275668434
  0
LINE
  8
_0-3_躯体と製品
  6
PLINE5
 62
    4
 10
-2496.8759207135063
 20
1279.2572275668435
 11
-2070.5817807135063
 21
1279.2572275668435
  0
LINE
  8
_0-3_躯体と製品
  6
PLINE5
 62
    4
 10
-2491.6676007135047
 20
1323.2572275668433
 11
-2065.998440713508
 21
1323.2572275668433
  0
LINE
  8
_0-3_躯体と製品
  6
PLINE5
 62
    4
 10
-2491.6676007135047
 20
1329.2572275668435
 11
-2065.3734407135062
 21
1329.2572275668435
  0
LINE
  8
_0-3_躯体と製品
  6
PLINE2
 62
    6
 10
-2367.8414807135114
 20
1172.1842075668453
 11
-2167.1461407135084
 21
1372.8795475668442
  0
LINE
  8
_0-3_躯体と製品
  6
PLINE2
 62
    6
 10
-2332.4861407135058
 20
1172.1842075668453
 11
-2150.0734607135073
 21
1354.5968875668432
  0
LINE
  8
_0-3_躯体と製品
  6
PLINE2
 62
    6
 10
-2297.1308007135094
 20
1172.1842075668453
 11
-2056.6892207135115
 21
1412.6257875668437
  0
LINE
  8
_0-3_躯体と製品
  6
CONTINUOUS
 62
    3
 10
-2525.8418607135136
 20
1184.5710875668442
 11
-2499.9817807135114
 21
1181.8773275668443
  0
LINE
  8
_0-3_躯体と製品
  6
CONTINUOUS
 62
    3
 10
-2474.4397807135065
 20
1311.2572275668429
 11
-2475.8981207135057
 21
1297.2572275668442
  0
LINE
  8
_0-3_躯体と製品
  6
CONTINUOUS
 62
    3
 10
-2482.2068207135053
 20
1304.2572275668435
 11
-2468.1310807135078
 21
1304.2572275668435
  0
LINE
  8
_0-3_躯体と製品
  6
CONTINUOUS
 62
    3
 10
-2503.0278007135139
 20
1408.4120275668436
 11
-2477.1677207135108
 21
1405.7182675668441
  0
LINE
  8
_0-3_躯体と製品
  6
PLINE2
 62
    6
 10
-2261.7754607135112
 20
1172.1842075668453
 11
-2060.8003207135116
 21
1373.1593475668426
  0
LINE
  8
_0-3_躯体と製品
  6
CONTINUOUS
 62
    4
 10
-2070.5817807135063
 20
1279.2572275668435
 11
-2042.6127807135126
 21
1279.2572275668435
  0
LINE
  8
_0-3_躯体と製品
  6
PLINE2
 62
    4
 10
-2065.998440713508
 20
1323.2572275668433
 11
-2048.0153007135104
 21
1323.2572275668433
  0
LINE
  8
_0-3_躯体と製品
  6
CONTINUOUS
 62
    4
 10
-2065.3734407135062
 20
1329.2572275668435
 11
-2048.7520207135067
 21
1329.2572275668435
  0
LINE
  8
_0-3_躯体と製品
  6
CONTINUOUS
 62
    7
 10
-2048.8004007135132
 20
1329.4512875668438
 11
-2048.8004007135132
 21
1314.2572275668435
  0
LINE
  8
_0-3_躯体と製品
  6
CONTINUOUS
 62
    3
 10
-2013.0851807135114
 20
1351.5479475668435
 11
-2006.7952007135109
 21
1326.3202675668431
  0
LINE
  8
_0-3_躯体と製品
  6
PLINE2
 62
    6
 10
-2133.8720207135129
 20
1406.1536675668428
 11
-2048.4670607135067
 21
1491.5586275668438
  0
LINE
  8
_0-3_躯体と製品
  6
PLINE2
 62
    6
 10
-2108.5564407135053
 20
1396.1139075668434
 11
-2052.57814071351
 21
1452.0922075668436
  0
LINE
  8
_0-4_図面枠
  6
CONTINUOUS
 62
    3
 10
-2133.0092007135108
 20
1947.8580675668438
 11
-2371.4771207135136
 21
1947.8580675668438
  0
LINE
  8
_0-3_躯体と製品
  6
CONTINUOUS
 62
    3
 10
-2479.7578807135105
 20
1622.1513875668431
 11
-2453.8978007135083
 21
1619.4576275668437
  0
LINE
  8
_0-3_躯体と製品
  6
CONTINUOUS
 62
    7
 10
-2467.8970607135088
 20
1651.0782075668435
 11
-2463.8919407135072
 21
1689.5273675668427
  0
LINE
  8
_0-3_躯体と製品
  6
CONTINUOUS
 62
    3
 10
-2437.5841207135054
 20
1709.2615675668428
 11
-2431.756720713508
 21
1684.6199875668428
  0
LINE
  8
_0-3_躯体と製品
  6
PLINE2
 62
    6
 10
-2417.3930407135103
 20
1617.6073875668435
 11
-2374.7875407135107
 21
1660.2129075668431
  0
LINE
  8
_0-4_図面枠
  6
CONTINUOUS
 62
    3
 10
-2047.6315407135062
 20
1794.0729675668438
 11
-2075.7900807135102
 21
1824.1910275668436
  0
LINE
  8
_0-4_図面枠
  6
CONTINUOUS
 62
    3
 10
-2047.6315407135062
 20
1794.0729675668438
 11
-2133.0092007135108
 21
1947.8580675668438
  0
LINE
  8
_0-3_躯体と製品
  6
CONTINUOUS
 62
    3
 10
-2047.5252407135085
 20
1806.5141675668433
 11
-2041.6978407135093
 21
1781.8725875668433
  0
LINE
  8
_0-3_躯体と製品
  6
CONTINUOUS
 62
    3
 10
-2242.5546807135079
 20
1757.8878675668436
 11
-2236.7272807135087
 21
1733.2462875668436
  0
LINE
  8
_0-3_躯体と製品
  6
CONTINUOUS
 62
    4
 10
-2017.7155007135079
 20
1786.7735875668443
 11
-2020.2129207135076
 21
1762.7983475668434
  0
LINE
  8
_0-3_躯体と製品
  6
CONTINUOUS
 62
    4
 10
-2016.879800713511
 20
1794.7963275668435
 11
-2017.6261407135053
 21
1787.6313475668435
  0
TEXT
  8
_0-4_図面枠
 62
    7
 10
-3294.8084407135102
 20
2835.8519075668428
 40
60
 41
0.8000000000000001
 50
0
  1
ファイル名
  0
TEXT
  8
_0-4_図面枠
 62
    7
 10
-3259.9782407135135
 20
2678.2521275668423
 40
60
 41
0.8000000000000006
 50
0
  1
縮　　尺
  0
LINE
  8
_0-4_図面枠
  6
CONTINUOUS
 62
    3
 10
-2117.8237007135122
 20
2800.3333275668438
 11
-3451.1570407135114
 21
2800.3333275668438
  0
LINE
  8
_0-4_図面枠
  6
CONTINUOUS
 62
    3
 10
-2784.4903807135097
 20
2966.9999875668436
 11
-2784.4903807135097
 21
2633.6666475668444
  0
LINE
  8
_0-4_図面枠
  6
CONTINUOUS
 62
    7
 10
-2117.8237007135122
 20
2966.9999875668436
 11
-2117.8237007135122
 21
2633.6666475668444
  0
TEXT
  8
_0-4_図面枠
 62
    7
 10
-2658.477980713511
 20
2839.7441275668434
 40
60
 41
0.800000000000001
 50
0
  1
ＭＯＮ００７
  0
TEXT
  8
_0-4_図面枠
 62
    7
 10
-3201.0733407135067
 20
2434.2875875668433
 40
60
 41
0.8000000000000003
 50
0
  1
図中は、ＳＣ－９００Ｈ型
  0
TEXT
  8
_0-4_図面枠
 62
    7
 10
-2656.6598207135094
 20
2675.0441075668427
 40
60
 41
0.7999999999999999
 50
0
  1
Ｓ　１：２０
  0
TEXT
  8
_0-4_図面枠
 62
    7
 10
-1591.6004607135137
 20
1984.1920675668432
 40
60
 41
0.8000000000000006
 50
0
  1
渡し金具
  0
LINE
  8
_0-4_図面枠
  6
CONTINUOUS
 62
    3
 10
-866.50790071351003
 20
1830.6477475668423
 11
-712.57352071350942
 21
2097.2699075668443
  0
LINE
  8
_0-3_躯体と製品
  6
PLINE5
 62
    3
 10
-768.29092071351261
 20
446.64634756684336
 11
-817.31996071350841
 21
456.45216756684431
  0
LINE
  8
_0-3_躯体と製品
  6
PLINE2
 62
    3
 10
-767.40840071350885
 20
451.05896756684342
 11
-785.05886071351233
 21
362.80670756684435
  0
LINE
  8
_0-3_躯体と製品
  6
CONTINUOUS
 62
    4
 10
-706.18018071350434
 20
1279.2572275668435
 11
-1374.3964807135098
 21
1445.862267566843
  0
LINE
  8
_0-3_躯体と製品
  6
PLINE5
 62
    4
 10
-700.77766071350743
 20
1323.2572275668433
 11
-1374.3964807135098
 21
1491.2092675668434
  0
LINE
  8
_0-3_躯体と製品
  6
CONTINUOUS
 62
    4
 10
-1374.3964807135098
 20
1497.3929475668426
 11
-700.04096071351069
 21
1329.2572275668435
  0
LINE
  8
_0-3_躯体と製品
  6
PLINE2
 62
    3
 10
-1374.3964807135098
 20
572.45658756684338
 11
-684.53170071351178
 21
434.48362756684446
  0
LINE
  8
_0-3_躯体と製品
  6
PLINE2
 62
    3
 10
-1374.3964807135098
 20
598.97148756684328
 11
-679.32436071350457
 21
459.95704756684336
  0
LINE
  8
_0-3_躯体と製品
  6
CONTINUOUS
 62
    3
 10
-1374.3964807135098
 20
517.38716756684425
 11
-694.94060071351396
 21
381.49598756684327
  0
LINE
  8
_0-3_躯体と製品
  6
PLINE2
 62
    7
 10
-678.85908071350696
 20
461.90360756684436
 11
-923.21490071350672
 21
510.77476756684428
  0
LINE
  8
_0-3_躯体と製品
  6
CONTINUOUS
 62
    4
 10
-808.89648071350803
 20
675.32930756684436
 11
-182.48064071350836
 21
911.87794756684434
  0
TEXT
  8
_0-4_図面枠
 62
    7
 10
-926.04534071350463
 20
1512.8386075668429
 40
60
 41
0.8000000000000001
 50
0
  1
六角ボルト
  0
LINE
  8
_0-4_図面枠
  6
CONTINUOUS
 62
    3
 10
-926.0452807135116
 20
1502.8386275668431
 11
-670.8037007135099
 21
1502.8386275668431
  0
LINE
  8
_0-3_躯体と製品
  6
CONTINUOUS
 62
    4
 10
-265.67022071350675
 20
1710.4979275668434
 11
-899.39648071350894
 21
1868.5036275668431
  0
LINE
  8
_0-3_躯体と製品
  6
CONTINUOUS
 62
    7
 10
-1839.910260713511
 20
1211.7468675668435
 11
-1977.7982207135074
 21
1096.0451275668443
  0
LINE
  8
_0-3_躯体と製品
  6
CONTINUOUS
 62
    3
 10
-1902.9823407135127
 20
1178.0125875668443
 11
-1883.6987207135053
 21
1155.0312475668443
  0
LINE
  8
_0-3_躯体と製品
  6
CONTINUOUS
 62
    4
 10
-1824.3964807135089
 20
1216.5404075668441
 11
-1949.5984207135052
 21
1111.4835075668434
  0
LINE
  8
_0-3_躯体と製品
  6
CONTINUOUS
 62
    4
 10
-1830.3964807135126
 20
1219.3382475668427
 11
-1962.2844807135125
 21
1108.6710675668435
  0
LINE
  8
_0-3_躯体と製品
  6
PLINE5
 62
    4
 10
-1818.3964807135044
 20
558.97148756684328
 11
-1818.3964807135044
 21
1329.2572275668435
  0
LINE
  8
_0-3_躯体と製品
  6
CONTINUOUS
 62
    4
 10
-1824.3964807135089
 20
558.97148756684328
 11
-1824.3964807135089
 21
1379.0116675668439
  0
LINE
  8
_0-3_躯体と製品
  6
CONTINUOUS
 62
    4
 10
-1774.3964807135089
 20
1391.4780675668435
 11
-1774.3964807135089
 21
379.9494675668434
  0
LINE
  8
_0-3_躯体と製品
  6
PLINE4
 62
    4
 10
-1774.3964807135089
 20
385.37716756684335
 11
-1374.3964807135098
 21
465.37716756684335
  0
LINE
  8
_0-3_躯体と製品
  6
PLINE5
 62
    4
 10
-1374.3964807135098
 20
935.47806756684327
 11
-1818.3964807135044
 21
935.47806756684327
  0
LINE
  8
_0-3_躯体と製品
  6
CONTINUOUS
 62
    4
 10
-1374.3964807135098
 20
891.47806756684327
 11
-1789.1617407135118
 21
891.47806756684327
  0
LINE
  8
_0-3_躯体と製品
  6
CONTINUOUS
 62
    4
 10
-1374.3964807135098
 20
941.4780675668444
 11
-1818.3964807135044
 21
941.4780675668444
  0
LINE
  8
_0-3_躯体と製品
  6
CONTINUOUS
 62
    4
 10
-1834.3964807135089
 20
865.8432875668434
 11
-1834.3964807135089
 21
558.97148756684328
  0
LINE
  8
_0-3_躯体と製品
  6
PLINE2
 62
    6
 10
-1885.3512807135085
 20
735.43558756684433
 11
-1834.3964807135089
 21
786.3903875668434
  0
LINE
  8
_0-3_躯体と製品
  6
PLINE2
 62
    6
 10
-1911.0153207135099
 20
745.12688756684338
 11
-1834.3964807135089
 21
821.74572756684438
  0
LINE
  8
_0-3_躯体と製品
  6
PLINE2
 62
    6
 10
-1859.6872607135056
 20
725.74426756684329
 11
-1834.3964807135089
 21
751.03504756684333
  0
LINE
  8
_0-3_躯体と製品
  6
CONTINUOUS
 62
    7
 10
-1824.8964807135108
 20
510.93144756684342
 11
-1824.8964807135108
 21
940.82644756684431
  0
LINE
  8
_0-3_躯体と製品
  6
CONTINUOUS
 62
    4
 10
-1824.3964807135089
 20
941.4780675668444
 11
-1824.3964807135089
 21
374.99848756684446
  0
LINE
  8
_0-3_躯体と製品
  6
CONTINUOUS
 62
    4
 10
-1824.3964807135089
 20
558.97148756684328
 11
-1824.3964807135089
 21
377.31810756684331
  0
LINE
  8
_0-3_躯体と製品
  6
PLINE5
 62
    4
 10
-1818.3964807135044
 20
375.5926075668433
 11
-1818.3964807135044
 21
558.97148756684328
  0
LINE
  8
_0-3_躯体と製品
  6
CONTINUOUS
 62
    4
 10
-1854.4022607135093
 20
386.71268756684435
 11
-1824.9848407135105
 21
392.59616756684341
  0
LINE
  8
_0-3_躯体と製品
  6
CONTINUOUS
 62
    4
 10
-1824.3964807135089
 20
389.65442756684433
 11
-1853.8139007135087
 21
383.77094756684437
  0
LINE
  8
_0-3_躯体と製品
  6
PLINE2
 62
    6
 10
-1861.1005607135085
 20
420.20420756684325
 11
-1827.0001007135088
 21
392.19310756684331
  0
LINE
  8
_0-3_躯体と製品
  6
PLINE2
 62
    6
 10
-1868.8431607135099
 20
458.9171875668444
 11
-1832.2348007135097
 21
428.84602756684444
  0
LINE
  8
_0-3_躯体と製品
  6
CONTINUOUS
 62
    3
 10
-1824.5926007135095
 20
390.63500756684334
 11
-1847.3420807135117
 21
504.38236756684228
  0
LINE
  8
_0-3_躯体と製品
  6
CONTINUOUS
 62
    3
 10
-1869.9682607135082
 20
363.20340756684345
 11
-1826.8227007135056
 21
371.83250756684333
  0
LINE
  8
_0-3_躯体と製品
  6
CONTINUOUS
 62
    3
 10
-1873.4983407135096
 20
365.55680756684342
 11
-1824.3964807135089
 21
375.37716756684426
  0
LINE
  8
_0-4_図面枠
  6
CONTINUOUS
 62
    3
 10
-1852.497000713508
 20
459.28504756684333
 11
-1863.8367407135102
 21
419.64402756684444
  0
LINE
  8
_0-3_躯体と製品
  6
CONTINUOUS
 62
    4
 10
-1876.955620713512
 20
499.47946756684337
 11
-1854.4022607135093
 21
386.71268756684435
  0
LINE
  8
_0-3_躯体と製品
  6
PLINE2
 62
    3
 10
-1932.3555407135118
 20
460.86476756684237
 11
-1914.7050807135074
 21
372.61250756684331
  0
LINE
  8
_0-3_躯体と製品
  6
PLINE2
 62
    3
 10
-1981.3845607135099
 20
451.05896756684342
 11
-1963.7341207135123
 21
362.80670756684435
  0
LINE
  8
_0-3_躯体と製品
  6
CONTINUOUS
 62
    3
 10
-1914.7050807135074
 20
372.61250756684331
 11
-1911.7633407135118
 21
357.9038075668434
  0
LINE
  8
_0-4_図面枠
  6
CONTINUOUS
 62
    3
 10
-1965.3676007135127
 20
380.27944756684337
 11
-1976.7073607135135
 21
340.63842756684335
  0
LINE
  8
_0-3_躯体と製品
  6
CONTINUOUS
 62
    3
 10
-1962.0671207135056
 20
354.47176756684325
 11
-1913.0381007135074
 21
364.27756756684425
  0
LINE
  8
_0-3_躯体と製品
  6
CONTINUOUS
 62
    3
 10
-1963.7341207135123
 20
362.80670756684435
 11
-1960.7923807135066
 21
348.09798756684336
  0
LINE
  8
_0-3_躯体と製品
  6
CONTINUOUS
 62
    3
 10
-1869.5760207135072
 20
345.94518756684442
 11
-1866.6342807135115
 21
346.5335275668433
  0
LINE
  8
_0-3_躯体と製品
  6
CONTINUOUS
 62
    3
 10
-1866.6342807135115
 20
346.5335275668433
 11
-1869.9682607135082
 21
363.20340756684345
  0
LINE
  8
_0-3_躯体と製品
  6
CONTINUOUS
 62
    3
 10
-1869.5760207135072
 20
345.94518756684442
 11
-1873.4983407135096
 21
365.55680756684342
  0
LINE
  8
_0-3_躯体と製品
  6
PLINE5
 62
    3
 10
-1980.5020407135053
 20
446.64634756684336
 11
-1931.4730207135062
 21
456.45216756684431
  0
LINE
  8
_0-3_躯体と製品
  6
CONTINUOUS
 62
    4
 10
-1906.3730407135126
 20
493.59596756684346
 11
-1876.955620713512
 21
499.47946756684337
  0
LINE
  8
_0-3_躯体と製品
  6
PLINE2
 62
    6
 10
-1876.5857407135045
 20
497.63014756684447
 11
-1839.9774007135102
 21
467.55900756684446
  0
LINE
  8
_0-3_躯体と製品
  6
CONTINUOUS
 62
    4
 10
-1824.9848407135105
 20
392.59616756684341
 11
-1824.3964807135089
 21
389.65442756684433
  0
LINE
  8
_0-4_図面枠
  6
CONTINUOUS
 62
    3
 10
-1792.0622407135088
 20
498.28282756684325
 11
-1763.4019807135128
 21
468.64180756684345
  0
LINE
  8
_0-3_躯体と製品
  6
CONTINUOUS
 62
    3
 10
-1840.9415607135043
 20
591.47806756684327
 11
-1810.9415607135043
 21
591.47806756684327
  0
LINE
  8
_0-3_躯体と製品
  6
CONTINUOUS
 62
    3
 10
-1840.9415607135043
 20
641.47806756684327
 11
-1810.9415607135043
 21
641.47806756684327
  0
LINE
  8
_0-3_躯体と製品
  6
PLINE5
 62
    4
 10
-1912.2768407135081
 20
698.57060756684336
 11
-1834.3964807135089
 21
669.16124756684439
  0
LINE
  8
_0-3_躯体と製品
  6
CONTINUOUS
 62
    4
 10
-1914.3964807135089
 20
692.95748756684338
 11
-1834.3964807135089
 21
662.74770756684347
  0
LINE
  8
_0-3_躯体と製品
  6
CONTINUOUS
 62
    7
 10
-1912.3964807135108
 20
658.97148756684328
 11
-1914.3964807135089
 21
658.97148756684328
  0
LINE
  8
_0-3_躯体と製品
  6
CONTINUOUS
 62
    3
 10
-1940.1376207135099
 20
716.03946756684445
 11
-1949.3227407135109
 21
691.7159475668434
  0
LINE
  8
_0-3_躯体と製品
  6
CONTINUOUS
 62
    7
 10
-1914.3964807135089
 20
692.95748756684338
 11
-1914.3964807135089
 21
658.97148756684328
  0
LINE
  8
_0-3_躯体と製品
  6
CONTINUOUS
 62
    7
 10
-1912.3964807135108
 20
668.3362275668444
 11
-1912.3964807135108
 21
658.97148756684328
  0
LINE
  8
_0-3_躯体と製品
  6
CONTINUOUS
 62
    4
 10
-1824.3964807135089
 20
558.97148756684328
 11
-1834.3964807135089
 21
558.97148756684328
  0
LINE
  8
_0-3_躯体と製品
  6
CONTINUOUS
 62
    4
 10
-1834.3964807135089
 20
716.19390756684447
 11
-1824.3964807135089
 21
716.19390756684447
  0
LINE
  8
_0-3_躯体と製品
  6
CONTINUOUS
 62
    3
 10
-1840.9415607135043
 20
881.47806756684327
 11
-1810.9415607135043
 21
881.47806756684327
  0
LINE
  8
_0-3_躯体と製品
  6
PLINE2
 62
    6
 10
-1936.6793407135046
 20
754.81820756684442
 11
-1834.3964807135089
 21
857.10106756684331
  0
LINE
  8
_0-3_躯体と製品
  6
CONTINUOUS
 62
    7
 10
-1862.9011007135123
 20
930.64314756684439
 11
-1824.8964807135108
 21
940.82644756684431
  0
LINE
  8
_0-3_躯体と製品
  6
CONTINUOUS
 62
    7
 10
-1863.0335207135122
 20
931.12530756684441
 11
-1824.3964807135089
 21
941.4780675668444
  0
LINE
  8
_0-3_躯体と製品
  6
PLINE2
 62
    6
 10
-1988.0074007135108
 20
774.20082756684428
 11
-1879.3786607135062
 21
882.8295475668433
  0
LINE
  8
_0-3_躯体と製品
  6
PLINE2
 62
    6
 10
-1962.3433807135052
 20
764.50950756684347
 11
-1853.7146407135106
 21
873.13824756684426
  0
LINE
  8
_0-3_躯体と製品
  6
CONTINUOUS
 62
    3
 10
-1797.0480807135082
 20
921.86984756684342
 11
-1797.0480807135082
 21
907.86984756684433
  0
LINE
  8
_0-3_躯体と製品
  6
CONTINUOUS
 62
    3
 10
-1804.0480807135064
 20
914.86984756684433
 11
-1790.04808071351
 21
914.86984756684433
  0
LINE
  8
_0-3_躯体と製品
  6
CONTINUOUS
 62
    4
 10
-1804.8130407135113
 20
891.47806756684327
 11
-1818.3964807135044
 21
891.47806756684327
  0
LINE
  8
_0-3_躯体と製品
  6
CONTINUOUS
 62
    4
 10
-1949.5984207135052
 20
1111.4835075668434
 11
-1824.3964807135089
 21
1077.9357475668435
  0
LINE
  8
_0-3_躯体と製品
  6
CONTINUOUS
 62
    4
 10
-1962.2844807135125
 20
1108.6710675668435
 11
-1830.3964807135126
 21
1073.3317875668445
  0
LINE
  8
_0-3_躯体と製品
  6
CONTINUOUS
 62
    7
 10
-1977.6053807135086
 20
1096.0451275668443
 11
-1977.6053807135086
 21
1076.0451275668443
  0
LINE
  8
_0-3_躯体と製品
  6
CONTINUOUS
 62
    4
 10
-1830.3964807135126
 20
1073.3317875668445
 11
-1830.3964807135126
 21
1047.9357475668435
  0
LINE
  8
_0-3_躯体と製品
  6
CONTINUOUS
 62
    3
 10
-1836.2100807135048
 20
1062.9357475668435
 11
-1810.9415607135043
 21
1062.9357475668435
  0
LINE
  8
_0-3_躯体と製品
  6
CONTINUOUS
 62
    4
 10
-1830.3964807135126
 20
1047.9357475668435
 11
-1824.3964807135089
 21
1047.9357475668435
  0
LINE
  8
_0-3_躯体と製品
  6
PLINE4
 62
    4
 10
-974.39648071350894
 20
385.37716756684335
 11
-1374.3964807135098
 21
465.37716756684335
  0
LINE
  8
_0-3_躯体と製品
  6
CONTINUOUS
 62
    3
 10
-1374.3964807135098
 20
482.71382756684329
 11
-904.4907007135098
 21
388.73268756684433
  0
LINE
  8
_0-3_躯体と製品
  6
CONTINUOUS
 62
    3
 10
-1374.3964807135098
 20
601.01108756684425
 11
-923.21490071350672
 21
510.77476756684428
  0
LINE
  8
_0-3_躯体と製品
  6
PLINE2
 62
    4
 10
-974.39648071350894
 20
402.71382756684329
 11
-974.39648071350894
 21
741.73722756684333
  0
LINE
  8
_0-3_躯体と製品
  6
PLINE2
 62
    4
 10
-930.39648071351257
 20
393.91382756684334
 11
-930.39648071351257
 21
741.73722756684333
  0
LINE
  8
_0-3_躯体と製品
  6
PLINE2
 62
    4
 10
-924.39648071350894
 20
741.73722756684333
 11
-924.39648071350894
 21
510.07910756684328
  0
LINE
  8
_0-3_躯体と製品
  6
PLINE2
 62
    7
 10
-923.39648071350439
 20
510.88144756684437
 11
-923.39648071350439
 21
741.73722756684333
  0
LINE
  8
_0-3_躯体と製品
  6
CONTINUOUS
 62
    4
 10
-808.89648071350803
 20
675.32930756684436
 11
-808.89648071350803
 21
487.91108756684434
  0
LINE
  8
_0-3_躯体と製品
  6
CONTINUOUS
 62
    3
 10
-875.29462071350827
 20
365.55680756684342
 11
-924.39648071350894
 21
375.37716756684426
  0
LINE
  8
_0-3_躯体と製品
  6
PLINE2
 62
    7
 10
-924.59260071350855
 20
389.69364756684331
 11
-895.1751807135106
 21
383.81016756684335
  0
LINE
  8
_0-3_躯体と製品
  6
PLINE2
 62
    7
 10
-894.58684071350672
 20
386.75190756684333
 11
-924.00426071350557
 21
392.63538756684329
  0
LINE
  8
_0-3_躯体と製品
  6
CONTINUOUS
 62
    3
 10
-924.39648071350894
 20
390.67422756684437
 11
-901.64702071351348
 21
504.4215875668433
  0
LINE
  8
_0-3_躯体と製品
  6
PLINE2
 62
    4
 10
-924.39648071350894
 20
392.50892756684334
 11
-924.39648071350894
 21
508.74686756684446
  0
LINE
  8
_0-3_躯体と製品
  6
PLINE5
 62
    4
 10
-930.39648071351257
 20
391.87422756684441
 11
-930.39648071351257
 21
375.5926075668433
  0
LINE
  8
_0-3_躯体と製品
  6
CONTINUOUS
 62
    4
 10
-924.39648071350894
 20
390.67422756684437
 11
-924.39648071350894
 21
374.99848756684446
  0
LINE
  8
_0-3_躯体と製品
  6
CONTINUOUS
 62
    4
 10
-974.39648071350894
 20
400.67422756684437
 11
-974.39648071350894
 21
379.9494675668434
  0
LINE
  8
_0-3_躯体と製品
  6
PLINE2
 62
    3
 10
-816.43744071351284
 20
460.86476756684237
 11
-834.08790071350722
 21
372.61250756684331
  0
LINE
  8
_0-3_躯体と製品
  6
PLINE2
 62
    7
 10
-894.58684071350672
 20
386.75190756684333
 11
-872.0334807135132
 21
499.51868756684439
  0
LINE
  8
_0-3_躯体と製品
  6
PLINE2
 62
    6
 10
-919.01528071350731
 20
417.58028756684325
 11
-882.40694071350481
 21
447.65142756684236
  0
LINE
  8
_0-3_躯体と製品
  6
CONTINUOUS
 62
    3
 10
-879.21696071350743
 20
345.94518756684442
 11
-882.15870071351219
 21
346.5335275668433
  0
LINE
  8
_0-3_躯体と製品
  6
CONTINUOUS
 62
    3
 10
-878.82472071350639
 20
363.20340756684345
 11
-921.97026071351138
 21
371.83250756684333
  0
LINE
  8
_0-3_躯体と製品
  6
CONTINUOUS
 62
    3
 10
-882.15870071351219
 20
346.5335275668433
 11
-878.82472071350639
 21
363.20340756684345
  0
LINE
  8
_0-3_躯体と製品
  6
CONTINUOUS
 62
    3
 10
-879.21696071350743
 20
345.94518756684442
 11
-875.29462071350827
 21
365.55680756684342
  0
LINE
  8
_0-3_躯体と製品
  6
PLINE2
 62
    6
 10
-912.73946071350656
 20
390.3824275668444
 11
-890.14952071350854
 21
408.93844756684325
  0
LINE
  8
_0-3_躯体と製品
  6
CONTINUOUS
 62
    3
 10
-786.72584071351139
 20
354.47176756684325
 11
-835.75488071350901
 21
364.27756756684425
  0
LINE
  8
_0-3_躯体と製品
  6
CONTINUOUS
 62
    3
 10
-834.08790071350722
 20
372.61250756684331
 11
-837.0296407135138
 21
357.9038075668434
  0
LINE
  8
_0-3_躯体と製品
  6
CONTINUOUS
 62
    3
 10
-785.05886071351233
 20
362.80670756684435
 11
-788.0006007135089
 21
348.09798756684336
  0
LINE
  8
_0-3_躯体と製品
  6
PLINE2
 62
    7
 10
-842.61606071351252
 20
493.63520756684443
 11
-872.0334807135132
 21
499.51868756684439
  0
LINE
  8
_0-3_躯体と製品
  6
PLINE2
 62
    6
 10
-893.94354071351336
 20
502.88088756684328
 11
-903.53008071351451
 21
495.00622756684334
  0
LINE
  8
_0-3_躯体と製品
  6
PLINE2
 62
    6
 10
-911.27268071350591
 20
456.29326756684327
 11
-874.6643407135125
 21
486.36440756684328
  0
LINE
  8
_0-3_躯体と製品
  6
CONTINUOUS
 62
    4
 10
-1788.8020607135113
 20
1342.5393475668436
 11
-1374.3964807135098
 21
1445.862267566843
  0
LINE
  8
_0-4_図面枠
  6
CONTINUOUS
 62
    3
 10
-1591.6003007135132
 20
1974.1924275668446
 11
-1351.4379807135047
 21
1974.1924275668446
  0
LINE
  8
_0-3_躯体と製品
  6
CONTINUOUS
 62
    4
 10
-1799.59510071351
 20
1848.9714875668431
 11
-1374.3964807135098
 21
1848.9714875668431
  0
LINE
  8
_0-3_躯体と製品
  6
CONTINUOUS
 62
    4
 10
-1798.1435607135118
 20
1843.1497075668431
 11
-1374.3964807135098
 21
1843.1497075668431
  0
LINE
  8
_0-3_躯体と製品
  6
CONTINUOUS
 62
    7
 10
-1839.910260713511
 20
1231.7468675668438
 11
-1839.910260713511
 21
1211.7468675668435
  0
LINE
  8
_0-3_躯体と製品
  6
CONTINUOUS
 62
    3
 10
-1836.2100807135048
 20
1231.5404075668441
 11
-1810.9415607135043
 21
1231.5404075668441
  0
LINE
  8
_0-3_躯体と製品
  6
CONTINUOUS
 62
    4
 10
-1824.3964807135089
 20
1246.5404075668441
 11
-1830.3964807135126
 21
1246.5404075668441
  0
LINE
  8
_0-3_躯体と製品
  6
CONTINUOUS
 62
    4
 10
-1830.3964807135126
 20
1219.3382475668427
 11
-1830.3964807135126
 21
1246.5404075668441
  0
LINE
  8
_0-3_躯体と製品
  6
PLINE5
 62
    4
 10
-1824.3964807135089
 20
1329.2572275668435
 11
-1818.3964807135044
 21
1329.2572275668435
  0
LINE
  8
_0-3_躯体と製品
  6
CONTINUOUS
 62
    3
 10
-1799.0710807135074
 20
1370.4626275668438
 11
-1798.9448007135124
 21
1356.4632075668435
  0
LINE
  8
_0-3_躯体と製品
  6
CONTINUOUS
 62
    3
 10
-1806.0076607135097
 20
1363.3997875668429
 11
-1792.008220713511
 21
1363.5260475668433
  0
LINE
  8
_0-3_躯体と製品
  6
CONTINUOUS
 62
    3
 10
-1799.0079407135045
 20
1370.4629075668429
 11
-1799.0079407135045
 21
1356.4629075668431
  0
LINE
  8
_0-3_躯体と製品
  6
CONTINUOUS
 62
    3
 10
-1806.0079407135127
 20
1363.4629075668436
 11
-1792.0079407135072
 21
1363.4629075668436
  0
LINE
  8
_0-3_躯体と製品
  6
CONTINUOUS
 62
    3
 10
-1571.6006207135124
 20
1461.6224075668442
 11
-1565.310640713511
 21
1436.3947275668436
  0
LINE
  8
_0-3_躯体と製品
  6
CONTINUOUS
 62
    4
 10
-1824.3964807135089
 20
1848.9714875668431
 11
-1812.3004007135078
 21
1800.4566875668438
  0
LINE
  8
_0-3_躯体と製品
  6
CONTINUOUS
 62
    4
 10
-1918.5230007135078
 20
1813.1357475668433
 11
-1904.9916807135069
 21
1816.5094875668426
  0
LINE
  8
_0-3_躯体と製品
  6
CONTINUOUS
 62
    4
 10
-1919.9745207135084
 20
1818.9575275668442
 11
-1918.5230007135078
 21
1813.1357475668433
  0
LINE
  8
_0-3_躯体と製品
  6
CONTINUOUS
 62
    3
 10
-1855.8512607135126
 20
1847.604867566843
 11
-1850.0238607135052
 21
1822.9632875668431
  0
LINE
  8
_0-3_躯体と製品
  6
CONTINUOUS
 62
    4
 10
-1900.9170607135056
 20
1817.5253875668425
 11
-1839.4404807135079
 21
1832.8532275668435
  0
LINE
  8
_0-3_躯体と製品
  6
CONTINUOUS
 62
    3
 10
-1834.8190207135085
 20
1866.6112075668427
 11
-1820.5811407135088
 21
1866.6112075668427
  0
LINE
  8
_0-3_躯体と製品
  6
CONTINUOUS
 62
    4
 10
-1822.9449607135084
 20
1843.1497075668431
 11
-1799.59510071351
 21
1848.9714875668431
  0
LINE
  8
_0-3_躯体と製品
  6
CONTINUOUS
 62
    4
 10
-1834.5623407135054
 20
1834.0694875668435
 11
-1798.1435607135118
 21
1843.1497075668431
  0
LINE
  8
_0-3_躯体と製品
  6
CONTINUOUS
 62
    7
 10
-1824.3964807135089
 20
1888.4714875668435
 11
-1823.3964807135053
 21
1888.4714875668435
  0
LINE
  8
_0-3_躯体と製品
  6
CONTINUOUS
 62
    7
 10
-1824.3964807135089
 20
1848.9714875668431
 11
-1824.3964807135089
 21
1888.4714875668435
  0
LINE
  8
_0-3_躯体と製品
  6
CONTINUOUS
 62
    7
 10
-1823.3964807135053
 20
1888.4714875668435
 11
-1823.3964807135053
 21
1878.9946675668436
  0
LINE
  8
_0-4_図面枠
  6
CONTINUOUS
 62
    3
 10
-1661.0368807135055
 20
1850.5915475668432
 11
-1591.6003007135132
 21
1974.1924275668446
  0
LINE
  8
_0-4_図面枠
  6
CONTINUOUS
 62
    3
 10
-1661.0368807135055
 20
1850.5915475668432
 11
-1650.1639407135062
 21
1890.3631275668424
  0
LINE
  8
_0-3_躯体と製品
  6
CONTINUOUS
 62
    3
 10
-1374.3964807135098
 20
1470.862267566843
 11
-1367.3964807135117
 21
1470.862267566843
  0
LINE
  8
_0-3_躯体と製品
  6
CONTINUOUS
 62
    3
 10
-1232.8212407135079
 20
1441.2377475668432
 11
-1236.208140713512
 21
1427.6536075668441
  0
LINE
  8
_0-3_躯体と製品
  6
CONTINUOUS
 62
    3
 10
-1241.3067607135108
 20
1436.1391275668434
 11
-1227.7226207135081
 21
1432.7522275668439
  0
LINE
  8
_0-3_躯体と製品
  6
CONTINUOUS
 62
    3
 10
-1119.387740713506
 20
1412.9556075668431
 11
-1122.774640713511
 21
1399.371467566843
  0
LINE
  8
_0-3_躯体と製品
  6
CONTINUOUS
 62
    3
 10
-1127.8732607135098
 20
1407.8569875668431
 11
-1114.2891207135071
 21
1404.4700875668439
  0
LINE
  8
_0-3_躯体と製品
  6
CONTINUOUS
 62
    3
 10
-999.47108071350704
 20
1383.0570275668442
 11
-1002.857980713512
 21
1369.4728875668436
  0
LINE
  8
_0-4_図面枠
  6
CONTINUOUS
 62
    3
 10
-1000.6357007135066
 20
1373.6442075668442
 11
-989.29596071351261
 21
1413.2852275668433
  0
LINE
  8
_0-4_図面枠
  6
CONTINUOUS
 62
    3
 10
-1000.6357007135066
 20
1373.6442075668442
 11
-926.0452807135116
 21
1502.8386275668431
  0
LINE
  8
_0-3_躯体と製品
  6
CONTINUOUS
 62
    3
 10
-1007.9566007135118
 20
1377.9584075668431
 11
-994.37246071350819
 21
1374.5715075668436
  0
LINE
  8
_0-3_躯体と製品
  6
CONTINUOUS
 62
    4
 10
-1374.3964807135098
 20
1888.9714875668433
 11
-924.39648071350894
 21
1888.9714875668433
  0
LINE
  8
_0-3_躯体と製品
  6
CONTINUOUS
 62
    4
 10
-924.39648071350894
 20
1873.9714875668431
 11
-899.39648071350894
 21
1868.5036275668431
  0
LINE
  8
_0-3_躯体と製品
  6
CONTINUOUS
 62
    4
 10
-924.39648071350894
 20
1888.9714875668433
 11
-924.39648071350894
 21
1873.9714875668431
  0
LINE
  8
_0-4_図面枠
  6
CONTINUOUS
 62
    3
 10
-866.50790071351003
 20
1830.6477475668423
 11
-855.16816071350695
 21
1870.2887675668437
  0
LINE
  8
_0-3_躯体と製品
  6
CONTINUOUS
 62
    3
 10
-865.38320071350972
 20
1841.257167566843
 11
-868.77012071351146
 21
1827.6730275668426
  0
LINE
  8
_0-3_躯体と製品
  6
CONTINUOUS
 62
    3
 10
-873.86874071351031
 20
1836.1585675668441
 11
-860.28460071350855
 21
1832.7716475668437
  0
LINE
  8
_0-3_躯体と製品
  6
CONTINUOUS
 62
    4
 10
-182.48064071350836
 20
911.87794756684434
 11
-265.67022071350675
 21
1710.4979275668434
  0
TEXT
  8
_0-4_図面枠
 62
    7
 10
-241.57330071351225
 20
578.4596475668443
 40
60
 41
0.8000000000000003
 50
0
  1
屋根材
  0
LINE
  8
_0-4_図面枠
  6
CONTINUOUS
 62
    3
 10
-237.78458071351088
 20
572.78962756684427
 11
-90.173520713511607
 21
572.78962756684427
  0
LINE
  8
_0-3_躯体と製品
  6
CONTINUOUS
 62
    3
 10
-679.27016071350954
 20
459.94620756684344
 11
-112.78744071350593
 21
346.64966756684339
  0
LINE
  8
_0-3_躯体と製品
  6
CONTINUOUS
 62
    3
 10
-694.94060071351396
 20
381.49598756684327
 11
-679.44744071350851
 21
458.96186756684438
  0
LINE
  8
_0-3_躯体と製品
  6
PLINE2
 62
    7
 10
-725.97030071351219
 20
379.31808756684336
 11
-708.47262071350633
 21
466.80650756684327
  0
LINE
  8
_0-3_躯体と製品
  6
PLINE2
 62
    7
 10
-679.44744071350851
 20
458.96186756684438
 11
-699.05904071350596
 21
462.88418756684428
  0
LINE
  8
_0-3_躯体と製品
  6
PLINE2
 62
    7
 10
-708.47262071350633
 20
466.80650756684327
 11
-679.05520071350657
 21
460.9230275668433
  0
LINE
  8
_0-3_躯体と製品
  6
PLINE2
 62
    7
 10
-678.85908071350696
 20
461.90360756684436
 11
-679.44744071350851
 21
458.96186756684438
  0
LINE
  8
_0-4_図面枠
  6
CONTINUOUS
 62
    3
 10
-348.31794071351032
 20
381.34020756684436
 11
-237.78458071351088
 21
572.78962756684427
  0
LINE
  8
_0-4_図面枠
  6
CONTINUOUS
 62
    3
 10
-348.31794071351032
 20
381.34020756684436
 11
-336.97820071350634
 21
420.98122756684438
  0
LINE
  8
_0-3_躯体と製品
  6
PLINE5
 62
    4
 10
-251.91706071350836
 20
1279.2572275668435
 11
-706.18018071350434
 21
1279.2572275668435
  0
LINE
  8
_0-3_躯体と製品
  6
PLINE5
 62
    4
 10
-257.12538071350991
 20
1323.2572275668433
 11
-700.77766071350743
 21
1323.2572275668433
  0
LINE
  8
_0-3_躯体と製品
  6
PLINE5
 62
    4
 10
-257.12538071350991
 20
1329.2572275668435
 11
-700.04096071351069
 21
1329.2572275668435
  0
LINE
  8
_0-3_躯体と製品
  6
CONTINUOUS
 62
    3
 10
-751.94970071350872
 20
1812.9750275668441
 11
-755.33662071351137
 21
1799.3908875668437
  0
LINE
  8
_0-3_躯体と製品
  6
CONTINUOUS
 62
    3
 10
-632.03306071350744
 20
1783.0764475668427
 11
-635.41996071351241
 21
1769.4923075668435
  0
LINE
  8
_0-3_躯体と製品
  6
CONTINUOUS
 62
    3
 10
-640.51858071351126
 20
1777.9778275668441
 11
-626.93444071350859
 21
1774.5909275668434
  0
LINE
  8
_0-3_躯体と製品
  6
CONTINUOUS
 62
    3
 10
-513.13628071351286
 20
1753.4321475668428
 11
-516.52318071350783
 21
1739.8480075668435
  0
LINE
  8
_0-3_躯体と製品
  6
CONTINUOUS
 62
    3
 10
-521.62180071350576
 20
1748.3335275668439
 11
-508.03766071351401
 21
1744.9466275668435
  0
LINE
  8
_0-3_躯体と製品
  6
CONTINUOUS
 62
    3
 10
-760.43524071351021
 20
1807.876407566843
 11
-746.85110071350755
 21
1804.4895075668426
  0
LINE
  8
_0-4_図面枠
  6
CONTINUOUS
 62
    3
 10
-462.3163607135084
 20
1757.9357675668432
 11
-400.39796071350429
 21
1848.5975675668435
  0
LINE
  8
_0-4_図面枠
  6
CONTINUOUS
 62
    3
 10
-462.3163607135084
 20
1757.9357675668432
 11
-448.0150207135066
 21
1796.607107566844
  0
TEXT
  8
_0-4_図面枠
 62
    7
 10
-400.39776071350934
 20
1858.5972875668431
 40
60
 41
0.7999999999999996
 50
0
  1
妻板
  0
LINE
  8
_0-4_図面枠
  6
CONTINUOUS
 62
    3
 10
-400.39796071350429
 20
1848.5975675668435
 11
-282.45886071351015
 21
1848.5975675668435
  0
TEXT
  8
_0-4_図面枠
 62
    7
 10
-712.57336071350983
 20
2107.269467566844
 40
60
 41
0.8
 50
0
  1
シルタップ止め
  0
LINE
  8
_0-4_図面枠
  6
CONTINUOUS
 62
    3
 10
-712.57352071350942
 20
2097.2699075668443
 11
-359.49202071351192
 21
2097.2699075668443
  0
LINE
  8
_0-4_図面枠
  6
CONTINUOUS
 62
    3
 10
1896.1451992864859
 20
327.85780756684426
 11
1924.8054592864937
 21
298.21678756684332
  0
LINE
  8
_0-4_図面枠
  6
CONTINUOUS
 62
    3
 10
1896.1451992864859
 20
327.85780756684426
 11
2019.6144792864889
 21
114.00274756684439
  0
LINE
  8
_0-3_躯体と製品
  6
CONTINUOUS
 62
    3
 10
2497.6492792864919
 20
471.41742756684334
 11
2497.6492792864919
 21
125.53252756684333
  0
LINE
  8
_0-3_躯体と製品
  6
CONTINUOUS
 62
    3
 10
2475.5250792864936
 20
125.53252756684333
 11
2475.5250792864936
 21
472.34140756684337
  0
LINE
  8
_0-3_躯体と製品
  6
CONTINUOUS
 62
    3
 10
2461.6845992864946
 20
458.09554756684429
 11
2461.6845992864946
 21
125.53252756684333
  0
LINE
  8
_0-3_躯体と製品
  6
CONTINUOUS
 62
    3
 10
2511.6845992864946
 20
458.09554756684429
 11
2511.590559286491
 21
125.53252756684333
  0
LINE
  8
_0-3_躯体と製品
  6
CONTINUOUS
 62
    3
 10
2775.5250792864936
 20
125.53252756684333
 11
2775.5250792864936
 21
472.34140756684337
  0
LINE
  8
_0-3_躯体と製品
  6
CONTINUOUS
 62
    3
 10
2797.6492792864919
 20
471.41742756684334
 11
2797.6492792864919
 21
125.53252756684333
  0
LINE
  8
_0-3_躯体と製品
  6
CONTINUOUS
 62
    3
 10
2761.6845992864946
 20
458.09554756684429
 11
2761.6845992864946
 21
125.53252756684333
  0
LINE
  8
_0-3_躯体と製品
  6
CONTINUOUS
 62
    3
 10
2811.6845992864946
 20
458.09554756684429
 11
2811.590559286491
 21
125.53252756684333
  0
LINE
  8
_0-3_躯体と製品
  6
CONTINUOUS
 62
    3
 10
3411.9340392864906
 20
484.09554756684429
 11
3411.9340392864906
 21
125.53252756684333
  0
LINE
  8
_0-3_躯体と製品
  6
CONTINUOUS
 62
    3
 10
3375.3432192864821
 20
472.75940756684327
 11
3375.3432192864821
 21
130.40508756684449
  0
LINE
  8
_0-3_躯体と製品
  6
CONTINUOUS
 62
    3
 10
3397.9927592864915
 20
125.53252756684333
 11
3397.9927592864915
 21
472.58520756684447
  0
LINE
  8
_0-3_躯体と製品
  6
CONTINUOUS
 62
    3
 10
3097.6492792864938
 20
471.99036756684336
 11
3097.6492792864938
 21
125.53252756684333
  0
LINE
  8
_0-3_躯体と製品
  6
CONTINUOUS
 62
    3
 10
3075.5250792864936
 20
125.53252756684333
 11
3075.5250792864936
 21
472.34140756684337
  0
LINE
  8
_0-3_躯体と製品
  6
CONTINUOUS
 62
    3
 10
3588.684599286491
 20
437.97148756684442
 11
3588.684599286491
 21
125.53252756684333
  0
LINE
  8
_0-3_躯体と製品
  6
CONTINUOUS
 62
    3
 10
3484.6845992864819
 20
437.97148756684442
 11
3484.6845992864819
 21
125.53252756684333
  0
LINE
  8
_0-3_躯体と製品
  6
CONTINUOUS
 62
    3
 10
2284.6845992864874
 20
368.09554756684338
 11
2284.6845992864874
 21
125.53252756684333
  0
LINE
  8
_0-3_躯体と製品
  6
CONTINUOUS
 62
    3
 10
2388.684599286491
 20
368.09554756684338
 11
2388.684599286491
 21
125.53252756684333
  0
LINE
  8
_0-3_躯体と製品
  6
CONTINUOUS
 62
    3
 10
2584.6845992864892
 20
368.09554756684338
 11
2584.6845992864892
 21
125.53252756684333
  0
LINE
  8
_0-3_躯体と製品
  6
CONTINUOUS
 62
    3
 10
2688.6845992864928
 20
368.09554756684338
 11
2688.6845992864928
 21
125.53252756684333
  0
LINE
  8
_0-3_躯体と製品
  6
CONTINUOUS
 62
    3
 10
2987.9375392864895
 20
125.53252756684333
 11
2987.9375392864895
 21
368.09554756684338
  0
LINE
  8
_0-3_躯体と製品
  6
CONTINUOUS
 62
    3
 10
2884.6845992864892
 20
125.53252756684333
 11
2884.6845992864892
 21
368.09554756684338
  0
LINE
  8
_0-3_躯体と製品
  6
CONTINUOUS
 62
    3
 10
3184.6845992864819
 20
368.09554756684338
 11
3184.6845992864819
 21
125.53252756684333
  0
LINE
  8
_0-3_躯体と製品
  6
CONTINUOUS
 62
    3
 10
3061.6845992864946
 20
458.09554756684429
 11
3061.6845992864946
 21
125.53252756684333
  0
LINE
  8
_0-3_躯体と製品
  6
CONTINUOUS
 62
    3
 10
3111.6845992864946
 20
458.09554756684429
 11
3111.5905592864929
 21
125.53252756684333
  0
LINE
  8
_0-3_躯体と製品
  6
CONTINUOUS
 62
    3
 10
3287.9779392864821
 20
368.09554756684338
 11
3287.9779392864821
 21
125.53252756684333
  0
LINE
  8
_0-3_躯体と製品
  6
CONTINUOUS
 62
    3
 10
3361.684599286491
 20
458.09554756684429
 11
3361.684599286491
 21
125.53252756684333
  0
LINE
  8
_0-3_躯体と製品
  6
CONTINUOUS
 62
    4
 10
1861.6845992864946
 20
270.44046756684338
 11
1861.6845992864946
 21
1323.2572275668433
  0
LINE
  8
_0-3_躯体と製品
  6
CONTINUOUS
 62
    4
 10
1541.6845992864946
 20
270.44046756684338
 11
1541.6845992864946
 21
1323.2572275668433
  0
LINE
  8
_0-3_躯体と製品
  6
CONTINUOUS
 62
    3
 10
1423.6845992864928
 20
373.81832756684344
 11
1423.6845992864928
 21
273.44046756684338
  0
LINE
  8
_0-3_躯体と製品
  6
PLINE3
 62
    3
 10
2996.6845992864965
 20
68.066187566844292
 11
2996.6845992864965
 21
1888.9714875668433
  0
LINE
  8
_0-3_躯体と製品
  6
PLINE3
 62
    3
 10
2676.6845992864946
 20
1888.9714875668433
 11
2676.6845992864946
 21
68.066187566844292
  0
LINE
  8
_0-3_躯体と製品
  6
CONTINUOUS
 62
    3
 10
2846.6845992864946
 20
68.066187566844292
 11
2846.6845992864946
 21
1921.560267566844
  0
LINE
  8
_0-3_躯体と製品
  6
CONTINUOUS
 62
    3
 10
2826.6845992864965
 20
1921.560267566844
 11
2826.6845992864965
 21
68.066187566844292
  0
LINE
  8
_0-3_躯体と製品
  6
CONTINUOUS
 62
    3
 10
2271.6845992864946
 20
68.066187566844292
 11
2271.6845992864946
 21
1921.560267566844
  0
LINE
  8
_0-3_躯体と製品
  6
CONTINUOUS
 62
    3
 10
2241.6845992864928
 20
1921.560267566844
 11
2241.6845992864928
 21
68.066187566844292
  0
LINE
  8
_0-3_躯体と製品
  6
PLINE4
 62
    3
 10
1516.6845992864928
 20
1888.9714875668433
 11
1516.6845992864928
 21
172.52040756684437
  0
LINE
  8
_0-3_躯体と製品
  6
CONTINUOUS
 62
    4
 10
1491.6845992864928
 20
270.44046756684338
 11
1491.6845992864928
 21
1848.9714875668431
  0
LINE
  8
_0-3_躯体と製品
  6
CONTINUOUS
 62
    4
 10
1497.6845992864892
 20
1842.971487566844
 11
1497.6845992864892
 21
270.44046756684338
  0
LINE
  8
_0-3_躯体と製品
  6
PLINE4
 62
    3
 10
1836.6845992864946
 20
1888.9714875668433
 11
1836.6845992864946
 21
172.52040756684437
  0
LINE
  8
_0-3_躯体と製品
  6
CONTINUOUS
 62
    4
 10
1811.6845992864928
 20
270.44046756684338
 11
1811.6845992864928
 21
1848.9714875668431
  0
LINE
  8
_0-3_躯体と製品
  6
CONTINUOUS
 62
    4
 10
1817.6845992864892
 20
1842.971487566844
 11
1817.6845992864892
 21
270.44046756684338
  0
LINE
  8
_0-3_躯体と製品
  6
CONTINUOUS
 62
    3
 10
1686.6845992864928
 20
172.52040756684437
 11
1686.6845992864928
 21
1921.560267566844
  0
LINE
  8
_0-3_躯体と製品
  6
CONTINUOUS
 62
    3
 10
1666.6845992864946
 20
1921.560267566844
 11
1666.6845992864946
 21
172.52040756684437
  0
LINE
  8
_0-4_図面枠
  6
CONTINUOUS
 62
    7
 10
4292.1762992864806
 20
-2373.0000124331555
 11
4292.1762992864806
 21
2966.9999875668436
  0
LINE
  8
_0-4_図面枠
  6
CONTINUOUS
 62
    3
 10
1062.5739592864957
 20
-525.29705243315584
 11
1062.5739592864957
 21
-1725.2970524331558
  0
LINE
  8
_0-4_図面枠
  6
CONTINUOUS
 62
    3
 10
662.57395928649566
 20
-525.29705243315584
 11
662.57395928649566
 21
-1725.2970524331558
  0
LINE
  8
_0-4_図面枠
  6
CONTINUOUS
 62
    4
 10
1312.5739592864957
 20
-525.29705243315584
 11
1312.5739592864957
 21
-1725.2970524331558
  0
TEXT
  8
_0-4_図面枠
 62
    7
 10
1123.9491592864888
 20
-1408.1495524331567
 40
60
 41
0.7999999999999999
 50
0
  1
０．６
  0
TEXT
  8
_0-4_図面枠
 62
    7
 10
749.96661928649155
 20
-1394.7208924331567
 40
60
 41
0.8
 50
0
  1
１５６０
  0
TEXT
  8
_0-4_図面枠
 62
    7
 10
1370.1579592864928
 20
-1390.7517924331555
 40
60
 41
0.7999999999999999
 50
0
  1
Ｌ型鋼
  0
LINE
  8
_0-4_図面枠
  6
CONTINUOUS
 62
    4
 10
1612.5739592864938
 20
-1575.2970524331558
 11
1612.5739592864938
 21
-525.29705243315584
  0
LINE
  8
_0-4_図面枠
  6
CONTINUOUS
 62
    3
 10
1062.5739592864957
 20
-1725.2970524331558
 11
1062.5739592864957
 21
-2325.2970524331568
  0
LINE
  8
_0-4_図面枠
  6
CONTINUOUS
 62
    3
 10
662.57395928649566
 20
-1725.2970524331558
 11
662.57395928649566
 21
-2325.2970524331568
  0
LINE
  8
_0-4_図面枠
  6
CONTINUOUS
 62
    4
 10
1312.5739592864957
 20
-1725.2970524331558
 11
1312.5739592864957
 21
-2325.2970524331568
  0
LINE
  8
_0-4_図面枠
  6
CONTINUOUS
 62
    4
 10
1612.5739592864938
 20
-2325.2970524331568
 11
1612.5739592864938
 21
-1575.2970524331558
  0
TEXT
  8
_0-4_図面枠
 62
    7
 10
358.64337928648911
 20
-2295.4751524331559
 40
60
 41
0.8000000000000001
 50
0
  1
　１５０
  0
TEXT
  8
_0-4_図面枠
 62
    7
 10
758.64337928649002
 20
-2295.4751524331559
 40
60
 41
0.8
 50
0
  1
５１８０
  0
TEXT
  8
_0-4_図面枠
 62
    7
 10
1123.9491592864888
 20
-2308.1497124331554
 40
60
 41
0.7999999999999999
 50
0
  1
１．０
  0
TEXT
  8
_0-4_図面枠
 62
    7
 10
1362.5938792864908
 20
-2287.0872124331554
 40
60
 41
0.7999999999999999
 50
0
  1
Ｌ型鋼
  0
TEXT
  8
_0-4_図面枠
 62
    7
 10
759.81219928649261
 20
-1852.6680124331565
 40
60
 41
0.8
 50
0
  1
２５９０
  0
TEXT
  8
_0-4_図面枠
 62
    7
 10
358.64337928648911
 20
-1845.4753324331568
 40
60
 41
0.8000000000000001
 50
0
  1
　１５０
  0
TEXT
  8
_0-4_図面枠
 62
    7
 10
358.64337928648911
 20
-2145.4750124331558
 40
60
 41
0.8000000000000001
 50
0
  1
　１５０
  0
TEXT
  8
_0-4_図面枠
 62
    7
 10
358.64337928648911
 20
-1995.4753324331577
 40
60
 41
0.8000000000000001
 50
0
  1
　１５０
  0
TEXT
  8
_0-4_図面枠
 62
    7
 10
768.53533928649449
 20
-2005.5647524331571
 40
60
 41
0.8
 50
0
  1
３１１０
  0
TEXT
  8
_0-4_図面枠
 62
    7
 10
763.13129928649141
 20
-2151.6380324331576
 40
60
 41
0.8
 50
0
  1
３８８０
  0
TEXT
  8
_0-4_図面枠
 62
    7
 10
742.15715928649206
 20
-1700.9086524331565
 40
60
 41
0.8
 50
0
  1
２３３０
  0
TEXT
  8
_0-4_図面枠
 62
    7
 10
742.15715928649206
 20
-1550.9086524331565
 40
60
 41
0.8
 50
0
  1
１９４０
  0
TEXT
  8
_0-4_図面枠
 62
    7
 10
1362.5938792864908
 20
-1837.0872324331558
 40
60
 41
0.7999999999999999
 50
0
  1
Ｌ型鋼
  0
TEXT
  8
_0-4_図面枠
 62
    7
 10
1123.9491592864888
 20
-2008.1498924331554
 40
60
 41
0.7999999999999999
 50
0
  1
１．０
  0
TEXT
  8
_0-4_図面枠
 62
    7
 10
1123.9491592864888
 20
-2158.1495724331553
 40
60
 41
0.7999999999999999
 50
0
  1
１．０
  0
TEXT
  8
_0-4_図面枠
 62
    7
 10
1123.9491592864888
 20
-1858.1498924331568
 40
60
 41
0.7999999999999999
 50
0
  1
０．８
  0
TEXT
  8
_0-4_図面枠
 62
    7
 10
1362.5938792864908
 20
-2137.0872124331545
 40
60
 41
0.7999999999999999
 50
0
  1
Ｌ型鋼
  0
TEXT
  8
_0-4_図面枠
 62
    7
 10
1362.5938792864908
 20
-1987.0871924331559
 40
60
 41
0.7999999999999999
 50
0
  1
Ｌ型鋼
  0
TEXT
  8
_0-4_図面枠
 62
    7
 10
1123.9491592864888
 20
-1708.1498524331555
 40
60
 41
0.7999999999999999
 50
0
  1
０．８
  0
TEXT
  8
_0-4_図面枠
 62
    7
 10
1123.9491592864888
 20
-1558.1495524331567
 40
60
 41
0.7999999999999999
 50
0
  1
０．８
  0
TEXT
  8
_0-4_図面枠
 62
    7
 10
1362.5938792864908
 20
-1687.0873124331565
 40
60
 41
0.7999999999999999
 50
0
  1
Ｌ型鋼
  0
TEXT
  8
_0-4_図面枠
 62
    7
 10
1370.1579592864928
 20
-1540.7517924331555
 40
60
 41
0.7999999999999999
 50
0
  1
Ｌ型鋼
  0
TEXT
  8
_0-4_図面枠
 62
    7
 10
768.53533928649449
 20
-955.56471243315673
 40
60
 41
0.8
 50
0
  1
１０４０
  0
TEXT
  8
_0-4_図面枠
 62
    7
 10
358.64337928648911
 20
-945.47529243315557
 40
60
 41
0.8000000000000001
 50
0
  1
　１００
  0
TEXT
  8
_0-4_図面枠
 62
    7
 10
358.64337928648911
 20
-1245.4749924331554
 40
60
 41
0.8000000000000001
 50
0
  1
　１００
  0
TEXT
  8
_0-4_図面枠
 62
    7
 10
358.64337928648911
 20
-1095.4749924331568
 40
60
 41
0.8000000000000001
 50
0
  1
　１００
  0
TEXT
  8
_0-4_図面枠
 62
    7
 10
758.64337928649002
 20
-1245.4749924331554
 40
60
 41
0.8
 50
0
  1
１３００
  0
TEXT
  8
_0-4_図面枠
 62
    7
 10
763.13129928649141
 20
-1101.6380124331558
 40
60
 41
0.8
 50
0
  1
１１７０
  0
TEXT
  8
_0-4_図面枠
 62
    7
 10
358.64337928648911
 20
-795.47529243315557
 40
60
 41
0.8000000000000001
 50
0
  1
　１００
  0
TEXT
  8
_0-4_図面枠
 62
    7
 10
465.43963928649282
 20
-633.76417243315564
 40
60
 41
0.8000000000000001
 50
0
  1
Ｊ
  0
TEXT
  8
_0-4_図面枠
 62
    7
 10
824.83783928648609
 20
-799.17219243315549
 40
60
 41
0.7999999999999999
 50
0
  1
７８０
  0
TEXT
  8
_0-4_図面枠
 62
    7
 10
865.439639286491
 20
-633.76417243315564
 40
60
 41
0.8000000000000003
 50
0
  1
Ｅ
  0
TEXT
  8
_0-4_図面枠
 62
    7
 10
1123.9491592864888
 20
-958.1498524331555
 40
60
 41
0.7999999999999999
 50
0
  1
０．６
  0
TEXT
  8
_0-4_図面枠
 62
    7
 10
1401.221799286488
 20
-949.4196924331568
 40
60
 41
0.8000000000000006
 50
0
  1
ＦＢ
  0
TEXT
  8
_0-4_図面枠
 62
    7
 10
1123.9491592864888
 20
-1258.1495524331567
 40
60
 41
0.7999999999999999
 50
0
  1
０．６
  0
TEXT
  8
_0-4_図面枠
 62
    7
 10
1123.9491592864888
 20
-1108.1495524331567
 40
60
 41
0.7999999999999999
 50
0
  1
０．６
  0
TEXT
  8
_0-4_図面枠
 62
    7
 10
1370.1579592864928
 20
-1240.7517124331557
 40
60
 41
0.7999999999999999
 50
0
  1
Ｌ型鋼
  0
TEXT
  8
_0-4_図面枠
 62
    7
 10
1370.1579592864928
 20
-1090.7516324331568
 40
60
 41
0.7999999999999999
 50
0
  1
Ｌ型鋼
  0
TEXT
  8
_0-4_図面枠
 62
    7
 10
1123.9491592864888
 20
-808.1498524331555
 40
60
 41
0.7999999999999999
 50
0
  1
０．６
  0
TEXT
  8
_0-4_図面枠
 62
    7
 10
1119.5192192864888
 20
-642.55293243315555
 40
60
 41
0.7999999999999996
 50
0
  1
板厚
  0
TEXT
  8
_0-4_図面枠
 62
    7
 10
1401.221799286488
 20
-799.41953243315584
 40
60
 41
0.8000000000000006
 50
0
  1
ＦＢ
  0
TEXT
  8
_0-4_図面枠
 62
    7
 10
1393.5734792864914
 20
-641.75367243315577
 40
60
 41
0.8000000000000006
 50
0
  1
支柱
  0
TEXT
  8
_0-4_図面枠
 62
    7
 10
1514.0571992864952
 20
70.833607566844421
 40
60.000000000000007
 41
0.799999999999999
 50
0.0000100000010064
  1
受枠
  0
LINE
  8
_0-4_図面枠
  6
CONTINUOUS
 62
    3
 10
1390.5875592864904
 20
274.68864756684434
 11
1514.0568392864898
 21
60.833587566844471
  0
LINE
  8
_0-4_図面枠
  6
CONTINUOUS
 62
    3
 10
1514.0568392864898
 20
60.833587566844471
 11
1609.3015392864927
 21
60.833587566844471
  0
LINE
  8
_0-3_躯体と製品
  6
CONTINUOUS
 62
    3
 10
1666.6845992864946
 20
270.44046756684338
 11
1426.6845992864946
 21
270.44046756684338
  0
LINE
  8
_0-3_躯体と製品
  6
CONTINUOUS
 62
    3
 10
1426.6845992864946
 20
260.63466756684443
 11
1666.6845992864946
 21
260.63466756684443
  0
LINE
  8
_0-3_躯体と製品
  6
PLINE2
 62
    3
 10
1491.6845992864928
 20
290.44046756684338
 11
1426.6845992864946
 21
290.44046756684338
  0
LINE
  8
_0-3_躯体と製品
  6
PLINE2
 62
    3
 10
1491.6845992864928
 20
273.44046756684338
 11
1426.6845992864946
 21
273.44046756684338
  0
LINE
  8
_0-4_図面枠
  6
CONTINUOUS
 62
    3
 10
1390.5875592864904
 20
274.68864756684434
 11
1419.2478192864874
 21
245.0476275668434
  0
LINE
  8
_0-3_躯体と製品
  6
CONTINUOUS
 62
    3
 10
1423.6845992864928
 20
273.44046756684338
 11
1379.6845992864892
 21
273.44046756684338
  0
LINE
  8
_0-3_躯体と製品
  6
CONTINUOUS
 62
    3
 10
1379.6845992864892
 20
290.44046756684338
 11
1379.6845992864892
 21
273.44046756684338
  0
LINE
  8
_0-3_躯体と製品
  6
CONTINUOUS
 62
    3
 10
1376.6845992864946
 20
290.44046756684338
 11
1379.6845992864892
 21
290.44046756684338
  0
LINE
  8
_0-3_躯体と製品
  6
CONTINUOUS
 62
    3
 10
1376.6845992864946
 20
273.44046756684338
 11
1376.6845992864946
 21
290.44046756684338
  0
LINE
  8
_0-3_躯体と製品
  6
CONTINUOUS
 62
    3
 10
1376.6845992864946
 20
270.44046756684338
 11
1426.6845992864946
 21
270.44046756684338
  0
LINE
  8
_0-3_躯体と製品
  6
CONTINUOUS
 62
    3
 10
1376.6845992864946
 20
273.44046756684338
 11
1376.6845992864946
 21
270.44046756684338
  0
LINE
  8
_0-3_躯体と製品
  6
PLINE2
 62
    3
 10
1666.6845992864946
 20
290.44046756684338
 11
1541.6845992864946
 21
290.44046756684338
  0
LINE
  8
_0-3_躯体と製品
  6
PLINE2
 62
    3
 10
1666.6845992864946
 20
273.44046756684338
 11
1541.6845992864946
 21
273.44046756684338
  0
TEXT
  8
_0-4_図面枠
 62
    7
 10
2227.4043405712127
 20
-517.39314131788979
 40
60
 41
0.7999999999999999
 50
0
  1
側面図
  0
LINE
  8
_0-4_図面枠
  6
CONTINUOUS
 62
    4
 10
2177.3448192864944
 20
-428.35525243315578
 11
2177.3448192864944
 21
-545.56391243315647
  0
LINE
  8
_0-4_図面枠
  6
CONTINUOUS
 62
    4
 10
2445.2085992864941
 20
-545.56391243315647
 11
2445.2085992864941
 21
-428.35525243315578
  0
LINE
  8
_0-4_図面枠
  6
CONTINUOUS
 62
    4
 10
2177.3448192864944
 20
-545.56391243315647
 11
2445.2085992864941
 21
-545.56391243315647
  0
LINE
  8
_0-4_図面枠
  6
CONTINUOUS
 62
    4
 10
2445.2085992864941
 20
-428.35525243315578
 11
2177.3448192864944
 21
-428.35525243315578
  0
LINE
  8
_0-3_躯体と製品
  6
CONTINUOUS
 62
    3
 10
1686.6845992864928
 20
270.44046756684338
 11
2241.6845992864928
 21
270.44046756684338
  0
LINE
  8
_0-3_躯体と製品
  6
PLINE2
 62
    3
 10
1861.6845992864946
 20
290.44046756684338
 11
2241.6845992864928
 21
290.44046756684338
  0
LINE
  8
_0-3_躯体と製品
  6
PLINE2
 62
    3
 10
1861.6845992864946
 20
273.44046756684338
 11
2241.6845992864928
 21
273.44046756684338
  0
LINE
  8
_0-3_躯体と製品
  6
CONTINUOUS
 62
    3
 10
1686.6845992864928
 20
260.63466756684443
 11
2241.6845992864928
 21
260.63466756684443
  0
LINE
  8
_0-3_躯体と製品
  6
PLINE2
 62
    3
 10
1686.6845992864928
 20
290.44046756684338
 11
1811.6845992864928
 21
290.44046756684338
  0
LINE
  8
_0-3_躯体と製品
  6
PLINE2
 62
    3
 10
1686.6845992864928
 20
273.44046756684338
 11
1811.6845992864928
 21
273.44046756684338
  0
LINE
  8
_0-4_図面枠
  6
CONTINUOUS
 62
    3
 10
2019.6144792864889
 20
114.00274756684439
 11
2172.681479286488
 21
114.00274756684439
  0
TEXT
  8
_0-4_図面枠
 62
    7
 10
2019.6150592864942
 20
124.00270756684449
 40
60
 41
0.800000000000001
 50
0
  1
添母屋
  0
LINE
  8
_0-4_図面枠
  6
CONTINUOUS
 62
    3
 10
2535.5555392864917
 20
154.65186756684352
 11
2633.3153192864884
 21
-14.67303243315655
  0
LINE
  8
_0-3_躯体と製品
  6
CONTINUOUS
 62
    3
 10
2535.5555392864917
 20
154.65186756684352
 11
2564.2157992864886
 21
125.01084756684349
  0
TEXT
  8
_0-4_図面枠
 62
    7
 10
2638.0397392864907
 20
-9.0028124331556683
 40
59.999999999999979
 41
0.8000000000000001
 50
0.0000100000010064
  1
屋根材
  0
LINE
  8
_0-4_図面枠
  6
CONTINUOUS
 62
    3
 10
2633.3153192864884
 20
-14.67303243315655
 11
2815.724859286498
 21
-14.67303243315655
  0
LINE
  8
_0-3_躯体と製品
  6
CONTINUOUS
 62
    3
 10
2988.6845992864928
 20
368.09554756684338
 11
2884.6845992864892
 21
368.09554756684338
  0
LINE
  8
_0-3_躯体と製品
  6
PLINE2
 62
    6
 10
2956.7313792864898
 20
368.09554756684338
 11
2846.6845992864946
 21
478.14232756684328
  0
LINE
  8
_0-3_躯体と製品
  6
PLINE2
 62
    6
 10
2921.3760392864915
 20
368.09554756684338
 11
2846.6845992864946
 21
442.78698756684435
  0
LINE
  8
_0-3_躯体と製品
  6
PLINE2
 62
    6
 10
2846.6845992864946
 20
432.34758756684346
 11
2900.422639286493
 21
486.08562756684432
  0
LINE
  8
_0-3_躯体と製品
  6
PLINE2
 62
    6
 10
2988.476899286492
 20
371.70536756684442
 11
2874.0966392864939
 21
486.08562756684432
  0
LINE
  8
_0-3_躯体と製品
  6
PLINE2
 62
    6
 10
2872.4742992864922
 20
387.42660756684427
 11
2971.133319286495
 21
486.08562756684432
  0
LINE
  8
_0-3_躯体と製品
  6
PLINE2
 62
    6
 10
2856.1644192864915
 20
406.47206756684432
 11
2935.7779792864894
 21
486.08562756684432
  0
LINE
  8
_0-3_躯体と製品
  6
CONTINUOUS
 62
    7
 10
2846.6845992864946
 20
486.08562756684432
 11
3426.684599286491
 21
486.08562756684432
  0
LINE
  8
_0-3_躯体と製品
  6
CONTINUOUS
 62
    3
 10
2846.6845992864946
 20
510.93144756684342
 11
3186.684599286491
 21
510.93144756684342
  0
LINE
  8
_0-3_躯体と製品
  6
CONTINUOUS
 62
    4
 10
2846.6845992864946
 20
911.08168756684427
 11
3186.684599286491
 21
911.08168756684427
  0
LINE
  8
_0-3_躯体と製品
  6
CONTINUOUS
 62
    4
 10
2846.6845992864946
 20
928.97148756684328
 11
3186.684599286491
 21
928.97148756684328
  0
LINE
  8
_0-3_躯体と製品
  6
PLINE5
 62
    4
 10
2846.6845992864946
 20
668.3362275668444
 11
3186.684599286491
 21
668.3362275668444
  0
LINE
  8
_0-3_躯体と製品
  6
CONTINUOUS
 62
    4
 10
3186.684599286491
 20
658.47148756684442
 11
2846.6845992864946
 21
658.47148756684442
  0
LINE
  8
_0-3_躯体と製品
  6
CONTINUOUS
 62
    4
 10
3186.684599286491
 20
692.61184756684247
 11
2846.6845992864946
 21
692.61184756684247
  0
LINE
  8
_0-3_躯体と製品
  6
CONTINUOUS
 62
    4
 10
2848.5783792864859
 20
1888.9714875668433
 11
3186.684599286491
 21
1888.9714875668433
  0
LINE
  8
_0-3_躯体と製品
  6
CONTINUOUS
 62
    4
 10
2846.6845992864946
 20
1651.1300075668437
 11
3186.684599286491
 21
1651.1300075668437
  0
LINE
  8
_0-3_躯体と製品
  6
CONTINUOUS
 62
    4
 10
2846.6845992864946
 20
1690.479587566844
 11
3186.684599286491
 21
1690.479587566844
  0
LINE
  8
_0-3_躯体と製品
  6
PLINE5
 62
    4
 10
2846.6845992864946
 20
1875.9714875668435
 11
3186.684599286491
 21
1875.9714875668435
  0
LINE
  8
_0-3_躯体と製品
  6
CONTINUOUS
 62
    4
 10
3186.684599286491
 20
1848.9714875668431
 11
2846.6845992864946
 21
1848.9714875668431
  0
TEXT
  8
_0-4_図面枠
 62
    7
 10
2002.9579592864902
 20
2722.1663075668439
 40
200
 41
0.7999999999999998
 50
0
  1
（折版　棟割）
  0
LINE
  8
_0-3_躯体と製品
  6
CONTINUOUS
 62
    7
 10
1326.6845992864946
 20
1888.9714875668433
 11
1326.6845992864946
 21
555.96782756684433
  0
LINE
  8
_0-3_躯体と製品
  6
CONTINUOUS
 62
    3
 10
1101.6845992864946
 20
527.97148756684442
 11
1028.6845992864937
 21
442.97148756684442
  0
LINE
  8
_0-3_躯体と製品
  6
CONTINUOUS
 62
    7
 10
1086.6845992864946
 20
555.96782756684433
 11
1053.3417392864922
 21
483.24744756684345
  0
LINE
  8
_0-3_躯体と製品
  6
CONTINUOUS
 62
    3
 10
851.68459928649463
 20
527.97148756684442
 11
924.68459928648736
 21
442.97148756684442
  0
LINE
  8
_0-3_躯体と製品
  6
CONTINUOUS
 62
    3
 10
1028.6845992864937
 20
437.97148756684442
 11
924.68459928648736
 21
437.97148756684442
  0
LINE
  8
_0-3_躯体と製品
  6
CONTINUOUS
 62
    3
 10
924.68459928648736
 20
442.97148756684442
 11
924.68459928648736
 21
437.97148756684442
  0
LINE
  8
_0-3_躯体と製品
  6
CONTINUOUS
 62
    3
 10
1028.6845992864937
 20
442.97148756684442
 11
1028.6845992864937
 21
437.97148756684442
  0
LINE
  8
_0-3_躯体と製品
  6
CONTINUOUS
 62
    7
 10
1053.3417392864922
 20
483.24744756684345
 11
1050.7625992864932
 21
468.69136756684338
  0
LINE
  8
_0-3_躯体と製品
  6
CONTINUOUS
 62
    3
 10
1401.6845992864946
 20
527.97148756684442
 11
1328.6845992864937
 21
442.97148756684442
  0
LINE
  8
_0-3_躯体と製品
  6
PLINE2
 62
    6
 10
1356.7200592864938
 20
507.66798756684443
 11
1371.5291192864916
 21
492.85892756684439
  0
LINE
  8
_0-3_躯体と製品
  6
PLINE2
 62
    6
 10
1370.4682992864891
 20
507.66798756684443
 11
1300.7717992864882
 21
437.97148756684442
  0
LINE
  8
_0-3_躯体と製品
  6
CONTINUOUS
 62
    3
 10
1384.2474792864923
 20
507.66798756684443
 11
1169.1217392864883
 21
507.66798756684443
  0
LINE
  8
_0-3_躯体と製品
  6
CONTINUOUS
 62
    3
 10
1326.6845992864946
 20
510.93144756684342
 11
1387.0502392864946
 21
510.93144756684342
  0
LINE
  8
_0-3_躯体と製品
  6
CONTINUOUS
 62
    3
 10
1131.6845992864946
 20
538.05198756684331
 11
1131.6845992864946
 21
536.88206756684326
  0
LINE
  8
_0-3_躯体と製品
  6
CONTINUOUS
 62
    3
 10
1121.6845992864955
 20
538.05198756684331
 11
1121.6845992864955
 21
536.88206756684326
  0
LINE
  8
_0-3_躯体と製品
  6
CONTINUOUS
 62
    3
 10
1151.6845992864955
 20
527.97148756684442
 11
1224.6845992864864
 21
442.97148756684442
  0
LINE
  8
_0-3_躯体と製品
  6
PLINE2
 62
    6
 10
1179.9433592864934
 20
507.66798756684443
 11
1249.6398592864944
 21
437.97148756684442
  0
LINE
  8
_0-3_躯体と製品
  6
PLINE2
 62
    6
 10
1229.0469392864943
 20
507.66798756684443
 11
1196.8086992864883
 21
475.42974756684339
  0
LINE
  8
_0-3_躯体と製品
  6
CONTINUOUS
 62
    3
 10
1146.0814992864871
 20
528.25292756684325
 11
1133.415959286488
 21
534.16352756684432
  0
ARC
  8
_0-3_躯体と製品
  6
CONTINUOUS
 62
    3
 10
1134.6845992864874
 20
536.88206756684326
 40
3
 50
180
 51
244.98310699999996
  0
LINE
  8
_0-3_躯体と製品
  6
CONTINUOUS
 62
    3
 10
1107.2877192864917
 20
528.25292756684325
 11
1119.953259286488
 21
534.16352756684432
  0
ARC
  8
_0-3_躯体と製品
  6
CONTINUOUS
 62
    3
 10
1106.0190592864947
 20
530.97148756684442
 40
3
 50
270
 51
295.01689299999992
  0
LINE
  8
_0-3_躯体と製品
  6
CONTINUOUS
 62
    3
 10
1106.0190592864947
 20
527.97148756684442
 11
1101.6845992864946
 21
527.97148756684442
  0
ARC
  8
_0-3_躯体と製品
  6
CONTINUOUS
 62
    3
 10
1118.6845992864928
 20
536.88206756684326
 40
3
 50
295.01689299999992
 51
0
  0
ARC
  8
_0-3_躯体と製品
  6
CONTINUOUS
 62
    3
 10
1147.3501592864923
 20
530.97148756684442
 40
3
 50
244.98310699999996
 51
270
  0
LINE
  8
_0-3_躯体と製品
  6
CONTINUOUS
 62
    3
 10
1147.3501592864923
 20
527.97148756684442
 11
1151.6845992864955
 21
527.97148756684442
  0
LINE
  8
_0-3_躯体と製品
  6
PLINE2
 62
    6
 10
1193.6915992864888
 20
507.66798756684443
 11
1180.473639286487
 21
494.4500075668434
  0
LINE
  8
_0-3_躯体と製品
  6
CONTINUOUS
 62
    3
 10
1328.6845992864937
 20
437.97148756684442
 11
1224.6845992864864
 21
437.97148756684442
  0
LINE
  8
_0-3_躯体と製品
  6
PLINE2
 62
    6
 10
1286.0093792864918
 20
507.66798756684443
 11
1338.8589992864881
 21
454.81836756684334
  0
LINE
  8
_0-3_躯体と製品
  6
PLINE2
 62
    6
 10
1250.6540392864945
 20
507.66798756684443
 11
1320.3505392864863
 21
437.97148756684442
  0
LINE
  8
_0-3_躯体と製品
  6
PLINE2
 62
    6
 10
1335.1129592864927
 20
507.66798756684443
 11
1265.4164592864918
 21
437.97148756684442
  0
LINE
  8
_0-3_躯体と製品
  6
PLINE2
 62
    6
 10
1299.7576192864881
 20
507.66798756684443
 11
1230.0611192864872
 21
437.97148756684442
  0
LINE
  8
_0-3_躯体と製品
  6
CONTINUOUS
 62
    3
 10
1224.6845992864864
 20
442.97148756684442
 11
1224.6845992864864
 21
437.97148756684442
  0
LINE
  8
_0-3_躯体と製品
  6
PLINE2
 62
    6
 10
1215.2986992864908
 20
507.66798756684443
 11
1284.995199286489
 21
437.97148756684442
  0
LINE
  8
_0-3_躯体と製品
  6
PLINE2
 62
    6
 10
1264.4022792864916
 20
507.66798756684443
 11
1213.1437592864886
 21
456.40946756684343
  0
LINE
  8
_0-3_躯体と製品
  6
CONTINUOUS
 62
    3
 10
1328.6845992864937
 20
442.97148756684442
 11
1328.6845992864937
 21
437.97148756684442
  0
LINE
  8
_0-3_躯体と製品
  6
PLINE2
 62
    6
 10
1321.3647192864883
 20
507.66798756684443
 11
1355.1940592864903
 21
473.83864756684443
  0
LINE
  8
_0-3_躯体と製品
  6
CONTINUOUS
 62
    7
 10
1327.6845992864901
 20
555.96782756684433
 11
1086.6845992864946
 21
555.96782756684433
  0
LINE
  8
_0-3_躯体と製品
  6
CONTINUOUS
 62
    3
 10
1137.1914392864928
 20
547.44330756684326
 11
1136.5226392864906
 21
548.66764756684438
  0
LINE
  8
_0-3_躯体と製品
  6
CONTINUOUS
 62
    3
 10
1136.5226392864906
 20
548.66764756684438
 11
1135.6986992864895
 21
549.80214756684336
  0
LINE
  8
_0-3_躯体と製品
  6
CONTINUOUS
 62
    3
 10
1135.6986992864895
 20
549.80214756684336
 11
1134.7325992864926
 21
550.82892756684441
  0
LINE
  8
_0-3_躯体と製品
  6
CONTINUOUS
 62
    3
 10
1134.7325992864926
 20
550.82892756684441
 11
1133.6395792864951
 21
551.73180756684337
  0
LINE
  8
_0-3_躯体と製品
  6
CONTINUOUS
 62
    3
 10
1133.6395792864951
 20
551.73180756684337
 11
1132.436859286493
 21
552.49650756684332
  0
LINE
  8
_0-3_躯体と製品
  6
CONTINUOUS
 62
    3
 10
1132.436859286493
 20
552.49650756684332
 11
1131.1434392864912
 21
553.11100756684436
  0
LINE
  8
_0-3_躯体と製品
  6
CONTINUOUS
 62
    3
 10
1131.1434392864912
 20
553.11100756684436
 11
1129.7796992864951
 21
553.56560756684325
  0
LINE
  8
_0-3_躯体と製品
  6
CONTINUOUS
 62
    3
 10
1129.7796992864951
 20
553.56560756684325
 11
1128.3671392864871
 21
553.8531075668443
  0
LINE
  8
_0-3_躯体と製品
  6
CONTINUOUS
 62
    3
 10
1128.3671392864871
 20
553.8531075668443
 11
1126.9280592864861
 21
553.96900756684431
  0
LINE
  8
_0-3_躯体と製品
  6
CONTINUOUS
 62
    3
 10
1126.9280592864861
 20
553.96900756684431
 11
1126.6845992864955
 21
553.97148756684328
  0
ARC
  8
_0-3_躯体と製品
  6
CONTINUOUS
 62
    3
 10
1133.8589992864891
 20
544.19978756684327
 40
4.4509999999999987
 50
275.53375200000062
 51
339.4219200000054
  0
LINE
  8
_0-3_躯体と製品
  6
CONTINUOUS
 62
    3
 10
1131.6764592864947
 20
538.5333075668434
 11
1131.6845992864946
 21
538.05198756684331
  0
ARC
  8
_0-3_躯体と製品
  6
CONTINUOUS
 62
    3
 10
1134.6995992864904
 20
535.52342756684448
 40
4.265979999999999
 50
95.533752000000661
 51
135.12575600000844
  0
LINE
  8
_0-3_躯体と製品
  6
CONTINUOUS
 62
    3
 10
1126.6845992864955
 20
553.97148756684328
 11
1125.2432792864911
 21
553.88474756684445
  0
LINE
  8
_0-3_躯体と製品
  6
CONTINUOUS
 62
    3
 10
1125.2432792864911
 20
553.88474756684445
 11
1123.8246792864938
 21
553.6258875668434
  0
LINE
  8
_0-3_躯体と製品
  6
CONTINUOUS
 62
    3
 10
1123.8246792864938
 20
553.6258875668434
 11
1122.4511792864932
 21
553.19902756684428
  0
LINE
  8
_0-3_躯体と製品
  6
CONTINUOUS
 62
    3
 10
1122.4511792864932
 20
553.19902756684428
 11
1121.1444392864942
 21
552.6108475668434
  0
LINE
  8
_0-3_躯体と製品
  6
CONTINUOUS
 62
    3
 10
1121.1444392864942
 20
552.6108475668434
 11
1119.9250792864896
 21
551.8706675668443
  0
LINE
  8
_0-3_躯体と製品
  6
CONTINUOUS
 62
    3
 10
1119.9250792864896
 20
551.8706675668443
 11
1118.8123192864923
 21
550.99012756684442
  0
LINE
  8
_0-3_躯体と製品
  6
CONTINUOUS
 62
    3
 10
1118.8123192864923
 20
550.99012756684442
 11
1117.823699286494
 21
549.9831475668434
  0
LINE
  8
_0-3_躯体と製品
  6
CONTINUOUS
 62
    3
 10
1117.823699286494
 20
549.9831475668434
 11
1116.9748392864894
 21
548.86556756684331
  0
LINE
  8
_0-3_躯体と製品
  6
CONTINUOUS
 62
    3
 10
1116.9748392864894
 20
548.86556756684331
 11
1116.2790992864884
 21
547.65504756684436
  0
LINE
  8
_0-3_躯体と製品
  6
CONTINUOUS
 62
    3
 10
1116.2790992864884
 20
547.65504756684436
 11
1116.1777792864941
 21
547.44330756684326
  0
LINE
  8
_0-3_躯体と製品
  6
CONTINUOUS
 62
    3
 10
1121.6927392864955
 20
538.5333075668434
 11
1121.6845992864955
 21
538.05198756684331
  0
ARC
  8
_0-3_躯体と製品
  6
CONTINUOUS
 62
    3
 10
1118.6696192864874
 20
535.52342756684448
 40
4.265979999999999
 50
44.874243999991506
 51
84.466247999999368
  0
ARC
  8
_0-3_躯体と製品
  6
CONTINUOUS
 62
    3
 10
1119.5102192864888
 20
544.19978756684327
 40
4.4509999999999987
 50
200.57807999999451
 51
264.46624799999938
  0
ARC
  8
_0-3_躯体と製品
  6
CONTINUOUS
 62
    3
 10
1122.3877592864883
 20
543.8889875668433
 40
7.155219999999999
 50
150.21503199999719
 51
190.0907490000026
  0
ARC
  8
_0-3_躯体と製品
  6
CONTINUOUS
 62
    3
 10
1130.9814592864896
 20
543.8889875668433
 40
7.155219999999999
 50
349.90925099999731
 51
29.784968000002806
  0
LINE
  8
_0-3_躯体と製品
  6
CONTINUOUS
 62
    7
 10
1327.6845992864901
 20
655.96782756684433
 11
1327.6845992864901
 21
555.96782756684433
  0
LINE
  8
_0-3_躯体と製品
  6
CONTINUOUS
 62
    3
 10
1315.3811992864885
 20
609.32260756684332
 11
1340.3811992864885
 21
609.32260756684332
  0
LINE
  8
_0-3_躯体と製品
  6
CONTINUOUS
 62
    3
 10
1431.6845992864946
 20
538.05198756684331
 11
1431.6845992864946
 21
536.88206756684326
  0
LINE
  8
_0-3_躯体と製品
  6
CONTINUOUS
 62
    3
 10
1421.6845992864946
 20
538.05198756684331
 11
1421.6845992864946
 21
536.88206756684326
  0
LINE
  8
_0-3_躯体と製品
  6
CONTINUOUS
 62
    3
 10
1491.6845992864928
 20
376.81832756684344
 11
1426.6845992864946
 21
376.81832756684344
  0
LINE
  8
_0-3_躯体と製品
  6
PLINE2
 62
    3
 10
1491.6845992864928
 20
356.81832756684344
 11
1426.6845992864946
 21
356.81832756684344
  0
LINE
  8
_0-3_躯体と製品
  6
PLINE2
 62
    3
 10
1491.6845992864928
 20
373.81832756684344
 11
1426.6845992864946
 21
373.81832756684344
  0
LINE
  8
_0-3_躯体と製品
  6
CONTINUOUS
 62
    3
 10
1379.6845992864892
 20
373.81832756684344
 11
1423.6845992864928
 21
373.81832756684344
  0
LINE
  8
_0-3_躯体と製品
  6
CONTINUOUS
 62
    3
 10
1376.6845992864946
 20
376.81832756684344
 11
1426.6845992864946
 21
376.81832756684344
  0
LINE
  8
_0-3_躯体と製品
  6
CONTINUOUS
 62
    3
 10
1376.6845992864946
 20
356.81832756684344
 11
1376.6845992864946
 21
376.81832756684344
  0
LINE
  8
_0-3_躯体と製品
  6
CONTINUOUS
 62
    3
 10
1379.6845992864892
 20
356.81832756684344
 11
1376.6845992864946
 21
356.81832756684344
  0
LINE
  8
_0-3_躯体と製品
  6
CONTINUOUS
 62
    3
 10
1379.6845992864892
 20
373.81832756684344
 11
1379.6845992864892
 21
356.81832756684344
  0
LINE
  8
_0-3_躯体と製品
  6
CONTINUOUS
 62
    3
 10
1427.5440192864917
 20
507.66798756684443
 11
1492.5440192864917
 21
507.66798756684443
  0
LINE
  8
_0-3_躯体と製品
  6
CONTINUOUS
 62
    3
 10
1446.9408992864956
 20
481.94942756684441
 11
1434.2753592864883
 21
487.86002756684434
  0
ARC
  8
_0-3_躯体と製品
  6
CONTINUOUS
 62
    3
 10
1434.7183992864884
 20
497.89628756684328
 40
4.4509999999999987
 50
275.53375200000062
 51
339.4219200000054
  0
ARC
  8
_0-3_躯体と製品
  6
CONTINUOUS
 62
    3
 10
1431.8408592864889
 20
497.58548756684331
 40
7.155219999999999
 50
349.90925099999731
 51
29.784968000002806
  0
LINE
  8
_0-3_躯体と製品
  6
CONTINUOUS
 62
    3
 10
1446.0814992864871
 20
528.25292756684325
 11
1433.4159592864889
 21
534.16352756684432
  0
LINE
  8
_0-3_躯体と製品
  6
PLINE2
 62
    6
 10
1437.0442192864939
 20
486.58098756684444
 11
1458.1312192864916
 21
507.66798756684443
  0
LINE
  8
_0-3_躯体と製品
  6
PLINE2
 62
    6
 10
1492.5440192864917
 20
453.44400756684445
 11
1438.3200392864946
 21
507.66798756684443
  0
LINE
  8
_0-3_躯体と製品
  6
CONTINUOUS
 62
    3
 10
1426.6845992864946
 20
510.93144756684342
 11
1491.6845992864928
 21
510.93144756684342
  0
LINE
  8
_0-3_躯体と製品
  6
CONTINUOUS
 62
    3
 10
1402.5440192864917
 20
481.66798756684329
 11
1393.9176192864888
 21
471.6235475668434
  0
LINE
  8
_0-3_躯体と製品
  6
CONTINUOUS
 62
    3
 10
1432.5440192864917
 20
491.74848756684446
 11
1432.5440192864917
 21
490.57856756684441
  0
LINE
  8
_0-3_躯体と製品
  6
CONTINUOUS
 62
    3
 10
1438.0508392864922
 20
501.13980756684441
 11
1437.3820592864868
 21
502.36414756684439
  0
LINE
  8
_0-3_躯体と製品
  6
CONTINUOUS
 62
    3
 10
1437.3820592864868
 20
502.36414756684439
 11
1436.5580992864889
 21
503.49864756684337
  0
LINE
  8
_0-3_躯体と製品
  6
CONTINUOUS
 62
    3
 10
1436.5580992864889
 20
503.49864756684337
 11
1435.5919992864929
 21
504.52542756684329
  0
LINE
  8
_0-3_躯体と製品
  6
CONTINUOUS
 62
    3
 10
1435.5919992864929
 20
504.52542756684329
 11
1434.4989792864944
 21
505.4283075668443
  0
LINE
  8
_0-3_躯体と製品
  6
CONTINUOUS
 62
    3
 10
1434.4989792864944
 20
505.4283075668443
 11
1433.296279286491
 21
506.19300756684447
  0
LINE
  8
_0-3_躯体と製品
  6
CONTINUOUS
 62
    3
 10
1433.296279286491
 20
506.19300756684447
 11
1432.0028392864915
 21
506.80750756684347
  0
LINE
  8
_0-3_躯体と製品
  6
CONTINUOUS
 62
    3
 10
1432.0028392864915
 20
506.80750756684347
 11
1430.6390992864945
 21
507.26210756684327
  0
LINE
  8
_0-3_躯体と製品
  6
CONTINUOUS
 62
    3
 10
1430.6390992864945
 20
507.26210756684327
 11
1429.2265392864865
 21
507.54960756684341
  0
LINE
  8
_0-3_躯体と製品
  6
CONTINUOUS
 62
    3
 10
1429.2265392864865
 20
507.54960756684341
 11
1427.7874592864864
 21
507.66552756684337
  0
LINE
  8
_0-3_躯体と製品
  6
CONTINUOUS
 62
    3
 10
1427.7874592864864
 20
507.66552756684337
 11
1427.5440192864917
 21
507.66798756684443
  0
LINE
  8
_0-3_躯体と製品
  6
CONTINUOUS
 62
    3
 10
1432.5358792864918
 20
492.22980756684342
 11
1432.5440192864917
 21
491.74848756684446
  0
ARC
  8
_0-3_躯体と製品
  6
CONTINUOUS
 62
    3
 10
1435.5589992864898
 20
489.21992756684335
 40
4.265979999999999
 50
95.533752000000661
 51
135.12575600000844
  0
ARC
  8
_0-3_躯体と製品
  6
CONTINUOUS
 62
    3
 10
1435.5440192864953
 20
490.57856756684441
 40
3
 50
180
 51
244.98310699999996
  0
LINE
  8
_0-3_躯体と製品
  6
CONTINUOUS
 62
    3
 10
1408.1471192864901
 20
481.94942756684441
 11
1420.8126792864859
 21
487.86002756684434
  0
ARC
  8
_0-3_躯体と製品
  6
CONTINUOUS
 62
    3
 10
1406.878459286494
 20
484.66798756684329
 40
3
 50
270
 51
295.01689299999992
  0
LINE
  8
_0-3_躯体と製品
  6
CONTINUOUS
 62
    3
 10
1406.878459286494
 20
481.66798756684329
 11
1402.5440192864917
 21
481.66798756684329
  0
LINE
  8
_0-3_躯体と製品
  6
CONTINUOUS
 62
    3
 10
1422.5440192864899
 20
491.74848756684446
 11
1422.5440192864899
 21
490.57856756684441
  0
LINE
  8
_0-3_躯体と製品
  6
CONTINUOUS
 62
    3
 10
1427.5440192864917
 20
507.66798756684443
 11
1426.1026792864905
 21
507.58124756684242
  0
LINE
  8
_0-3_躯体と製品
  6
CONTINUOUS
 62
    3
 10
1426.1026792864905
 20
507.58124756684242
 11
1424.6840792864932
 21
507.32240756684337
  0
LINE
  8
_0-3_躯体と製品
  6
CONTINUOUS
 62
    3
 10
1424.6840792864932
 20
507.32240756684337
 11
1423.3105792864935
 21
506.89552756684338
  0
LINE
  8
_0-3_躯体と製品
  6
CONTINUOUS
 62
    3
 10
1423.3105792864935
 20
506.89552756684338
 11
1422.0038392864935
 21
506.30734756684433
  0
LINE
  8
_0-3_躯体と製品
  6
CONTINUOUS
 62
    3
 10
1422.0038392864935
 20
506.30734756684433
 11
1420.7844792864889
 21
505.56716756684341
  0
LINE
  8
_0-3_躯体と製品
  6
CONTINUOUS
 62
    3
 10
1420.7844792864889
 20
505.56716756684341
 11
1419.6717192864926
 21
504.68664756684348
  0
LINE
  8
_0-3_躯体と製品
  6
CONTINUOUS
 62
    3
 10
1419.6717192864926
 20
504.68664756684348
 11
1418.683119286492
 21
503.67964756684341
  0
LINE
  8
_0-3_躯体と製品
  6
CONTINUOUS
 62
    3
 10
1418.683119286492
 20
503.67964756684341
 11
1417.8342392864888
 21
502.56208756684327
  0
LINE
  8
_0-3_躯体と製品
  6
CONTINUOUS
 62
    3
 10
1417.8342392864888
 20
502.56208756684327
 11
1417.1384992864878
 21
501.35154756684346
  0
LINE
  8
_0-3_躯体と製品
  6
CONTINUOUS
 62
    3
 10
1417.1384992864878
 20
501.35154756684346
 11
1417.0371792864935
 21
501.13980756684441
  0
LINE
  8
_0-3_躯体と製品
  6
CONTINUOUS
 62
    3
 10
1422.5521592864916
 20
492.22980756684342
 11
1422.5440192864899
 21
491.74848756684446
  0
ARC
  8
_0-3_躯体と製品
  6
CONTINUOUS
 62
    3
 10
1419.5290392864936
 20
489.21992756684335
 40
4.265979999999999
 50
44.874243999991506
 51
84.466247999999368
  0
ARC
  8
_0-3_躯体と製品
  6
CONTINUOUS
 62
    3
 10
1420.36961928649
 20
497.89628756684328
 40
4.4509999999999987
 50
200.57807999999451
 51
264.46624799999938
  0
ARC
  8
_0-3_躯体と製品
  6
CONTINUOUS
 62
    3
 10
1423.2471592864877
 20
497.58548756684331
 40
7.155219999999999
 50
150.21503199999719
 51
190.0907490000026
  0
ARC
  8
_0-3_躯体と製品
  6
CONTINUOUS
 62
    3
 10
1419.5440192864899
 20
490.57856756684441
 40
3
 50
295.01689299999992
 51
0
  0
ARC
  8
_0-3_躯体と製品
  6
CONTINUOUS
 62
    3
 10
1434.6845992864874
 20
536.88206756684326
 40
3
 50
180
 51
244.98310699999996
  0
LINE
  8
_0-3_躯体と製品
  6
CONTINUOUS
 62
    3
 10
1407.2877192864908
 20
528.25292756684325
 11
1419.9532592864889
 21
534.16352756684432
  0
ARC
  8
_0-3_躯体と製品
  6
CONTINUOUS
 62
    3
 10
1406.0190592864947
 20
530.97148756684442
 40
3
 50
270
 51
295.01689299999992
  0
LINE
  8
_0-3_躯体と製品
  6
CONTINUOUS
 62
    3
 10
1406.0190592864947
 20
527.97148756684442
 11
1401.6845992864946
 21
527.97148756684442
  0
ARC
  8
_0-3_躯体と製品
  6
CONTINUOUS
 62
    3
 10
1418.6845992864928
 20
536.88206756684326
 40
3
 50
295.01689299999992
 51
0
  0
LINE
  8
_0-3_躯体と製品
  6
CONTINUOUS
 62
    3
 10
1452.5440192864917
 20
481.66798756684329
 11
1491.6845992864928
 21
436.0933275668433
  0
ARC
  8
_0-3_躯体と製品
  6
CONTINUOUS
 62
    3
 10
1448.2095592864916
 20
484.66798756684329
 40
3
 50
244.98310699999996
 51
270
  0
LINE
  8
_0-3_躯体と製品
  6
CONTINUOUS
 62
    3
 10
1448.2095592864916
 20
481.66798756684329
 11
1452.5440192864917
 21
481.66798756684329
  0
LINE
  8
_0-3_躯体と製品
  6
CONTINUOUS
 62
    3
 10
1451.6845992864946
 20
527.97148756684442
 11
1455.1900392864936
 21
523.88982756684436
  0
ARC
  8
_0-3_躯体と製品
  6
CONTINUOUS
 62
    3
 10
1447.3501592864941
 20
530.97148756684442
 40
3
 50
244.98310699999996
 51
270
  0
LINE
  8
_0-3_躯体と製品
  6
CONTINUOUS
 62
    3
 10
1447.3501592864941
 20
527.97148756684442
 11
1451.6845992864946
 21
527.97148756684442
  0
LINE
  8
_0-3_躯体と製品
  6
PLINE2
 62
    6
 10
1459.3268392864902
 20
473.50826756684432
 11
1493.486559286488
 21
507.66798756684443
  0
LINE
  8
_0-3_躯体と製品
  6
CONTINUOUS
 62
    3
 10
1451.6845992864946
 20
527.97148756684442
 11
1451.6845992864946
 21
481.66798756684329
  0
LINE
  8
_0-3_躯体と製品
  6
PLINE2
 62
    6
 10
1473.6753792864911
 20
507.66798756684443
 11
1492.5440192864917
 21
488.79934756684338
  0
LINE
  8
_0-3_躯体と製品
  6
PLINE2
 62
    6
 10
1475.5834792864916
 20
454.40956756684545
 11
1492.5440192864917
 21
471.37010756684435
  0
LINE
  8
_0-3_躯体と製品
  6
CONTINUOUS
 62
    3
 10
1666.6845992864946
 20
439.91388756684341
 11
1629.5440192864899
 21
396.66798756684329
  0
LINE
  8
_0-3_躯体と製品
  6
PLINE2
 62
    6
 10
1553.8438992864885
 20
391.24862756684433
 11
1666.6845992864946
 21
504.08934756684334
  0
LINE
  8
_0-3_躯体と製品
  6
PLINE2
 62
    6
 10
1657.818759286487
 20
429.59062756684443
 11
1579.7413992864913
 21
507.66798756684443
  0
LINE
  8
_0-3_躯体と製品
  6
PLINE2
 62
    6
 10
1641.4836992864966
 20
410.57034756684334
 11
1544.386059286493
 21
507.66798756684443
  0
LINE
  8
_0-3_躯体と製品
  6
PLINE2
 62
    6
 10
1589.6753792864947
 20
391.66798756684329
 11
1542.5440192864917
 21
438.79934756684429
  0
LINE
  8
_0-3_躯体と製品
  6
PLINE2
 62
    6
 10
1589.6185992864903
 20
391.66798756684329
 11
1667.5440192864917
 21
469.59340756684446
  0
LINE
  8
_0-3_躯体と製品
  6
PLINE2
 62
    6
 10
1625.030719286493
 20
391.66798756684329
 11
1542.5440192864917
 21
474.15468756684436
  0
LINE
  8
_0-3_躯体と製品
  6
PLINE2
 62
    6
 10
1542.5440192864917
 20
415.30408756684437
 11
1634.907919286492
 21
507.66798756684443
  0
LINE
  8
_0-3_躯体と製品
  6
CONTINUOUS
 62
    3
 10
1629.5440192864899
 20
391.66798756684329
 11
1541.6845992864946
 21
391.66798756684329
  0
LINE
  8
_0-3_躯体と製品
  6
CONTINUOUS
 62
    3
 10
1541.6845992864946
 20
376.81832756684344
 11
1666.6845992864946
 21
376.81832756684344
  0
LINE
  8
_0-3_躯体と製品
  6
PLINE2
 62
    3
 10
1541.6845992864946
 20
356.81832756684344
 11
1666.6845992864946
 21
356.81832756684344
  0
LINE
  8
_0-3_躯体と製品
  6
PLINE2
 62
    3
 10
1541.6845992864946
 20
373.81832756684344
 11
1666.6845992864946
 21
373.81832756684344
  0
LINE
  8
_0-3_躯体と製品
  6
CONTINUOUS
 62
    3
 10
1629.5440192864899
 20
396.66798756684329
 11
1629.5440192864899
 21
391.66798756684329
  0
LINE
  8
_0-3_躯体と製品
  6
CONTINUOUS
 62
    3
 10
1542.5440192864917
 20
507.66798756684443
 11
1667.5440192864917
 21
507.66798756684443
  0
LINE
  8
_0-3_躯体と製品
  6
PLINE2
 62
    6
 10
1542.5440192864917
 20
450.65942756684444
 11
1599.5525792864864
 21
507.66798756684443
  0
LINE
  8
_0-3_躯体と製品
  6
CONTINUOUS
 62
    3
 10
1541.6845992864946
 20
510.93144756684342
 11
1666.6845992864946
 21
510.93144756684342
  0
LINE
  8
_0-3_躯体と製品
  6
PLINE2
 62
    6
 10
1542.5440192864917
 20
486.01476756684337
 11
1564.1972392864918
 21
507.66798756684443
  0
LINE
  8
_0-3_躯体と製品
  6
PLINE2
 62
    6
 10
1666.6845992864946
 20
491.43544756684332
 11
1650.4520792864914
 21
507.66798756684443
  0
LINE
  8
_0-3_躯体と製品
  6
PLINE2
 62
    6
 10
1666.6845992864946
 20
456.08010756684325
 11
1615.096739286495
 21
507.66798756684443
  0
LINE
  8
_0-3_躯体と製品
  6
CONTINUOUS
 62
    3
 10
1437.1914392864928
 20
547.44330756684326
 11
1436.5226392864897
 21
548.66764756684438
  0
LINE
  8
_0-3_躯体と製品
  6
CONTINUOUS
 62
    3
 10
1436.5226392864897
 20
548.66764756684438
 11
1435.6986992864895
 21
549.80214756684336
  0
LINE
  8
_0-3_躯体と製品
  6
CONTINUOUS
 62
    3
 10
1435.6986992864895
 20
549.80214756684336
 11
1434.7325992864917
 21
550.82892756684441
  0
LINE
  8
_0-3_躯体と製品
  6
CONTINUOUS
 62
    3
 10
1434.7325992864917
 20
550.82892756684441
 11
1433.6395792864951
 21
551.73180756684337
  0
LINE
  8
_0-3_躯体と製品
  6
CONTINUOUS
 62
    3
 10
1433.6395792864951
 20
551.73180756684337
 11
1432.4368592864939
 21
552.49650756684332
  0
LINE
  8
_0-3_躯体と製品
  6
CONTINUOUS
 62
    3
 10
1432.4368592864939
 20
552.49650756684332
 11
1431.1434392864921
 21
553.11100756684436
  0
LINE
  8
_0-3_躯体と製品
  6
CONTINUOUS
 62
    3
 10
1431.1434392864921
 20
553.11100756684436
 11
1429.7796992864951
 21
553.56560756684325
  0
LINE
  8
_0-3_躯体と製品
  6
CONTINUOUS
 62
    3
 10
1429.7796992864951
 20
553.56560756684325
 11
1428.3671392864853
 21
553.8531075668443
  0
LINE
  8
_0-3_躯体と製品
  6
CONTINUOUS
 62
    3
 10
1428.3671392864853
 20
553.8531075668443
 11
1426.928059286487
 21
553.96900756684431
  0
LINE
  8
_0-3_躯体と製品
  6
CONTINUOUS
 62
    3
 10
1426.928059286487
 20
553.96900756684431
 11
1426.6845992864946
 21
553.97148756684328
  0
LINE
  8
_0-3_躯体と製品
  6
CONTINUOUS
 62
    3
 10
1431.6764592864947
 20
538.5333075668434
 11
1431.6845992864946
 21
538.05198756684331
  0
ARC
  8
_0-3_躯体と製品
  6
CONTINUOUS
 62
    3
 10
1434.6995992864904
 20
535.52342756684448
 40
4.265979999999999
 50
95.533752000000661
 51
135.12575600000844
  0
ARC
  8
_0-3_躯体と製品
  6
CONTINUOUS
 62
    3
 10
1433.8589992864891
 20
544.19978756684327
 40
4.4509999999999987
 50
275.53375200000062
 51
339.4219200000054
  0
ARC
  8
_0-3_躯体と製品
  6
CONTINUOUS
 62
    3
 10
1430.9814592864896
 20
543.8889875668433
 40
7.155219999999999
 50
349.90925099999731
 51
29.784968000002806
  0
LINE
  8
_0-3_躯体と製品
  6
CONTINUOUS
 62
    3
 10
1426.6845992864946
 20
553.97148756684328
 11
1425.2432792864911
 21
553.88474756684445
  0
LINE
  8
_0-3_躯体と製品
  6
CONTINUOUS
 62
    3
 10
1425.2432792864911
 20
553.88474756684445
 11
1423.8246792864938
 21
553.6258875668434
  0
LINE
  8
_0-3_躯体と製品
  6
CONTINUOUS
 62
    3
 10
1423.8246792864938
 20
553.6258875668434
 11
1422.4511792864942
 21
553.19902756684428
  0
LINE
  8
_0-3_躯体と製品
  6
CONTINUOUS
 62
    3
 10
1422.4511792864942
 20
553.19902756684428
 11
1421.1444392864942
 21
552.6108475668434
  0
LINE
  8
_0-3_躯体と製品
  6
CONTINUOUS
 62
    3
 10
1421.1444392864942
 20
552.6108475668434
 11
1419.9250792864896
 21
551.8706675668443
  0
LINE
  8
_0-3_躯体と製品
  6
CONTINUOUS
 62
    3
 10
1419.9250792864896
 20
551.8706675668443
 11
1418.8123192864932
 21
550.99012756684442
  0
LINE
  8
_0-3_躯体と製品
  6
CONTINUOUS
 62
    3
 10
1418.8123192864932
 20
550.99012756684442
 11
1417.8236992864931
 21
549.9831475668434
  0
LINE
  8
_0-3_躯体と製品
  6
CONTINUOUS
 62
    3
 10
1417.8236992864931
 20
549.9831475668434
 11
1416.9748392864876
 21
548.86556756684331
  0
LINE
  8
_0-3_躯体と製品
  6
CONTINUOUS
 62
    3
 10
1416.9748392864876
 20
548.86556756684331
 11
1416.2790992864902
 21
547.65504756684436
  0
LINE
  8
_0-3_躯体と製品
  6
CONTINUOUS
 62
    3
 10
1416.2790992864902
 20
547.65504756684436
 11
1416.1777792864941
 21
547.44330756684326
  0
LINE
  8
_0-3_躯体と製品
  6
CONTINUOUS
 62
    3
 10
1421.6927392864945
 20
538.5333075668434
 11
1421.6845992864946
 21
538.05198756684331
  0
ARC
  8
_0-3_躯体と製品
  6
CONTINUOUS
 62
    3
 10
1418.6696192864893
 20
535.52342756684448
 40
4.265979999999999
 50
44.874243999991506
 51
84.466247999999368
  0
ARC
  8
_0-3_躯体と製品
  6
CONTINUOUS
 62
    3
 10
1419.5102192864888
 20
544.19978756684327
 40
4.4509999999999987
 50
200.57807999999451
 51
264.46624799999938
  0
ARC
  8
_0-3_躯体と製品
  6
CONTINUOUS
 62
    3
 10
1422.3877592864883
 20
543.8889875668433
 40
7.155219999999999
 50
150.21503199999719
 51
190.0907490000026
  0
LINE
  8
_0-3_躯体と製品
  6
CONTINUOUS
 62
    4
 10
1326.6845992864946
 20
941.4780675668444
 11
1491.6845992864928
 21
941.4780675668444
  0
LINE
  8
_0-3_躯体と製品
  6
CONTINUOUS
 62
    4
 10
1326.6845992864946
 20
1081.0451275668443
 11
1491.6845992864928
 21
1081.0451275668443
  0
LINE
  8
_0-3_躯体と製品
  6
CONTINUOUS
 62
    4
 10
1326.6845992864946
 20
1096.0451275668443
 11
1491.6845992864928
 21
1096.0451275668443
  0
LINE
  8
_0-3_躯体と製品
  6
CONTINUOUS
 62
    4
 10
1506.6845992864946
 20
935.47806756684327
 11
1541.6845992864946
 21
935.47806756684327
  0
LINE
  8
_0-3_躯体と製品
  6
CONTINUOUS
 62
    4
 10
1497.6845992864892
 20
941.4780675668444
 11
1666.6845992864946
 21
941.4780675668444
  0
LINE
  8
_0-3_躯体と製品
  6
CONTINUOUS
 62
    3
 10
1485.1845992864892
 20
914.86984756684433
 11
1510.1845992864892
 21
914.86984756684433
  0
LINE
  8
_0-3_躯体と製品
  6
CONTINUOUS
 62
    4
 10
1503.6845992864928
 20
932.4780675668444
 11
1503.6845992864928
 21
891.47806756684327
  0
ARC
  8
_0-3_躯体と製品
  6
CONTINUOUS
 62
    4
 10
1506.6845992864946
 20
932.4780675668444
 40
3
 50
90
 51
180
  0
LINE
  8
_0-3_躯体と製品
  6
CONTINUOUS
 62
    3
 10
1485.1845992864892
 20
914.86984756684433
 11
1510.1845992864892
 21
914.86984756684433
  0
LINE
  8
_0-3_躯体と製品
  6
CONTINUOUS
 62
    4
 10
1503.6845992864928
 20
891.47806756684327
 11
1497.6845992864892
 21
891.47806756684327
  0
ARC
  8
_0-3_躯体と製品
  6
CONTINUOUS
 62
    4
 10
1541.6845992864946
 20
938.47806756684327
 40
3
 50
270
 51
0
  0
LINE
  8
_0-3_躯体と製品
  6
CONTINUOUS
 62
    4
 10
1544.6845992864874
 20
938.47806756684327
 11
1544.6845992864874
 21
941.4780675668444
  0
LINE
  8
_0-3_躯体と製品
  6
CONTINUOUS
 62
    4
 10
1541.6845992864946
 20
1081.0451275668443
 11
1666.6845992864946
 21
1081.0451275668443
  0
LINE
  8
_0-3_躯体と製品
  6
CONTINUOUS
 62
    4
 10
1541.6845992864946
 20
1096.0451275668443
 11
1666.6845992864946
 21
1096.0451275668443
  0
LINE
  8
_0-4_図面枠
  6
CONTINUOUS
 62
    3
 10
1252.0692792864938
 20
1415.6688275668439
 11
1041.6647992864946
 21
1415.6688275668439
  0
TEXT
  8
_0-4_図面枠
 62
    7
 10
851.87671928649524
 20
1923.9594599876882
 40
60.000000000000007
 41
0.8
 50
0.0000100000009676
  1
シルタップ止め
  0
LINE
  8
_0-4_図面枠
  6
CONTINUOUS
 62
    3
 10
1239.0769792864876
 20
1913.9597275668432
 11
878.13549928649445
 21
1913.9597275668432
  0
LINE
  8
_0-3_躯体と製品
  6
CONTINUOUS
 62
    4
 10
1541.6845992864946
 20
1499.3427675668424
 11
1541.6845992864946
 21
1848.9714875668431
  0
LINE
  8
_0-4_図面枠
  6
CONTINUOUS
 62
    3
 10
1324.6270592864894
 20
1578.9475075668433
 11
1295.9667992864925
 21
1608.5885075668436
  0
LINE
  8
_0-4_図面枠
  6
CONTINUOUS
 62
    3
 10
1324.6270592864894
 20
1578.9475075668433
 11
1217.9412792864923
 21
1763.7326675668435
  0
LINE
  8
_0-3_躯体と製品
  6
CONTINUOUS
 62
    4
 10
1373.6845992864928
 20
1493.3427675668433
 11
1332.6845992864892
 21
1493.3427675668433
  0
LINE
  8
_0-3_躯体と製品
  6
CONTINUOUS
 62
    7
 10
1326.6845992864946
 20
1499.3427675668424
 11
1666.6845992864946
 21
1499.3427675668424
  0
LINE
  8
_0-3_躯体と製品
  6
CONTINUOUS
 62
    4
 10
1326.6845992864946
 20
1211.1482275668429
 11
1491.6845992864928
 21
1211.1482275668429
  0
LINE
  8
_0-3_躯体と製品
  6
CONTINUOUS
 62
    4
 10
1326.6845992864946
 20
1226.7468675668435
 11
1491.6845992864928
 21
1226.7468675668435
  0
LINE
  8
_0-3_躯体と製品
  6
CONTINUOUS
 62
    4
 10
1376.6845992864946
 20
1323.2572275668433
 11
1332.6845992864892
 21
1323.2572275668433
  0
LINE
  8
_0-3_躯体と製品
  6
CONTINUOUS
 62
    4
 10
1332.6845992864892
 20
1314.2572275668435
 11
1491.6845992864928
 21
1314.2572275668435
  0
LINE
  8
_0-3_躯体と製品
  6
CONTINUOUS
 62
    4
 10
1326.6845992864946
 20
1329.2572275668435
 11
1491.6845992864928
 21
1329.2572275668435
  0
LINE
  8
_0-4_図面枠
  6
CONTINUOUS
 62
    3
 10
1326.2137392864888
 20
1287.2468675668431
 11
1252.0692792864938
 21
1415.6688275668439
  0
LINE
  8
_0-3_躯体と製品
  6
CONTINUOUS
 62
    4
 10
1332.6845992864892
 20
1279.2572275668435
 11
1332.6845992864892
 21
1493.3427675668433
  0
LINE
  8
_0-4_図面枠
  6
CONTINUOUS
 62
    3
 10
1326.2137392864888
 20
1287.2468675668431
 11
1297.553479286491
 21
1316.8878875668433
  0
LINE
  8
_0-3_躯体と製品
  6
CONTINUOUS
 62
    4
 10
1326.6845992864946
 20
1279.2572275668435
 11
1332.6845992864892
 21
1279.2572275668435
  0
TEXT
  8
_0-4_図面枠
 62
    7
 10
1062.3588992864952
 20
1430.006267566843
 40
60
 41
0.8
 50
0
  1
妻板補強
  0
LINE
  8
_0-3_躯体と製品
  6
CONTINUOUS
 62
    3
 10
1313.6845992864928
 20
1406.2560475668436
 11
1338.6845992864928
 21
1406.2560475668436
  0
LINE
  8
_0-3_躯体と製品
  6
CONTINUOUS
 62
    3
 10
1314.1845992864955
 20
1433.2946875668442
 11
1339.1845992864955
 21
1433.2946875668442
  0
LINE
  8
_0-3_躯体と製品
  6
CONTINUOUS
 62
    4
 10
1376.6845992864946
 20
1323.2572275668433
 11
1376.6845992864946
 21
1496.3427675668429
  0
LINE
  8
_0-3_躯体と製品
  6
CONTINUOUS
 62
    4
 10
1547.6845992864892
 20
1323.2572275668433
 11
1547.6845992864892
 21
1496.3427675668429
  0
LINE
  8
_0-3_躯体と製品
  6
PLINE5
 62
    4
 10
1541.6845992864946
 20
1493.3427675668433
 11
1541.6845992864946
 21
1323.2572275668433
  0
LINE
  8
_0-3_躯体と製品
  6
CONTINUOUS
 62
    4
 10
1503.6845992864928
 20
1279.2572275668435
 11
1503.6845992864928
 21
1493.3427675668433
  0
LINE
  8
_0-3_躯体と製品
  6
PLINE2
 62
    4
 10
1547.6845992864892
 20
1323.2572275668433
 11
1503.6845992864928
 21
1323.2572275668433
  0
LINE
  8
_0-3_躯体と製品
  6
CONTINUOUS
 62
    4
 10
1497.6845992864892
 20
1329.2572275668435
 11
1541.6845992864946
 21
1329.2572275668435
  0
LINE
  8
_0-3_躯体と製品
  6
CONTINUOUS
 62
    3
 10
1485.1845992864892
 20
1360.3212275668436
 11
1510.1845992864892
 21
1360.3212275668436
  0
LINE
  8
_0-3_躯体と製品
  6
CONTINUOUS
 62
    3
 10
1485.1845992864892
 20
1305.2226275668436
 11
1510.1845992864892
 21
1305.2226275668436
  0
LINE
  8
_0-3_躯体と製品
  6
CONTINUOUS
 62
    4
 10
1497.6845992864892
 20
1279.2572275668435
 11
1503.6845992864928
 21
1279.2572275668435
  0
LINE
  8
_0-3_躯体と製品
  6
CONTINUOUS
 62
    4
 10
1541.6845992864946
 20
1211.1482275668429
 11
1666.6845992864946
 21
1211.1482275668429
  0
LINE
  8
_0-3_躯体と製品
  6
CONTINUOUS
 62
    4
 10
1541.6845992864946
 20
1226.7468675668435
 11
1666.6845992864946
 21
1226.7468675668435
  0
LINE
  8
_0-3_躯体と製品
  6
CONTINUOUS
 62
    4
 10
1541.6845992864946
 20
1314.2572275668435
 11
1666.6845992864946
 21
1314.2572275668435
  0
LINE
  8
_0-3_躯体と製品
  6
CONTINUOUS
 62
    4
 10
1547.6845992864892
 20
1329.2572275668435
 11
1666.6845992864946
 21
1329.2572275668435
  0
LINE
  8
_0-3_躯体と製品
  6
CONTINUOUS
 62
    4
 10
1544.6845992864874
 20
1493.3427675668433
 11
1503.6845992864928
 21
1493.3427675668433
  0
LINE
  8
_0-3_躯体と製品
  6
CONTINUOUS
 62
    4
 10
1491.6845992864928
 20
1391.4780675668435
 11
1497.6845992864892
 21
1391.4780675668435
  0
ARC
  8
_0-3_躯体と製品
  6
CONTINUOUS
 62
    4
 10
1373.6845992864928
 20
1496.3427675668429
 40
3
 50
270
 51
0
  0
LINE
  8
_0-3_躯体と製品
  6
CONTINUOUS
 62
    4
 10
1376.6845992864946
 20
1496.3427675668429
 11
1376.6845992864946
 21
1499.3427675668424
  0
ARC
  8
_0-3_躯体と製品
  6
CONTINUOUS
 62
    4
 10
1544.6845992864874
 20
1496.3427675668429
 40
3
 50
270
 51
0
  0
LINE
  8
_0-3_躯体と製品
  6
CONTINUOUS
 62
    4
 10
1547.6845992864892
 20
1496.3427675668429
 11
1547.6845992864892
 21
1499.3427675668424
  0
LINE
  8
_0-3_躯体と製品
  6
CONTINUOUS
 62
    4
 10
1326.6845992864946
 20
1875.9714875668435
 11
1666.6845992864946
 21
1875.9714875668435
  0
LINE
  8
_0-3_躯体と製品
  6
CONTINUOUS
 62
    4
 10
1326.6845992864946
 20
1690.479587566844
 11
1491.6845992864928
 21
1690.479587566844
  0
LINE
  8
_0-3_躯体と製品
  6
CONTINUOUS
 62
    7
 10
1326.6845992864946
 20
1888.9714875668433
 11
1376.6845992864946
 21
1888.9714875668433
  0
LINE
  8
_0-3_躯体と製品
  6
CONTINUOUS
 62
    4
 10
1326.6845992864946
 20
1848.9714875668431
 11
1666.6845992864946
 21
1848.9714875668431
  0
LINE
  8
_0-3_躯体と製品
  6
CONTINUOUS
 62
    4
 10
1326.6845992864946
 20
1888.9714875668433
 11
1666.6845992864946
 21
1888.9714875668433
  0
LINE
  8
_0-4_図面枠
  6
CONTINUOUS
 62
    3
 10
1319.5989192864945
 20
1774.491647566844
 11
1290.9386592864894
 21
1804.1326675668431
  0
LINE
  8
_0-4_図面枠
  6
CONTINUOUS
 62
    3
 10
1319.5989192864945
 20
1774.491647566844
 11
1239.0769792864876
 21
1913.9597275668432
  0
TEXT
  8
_0-4_図面枠
 62
    7
 10
1115.8499992864954
 20
1769.628449694671
 40
60.000000000000007
 41
0.7999999999999999
 50
0.0000100000008707
  1
妻板
  0
LINE
  8
_0-4_図面枠
  6
CONTINUOUS
 62
    3
 10
1217.9412792864923
 20
1763.7326675668435
 11
1112.561999286494
 21
1763.7326675668435
  0
LINE
  8
_0-3_躯体と製品
  6
CONTINUOUS
 62
    3
 10
1314.381199286493
 20
1747.7153675668426
 11
1339.3811992864948
 21
1747.7153675668426
  0
LINE
  8
_0-3_躯体と製品
  6
CONTINUOUS
 62
    3
 10
1314.381199286493
 20
1774.7540075668433
 11
1339.3811992864948
 21
1774.7540075668433
  0
LINE
  8
_0-3_躯体と製品
  6
CONTINUOUS
 62
    3
 10
1314.381199286493
 20
1804.4964875668431
 11
1339.3811992864948
 21
1804.4964875668431
  0
LINE
  8
_0-3_躯体と製品
  6
CONTINUOUS
 62
    3
 10
1314.1845992864955
 20
1831.1488675668436
 11
1339.1845992864955
 21
1831.1488675668436
  0
LINE
  8
_0-3_躯体と製品
  6
CONTINUOUS
 62
    4
 10
1541.6845992864946
 20
1690.479587566844
 11
1666.6845992864946
 21
1690.479587566844
  0
LINE
  8
_0-3_躯体と製品
  6
CONTINUOUS
 62
    4
 10
1541.6845992864946
 20
1842.971487566844
 11
1497.6845992864892
 21
1842.971487566844
  0
LINE
  8
_0-3_躯体と製品
  6
CONTINUOUS
 62
    7
 10
1376.6845992864946
 20
1888.9714875668433
 11
1376.6845992864946
 21
1863.5214475668436
  0
LINE
  8
_0-3_躯体と製品
  6
CONTINUOUS
 62
    3
 10
2271.6845992864946
 20
388.23254756684446
 11
2284.6845992864874
 21
373.09554756684429
  0
LINE
  8
_0-3_躯体と製品
  6
PLINE2
 62
    6
 10
2388.684599286491
 20
370.45690756684326
 11
2273.0558792864886
 21
486.08562756684432
  0
LINE
  8
_0-3_躯体と製品
  6
PLINE2
 62
    6
 10
2271.6845992864946
 20
416.74622756684334
 11
2320.335279286488
 21
368.09554756684338
  0
LINE
  8
_0-3_躯体と製品
  6
PLINE2
 62
    6
 10
2271.6845992864946
 20
452.10156756684432
 11
2355.6906192864917
 21
368.09554756684338
  0
LINE
  8
_0-3_躯体と製品
  6
PLINE2
 62
    6
 10
2271.6845992864946
 20
458.38834756684332
 11
2299.3818792864877
 21
486.08562756684432
  0
LINE
  8
_0-3_躯体と製品
  6
PLINE2
 62
    6
 10
2271.9409792864863
 20
387.93402756684327
 11
2370.0925592864896
 21
486.08562756684432
  0
LINE
  8
_0-3_躯体と製品
  6
PLINE2
 62
    6
 10
2271.6845992864946
 20
423.03300756684325
 11
2334.7372192864932
 21
486.08562756684432
  0
LINE
  8
_0-3_躯体と製品
  6
CONTINUOUS
 62
    7
 10
2271.6845992864946
 20
486.08562756684432
 11
2826.6845992864965
 21
486.08562756684432
  0
LINE
  8
_0-3_躯体と製品
  6
CONTINUOUS
 62
    3
 10
2271.6845992864946
 20
510.93144756684342
 11
2826.6845992864965
 21
510.93144756684342
  0
LINE
  8
_0-3_躯体と製品
  6
CONTINUOUS
 62
    4
 10
2271.6845992864946
 20
911.08168756684427
 11
2826.6845992864965
 21
911.08168756684427
  0
LINE
  8
_0-3_躯体と製品
  6
CONTINUOUS
 62
    4
 10
2271.6845992864946
 20
928.97148756684328
 11
2826.6845992864965
 21
928.97148756684328
  0
LINE
  8
_0-3_躯体と製品
  6
PLINE5
 62
    4
 10
2271.6845992864946
 20
668.3362275668444
 11
2826.6845992864965
 21
668.3362275668444
  0
LINE
  8
_0-3_躯体と製品
  6
CONTINUOUS
 62
    4
 10
2826.6845992864965
 20
658.47148756684442
 11
2271.6845992864946
 21
658.47148756684442
  0
LINE
  8
_0-3_躯体と製品
  6
CONTINUOUS
 62
    4
 10
2271.6845992864946
 20
692.61184756684247
 11
2826.6845992864965
 21
692.61184756684247
  0
LINE
  8
_0-4_図面枠
  6
CONTINUOUS
 62
    3
 10
1836.4303392864931
 20
852.80480756684346
 11
1919.9108192864933
 21
708.21236756684334
  0
TEXT
  8
_0-4_図面枠
 62
    7
 10
1929.3196392864902
 20
711.74882756684337
 40
60
 41
0.8000000000000006
 50
0
  1
支柱
  0
LINE
  8
_0-3_躯体と製品
  6
CONTINUOUS
 62
    3
 10
2241.6845992864928
 20
376.81832756684344
 11
1861.6845992864946
 21
376.81832756684344
  0
LINE
  8
_0-4_図面枠
  6
CONTINUOUS
 62
    3
 10
1919.9108192864933
 20
708.21236756684334
 11
1991.0528192864913
 21
708.21236756684334
  0
LINE
  8
_0-3_躯体と製品
  6
PLINE2
 62
    6
 10
1998.27341928649
 20
478.04470756684327
 11
1968.6501192864889
 21
507.66798756684443
  0
LINE
  8
_0-3_躯体と製品
  6
PLINE2
 62
    6
 10
1982.0042592864902
 20
458.95850756684445
 11
1933.294799286492
 21
507.66798756684443
  0
LINE
  8
_0-3_躯体と製品
  6
CONTINUOUS
 62
    3
 10
1862.5440192864917
 20
507.66798756684443
 11
2242.5440192864917
 21
507.66798756684443
  0
LINE
  8
_0-3_躯体と製品
  6
CONTINUOUS
 62
    3
 10
1861.6845992864946
 20
510.93144756684342
 11
2241.6845992864928
 21
510.93144756684342
  0
LINE
  8
_0-3_躯体と製品
  6
PLINE2
 62
    6
 10
1904.1157992864864
 20
391.66798756684329
 11
2020.1157992864901
 21
507.66798756684443
  0
LINE
  8
_0-3_躯体と製品
  6
CONTINUOUS
 62
    3
 10
2002.5440192864899
 20
481.66798756684329
 11
1929.544019286488
 21
396.66798756684329
  0
LINE
  8
_0-3_躯体と製品
  6
PLINE2
 62
    6
 10
1872.4612992864913
 20
391.66798756684329
 11
1988.4612992864859
 21
507.66798756684443
  0
LINE
  8
_0-3_躯体と製品
  6
PLINE2
 62
    3
 10
2241.6845992864928
 20
356.81832756684344
 11
1861.6845992864946
 21
356.81832756684344
  0
LINE
  8
_0-3_躯体と製品
  6
PLINE2
 62
    3
 10
2241.6845992864928
 20
373.81832756684344
 11
1861.6845992864946
 21
373.81832756684344
  0
LINE
  8
_0-3_躯体と製品
  6
CONTINUOUS
 62
    3
 10
1752.5440192864899
 20
481.66798756684329
 11
1811.6845992864928
 21
412.8056475668443
  0
LINE
  8
_0-3_躯体と製品
  6
PLINE2
 62
    6
 10
1801.5183792864937
 20
424.64302756684447
 11
1811.6845992864928
 21
434.80926756684244
  0
LINE
  8
_0-3_躯体と製品
  6
CONTINUOUS
 62
    3
 10
1686.6845992864928
 20
376.81832756684344
 11
1811.6845992864928
 21
376.81832756684344
  0
LINE
  8
_0-3_躯体と製品
  6
PLINE2
 62
    3
 10
1686.6845992864928
 20
353.81832756684344
 11
1811.6845992864928
 21
353.81832756684344
  0
LINE
  8
_0-3_躯体と製品
  6
PLINE2
 62
    3
 10
1686.6845992864928
 20
373.81832756684344
 11
1811.6845992864928
 21
373.81832756684344
  0
LINE
  8
_0-3_躯体と製品
  6
PLINE2
 62
    6
 10
1735.3566792864913
 20
493.47404756684432
 11
1746.9580392864973
 21
481.87270756684438
  0
LINE
  8
_0-3_躯体と製品
  6
CONTINUOUS
 62
    3
 10
1687.5440192864917
 20
507.66798756684443
 11
1812.5440192864917
 21
507.66798756684443
  0
LINE
  8
_0-3_躯体と製品
  6
CONTINUOUS
 62
    3
 10
1746.9408992864956
 20
481.94942756684441
 11
1734.2753592864883
 21
487.86002756684434
  0
LINE
  8
_0-3_躯体と製品
  6
CONTINUOUS
 62
    3
 10
1686.6845992864928
 20
510.93144756684342
 11
1811.6845992864928
 21
510.93144756684342
  0
LINE
  8
_0-3_躯体と製品
  6
PLINE2
 62
    6
 10
1721.2954792864966
 20
507.53524756684328
 11
1721.1627592864916
 21
507.66798756684443
  0
LINE
  8
_0-3_躯体と製品
  6
CONTINUOUS
 62
    3
 10
1702.5440192864917
 20
481.66798756684329
 11
1686.6845992864928
 21
463.20154756684337
  0
LINE
  8
_0-3_躯体と製品
  6
CONTINUOUS
 62
    3
 10
1732.5440192864935
 20
491.74848756684446
 11
1732.5440192864935
 21
490.57856756684441
  0
LINE
  8
_0-3_躯体と製品
  6
CONTINUOUS
 62
    3
 10
1738.0508392864922
 20
501.13980756684441
 11
1737.3820592864868
 21
502.36414756684439
  0
LINE
  8
_0-3_躯体と製品
  6
CONTINUOUS
 62
    3
 10
1737.3820592864868
 20
502.36414756684439
 11
1736.5580992864889
 21
503.49864756684337
  0
LINE
  8
_0-3_躯体と製品
  6
CONTINUOUS
 62
    3
 10
1736.5580992864889
 20
503.49864756684337
 11
1735.5919992864929
 21
504.52542756684329
  0
LINE
  8
_0-3_躯体と製品
  6
CONTINUOUS
 62
    3
 10
1735.5919992864929
 20
504.52542756684329
 11
1734.4989792864926
 21
505.4283075668443
  0
LINE
  8
_0-3_躯体と製品
  6
CONTINUOUS
 62
    3
 10
1734.4989792864926
 20
505.4283075668443
 11
1733.296279286491
 21
506.19300756684447
  0
LINE
  8
_0-3_躯体と製品
  6
CONTINUOUS
 62
    3
 10
1733.296279286491
 20
506.19300756684447
 11
1732.0028392864915
 21
506.80750756684347
  0
LINE
  8
_0-3_躯体と製品
  6
CONTINUOUS
 62
    3
 10
1732.0028392864915
 20
506.80750756684347
 11
1730.6390992864926
 21
507.26210756684327
  0
LINE
  8
_0-3_躯体と製品
  6
CONTINUOUS
 62
    3
 10
1730.6390992864926
 20
507.26210756684327
 11
1729.2265392864865
 21
507.54960756684341
  0
LINE
  8
_0-3_躯体と製品
  6
CONTINUOUS
 62
    3
 10
1729.2265392864865
 20
507.54960756684341
 11
1727.7874592864882
 21
507.66552756684337
  0
LINE
  8
_0-3_躯体と製品
  6
CONTINUOUS
 62
    3
 10
1727.7874592864882
 20
507.66552756684337
 11
1727.5440192864899
 21
507.66798756684443
  0
LINE
  8
_0-3_躯体と製品
  6
CONTINUOUS
 62
    3
 10
1732.5358792864918
 20
492.22980756684342
 11
1732.5440192864935
 21
491.74848756684446
  0
ARC
  8
_0-3_躯体と製品
  6
CONTINUOUS
 62
    3
 10
1735.5589992864898
 20
489.21992756684335
 40
4.265979999999999
 50
95.533752000000661
 51
135.12575600000844
  0
ARC
  8
_0-3_躯体と製品
  6
CONTINUOUS
 62
    3
 10
1734.7183992864902
 20
497.89628756684328
 40
4.4509999999999987
 50
275.53375200000062
 51
339.4219200000054
  0
ARC
  8
_0-3_躯体と製品
  6
CONTINUOUS
 62
    3
 10
1731.8408592864889
 20
497.58548756684331
 40
7.155219999999999
 50
349.90925099999731
 51
29.784968000002806
  0
ARC
  8
_0-3_躯体と製品
  6
CONTINUOUS
 62
    3
 10
1735.5440192864935
 20
490.57856756684441
 40
3
 50
180
 51
244.98310699999996
  0
LINE
  8
_0-3_躯体と製品
  6
CONTINUOUS
 62
    3
 10
1708.1471192864901
 20
481.94942756684441
 11
1720.8126792864859
 21
487.86002756684434
  0
ARC
  8
_0-3_躯体と製品
  6
CONTINUOUS
 62
    3
 10
1706.8784592864922
 20
484.66798756684329
 40
3
 50
270
 51
295.01689299999992
  0
LINE
  8
_0-3_躯体と製品
  6
CONTINUOUS
 62
    3
 10
1706.8784592864922
 20
481.66798756684329
 11
1702.5440192864917
 21
481.66798756684329
  0
LINE
  8
_0-3_躯体と製品
  6
CONTINUOUS
 62
    3
 10
1722.5440192864917
 20
491.74848756684446
 11
1722.5440192864917
 21
490.57856756684441
  0
LINE
  8
_0-3_躯体と製品
  6
CONTINUOUS
 62
    3
 10
1727.5440192864899
 20
507.66798756684443
 11
1726.1026792864905
 21
507.58124756684242
  0
LINE
  8
_0-3_躯体と製品
  6
CONTINUOUS
 62
    3
 10
1726.1026792864905
 20
507.58124756684242
 11
1724.6840792864932
 21
507.32240756684337
  0
LINE
  8
_0-3_躯体と製品
  6
CONTINUOUS
 62
    3
 10
1724.6840792864932
 20
507.32240756684337
 11
1723.3105792864935
 21
506.89552756684338
  0
LINE
  8
_0-3_躯体と製品
  6
CONTINUOUS
 62
    3
 10
1723.3105792864935
 20
506.89552756684338
 11
1722.0038392864935
 21
506.30734756684433
  0
LINE
  8
_0-3_躯体と製品
  6
CONTINUOUS
 62
    3
 10
1722.0038392864935
 20
506.30734756684433
 11
1720.7844792864889
 21
505.56716756684341
  0
LINE
  8
_0-3_躯体と製品
  6
CONTINUOUS
 62
    3
 10
1720.7844792864889
 20
505.56716756684341
 11
1719.6717192864926
 21
504.68664756684348
  0
LINE
  8
_0-3_躯体と製品
  6
CONTINUOUS
 62
    3
 10
1719.6717192864926
 20
504.68664756684348
 11
1718.683119286492
 21
503.67964756684341
  0
LINE
  8
_0-3_躯体と製品
  6
CONTINUOUS
 62
    3
 10
1718.683119286492
 20
503.67964756684341
 11
1717.8342392864888
 21
502.56208756684327
  0
LINE
  8
_0-3_躯体と製品
  6
CONTINUOUS
 62
    3
 10
1717.8342392864888
 20
502.56208756684327
 11
1717.1384992864878
 21
501.35154756684346
  0
LINE
  8
_0-3_躯体と製品
  6
CONTINUOUS
 62
    3
 10
1717.1384992864878
 20
501.35154756684346
 11
1717.0371792864917
 21
501.13980756684441
  0
LINE
  8
_0-3_躯体と製品
  6
CONTINUOUS
 62
    3
 10
1722.5521592864916
 20
492.22980756684342
 11
1722.5440192864917
 21
491.74848756684446
  0
ARC
  8
_0-3_躯体と製品
  6
CONTINUOUS
 62
    3
 10
1719.5290392864936
 20
489.21992756684335
 40
4.265979999999999
 50
44.874243999991506
 51
84.466247999999368
  0
ARC
  8
_0-3_躯体と製品
  6
CONTINUOUS
 62
    3
 10
1720.3696192864882
 20
497.89628756684328
 40
4.4509999999999987
 50
200.57807999999451
 51
264.46624799999938
  0
ARC
  8
_0-3_躯体と製品
  6
CONTINUOUS
 62
    3
 10
1723.2471592864858
 20
497.58548756684331
 40
7.155219999999999
 50
150.21503199999719
 51
190.0907490000026
  0
ARC
  8
_0-3_躯体と製品
  6
CONTINUOUS
 62
    3
 10
1719.5440192864899
 20
490.57856756684441
 40
3
 50
295.01689299999992
 51
0
  0
LINE
  8
_0-3_躯体と製品
  6
PLINE2
 62
    6
 10
1736.4701992864902
 20
503.16424756684432
 11
1740.9739192864927
 21
507.66798756684443
  0
LINE
  8
_0-3_躯体と製品
  6
PLINE2
 62
    6
 10
1687.5440192864917
 20
489.59340756684446
 11
1705.6185992864957
 21
507.66798756684443
  0
LINE
  8
_0-3_躯体と製品
  6
PLINE2
 62
    6
 10
1710.4039992864946
 20
483.0714075668443
 11
1687.5440192864917
 21
505.93138756684425
  0
ARC
  8
_0-3_躯体と製品
  6
CONTINUOUS
 62
    3
 10
1748.2095592864916
 20
484.66798756684329
 40
3
 50
244.98310699999996
 51
270
  0
LINE
  8
_0-3_躯体と製品
  6
CONTINUOUS
 62
    3
 10
1748.2095592864916
 20
481.66798756684329
 11
1752.5440192864899
 21
481.66798756684329
  0
LINE
  8
_0-3_躯体と製品
  6
PLINE2
 62
    6
 10
1768.2632992864947
 20
464.24668756684446
 11
1811.6845992864928
 21
507.66798756684443
  0
LINE
  8
_0-3_躯体と製品
  6
PLINE2
 62
    6
 10
1750.5655992864868
 20
481.90432756684436
 11
1776.3292592864891
 21
507.66798756684443
  0
LINE
  8
_0-3_躯体と製品
  6
PLINE2
 62
    6
 10
1811.6845992864928
 20
452.50146756684444
 11
1756.5180992864898
 21
507.66798756684443
  0
LINE
  8
_0-3_躯体と製品
  6
PLINE2
 62
    6
 10
1784.7624592864886
 20
445.39050756684446
 11
1811.6845992864928
 21
472.31264756684345
  0
LINE
  8
_0-3_躯体と製品
  6
PLINE2
 62
    6
 10
1791.6580792864934
 20
507.66798756684443
 11
1811.6845992864928
 21
487.64144756684345
  0
LINE
  8
_0-3_躯体と製品
  6
PLINE2
 62
    6
 10
1949.4659592864937
 20
420.78614756684328
 11
1862.5841192864882
 21
507.66798756684443
  0
LINE
  8
_0-3_躯体と製品
  6
PLINE2
 62
    6
 10
1907.8734392864899
 20
391.66798756684329
 11
1862.5440192864917
 21
436.99740756684332
  0
LINE
  8
_0-3_躯体と製品
  6
PLINE2
 62
    6
 10
1933.196799286492
 20
401.69994756684446
 11
1862.5440192864917
 21
472.35274756684339
  0
LINE
  8
_0-3_躯体と製品
  6
PLINE2
 62
    6
 10
1862.5440192864917
 20
417.10602756684443
 11
1953.1059592864895
 21
507.66798756684443
  0
LINE
  8
_0-3_躯体と製品
  6
CONTINUOUS
 62
    3
 10
1929.544019286488
 20
391.66798756684329
 11
1861.6845992864946
 21
391.66798756684329
  0
LINE
  8
_0-3_躯体と製品
  6
CONTINUOUS
 62
    3
 10
1929.544019286488
 20
396.66798756684329
 11
1929.544019286488
 21
391.66798756684329
  0
LINE
  8
_0-3_躯体と製品
  6
PLINE2
 62
    6
 10
1862.5440192864917
 20
452.46136756684336
 11
1917.750619286493
 21
507.66798756684443
  0
LINE
  8
_0-3_躯体と製品
  6
PLINE2
 62
    6
 10
1862.5440192864917
 20
487.81670756684434
 11
1882.3952792864875
 21
507.66798756684443
  0
LINE
  8
_0-3_躯体と製品
  6
PLINE2
 62
    6
 10
1965.7350992864885
 20
439.87232756684443
 11
1897.9394592864937
 21
507.66798756684443
  0
LINE
  8
_0-3_躯体と製品
  6
PLINE2
 62
    6
 10
2109.2726592864929
 20
416.34730756684326
 11
2200.5933392864918
 21
507.66798756684443
  0
LINE
  8
_0-3_躯体と製品
  6
PLINE2
 62
    6
 10
2092.6636992864896
 20
435.0936875668433
 11
2165.2379992864971
 21
507.66798756684443
  0
LINE
  8
_0-3_躯体と製品
  6
PLINE2
 62
    6
 10
2076.0547592864932
 20
453.84008756684329
 11
2129.8826592864898
 21
507.66798756684443
  0
LINE
  8
_0-3_躯体と製品
  6
PLINE2
 62
    6
 10
2226.0714792864892
 20
391.66798756684329
 11
2110.0714792864928
 21
507.66798756684443
  0
LINE
  8
_0-3_躯体と製品
  6
PLINE2
 62
    6
 10
2190.7161392864909
 20
391.66798756684329
 11
2074.7161392864873
 21
507.66798756684443
  0
LINE
  8
_0-3_躯体と製品
  6
CONTINUOUS
 62
    3
 10
2052.5440192864917
 20
481.66798756684329
 11
2125.5440192864935
 21
396.66798756684329
  0
LINE
  8
_0-3_躯体と製品
  6
PLINE2
 62
    6
 10
2155.3607992864945
 20
391.66798756684329
 11
2039.3607992864909
 21
507.66798756684443
  0
LINE
  8
_0-3_躯体と製品
  6
CONTINUOUS
 62
    3
 10
2048.2095592864898
 20
481.66798756684329
 11
2052.5440192864917
 21
481.66798756684329
  0
LINE
  8
_0-3_躯体と製品
  6
PLINE2
 62
    6
 10
2038.2383192864872
 20
486.73430756684343
 11
2059.1719792864897
 21
507.66798756684443
  0
LINE
  8
_0-3_躯体と製品
  6
PLINE2
 62
    6
 10
2021.5461792864917
 20
490.12726756684333
 11
2004.0054592864944
 21
507.66798756684443
  0
LINE
  8
_0-3_躯体と製品
  6
CONTINUOUS
 62
    3
 10
2046.9408992864956
 20
481.94942756684441
 11
2034.2753592864901
 21
487.86002756684434
  0
ARC
  8
_0-3_躯体と製品
  6
CONTINUOUS
 62
    3
 10
2048.2095592864898
 20
484.66798756684329
 40
3
 50
244.98310699999996
 51
270
  0
LINE
  8
_0-3_躯体と製品
  6
CONTINUOUS
 62
    3
 10
2032.5440192864917
 20
491.74848756684446
 11
2032.5440192864917
 21
490.57856756684441
  0
LINE
  8
_0-3_躯体と製品
  6
CONTINUOUS
 62
    3
 10
2038.0508392864922
 20
501.13980756684441
 11
2037.3820592864849
 21
502.36414756684439
  0
LINE
  8
_0-3_躯体と製品
  6
CONTINUOUS
 62
    3
 10
2037.3820592864849
 20
502.36414756684439
 11
2036.558099286487
 21
503.49864756684337
  0
LINE
  8
_0-3_躯体と製品
  6
CONTINUOUS
 62
    3
 10
2036.558099286487
 20
503.49864756684337
 11
2035.5919992864929
 21
504.52542756684329
  0
LINE
  8
_0-3_躯体と製品
  6
CONTINUOUS
 62
    3
 10
2035.5919992864929
 20
504.52542756684329
 11
2034.4989792864944
 21
505.4283075668443
  0
LINE
  8
_0-3_躯体と製品
  6
CONTINUOUS
 62
    3
 10
2034.4989792864944
 20
505.4283075668443
 11
2033.296279286491
 21
506.19300756684447
  0
LINE
  8
_0-3_躯体と製品
  6
CONTINUOUS
 62
    3
 10
2033.296279286491
 20
506.19300756684447
 11
2032.0028392864915
 21
506.80750756684347
  0
LINE
  8
_0-3_躯体と製品
  6
CONTINUOUS
 62
    3
 10
2032.0028392864915
 20
506.80750756684347
 11
2030.6390992864945
 21
507.26210756684327
  0
LINE
  8
_0-3_躯体と製品
  6
CONTINUOUS
 62
    3
 10
2030.6390992864945
 20
507.26210756684327
 11
2029.2265392864865
 21
507.54960756684341
  0
LINE
  8
_0-3_躯体と製品
  6
CONTINUOUS
 62
    3
 10
2029.2265392864865
 20
507.54960756684341
 11
2027.7874592864864
 21
507.66552756684337
  0
LINE
  8
_0-3_躯体と製品
  6
CONTINUOUS
 62
    3
 10
2027.7874592864864
 20
507.66552756684337
 11
2027.5440192864917
 21
507.66798756684443
  0
LINE
  8
_0-3_躯体と製品
  6
CONTINUOUS
 62
    3
 10
2032.5358792864918
 20
492.22980756684342
 11
2032.5440192864917
 21
491.74848756684446
  0
ARC
  8
_0-3_躯体と製品
  6
CONTINUOUS
 62
    3
 10
2035.5589992864898
 20
489.21992756684335
 40
4.265979999999999
 50
95.533752000000661
 51
135.12575600000844
  0
ARC
  8
_0-3_躯体と製品
  6
CONTINUOUS
 62
    3
 10
2034.7183992864902
 20
497.89628756684328
 40
4.4509999999999987
 50
275.53375200000062
 51
339.4219200000054
  0
ARC
  8
_0-3_躯体と製品
  6
CONTINUOUS
 62
    3
 10
2031.8408592864889
 20
497.58548756684331
 40
7.155219999999999
 50
349.90925099999731
 51
29.784968000002806
  0
ARC
  8
_0-3_躯体と製品
  6
CONTINUOUS
 62
    3
 10
2035.5440192864935
 20
490.57856756684441
 40
3
 50
180
 51
244.98310699999996
  0
LINE
  8
_0-3_躯体と製品
  6
CONTINUOUS
 62
    3
 10
2008.1471192864901
 20
481.94942756684441
 11
2020.8126792864859
 21
487.86002756684434
  0
ARC
  8
_0-3_躯体と製品
  6
CONTINUOUS
 62
    3
 10
2006.878459286494
 20
484.66798756684329
 40
3
 50
270
 51
295.01689299999992
  0
LINE
  8
_0-3_躯体と製品
  6
CONTINUOUS
 62
    3
 10
2006.878459286494
 20
481.66798756684329
 11
2002.5440192864899
 21
481.66798756684329
  0
LINE
  8
_0-3_躯体と製品
  6
CONTINUOUS
 62
    3
 10
2022.5440192864917
 20
491.74848756684446
 11
2022.5440192864917
 21
490.57856756684441
  0
LINE
  8
_0-3_躯体と製品
  6
CONTINUOUS
 62
    3
 10
2027.5440192864917
 20
507.66798756684443
 11
2026.1026792864886
 21
507.58124756684242
  0
LINE
  8
_0-3_躯体と製品
  6
CONTINUOUS
 62
    3
 10
2026.1026792864886
 20
507.58124756684242
 11
2024.684079286495
 21
507.32240756684337
  0
LINE
  8
_0-3_躯体と製品
  6
CONTINUOUS
 62
    3
 10
2024.684079286495
 20
507.32240756684337
 11
2023.3105792864935
 21
506.89552756684338
  0
LINE
  8
_0-3_躯体と製品
  6
CONTINUOUS
 62
    3
 10
2023.3105792864935
 20
506.89552756684338
 11
2022.0038392864935
 21
506.30734756684433
  0
LINE
  8
_0-3_躯体と製品
  6
CONTINUOUS
 62
    3
 10
2022.0038392864935
 20
506.30734756684433
 11
2020.7844792864908
 21
505.56716756684341
  0
LINE
  8
_0-3_躯体と製品
  6
CONTINUOUS
 62
    3
 10
2020.7844792864908
 20
505.56716756684341
 11
2019.6717192864926
 21
504.68664756684348
  0
LINE
  8
_0-3_躯体と製品
  6
CONTINUOUS
 62
    3
 10
2019.6717192864926
 20
504.68664756684348
 11
2018.683119286492
 21
503.67964756684341
  0
LINE
  8
_0-3_躯体と製品
  6
CONTINUOUS
 62
    3
 10
2018.683119286492
 20
503.67964756684341
 11
2017.8342392864888
 21
502.56208756684327
  0
LINE
  8
_0-3_躯体と製品
  6
CONTINUOUS
 62
    3
 10
2017.8342392864888
 20
502.56208756684327
 11
2017.1384992864878
 21
501.35154756684346
  0
LINE
  8
_0-3_躯体と製品
  6
CONTINUOUS
 62
    3
 10
2017.1384992864878
 20
501.35154756684346
 11
2017.0371792864935
 21
501.13980756684441
  0
LINE
  8
_0-3_躯体と製品
  6
CONTINUOUS
 62
    3
 10
2022.5521592864898
 20
492.22980756684342
 11
2022.5440192864917
 21
491.74848756684446
  0
ARC
  8
_0-3_躯体と製品
  6
CONTINUOUS
 62
    3
 10
2019.5290392864936
 20
489.21992756684335
 40
4.265979999999999
 50
44.874243999991506
 51
84.466247999999368
  0
ARC
  8
_0-3_躯体と製品
  6
CONTINUOUS
 62
    3
 10
2020.36961928649
 20
497.89628756684328
 40
4.4509999999999987
 50
200.57807999999451
 51
264.46624799999938
  0
ARC
  8
_0-3_躯体と製品
  6
CONTINUOUS
 62
    3
 10
2023.2471592864877
 20
497.58548756684331
 40
7.155219999999999
 50
150.21503199999719
 51
190.0907490000026
  0
ARC
  8
_0-3_躯体と製品
  6
CONTINUOUS
 62
    3
 10
2019.5440192864899
 20
490.57856756684441
 40
3
 50
295.01689299999992
 51
0
  0
LINE
  8
_0-3_躯体と製品
  6
PLINE2
 62
    6
 10
2023.5063992864925
 20
507.35772756684332
 11
2023.8166392864932
 21
507.66798756684443
  0
LINE
  8
_0-3_躯体と製品
  6
PLINE2
 62
    6
 10
2059.44579928649
 20
472.58646756684334
 11
2094.5273192864934
 21
507.66798756684443
  0
LINE
  8
_0-3_躯体と製品
  6
PLINE2
 62
    6
 10
2190.2399992864903
 20
391.24862756684433
 11
2242.3964192864933
 21
443.40504756684345
  0
LINE
  8
_0-3_躯体と製品
  6
PLINE2
 62
    6
 10
2154.8846592864938
 20
391.24862756684433
 11
2242.4777992864929
 21
478.84176756684337
  0
LINE
  8
_0-3_躯体と製品
  6
PLINE2
 62
    6
 10
2125.2689592864899
 20
396.98826756684343
 11
2235.9486792864882
 21
507.66798756684443
  0
LINE
  8
_0-3_躯体と製品
  6
PLINE2
 62
    6
 10
2241.6845992864928
 20
411.41020756684338
 11
2145.4268192864893
 21
507.66798756684443
  0
LINE
  8
_0-3_躯体と製品
  6
CONTINUOUS
 62
    3
 10
2229.5440192864899
 20
391.66798756684329
 11
2125.5440192864935
 21
391.66798756684329
  0
LINE
  8
_0-3_躯体と製品
  6
CONTINUOUS
 62
    3
 10
2125.5440192864935
 20
396.66798756684329
 11
2125.5440192864935
 21
391.66798756684329
  0
LINE
  8
_0-3_躯体と製品
  6
CONTINUOUS
 62
    3
 10
2241.6845992864928
 20
410.80428756684341
 11
2229.5440192864899
 21
396.66798756684329
  0
LINE
  8
_0-3_躯体と製品
  6
CONTINUOUS
 62
    3
 10
2229.5440192864899
 20
396.66798756684329
 11
2229.5440192864899
 21
391.66798756684329
  0
LINE
  8
_0-3_躯体と製品
  6
PLINE2
 62
    6
 10
2242.6009192864913
 20
445.84922756684341
 11
2180.782159286493
 21
507.66798756684443
  0
LINE
  8
_0-3_躯体と製品
  6
PLINE2
 62
    6
 10
2242.5683392864939
 20
481.23714756684444
 11
2216.1374992864912
 21
507.66798756684443
  0
LINE
  8
_0-3_躯体と製品
  6
CONTINUOUS
 62
    4
 10
1861.6845992864946
 20
1096.0451275668443
 11
2241.6845992864928
 21
1096.0451275668443
  0
LINE
  8
_0-3_躯体と製品
  6
CONTINUOUS
 62
    4
 10
1861.6845992864946
 20
1081.0451275668443
 11
2241.6845992864928
 21
1081.0451275668443
  0
LINE
  8
_0-3_躯体と製品
  6
CONTINUOUS
 62
    4
 10
1817.6845992864892
 20
941.4780675668444
 11
2241.6845992864928
 21
941.4780675668444
  0
LINE
  8
_0-3_躯体と製品
  6
CONTINUOUS
 62
    3
 10
1805.1845992864892
 20
914.86984756684433
 11
1830.1845992864892
 21
914.86984756684433
  0
LINE
  8
_0-3_躯体と製品
  6
CONTINUOUS
 62
    4
 10
1823.6845992864946
 20
891.47806756684327
 11
1817.6845992864892
 21
891.47806756684327
  0
LINE
  8
_0-3_躯体と製品
  6
CONTINUOUS
 62
    4
 10
1686.6845992864928
 20
941.4780675668444
 11
1811.6845992864928
 21
941.4780675668444
  0
LINE
  8
_0-4_図面枠
  6
CONTINUOUS
 62
    3
 10
1836.4303392864931
 20
852.80480756684346
 11
1865.09059928649
 21
823.16378756684344
  0
LINE
  8
_0-3_躯体と製品
  6
CONTINUOUS
 62
    4
 10
1823.6845992864946
 20
932.4780675668444
 11
1823.6845992864946
 21
891.47806756684327
  0
ARC
  8
_0-3_躯体と製品
  6
CONTINUOUS
 62
    4
 10
1826.6845992864946
 20
932.4780675668444
 40
3
 50
90
 51
180
  0
LINE
  8
_0-3_躯体と製品
  6
CONTINUOUS
 62
    4
 10
1826.6845992864946
 20
935.47806756684327
 11
1861.6845992864946
 21
935.47806756684327
  0
ARC
  8
_0-3_躯体と製品
  6
CONTINUOUS
 62
    4
 10
1861.6845992864946
 20
938.47806756684327
 40
3
 50
270
 51
0
  0
LINE
  8
_0-3_躯体と製品
  6
CONTINUOUS
 62
    4
 10
1864.6845992864874
 20
938.47806756684327
 11
1864.6845992864874
 21
941.4780675668444
  0
LINE
  8
_0-3_躯体と製品
  6
CONTINUOUS
 62
    4
 10
1686.6845992864928
 20
1081.0451275668443
 11
1811.6845992864928
 21
1081.0451275668443
  0
LINE
  8
_0-3_躯体と製品
  6
CONTINUOUS
 62
    4
 10
1686.6845992864928
 20
1096.0451275668443
 11
1811.6845992864928
 21
1096.0451275668443
  0
LINE
  8
_0-3_躯体と製品
  6
CONTINUOUS
 62
    3
 10
2511.6845992864946
 20
458.09554756684429
 11
2584.6845992864892
 21
373.09554756684429
  0
LINE
  8
_0-3_躯体と製品
  6
PLINE2
 62
    6
 10
2498.0885992864878
 20
473.18494756684436
 11
2603.5005792864868
 21
367.77294756684341
  0
LINE
  8
_0-3_躯体と製品
  6
PLINE2
 62
    6
 10
2673.944479286487
 20
368.03972756684448
 11
2555.8985992864873
 21
486.08562756684432
  0
LINE
  8
_0-3_躯体と製品
  6
PLINE2
 62
    6
 10
2638.7225392864948
 20
367.90634756684335
 11
2520.5432592864909
 21
486.08562756684432
  0
LINE
  8
_0-3_躯体と製品
  6
PLINE2
 62
    6
 10
2580.340279286489
 20
378.13528756684332
 11
2688.2906192864939
 21
486.08562756684432
  0
LINE
  8
_0-3_躯体と製品
  6
PLINE2
 62
    6
 10
2563.972619286491
 20
397.12296756684327
 11
2652.9352792864884
 21
486.08562756684432
  0
LINE
  8
_0-3_躯体と製品
  6
PLINE2
 62
    6
 10
2547.6049592864947
 20
416.11064756684436
 11
2617.5799392864938
 21
486.08562756684432
  0
LINE
  8
_0-3_躯体と製品
  6
PLINE2
 62
    6
 10
2531.2372992864894
 20
435.09832756684341
 11
2582.2245992864955
 21
486.08562756684432
  0
LINE
  8
_0-3_躯体と製品
  6
CONTINUOUS
 62
    3
 10
2461.6845992864946
 20
458.09554756684429
 11
2388.684599286491
 21
373.09554756684429
  0
LINE
  8
_0-3_躯体と製品
  6
PLINE2
 62
    6
 10
2452.8057392864903
 20
447.75712756684447
 11
2414.4772392864925
 21
486.08562756684432
  0
LINE
  8
_0-3_躯体と製品
  6
PLINE2
 62
    6
 10
2436.4706592864914
 20
428.73684756684338
 11
2379.121899286496
 21
486.08562756684432
  0
LINE
  8
_0-3_躯体と製品
  6
PLINE2
 62
    6
 10
2358.1684992864884
 20
368.09554756684338
 11
2476.158579286488
 21
486.08562756684432
  0
LINE
  8
_0-3_躯体と製品
  6
PLINE2
 62
    6
 10
2322.813159286492
 20
368.09554756684338
 11
2440.8032392864916
 21
486.08562756684432
  0
LINE
  8
_0-3_躯体と製品
  6
PLINE2
 62
    6
 10
2420.1355992864883
 20
409.71658756684337
 11
2343.7665592864905
 21
486.08562756684432
  0
LINE
  8
_0-3_躯体と製品
  6
PLINE2
 62
    6
 10
2403.8005392864889
 20
390.69630756684342
 11
2308.4112192864941
 21
486.08562756684432
  0
LINE
  8
_0-3_躯体と製品
  6
PLINE2
 62
    6
 10
2287.4578192864883
 20
368.09554756684338
 11
2405.4478992864952
 21
486.08562756684432
  0
LINE
  8
_0-3_躯体と製品
  6
CONTINUOUS
 62
    3
 10
2388.684599286491
 20
368.09554756684338
 11
2284.6845992864874
 21
368.09554756684338
  0
LINE
  8
_0-3_躯体と製品
  6
CONTINUOUS
 62
    3
 10
2284.6845992864874
 20
373.09554756684429
 11
2284.6845992864874
 21
368.09554756684338
  0
LINE
  8
_0-3_躯体と製品
  6
PLINE2
 62
    6
 10
2284.6845992864874
 20
368.39088756684441
 11
2284.9799392864898
 21
368.09554756684338
  0
LINE
  8
_0-3_躯体と製品
  6
CONTINUOUS
 62
    3
 10
2388.684599286491
 20
373.09554756684429
 11
2388.684599286491
 21
368.09554756684338
  0
LINE
  8
_0-3_躯体と製品
  6
CONTINUOUS
 62
    3
 10
2506.0814992864871
 20
458.3770075668433
 11
2497.6492792864919
 21
462.31204756684338
  0
ARC
  8
_0-3_躯体と製品
  6
CONTINUOUS
 62
    3
 10
2490.9814592864896
 20
474.0130475668434
 40
7.155219999999999
 50
338.73022399999701
 51
29.784968000002785
  0
LINE
  8
_0-3_躯体と製品
  6
CONTINUOUS
 62
    3
 10
2497.1914392864928
 20
477.56736756684336
 11
2496.5226392864897
 21
478.79170756684425
  0
LINE
  8
_0-3_躯体と製品
  6
CONTINUOUS
 62
    3
 10
2496.5226392864897
 20
478.79170756684425
 11
2495.6986992864895
 21
479.92622756684432
  0
LINE
  8
_0-3_躯体と製品
  6
CONTINUOUS
 62
    3
 10
2495.6986992864895
 20
479.92622756684432
 11
2494.7325992864935
 21
480.95300756684446
  0
LINE
  8
_0-3_躯体と製品
  6
CONTINUOUS
 62
    3
 10
2494.7325992864935
 20
480.95300756684446
 11
2493.6395792864878
 21
481.85586756684347
  0
LINE
  8
_0-3_躯体と製品
  6
CONTINUOUS
 62
    3
 10
2493.6395792864878
 20
481.85586756684347
 11
2492.4368592864939
 21
482.62058756684337
  0
LINE
  8
_0-3_躯体と製品
  6
CONTINUOUS
 62
    3
 10
2492.4368592864939
 20
482.62058756684337
 11
2491.1434392864921
 21
483.23508756684328
  0
LINE
  8
_0-3_躯体と製品
  6
CONTINUOUS
 62
    3
 10
2491.1434392864921
 20
483.23508756684328
 11
2489.7796992864933
 21
483.68966756684335
  0
LINE
  8
_0-3_躯体と製品
  6
CONTINUOUS
 62
    3
 10
2489.7796992864933
 20
483.68966756684335
 11
2488.367139286489
 21
483.97718756684435
  0
LINE
  8
_0-3_躯体と製品
  6
CONTINUOUS
 62
    3
 10
2488.367139286489
 20
483.97718756684435
 11
2486.928059286487
 21
484.09308756684345
  0
LINE
  8
_0-3_躯体と製品
  6
CONTINUOUS
 62
    3
 10
2486.928059286487
 20
484.09308756684345
 11
2486.6845992864946
 21
484.09554756684429
  0
LINE
  8
_0-3_躯体と製品
  6
CONTINUOUS
 62
    3
 10
2486.6845992864946
 20
484.09554756684429
 11
2485.2432792864911
 21
484.00880756684342
  0
LINE
  8
_0-3_躯体と製品
  6
CONTINUOUS
 62
    3
 10
2485.2432792864911
 20
484.00880756684342
 11
2483.8246792864938
 21
483.74996756684345
  0
LINE
  8
_0-3_躯体と製品
  6
CONTINUOUS
 62
    3
 10
2483.8246792864938
 20
483.74996756684345
 11
2482.4511792864942
 21
483.32308756684347
  0
LINE
  8
_0-3_躯体と製品
  6
CONTINUOUS
 62
    3
 10
2482.4511792864942
 20
483.32308756684347
 11
2481.144439286496
 21
482.73492756684345
  0
LINE
  8
_0-3_躯体と製品
  6
CONTINUOUS
 62
    3
 10
2481.144439286496
 20
482.73492756684345
 11
2479.9250792864896
 21
481.99474756684344
  0
LINE
  8
_0-3_躯体と製品
  6
CONTINUOUS
 62
    3
 10
2479.9250792864896
 20
481.99474756684344
 11
2478.8123192864932
 21
481.11420756684447
  0
LINE
  8
_0-3_躯体と製品
  6
CONTINUOUS
 62
    3
 10
2478.8123192864932
 20
481.11420756684447
 11
2477.8236992864968
 21
480.10720756684327
  0
LINE
  8
_0-3_躯体と製品
  6
CONTINUOUS
 62
    3
 10
2477.8236992864968
 20
480.10720756684327
 11
2476.9748392864894
 21
478.98964756684427
  0
LINE
  8
_0-3_躯体と製品
  6
CONTINUOUS
 62
    3
 10
2476.9748392864894
 20
478.98964756684427
 11
2476.2790992864884
 21
477.77912756684327
  0
LINE
  8
_0-3_躯体と製品
  6
CONTINUOUS
 62
    3
 10
2476.2790992864884
 20
477.77912756684327
 11
2476.1777792864941
 21
477.56736756684336
  0
ARC
  8
_0-3_躯体と製品
  6
CONTINUOUS
 62
    3
 10
2479.5102192864888
 20
474.32384756684246
 40
4.4509999999999987
 50
200.57807999999451
 51
206.44862599999752
  0
ARC
  8
_0-3_躯体と製品
  6
CONTINUOUS
 62
    3
 10
2482.3877592864883
 20
474.0130475668434
 40
7.155219999999999
 50
150.21503199999719
 51
190.0907490000026
  0
LINE
  8
_0-3_躯体と製品
  6
CONTINUOUS
 62
    3
 10
2467.2877192864908
 20
458.3770075668433
 11
2475.5250792864936
 21
462.22110756684333
  0
ARC
  8
_0-3_躯体と製品
  6
CONTINUOUS
 62
    3
 10
2466.0190592864856
 20
461.09554756684429
 40
3
 50
270
 51
295.01689299999992
  0
LINE
  8
_0-3_躯体と製品
  6
CONTINUOUS
 62
    3
 10
2466.0190592864856
 20
458.09554756684429
 11
2461.6845992864946
 21
458.09554756684429
  0
LINE
  8
_0-3_躯体と製品
  6
PLINE2
 62
    6
 10
2474.1072192864922
 20
461.81098756684332
 11
2449.8325792864889
 21
486.08562756684432
  0
ARC
  8
_0-3_躯体と製品
  6
CONTINUOUS
 62
    3
 10
2507.3501592864923
 20
461.09554756684429
 40
3
 50
244.98310699999996
 51
270
  0
LINE
  8
_0-3_躯体と製品
  6
CONTINUOUS
 62
    3
 10
2507.3501592864923
 20
458.09554756684429
 11
2511.6845992864946
 21
458.09554756684429
  0
LINE
  8
_0-3_躯体と製品
  6
PLINE2
 62
    6
 10
2514.8696192864936
 20
454.08598756684341
 11
2546.86925928649
 21
486.08562756684432
  0
LINE
  8
_0-3_躯体と製品
  6
CONTINUOUS
 62
    3
 10
2761.6845992864946
 20
458.09554756684429
 11
2688.6845992864928
 21
373.09554756684429
  0
LINE
  8
_0-3_躯体と製品
  6
PLINE2
 62
    6
 10
2761.2136992864926
 20
457.54722756684441
 11
2732.67527928649
 21
486.08562756684432
  0
LINE
  8
_0-3_躯体と製品
  6
PLINE2
 62
    6
 10
2744.8786192864864
 20
438.52694756684332
 11
2697.3199392864935
 21
486.08562756684432
  0
LINE
  8
_0-3_躯体と製品
  6
PLINE2
 62
    6
 10
2641.011219286489
 20
368.09554756684338
 11
2759.0012992864868
 21
486.08562756684432
  0
LINE
  8
_0-3_躯体と製品
  6
PLINE2
 62
    6
 10
2728.5435592864942
 20
419.50666756684427
 11
2661.9646192864948
 21
486.08562756684432
  0
LINE
  8
_0-3_躯体と製品
  6
PLINE2
 62
    6
 10
2712.208499286493
 20
400.4863875668434
 11
2626.6092792864893
 21
486.08562756684432
  0
LINE
  8
_0-3_躯体と製品
  6
PLINE2
 62
    6
 10
2695.8734392864917
 20
381.46610756684345
 11
2591.2539392864928
 21
486.08562756684432
  0
LINE
  8
_0-3_躯体と製品
  6
PLINE2
 62
    6
 10
2605.6558792864907
 20
368.09554756684338
 11
2723.6459592864921
 21
486.08562756684432
  0
LINE
  8
_0-3_躯体と製品
  6
CONTINUOUS
 62
    3
 10
2688.6845992864928
 20
368.09554756684338
 11
2584.6845992864892
 21
368.09554756684338
  0
LINE
  8
_0-3_躯体と製品
  6
CONTINUOUS
 62
    3
 10
2584.6845992864892
 20
373.09554756684429
 11
2584.6845992864892
 21
368.09554756684338
  0
LINE
  8
_0-3_躯体と製品
  6
CONTINUOUS
 62
    3
 10
2688.6845992864928
 20
373.09554756684429
 11
2688.6845992864928
 21
368.09554756684338
  0
LINE
  8
_0-3_躯体と製品
  6
PLINE2
 62
    6
 10
2676.3665592864927
 20
368.09554756684338
 11
2733.2027592864906
 21
424.93174756684243
  0
LINE
  8
_0-3_躯体と製品
  6
CONTINUOUS
 62
    3
 10
2884.6845992864892
 20
373.09554756684429
 11
2884.6845992864892
 21
368.09554756684338
  0
LINE
  8
_0-3_躯体と製品
  6
CONTINUOUS
 62
    3
 10
2846.6845992864946
 20
417.34212756684337
 11
2884.6845992864892
 21
373.09554756684429
  0
LINE
  8
_0-3_躯体と製品
  6
PLINE2
 62
    6
 10
2884.6845992864892
 20
369.43164756684337
 11
2886.0206992864951
 21
368.09554756684338
  0
LINE
  8
_0-3_躯体と製品
  6
CONTINUOUS
 62
    3
 10
2807.3501592864923
 20
458.09554756684429
 11
2811.6845992864946
 21
458.09554756684429
  0
LINE
  8
_0-3_躯体と製品
  6
PLINE2
 62
    6
 10
2803.3009392864951
 20
459.67458756684437
 11
2829.7119792864869
 21
486.08562756684432
  0
LINE
  8
_0-3_躯体と製品
  6
PLINE2
 62
    6
 10
2803.4913592864941
 20
486.08562756684432
 11
2826.6845992864965
 21
462.89238756684426
  0
ARC
  8
_0-3_躯体と製品
  6
CONTINUOUS
 62
    3
 10
2790.9814592864896
 20
474.0130475668434
 40
7.155219999999999
 50
338.73022399999701
 51
29.784968000002785
  0
LINE
  8
_0-3_躯体と製品
  6
CONTINUOUS
 62
    3
 10
2797.1914392864928
 20
477.56736756684336
 11
2796.5226392864897
 21
478.79170756684425
  0
LINE
  8
_0-3_躯体と製品
  6
CONTINUOUS
 62
    3
 10
2796.5226392864897
 20
478.79170756684425
 11
2795.6986992864895
 21
479.92622756684432
  0
LINE
  8
_0-3_躯体と製品
  6
CONTINUOUS
 62
    3
 10
2795.6986992864895
 20
479.92622756684432
 11
2794.7325992864935
 21
480.95300756684446
  0
LINE
  8
_0-3_躯体と製品
  6
CONTINUOUS
 62
    3
 10
2794.7325992864935
 20
480.95300756684446
 11
2793.639579286486
 21
481.85586756684347
  0
LINE
  8
_0-3_躯体と製品
  6
CONTINUOUS
 62
    3
 10
2793.639579286486
 20
481.85586756684347
 11
2792.4368592864939
 21
482.62058756684337
  0
LINE
  8
_0-3_躯体と製品
  6
CONTINUOUS
 62
    3
 10
2792.4368592864939
 20
482.62058756684337
 11
2791.143439286494
 21
483.23508756684328
  0
LINE
  8
_0-3_躯体と製品
  6
CONTINUOUS
 62
    3
 10
2791.143439286494
 20
483.23508756684328
 11
2789.7796992864951
 21
483.68966756684335
  0
LINE
  8
_0-3_躯体と製品
  6
CONTINUOUS
 62
    3
 10
2789.7796992864951
 20
483.68966756684335
 11
2788.3671392864871
 21
483.97718756684435
  0
LINE
  8
_0-3_躯体と製品
  6
CONTINUOUS
 62
    3
 10
2788.3671392864871
 20
483.97718756684435
 11
2786.9280592864889
 21
484.09308756684345
  0
LINE
  8
_0-3_躯体と製品
  6
CONTINUOUS
 62
    3
 10
2786.9280592864889
 20
484.09308756684345
 11
2786.6845992864946
 21
484.09554756684429
  0
LINE
  8
_0-3_躯体と製品
  6
CONTINUOUS
 62
    3
 10
2786.6845992864946
 20
484.09554756684429
 11
2785.2432792864911
 21
484.00880756684342
  0
LINE
  8
_0-3_躯体と製品
  6
CONTINUOUS
 62
    3
 10
2785.2432792864911
 20
484.00880756684342
 11
2783.8246792864938
 21
483.74996756684345
  0
LINE
  8
_0-3_躯体と製品
  6
CONTINUOUS
 62
    3
 10
2783.8246792864938
 20
483.74996756684345
 11
2782.4511792864942
 21
483.32308756684347
  0
LINE
  8
_0-3_躯体と製品
  6
CONTINUOUS
 62
    3
 10
2782.4511792864942
 20
483.32308756684347
 11
2781.1444392864942
 21
482.73492756684345
  0
LINE
  8
_0-3_躯体と製品
  6
CONTINUOUS
 62
    3
 10
2781.1444392864942
 20
482.73492756684345
 11
2779.9250792864896
 21
481.99474756684344
  0
LINE
  8
_0-3_躯体と製品
  6
CONTINUOUS
 62
    3
 10
2779.9250792864896
 20
481.99474756684344
 11
2778.812319286495
 21
481.11420756684447
  0
LINE
  8
_0-3_躯体と製品
  6
CONTINUOUS
 62
    3
 10
2778.812319286495
 20
481.11420756684447
 11
2777.823699286495
 21
480.10720756684327
  0
LINE
  8
_0-3_躯体と製品
  6
CONTINUOUS
 62
    3
 10
2777.823699286495
 20
480.10720756684327
 11
2776.9748392864913
 21
478.98964756684427
  0
LINE
  8
_0-3_躯体と製品
  6
CONTINUOUS
 62
    3
 10
2776.9748392864913
 20
478.98964756684427
 11
2776.2790992864884
 21
477.77912756684327
  0
LINE
  8
_0-3_躯体と製品
  6
CONTINUOUS
 62
    3
 10
2776.2790992864884
 20
477.77912756684327
 11
2776.1777792864941
 21
477.56736756684336
  0
ARC
  8
_0-3_躯体と製品
  6
CONTINUOUS
 62
    3
 10
2779.5102192864888
 20
474.32384756684246
 40
4.4509999999999987
 50
200.57807999999451
 51
206.44862599999752
  0
ARC
  8
_0-3_躯体と製品
  6
CONTINUOUS
 62
    3
 10
2782.3877592864883
 20
474.0130475668434
 40
7.155219999999999
 50
150.21503199999719
 51
190.0907490000026
  0
LINE
  8
_0-3_躯体と製品
  6
CONTINUOUS
 62
    3
 10
2806.0814992864871
 20
458.3770075668433
 11
2797.6492792864919
 21
462.31204756684338
  0
ARC
  8
_0-3_躯体と製品
  6
CONTINUOUS
 62
    3
 10
2807.3501592864923
 20
461.09554756684429
 40
3
 50
244.98310699999996
 51
270
  0
LINE
  8
_0-3_躯体と製品
  6
CONTINUOUS
 62
    3
 10
2767.2877192864908
 20
458.3770075668433
 11
2775.5250792864936
 21
462.22110756684333
  0
ARC
  8
_0-3_躯体と製品
  6
CONTINUOUS
 62
    3
 10
2766.0190592864856
 20
461.09554756684429
 40
3
 50
270
 51
295.01689299999992
  0
LINE
  8
_0-3_躯体と製品
  6
CONTINUOUS
 62
    3
 10
2766.0190592864856
 20
458.09554756684429
 11
2761.6845992864946
 21
458.09554756684429
  0
LINE
  8
_0-3_躯体と製品
  6
PLINE2
 62
    6
 10
2766.6141792864928
 20
458.34316756684348
 11
2775.5250792864936
 21
467.25408756684328
  0
LINE
  8
_0-3_躯体と製品
  6
CONTINUOUS
 62
    3
 10
2811.6845992864946
 20
458.09554756684429
 11
2826.6845992864965
 21
440.62980756684328
  0
LINE
  8
_0-3_躯体と製品
  6
PLINE2
 62
    6
 10
2846.6845992864946
 20
467.7029275668433
 11
2865.0672992864893
 21
486.08562756684432
  0
LINE
  8
_0-3_躯体と製品
  6
CONTINUOUS
 62
    4
 10
2701.6845992864946
 20
558.97148756684328
 11
2701.6845992864946
 21
658.47148756684442
  0
LINE
  8
_0-3_躯体と製品
  6
CONTINUOUS
 62
    4
 10
2651.6845992864946
 20
658.47148756684442
 11
2651.6845992864946
 21
558.97148756684328
  0
LINE
  8
_0-3_躯体と製品
  6
CONTINUOUS
 62
    4
 10
2651.6845992864946
 20
558.97148756684328
 11
2701.6845992864946
 21
558.97148756684328
  0
LINE
  8
_0-3_躯体と製品
  6
CONTINUOUS
 62
    3
 10
2664.1845992864946
 20
599.79380756684327
 11
2689.1845992864946
 21
599.79380756684327
  0
LINE
  8
_0-3_躯体と製品
  6
CONTINUOUS
 62
    3
 10
2664.1845992864946
 20
637.48342756684428
 11
2689.1845992864946
 21
637.48342756684428
  0
LINE
  8
_0-3_躯体と製品
  6
CONTINUOUS
 62
    3
 10
2664.1845992864946
 20
704.34546756684335
 11
2689.1845992864946
 21
704.34546756684335
  0
LINE
  8
_0-3_躯体と製品
  6
CONTINUOUS
 62
    3
 10
2664.1845992864946
 20
769.23328756684441
 11
2689.1845992864946
 21
769.23328756684441
  0
LINE
  8
_0-3_躯体と製品
  6
CONTINUOUS
 62
    3
 10
2664.1845992864946
 20
844.20246756684446
 11
2689.1845992864946
 21
844.20246756684446
  0
LINE
  8
_0-3_躯体と製品
  6
CONTINUOUS
 62
    3
 10
2664.1845992864946
 20
903.47714756684331
 11
2689.1845992864946
 21
903.47714756684331
  0
LINE
  8
_0-3_躯体と製品
  6
CONTINUOUS
 62
    3
 10
2664.1845992864946
 20
969.43304756684438
 11
2689.1845992864946
 21
969.43304756684438
  0
LINE
  8
_0-3_躯体と製品
  6
PLINE5
 62
    4
 10
2271.6845992864946
 20
1875.9714875668435
 11
2826.6845992864965
 21
1875.9714875668435
  0
LINE
  8
_0-3_躯体と製品
  6
CONTINUOUS
 62
    4
 10
2271.6845992864946
 20
1651.1300075668437
 11
2826.6845992864965
 21
1651.1300075668437
  0
LINE
  8
_0-3_躯体と製品
  6
CONTINUOUS
 62
    4
 10
2271.6845992864946
 20
1690.479587566844
 11
2826.6845992864965
 21
1690.479587566844
  0
LINE
  8
_0-3_躯体と製品
  6
CONTINUOUS
 62
    4
 10
2271.6845992864946
 20
1848.9714875668431
 11
2826.6845992864965
 21
1848.9714875668431
  0
LINE
  8
_0-3_躯体と製品
  6
CONTINUOUS
 62
    4
 10
2271.6845992864946
 20
1888.9714875668433
 11
2826.6845992864965
 21
1888.9714875668433
  0
LINE
  8
_0-3_躯体と製品
  6
CONTINUOUS
 62
    4
 10
1861.6845992864946
 20
1499.3427675668424
 11
1861.6845992864946
 21
1848.9714875668431
  0
LINE
  8
_0-3_躯体と製品
  6
CONTINUOUS
 62
    4
 10
2241.6845992864928
 20
1211.1482275668429
 11
1861.6845992864946
 21
1211.1482275668429
  0
LINE
  8
_0-3_躯体と製品
  6
CONTINUOUS
 62
    4
 10
1861.6845992864946
 20
1226.7468675668435
 11
2241.6845992864928
 21
1226.7468675668435
  0
LINE
  8
_0-3_躯体と製品
  6
CONTINUOUS
 62
    4
 10
2241.6845992864928
 20
1314.2572275668435
 11
1861.6845992864946
 21
1314.2572275668435
  0
LINE
  8
_0-3_躯体と製品
  6
CONTINUOUS
 62
    4
 10
1867.6845992864892
 20
1329.2572275668435
 11
2241.6845992864928
 21
1329.2572275668435
  0
LINE
  8
_0-3_躯体と製品
  6
CONTINUOUS
 62
    7
 10
1686.6845992864928
 20
1499.3427675668424
 11
2241.6845992864928
 21
1499.3427675668424
  0
LINE
  8
_0-3_躯体と製品
  6
CONTINUOUS
 62
    4
 10
1867.6845992864892
 20
1323.2572275668433
 11
1867.6845992864892
 21
1496.3427675668429
  0
LINE
  8
_0-3_躯体と製品
  6
PLINE5
 62
    4
 10
1861.6845992864946
 20
1493.3427675668433
 11
1861.6845992864946
 21
1323.2572275668433
  0
LINE
  8
_0-3_躯体と製品
  6
CONTINUOUS
 62
    4
 10
1823.6845992864946
 20
1279.2572275668435
 11
1823.6845992864946
 21
1493.3427675668433
  0
LINE
  8
_0-3_躯体と製品
  6
CONTINUOUS
 62
    3
 10
1805.1845992864892
 20
1360.3212275668436
 11
1830.1845992864892
 21
1360.3212275668436
  0
LINE
  8
_0-3_躯体と製品
  6
CONTINUOUS
 62
    3
 10
1805.1845992864892
 20
1305.2226275668436
 11
1830.1845992864892
 21
1305.2226275668436
  0
LINE
  8
_0-3_躯体と製品
  6
CONTINUOUS
 62
    4
 10
1817.6845992864892
 20
1329.2572275668435
 11
1861.6845992864946
 21
1329.2572275668435
  0
LINE
  8
_0-3_躯体と製品
  6
CONTINUOUS
 62
    4
 10
1817.6845992864892
 20
1279.2572275668435
 11
1823.6845992864946
 21
1279.2572275668435
  0
LINE
  8
_0-3_躯体と製品
  6
CONTINUOUS
 62
    4
 10
1686.6845992864928
 20
1211.1482275668429
 11
1811.6845992864928
 21
1211.1482275668429
  0
LINE
  8
_0-3_躯体と製品
  6
CONTINUOUS
 62
    4
 10
1686.6845992864928
 20
1226.7468675668435
 11
1811.6845992864928
 21
1226.7468675668435
  0
LINE
  8
_0-3_躯体と製品
  6
CONTINUOUS
 62
    4
 10
1686.6845992864928
 20
1314.2572275668435
 11
1811.6845992864928
 21
1314.2572275668435
  0
LINE
  8
_0-3_躯体と製品
  6
CONTINUOUS
 62
    4
 10
1686.6845992864928
 20
1329.2572275668435
 11
1811.6845992864928
 21
1329.2572275668435
  0
LINE
  8
_0-3_躯体と製品
  6
PLINE2
 62
    4
 10
1867.6845992864892
 20
1323.2572275668433
 11
1823.6845992864946
 21
1323.2572275668433
  0
LINE
  8
_0-3_躯体と製品
  6
CONTINUOUS
 62
    4
 10
1811.6845992864928
 20
1391.4780675668435
 11
1817.6845992864892
 21
1391.4780675668435
  0
LINE
  8
_0-3_躯体と製品
  6
CONTINUOUS
 62
    4
 10
1864.6845992864874
 20
1493.3427675668433
 11
1823.6845992864946
 21
1493.3427675668433
  0
ARC
  8
_0-3_躯体と製品
  6
CONTINUOUS
 62
    4
 10
1864.6845992864874
 20
1496.3427675668429
 40
3
 50
270
 51
0
  0
LINE
  8
_0-3_躯体と製品
  6
CONTINUOUS
 62
    4
 10
1867.6845992864892
 20
1496.3427675668429
 11
1867.6845992864892
 21
1499.3427675668424
  0
LINE
  8
_0-3_躯体と製品
  6
CONTINUOUS
 62
    4
 10
1686.6845992864928
 20
1875.9714875668435
 11
2241.6845992864928
 21
1875.9714875668435
  0
LINE
  8
_0-3_躯体と製品
  6
CONTINUOUS
 62
    4
 10
1861.6845992864946
 20
1690.479587566844
 11
2241.6845992864928
 21
1690.479587566844
  0
LINE
  8
_0-3_躯体と製品
  6
CONTINUOUS
 62
    4
 10
1686.6845992864928
 20
1848.9714875668431
 11
2241.6845992864928
 21
1848.9714875668431
  0
LINE
  8
_0-3_躯体と製品
  6
CONTINUOUS
 62
    4
 10
1686.6845992864928
 20
1888.9714875668433
 11
2241.6845992864928
 21
1888.9714875668433
  0
LINE
  8
_0-3_躯体と製品
  6
CONTINUOUS
 62
    4
 10
1686.6845992864928
 20
1690.479587566844
 11
1811.6845992864928
 21
1690.479587566844
  0
LINE
  8
_0-3_躯体と製品
  6
CONTINUOUS
 62
    4
 10
1861.6845992864946
 20
1842.971487566844
 11
1817.6845992864892
 21
1842.971487566844
  0
LINE
  8
_0-3_躯体と製品
  6
CONTINUOUS
 62
    3
 10
2664.1845992864946
 20
1183.2760075668443
 11
2689.1845992864946
 21
1183.2760075668443
  0
LINE
  8
_0-3_躯体と製品
  6
CONTINUOUS
 62
    3
 10
2664.1845992864946
 20
1407.0651475668437
 11
2689.1845992864946
 21
1407.0651475668437
  0
LINE
  8
_0-3_躯体と製品
  6
CONTINUOUS
 62
    3
 10
2664.1845992864946
 20
1620.9081075668446
 11
2689.1845992864946
 21
1620.9081075668446
  0
LINE
  8
_0-3_躯体と製品
  6
CONTINUOUS
 62
    3
 10
2664.1845992864946
 20
1745.4465075668434
 11
2689.1845992864946
 21
1745.4465075668434
  0
LINE
  8
_0-3_躯体と製品
  6
CONTINUOUS
 62
    3
 10
2664.1845992864946
 20
1794.5594275668434
 11
2689.1845992864946
 21
1794.5594275668434
  0
LINE
  8
_0-3_躯体と製品
  6
CONTINUOUS
 62
    3
 10
2664.1845992864946
 20
1841.489507566843
 11
2689.1845992864946
 21
1841.489507566843
  0
LINE
  8
_0-4_図面枠
  6
CONTINUOUS
 62
    3
 10
2997.03385928649
 20
1614.7150275668439
 11
3258.7705992864921
 21
1161.3737075668444
  0
LINE
  8
_0-3_躯体と製品
  6
CONTINUOUS
 62
    7
 10
3186.684599286491
 20
1888.9714875668433
 11
3186.684599286491
 21
499.43144756684433
  0
LINE
  8
_0-3_躯体と製品
  6
CONTINUOUS
 62
    3
 10
3588.684599286491
 20
437.97148756684442
 11
3484.6845992864819
 21
437.97148756684442
  0
LINE
  8
_0-4_図面枠
  6
CONTINUOUS
 62
    3
 10
3258.7705992864921
 20
1161.3737075668444
 11
3524.2416992864819
 21
1161.3737075668444
  0
LINE
  8
_0-3_躯体と製品
  6
CONTINUOUS
 62
    3
 10
3288.684599286491
 20
368.09554756684338
 11
3184.6845992864819
 21
368.09554756684338
  0
LINE
  8
_0-3_躯体と製品
  6
PLINE2
 62
    6
 10
3098.1347392864936
 20
474.17956756684339
 11
3204.1215392864906
 21
368.19276756684235
  0
LINE
  8
_0-3_躯体と製品
  6
PLINE2
 62
    6
 10
3274.4803392864815
 20
368.54464756684342
 11
3156.9393592864926
 21
486.08562756684432
  0
LINE
  8
_0-3_躯体と製品
  6
PLINE2
 62
    6
 10
3239.3009392864806
 20
368.36870756684425
 11
3121.5840192864871
 21
486.08562756684432
  0
LINE
  8
_0-3_躯体と製品
  6
PLINE2
 62
    6
 10
3180.6314592864819
 20
377.3857075668443
 11
3289.331379286481
 21
486.08562756684432
  0
LINE
  8
_0-3_躯体と製品
  6
PLINE2
 62
    6
 10
3164.4690192864909
 20
396.5786075668434
 11
3253.9760392864919
 21
486.08562756684432
  0
LINE
  8
_0-3_躯体と製品
  6
PLINE2
 62
    6
 10
3148.2437792864912
 20
415.70870756684326
 11
3218.6206992864809
 21
486.08562756684432
  0
LINE
  8
_0-3_躯体と製品
  6
CONTINUOUS
 62
    3
 10
3186.684599286491
 20
555.96782756684433
 11
3426.684599286491
 21
555.96782756684433
  0
LINE
  8
_0-3_躯体と製品
  6
CONTINUOUS
 62
    3
 10
3061.6845992864946
 20
458.09554756684429
 11
2988.6845992864928
 21
373.09554756684429
  0
LINE
  8
_0-3_躯体と製品
  6
PLINE2
 62
    6
 10
3053.2865792864905
 20
448.31702756684444
 11
3015.5179992864887
 21
486.08562756684432
  0
LINE
  8
_0-3_躯体と製品
  6
PLINE2
 62
    6
 10
2959.1266192864932
 20
368.01288756684426
 11
3077.1993392864952
 21
486.08562756684432
  0
LINE
  8
_0-3_躯体と製品
  6
PLINE2
 62
    6
 10
2923.5487192864857
 20
367.79032756684342
 11
3041.8439992864878
 21
486.08562756684432
  0
LINE
  8
_0-3_躯体と製品
  6
PLINE2
 62
    6
 10
3036.9515192864892
 20
429.29676756684239
 11
2980.1626592864941
 21
486.08562756684432
  0
LINE
  8
_0-3_躯体と製品
  6
PLINE2
 62
    6
 10
3020.616459286488
 20
410.27648756684334
 11
2944.8073192864867
 21
486.08562756684432
  0
LINE
  8
_0-3_躯体と製品
  6
PLINE2
 62
    6
 10
3004.2813992864867
 20
391.25620756684339
 11
2909.4519792864903
 21
486.08562756684432
  0
LINE
  8
_0-3_躯体と製品
  6
PLINE2
 62
    6
 10
2887.9708192864891
 20
367.56776756684326
 11
3006.4886592864914
 21
486.08562756684432
  0
LINE
  8
_0-3_躯体と製品
  6
CONTINUOUS
 62
    3
 10
2988.6845992864928
 20
373.09554756684429
 11
2988.6845992864928
 21
368.09554756684338
  0
LINE
  8
_0-3_躯体と製品
  6
CONTINUOUS
 62
    3
 10
3111.6845992864946
 20
458.09554756684429
 11
3184.6845992864819
 21
373.09554756684429
  0
LINE
  8
_0-3_躯体と製品
  6
CONTINUOUS
 62
    3
 10
3184.6845992864819
 20
373.09554756684429
 11
3184.6845992864819
 21
368.09554756684338
  0
LINE
  8
_0-3_躯体と製品
  6
CONTINUOUS
 62
    3
 10
3106.0814992864871
 20
458.3770075668433
 11
3097.6492792864938
 21
462.31204756684338
  0
ARC
  8
_0-3_躯体と製品
  6
CONTINUOUS
 62
    3
 10
3107.3501592864923
 20
461.09554756684429
 40
3
 50
244.98310699999996
 51
270
  0
LINE
  8
_0-3_躯体と製品
  6
CONTINUOUS
 62
    3
 10
3107.3501592864923
 20
458.09554756684429
 11
3111.6845992864946
 21
458.09554756684429
  0
ARC
  8
_0-3_躯体と製品
  6
CONTINUOUS
 62
    3
 10
3090.9814592864896
 20
474.0130475668434
 40
7.155219999999999
 50
338.73022399999701
 51
29.784968000002785
  0
LINE
  8
_0-3_躯体と製品
  6
CONTINUOUS
 62
    3
 10
3097.1914392864928
 20
477.56736756684336
 11
3096.5226392864897
 21
478.79170756684425
  0
LINE
  8
_0-3_躯体と製品
  6
CONTINUOUS
 62
    3
 10
3096.5226392864897
 20
478.79170756684425
 11
3095.6986992864877
 21
479.92622756684432
  0
LINE
  8
_0-3_躯体と製品
  6
CONTINUOUS
 62
    3
 10
3095.6986992864877
 20
479.92622756684432
 11
3094.7325992864953
 21
480.95300756684446
  0
LINE
  8
_0-3_躯体と製品
  6
CONTINUOUS
 62
    3
 10
3094.7325992864953
 20
480.95300756684446
 11
3093.639579286486
 21
481.85586756684347
  0
LINE
  8
_0-3_躯体と製品
  6
CONTINUOUS
 62
    3
 10
3093.639579286486
 20
481.85586756684347
 11
3092.4368592864957
 21
482.62058756684337
  0
LINE
  8
_0-3_躯体と製品
  6
CONTINUOUS
 62
    3
 10
3092.4368592864957
 20
482.62058756684337
 11
3091.1434392864921
 21
483.23508756684328
  0
LINE
  8
_0-3_躯体と製品
  6
CONTINUOUS
 62
    3
 10
3091.1434392864921
 20
483.23508756684328
 11
3089.7796992864951
 21
483.68966756684335
  0
LINE
  8
_0-3_躯体と製品
  6
CONTINUOUS
 62
    3
 10
3089.7796992864951
 20
483.68966756684335
 11
3088.3671392864871
 21
483.97718756684435
  0
LINE
  8
_0-3_躯体と製品
  6
CONTINUOUS
 62
    3
 10
3088.3671392864871
 20
483.97718756684435
 11
3086.928059286487
 21
484.09308756684345
  0
LINE
  8
_0-3_躯体と製品
  6
CONTINUOUS
 62
    3
 10
3086.928059286487
 20
484.09308756684345
 11
3086.6845992864946
 21
484.09554756684429
  0
LINE
  8
_0-3_躯体と製品
  6
CONTINUOUS
 62
    3
 10
3067.2877192864908
 20
458.3770075668433
 11
3075.5250792864936
 21
462.22110756684333
  0
ARC
  8
_0-3_躯体と製品
  6
CONTINUOUS
 62
    3
 10
3066.0190592864856
 20
461.09554756684429
 40
3
 50
270
 51
295.01689299999992
  0
LINE
  8
_0-3_躯体と製品
  6
CONTINUOUS
 62
    3
 10
3066.0190592864856
 20
458.09554756684429
 11
3061.6845992864946
 21
458.09554756684429
  0
LINE
  8
_0-3_躯体と製品
  6
CONTINUOUS
 62
    3
 10
3086.6845992864946
 20
484.09554756684429
 11
3085.2432792864911
 21
484.00880756684342
  0
LINE
  8
_0-3_躯体と製品
  6
CONTINUOUS
 62
    3
 10
3085.2432792864911
 20
484.00880756684342
 11
3083.8246792864957
 21
483.74996756684345
  0
LINE
  8
_0-3_躯体と製品
  6
CONTINUOUS
 62
    3
 10
3083.8246792864957
 20
483.74996756684345
 11
3082.451179286496
 21
483.32308756684347
  0
LINE
  8
_0-3_躯体と製品
  6
CONTINUOUS
 62
    3
 10
3082.451179286496
 20
483.32308756684347
 11
3081.144439286496
 21
482.73492756684345
  0
LINE
  8
_0-3_躯体と製品
  6
CONTINUOUS
 62
    3
 10
3081.144439286496
 20
482.73492756684345
 11
3079.9250792864914
 21
481.99474756684344
  0
LINE
  8
_0-3_躯体と製品
  6
CONTINUOUS
 62
    3
 10
3079.9250792864914
 20
481.99474756684344
 11
3078.8123192864932
 21
481.11420756684447
  0
LINE
  8
_0-3_躯体と製品
  6
CONTINUOUS
 62
    3
 10
3078.8123192864932
 20
481.11420756684447
 11
3077.823699286495
 21
480.10720756684327
  0
LINE
  8
_0-3_躯体と製品
  6
CONTINUOUS
 62
    3
 10
3077.823699286495
 20
480.10720756684327
 11
3076.9748392864876
 21
478.98964756684427
  0
LINE
  8
_0-3_躯体と製品
  6
CONTINUOUS
 62
    3
 10
3076.9748392864876
 20
478.98964756684427
 11
3076.2790992864902
 21
477.77912756684327
  0
LINE
  8
_0-3_躯体と製品
  6
CONTINUOUS
 62
    3
 10
3076.2790992864902
 20
477.77912756684327
 11
3076.1777792864941
 21
477.56736756684336
  0
ARC
  8
_0-3_躯体と製品
  6
CONTINUOUS
 62
    3
 10
3079.5102192864906
 20
474.32384756684246
 40
4.4509999999999987
 50
200.57807999999451
 51
206.44862599999752
  0
ARC
  8
_0-3_躯体と製品
  6
CONTINUOUS
 62
    3
 10
3082.3877592864883
 20
474.0130475668434
 40
7.155219999999999
 50
150.21503199999719
 51
190.0907490000026
  0
LINE
  8
_0-3_躯体と製品
  6
PLINE2
 62
    6
 10
3097.6492792864938
 20
471.18022756684445
 11
3112.5546792864916
 21
486.08562756684432
  0
LINE
  8
_0-3_躯体と製品
  6
PLINE2
 62
    6
 10
3088.8669392864958
 20
483.44736756684347
 11
3086.2286792864925
 21
486.08562756684432
  0
LINE
  8
_0-3_躯体と製品
  6
PLINE2
 62
    6
 10
3074.8857392864957
 20
462.07322756684425
 11
3050.8733392864942
 21
486.08562756684432
  0
LINE
  8
_0-3_躯体と製品
  6
PLINE2
 62
    6
 10
3131.9796792864909
 20
434.79994756684346
 11
3183.2653592864808
 21
486.08562756684432
  0
LINE
  8
_0-3_躯体と製品
  6
PLINE2
 62
    6
 10
3115.7155592864947
 20
453.89116756684325
 11
3147.9100192864862
 21
486.08562756684432
  0
LINE
  8
_0-3_躯体と製品
  6
CONTINUOUS
 62
    4
 10
3021.6845992864965
 20
558.97148756684328
 11
3021.6845992864965
 21
658.47148756684442
  0
LINE
  8
_0-3_躯体と製品
  6
CONTINUOUS
 62
    4
 10
2971.6845992864946
 20
658.47148756684442
 11
2971.6845992864946
 21
558.97148756684328
  0
LINE
  8
_0-3_躯体と製品
  6
CONTINUOUS
 62
    3
 10
2984.1845992864946
 20
637.48342756684428
 11
3009.1845992864946
 21
637.48342756684428
  0
LINE
  8
_0-3_躯体と製品
  6
CONTINUOUS
 62
    3
 10
2984.1845992864946
 20
599.79380756684327
 11
3009.1845992864946
 21
599.79380756684327
  0
LINE
  8
_0-3_躯体と製品
  6
CONTINUOUS
 62
    4
 10
2971.6845992864946
 20
558.97148756684328
 11
3021.6845992864965
 21
558.97148756684328
  0
LINE
  8
_0-3_躯体と製品
  6
CONTINUOUS
 62
    3
 10
2984.1845992864946
 20
704.34546756684335
 11
3009.1845992864946
 21
704.34546756684335
  0
LINE
  8
_0-3_躯体と製品
  6
CONTINUOUS
 62
    3
 10
3426.684599286491
 20
555.96782756684433
 11
3426.684599286491
 21
486.08562756684432
  0
LINE
  8
_0-3_躯体と製品
  6
CONTINUOUS
 62
    3
 10
3426.684599286491
 20
555.96782756684433
 11
3460.0274592864807
 21
483.24744756684345
  0
LINE
  8
_0-3_躯体と製品
  6
CONTINUOUS
 62
    3
 10
3361.684599286491
 20
458.09554756684429
 11
3288.684599286491
 21
373.09554756684429
  0
LINE
  8
_0-3_躯体と製品
  6
PLINE2
 62
    6
 10
3361.7012792864916
 20
458.1004075668443
 11
3333.7160592864911
 21
486.08562756684432
  0
LINE
  8
_0-3_躯体と製品
  6
PLINE2
 62
    6
 10
3345.3594792864915
 20
439.08684756684329
 11
3298.360719286482
 21
486.08562756684432
  0
LINE
  8
_0-3_躯体と製品
  6
PLINE2
 62
    6
 10
3242.782199286481
 20
368.8257675668433
 11
3360.0420592864921
 21
486.08562756684432
  0
LINE
  8
_0-3_躯体と製品
  6
PLINE2
 62
    6
 10
3329.024419286492
 20
420.06656756684333
 11
3263.005379286491
 21
486.08562756684432
  0
LINE
  8
_0-3_躯体と製品
  6
PLINE2
 62
    6
 10
3312.6893592864817
 20
401.04628756684338
 11
3227.6500392864909
 21
486.08562756684432
  0
LINE
  8
_0-3_躯体と製品
  6
PLINE2
 62
    6
 10
3296.3542992864823
 20
382.02602756684428
 11
3192.2946992864818
 21
486.08562756684432
  0
LINE
  8
_0-3_躯体と製品
  6
PLINE2
 62
    6
 10
3207.5879192864923
 20
368.98682756684343
 11
3324.686719286492
 21
486.08562756684432
  0
LINE
  8
_0-3_躯体と製品
  6
CONTINUOUS
 62
    3
 10
3288.684599286491
 20
373.09554756684429
 11
3288.684599286491
 21
368.09554756684338
  0
LINE
  8
_0-3_躯体と製品
  6
PLINE2
 62
    6
 10
3277.9764592864922
 20
368.66468756684344
 11
3328.780939286491
 21
419.46916756684436
  0
LINE
  8
_0-3_躯体と製品
  6
CONTINUOUS
 62
    3
 10
3460.0274592864807
 20
413.36524756684344
 11
3460.0274592864807
 21
483.24744756684345
  0
LINE
  8
_0-3_躯体と製品
  6
CONTINUOUS
 62
    3
 10
3462.606619286491
 20
398.80916756684337
 11
3462.606619286491
 21
468.69136756684338
  0
LINE
  8
_0-3_躯体と製品
  6
CONTINUOUS
 62
    7
 10
3426.684599286491
 20
486.08562756684432
 11
3460.0274592864807
 21
413.36524756684344
  0
LINE
  8
_0-3_躯体と製品
  6
CONTINUOUS
 62
    7
 10
3460.0274592864807
 20
413.36524756684344
 11
3462.606619286491
 21
398.80916756684337
  0
ARC
  8
_0-3_躯体と製品
  6
CONTINUOUS
 62
    3
 10
3390.9814592864823
 20
474.0130475668434
 40
7.155219999999999
 50
338.73022399999701
 51
29.784968000002785
  0
LINE
  8
_0-3_躯体と製品
  6
CONTINUOUS
 62
    3
 10
3397.191439286491
 20
477.56736756684336
 11
3396.5226392864806
 21
478.79170756684425
  0
LINE
  8
_0-3_躯体と製品
  6
CONTINUOUS
 62
    3
 10
3396.5226392864806
 20
478.79170756684425
 11
3395.6986992864822
 21
479.92622756684432
  0
LINE
  8
_0-3_躯体と製品
  6
CONTINUOUS
 62
    3
 10
3395.6986992864822
 20
479.92622756684432
 11
3394.7325992864917
 21
480.95300756684446
  0
LINE
  8
_0-3_躯体と製品
  6
CONTINUOUS
 62
    3
 10
3394.7325992864917
 20
480.95300756684446
 11
3393.6395792864805
 21
481.85586756684347
  0
LINE
  8
_0-3_躯体と製品
  6
CONTINUOUS
 62
    3
 10
3393.6395792864805
 20
481.85586756684347
 11
3392.4368592864921
 21
482.62058756684337
  0
LINE
  8
_0-3_躯体と製品
  6
CONTINUOUS
 62
    3
 10
3392.4368592864921
 20
482.62058756684337
 11
3391.1434392864921
 21
483.23508756684328
  0
LINE
  8
_0-3_躯体と製品
  6
CONTINUOUS
 62
    3
 10
3391.1434392864921
 20
483.23508756684328
 11
3389.7796992864915
 21
483.68966756684335
  0
LINE
  8
_0-3_躯体と製品
  6
CONTINUOUS
 62
    3
 10
3389.7796992864915
 20
483.68966756684335
 11
3388.3671392864817
 21
483.97718756684435
  0
LINE
  8
_0-3_躯体と製品
  6
CONTINUOUS
 62
    3
 10
3388.3671392864817
 20
483.97718756684435
 11
3386.9280592864816
 21
484.09308756684345
  0
LINE
  8
_0-3_躯体と製品
  6
CONTINUOUS
 62
    3
 10
3386.9280592864816
 20
484.09308756684345
 11
3386.684599286491
 21
484.09554756684429
  0
LINE
  8
_0-3_躯体と製品
  6
CONTINUOUS
 62
    3
 10
3386.684599286491
 20
484.09554756684429
 11
3385.2432792864911
 21
484.00880756684342
  0
LINE
  8
_0-3_躯体と製品
  6
CONTINUOUS
 62
    3
 10
3385.2432792864911
 20
484.00880756684342
 11
3383.824679286492
 21
483.74996756684345
  0
LINE
  8
_0-3_躯体と製品
  6
CONTINUOUS
 62
    3
 10
3383.824679286492
 20
483.74996756684345
 11
3382.4511792864905
 21
483.32308756684347
  0
LINE
  8
_0-3_躯体と製品
  6
CONTINUOUS
 62
    3
 10
3382.4511792864905
 20
483.32308756684347
 11
3381.1444392864905
 21
482.73492756684345
  0
LINE
  8
_0-3_躯体と製品
  6
CONTINUOUS
 62
    3
 10
3381.1444392864905
 20
482.73492756684345
 11
3379.9250792864823
 21
481.99474756684344
  0
LINE
  8
_0-3_躯体と製品
  6
CONTINUOUS
 62
    3
 10
3379.9250792864823
 20
481.99474756684344
 11
3378.8123192864914
 21
481.11420756684447
  0
LINE
  8
_0-3_躯体と製品
  6
CONTINUOUS
 62
    3
 10
3378.8123192864914
 20
481.11420756684447
 11
3377.8236992864913
 21
480.10720756684327
  0
LINE
  8
_0-3_躯体と製品
  6
CONTINUOUS
 62
    3
 10
3377.8236992864913
 20
480.10720756684327
 11
3376.9748392864822
 21
478.98964756684427
  0
LINE
  8
_0-3_躯体と製品
  6
CONTINUOUS
 62
    3
 10
3376.9748392864822
 20
478.98964756684427
 11
3376.2790992864811
 21
477.77912756684327
  0
LINE
  8
_0-3_躯体と製品
  6
CONTINUOUS
 62
    3
 10
3376.2790992864811
 20
477.77912756684327
 11
3376.1777792864923
 21
477.56736756684336
  0
ARC
  8
_0-3_躯体と製品
  6
CONTINUOUS
 62
    3
 10
3379.5102192864815
 20
474.32384756684246
 40
4.4509999999999987
 50
200.57807999999451
 51
206.44862599999752
  0
ARC
  8
_0-3_躯体と製品
  6
CONTINUOUS
 62
    3
 10
3382.387759286481
 20
474.0130475668434
 40
7.155219999999999
 50
150.21503199999719
 51
190.0907490000026
  0
LINE
  8
_0-3_躯体と製品
  6
CONTINUOUS
 62
    3
 10
3406.0814992864816
 20
458.3770075668433
 11
3393.4159592864817
 21
464.28758756684329
  0
ARC
  8
_0-3_躯体と製品
  6
CONTINUOUS
 62
    3
 10
3407.3501592864923
 20
461.09554756684429
 40
3
 50
244.98310699999996
 51
270
  0
LINE
  8
_0-3_躯体と製品
  6
CONTINUOUS
 62
    3
 10
3407.3501592864923
 20
458.09554756684429
 11
3411.684599286491
 21
458.09554756684429
  0
LINE
  8
_0-3_躯体と製品
  6
CONTINUOUS
 62
    3
 10
3367.2877192864817
 20
458.3770075668433
 11
3379.9532592864816
 21
464.28758756684329
  0
ARC
  8
_0-3_躯体と製品
  6
CONTINUOUS
 62
    3
 10
3366.0190592864819
 20
461.09554756684429
 40
3
 50
270
 51
295.01689299999992
  0
LINE
  8
_0-3_躯体と製品
  6
CONTINUOUS
 62
    3
 10
3366.0190592864819
 20
458.09554756684429
 11
3361.684599286491
 21
458.09554756684429
  0
LINE
  8
_0-3_躯体と製品
  6
PLINE2
 62
    6
 10
3376.2830392864907
 20
478.87396756684439
 11
3369.0713992864821
 21
486.08562756684432
  0
LINE
  8
_0-3_躯体と製品
  6
PLINE2
 62
    6
 10
3368.8101592864823
 20
459.49838756684335
 11
3378.9679392864819
 21
469.65618756684444
  0
LINE
  8
_0-3_躯体と製品
  6
CONTINUOUS
 62
    3
 10
3484.6845992864819
 20
442.97148756684442
 11
3484.6845992864819
 21
437.97148756684442
  0
LINE
  8
_0-3_躯体と製品
  6
CONTINUOUS
 62
    3
 10
3462.606619286491
 20
468.67874756684341
 11
3484.6845992864819
 21
442.97148756684442
  0
LINE
  8
_0-3_躯体と製品
  6
CONTINUOUS
 62
    3
 10
3460.0274592864807
 20
483.24744756684345
 11
3462.606619286491
 21
468.69136756684338
  0
LINE
  8
_0-3_躯体と製品
  6
CONTINUOUS
 62
    3
 10
2984.1845992864946
 20
769.23328756684441
 11
3009.1845992864946
 21
769.23328756684441
  0
LINE
  8
_0-3_躯体と製品
  6
CONTINUOUS
 62
    3
 10
2984.1845992864946
 20
844.20246756684446
 11
3009.1845992864946
 21
844.20246756684446
  0
LINE
  8
_0-3_躯体と製品
  6
CONTINUOUS
 62
    3
 10
2984.1845992864946
 20
903.47714756684331
 11
3009.1845992864946
 21
903.47714756684331
  0
LINE
  8
_0-3_躯体と製品
  6
CONTINUOUS
 62
    3
 10
2984.1845992864946
 20
969.43304756684438
 11
3009.1845992864946
 21
969.43304756684438
  0
LINE
  8
_0-3_躯体と製品
  6
CONTINUOUS
 62
    3
 10
3661.684599286491
 20
527.97148756684442
 11
3588.684599286491
 21
442.97148756684442
  0
LINE
  8
_0-3_躯体と製品
  6
CONTINUOUS
 62
    3
 10
3588.684599286491
 20
442.97148756684442
 11
3588.684599286491
 21
437.97148756684442
  0
TEXT
  8
_0-4_図面枠
 62
    7
 10
3258.7709392864817
 20
1171.3737675668433
 40
60.000000000000114
 41
0.7999999999999992
 50
0.0000100000010064
  1
六角ボルト
  0
LINE
  8
_0-4_図面枠
  6
CONTINUOUS
 62
    3
 10
2997.03385928649
 20
1614.7150275668439
 11
3025.6941192864942
 21
1585.0740075668436
  0
LINE
  8
_0-3_躯体と製品
  6
CONTINUOUS
 62
    3
 10
2984.1845992864946
 20
1183.2760075668443
 11
3009.1845992864946
 21
1183.2760075668443
  0
LINE
  8
_0-3_躯体と製品
  6
PLINE5
 62
    4
 10
3136.6845992864946
 20
1329.2572275668435
 11
3136.6845992864946
 21
1179.2572275668444
  0
LINE
  8
_0-3_躯体と製品
  6
CONTINUOUS
 62
    3
 10
3160.3996192864961
 20
1227.1505075668431
 11
3160.3996192864961
 21
1213.1505075668433
  0
LINE
  8
_0-3_躯体と製品
  6
CONTINUOUS
 62
    3
 10
3153.399619286487
 20
1220.1505075668426
 11
3167.3996192864906
 21
1220.1505075668426
  0
LINE
  8
_0-3_躯体と製品
  6
PLINE5
 62
    4
 10
3136.6845992864946
 20
1179.2572275668444
 11
3186.684599286491
 21
1179.2572275668444
  0
LINE
  8
_0-3_躯体と製品
  6
CONTINUOUS
 62
    3
 10
3159.3547592864943
 20
1273.3335075668442
 11
3159.3547592864943
 21
1259.3335075668433
  0
LINE
  8
_0-3_躯体と製品
  6
CONTINUOUS
 62
    3
 10
3152.3547592864961
 20
1266.3335075668435
 11
3166.3547592864907
 21
1266.3335075668435
  0
LINE
  8
_0-3_躯体と製品
  6
PLINE5
 62
    4
 10
3180.684599286491
 20
1279.2572275668435
 11
3186.684599286491
 21
1279.2572275668435
  0
LINE
  8
_0-3_躯体と製品
  6
PLINE5
 62
    4
 10
3180.684599286491
 20
1323.2572275668433
 11
3180.684599286491
 21
1279.2572275668435
  0
LINE
  8
_0-3_躯体と製品
  6
PLINE5
 62
    4
 10
3136.6845992864946
 20
1323.2572275668433
 11
3180.684599286491
 21
1323.2572275668433
  0
LINE
  8
_0-3_躯体と製品
  6
PLINE5
 62
    4
 10
3186.684599286491
 20
1329.2572275668435
 11
3136.6845992864946
 21
1329.2572275668435
  0
LINE
  8
_0-3_躯体と製品
  6
CONTINUOUS
 62
    3
 10
2984.1845992864946
 20
1407.0651475668437
 11
3009.1845992864946
 21
1407.0651475668437
  0
LINE
  8
_0-3_躯体と製品
  6
CONTINUOUS
 62
    3
 10
2984.1845992864946
 20
1620.9081075668446
 11
3009.1845992864946
 21
1620.9081075668446
  0
LINE
  8
_0-3_躯体と製品
  6
CONTINUOUS
 62
    3
 10
2984.1845992864946
 20
1745.4465075668434
 11
3009.1845992864946
 21
1745.4465075668434
  0
LINE
  8
_0-3_躯体と製品
  6
CONTINUOUS
 62
    3
 10
2984.1845992864946
 20
1794.5594275668434
 11
3009.1845992864946
 21
1794.5594275668434
  0
LINE
  8
_0-3_躯体と製品
  6
CONTINUOUS
 62
    3
 10
2984.1845992864946
 20
1841.489507566843
 11
3009.1845992864946
 21
1841.489507566843
  0
LINE
  8
_0-3_躯体と製品
  6
CONTINUOUS
 62
    7
 10
3137.1845992864855
 20
1863.5214475668436
 11
3137.1845992864855
 21
1888.9714875668433
  0
LINE
  8
_0-3_躯体と製品
  6
CONTINUOUS
 62
    7
 10
3136.6845992864946
 20
1888.9714875668433
 11
3186.684599286491
 21
1888.9714875668433
  0
LINE
  8
_0-3_躯体と製品
  6
CONTINUOUS
 62
    7
 10
3136.6845992864946
 20
1888.9714875668433
 11
3186.684599286491
 21
1888.9714875668433
  0
INSERT
  2
-001-_D4
  8
_0-2_寸法
 10
-6837.4920829167586
 20
2204.3925868969964
 41
10
 42
10
 50
0
  0
INSERT
  2
-002-_D5
  8
_0-2_寸法
 10
-6837.4920829167586
 20
2204.3925868969964
 41
10
 42
10
 50
0
  0
INSERT
  2
-003-_D6
  8
_0-2_寸法
 10
-6837.4920829167586
 20
2204.3925868969964
 41
10
 42
10
 50
0
  0
INSERT
  2
-004-_D7
  8
_0-2_寸法
 10
-6837.4920829167586
 20
2204.3925868969964
 41
10
 42
10
 50
0
  0
INSERT
  2
-005-_D8
  8
_0-2_寸法
 10
-6837.4920829167586
 20
2204.3925868969964
 41
10
 42
10
 50
0
  0
INSERT
  2
-006-_D9
  8
_0-2_寸法
 10
-6837.4920829167586
 20
2204.3925868969964
 41
10
 42
10
 50
0
  0
INSERT
  2
-007-_D10
  8
_0-2_寸法
 10
-6837.4920829167586
 20
2204.3925868969964
 41
10
 42
10
 50
0
  0
INSERT
  2
-008-_D11
  8
_0-2_寸法
 10
-6837.4920829167586
 20
2204.3925868969964
 41
10
 42
10
 50
0
  0
INSERT
  2
-009-_D12
  8
_0-2_寸法
 10
-6837.4920829167586
 20
2204.3925868969964
 41
10
 42
10
 50
0
  0
INSERT
  2
-010-_D13
  8
_0-2_寸法
 10
-6837.4920829167586
 20
2204.3925868969964
 41
10
 42
10
 50
0
  0
INSERT
  2
-011-_D14
  8
_0-2_寸法
 10
-6837.4920829167586
 20
2204.3925868969964
 41
10
 42
10
 50
0
  0
INSERT
  2
-012-_D15
  8
_0-2_寸法
 10
-6837.4920829167586
 20
2204.3925868969964
 41
10
 42
10
 50
0
  0
INSERT
  2
-013-_D16
  8
_0-2_寸法
 10
-6837.4920829167586
 20
2204.3925868969964
 41
10
 42
10
 50
0
  0
INSERT
  2
-014-_D17
  8
_0-2_寸法
 10
-6837.4920829167586
 20
2204.3925868969964
 41
10
 42
10
 50
0
  0
ENDSEC
  0
EOF
