  0
SECTION
  2
HEADER
  9
$ACADVER
  1
AC1009
  9
$INSBASE
 10
0
 20
0
 30
0
  9
$EXTMIN
 10
0
 20
0
  9
$EXTMAX
 10
841
 20
594
  9
$LIMMIN
 10
0
 20
0
  9
$LIMMAX
 10
841
 20
594
  9
$LTSCALE
 40
1
  0
ENDSEC
  0
SECTION
  2
TABLES
  0
TABLE
  2
LTYPE
 70
     9
  0
LTYPE
  2
CONTINUOUS
 70
    64
  3
実線
 72
    65
 73
     0
 40
0.0
  0
LTYPE
  2
DASHED1
 70
    64
  3
--  --  --  --  --  --  --  --  
 72
    65
 73
     2
 40
2.5
 49
1.25
 49
-1.25
  0
LTYPE
  2
DASHED2
 70
    64
  3
----    ----    ----    ----    
 72
    65
 73
     2
 40
5.0
 49
2.5
 49
-2.5
  0
LTYPE
  2
DASHED3
 70
    64
  3
------  ------  ------  ------  
 72
    65
 73
     2
 40
5.0
 49
3.75
 49
-1.25
  0
LTYPE
  2
CENTER1
 70
    64
  3
----- - ----- - ----- - ----- - 
 72
    65
 73
     4
 40
10.0
 49
6.25
 49
-1.25
 49
1.25
 49
-1.25
  0
LTYPE
  2
CENTER2
 70
    64
  3
----------  --  ----------  --  
 72
    65
 73
     4
 40
20.0
 49
12.5
 49
-2.5
 49
2.5
 49
-2.5
  0
LTYPE
  2
PHANTOM1
 70
    64
  3
--- - - --- - - --- - - --- - - 
 72
    65
 73
     6
 40
10.0
 49
3.25
 49
-1.25
 49
1.25
 49
-1.25
 49
1.25
 49
-1.25
  0
LTYPE
  2
PHANTOM2
 70
    64
  3
--------  -  -  --------  -  -  
 72
    65
 73
     6
 40
20.0
 49
10.0
 49
-2.5
 49
1.25
 49
-2.5
 49
1.25
 49
-2.5
  0
LTYPE
  2
DOT
 70
    64
  3
-   -   -   -   -   -   -   -   
 72
    65
 73
     2
 40
2.5
 49
0.625
 49
-1.875
  0
LTYPE
  2
DUMMY
 70
    64
  3
ダミー
 72
    65
 73
     0
 40
0.0
  0
LTYPE
  2
RAND1
 70
    64
  3
ランダム線1
 72
    65
 73
     4
 40
10.0
 49
1.0
 49
-2.0
 49
3.0
 49
-4.0
  0
LTYPE
  2
RAND2
 70
    64
  3
ランダム線2
 72
    65
 73
     4
 40
14.0
 49
2.0
 49
-3.0
 49
4.0
 49
-5.0
  0
LTYPE
  2
RAND3
 70
    64
  3
ランダム線3
 72
    65
 73
     4
 40
18.0
 49
3.0
 49
-4.0
 49
5.0
 49
-6.0
  0
LTYPE
  2
RAND4
 70
    64
  3
ランダム線4
 72
    65
 73
     4
 40
22.0
 49
4.0
 49
-5.0
 49
6.0
 49
-7.0
  0
LTYPE
  2
RAND5
 70
    64
  3
ランダム線5
 72
    65
 73
     4
 40
26.0
 49
5.0
 49
-6.0
 49
7.0
 49
-8.0
  0
LTYPE
  2
LONG1
 70
    64
  3
----------  --  ----------  --  
 72
    65
 73
     4
 40
40.0
 49
32.5
 49
-2.5
 49
2.5
 49
-2.5
  0
LTYPE
  2
LONG2
 70
    64
  3
--------  -  -  --------  -  -  
 72
    65
 73
     6
 40
40.0
 49
30.0
 49
-2.5
 49
1.25
 49
-2.5
 49
1.25
 49
-2.5
  0
LTYPE
  2
LONG3
 70
    64
  3
+++++++++++++++..+++++++++++++++
 72
    65
 73
     2
 40
40.0
 49
37.5
 49
-2.5
  0
LTYPE
  2
LONG4
 70
    64
  3
+++++++++++++++..+++++++++++++++
 72
    65
 73
     2
 40
80.0
 49
75.0
 49
-5.0
  0
LTYPE
  2
LONG5
 70
    64
  3
----------  --  ----------  --  
 72
    65
 73
     4
 40
60.0
 49
37.5
 49
-7.5
 49
7.5
 49
-7.5
  0
LTYPE
  2
dashed
 70
   64
  3
-------   -------------   ------
 72
   65
 73
    2
 40
7.5
 49
6
 49
-1.5
  0
LTYPE
  2
dashed_spaced
 70
   64
  3
----        --------        ----
 72
   65
 73
    2
 40
12
 49
6
 49
-6
  0
LTYPE
  2
long_dashed_dotted
 70
   64
  3
------------- --- --------------
 72
   65
 73
    4
 40
15.25
 49
12
 49
-1.5
 49
0.25
 49
-1.5
  0
LTYPE
  2
long_dashed_double-dotted
 70
   64
  3
----------- --- --- ------------
 72
   65
 73
    6
 40
17
 49
12
 49
-1.5
 49
0.25
 49
-1.5
 49
0.25
 49
-1.5
  0
LTYPE
  2
long_dashed_triplicate-dotted
 70
   64
  3
--------- --- --- --- ----------
 72
   65
 73
    8
 40
18.75
 49
12
 49
-1.5
 49
0.25
 49
-1.5
 49
0.25
 49
-1.5
 49
0.25
 49
-1.5
  0
LTYPE
  2
dotted
 70
   64
  3
   -       -       -       -    
 72
   65
 73
    2
 40
1.75
 49
0.25
 49
-1.5
  0
LTYPE
  2
chain
 70
   64
  3
-------------- -- --------------
 72
   65
 73
    4
 40
18.5
 49
12
 49
-1.5
 49
3.5
 49
-1.5
  0
LTYPE
  2
chain_double_dash
 70
   64
  3
------------ -- -- -------------
 72
   65
 73
    6
 40
23.5
 49
12
 49
-1.5
 49
3.5
 49
-1.5
 49
3.5
 49
-1.5
  0
LTYPE
  2
dashed_dotted
 70
   64
  3
-----------     -     ----------
 72
   65
 73
    4
 40
9.25
 49
6
 49
-1.5
 49
0.25
 49
-1.5
  0
LTYPE
  2
double-dashed_dotted
 70
   64
  3
------   -----------   -   -----
 72
   65
 73
    6
 40
16.75
 49
6
 49
-1.5
 49
6
 49
-1.5
 49
0.25
 49
-1.5
  0
LTYPE
  2
dashed_double-dotted
 70
   64
  3
---------    -    -    ---------
 72
   65
 73
    6
 40
11
 49
6
 49
-1.5
 49
0.25
 49
-1.5
 49
0.25
 49
-1.5
  0
LTYPE
  2
double-dashed_double-dotted
 70
   64
  3
-----   ---------   -   -   ----
 72
   65
 73
    8
 40
18.5
 49
6
 49
-1.5
 49
6
 49
-1.5
 49
0.25
 49
-1.5
 49
0.25
 49
-1.5
  0
LTYPE
  2
dashed_triplicate-dotted
 70
   64
  3
-------    -    -    -    ------
 72
   65
 73
    8
 40
12.75
 49
6
 49
-1.5
 49
0.25
 49
-1.5
 49
0.25
 49
-1.5
 49
0.25
 49
-1.5
  0
LTYPE
  2
double-dashed_triplicate-dotted
 70
   64
  3
-----  ---------  -  -  -  -----
 72
   65
 73
   10
 40
20.25
 49
6
 49
-1.5
 49
6
 49
-1.5
 49
0.25
 49
-1.5
 49
0.25
 49
-1.5
 49
0.25
 49
-1.5
  0
LTYPE
  2
undefined
 70
   64
  3
--------------------------------
 72
   65
 73
    0
 40
0
  0
LTYPE
  2
PLINE2
 70
   64
  3
------     -----------     -----
 72
   65
 73
    2
 40
3
 49
2.1000000000000001
 49
-0.9
  0
LTYPE
  2
PLINE3
 70
   64
  3
------------   ---   -----------
 72
   65
 73
    4
 40
10
 49
7
 49
-1
 49
1
 49
-1
  0
LTYPE
  2
PLINE4
 70
   64
  3
---------   ---   ---   --------
 72
   65
 73
    6
 40
10
 49
5
 49
-1
 49
1
 49
-1
 49
1
 49
-1
  0
LTYPE
  2
PLINE5
 70
   64
  3
------     -----------     -----
 72
   65
 73
    2
 40
5
 49
3.5
 49
-1.5
  0
LTYPE
  2
PLINE6
 70
   64
  3
------------   ---   -----------
 72
   65
 73
    4
 40
15
 49
10.5
 49
-1.5
 49
1.5
 49
-1.5
  0
LTYPE
  2
PLINE7
 70
   64
  3
---------   ---   ---   --------
 72
   65
 73
    6
 40
15
 49
7.5
 49
-1.5
 49
1.5
 49
-1.5
 49
1.5
 49
-1.5
  0
LTYPE
  2
PLINE8
 70
   64
  3
------     -----------     -----
 72
   65
 73
    2
 40
7
 49
4.9000000000000004
 49
-2.1000000000000001
  0
LTYPE
  2
PLINE9
 70
   64
  3
------------   ---   -----------
 72
   65
 73
    4
 40
20
 49
14
 49
-2
 49
2
 49
-2
  0
LTYPE
  2
PLINE10
 70
   64
  3
---------   ---   ---   --------
 72
   65
 73
    6
 40
20
 49
10
 49
-2
 49
2
 49
-2
 49
2
 49
-2
  0
LTYPE
  2
PLINE11
 70
   64
  3
------     -----------     -----
 72
   65
 73
    2
 40
9
 49
6.2999999999999989
 49
-2.7000000000000002
  0
LTYPE
  2
PLINE12
 70
   64
  3
------------   ---   -----------
 72
   65
 73
    4
 40
25
 49
17.5
 49
-2.5
 49
2.5
 49
-2.5
  0
LTYPE
  2
PLINE13
 70
   64
  3
---------   ---   ---   --------
 72
   65
 73
    6
 40
25
 49
12.5
 49
-2.5
 49
2.5
 49
-2.5
 49
2.5
 49
-2.5
  0
LTYPE
  2
PLINE14
 70
   64
  3
------     -----------     -----
 72
   65
 73
    2
 40
11
 49
7.7000000000000002
 49
-3.2999999999999989
  0
LTYPE
  2
PLINE15
 70
   64
  3
------------   ---   -----------
 72
   65
 73
    4
 40
30
 49
21
 49
-3
 49
3
 49
-3
  0
LTYPE
  2
PLINE16
 70
   64
  3
---------   ---   ---   --------
 72
   65
 73
    6
 40
30
 49
15
 49
-3
 49
3
 49
-3
 49
3
 49
-3
  0
ENDTAB
  0
TABLE
  2
STYLE
  5
3
100
AcDbSymbolTable
 70
     1
  0
STYLE
  5
10
100
AcDbSymbolTableRecord
100
AcDbTextStyleTableRecord
  2
STANDARD
 70
     0
 40
0.0
 41
1.0
 50
0.0
 71
     0
 42
0.2
  3
txt
  4
bigfont.shx
  0
STYLE
  5
26
100
AcDbSymbolTableRecord
100
AcDbTextStyleTableRecord
  2
TATEGAKI
 70
    68
 40
0.0
 41
1.0
 50
0.0
 71
     0
 42
1.0
  3
txt
  4
bigfont.shx
  0
ENDTAB
  0
TABLE
  2
LAYER
 70
    4
  0
LAYER
  2
_0-2_寸法
 70
   64
 62
    7
  6
CONTINUOUS
  0
LAYER
  2
_0-3_躯体と製品
 70
   64
 62
    7
  6
CONTINUOUS
  0
LAYER
  2
_0-4_図面枠
 70
   64
 62
    7
  6
CONTINUOUS
  0
LAYER
  2
ADD_LINE
 70
   64
 62
    7
  6
CONTINUOUS
  0
ENDTAB
  0
ENDSEC
  0
SECTION
  2
BLOCKS
  0
BLOCK
  2
-000-_Dot
 70
   64
 10
0
 20
0
 30
0
  0
CIRCLE
  8
_0-0_0
  6
CONTINUOUS
 62
    7
 10
0
 20
0
 40
0.025
  0
LINE
  8
_0-0_0
  6
CONTINUOUS
 62
    7
 10
0.025
 20
0
 11
-0.025
 21
0
  0
LINE
  8
_0-0_0
  6
CONTINUOUS
 62
    7
 10
-0.05
 20
0
 11
-0.1
 21
0
  0
ENDBLK
  0
BLOCK
  2
-001-_D4
 70
   64
 10
0
 20
0
 30
0
  0
LINE
  8
_0-2_寸法
  6
CONTINUOUS
 62
    4
 10
509.41097056066212
 20
-270.26497550731028
 11
376.6216965606622
 21
-270.26497550731028
  0
LINE
  8
_0-2_寸法
  6
CONTINUOUS
 62
    4
 10
512.1464225606619
 20
-282.2649755073104
 11
376.6216965606622
 21
-282.26497550731028
  0
LINE
  8
_0-2_寸法
  6
CONTINUOUS
 62
    4
 10
376.6216965606622
 20
-270.36497550731042
 11
376.6216965606622
 21
-282.16497550731026
  0
INSERT
  2
-000-_Dot
  8
_0-2_寸法
 10
376.6216965606622
 20
-270.26497550731028
 41
1
 42
1
 50
90
  0
INSERT
  2
-000-_Dot
  8
_0-2_寸法
 10
376.6216965606622
 20
-282.26497550731028
 41
1
 42
1
 50
270
  0
TEXT
  8
_0-2_寸法
 62
    7
 10
376.54169656066222
 20
-277.51497550731028
 40
5
 41
1
 50
90
  1
J
  0
POINT
  8
_0-1_Defpoints
 62
    7
 10
509.41097056066212
 20
-270.26497550731028
  0
POINT
  8
_0-1_Defpoints
 62
    7
 10
512.1464225606619
 20
-282.2649755073104
  0
POINT
  8
_0-1_Defpoints
 62
    7
 10
376.6216965606622
 20
-282.26497550731028
  0
ENDBLK
  0
BLOCK
  2
-002-_D5
 70
   64
 10
0
 20
0
 30
0
  0
LINE
  8
_0-2_寸法
  6
CONTINUOUS
 62
    4
 10
405.44713856066227
 20
-111.06497550731031
 11
376.6216965606622
 21
-111.06497550731031
  0
LINE
  8
_0-2_寸法
  6
CONTINUOUS
 62
    4
 10
509.41097056066212
 20
-270.26497550731028
 11
376.6216965606622
 21
-270.26497550731028
  0
LINE
  8
_0-2_寸法
  6
CONTINUOUS
 62
    4
 10
376.6216965606622
 20
-111.1649755073103
 11
376.6216965606622
 21
-270.16497550731043
  0
INSERT
  2
-000-_Dot
  8
_0-2_寸法
 10
376.6216965606622
 20
-111.06497550731031
 41
1
 42
1
 50
90
  0
INSERT
  2
-000-_Dot
  8
_0-2_寸法
 10
376.6216965606622
 20
-270.26497550731028
 41
1
 42
1
 50
270
  0
TEXT
  8
_0-2_寸法
 62
    7
 10
376.54169656066222
 20
-193.16497550731032
 40
5
 41
1
 50
90
  1
 I
  0
POINT
  8
_0-1_Defpoints
 62
    7
 10
405.44713856066227
 20
-111.06497550731031
  0
POINT
  8
_0-1_Defpoints
 62
    7
 10
509.41097056066212
 20
-270.26497550731028
  0
POINT
  8
_0-1_Defpoints
 62
    7
 10
376.6216965606622
 20
-270.26497550731028
  0
ENDBLK
  0
BLOCK
  2
-003-_D6
 70
   64
 10
0
 20
0
 30
0
  0
LINE
  8
_0-2_寸法
  6
CONTINUOUS
 62
    4
 10
385.39729456066186
 20
-125.20177950731029
 11
385.39729456066186
 21
-86.57893150731033
  0
LINE
  8
_0-2_寸法
  6
CONTINUOUS
 62
    4
 10
812.59729456066248
 20
-126.6747155073102
 11
812.59729456066248
 21
-86.57893150731033
  0
LINE
  8
_0-2_寸法
  6
CONTINUOUS
 62
    4
 10
385.49729456066189
 20
-86.57893150731033
 11
812.49729456066234
 21
-86.57893150731033
  0
INSERT
  2
-000-_Dot
  8
_0-2_寸法
 10
385.39729456066186
 20
-86.57893150731033
 41
1
 42
1
 50
180
  0
INSERT
  2
-000-_Dot
  8
_0-2_寸法
 10
812.59729456066248
 20
-86.57893150731033
 41
1
 42
1
 50
0
  0
TEXT
  8
_0-2_寸法
 62
    7
 10
597.74729456066211
 20
-86.498931507310331
 40
5
 41
1
 50
0
  1
E
  0
POINT
  8
_0-1_Defpoints
 62
    7
 10
385.39729456066186
 20
-125.20177950731029
  0
POINT
  8
_0-1_Defpoints
 62
    7
 10
812.59729456066248
 20
-126.6747155073102
  0
POINT
  8
_0-1_Defpoints
 62
    7
 10
812.59729456066248
 20
-86.57893150731033
  0
ENDBLK
  0
BLOCK
  2
-004-_D7
 70
   64
 10
0
 20
0
 30
0
  0
LINE
  8
_0-2_寸法
  6
CONTINUOUS
 62
    4
 10
518.99729456066234
 20
-284.10578150731033
 11
518.99729456066234
 21
-305.11616950731019
  0
LINE
  8
_0-2_寸法
  6
CONTINUOUS
 62
    4
 10
678.99729456066245
 20
-284.34840950731029
 11
678.99729456066245
 21
-305.11616950731019
  0
LINE
  8
_0-2_寸法
  6
CONTINUOUS
 62
    4
 10
519.09729456066248
 20
-305.11616950731019
 11
678.89729456066232
 21
-305.11616950731019
  0
INSERT
  2
-000-_Dot
  8
_0-2_寸法
 10
518.99729456066234
 20
-305.11616950731019
 41
1
 42
1
 50
180
  0
INSERT
  2
-000-_Dot
  8
_0-2_寸法
 10
678.99729456066245
 20
-305.11616950731019
 41
1
 42
1
 50
0
  0
TEXT
  8
_0-2_寸法
 62
    7
 10
597.74729456066234
 20
-305.03616950731021
 40
5
 41
1
 50
0
  1
A
  0
POINT
  8
_0-1_Defpoints
 62
    7
 10
518.99729456066234
 20
-284.10578150731033
  0
POINT
  8
_0-1_Defpoints
 62
    7
 10
678.99729456066245
 20
-284.34840950731029
  0
POINT
  8
_0-1_Defpoints
 62
    7
 10
678.99729456066245
 20
-305.11616950731019
  0
ENDBLK
  0
ENDSEC
  0
SECTION
  2
ENTITIES
  0
LINE
  8
_0-3_躯体と製品
  6
PLINE2
 62
    2
 10
-524.07053000000087
 20
1898.1803
 11
-524.07053000000087
 21
801.63762000000099
  0
LINE
  8
_0-3_躯体と製品
  6
CONTINUOUS
 62
    3
 10
-488.87053000000105
 20
1944.4310199999991
 11
-488.87053000000105
 21
812.19762000000037
  0
LINE
  8
_0-3_躯体と製品
  6
CONTINUOUS
 62
    3
 10
-528.87053000000196
 20
1934.4579000000008
 11
-528.87053000000196
 21
800.19762000000105
  0
LINE
  8
_0-3_躯体と製品
  6
PLINE2
 62
    5
 10
-1188.53143
 20
1864.2016399999998
 11
-1336.6562700000004
 21
1716.0768000000003
  0
LINE
  8
_0-3_躯体と製品
  6
PLINE2
 62
    5
 10
-1117.820749999998
 20
1864.2016399999998
 11
-1310.774370000001
 21
1671.24802
  0
LINE
  8
_0-3_躯体と製品
  6
PLINE2
 62
    5
 10
-1259.2421099999974
 20
1864.2016399999998
 11
-1362.5381899999975
 21
1760.9055600000006
  0
LINE
  8
_0-3_躯体と製品
  6
PLINE2
 62
    5
 10
-1047.1100700000015
 20
1864.2016399999998
 11
-1284.892469999997
 21
1626.4192399999997
  0
LINE
  8
_0-3_躯体と製品
  6
PLINE2
 62
    5
 10
-976.39938999999868
 20
1864.2016399999998
 11
-1259.0105699999976
 21
1581.5904599999994
  0
LINE
  8
_0-3_躯体と製品
  6
PLINE2
 62
    5
 10
-905.68871000000217
 20
1864.2016399999998
 11
-1233.1286699999991
 21
1536.7617000000005
  0
LINE
  8
_0-3_躯体と製品
  6
PLINE2
 62
    5
 10
-834.97803000000022
 20
1864.2016399999998
 11
-1207.2467500000012
 21
1491.93292
  0
LINE
  8
_0-3_躯体と製品
  6
CONTINUOUS
 62
    3
 10
-811.24232999999822
 20
1869.00164
 11
-811.24232999999822
 21
1387.2909199999999
  0
LINE
  8
_0-3_躯体と製品
  6
PLINE2
 62
    5
 10
-1329.9527899999985
 20
1864.2016399999998
 11
-1388.4200900000005
 21
1805.73434
  0
LINE
  8
_0-3_躯体と製品
  6
CONTINUOUS
 62
    4
 10
-1529.8702900000008
 20
1969.1332600000005
 11
-1191.4688099999985
 21
1383.0047200000008
  0
LINE
  8
_0-3_躯体と製品
  6
PLINE2
 62
    2
 10
-1524.8715299999976
 20
1968.47516
 11
-1189.0398699999987
 21
1386.7976600000006
  0
LINE
  8
_0-3_躯体と製品
  6
CONTINUOUS
 62
    3
 10
-1478.8829700000015
 20
1962.4206599999998
 11
-1161.6040300000004
 21
1412.8773799999994
  0
LINE
  8
_0-3_躯体と製品
  6
CONTINUOUS
 62
    3
 10
-1528.870530000002
 20
1969.00164
 11
-1191.8111500000005
 21
1385.1976600000007
  0
LINE
  8
_0-3_躯体と製品
  6
CONTINUOUS
 62
    3
 10
-806.33094999999867
 20
1829.0016399999997
 11
-517.49453000000085
 21
1901.0166599999998
  0
LINE
  8
_0-3_躯体と製品
  6
PLINE3
 62
    2
 10
71.129469999999856
 20
2252.3950400000003
 11
71.129469999999856
 21
808.67826000000002
  0
LINE
  8
_0-3_躯体と製品
  6
PLINE2
 62
    2
 10
948.58989000000111
 20
1829.0016399999997
 11
71.129469999999856
 21
2047.7771000000002
  0
LINE
  8
_0-3_躯体と製品
  6
CONTINUOUS
 62
    3
 10
1349.1736299999984
 20
1371.3578000000002
 11
1696.1232499999978
 21
1972.2921399999991
  0
LINE
  8
_0-4_図面枠
  6
CONTINUOUS
 62
    4
 10
-3451.1666700000001
 20
2966.9999999999995
 11
-3451.1666700000001
 21
-2372.9999999999995
  0
LINE
  8
_0-4_図面枠
  6
CONTINUOUS
 62
    4
 10
4292.1666699999996
 20
-2372.9999999999995
 11
4292.1666699999996
 21
2966.9999999999995
  0
INSERT
  2
-001-_D4
  8
_0-2_寸法
 10
-6699.6194356066198
 20
1073.6207750731023
 41
10
 42
10
 50
0
  0
INSERT
  2
-002-_D5
  8
_0-2_寸法
 10
-6699.6194356066198
 20
1073.6207750731023
 41
10
 42
10
 50
0
  0
INSERT
  2
-003-_D6
  8
_0-2_寸法
 10
-6699.6194356066198
 20
1073.6207750731023
 41
10
 42
10
 50
0
  0
TEXT
  8
_0-4_図面枠
 62
    7
 10
-2466.0306299999975
 20
-663.58211999999935
 40
60
 41
0.8000000000000001
 50
0
  1
排気誘導板
  0
LINE
  8
_0-3_躯体と製品
  6
PLINE2
 62
    5
 10
-2272.5100899999979
 20
-875.87629999999945
 11
-1904.83763
 21
-508.20383999999945
  0
LINE
  8
_0-3_躯体と製品
  6
PLINE2
 62
    5
 10
-2334.2965699999995
 20
-1008.3734600000007
 11
-1904.83763
 21
-578.91451999999947
  0
LINE
  8
_0-3_躯体と製品
  6
PLINE2
 62
    5
 10
-2292.7071300000007
 20
-1037.4946799999998
 11
-1904.83763
 21
-649.62519999999961
  0
LINE
  8
_0-3_躯体と製品
  6
PLINE2
 62
    5
 10
-2251.1176899999982
 20
-1066.6159199999997
 11
-1904.83763
 21
-720.33587999999952
  0
LINE
  8
_0-3_躯体と製品
  6
CONTINUOUS
 62
    4
 10
-2205.646490000001
 20
-37.028979999999478
 11
-2581.646490000001
 21
-413.02897999999857
  0
LINE
  8
_0-3_躯体と製品
  6
PLINE5
 62
    3
 10
-2737.3386700000019
 20
-455.02359999999976
 11
-2004.8252500000008
 21
-455.02359999999976
  0
LINE
  8
_0-3_躯体と製品
  6
PLINE2
 62
    5
 10
-2149.9971299999988
 20
-645.11935999999946
 11
-2427.0086899999997
 21
-922.13091999999961
  0
LINE
  8
_0-3_躯体と製品
  6
CONTINUOUS
 62
    3
 10
-2397.561349999999
 20
-1007.0462399999997
 11
-1988.3114300000007
 21
-422.57677999999964
  0
LINE
  8
_0-3_躯体と製品
  6
CONTINUOUS
 62
    3
 10
-2401.493269999999
 20
-1004.2930799999995
 11
-1992.2433500000006
 21
-419.8235999999996
  0
LINE
  8
_0-3_躯体と製品
  6
PLINE2
 62
    5
 10
-2066.12273
 20
-419.8235999999996
 11
-2246.7363300000006
 21
-600.43719999999848
  0
LINE
  8
_0-3_躯体と製品
  6
PLINE2
 62
    5
 10
-2136.8334100000011
 20
-419.8235999999996
 11
-2321.9154499999986
 21
-604.90563999999972
  0
LINE
  8
_0-3_躯体と製品
  6
PLINE2
 62
    5
 10
-2207.5440899999985
 20
-419.8235999999996
 11
-2385.0453300000008
 21
-597.32484000000056
  0
LINE
  8
_0-3_躯体と製品
  6
CONTINUOUS
 62
    3
 10
-1953.1785700000019
 20
-419.8235999999996
 11
-2375.2804099999985
 21
-1022.6475200000009
  0
LINE
  8
_0-3_躯体と製品
  6
PLINE5
 62
    3
 10
-1517.6464900000001
 20
-1623.1692599999997
 11
-2432.9242300000005
 21
-982.2848799999997
  0
LINE
  8
_0-3_躯体と製品
  6
CONTINUOUS
 62
    3
 10
-1517.6464900000001
 20
-1629.0289800000005
 11
-2436.5490900000004
 21
-985.60643999999866
  0
LINE
  8
_0-3_躯体と製品
  6
CONTINUOUS
 62
    3
 10
-1517.6464900000001
 20
-1580.1980000000008
 11
-2362.0260100000005
 21
-988.95709999999963
  0
LINE
  8
_0-3_躯体と製品
  6
CONTINUOUS
 62
    4
 10
-2438.8161099999998
 20
-986.47983999999951
 11
-1669.6464899999964
 21
-1525.3225999999995
  0
LINE
  8
_0-3_躯体と製品
  6
CONTINUOUS
 62
    3
 10
-2760.4326899999996
 20
-415.02359999999976
 11
-1904.83763
 21
-415.02359999999976
  0
LINE
  8
_0-3_躯体と製品
  6
PLINE5
 62
    3
 10
-2757.6614099999979
 20
-419.8235999999996
 11
-1904.83763
 21
-419.8235999999996
  0
LINE
  8
_0-3_躯体と製品
  6
PLINE5
 62
    3
 10
-709.64648999999645
 20
-32.228979999999524
 11
-2605.6464900000019
 21
-32.228979999999524
  0
LINE
  8
_0-3_躯体と製品
  6
CONTINUOUS
 62
    3
 10
-709.64648999999645
 20
-37.028979999999478
 11
-2605.6464900000019
 21
-37.028979999999478
  0
LINE
  8
_0-3_躯体と製品
  6
CONTINUOUS
 62
    3
 10
-2605.6464900000019
 20
-5.0289799999994784
 11
-709.64648999999645
 21
-5.0289799999994784
  0
LINE
  8
_0-4_図面枠
  6
CONTINUOUS
 62
    4
 10
-3451.1666700000001
 20
-2372.9999999999995
 11
4292.1666699999996
 21
-2372.9999999999995
  0
LINE
  8
_0-3_躯体と製品
  6
PLINE2
 62
    5
 10
-2332.5106299999989
 20
-686.21149999999966
 11
-2478.7724899999985
 21
-832.47335999999859
  0
LINE
  8
_0-3_躯体と製品
  6
PLINE2
 62
    5
 10
-2257.1272900000013
 20
-681.53881999999976
 11
-2452.8905899999991
 21
-877.30213999999978
  0
LINE
  8
_0-3_躯体と製品
  6
CONTINUOUS
 62
    4
 10
-2848.6457299999997
 20
-276.6341199999996
 11
-2434.5755900000022
 21
-993.82464000000073
  0
LINE
  8
_0-3_躯体と製品
  6
CONTINUOUS
 62
    3
 10
-2795.6589300000019
 20
-283.60995999999852
 11
-2406.3419700000004
 21
-957.92672000000039
  0
LINE
  8
_0-3_躯体と製品
  6
PLINE5
 62
    3
 10
-2432.9242300000005
 20
-982.2848799999997
 11
-2839.6479699999986
 21
-277.81869999999947
  0
LINE
  8
_0-3_躯体と製品
  6
CONTINUOUS
 62
    3
 10
-2845.646490000001
 20
-277.02897999999948
 11
-2436.5490900000004
 21
-985.60643999999866
  0
LINE
  8
_0-3_躯体と製品
  6
CONTINUOUS
 62
    2
 10
-2250.7420500000007
 20
-1103.4750400000007
 11
-2264.5124099999985
 21
-1123.1315199999995
  0
LINE
  8
_0-3_躯体と製品
  6
CONTINUOUS
 62
    3
 10
-2372.857649999999
 20
-981.3726999999999
 11
-2406.3419700000004
 21
-957.92672000000039
  0
LINE
  8
_0-3_躯体と製品
  6
PLINE2
 62
    5
 10
-2315.1518899999992
 20
-880.98479999999972
 11
-2397.9617299999991
 21
-963.79461999999876
  0
LINE
  8
_0-3_躯体と製品
  6
CONTINUOUS
 62
    2
 10
-2372.7958700000017
 20
-994.52479999999969
 11
-2379.2220499999994
 21
-1003.6978199999999
  0
LINE
  8
_0-3_躯体と製品
  6
CONTINUOUS
 62
    2
 10
-2380.5962099999997
 20
-995.89927999999873
 11
-2371.4217100000014
 21
-1002.3233400000008
  0
LINE
  8
_0-3_躯体と製品
  6
CONTINUOUS
 62
    4
 10
-2434.5755900000022
 20
-993.82464000000073
 11
-2410.2875100000001
 21
-1010.8313399999997
  0
LINE
  8
_0-3_躯体と製品
  6
CONTINUOUS
 62
    2
 10
-2411.85455
 20
-1022.6568799999995
 11
-2398.0841700000001
 21
-1003.0004199999985
  0
LINE
  8
_0-3_躯体と製品
  6
CONTINUOUS
 62
    2
 10
-2469.0198500000015
 20
-958.16544000000067
 11
-2448.2352499999997
 21
-946.16543999999976
  0
LINE
  8
_0-3_躯体と製品
  6
CONTINUOUS
 62
    4
 10
-2607.343530000001
 20
-35.331919999999513
 11
-2848.6457299999997
 21
-276.6341199999996
  0
LINE
  8
_0-3_躯体と製品
  6
PLINE5
 62
    3
 10
-2839.6479699999986
 20
-277.81869999999947
 11
-2602.2523699999992
 21
-40.423099999999636
  0
LINE
  8
_0-3_躯体と製品
  6
CONTINUOUS
 62
    3
 10
-2845.646490000001
 20
-277.02897999999948
 11
-2605.6464900000019
 21
-37.028979999999478
  0
LINE
  8
_0-3_躯体と製品
  6
CONTINUOUS
 62
    3
 10
-2577.3622099999984
 20
-65.313259999999559
 11
-2795.6589300000019
 21
-283.60995999999852
  0
LINE
  8
_0-3_躯体と製品
  6
PLINE2
 62
    5
 10
-2631.8081700000007
 20
-419.8235999999996
 11
-2685.8277299999991
 21
-473.84317999999848
  0
LINE
  8
_0-3_躯体と製品
  6
PLINE2
 62
    5
 10
-2278.2547699999996
 20
-419.8235999999996
 11
-2556.4182099999998
 21
-697.98703999999964
  0
LINE
  8
_0-3_躯体と製品
  6
PLINE2
 62
    5
 10
-2348.9654499999979
 20
-419.8235999999996
 11
-2582.3001099999992
 21
-653.15828000000067
  0
LINE
  8
_0-3_躯体と製品
  6
PLINE2
 62
    5
 10
-2419.6761299999998
 20
-419.8235999999996
 11
-2608.1820299999999
 21
-608.32949999999937
  0
LINE
  8
_0-3_躯体と製品
  6
PLINE2
 62
    5
 10
-2490.3868100000018
 20
-419.8235999999996
 11
-2634.0639299999998
 21
-563.50071999999977
  0
LINE
  8
_0-3_躯体と製品
  6
PLINE2
 62
    5
 10
-2561.0974899999992
 20
-419.8235999999996
 11
-2659.9458299999988
 21
-518.67195999999956
  0
LINE
  8
_0-3_躯体と製品
  6
CONTINUOUS
 62
    2
 10
-2592.0523299999986
 20
-745.06695999999965
 11
-2571.2677100000001
 21
-733.06695999999965
  0
LINE
  8
_0-3_躯体と製品
  6
PLINE2
 62
    5
 10
-2394.0067100000006
 20
-676.99689999999862
 11
-2504.654410000001
 21
-787.64459999999963
  0
LINE
  8
_0-3_躯体と製品
  6
PLINE2
 62
    5
 10
-2456.5239099999981
 20
-668.80341999999962
 11
-2530.5363099999995
 21
-742.81581999999935
  0
LINE
  8
_0-3_躯体と製品
  6
CONTINUOUS
 62
    2
 10
-2717.163250000001
 20
-533.16847999999959
 11
-2696.378630000002
 21
-521.16847999999845
  0
LINE
  8
_0-3_躯体と製品
  6
PLINE2
 62
    5
 10
-2702.518849999999
 20
-419.8235999999996
 11
-2711.709629999998
 21
-429.01439999999934
  0
LINE
  8
_0-3_躯体と製品
  6
CONTINUOUS
 62
    2
 10
-2735.718989999998
 20
-429.42360000000065
 11
-2729.2526699999989
 21
-440.62359999999956
  0
LINE
  8
_0-3_躯体と製品
  6
CONTINUOUS
 62
    2
 10
-2738.9521499999978
 20
-435.02359999999976
 11
-2726.0195099999987
 21
-435.02359999999976
  0
LINE
  8
_0-3_躯体と製品
  6
CONTINUOUS
 62
    2
 10
-2597.0878499999999
 20
-403.02359999999851
 11
-2597.0878499999999
 21
-427.02359999999953
  0
LINE
  8
_0-3_躯体と製品
  6
CONTINUOUS
 62
    2
 10
-2838.117249999998
 20
-318.86999999999955
 11
-2817.332629999999
 21
-306.86999999999864
  0
LINE
  8
_0-3_躯体と製品
  6
CONTINUOUS
 62
    4
 10
-2581.646490000001
 20
-415.02359999999976
 11
-2613.6464899999978
 21
-415.02359999999976
  0
LINE
  8
_0-3_躯体と製品
  6
CONTINUOUS
 62
    4
 10
-2581.646490000001
 20
-413.4235999999994
 11
-2613.6464899999978
 21
-413.4235999999994
  0
LINE
  8
_0-3_躯体と製品
  6
CONTINUOUS
 62
    2
 10
-2825.8474899999987
 20
-240.25943999999947
 11
-2808.876929999999
 21
-257.22999999999968
  0
LINE
  8
_0-3_躯体と製品
  6
CONTINUOUS
 62
    2
 10
-2339.4650900000006
 20
-153.87703999999951
 11
-2322.4945300000009
 21
-170.84759999999949
  0
LINE
  8
_0-3_躯体と製品
  6
CONTINUOUS
 62
    2
 10
-2464.798429999998
 20
-279.21035999999947
 11
-2447.8278699999992
 21
-296.18093999999962
  0
LINE
  8
_0-3_躯体と製品
  6
CONTINUOUS
 62
    3
 10
-2525.6464900000019
 20
-41.82898000000057
 11
-2596.8700300000019
 21
-41.82898000000057
  0
LINE
  8
_0-3_躯体と製品
  6
CONTINUOUS
 62
    3
 10
-2605.6464900000019
 20
-37.028979999999478
 11
-2577.3622099999984
 21
-65.313259999999559
  0
LINE
  8
_0-3_躯体と製品
  6
CONTINUOUS
 62
    3
 10
-2627.1425299999987
 20
-72.10147999999856
 11
-2630.5366500000009
 21
-68.707359999999539
  0
LINE
  8
_0-3_躯体と製品
  6
CONTINUOUS
 62
    3
 10
-2617.8910699999979
 20
-62.850019999999517
 11
-2627.1425299999987
 21
-72.10147999999856
  0
LINE
  8
_0-3_躯体と製品
  6
CONTINUOUS
 62
    3
 10
-2596.8700300000019
 20
-41.82898000000057
 11
-2609.4150300000019
 21
-54.373979999998596
  0
LINE
  8
_0-3_躯体と製品
  6
CONTINUOUS
 62
    2
 10
-2653.72975
 20
-68.14167999999961
 11
-2636.7591899999998
 21
-85.112239999999588
  0
LINE
  8
_0-3_躯体と製品
  6
PLINE5
 62
    3
 10
-2598.8582500000002
 20
-37.028979999999478
 11
-2602.2523699999992
 21
-40.423099999999636
  0
LINE
  8
_0-3_躯体と製品
  6
CONTINUOUS
 62
    3
 10
-2605.6464900000019
 20
-37.028979999999478
 11
-2605.6464900000019
 21
-5.0289799999994784
  0
LINE
  8
_0-3_躯体と製品
  6
CONTINUOUS
 62
    3
 10
-2525.6464900000019
 20
-37.028979999999478
 11
-2525.6464900000019
 21
-41.82898000000057
  0
LINE
  8
_0-3_躯体と製品
  6
CONTINUOUS
 62
    2
 10
-2560.3507300000028
 20
-28.228979999998614
 11
-2560.3507300000028
 21
-52.228979999999524
  0
LINE
  8
_0-3_躯体と製品
  6
PLINE2
 62
    5
 10
-2209.5282500000012
 20
-1095.7371599999988
 11
-1904.83763
 21
-791.04655999999977
  0
LINE
  8
_0-3_躯体と製品
  6
CONTINUOUS
 62
    3
 10
-1509.6464899999964
 20
-772.75053999999955
 11
-1741.5928100000001
 21
-967.37662000000046
  0
LINE
  8
_0-3_躯体と製品
  6
CONTINUOUS
 62
    4
 10
-1521.90319
 20
-774.68053999999938
 11
-1767.0374099999999
 21
-980.37258000000065
  0
LINE
  8
_0-3_躯体と製品
  6
CONTINUOUS
 62
    3
 10
-1754.7807099999982
 20
-972.17661999999973
 11
-1514.4464900000021
 21
-770.51225999999951
  0
LINE
  8
_0-3_躯体と製品
  6
CONTINUOUS
 62
    3
 10
-1904.83763
 20
-991.68243999999959
 11
-1904.83763
 21
-415.02359999999976
  0
LINE
  8
_0-3_躯体と製品
  6
PLINE3
 62
    2
 10
-709.64648999999645
 20
73.19586000000038
 11
-709.64648999999645
 21
-1861.0289799999987
  0
LINE
  8
_0-3_躯体と製品
  6
PLINE3
 62
    2
 10
-709.64648999999645
 20
73.19586000000038
 11
-709.64648999999645
 21
-1861.0289799999987
  0
LINE
  8
_0-3_躯体と製品
  6
CONTINUOUS
 62
    3
 10
-1509.6464899999964
 20
-321.43833999999958
 11
-1509.6464899999964
 21
-1750.0730199999998
  0
LINE
  8
_0-3_躯体と製品
  6
CONTINUOUS
 62
    3
 10
-1469.6464899999983
 20
-311.46521999999948
 11
-1469.6464899999983
 21
-1738.0730199999998
  0
LINE
  8
_0-3_躯体と製品
  6
PLINE5
 62
    3
 10
-1504.8464900000008
 20
-369.53877999999861
 11
-1504.8464900000008
 21
-1748.6330199999998
  0
LINE
  8
_0-3_躯体と製品
  6
CONTINUOUS
 62
    3
 10
1451.3472899999997
 20
-273.73847999999964
 11
1032.3596900000011
 21
-999.44631999999956
  0
LINE
  8
_0-4_図面枠
  6
CONTINUOUS
 62
    3
 10
4074.6118500000002
 20
-1646.1848199999986
 11
1328.9083899999996
 21
-1646.1848199999986
  0
LINE
  8
_0-4_図面枠
  6
CONTINUOUS
 62
    2
 10
1328.9083899999996
 20
-1796.1848199999986
 11
4074.6118500000002
 21
-1796.1848199999986
  0
LINE
  8
_0-4_図面枠
  6
CONTINUOUS
 62
    2
 10
1328.9083899999996
 20
-1786.1848199999986
 11
4074.6118500000002
 21
-1786.1848199999986
  0
LINE
  8
_0-4_図面枠
  6
CONTINUOUS
 62
    2
 10
1328.9083899999996
 20
-1946.1848200000009
 11
4074.6118500000002
 21
-1946.1848200000009
  0
LINE
  8
_0-4_図面枠
  6
CONTINUOUS
 62
    3
 10
1328.9083899999996
 20
-2096.1848199999986
 11
4074.6118500000002
 21
-2096.1848199999986
  0
TEXT
  8
_0-4_図面枠
 62
    7
 10
-993.92896999999903
 20
-2221.4764599999999
 40
60
 41
0.7999999999999999
 50
0
  1
ＳＣ２０００
  0
TEXT
  8
_0-4_図面枠
 62
    7
 10
-583.68284999999742
 20
-2220.5546000000008
 40
60
 41
0.8000000000000006
 50
0
  1
ＨＬ
  0
LINE
  8
_0-3_躯体と製品
  6
PLINE5
 62
    3
 10
-709.64648999999645
 20
-1191.4652200000005
 11
501.0358299999989
 21
-1191.4652200000005
  0
LINE
  8
_0-3_躯体と製品
  6
PLINE5
 62
    3
 10
-709.64648999999645
 20
-1156.2652200000007
 11
501.0358299999989
 21
-1156.2652200000007
  0
LINE
  8
_0-3_躯体と製品
  6
PLINE5
 62
    3
 10
-709.64648999999645
 20
-1151.4652200000005
 11
501.0358299999989
 21
-1151.4652200000005
  0
LINE
  8
_0-3_躯体と製品
  6
CONTINUOUS
 62
    3
 10
270.35351000000173
 20
-1533.0087800000006
 11
1032.3596900000011
 21
-999.44631999999956
  0
LINE
  8
_0-3_躯体と製品
  6
PLINE2
 62
    3
 10
-709.64648999999645
 20
-1510.0730199999998
 11
543.70105000000331
 21
-1886.0772799999995
  0
TEXT
  8
_0-4_図面枠
 62
    7
 10
-1422.0510699999986
 20
-1454.4936800000005
 40
60
 41
0.8000000000000006
 50
0
  1
支柱
  0
LINE
  8
_0-3_躯体と製品
  6
PLINE2
 62
    5
 10
-1668.8655499999977
 20
-1474.3132799999985
 11
-1517.6464900000001
 21
-1323.0942200000009
  0
LINE
  8
_0-3_躯体と製品
  6
PLINE2
 62
    5
 10
-1627.2761099999998
 20
-1503.4345199999989
 11
-1517.6464900000001
 21
-1393.8048800000006
  0
LINE
  8
_0-3_躯体と製品
  6
PLINE2
 62
    2
 10
50.353510000000824
 20
-1373.5480799999987
 11
50.353510000000824
 21
-1738.0730199999998
  0
LINE
  8
_0-3_躯体と製品
  6
PLINE2
 62
    2
 10
90.353510000001734
 20
-1373.5480799999987
 11
90.353510000001734
 21
-1750.0730199999998
  0
LINE
  8
_0-3_躯体と製品
  6
PLINE2
 62
    2
 10
85.553510000002461
 20
-1373.5480799999987
 11
85.553510000002461
 21
-1748.6330199999998
  0
LINE
  8
_0-3_躯体と製品
  6
CONTINUOUS
 62
    3
 10
-1517.6464900000001
 20
-1262.7965999999988
 11
-1517.6464900000001
 21
-1709.0289800000005
  0
LINE
  8
_0-3_躯体と製品
  6
CONTINUOUS
 62
    4
 10
-1509.6464899999964
 20
-1111.3046399999985
 11
-1509.6464899999964
 21
-1750.0730199999998
  0
LINE
  8
_0-4_図面枠
  6
CONTINUOUS
 62
    2
 10
-1486.9738100000004
 20
-1350.0440199999998
 11
-1422.0509099999999
 21
-1462.4937800000007
  0
INSERT
  2
-004-_D7
  8
_0-2_寸法
 10
-6699.6194356066198
 20
1073.6207750731023
 41
10
 42
10
 50
0
  0
LINE
  8
_0-3_躯体と製品
  6
PLINE2
 62
    3
 10
-709.64648999999645
 20
-1510.0730199999998
 11
-1962.9940300000017
 21
-1886.0772799999995
  0
LINE
  8
_0-3_躯体と製品
  6
CONTINUOUS
 62
    4
 10
-1739.5227899999982
 20
-1817.9918799999996
 11
-1509.6464899999964
 21
-1749.0289800000005
  0
LINE
  8
_0-3_躯体と製品
  6
CONTINUOUS
 62
    4
 10
-1739.5227899999982
 20
-1817.9918799999996
 11
-1739.3692900000015
 21
-1818.5035599999997
  0
LINE
  8
_0-3_躯体と製品
  6
CONTINUOUS
 62
    4
 10
-1739.3692900000015
 20
-1818.5035599999997
 11
-1722.6779500000002
 21
-1813.4961599999997
  0
LINE
  8
_0-3_躯体と製品
  6
PLINE2
 62
    5
 10
-1585.6866699999964
 20
-1532.5557600000006
 11
-1517.6464900000001
 21
-1464.5155599999998
  0
LINE
  8
_0-3_躯体と製品
  6
CONTINUOUS
 62
    4
 10
-1669.6464899999964
 20
-1629.0289800000005
 11
-1669.6464899999964
 21
-1525.3225999999995
  0
LINE
  8
_0-3_躯体と製品
  6
CONTINUOUS
 62
    4
 10
-1669.6464899999964
 20
-1629.0289800000005
 11
-1666.4464900000003
 21
-1629.0289800000005
  0
LINE
  8
_0-3_躯体と製品
  6
CONTINUOUS
 62
    4
 10
-1666.4464900000003
 20
-1629.0289800000005
 11
-1666.4464900000003
 21
-1617.0289800000005
  0
LINE
  8
_0-3_躯体と製品
  6
CONTINUOUS
 62
    2
 10
-1712.2568900000006
 20
-1510.4878799999988
 11
-1698.4865300000019
 21
-1490.8313999999996
  0
LINE
  8
_0-3_躯体と製品
  6
CONTINUOUS
 62
    2
 10
-1521.6464900000001
 20
-1656.2289799999985
 11
-1497.6464899999992
 21
-1656.2289799999985
  0
LINE
  8
_0-3_躯体と製品
  6
CONTINUOUS
 62
    2
 10
-1521.6464900000001
 20
-1682.6289799999995
 11
-1497.6464899999992
 21
-1682.6289799999995
  0
LINE
  8
_0-3_躯体と製品
  6
CONTINUOUS
 62
    3
 10
-1509.6464899999964
 20
-1709.0289800000005
 11
-1517.6464900000001
 21
-1709.0289800000005
  0
LINE
  8
_0-3_躯体と製品
  6
PLINE2
 62
    5
 10
-1544.0972299999985
 20
-1561.6769799999997
 11
-1517.6464900000001
 21
-1535.2262399999995
  0
LINE
  8
_0-3_躯体と製品
  6
CONTINUOUS
 62
    2
 10
-1517.6464900000001
 20
-1476.1979999999999
 11
-1497.6464899999992
 21
-1476.1979999999999
  0
LINE
  8
_0-3_躯体と製品
  6
CONTINUOUS
 62
    3
 10
-1517.6464900000001
 20
-1580.1980000000008
 11
-1509.6464899999964
 21
-1580.1980000000008
  0
LINE
  8
_0-4_図面枠
  6
CONTINUOUS
 62
    2
 10
-1422.0509099999999
 20
-1462.4937800000007
 11
-1318.580869999998
 21
-1462.4937800000007
  0
LINE
  8
_0-3_躯体と製品
  6
CONTINUOUS
 62
    3
 10
270.35351000000173
 20
-1533.0087800000006
 11
270.35351000000173
 21
-1803.0289799999996
  0
LINE
  8
_0-3_躯体と製品
  6
CONTINUOUS
 62
    4
 10
320.22983000000022
 20
-1817.9918799999996
 11
-709.64648999999645
 21
-1509.0289800000005
  0
LINE
  8
_0-3_躯体と製品
  6
CONTINUOUS
 62
    4
 10
320.22983000000022
 20
-1817.9918799999996
 11
320.07632999999987
 21
-1818.5035599999997
  0
LINE
  8
_0-3_躯体と製品
  6
CONTINUOUS
 62
    4
 10
320.07632999999987
 20
-1818.5035599999997
 11
303.38497000000007
 21
-1813.4961599999997
  0
LINE
  8
_0-3_躯体と製品
  6
CONTINUOUS
 62
    3
 10
-1469.6464899999983
 20
-1151.4652200000005
 11
-709.64648999999645
 21
-1151.4652200000005
  0
LINE
  8
_0-3_躯体と製品
  6
PLINE5
 62
    3
 10
-1469.6464899999983
 20
-1116.2652199999998
 11
-709.64648999999645
 21
-1116.2652199999998
  0
LINE
  8
_0-3_躯体と製品
  6
CONTINUOUS
 62
    3
 10
-1469.6464899999983
 20
-1111.4652199999996
 11
-709.64648999999645
 21
-1111.4652199999996
  0
LINE
  8
_0-3_躯体と製品
  6
PLINE2
 62
    5
 10
-2167.9388099999978
 20
-1124.8584000000005
 11
-1904.83763
 21
-861.75723999999946
  0
LINE
  8
_0-3_躯体と製品
  6
PLINE2
 62
    5
 10
-2126.3493699999999
 20
-1153.9796400000005
 11
-1904.83763
 21
-932.46789999999874
  0
LINE
  8
_0-3_躯体と製品
  6
PLINE2
 62
    5
 10
-2084.7599300000029
 20
-1183.1008799999995
 11
-1898.0760300000002
 21
-996.4169799999986
  0
LINE
  8
_0-3_躯体と製品
  6
PLINE2
 62
    5
 10
-2043.1704899999995
 20
-1212.2221199999999
 11
-1856.4865900000023
 21
-1025.5382199999985
  0
LINE
  8
_0-3_躯体と製品
  6
PLINE2
 62
    5
 10
-2001.5810500000016
 20
-1241.3433599999985
 11
-1814.8971499999989
 21
-1054.6594600000008
  0
LINE
  8
_0-3_躯体と製品
  6
PLINE2
 62
    5
 10
-1959.99161
 20
-1270.4645999999998
 11
-1773.307710000001
 21
-1083.7806799999998
  0
LINE
  8
_0-3_躯体と製品
  6
PLINE2
 62
    5
 10
-1918.4021700000012
 20
-1299.5858399999997
 11
-1731.7182699999976
 21
-1112.9019199999998
  0
LINE
  8
_0-3_躯体と製品
  6
CONTINUOUS
 62
    3
 10
-1517.6464900000001
 20
-1262.7965999999988
 11
-1904.83763
 21
-991.68243999999959
  0
LINE
  8
_0-3_躯体と製品
  6
PLINE2
 62
    5
 10
-1710.4549900000011
 20
-1445.1920399999995
 11
-1523.7710699999998
 21
-1258.5081199999995
  0
LINE
  8
_0-3_躯体と製品
  6
PLINE2
 62
    5
 10
-1876.812750000001
 20
-1328.7070799999997
 11
-1690.1288300000006
 21
-1142.0231599999988
  0
LINE
  8
_0-3_躯体と製品
  6
PLINE2
 62
    5
 10
-1835.2233099999985
 20
-1357.8283199999996
 11
-1648.5393899999981
 21
-1171.1444000000006
  0
LINE
  8
_0-3_躯体と製品
  6
PLINE2
 62
    5
 10
-1793.6338700000006
 20
-1386.9495600000005
 11
-1606.9499500000002
 21
-1200.2656400000005
  0
LINE
  8
_0-3_躯体と製品
  6
PLINE2
 62
    5
 10
-1752.0444299999981
 20
-1416.0708000000009
 11
-1565.3605099999977
 21
-1229.3868799999996
  0
TEXT
  8
_0-4_図面枠
 62
    7
 10
-2139.2537700000003
 20
-1370.6402199999998
 40
60
 41
0.8000000000000006
 50
0
  1
外板
  0
LINE
  8
_0-4_図面枠
  6
CONTINUOUS
 62
    2
 10
-1990.0118299999995
 20
-1297.5076999999987
 11
-2000.3645699999988
 21
-1336.1446999999998
  0
LINE
  8
_0-4_図面枠
  6
CONTINUOUS
 62
    2
 10
-2036.8538699999981
 20
-1378.6404999999995
 11
-2160.6938699999982
 21
-1378.6404999999995
  0
LINE
  8
_0-4_図面枠
  6
CONTINUOUS
 62
    2
 10
-1990.0118299999995
 20
-1297.5076999999987
 11
-2036.8538699999981
 21
-1378.6404999999995
  0
LINE
  8
_0-3_躯体と製品
  6
CONTINUOUS
 62
    2
 10
-1883.7941299999975
 20
-1358.2678999999985
 11
-1897.5645100000002
 21
-1377.9243799999995
  0
LINE
  8
_0-3_躯体と製品
  6
CONTINUOUS
 62
    2
 10
-2066.0516500000022
 20
-1231.6076599999997
 11
-2079.8220299999975
 21
-1251.2641400000007
  0
LINE
  8
_0-4_図面枠
  6
CONTINUOUS
 62
    2
 10
-1486.9738100000004
 20
-1350.0440199999998
 11
-1458.6895500000019
 21
-1378.3282600000007
  0
LINE
  8
_0-3_躯体と製品
  6
CONTINUOUS
 62
    2
 10
-1487.0228900000011
 20
-1130.6123200000006
 11
-1487.0228900000011
 21
-1141.8123199999986
  0
LINE
  8
_0-3_躯体と製品
  6
CONTINUOUS
 62
    2
 10
-1492.6228899999996
 20
-1136.2123199999996
 11
-1481.4228899999998
 21
-1136.2123199999996
  0
LINE
  8
_0-3_躯体と製品
  6
CONTINUOUS
 62
    3
 10
-1495.1093899999996
 20
-1151.4652200000005
 11
-1504.8464900000008
 21
-1151.4652200000005
  0
LINE
  8
_0-3_躯体と製品
  6
CONTINUOUS
 62
    2
 10
-1517.6464900000001
 20
-1176.2114599999995
 11
-1497.6464899999992
 21
-1176.2114599999995
  0
LINE
  8
_0-3_躯体と製品
  6
CONTINUOUS
 62
    3
 10
-1469.6464899999983
 20
-1151.4652200000005
 11
-1483.1247100000001
 21
-1151.4652200000005
  0
LINE
  8
_0-3_躯体と製品
  6
CONTINUOUS
 62
    3
 10
-1741.5928100000001
 20
-967.37662000000046
 11
-1514.4464900000021
 21
-967.37662000000046
  0
LINE
  8
_0-3_躯体と製品
  6
CONTINUOUS
 62
    3
 10
-1514.4464900000021
 20
-972.17661999999973
 11
-1754.7807099999982
 21
-972.17661999999973
  0
LINE
  8
_0-3_躯体と製品
  6
CONTINUOUS
 62
    4
 10
-1767.0374099999999
 20
-980.37258000000065
 11
-1767.0374099999999
 21
-996.37257999999974
  0
LINE
  8
_0-3_躯体と製品
  6
CONTINUOUS
 62
    2
 10
-1578.6434900000013
 20
-806.62642000000051
 11
-1563.2165899999991
 21
-825.01147999999966
  0
LINE
  8
_0-3_躯体と製品
  6
CONTINUOUS
 62
    2
 10
-1670.5688300000002
 20
-883.76091999999971
 11
-1655.1419300000016
 21
-902.14600000000064
  0
LINE
  8
_0-3_躯体と製品
  6
CONTINUOUS
 62
    2
 10
-1521.6464900000001
 20
-988.17661999999973
 11
-1497.6464899999992
 21
-988.17661999999973
  0
LINE
  8
_0-3_躯体と製品
  6
CONTINUOUS
 62
    3
 10
-1509.6464899999964
 20
-1004.1766200000006
 11
-1514.4464900000021
 21
-1004.1766200000006
  0
LINE
  8
_0-3_躯体と製品
  6
CONTINUOUS
 62
    3
 10
-1514.4464900000021
 20
-1004.1766200000006
 11
-1514.4464900000021
 21
-991.37661999999864
  0
LINE
  8
_0-3_躯体と製品
  6
CONTINUOUS
 62
    3
 10
-1514.4464900000021
 20
-991.37661999999864
 11
-1514.4464900000021
 21
-972.17661999999973
  0
LINE
  8
_0-3_躯体と製品
  6
CONTINUOUS
 62
    3
 10
-1514.4464900000021
 20
-967.37662000000046
 11
-1509.6464899999964
 21
-967.37662000000046
  0
LINE
  8
_0-3_躯体と製品
  6
PLINE5
 62
    3
 10
-1504.8464900000008
 20
-1116.2652199999998
 11
-1469.6464899999983
 21
-1116.2652199999998
  0
LINE
  8
_0-3_躯体と製品
  6
CONTINUOUS
 62
    3
 10
-1504.8464900000008
 20
-1111.4652199999996
 11
-1469.6464899999983
 21
-1111.4652199999996
  0
LINE
  8
_0-3_躯体と製品
  6
CONTINUOUS
 62
    4
 10
-1548.2835099999975
 20
-1121.6573999999996
 11
-1509.6464899999964
 21
-1111.3046399999985
  0
LINE
  8
_0-3_躯体と製品
  6
CONTINUOUS
 62
    2
 10
-542.29187000000093
 20
-1171.4652200000005
 11
-531.09187000000202
 21
-1171.4652200000005
  0
LINE
  8
_0-3_躯体と製品
  6
CONTINUOUS
 62
    2
 10
-709.64648999999645
 20
-1171.4652200000005
 11
-704.0464899999979
 21
-1171.4652200000005
  0
LINE
  8
_0-3_躯体と製品
  6
CONTINUOUS
 62
    2
 10
-363.73725000000104
 20
-1165.8652199999979
 11
-363.73725000000104
 21
-1177.0652199999995
  0
LINE
  8
_0-3_躯体と製品
  6
CONTINUOUS
 62
    2
 10
-369.33724999999959
 20
-1171.4652200000005
 11
-358.13725000000068
 21
-1171.4652200000005
  0
LINE
  8
_0-3_躯体と製品
  6
CONTINUOUS
 62
    2
 10
-536.69187000000056
 20
-1165.8652199999979
 11
-536.69187000000056
 21
-1177.0652199999995
  0
LINE
  8
_0-3_躯体と製品
  6
CONTINUOUS
 62
    2
 10
-17.828029999998762
 20
-1165.8652199999979
 11
-17.828029999998762
 21
-1177.0652199999995
  0
LINE
  8
_0-3_躯体と製品
  6
CONTINUOUS
 62
    2
 10
-23.428029999996397
 20
-1171.4652200000005
 11
-12.228029999998398
 21
-1171.4652200000005
  0
LINE
  8
_0-3_躯体と製品
  6
CONTINUOUS
 62
    2
 10
-190.78263000000061
 20
-1165.8652199999979
 11
-190.78263000000061
 21
-1177.0652199999995
  0
LINE
  8
_0-3_躯体と製品
  6
CONTINUOUS
 62
    2
 10
-196.38263000000006
 20
-1171.4652200000005
 11
-185.18263000000206
 21
-1171.4652200000005
  0
LINE
  8
_0-3_躯体と製品
  6
CONTINUOUS
 62
    2
 10
328.08120999999937
 20
-1165.8652199999979
 11
328.08120999999937
 21
-1177.0652199999995
  0
LINE
  8
_0-3_躯体と製品
  6
CONTINUOUS
 62
    2
 10
322.48120999999901
 20
-1171.4652200000005
 11
333.68121000000247
 21
-1171.4652200000005
  0
LINE
  8
_0-3_躯体と製品
  6
CONTINUOUS
 62
    2
 10
155.12658999999712
 20
-1165.8652199999979
 11
155.12658999999712
 21
-1177.0652199999995
  0
LINE
  8
_0-3_躯体と製品
  6
CONTINUOUS
 62
    2
 10
149.52658999999949
 20
-1171.4652200000005
 11
160.72659000000112
 21
-1171.4652200000005
  0
TEXT
  8
_0-4_図面枠
 62
    7
 10
1824.4137699999983
 20
-1926.8510199999996
 40
60
 41
0.8000000000000006
 50
0
  1
ＨＬ
  0
TEXT
  8
_0-4_図面枠
 62
    7
 10
1824.4137699999983
 20
-2076.8510199999996
 40
60
 41
0.8000000000000006
 50
0
  1
ＨＬ
  0
LINE
  8
_0-4_図面枠
  6
CONTINUOUS
 62
    3
 10
1328.9083899999996
 20
-1646.1848199999986
 11
1328.9083899999996
 21
-2096.1848199999986
  0
TEXT
  8
_0-4_図面枠
 62
    7
 10
1414.167489999998
 20
-2077.7728000000006
 40
60
 41
0.7999999999999999
 50
0
  1
ＳＣ２０００
  0
TEXT
  8
_0-4_図面枠
 62
    7
 10
1412.4859699999988
 20
-1928.9608399999997
 40
60
 41
0.8000000000000002
 50
0
  1
ＳＣ１５００
  0
TEXT
  8
_0-4_図面枠
 62
    7
 10
1425.7916500000001
 20
-1766.7760999999996
 40
60
 41
0.8
 50
0
  1
型　　式
  0
LINE
  8
_0-4_図面枠
  6
CONTINUOUS
 62
    2
 10
3124.6118500000021
 20
-1646.1848199999986
 11
3124.6118500000021
 21
-2096.1848199999986
  0
LINE
  8
_0-4_図面枠
  6
CONTINUOUS
 62
    2
 10
2324.6118500000021
 20
-1646.1848199999986
 11
2324.6118500000021
 21
-2096.1848199999986
  0
LINE
  8
_0-4_図面枠
  6
CONTINUOUS
 62
    2
 10
2724.6118500000021
 20
-1646.1848199999986
 11
2724.6118500000021
 21
-2096.1848199999986
  0
LINE
  8
_0-4_図面枠
  6
CONTINUOUS
 62
    2
 10
1984.0434300000006
 20
-1646.1848199999986
 11
1984.0434300000006
 21
-2096.1848199999986
  0
TEXT
  8
_0-4_図面枠
 62
    7
 10
2415.1522899999991
 20
-1907.4850199999987
 40
60
 41
0.8000000000000006
 50
0
  1
１５６０
  0
TEXT
  8
_0-4_図面枠
 62
    7
 10
2410.8950900000009
 20
-2067.6415799999995
 40
60
 41
0.7999999999999993
 50
0
  1
１９９０
  0
TEXT
  8
_0-4_図面枠
 62
    7
 10
2018.3773899999987
 20
-2069.3156199999999
 40
60
 41
0.8000000000000006
 50
0
  1
２０００
  0
TEXT
  8
_0-4_図面枠
 62
    7
 10
2009.9704100000008
 20
-1907.8925799999997
 40
60
 41
0.7999999999999996
 50
0
  1
１５００
  0
TEXT
  8
_0-4_図面枠
 62
    7
 10
2820.6814699999986
 20
-2066.3628799999997
 40
60
 41
0.7999999999999993
 50
0
  1
　１５０
  0
TEXT
  8
_0-4_図面枠
 62
    7
 10
2820.6814699999986
 20
-1916.3628799999997
 40
60
 41
0.7999999999999993
 50
0
  1
　１５０
  0
TEXT
  8
_0-4_図面枠
 62
    7
 10
2106.9143900000008
 20
-1757.8478599999999
 40
60
 41
0.7999999999999982
 50
0
  1
Ａ
  0
TEXT
  8
_0-4_図面枠
 62
    7
 10
2508.0075300000017
 20
-1762.6417199999996
 40
60
 41
0.7999999999999982
 50
0
  1
Ｉ
  0
TEXT
  8
_0-4_図面枠
 62
    7
 10
2927.4777299999996
 20
-1754.6519199999989
 40
60
 41
0.7999999999999982
 50
0
  1
Ｊ
  0
TEXT
  8
_0-4_図面枠
 62
    7
 10
1142.8296099999998
 20
-1053.0819399999996
 40
60
 41
0.7999999999999993
 50
0
  1
妻板
  0
LINE
  8
_0-4_図面枠
  6
CONTINUOUS
 62
    2
 10
1142.8298100000002
 20
-1061.0820599999988
 11
1250.8662500000009
 21
-1061.0820599999988
  0
LINE
  8
_0-4_図面枠
  6
CONTINUOUS
 62
    2
 10
1029.5778499999979
 20
-864.92389999999841
 11
1142.8298100000002
 21
-1061.0820599999988
  0
LINE
  8
_0-4_図面枠
  6
CONTINUOUS
 62
    2
 10
1029.5778499999979
 20
-864.92389999999841
 11
1057.8621099999991
 21
-893.20813999999973
  0
LINE
  8
_0-4_図面枠
  6
CONTINUOUS
 62
    3
 10
4074.6118500000002
 20
-2096.1848199999986
 11
4074.6118500000002
 21
-1646.1848199999986
  0
LINE
  8
_0-4_図面枠
  6
CONTINUOUS
 62
    2
 10
3774.6118500000002
 20
-1646.1848199999986
 11
3774.6118500000002
 21
-2096.1848199999986
  0
LINE
  8
_0-4_図面枠
  6
CONTINUOUS
 62
    2
 10
3524.6118499999893
 20
-1646.1848199999986
 11
3524.6118499999893
 21
-2096.1848199999986
  0
TEXT
  8
_0-4_図面枠
 62
    7
 10
3832.1957499999908
 20
-1911.6393799999996
 40
60
 41
0.8000000000000013
 50
0
  1
Ｌ型鋼
  0
TEXT
  8
_0-4_図面枠
 62
    7
 10
3832.1957499999908
 20
-2061.6393799999996
 40
60
 41
0.8000000000000013
 50
0
  1
Ｌ型鋼
  0
TEXT
  8
_0-4_図面枠
 62
    7
 10
3220.6814700000004
 20
-2066.3628799999997
 40
60
 41
0.8000000000000006
 50
0
  1
５３４０
  0
TEXT
  8
_0-4_図面枠
 62
    7
 10
3585.9872700000005
 20
-2079.0374399999996
 40
60
 41
0.7999999999999988
 50
0
  1
１．０
  0
TEXT
  8
_0-4_図面枠
 62
    7
 10
3225.16939
 20
-1922.5258999999978
 40
60
 41
0.8000000000000006
 50
0
  1
４０００
  0
TEXT
  8
_0-4_図面枠
 62
    7
 10
3585.9872700000005
 20
-1929.0374399999996
 40
60
 41
0.7999999999999988
 50
0
  1
０．８
  0
TEXT
  8
_0-4_図面枠
 62
    7
 10
3855.6112899999907
 20
-1762.6417199999996
 40
60
 41
0.7999999999999982
 50
0
  1
支柱
  0
TEXT
  8
_0-4_図面枠
 62
    7
 10
3327.4777299999905
 20
-1754.6519199999989
 40
60
 41
0.8000000000000058
 50
0
  1
Ｅ
  0
TEXT
  8
_0-4_図面枠
 62
    7
 10
3581.5573299999896
 20
-1763.4408199999989
 40
60
 41
0.7999999999999982
 50
0
  1
板厚
  0
LINE
  8
_0-3_躯体と製品
  6
PLINE5
 62
    3
 10
485.54467000000113
 20
-454.91445999999951
 11
121.63999000000149
 21
-364.18281999999965
  0
LINE
  8
_0-3_躯体と製品
  6
PLINE5
 62
    3
 10
485.54467000000113
 20
-415.02359999999976
 11
-709.64648999999645
 21
-117.02898000000062
  0
LINE
  8
_0-3_躯体と製品
  6
PLINE5
 62
    3
 10
485.54467000000113
 20
-419.97055999999964
 11
-709.64648999999645
 21
-121.97591999999952
  0
LINE
  8
_0-3_躯体と製品
  6
PLINE5
 62
    3
 10
-709.64648999999645
 20
-32.228979999999524
 11
1186.3535100000017
 21
-32.228979999999524
  0
LINE
  8
_0-3_躯体と製品
  6
CONTINUOUS
 62
    3
 10
-709.64648999999645
 20
-37.028979999999478
 11
1214.6377899999998
 21
-37.028979999999478
  0
LINE
  8
_0-3_躯体と製品
  6
CONTINUOUS
 62
    3
 10
1186.3535100000017
 20
-5.0289799999994784
 11
-709.64648999999645
 21
-5.0289799999994784
  0
LINE
  8
_0-4_図面枠
  6
CONTINUOUS
 62
    2
 10
417.32104999999774
 20
-408.24333999999965
 11
548.83489000000009
 21
-636.03195999999946
  0
LINE
  8
_0-3_躯体と製品
  6
CONTINUOUS
 62
    3
 10
-1904.83763
 20
-415.02359999999976
 11
-709.64648999999645
 21
-117.02898000000062
  0
LINE
  8
_0-3_躯体と製品
  6
PLINE5
 62
    3
 10
-1904.83763
 20
-419.97055999999964
 11
-709.64648999999645
 21
-121.97591999999952
  0
LINE
  8
_0-3_躯体と製品
  6
CONTINUOUS
 62
    4
 10
-1897.2884499999982
 20
-411.49239999999952
 11
-710.03355000000101
 21
-115.47649999999965
  0
LINE
  8
_0-3_躯体と製品
  6
CONTINUOUS
 62
    4
 10
-2179.2934499999974
 20
-411.00053999999955
 11
-1803.2934499999974
 21
-35.00053999999966
  0
LINE
  8
_0-3_躯体と製品
  6
CONTINUOUS
 62
    3
 10
-1413.1466100000007
 20
-332.32209999999861
 11
-709.64648999999645
 21
-156.9198199999995
  0
LINE
  8
_0-3_躯体と製品
  6
PLINE2
 62
    5
 10
-2107.3553499999998
 20
-640.01085999999941
 11
-1904.83763
 21
-437.49315999999851
  0
LINE
  8
_0-3_躯体と製品
  6
CONTINUOUS
 62
    3
 10
-1514.4464900000021
 20
-457.28659999999945
 11
-1514.4464900000021
 21
-467.5248799999996
  0
LINE
  8
_0-3_躯体と製品
  6
PLINE2
 62
    5
 10
-1995.4120699999994
 20
-419.8235999999996
 11
-2195.2472499999994
 21
-619.65879999999959
  0
LINE
  8
_0-3_躯体と製品
  6
CONTINUOUS
 62
    3
 10
-1741.5928100000001
 20
-686.15095999999949
 11
-1514.4464900000021
 21
-686.15095999999949
  0
LINE
  8
_0-3_躯体と製品
  6
CONTINUOUS
 62
    3
 10
-1514.4464900000021
 20
-690.95095999999955
 11
-1754.7807099999982
 21
-690.95095999999955
  0
LINE
  8
_0-3_躯体と製品
  6
CONTINUOUS
 62
    3
 10
-1509.6464899999964
 20
-491.52487999999971
 11
-1741.5928100000001
 21
-686.15095999999949
  0
LINE
  8
_0-3_躯体と製品
  6
CONTINUOUS
 62
    4
 10
-1521.90319
 20
-493.4548599999996
 11
-1767.0374099999999
 21
-699.14689999999973
  0
LINE
  8
_0-3_躯体と製品
  6
CONTINUOUS
 62
    3
 10
-1754.7807099999982
 20
-690.95095999999955
 11
-1514.4464900000021
 21
-489.28659999999957
  0
LINE
  8
_0-3_躯体と製品
  6
CONTINUOUS
 62
    4
 10
-1767.0374099999999
 20
-699.14689999999973
 11
-1767.0374099999999
 21
-715.14689999999962
  0
LINE
  8
_0-3_躯体と製品
  6
CONTINUOUS
 62
    2
 10
-1578.6434900000013
 20
-525.40073999999947
 11
-1563.2165899999991
 21
-543.78579999999965
  0
LINE
  8
_0-3_躯体と製品
  6
CONTINUOUS
 62
    2
 10
-1670.5688300000002
 20
-602.53525999999954
 11
-1655.1419300000016
 21
-620.92032000000052
  0
LINE
  8
_0-3_躯体と製品
  6
CONTINUOUS
 62
    3
 10
-1514.4464900000021
 20
-710.1509599999996
 11
-1514.4464900000021
 21
-690.95095999999955
  0
LINE
  8
_0-3_躯体と製品
  6
CONTINUOUS
 62
    3
 10
-1514.4464900000021
 20
-686.15095999999949
 11
-1509.6464899999964
 21
-686.15095999999949
  0
LINE
  8
_0-3_躯体と製品
  6
CONTINUOUS
 62
    2
 10
-1521.6464900000001
 20
-730.51225999999861
 11
-1497.6464899999992
 21
-730.51225999999861
  0
LINE
  8
_0-3_躯体と製品
  6
CONTINUOUS
 62
    3
 10
-1514.4464900000021
 20
-748.75053999999955
 11
-1514.4464900000021
 21
-770.51225999999951
  0
LINE
  8
_0-3_躯体と製品
  6
CONTINUOUS
 62
    4
 10
-1521.90319
 20
-760.76917999999978
 11
-1521.90319
 21
-774.68053999999938
  0
LINE
  8
_0-3_躯体と製品
  6
CONTINUOUS
 62
    3
 10
-1514.4464900000021
 20
-710.1509599999996
 11
-1514.4464900000021
 21
-748.75053999999955
  0
LINE
  8
_0-3_躯体と製品
  6
CONTINUOUS
 62
    3
 10
-1514.4464900000021
 20
-467.5248799999996
 11
-1514.4464900000021
 21
-489.28659999999957
  0
LINE
  8
_0-3_躯体と製品
  6
CONTINUOUS
 62
    2
 10
-1521.6464900000001
 20
-473.28659999999854
 11
-1497.6464899999992
 21
-473.28659999999854
  0
LINE
  8
_0-3_躯体と製品
  6
CONTINUOUS
 62
    4
 10
-1521.90319
 20
-479.5435199999996
 11
-1521.90319
 21
-493.4548599999996
  0
LINE
  8
_0-3_躯体と製品
  6
CONTINUOUS
 62
    3
 10
-1904.83763
 20
-454.91445999999951
 11
-1540.9329499999985
 21
-364.18281999999965
  0
LINE
  8
_0-3_躯体と製品
  6
CONTINUOUS
 62
    2
 10
-1984.83763
 20
-433.09821999999963
 11
-1984.83763
 21
-444.29821999999967
  0
LINE
  8
_0-3_躯体と製品
  6
CONTINUOUS
 62
    4
 10
-2211.293450000001
 20
-412.9951599999996
 11
-2179.2934499999974
 21
-412.9951599999996
  0
LINE
  8
_0-3_躯体と製品
  6
CONTINUOUS
 62
    4
 10
-2211.293450000001
 20
-411.39515999999946
 11
-2179.2934499999974
 21
-411.39515999999946
  0
LINE
  8
_0-3_躯体と製品
  6
CONTINUOUS
 62
    2
 10
-2193.4521699999977
 20
-400.99515999999949
 11
-2193.4521699999977
 21
-424.9951599999996
  0
LINE
  8
_0-3_躯体と製品
  6
CONTINUOUS
 62
    2
 10
-1990.4376299999985
 20
-438.6982199999984
 11
-1979.2376299999996
 21
-438.6982199999984
  0
LINE
  8
_0-3_躯体と製品
  6
PLINE5
 62
    3
 10
-1987.4551700000011
 20
-455.02359999999976
 11
-1904.83763
 21
-455.02359999999976
  0
LINE
  8
_0-3_躯体と製品
  6
CONTINUOUS
 62
    4
 10
-1897.2884499999982
 20
-426.40939999999955
 11
-1897.2884499999982
 21
-411.49239999999952
  0
LINE
  8
_0-3_躯体と製品
  6
CONTINUOUS
 62
    2
 10
-1881.8650099999986
 20
-395.78659999999854
 11
-1876.0588900000012
 21
-419.07369999999855
  0
LINE
  8
_0-3_躯体と製品
  6
CONTINUOUS
 62
    2
 10
-1937.112070000001
 20
-151.84859999999946
 11
-1920.1415100000013
 21
-168.81915999999967
  0
LINE
  8
_0-3_躯体と製品
  6
CONTINUOUS
 62
    2
 10
-2062.4454099999975
 20
-277.18191999999965
 11
-2045.4748499999978
 21
-294.15250000000049
  0
LINE
  8
_0-3_躯体と製品
  6
CONTINUOUS
 62
    3
 10
-1434.6767699999991
 20
-337.69017999999949
 11
-1413.1466100000007
 21
-332.32209999999861
  0
LINE
  8
_0-3_躯体と製品
  6
CONTINUOUS
 62
    2
 10
-1489.2934900000018
 20
-330.73587999999961
 11
-1489.2934900000018
 21
-341.93587999999966
  0
LINE
  8
_0-3_躯体と製品
  6
CONTINUOUS
 62
    2
 10
-1494.8934900000022
 20
-336.33587999999861
 11
-1483.6934899999978
 21
-336.33587999999861
  0
LINE
  8
_0-3_躯体と製品
  6
PLINE5
 62
    3
 10
-1509.6464899999964
 20
-369.53877999999861
 11
-1504.8464900000008
 21
-369.53877999999861
  0
LINE
  8
_0-3_躯体と製品
  6
CONTINUOUS
 62
    3
 10
-1482.1953700000013
 20
-349.53789999999947
 11
-1434.6767699999991
 21
-337.69017999999949
  0
LINE
  8
_0-3_躯体と製品
  6
CONTINUOUS
 62
    3
 10
-1509.6464899999964
 20
-457.28659999999945
 11
-1514.4464900000021
 21
-457.28659999999945
  0
LINE
  8
_0-3_躯体と製品
  6
CONTINUOUS
 62
    3
 10
-1540.9329499999985
 20
-364.18281999999965
 11
-1522.0943300000017
 21
-359.48581999999942
  0
LINE
  8
_0-3_躯体と製品
  6
CONTINUOUS
 62
    2
 10
-1543.4162699999997
 20
-313.08645999999965
 11
-1537.6101499999977
 21
-336.37355999999966
  0
LINE
  8
_0-3_躯体と製品
  6
CONTINUOUS
 62
    3
 10
-1522.0943300000017
 20
-359.48581999999942
 11
-1499.6471099999981
 21
-353.88909999999851
  0
LINE
  8
_0-3_躯体と製品
  6
CONTINUOUS
 62
    2
 10
-1068.6018299999996
 20
-192.74758000000054
 11
-1062.7957099999976
 21
-216.03468000000055
  0
LINE
  8
_0-3_躯体と製品
  6
CONTINUOUS
 62
    2
 10
-207.38072999999713
 20
-261.53647999999964
 11
-196.51341000000048
 21
-264.24599999999953
  0
LINE
  8
_0-3_躯体と製品
  6
PLINE5
 62
    3
 10
-709.64648999999645
 20
-156.9198199999995
 11
-6.1463500000008935
 21
-332.32209999999861
  0
LINE
  8
_0-3_躯体と製品
  6
CONTINUOUS
 62
    2
 10
-548.86391000000185
 20
-176.39515999999946
 11
-537.99661000000197
 21
-179.10468000000049
  0
LINE
  8
_0-3_躯体と製品
  6
CONTINUOUS
 62
    2
 10
-542.07549000000017
 20
-172.31625999999858
 11
-544.78503000000001
 21
-183.18357999999955
  0
LINE
  8
_0-3_躯体と製品
  6
CONTINUOUS
 62
    2
 10
-709.64648999999645
 20
-136.9198199999995
 11
-704.0464899999979
 21
-136.9198199999995
  0
LINE
  8
_0-3_躯体と製品
  6
CONTINUOUS
 62
    2
 10
-200.59231
 20
-257.45758000000058
 11
-203.30183000000306
 21
-268.32490000000064
  0
LINE
  8
_0-3_躯体と製品
  6
CONTINUOUS
 62
    2
 10
-371.33391000000029
 20
-214.88691999999958
 11
-374.04342999999881
 21
-225.75423999999964
  0
LINE
  8
_0-3_躯体と製品
  6
CONTINUOUS
 62
    2
 10
-378.12232999999742
 20
-218.96581999999955
 11
-367.25500999999986
 21
-221.67533999999966
  0
LINE
  8
_0-3_躯体と製品
  6
CONTINUOUS
 62
    2
 10
-29.850709999997889
 20
-300.02823999999953
 11
-32.560249999998632
 21
-310.89555999999959
  0
LINE
  8
_0-3_躯体と製品
  6
CONTINUOUS
 62
    2
 10
134.1024499999985
 20
-346.67779999999948
 11
144.96977000000061
 21
-349.38731999999948
  0
LINE
  8
_0-3_躯体と製品
  6
CONTINUOUS
 62
    2
 10
140.89087000000018
 20
-342.59889999999962
 11
138.18135000000257
 21
-353.46621999999945
  0
LINE
  8
_0-3_躯体と製品
  6
CONTINUOUS
 62
    3
 10
121.63999000000149
 20
-364.18281999999965
 11
102.80137000000013
 21
-359.48581999999942
  0
LINE
  8
_0-3_躯体と製品
  6
PLINE5
 62
    3
 10
62.902390000002015
 20
-349.53789999999947
 11
15.383810000001176
 21
-337.69017999999949
  0
LINE
  8
_0-3_躯体と製品
  6
PLINE5
 62
    3
 10
62.902390000002015
 20
-349.53789999999947
 11
80.354150000001027
 21
-353.88909999999851
  0
LINE
  8
_0-3_躯体と製品
  6
CONTINUOUS
 62
    3
 10
102.80137000000013
 20
-359.48581999999942
 11
80.354150000001027
 21
-353.88909999999851
  0
LINE
  8
_0-3_躯体と製品
  6
CONTINUOUS
 62
    2
 10
-36.639129999999568
 20
-304.1071399999995
 11
-25.771830000000591
 21
-306.81665999999962
  0
LINE
  8
_0-3_躯体と製品
  6
CONTINUOUS
 62
    3
 10
15.383810000001176
 20
-337.69017999999949
 11
-6.1463500000008935
 21
-332.32209999999861
  0
LINE
  8
_0-3_躯体と製品
  6
CONTINUOUS
 62
    2
 10
311.63247000000229
 20
-385.16955999999959
 11
308.92294999999831
 21
-396.03687999999954
  0
LINE
  8
_0-3_躯体と製品
  6
CONTINUOUS
 62
    2
 10
304.84405000000061
 20
-389.24845999999843
 11
315.71137000000181
 21
-391.95797999999957
  0
LINE
  8
_0-4_図面枠
  6
CONTINUOUS
 62
    2
 10
417.32104999999774
 20
-408.24333999999965
 11
445.6053099999981
 21
-436.52757999999972
  0
LINE
  8
_0-3_躯体と製品
  6
CONTINUOUS
 62
    4
 10
-2173.6464899999992
 20
-37.028979999999478
 11
-2205.646490000001
 21
-37.028979999999478
  0
LINE
  8
_0-3_躯体と製品
  6
CONTINUOUS
 62
    2
 10
-2189.6464899999983
 20
-25.028979999999478
 11
-2189.6464899999983
 21
-49.028979999999478
  0
LINE
  8
_0-3_躯体と製品
  6
CONTINUOUS
 62
    4
 10
-2205.646490000001
 20
-38.628979999999615
 11
-2173.6464899999992
 21
-38.628979999999615
  0
LINE
  8
_0-3_躯体と製品
  6
CONTINUOUS
 62
    2
 10
-1787.2934499999992
 20
-23.00053999999966
 11
-1787.2934499999992
 21
-47.000539999998523
  0
LINE
  8
_0-3_躯体と製品
  6
CONTINUOUS
 62
    4
 10
-1803.2934499999974
 20
-36.600539999999569
 11
-1771.293450000001
 21
-36.600539999999569
  0
LINE
  8
_0-3_躯体と製品
  6
CONTINUOUS
 62
    4
 10
-1803.2934499999974
 20
-35.00053999999966
 11
-1771.293450000001
 21
-35.00053999999966
  0
LINE
  8
_0-3_躯体と製品
  6
CONTINUOUS
 62
    3
 10
1214.6377899999998
 20
-37.028979999999478
 11
1451.3472899999997
 21
-273.73847999999964
  0
LINE
  8
_0-4_図面枠
  6
CONTINUOUS
 62
    2
 10
548.83489000000009
 20
-636.03195999999946
 11
758.5798300000024
 21
-636.03195999999946
  0
TEXT
  8
_0-4_図面枠
 62
    7
 10
548.8351700000012
 20
-628.03189999999972
 40
60.000000000000121
 41
0.7999999999999987
 50
0.0000100000010403
  1
妻板補強
  0
LINE
  8
_0-3_躯体と製品
  6
PLINE5
 62
    3
 10
1180.3689099999992
 20
-455.02359999999976
 11
485.54467000000113
 21
-455.02359999999976
  0
LINE
  8
_0-3_躯体と製品
  6
PLINE5
 62
    3
 10
1203.4629299999988
 20
-415.02359999999976
 11
485.54467000000113
 21
-415.02359999999976
  0
LINE
  8
_0-3_躯体と製品
  6
PLINE5
 62
    3
 10
1200.6916500000016
 20
-419.8235999999996
 11
485.54467000000113
 21
-419.8235999999996
  0
LINE
  8
_0-3_躯体と製品
  6
CONTINUOUS
 62
    2
 10
724.60781000000043
 20
-429.42360000000065
 11
724.60781000000043
 21
-440.62359999999956
  0
LINE
  8
_0-3_躯体と製品
  6
CONTINUOUS
 62
    2
 10
719.00781000000097
 20
-435.02359999999976
 11
730.20780999999988
 21
-435.02359999999976
  0
LINE
  8
_0-3_躯体と製品
  6
CONTINUOUS
 62
    2
 10
548.82699000000048
 20
-429.42360000000065
 11
548.82699000000048
 21
-440.62359999999956
  0
LINE
  8
_0-3_躯体と製品
  6
CONTINUOUS
 62
    2
 10
543.22699000000102
 20
-435.02359999999976
 11
554.42698999999993
 21
-435.02359999999976
  0
LINE
  8
_0-3_躯体と製品
  6
CONTINUOUS
 62
    2
 10
1112.424210000001
 20
-429.42360000000065
 11
1112.424210000001
 21
-440.62359999999956
  0
LINE
  8
_0-3_躯体と製品
  6
CONTINUOUS
 62
    2
 10
1106.8242100000025
 20
-435.02359999999976
 11
1118.0242100000014
 21
-435.02359999999976
  0
LINE
  8
_0-3_躯体と製品
  6
CONTINUOUS
 62
    2
 10
918.24135000000024
 20
-429.42360000000065
 11
918.24135000000024
 21
-440.62359999999956
  0
LINE
  8
_0-3_躯体と製品
  6
CONTINUOUS
 62
    2
 10
912.64135000000078
 20
-435.02359999999976
 11
923.84135000000151
 21
-435.02359999999976
  0
LINE
  8
_0-3_躯体と製品
  6
CONTINUOUS
 62
    3
 10
1186.3535100000017
 20
-5.0289799999994784
 11
1186.3535100000017
 21
-37.028979999999478
  0
LINE
  8
_0-3_躯体と製品
  6
PLINE2
 62
    2
 10
1040.1505699999989
 20
1264.4310200000002
 11
71.129469999999856
 21
1264.4310200000002
  0
LINE
  8
_0-3_躯体と製品
  6
PLINE2
 62
    2
 10
1040.1505699999989
 20
1301.2310199999997
 11
71.129469999999856
 21
1301.2310199999997
  0
LINE
  8
_0-3_躯体と製品
  6
PLINE2
 62
    2
 10
1040.1505699999989
 20
1304.4310200000002
 11
71.129469999999856
 21
1304.4310200000002
  0
LINE
  8
_0-3_躯体と製品
  6
PLINE2
 62
    3
 10
71.129469999999856
 20
980.19762000000094
 11
1125.277009999998
 21
663.95336000000009
  0
LINE
  8
_0-3_躯体と製品
  6
CONTINUOUS
 62
    4
 10
860.29957000000013
 20
744.49062000000106
 11
71.129469999999856
 21
981.2416400000003
  0
LINE
  8
_0-3_躯体と製品
  6
PLINE2
 62
    5
 10
-735.87373000000116
 20
1114.7778200000002
 11
-606.63100999999824
 21
1244.0205199999998
  0
LINE
  8
_0-3_躯体と製品
  6
PLINE2
 62
    5
 10
-694.28428999999778
 20
1085.6565799999994
 11
-565.04157000000123
 21
1214.8992799999992
  0
LINE
  8
_0-3_躯体と製品
  6
CONTINUOUS
 62
    3
 10
-536.87052999999742
 20
841.00164000000041
 11
-536.87052999999742
 21
1195.1737199999998
  0
LINE
  8
_0-3_躯体と製品
  6
CONTINUOUS
 62
    4
 10
-529.67052999999942
 20
1344.2899600000005
 11
-529.67052999999942
 21
801.00164000000029
  0
LINE
  8
_0-3_躯体と製品
  6
PLINE2
 62
    5
 10
-819.05258999999751
 20
1173.0203000000001
 11
-689.80988999999863
 21
1302.2629999999999
  0
LINE
  8
_0-3_躯体と製品
  6
PLINE2
 62
    5
 10
-777.46316999999817
 20
1143.8990600000006
 11
-648.22045000000071
 21
1273.1417600000004
  0
LINE
  8
_0-3_躯体と製品
  6
CONTINUOUS
 62
    4
 10
-1192.4152900000017
 20
1384.6440600000001
 11
-648.87053000000105
 21
1004.0499199999996
  0
LINE
  8
_0-3_躯体と製品
  6
PLINE2
 62
    2
 10
-536.87052999999742
 20
930.50977999999952
 11
-1189.9757100000006
 21
1387.8189399999992
  0
LINE
  8
_0-3_躯体と製品
  6
CONTINUOUS
 62
    3
 10
-536.87052999999742
 20
975.43427999999915
 11
-1161.6040300000004
 21
1412.8773799999994
  0
LINE
  8
_0-3_躯体と製品
  6
CONTINUOUS
 62
    3
 10
-536.87052999999742
 20
926.6033000000001
 11
-1191.8111500000005
 21
1385.1976600000007
  0
LINE
  8
_0-3_躯体と製品
  6
PLINE2
 62
    3
 10
71.129469999999856
 20
980.19762000000094
 11
-983.01807000000008
 21
663.95336000000009
  0
TEXT
  8
_0-4_図面枠
 62
    7
 10
-241.59025000000202
 20
541.44672000000105
 40
60
 41
0.8000000000000002
 50
0
  1
ＳＣ１５００
  0
LINE
  8
_0-3_躯体と製品
  6
CONTINUOUS
 62
    4
 10
-718.04064999999991
 20
744.49062000000106
 11
-529.67052999999942
 21
801.00164000000029
  0
LINE
  8
_0-3_躯体と製品
  6
CONTINUOUS
 62
    4
 10
-718.04064999999991
 20
744.49062000000106
 11
-717.88713000000098
 21
743.97891999999922
  0
LINE
  8
_0-3_躯体と製品
  6
CONTINUOUS
 62
    4
 10
-717.88713000000098
 20
743.97891999999922
 11
-701.19578999999885
 21
748.98631999999986
  0
LINE
  8
_0-3_躯体と製品
  6
CONTINUOUS
 62
    3
 10
-528.87053000000196
 20
841.00164000000041
 11
-536.87052999999742
 21
841.00164000000041
  0
TEXT
  8
_0-4_図面枠
 62
    7
 10
168.65571000000091
 20
542.36866000000055
 40
60
 41
0.8
 50
0
  1
ＨＬ
  0
LINE
  8
_0-3_躯体と製品
  6
PLINE2
 62
    5
 10
-569.51596999999947
 20
998.29285999999991
 11
-536.87052999999742
 21
1030.9382999999998
  0
LINE
  8
_0-3_躯体と製品
  6
CONTINUOUS
 62
    2
 10
-658.6524100000006
 20
1035.3147599999998
 11
-681.5954700000002
 21
1002.5486799999995
  0
LINE
  8
_0-3_躯体と製品
  6
CONTINUOUS
 62
    2
 10
-549.67052999999942
 20
904.43102000000044
 11
-509.67052999999942
 21
904.43102000000044
  0
LINE
  8
_0-3_躯体と製品
  6
CONTINUOUS
 62
    2
 10
-549.67052999999942
 20
864.43102000000033
 11
-509.67052999999942
 21
864.43102000000033
  0
LINE
  8
_0-3_躯体と製品
  6
CONTINUOUS
 62
    4
 10
-648.87053000000105
 20
921.00164000000041
 11
-648.07052999999814
 21
921.00164000000041
  0
LINE
  8
_0-3_躯体と製品
  6
CONTINUOUS
 62
    4
 10
-648.07052999999814
 20
921.00164000000041
 11
-648.07052999999814
 21
929.00164000000109
  0
LINE
  8
_0-3_躯体と製品
  6
CONTINUOUS
 62
    4
 10
-648.87053000000105
 20
1004.0499199999996
 11
-648.87053000000105
 21
921.00164000000041
  0
LINE
  8
_0-3_躯体と製品
  6
CONTINUOUS
 62
    2
 10
-536.87052999999742
 20
975.43427999999915
 11
-528.87053000000196
 21
975.43427999999915
  0
LINE
  8
_0-3_躯体と製品
  6
PLINE2
 62
    5
 10
-611.10541000000194
 20
1027.4141000000004
 11
-536.87052999999742
 21
1101.6489799999995
  0
LINE
  8
_0-3_躯体と製品
  6
CONTINUOUS
 62
    2
 10
-549.67052999999942
 20
1100.4310200000004
 11
-509.67052999999942
 21
1100.4310200000004
  0
LINE
  8
_0-3_躯体と製品
  6
PLINE2
 62
    5
 10
-652.69484999999986
 20
1056.5353399999999
 11
-536.87052999999742
 21
1172.3596600000005
  0
LINE
  8
_0-3_躯体と製品
  6
CONTINUOUS
 62
    2
 10
-813.96364999999787
 20
1144.0648600000004
 11
-836.9067100000002
 21
1111.2987799999992
  0
LINE
  8
_0-3_躯体と製品
  6
PLINE2
 62
    5
 10
-902.23146999999972
 20
1231.2627799999991
 11
-772.98876999999993
 21
1360.5054800000003
  0
LINE
  8
_0-3_躯体と製品
  6
PLINE2
 62
    5
 10
-943.82091000000128
 20
1260.38402
 11
-811.24232999999822
 21
1392.9626000000003
  0
LINE
  8
_0-3_躯体と製品
  6
PLINE2
 62
    5
 10
-1026.9997900000017
 20
1318.6264999999999
 11
-811.24232999999822
 21
1534.3839399999997
  0
LINE
  8
_0-3_躯体と製品
  6
PLINE2
 62
    5
 10
-985.41035000000011
 20
1289.5052600000004
 11
-811.24232999999822
 21
1463.67328
  0
LINE
  8
_0-3_躯体と製品
  6
PLINE2
 62
    5
 10
-1068.5892299999996
 20
1347.7477400000005
 11
-811.24232999999822
 21
1605.0946199999994
  0
LINE
  8
_0-3_躯体と製品
  6
PLINE2
 62
    5
 10
-1181.3648500000018
 20
1447.1041400000008
 11
-811.24232999999822
 21
1817.2266600000007
  0
LINE
  8
_0-3_躯体と製品
  6
PLINE2
 62
    5
 10
-1151.76811
 20
1405.9902000000006
 11
-811.24232999999822
 21
1746.5159800000001
  0
LINE
  8
_0-3_躯体と製品
  6
PLINE2
 62
    5
 10
-1110.1786699999975
 20
1376.86898
 11
-811.24232999999822
 21
1675.8052999999991
  0
LINE
  8
_0-3_躯体と製品
  6
CONTINUOUS
 62
    3
 10
-1444.34645
 20
1829.0016399999997
 11
-806.33094999999867
 21
1829.0016399999997
  0
LINE
  8
_0-3_躯体と製品
  6
CONTINUOUS
 62
    2
 10
-1135.0712499999991
 20
1368.9068199999992
 11
-1158.0143100000005
 21
1336.1407400000003
  0
LINE
  8
_0-3_躯体と製品
  6
CONTINUOUS
 62
    2
 10
-974.51745000000119
 20
1256.4858399999998
 11
-997.46050999999807
 21
1223.7197599999997
  0
LINE
  8
_0-3_躯体と製品
  6
CONTINUOUS
 62
    2
 10
-1186.25695
 20
1415.5775200000003
 11
-1220.8979699999991
 21
1395.5775200000003
  0
LINE
  8
_0-3_躯体と製品
  6
CONTINUOUS
 62
    4
 10
-1191.4688099999985
 20
1383.0047200000008
 11
-1166.7930300000007
 21
1365.7265400000001
  0
LINE
  8
_0-3_躯体と製品
  6
CONTINUOUS
 62
    2
 10
-1292.5497699999978
 20
1598.0820799999999
 11
-1327.1907900000015
 21
1578.0820799999999
  0
LINE
  8
_0-3_躯体と製品
  6
CONTINUOUS
 62
    2
 10
-1396.5497699999987
 20
1778.2153800000001
 11
-1431.1907899999978
 21
1758.2153800000001
  0
LINE
  8
_0-3_躯体と製品
  6
CONTINUOUS
 62
    3
 10
-533.67053000000124
 20
1519.3199999999997
 11
-533.67053000000124
 21
1499.0031800000004
  0
LINE
  8
_0-3_躯体と製品
  6
CONTINUOUS
 62
    3
 10
-497.09444999999687
 20
1304.4310200000002
 11
71.129469999999856
 21
1304.4310200000002
  0
LINE
  8
_0-3_躯体と製品
  6
PLINE2
 62
    2
 10
-524.07053000000087
 20
1341.2310199999997
 11
71.129469999999856
 21
1341.2310199999997
  0
LINE
  8
_0-3_躯体と製品
  6
CONTINUOUS
 62
    3
 10
-524.07053000000087
 20
1344.4310200000004
 11
71.129469999999856
 21
1344.4310200000004
  0
LINE
  8
_0-3_躯体と製品
  6
CONTINUOUS
 62
    3
 10
-811.24232999999822
 20
1387.2909199999999
 11
-536.87052999999742
 21
1195.1737199999998
  0
LINE
  8
_0-3_躯体と製品
  6
CONTINUOUS
 62
    4
 10
-561.18438999999944
 20
1338.733220000001
 11
-529.67052999999942
 21
1344.2899600000005
  0
LINE
  8
_0-3_躯体と製品
  6
CONTINUOUS
 62
    2
 10
-549.67052999999942
 20
1296.4310199999995
 11
-509.67052999999942
 21
1296.4310199999995
  0
LINE
  8
_0-3_躯体と製品
  6
PLINE2
 62
    5
 10
-860.64203000000089
 20
1202.1415399999996
 11
-731.3993300000011
 21
1331.3842399999994
  0
LINE
  8
_0-3_躯体と製品
  6
CONTINUOUS
 62
    2
 10
-506.70276999999987
 20
1329.2064399999999
 11
-506.70276999999987
 21
1318.0064399999999
  0
LINE
  8
_0-3_躯体と製品
  6
CONTINUOUS
 62
    2
 10
-512.30276999999751
 20
1323.6064400000005
 11
-501.1027699999986
 21
1323.6064400000005
  0
LINE
  8
_0-3_躯体と製品
  6
CONTINUOUS
 62
    3
 10
-524.07053000000087
 20
1304.4310200000002
 11
-517.21926999999778
 21
1304.4310200000002
  0
LINE
  8
_0-3_躯体と製品
  6
CONTINUOUS
 62
    3
 10
-533.67053000000124
 20
1499.0031800000004
 11
-528.87053000000196
 21
1499.0031800000004
  0
LINE
  8
_0-3_躯体と製品
  6
CONTINUOUS
 62
    2
 10
71.129469999999856
 20
1284.4310200000004
 11
76.738830000002054
 21
1284.4310200000004
  0
LINE
  8
_0-3_躯体と製品
  6
CONTINUOUS
 62
    2
 10
374.31717000000208
 20
1285.2226000000003
 11
385.51717000000099
 21
1285.2226000000003
  0
LINE
  8
_0-3_躯体と製品
  6
CONTINUOUS
 62
    2
 10
379.91717000000153
 20
1290.8226000000009
 11
379.91717000000153
 21
1279.6225999999997
  0
LINE
  8
_0-3_躯体と製品
  6
CONTINUOUS
 62
    2
 10
224.91885000000093
 20
1285.2226000000003
 11
236.11885000000075
 21
1285.2226000000003
  0
LINE
  8
_0-3_躯体と製品
  6
CONTINUOUS
 62
    2
 10
230.51885000000129
 20
1290.8226000000009
 11
230.51885000000129
 21
1279.6225999999997
  0
LINE
  8
_0-3_躯体と製品
  6
CONTINUOUS
 62
    4
 10
-554.92744999999741
 20
1703.8785200000002
 11
-738.77812999999787
 21
1549.6095
  0
LINE
  8
_0-3_躯体と製品
  6
CONTINUOUS
 62
    3
 10
-712.72125000000051
 20
1567.2964999999995
 11
-533.67053000000124
 21
1717.5378999999994
  0
LINE
  8
_0-3_躯体と製品
  6
CONTINUOUS
 62
    3
 10
-702.57238999999754
 20
1569.54646
 11
-528.87053000000196
 21
1715.2996200000002
  0
LINE
  8
_0-3_躯体と製品
  6
CONTINUOUS
 62
    2
 10
-549.67052999999942
 20
1509.5468799999999
 11
-509.67052999999942
 21
1509.5468799999999
  0
LINE
  8
_0-3_躯体と製品
  6
CONTINUOUS
 62
    3
 10
-712.72125000000051
 20
1567.2964999999995
 11
-533.67053000000124
 21
1519.3199999999997
  0
LINE
  8
_0-3_躯体と製品
  6
CONTINUOUS
 62
    3
 10
-528.87053000000196
 20
1523.0031800000002
 11
-702.57238999999754
 21
1569.54646
  0
LINE
  8
_0-3_躯体と製品
  6
CONTINUOUS
 62
    2
 10
-638.27974999999878
 20
1665.2674199999997
 11
-607.42594999999892
 21
1628.4973
  0
LINE
  8
_0-3_躯体と製品
  6
CONTINUOUS
 62
    4
 10
-738.77812999999787
 20
1549.6095
 11
-738.77812999999787
 21
1537.6095000000005
  0
LINE
  8
_0-3_躯体と製品
  6
CONTINUOUS
 62
    2
 10
-549.67052999999942
 20
1724.2903999999994
 11
-509.67052999999942
 21
1724.2903999999994
  0
LINE
  8
_0-3_躯体と製品
  6
CONTINUOUS
 62
    4
 10
-554.92744999999741
 20
1715.8785200000007
 11
-554.92744999999741
 21
1703.8785200000002
  0
LINE
  8
_0-3_躯体と製品
  6
CONTINUOUS
 62
    3
 10
-533.67053000000124
 20
1717.5378999999994
 11
-533.67053000000124
 21
1731.0300400000001
  0
LINE
  8
_0-3_躯体と製品
  6
CONTINUOUS
 62
    3
 10
-533.67053000000124
 20
1731.0300400000001
 11
-528.87053000000196
 21
1731.0300400000001
  0
LINE
  8
_0-3_躯体と製品
  6
CONTINUOUS
 62
    3
 10
811.12946999999804
 20
994.6152000000003
 11
1349.1736299999984
 21
1371.3578000000002
  0
LINE
  8
_0-3_躯体と製品
  6
PLINE2
 62
    2
 10
631.12946999999804
 20
1020.5372800000006
 11
631.12946999999804
 21
813.24164000000087
  0
LINE
  8
_0-3_躯体と製品
  6
PLINE2
 62
    2
 10
671.12946999999895
 20
1020.5372800000006
 11
671.12946999999895
 21
801.2416400000003
  0
LINE
  8
_0-3_躯体と製品
  6
PLINE2
 62
    2
 10
666.32946999999876
 20
1020.5372800000006
 11
666.32946999999876
 21
802.68164000000036
  0
LINE
  8
_0-3_躯体と製品
  6
CONTINUOUS
 62
    3
 10
811.12946999999804
 20
759.24163999999996
 11
811.12946999999804
 21
994.6152000000003
  0
LINE
  8
_0-3_躯体と製品
  6
CONTINUOUS
 62
    4
 10
860.29957000000013
 20
744.49062000000106
 11
860.14606999999887
 21
743.97891999999922
  0
LINE
  8
_0-3_躯体と製品
  6
CONTINUOUS
 62
    4
 10
860.14606999999887
 20
743.97891999999922
 11
843.4547300000022
 21
748.98631999999986
  0
LINE
  8
_0-3_躯体と製品
  6
CONTINUOUS
 62
    2
 10
672.01875000000018
 20
1288.3514800000007
 11
672.01875000000018
 21
1277.1514799999995
  0
LINE
  8
_0-3_躯体と製品
  6
CONTINUOUS
 62
    2
 10
666.41875000000073
 20
1282.7514800000004
 11
677.61874999999873
 21
1282.7514800000004
  0
LINE
  8
_0-3_躯体と製品
  6
CONTINUOUS
 62
    2
 10
527.17381000000114
 20
1285.2226000000003
 11
538.37381000000096
 21
1285.2226000000003
  0
LINE
  8
_0-3_躯体と製品
  6
CONTINUOUS
 62
    2
 10
532.77381000000241
 20
1290.8226000000009
 11
532.77381000000241
 21
1279.6225999999997
  0
LINE
  8
_0-3_躯体と製品
  6
CONTINUOUS
 62
    2
 10
979.11531000000014
 20
1288.3514800000007
 11
979.11531000000014
 21
1277.1514799999995
  0
LINE
  8
_0-3_躯体と製品
  6
CONTINUOUS
 62
    2
 10
973.51531000000159
 20
1282.7514800000004
 11
984.71530999999959
 21
1282.7514800000004
  0
LINE
  8
_0-3_躯体と製品
  6
CONTINUOUS
 62
    2
 10
836.63357000000178
 20
1288.3514800000007
 11
836.63357000000178
 21
1277.1514799999995
  0
LINE
  8
_0-3_躯体と製品
  6
CONTINUOUS
 62
    2
 10
831.03357000000233
 20
1282.7514800000004
 11
842.23357000000215
 21
1282.7514800000004
  0
LINE
  8
_0-3_躯体と製品
  6
PLINE2
 62
    2
 10
1462.2402500000007
 20
1829.0016399999997
 11
948.58989000000111
 21
1829.0016399999997
  0
LINE
  8
_0-4_図面枠
  6
CONTINUOUS
 62
    2
 10
-2117.8333300000013
 20
2800.3333400000006
 11
-3451.1666700000001
 21
2800.3333400000006
  0
LINE
  8
_0-4_図面枠
  6
CONTINUOUS
 62
    4
 10
-3451.1666700000001
 20
2633.6666600000003
 11
4292.1666699999996
 21
2633.6666600000003
  0
LINE
  8
_0-4_図面枠
  6
CONTINUOUS
 62
    4
 10
-3451.1666700000001
 20
2966.9999999999995
 11
4292.1666699999996
 21
2966.9999999999995
  0
LINE
  8
_0-4_図面枠
  6
CONTINUOUS
 62
    2
 10
-2784.5000099999988
 20
2966.9999999999995
 11
-2784.5000099999988
 21
2633.6666600000003
  0
TEXT
  8
_0-4_図面枠
 62
    7
 10
-3259.9878700000027
 20
2678.2521399999982
 40
60
 41
0.7999999999999987
 50
0
  1
縮　　尺
  0
TEXT
  8
_0-4_図面枠
 62
    7
 10
-2656.6694500000017
 20
2675.0441199999996
 40
60
 41
0.7999999999999999
 50
0
  1
Ｓ　１：２５
  0
TEXT
  8
_0-4_図面枠
 62
    7
 10
-3294.8180699999989
 20
2835.8519199999996
 40
60
 41
0.8000000000000001
 50
0
  1
ファイル名
  0
TEXT
  8
_0-4_図面枠
 62
    7
 10
-2658.4876099999988
 20
2839.7441399999993
 40
60
 41
0.800000000000001
 50
0
  1
ＭＯＮ００６
  0
TEXT
  8
_0-4_図面枠
 62
    7
 10
-1338.6649900000002
 20
2715.2788000000005
 40
200
 41
0.8
 50
0
  1
連続式ベンチレーター　排煙ＨＬ型（１５００・２０００）
  0
LINE
  8
_0-3_躯体と製品
  6
PLINE2
 62
    2
 10
952.91190999999981
 20
1864.2016399999998
 11
71.129469999999856
 21
2084.0546999999992
  0
LINE
  8
_0-3_躯体と製品
  6
PLINE2
 62
    2
 10
953.50126999999884
 20
1869.00164
 11
71.129469999999856
 21
2089.0016399999995
  0
LINE
  8
_0-3_躯体と製品
  6
PLINE2
 62
    2
 10
1471.1294699999999
 20
2171.4016399999996
 11
71.129469999999856
 21
2171.4016399999996
  0
LINE
  8
_0-3_躯体と製品
  6
CONTINUOUS
 62
    3
 10
1471.1294699999999
 20
2201.0016399999986
 11
71.129469999999856
 21
2201.0016399999986
  0
LINE
  8
_0-3_躯体と製品
  6
CONTINUOUS
 62
    3
 10
71.129469999999856
 20
2169.0016399999995
 11
1499.4137299999993
 21
2169.0016399999995
  0
LINE
  8
_0-3_躯体と製品
  6
PLINE2
 62
    2
 10
-1464.6691900000005
 20
1864.2016399999998
 11
-810.65296999999919
 21
1864.2016399999998
  0
LINE
  8
_0-3_躯体と製品
  6
CONTINUOUS
 62
    3
 10
-1440.1495300000006
 20
1869.00164
 11
-811.24232999999822
 21
1869.00164
  0
LINE
  8
_0-3_躯体と製品
  6
CONTINUOUS
 62
    4
 10
-1028.0705299999972
 20
1869.8016400000001
 11
-729.67052999999942
 21
2168.2016399999993
  0
LINE
  8
_0-3_躯体と製品
  6
PLINE2
 62
    2
 10
-1328.870530000002
 20
2171.4016399999996
 11
71.129469999999856
 21
2171.4016399999996
  0
LINE
  8
_0-3_躯体と製品
  6
CONTINUOUS
 62
    3
 10
-1328.870530000002
 20
2201.0016399999986
 11
71.129469999999856
 21
2201.0016399999986
  0
LINE
  8
_0-3_躯体と製品
  6
CONTINUOUS
 62
    3
 10
-1328.870530000002
 20
2169.0016399999995
 11
71.129469999999856
 21
2169.0016399999995
  0
LINE
  8
_0-3_躯体と製品
  6
CONTINUOUS
 62
    4
 10
-1328.0705299999972
 20
1869.8016400000001
 11
-1029.6705299999994
 21
2168.2016399999993
  0
LINE
  8
_0-3_躯体と製品
  6
CONTINUOUS
 62
    4
 10
-1529.8702900000008
 20
1969.1332600000005
 11
-1329.2019099999989
 21
2169.8016399999992
  0
LINE
  8
_0-3_躯体と製品
  6
PLINE2
 62
    2
 10
-1524.8715299999976
 20
1968.47516
 11
-1324.345049999999
 21
2169.0016399999995
  0
LINE
  8
_0-3_躯体と製品
  6
CONTINUOUS
 62
    3
 10
-1528.870530000002
 20
1969.00164
 11
-1328.870530000002
 21
2169.0016399999995
  0
LINE
  8
_0-3_躯体と製品
  6
CONTINUOUS
 62
    2
 10
-1015.8108300000022
 20
2188.2016399999993
 11
-1015.8108300000022
 21
2148.2016399999993
  0
LINE
  8
_0-3_躯体と製品
  6
CONTINUOUS
 62
    2
 10
-1244.345049999999
 20
2164.2016399999993
 11
-1244.345049999999
 21
2169.0016399999995
  0
LINE
  8
_0-3_躯体と製品
  6
CONTINUOUS
 62
    2
 10
-1282.1079500000005
 20
2189.0016399999995
 11
-1282.1079500000005
 21
2149.0016399999995
  0
LINE
  8
_0-3_躯体と製品
  6
CONTINUOUS
 62
    3
 10
-1328.870530000002
 20
2169.0016399999995
 11
-1300.5862700000007
 21
2140.7173800000005
  0
LINE
  8
_0-3_躯体と製品
  6
CONTINUOUS
 62
    3
 10
-1478.8829700000015
 20
1962.4206599999998
 11
-1300.5862700000007
 21
2140.7173800000005
  0
LINE
  8
_0-3_躯体と製品
  6
CONTINUOUS
 62
    2
 10
-1340.9069699999982
 20
1889.00164
 11
-1340.9069699999982
 21
1849.0016399999997
  0
LINE
  8
_0-3_躯体と製品
  6
CONTINUOUS
 62
    4
 10
-1352.8571900000015
 20
1869.8016400000001
 11
-1328.0705299999972
 21
1869.8016400000001
  0
LINE
  8
_0-3_躯体と製品
  6
PLINE2
 62
    5
 10
-1400.6634499999991
 20
1864.2016399999998
 11
-1414.3019900000008
 21
1850.5631200000003
  0
LINE
  8
_0-3_躯体と製品
  6
CONTINUOUS
 62
    2
 10
-1437.8993299999975
 20
1851.3193399999996
 11
-1432.2993299999989
 21
1841.6198600000002
  0
LINE
  8
_0-3_躯体と製品
  6
CONTINUOUS
 62
    2
 10
-1439.9490699999997
 20
1843.6696000000002
 11
-1430.2495699999981
 21
1849.2695999999996
  0
LINE
  8
_0-3_躯体と製品
  6
CONTINUOUS
 62
    3
 10
-1447.6502899999987
 20
1869.00164
 11
-1467.4404699999986
 21
1869.00164
  0
LINE
  8
_0-3_躯体と製品
  6
CONTINUOUS
 62
    2
 10
-1499.8569500000012
 20
1958.7486600000007
 11
-1534.4979699999994
 21
1938.7486600000007
  0
LINE
  8
_0-3_躯体と製品
  6
CONTINUOUS
 62
    2
 10
-1525.7290699999994
 20
2000.4273800000005
 11
-1497.4447900000023
 21
1972.1431200000002
  0
LINE
  8
_0-3_躯体と製品
  6
CONTINUOUS
 62
    2
 10
-1040.9069699999982
 20
1889.00164
 11
-1040.9069699999982
 21
1849.0016399999997
  0
LINE
  8
_0-3_躯体と製品
  6
CONTINUOUS
 62
    4
 10
-1052.8571900000015
 20
1869.8016400000001
 11
-1028.0705299999972
 21
1869.8016400000001
  0
LINE
  8
_0-3_躯体と製品
  6
PLINE2
 62
    2
 10
-1322.3568300000006
 20
2164.2016399999993
 11
-1349.2352099999989
 21
2137.3232599999992
  0
LINE
  8
_0-3_躯体と製品
  6
PLINE2
 62
    2
 10
-1349.2352099999989
 20
2137.3232599999992
 11
-1352.6293300000016
 21
2140.7173800000005
  0
LINE
  8
_0-3_躯体と製品
  6
CONTINUOUS
 62
    2
 10
-1322.3568300000006
 20
2164.2016399999993
 11
-1244.345049999999
 21
2164.2016399999993
  0
LINE
  8
_0-3_躯体と製品
  6
CONTINUOUS
 62
    2
 10
-1371.2969499999981
 20
2154.8594999999996
 11
-1343.0126700000001
 21
2126.5752400000006
  0
LINE
  8
_0-3_躯体と製品
  6
CONTINUOUS
 62
    4
 10
-1329.2019099999989
 20
2169.8016399999992
 11
-1296.8705299999992
 21
2169.8016399999992
  0
LINE
  8
_0-3_躯体と製品
  6
CONTINUOUS
 62
    3
 10
-1328.870530000002
 20
2201.0016399999986
 11
-1328.870530000002
 21
2169.0016399999995
  0
LINE
  8
_0-3_躯体と製品
  6
CONTINUOUS
 62
    4
 10
-1029.6705299999994
 20
2168.2016399999993
 11
-996.87052999999742
 21
2168.2016399999993
  0
LINE
  8
_0-3_躯体と製品
  6
CONTINUOUS
 62
    2
 10
-715.81083000000308
 20
2188.2016399999993
 11
-715.81083000000308
 21
2148.2016399999993
  0
LINE
  8
_0-3_躯体と製品
  6
PLINE2
 62
    2
 10
-810.65296999999919
 20
1864.2016399999998
 11
71.129469999999856
 21
2084.0546999999992
  0
LINE
  8
_0-3_躯体と製品
  6
CONTINUOUS
 62
    3
 10
-811.24232999999822
 20
1869.00164
 11
71.129469999999856
 21
2089.0016399999995
  0
LINE
  8
_0-3_躯体と製品
  6
CONTINUOUS
 62
    4
 10
70.329470000000583
 20
2089.6266799999994
 11
-806.21140999999898
 21
1871.0804800000001
  0
LINE
  8
_0-3_躯体と製品
  6
CONTINUOUS
 62
    3
 10
71.129469999999856
 20
2047.7771000000002
 11
-496.80069000000185
 21
1906.1761999999997
  0
LINE
  8
_0-3_躯体と製品
  6
CONTINUOUS
 62
    2
 10
-271.62752999999793
 20
2021.9015999999997
 11
-263.32861000000048
 21
1988.6164400000002
  0
LINE
  8
_0-3_躯体と製品
  6
CONTINUOUS
 62
    2
 10
-782.78244999999788
 20
1889.5094200000003
 11
-774.48352999999952
 21
1856.22426
  0
LINE
  8
_0-3_躯体と製品
  6
CONTINUOUS
 62
    4
 10
-806.21140999999898
 20
1871.0804800000001
 11
-806.21140999999898
 21
1859.0804799999996
  0
LINE
  8
_0-3_躯体と製品
  6
CONTINUOUS
 62
    2
 10
-851.85952999999881
 20
1851.9947199999997
 11
-851.85952999999881
 21
1840.7947199999999
  0
LINE
  8
_0-3_躯体と製品
  6
CONTINUOUS
 62
    2
 10
-857.45952999999918
 20
1846.3947200000002
 11
-846.25952999999845
 21
1846.3947200000002
  0
LINE
  8
_0-3_躯体と製品
  6
CONTINUOUS
 62
    2
 10
-513.84791000000223
 20
1919.4413200000004
 11
-502.64790999999786
 21
1919.4413200000004
  0
LINE
  8
_0-3_躯体と製品
  6
PLINE2
 62
    2
 10
-528.87053000000196
 20
1898.1803
 11
-524.07053000000087
 21
1898.1803
  0
LINE
  8
_0-3_躯体と製品
  6
CONTINUOUS
 62
    2
 10
-508.24791000000187
 20
1925.0413199999998
 11
-508.24791000000187
 21
1913.8413200000009
  0
LINE
  8
_0-3_躯体と製品
  6
CONTINUOUS
 62
    2
 10
-527.78560999999809
 20
1958.0342199999991
 11
-519.48668999999973
 21
1924.7490600000001
  0
LINE
  8
_0-3_躯体と製品
  6
CONTINUOUS
 62
    2
 10
362.40102999999908
 20
2001.5386600000006
 11
359.69151000000056
 21
1990.6713399999999
  0
LINE
  8
_0-3_躯体と製品
  6
CONTINUOUS
 62
    2
 10
355.61261000000104
 20
1997.4597600000002
 11
366.4799299999986
 21
1994.7502400000003
  0
LINE
  8
_0-3_躯体と製品
  6
CONTINUOUS
 62
    2
 10
71.129469999999856
 20
2069.1809400000006
 11
77.088670000000093
 21
2069.1809400000006
  0
LINE
  8
_0-3_躯体と製品
  6
CONTINUOUS
 62
    4
 10
70.329470000000583
 20
2097.6266800000003
 11
70.329470000000583
 21
2089.6266799999994
  0
LINE
  8
_0-3_躯体と製品
  6
CONTINUOUS
 62
    2
 10
-14.308250000000953
 20
2081.1115599999985
 11
-6.0093100000021877
 21
2047.8264000000008
  0
LINE
  8
_0-3_躯体と製品
  6
CONTINUOUS
 62
    2
 10
206.20419000000129
 20
2040.4829000000002
 11
203.49465000000055
 21
2029.6155799999992
  0
LINE
  8
_0-3_躯体と製品
  6
CONTINUOUS
 62
    2
 10
199.4157699999987
 20
2036.4039999999998
 11
210.28307000000314
 21
2033.694480000001
  0
LINE
  8
_0-3_躯体と製品
  6
CONTINUOUS
 62
    4
 10
-729.67052999999942
 20
2168.2016399999993
 11
-696.87052999999742
 21
2168.2016399999993
  0
LINE
  8
_0-4_図面枠
  6
CONTINUOUS
 62
    4
 10
-2117.8333300000013
 20
2966.9999999999995
 11
-2117.8333300000013
 21
2633.6666600000003
  0
LINE
  8
_0-3_躯体と製品
  6
CONTINUOUS
 62
    3
 10
1499.4137299999993
 20
2169.0016399999995
 11
1696.1232499999978
 21
1972.2921399999991
  0
LINE
  8
_0-3_躯体と製品
  6
PLINE2
 62
    2
 10
1462.2402500000007
 20
1864.2016399999998
 11
952.91190999999981
 21
1864.2016399999998
  0
LINE
  8
_0-3_躯体と製品
  6
PLINE2
 62
    2
 10
1462.2402500000007
 20
1869.00164
 11
953.50126999999884
 21
1869.00164
  0
LINE
  8
_0-3_躯体と製品
  6
CONTINUOUS
 62
    2
 10
758.79338999999891
 20
1902.70694
 11
756.08384999999817
 21
1891.8396200000002
  0
LINE
  8
_0-3_躯体と製品
  6
CONTINUOUS
 62
    2
 10
752.00497000000087
 20
1898.6280400000005
 11
762.87227000000075
 21
1895.9185199999997
  0
LINE
  8
_0-3_躯体と製品
  6
CONTINUOUS
 62
    2
 10
648.25220999999783
 20
1924.4965199999997
 11
659.11950999999954
 21
1921.7869800000012
  0
LINE
  8
_0-3_躯体と製品
  6
CONTINUOUS
 62
    2
 10
655.04063000000224
 20
1928.5754000000006
 11
652.33110999999826
 21
1917.7080999999994
  0
LINE
  8
_0-3_躯体と製品
  6
CONTINUOUS
 62
    2
 10
509.63507000000118
 20
1964.8290800000004
 11
506.92554999999902
 21
1953.9617599999995
  0
LINE
  8
_0-3_躯体と製品
  6
CONTINUOUS
 62
    2
 10
502.84667000000172
 20
1960.7501799999995
 11
513.71397000000252
 21
1958.0406599999999
  0
LINE
  8
_0-3_躯体と製品
  6
CONTINUOUS
 62
    2
 10
1024.663349999998
 20
1854.6016400000003
 11
1024.663349999998
 21
1843.4016399999991
  0
LINE
  8
_0-3_躯体と製品
  6
CONTINUOUS
 62
    2
 10
1019.0633499999994
 20
1849.0016399999997
 11
1030.2633499999984
 21
1849.0016399999997
  0
LINE
  8
_0-3_躯体と製品
  6
CONTINUOUS
 62
    2
 10
910.11733000000095
 20
1864.9776399999992
 11
907.40781000000243
 21
1854.1103200000007
  0
LINE
  8
_0-3_躯体と製品
  6
CONTINUOUS
 62
    2
 10
903.32890999999927
 20
1860.8987399999996
 11
914.19623000000047
 21
1858.1892200000002
  0
LINE
  8
_0-3_躯体と製品
  6
CONTINUOUS
 62
    2
 10
1331.7599300000011
 20
1854.6016400000003
 11
1331.7599300000011
 21
1843.4016399999991
  0
LINE
  8
_0-3_躯体と製品
  6
CONTINUOUS
 62
    2
 10
1326.1599300000025
 20
1849.0016399999997
 11
1337.3599300000014
 21
1849.0016399999997
  0
LINE
  8
_0-3_躯体と製品
  6
CONTINUOUS
 62
    2
 10
1189.2781900000027
 20
1854.6016400000003
 11
1189.2781900000027
 21
1843.4016399999991
  0
LINE
  8
_0-3_躯体と製品
  6
CONTINUOUS
 62
    2
 10
1183.6781899999987
 20
1849.0016399999997
 11
1194.8781900000022
 21
1849.0016399999997
  0
LINE
  8
_0-3_躯体と製品
  6
CONTINUOUS
 62
    3
 10
1471.1294699999999
 20
2201.0016399999986
 11
1471.1294699999999
 21
2169.0016399999995
  0
ENDSEC
  0
EOF
