  0
SECTION
  2
HEADER
  9
$ACADVER
  1
AC1009
  9
$INSBASE
 10
0
 20
0
 30
0
  9
$EXTMIN
 10
0
 20
0
  9
$EXTMAX
 10
8910
 20
6300
  9
$LIMMIN
 10
0
 20
0
  9
$LIMMAX
 10
8910
 20
6300
  9
$LTSCALE
 40
30
  0
ENDSEC
  0
SECTION
  2
TABLES
  0
TABLE
  2
LTYPE
 70
     9
  0
LTYPE
  2
CONTINUOUS
 70
    64
  3
実線
 72
    65
 73
     0
 40
0.0
  0
LTYPE
  2
DASHED1
 70
    64
  3
--  --  --  --  --  --  --  --  
 72
    65
 73
     2
 40
2.5
 49
1.25
 49
-1.25
  0
LTYPE
  2
DASHED2
 70
    64
  3
----    ----    ----    ----    
 72
    65
 73
     2
 40
5.0
 49
2.5
 49
-2.5
  0
LTYPE
  2
DASHED3
 70
    64
  3
------  ------  ------  ------  
 72
    65
 73
     2
 40
5.0
 49
3.75
 49
-1.25
  0
LTYPE
  2
CENTER1
 70
    64
  3
----- - ----- - ----- - ----- - 
 72
    65
 73
     4
 40
10.0
 49
6.25
 49
-1.25
 49
1.25
 49
-1.25
  0
LTYPE
  2
CENTER2
 70
    64
  3
----------  --  ----------  --  
 72
    65
 73
     4
 40
20.0
 49
12.5
 49
-2.5
 49
2.5
 49
-2.5
  0
LTYPE
  2
PHANTOM1
 70
    64
  3
--- - - --- - - --- - - --- - - 
 72
    65
 73
     6
 40
10.0
 49
3.25
 49
-1.25
 49
1.25
 49
-1.25
 49
1.25
 49
-1.25
  0
LTYPE
  2
PHANTOM2
 70
    64
  3
--------  -  -  --------  -  -  
 72
    65
 73
     6
 40
20.0
 49
10.0
 49
-2.5
 49
1.25
 49
-2.5
 49
1.25
 49
-2.5
  0
LTYPE
  2
DOT
 70
    64
  3
-   -   -   -   -   -   -   -   
 72
    65
 73
     2
 40
2.5
 49
0.625
 49
-1.875
  0
LTYPE
  2
DUMMY
 70
    64
  3
ダミー
 72
    65
 73
     0
 40
0.0
  0
LTYPE
  2
RAND1
 70
    64
  3
ランダム線1
 72
    65
 73
     4
 40
10.0
 49
1.0
 49
-2.0
 49
3.0
 49
-4.0
  0
LTYPE
  2
RAND2
 70
    64
  3
ランダム線2
 72
    65
 73
     4
 40
14.0
 49
2.0
 49
-3.0
 49
4.0
 49
-5.0
  0
LTYPE
  2
RAND3
 70
    64
  3
ランダム線3
 72
    65
 73
     4
 40
18.0
 49
3.0
 49
-4.0
 49
5.0
 49
-6.0
  0
LTYPE
  2
RAND4
 70
    64
  3
ランダム線4
 72
    65
 73
     4
 40
22.0
 49
4.0
 49
-5.0
 49
6.0
 49
-7.0
  0
LTYPE
  2
RAND5
 70
    64
  3
ランダム線5
 72
    65
 73
     4
 40
26.0
 49
5.0
 49
-6.0
 49
7.0
 49
-8.0
  0
LTYPE
  2
LONG1
 70
    64
  3
----------  --  ----------  --  
 72
    65
 73
     4
 40
40.0
 49
32.5
 49
-2.5
 49
2.5
 49
-2.5
  0
LTYPE
  2
LONG2
 70
    64
  3
--------  -  -  --------  -  -  
 72
    65
 73
     6
 40
40.0
 49
30.0
 49
-2.5
 49
1.25
 49
-2.5
 49
1.25
 49
-2.5
  0
LTYPE
  2
LONG3
 70
    64
  3
+++++++++++++++..+++++++++++++++
 72
    65
 73
     2
 40
40.0
 49
37.5
 49
-2.5
  0
LTYPE
  2
LONG4
 70
    64
  3
+++++++++++++++..+++++++++++++++
 72
    65
 73
     2
 40
80.0
 49
75.0
 49
-5.0
  0
LTYPE
  2
LONG5
 70
    64
  3
----------  --  ----------  --  
 72
    65
 73
     4
 40
60.0
 49
37.5
 49
-7.5
 49
7.5
 49
-7.5
  0
LTYPE
  2
dashed
 70
   64
  3
-------   -------------   ------
 72
   65
 73
    2
 40
7.5
 49
6
 49
-1.5
  0
LTYPE
  2
dashed_spaced
 70
   64
  3
----        --------        ----
 72
   65
 73
    2
 40
12
 49
6
 49
-6
  0
LTYPE
  2
long_dashed_dotted
 70
   64
  3
------------- --- --------------
 72
   65
 73
    4
 40
15.25
 49
12
 49
-1.5
 49
0.25
 49
-1.5
  0
LTYPE
  2
long_dashed_double-dotted
 70
   64
  3
----------- --- --- ------------
 72
   65
 73
    6
 40
17
 49
12
 49
-1.5
 49
0.25
 49
-1.5
 49
0.25
 49
-1.5
  0
LTYPE
  2
long_dashed_triplicate-dotted
 70
   64
  3
--------- --- --- --- ----------
 72
   65
 73
    8
 40
18.75
 49
12
 49
-1.5
 49
0.25
 49
-1.5
 49
0.25
 49
-1.5
 49
0.25
 49
-1.5
  0
LTYPE
  2
dotted
 70
   64
  3
   -       -       -       -    
 72
   65
 73
    2
 40
1.75
 49
0.25
 49
-1.5
  0
LTYPE
  2
chain
 70
   64
  3
-------------- -- --------------
 72
   65
 73
    4
 40
18.5
 49
12
 49
-1.5
 49
3.5
 49
-1.5
  0
LTYPE
  2
chain_double_dash
 70
   64
  3
------------ -- -- -------------
 72
   65
 73
    6
 40
23.5
 49
12
 49
-1.5
 49
3.5
 49
-1.5
 49
3.5
 49
-1.5
  0
LTYPE
  2
dashed_dotted
 70
   64
  3
-----------     -     ----------
 72
   65
 73
    4
 40
9.25
 49
6
 49
-1.5
 49
0.25
 49
-1.5
  0
LTYPE
  2
double-dashed_dotted
 70
   64
  3
------   -----------   -   -----
 72
   65
 73
    6
 40
16.75
 49
6
 49
-1.5
 49
6
 49
-1.5
 49
0.25
 49
-1.5
  0
LTYPE
  2
dashed_double-dotted
 70
   64
  3
---------    -    -    ---------
 72
   65
 73
    6
 40
11
 49
6
 49
-1.5
 49
0.25
 49
-1.5
 49
0.25
 49
-1.5
  0
LTYPE
  2
double-dashed_double-dotted
 70
   64
  3
-----   ---------   -   -   ----
 72
   65
 73
    8
 40
18.5
 49
6
 49
-1.5
 49
6
 49
-1.5
 49
0.25
 49
-1.5
 49
0.25
 49
-1.5
  0
LTYPE
  2
dashed_triplicate-dotted
 70
   64
  3
-------    -    -    -    ------
 72
   65
 73
    8
 40
12.75
 49
6
 49
-1.5
 49
0.25
 49
-1.5
 49
0.25
 49
-1.5
 49
0.25
 49
-1.5
  0
LTYPE
  2
double-dashed_triplicate-dotted
 70
   64
  3
-----  ---------  -  -  -  -----
 72
   65
 73
   10
 40
20.25
 49
6
 49
-1.5
 49
6
 49
-1.5
 49
0.25
 49
-1.5
 49
0.25
 49
-1.5
 49
0.25
 49
-1.5
  0
LTYPE
  2
undefined
 70
   64
  3
--------------------------------
 72
   65
 73
    0
 40
0
  0
LTYPE
  2
PLine1
 70
   64
  3
------     -----------     -----
 72
   65
 73
    2
 40
75
 49
52.5
 49
-22.5
  0
LTYPE
  2
PLine2
 70
   64
  3
------------   ---   -----------
 72
   65
 73
    4
 40
250
 49
175
 49
-25
 49
25
 49
-25
  0
LTYPE
  2
PLine3
 70
   64
  3
---------   ---   ---   --------
 72
   65
 73
    6
 40
250
 49
125
 49
-25
 49
25
 49
-25
 49
25
 49
-25
  0
LTYPE
  2
PLine4
 70
   64
  3
------     -----------     -----
 72
   65
 73
    2
 40
125
 49
87.5
 49
-37.5
  0
LTYPE
  2
PLine5
 70
   64
  3
------------   ---   -----------
 72
   65
 73
    4
 40
375
 49
262.5
 49
-37.5
 49
37.5
 49
-37.5
  0
LTYPE
  2
PLine6
 70
   64
  3
---------   ---   ---   --------
 72
   65
 73
    6
 40
375
 49
187.5
 49
-37.5
 49
37.5
 49
-37.5
 49
37.5
 49
-37.5
  0
LTYPE
  2
PLine7
 70
   64
  3
------     -----------     -----
 72
   65
 73
    2
 40
175
 49
122.5
 49
-52.5
  0
LTYPE
  2
PLine8
 70
   64
  3
------------   ---   -----------
 72
   65
 73
    4
 40
500
 49
350
 49
-50
 49
50
 49
-50
  0
LTYPE
  2
PLine9
 70
   64
  3
---------   ---   ---   --------
 72
   65
 73
    6
 40
500
 49
250
 49
-50
 49
50
 49
-50
 49
50
 49
-50
  0
LTYPE
  2
PLine10
 70
   64
  3
------     -----------     -----
 72
   65
 73
    2
 40
225
 49
157.5
 49
-67.5
  0
LTYPE
  2
PLine11
 70
   64
  3
------------   ---   -----------
 72
   65
 73
    4
 40
625
 49
437.5
 49
-62.5
 49
62.5
 49
-62.5
  0
LTYPE
  2
PLine12
 70
   64
  3
---------   ---   ---   --------
 72
   65
 73
    6
 40
625
 49
312.5
 49
-62.5
 49
62.5
 49
-62.5
 49
62.5
 49
-62.5
  0
LTYPE
  2
PLine13
 70
   64
  3
------     -----------     -----
 72
   65
 73
    2
 40
275
 49
192.5
 49
-82.5
  0
LTYPE
  2
PLine14
 70
   64
  3
------------   ---   -----------
 72
   65
 73
    4
 40
750
 49
525
 49
-75
 49
75
 49
-75
  0
LTYPE
  2
PLine15
 70
   64
  3
---------   ---   ---   --------
 72
   65
 73
    6
 40
750
 49
375
 49
-75
 49
75
 49
-75
 49
75
 49
-75
  0
ENDTAB
  0
TABLE
  2
STYLE
  5
3
100
AcDbSymbolTable
 70
     1
  0
STYLE
  5
10
100
AcDbSymbolTableRecord
100
AcDbTextStyleTableRecord
  2
STANDARD
 70
     0
 40
0.0
 41
1.0
 50
0.0
 71
     0
 42
0.2
  3
txt
  4
bigfont.shx
  0
STYLE
  5
26
100
AcDbSymbolTableRecord
100
AcDbTextStyleTableRecord
  2
TATEGAKI
 70
    68
 40
0.0
 41
1.0
 50
0.0
 71
     0
 42
1.0
  3
txt
  4
bigfont.shx
  0
ENDTAB
  0
TABLE
  2
LAYER
 70
    4
  0
LAYER
  2
_0-2_寸法
 70
   64
 62
    7
  6
CONTINUOUS
  0
LAYER
  2
_0-4_躯体と製品
 70
   64
 62
    7
  6
CONTINUOUS
  0
LAYER
  2
_0-5_図面枠
 70
   64
 62
    7
  6
CONTINUOUS
  0
LAYER
  2
ADD_LINE
 70
   64
 62
    7
  6
CONTINUOUS
  0
ENDTAB
  0
ENDSEC
  0
SECTION
  2
BLOCKS
  0
BLOCK
  2
-000-_D2
 70
   64
 10
0
 20
0
 30
0
  0
LINE
  8
_0-2_寸法
  6
CONTINUOUS
 62
    7
 10
1769.507525
 20
1226.390075
 11
1769.507525
 21
596.14300000000003
  0
LINE
  8
_0-2_寸法
  6
CONTINUOUS
 62
    7
 10
2969.507525
 20
1226.390075
 11
2969.507525
 21
596.14300000000003
  0
LINE
  8
_0-2_寸法
  6
CONTINUOUS
 62
    7
 10
1794.507525
 20
596.32299999999998
 11
2944.507525
 21
596.32299999999998
  0
SOLID
  8
_0-2_寸法
  6
CONTINUOUS
 62
    7
 10
1794.507525
 20
600.48966700000005
 11
1794.507525
 21
592.15633300000002
 12
1769.507525
 22
596.32299999999998
 13
1769.507525
 23
596.32299999999998
  0
SOLID
  8
_0-2_寸法
  6
CONTINUOUS
 62
    7
 10
2944.507525
 20
592.15633300000002
 11
2944.507525
 21
600.48966700000005
 12
2969.507525
 22
596.32299999999998
 13
2969.507525
 23
596.32299999999998
  0
TEXT
  8
_0-2_寸法
 62
    7
 10
2319.5075249999995
 20
597.32299999999987
 40
100
 41
1
 50
0
  1
Ａ
  0
POINT
  8
_0-3_Defpoints
 62
    7
 10
1769.507525
 20
1226.452575
  0
POINT
  8
_0-3_Defpoints
 62
    7
 10
2969.507525
 20
1226.452575
  0
POINT
  8
_0-3_Defpoints
 62
    7
 10
2969.507525
 20
596.32299999999998
  0
ENDBLK
  0
BLOCK
  2
-001-_D4
 70
   64
 10
0
 20
0
 30
0
  0
LINE
  8
_0-2_寸法
  6
CONTINUOUS
 62
    7
 10
719.50752499999999
 20
2458.54475
 11
719.50752499999999
 21
3115.9777250000002
  0
LINE
  8
_0-2_寸法
  6
CONTINUOUS
 62
    7
 10
4019.507525
 20
2508.8838249999999
 11
4019.507525
 21
3115.9777250000002
  0
LINE
  8
_0-2_寸法
  6
CONTINUOUS
 62
    7
 10
744.50752499999999
 20
3115.7977249999999
 11
3994.507525
 21
3115.7977249999999
  0
SOLID
  8
_0-2_寸法
  6
CONTINUOUS
 62
    7
 10
744.50752499999999
 20
3119.9643919999999
 11
744.50752499999999
 21
3111.6310579999999
 12
719.50752499999999
 22
3115.7977249999999
 13
719.50752499999999
 23
3115.7977249999999
  0
SOLID
  8
_0-2_寸法
  6
CONTINUOUS
 62
    7
 10
3994.507525
 20
3111.6310579999999
 11
3994.507525
 21
3119.9643919999999
 12
4019.507525
 22
3115.7977249999999
 13
4019.507525
 23
3115.7977249999999
  0
TEXT
  8
_0-2_寸法
 62
    7
 10
2319.5075249999995
 20
3116.7977249999999
 40
100
 41
1
 50
0
  1
Ｅ
  0
POINT
  8
_0-3_Defpoints
 62
    7
 10
719.50752499999999
 20
2458.48225
  0
POINT
  8
_0-3_Defpoints
 62
    7
 10
4019.507525
 20
2508.8213249999999
  0
POINT
  8
_0-3_Defpoints
 62
    7
 10
4019.507525
 20
3115.7977249999999
  0
ENDBLK
  0
BLOCK
  2
-002-_D6
 70
   64
 10
0
 20
0
 30
0
  0
LINE
  8
_0-2_寸法
  6
CONTINUOUS
 62
    7
 10
1716.8554750000001
 20
1387.25315
 11
532.92702499999996
 21
1387.25315
  0
LINE
  8
_0-2_寸法
  6
CONTINUOUS
 62
    7
 10
1738.9499249999999
 20
1237.25315
 11
532.92702499999996
 21
1237.25315
  0
LINE
  8
_0-2_寸法
  6
CONTINUOUS
 62
    7
 10
533.10702500000002
 20
1362.25315
 11
533.10702500000002
 21
1262.25315
  0
SOLID
  8
_0-2_寸法
  6
CONTINUOUS
 62
    7
 10
537.27369199999998
 20
1362.25315
 11
528.94035799999995
 21
1362.25315
 12
533.10702500000002
 22
1387.25315
 13
533.10702500000002
 23
1387.25315
  0
SOLID
  8
_0-2_寸法
  6
CONTINUOUS
 62
    7
 10
528.94035799999995
 20
1262.25315
 11
537.27369199999998
 21
1262.25315
 12
533.10702500000002
 22
1237.25315
 13
533.10702500000002
 23
1237.25315
  0
TEXT
  8
_0-2_寸法
 62
    7
 10
532.10702500000014
 20
1262.25315
 40
100
 41
1
 50
90
  1
Ｊ
  0
POINT
  8
_0-3_Defpoints
 62
    7
 10
1716.9179750000001
 20
1387.25315
  0
POINT
  8
_0-3_Defpoints
 62
    7
 10
1739.0124249999999
 20
1237.25315
  0
POINT
  8
_0-3_Defpoints
 62
    7
 10
533.10702500000002
 20
1237.25315
  0
ENDBLK
  0
BLOCK
  2
-003-_D8
 70
   64
 10
0
 20
0
 30
0
  0
LINE
  8
_0-2_寸法
  6
CONTINUOUS
 62
    7
 10
944.44502499999999
 20
2641.4796500000002
 11
532.92702499999996
 21
2641.4796500000002
  0
LINE
  8
_0-2_寸法
  6
CONTINUOUS
 62
    7
 10
1716.8554750000001
 20
1387.25315
 11
532.92702499999996
 21
1387.25315
  0
LINE
  8
_0-2_寸法
  6
CONTINUOUS
 62
    7
 10
533.10702500000002
 20
2616.4796500000002
 11
533.10702500000002
 21
1412.25315
  0
SOLID
  8
_0-2_寸法
  6
CONTINUOUS
 62
    7
 10
537.27369199999998
 20
2616.4796500000002
 11
528.94035799999995
 21
2616.4796500000002
 12
533.10702500000002
 22
2641.4796500000002
 13
533.10702500000002
 23
2641.4796500000002
  0
SOLID
  8
_0-2_寸法
  6
CONTINUOUS
 62
    7
 10
528.94035799999995
 20
1412.25315
 11
537.27369199999998
 21
1412.25315
 12
533.10702500000002
 22
1387.25315
 13
533.10702500000002
 23
1387.25315
  0
TEXT
  8
_0-2_寸法
 62
    7
 10
532.10702500000014
 20
1964.3664000000001
 40
100
 41
1
 50
90
  1
Ｉ
  0
POINT
  8
_0-3_Defpoints
 62
    7
 10
944.50752499999999
 20
2641.4796500000002
  0
POINT
  8
_0-3_Defpoints
 62
    7
 10
1716.9179750000001
 20
1387.25315
  0
POINT
  8
_0-3_Defpoints
 62
    7
 10
533.10702500000002
 20
1387.25315
  0
ENDBLK
  0
ENDSEC
  0
SECTION
  2
ENTITIES
  0
INSERT
  2
-000-_D2
  8
_0-2_寸法
 10
-394.99999999999972
 20
-212.49999999999986
 41
1
 42
1
 50
0
  0
INSERT
  2
-001-_D4
  8
_0-2_寸法
 10
-394.99999999999972
 20
-212.49999999999986
 41
1
 42
1
 50
0
  0
INSERT
  2
-002-_D6
  8
_0-2_寸法
 10
-394.99999999999972
 20
-212.49999999999986
 41
1
 42
1
 50
0
  0
INSERT
  2
-003-_D8
  8
_0-2_寸法
 10
-394.99999999999972
 20
-212.49999999999986
 41
1
 42
1
 50
0
  0
LINE
  8
_0-4_躯体と製品
  6
PLine4
 62
    3
 10
2393.1505999999999
 20
4991.2358249999997
 11
1830.9264499999997
 21
5131.4140500000012
  0
LINE
  8
_0-4_躯体と製品
  6
PLine4
 62
    3
 10
2732.3779749999999
 20
5193.2358249999997
 11
1832.3779749999997
 21
5193.2358249999997
  0
LINE
  8
_0-4_躯体と製品
  6
CONTINUOUS
 62
    3
 10
1832.3779749999997
 20
5217.2358249999997
 11
2732.3779749999999
 21
5217.2358249999997
  0
LINE
  8
_0-4_躯体と製品
  6
CONTINUOUS
 62
    3
 10
1832.3779749999997
 20
5096.0112749999998
 11
2388.9759250000002
 21
4957.2358249999997
  0
LINE
  8
_0-4_躯体と製品
  6
CONTINUOUS
 62
    3
 10
2732.3779749999999
 20
5187.2358249999997
 11
1832.3779749999997
 21
5187.2358249999997
  0
LINE
  8
_0-4_躯体と製品
  6
CONTINUOUS
 62
    3
 10
1832.3779749999997
 20
5137.2358249999997
 11
2393.8873250000001
 21
4997.2358249999997
  0
LINE
  8
_0-4_躯体と製品
  6
CONTINUOUS
 62
    4
 10
1832.3779749999997
 20
4379.7358249999997
 11
2442.8406249999998
 21
4196.597025
  0
LINE
  8
_0-4_躯体と製品
  6
PLine1
 62
    3
 10
1832.3779749999997
 20
4378.4308000000001
 11
2774.0623999999998
 21
4095.9254499999997
  0
LINE
  8
_0-4_躯体と製品
  6
PLine4
 62
    3
 10
1974.507525
 20
1523.38285
 11
2838.1603249999998
 21
1523.38285
  0
LINE
  8
_0-4_躯体と製品
  6
PLine4
 62
    3
 10
1974.507525
 20
1479.38285
 11
2837.4817250000006
 21
1479.38285
  0
LINE
  8
_0-4_躯体と製品
  6
PLine4
 62
    3
 10
1974.507525
 20
1529.38285
 11
2837.029325
 21
1529.38285
  0
LINE
  8
_0-4_躯体と製品
  6
PLine4
 62
    3
 10
1974.507525
 20
2277.4489749999998
 11
2850.7401
 21
2058.9796500000002
  0
LINE
  8
_0-4_躯体と製品
  6
PLine4
 62
    3
 10
1973.056
 20
2323.1578749999999
 11
2855.4277999999999
 21
2103.1578749999999
  0
LINE
  8
_0-4_躯体と製品
  6
PLine4
 62
    3
 10
1974.507525
 20
2328.9796500000002
 11
2856.8793249999999
 21
2108.9796500000002
  0
LINE
  8
_0-4_躯体と製品
  6
PLine4
 62
    3
 10
3374.507525
 20
2434.9796500000002
 11
1974.507525
 21
2434.9796500000002
  0
LINE
  8
_0-4_躯体と製品
  6
CONTINUOUS
 62
    3
 10
3374.507525
 20
2468.9796500000002
 11
1974.507525
 21
2468.9796500000002
  0
LINE
  8
_0-4_躯体と製品
  6
CONTINUOUS
 62
    3
 10
3374.507525
 20
2428.9796500000002
 11
1974.507525
 21
2428.9796500000002
  0
LINE
  8
_0-4_躯体と製品
  6
PLine1
 62
    5
 10
1188.2575500000003
 20
4997.2358249999997
 11
987.54275000000007
 21
4796.5210500000003
  0
LINE
  8
_0-4_躯体と製品
  6
PLine1
 62
    5
 10
1270.8686499999997
 20
4991.4585999999999
 11
1031.4835999999998
 21
4752.0735249999998
  0
LINE
  8
_0-4_躯体と製品
  6
PLine1
 62
    5
 10
1270.8686499999997
 20
4903.0702499999998
 11
1083.4704000000004
 21
4715.6719750000002
  0
LINE
  8
_0-4_躯体と製品
  6
PLine1
 62
    5
 10
1270.8686499999997
 20
4814.6818999999996
 11
1135.4572000000001
 21
4679.2704249999997
  0
LINE
  8
_0-4_躯体と製品
  6
PLine4
 62
    3
 10
1463.3779750000003
 20
4997.2358249999997
 11
1463.3779750000003
 21
4205.0889520000001
  0
LINE
  8
_0-4_躯体と製品
  6
CONTINUOUS
 62
    3
 10
1457.3779750000001
 20
4267.2358249999997
 11
1457.3779750000001
 21
5037.5541499999999
  0
LINE
  8
_0-4_躯体と製品
  6
CONTINUOUS
 62
    3
 10
1497.3779750000003
 20
5047.5272750000004
 11
1497.3779750000003
 21
4215.2889530000002
  0
LINE
  8
_0-4_躯体と製品
  6
PLine2
 62
    2
 10
1832.3779749999997
 20
5321.9384250000003
 11
1832.3779749999997
 21
4167.2358249999997
  0
LINE
  8
_0-4_躯体と製品
  6
CONTINUOUS
 62
    4
 10
1441.0923999999998
 20
4887.20885
 11
1326.1857500000001
 21
4790.7906999999996
  0
LINE
  8
_0-4_躯体と製品
  6
CONTINUOUS
 62
    3
 10
839.86864999999989
 20
5052.300075000001
 11
1000.8004000000003
 21
4773.5581249999996
  0
LINE
  8
_0-4_躯体と製品
  6
CONTINUOUS
 62
    3
 10
1270.8686499999997
 20
4712.6356249999999
 11
1270.8686499999997
 21
4997.2358249999997
  0
LINE
  8
_0-4_躯体と製品
  6
CONTINUOUS
 62
    3
 10
978.14505000000031
 20
4752.79835
 11
802.37797500000033
 21
5057.2358249999997
  0
LINE
  8
_0-4_躯体と製品
  6
CONTINUOUS
 62
    4
 10
984.07062500000029
 20
4741.9349499999998
 11
802.11817500000006
 21
5057.0858250000001
  0
LINE
  8
_0-4_躯体と製品
  6
PLine4
 62
    3
 10
809.87612499999977
 20
5056.2486749999998
 11
982.67612499999996
 21
4756.9503000000004
  0
LINE
  8
_0-4_躯体と製品
  6
CONTINUOUS
 62
    3
 10
1355.1573499999997
 20
4804.6575000000012
 11
1457.3779750000001
 21
4777.2675749999999
  0
LINE
  8
_0-4_躯体と製品
  6
CONTINUOUS
 62
    3
 10
1342.4712750000001
 20
4801.8450750000002
 11
1451.3779750000006
 21
4772.6635999999999
  0
LINE
  8
_0-4_躯体と製品
  6
PLine1
 62
    5
 10
979.87575000000004
 20
2108.7006000000001
 11
626.7153950000004
 21
1755.5402449999999
  0
LINE
  8
_0-4_躯体と製品
  6
PLine1
 62
    5
 10
891.48739999999987
 20
2108.7006000000001
 11
594.36301499999956
 21
1811.576215
  0
LINE
  8
_0-4_躯体と製品
  6
PLine1
 62
    5
 10
1083.9847749999999
 20
1859.2562250000001
 11
832.37447500000019
 21
1607.6459500000001
  0
LINE
  8
_0-4_躯体と製品
  6
PLine1
 62
    5
 10
1083.9847749999999
 20
1947.6445749999996
 11
780.2562499999998
 21
1643.91605
  0
LINE
  8
_0-4_躯体と製品
  6
CONTINUOUS
 62
    4
 10
592.00032499999963
 20
1715.6685
 11
1254.507525
 21
1251.775975
  0
LINE
  8
_0-4_躯体と製品
  6
CONTINUOUS
 62
    3
 10
629.75922500000001
 20
1750.2681749999999
 11
1364.5075249999998
 21
1235.7918749999999
  0
LINE
  8
_0-4_躯体と製品
  6
PLine4
 62
    3
 10
596.3181000000003
 20
1719.9698249999999
 11
1364.5075249999998
 21
1182.0777999999998
  0
LINE
  8
_0-4_躯体と製品
  6
PLine4
 62
    3
 10
1098.2749500000002
 20
2058.9796500000002
 11
433.46992499999971
 21
2058.9796500000002
  0
LINE
  8
_0-4_躯体と製品
  6
CONTINUOUS
 62
    3
 10
1092.1357250000003
 20
2108.9796500000002
 11
407.30472499999962
 21
2108.9796500000002
  0
LINE
  8
_0-4_躯体と製品
  6
PLine4
 62
    3
 10
1092.1357250000003
 20
2102.9796500000002
 11
410.4625999999999
 21
2102.9796500000002
  0
LINE
  8
_0-4_躯体と製品
  6
CONTINUOUS
 62
    4
 10
553.69214999999963
 20
2108.9796500000002
 11
874.50752499999999
 21
2428.9796500000002
  0
LINE
  8
_0-4_躯体と製品
  6
CONTINUOUS
 62
    4
 10
853.69214999999963
 20
2108.9796500000002
 11
1174.507525
 21
2428.9796500000002
  0
LINE
  8
_0-4_躯体と製品
  6
PLine4
 62
    3
 10
574.50752499999999
 20
2434.9796500000002
 11
1974.507525
 21
2434.9796500000002
  0
LINE
  8
_0-4_躯体と製品
  6
CONTINUOUS
 62
    3
 10
574.50752499999999
 20
2468.9796500000002
 11
1974.507525
 21
2468.9796500000002
  0
LINE
  8
_0-4_躯体と製品
  6
CONTINUOUS
 62
    3
 10
574.50752499999999
 20
2428.9796500000002
 11
1974.507525
 21
2428.9796500000002
  0
LINE
  8
_0-4_躯体と製品
  6
PLine1
 62
    3
 10
1974.507525
 20
1203.7029249999998
 11
806.97374999999988
 21
853.44277499999998
  0
LINE
  8
_0-4_躯体と製品
  6
CONTINUOUS
 62
    2
 10
656.13432499999999
 20
1695.1768750000001
 11
633.19127499999991
 21
1662.4108000000001
  0
LINE
  8
_0-4_躯体と製品
  6
CONTINUOUS
 62
    2
 10
843.29659999999967
 20
1564.12445
 11
820.35352499999999
 21
1531.358375
  0
LINE
  8
_0-4_躯体と製品
  6
PLine4
 62
    3
 10
331.77589999999952
 20
2178.3904499999999
 11
578.74475000000018
 21
2424.7316000000001
  0
LINE
  8
_0-4_躯体と製品
  6
CONTINUOUS
 62
    4
 10
574.50752499999999
 20
2428.9796500000002
 11
324.50752499999965
 21
2178.9796500000002
  0
LINE
  8
_0-4_躯体と製品
  6
CONTINUOUS
 62
    3
 10
386.99197499999997
 20
2170.7534249999999
 11
609.81992499999956
 21
2393.5813749999998
  0
LINE
  8
_0-4_躯体と製品
  6
PLine1
 62
    5
 10
626.32237499999974
 20
2108.7006000000001
 11
496.55454999999989
 21
1978.9327750000002
  0
LINE
  8
_0-4_躯体と製品
  6
CONTINUOUS
 62
    2
 10
516.8280249999998
 20
1885.87075
 11
482.18700000000013
 21
1865.87075
  0
LINE
  8
_0-4_躯体と製品
  6
PLine1
 62
    5
 10
537.93402500000047
 20
2108.7006000000001
 11
464.36427499999951
 21
2035.1308749999998
  0
LINE
  8
_0-4_躯体と製品
  6
CONTINUOUS
 62
    4
 10
324.27472499999993
 20
2179.38285
 11
594.36652500000014
 21
1711.570125
  0
LINE
  8
_0-4_躯体と製品
  6
PLine4
 62
    3
 10
331.77589999999952
 20
2178.3904499999999
 11
596.53139999999985
 21
1719.820475
  0
LINE
  8
_0-4_躯体と製品
  6
CONTINUOUS
 62
    3
 10
629.75922500000001
 20
1750.2681749999999
 11
386.99197499999997
 21
2170.7534249999999
  0
LINE
  8
_0-4_躯体と製品
  6
CONTINUOUS
 62
    2
 10
369.32802500000008
 20
2141.34825
 11
334.68699999999956
 21
2121.34825
  0
LINE
  8
_0-4_躯体と製品
  6
PLine4
 62
    3
 10
417.22944999999982
 20
2058.9796500000002
 11
400.56407500000006
 21
2058.9796500000002
  0
LINE
  8
_0-4_躯体と製品
  6
CONTINUOUS
 62
    2
 10
404.72330000000028
 20
2090.0418249999998
 11
411.72329999999988
 21
2077.9174750000002
  0
LINE
  8
_0-4_躯体と製品
  6
CONTINUOUS
 62
    2
 10
402.16112500000008
 20
2080.4796500000002
 11
414.28547500000008
 21
2087.4796500000007
  0
LINE
  8
_0-4_躯体と製品
  6
PLine1
 62
    5
 10
449.54567500000024
 20
2108.7006000000001
 11
432.17402499999992
 21
2091.3289500000001
  0
LINE
  8
_0-4_躯体と製品
  6
CONTINUOUS
 62
    3
 10
390.38757499999946
 20
2108.9796500000002
 11
371.85024999999968
 21
2108.9796500000002
  0
LINE
  8
_0-4_躯体と製品
  6
PLine4
 62
    3
 10
394.10934999999995
 20
2102.9796500000002
 11
376.34429999999952
 21
2102.9796500000002
  0
LINE
  8
_0-4_躯体と製品
  6
CONTINUOUS
 62
    4
 10
813.69214999999986
 20
2109.17965
 11
853.69214999999963
 21
2109.17965
  0
LINE
  8
_0-4_躯体と製品
  6
CONTINUOUS
 62
    4
 10
813.69214999999986
 20
2108.9796500000002
 11
853.69214999999963
 21
2108.9796500000002
  0
LINE
  8
_0-4_躯体と製品
  6
CONTINUOUS
 62
    3
 10
813.69214999999986
 20
2108.9796500000002
 11
853.69214999999963
 21
2108.9796500000002
  0
LINE
  8
_0-4_躯体と製品
  6
CONTINUOUS
 62
    4
 10
513.69215000000031
 20
2109.17965
 11
553.69214999999963
 21
2109.17965
  0
LINE
  8
_0-4_躯体と製品
  6
CONTINUOUS
 62
    4
 10
513.69215000000031
 20
2108.9796500000002
 11
553.69214999999963
 21
2108.9796500000002
  0
LINE
  8
_0-4_躯体と製品
  6
CONTINUOUS
 62
    3
 10
513.69215000000031
 20
2108.9796500000002
 11
553.69214999999963
 21
2108.9796500000002
  0
LINE
  8
_0-4_躯体と製品
  6
CONTINUOUS
 62
    2
 10
588.5930249999999
 20
1761.570125
 11
553.95202500000005
 21
1741.570125
  0
LINE
  8
_0-4_躯体と製品
  6
CONTINUOUS
 62
    4
 10
594.36652500000014
 20
1711.570125
 11
635.32412499999987
 21
1682.8913
  0
LINE
  8
_0-4_躯体と製品
  6
PLine1
 62
    5
 10
803.09904999999969
 20
2108.7006000000001
 11
560.93507499999987
 21
1866.5366250000002
  0
LINE
  8
_0-4_躯体と製品
  6
PLine1
 62
    5
 10
714.71072499999991
 20
2108.7006000000001
 11
528.7448000000004
 21
1922.7347
  0
LINE
  8
_0-4_躯体と製品
  6
CONTINUOUS
 62
    2
 10
833.69214999999997
 20
2123.2472750000002
 11
833.69214999999997
 21
2085.5425249999998
  0
LINE
  8
_0-4_躯体と製品
  6
CONTINUOUS
 62
    2
 10
533.69214999999997
 20
2123.9865749999999
 11
532.56014999999991
 21
2087.9013500000001
  0
LINE
  8
_0-4_躯体と製品
  6
CONTINUOUS
 62
    3
 10
683.00362500000017
 20
2428.9796500000002
 11
683.00362500000017
 21
2422.9796500000002
  0
LINE
  8
_0-4_躯体と製品
  6
CONTINUOUS
 62
    2
 10
633.00362500000051
 20
2446.5215250000001
 11
633.00362500000051
 21
2406.3152249999998
  0
LINE
  8
_0-4_躯体と製品
  6
PLine4
 62
    3
 10
547.58170000000007
 20
2385.1732499999998
 11
543.34444999999982
 21
2389.4212750000002
  0
LINE
  8
_0-4_躯体と製品
  6
CONTINUOUS
 62
    3
 10
559.42230000000018
 20
2396.9837499999999
 11
547.58170000000007
 21
2385.1732499999998
  0
LINE
  8
_0-4_躯体と製品
  6
CONTINUOUS
 62
    3
 10
574.50752499999999
 20
2468.9796500000002
 11
574.50752499999999
 21
2428.9796500000002
  0
LINE
  8
_0-4_躯体と製品
  6
CONTINUOUS
 62
    3
 10
578.64775000000031
 20
2424.6348499999999
 11
583.14207499999952
 21
2429.1177499999999
  0
LINE
  8
_0-4_躯体と製品
  6
CONTINUOUS
 62
    3
 10
585.33849999999973
 20
2422.8340750000002
 11
570.14434999999958
 21
2407.6785500000001
  0
LINE
  8
_0-4_躯体と製品
  6
CONTINUOUS
 62
    4
 10
574.50752499999999
 20
2428.9796500000002
 11
614.50752500000021
 21
2428.9796500000002
  0
LINE
  8
_0-4_躯体と製品
  6
CONTINUOUS
 62
    3
 10
574.50752499999999
 20
2428.9796500000002
 11
609.81787499999973
 21
2393.5793250000002
  0
LINE
  8
_0-4_躯体と製品
  6
CONTINUOUS
 62
    2
 10
521.47450000000026
 20
2404.2309
 11
551.173
 21
2374.5324249999999
  0
LINE
  8
_0-4_躯体と製品
  6
CONTINUOUS
 62
    3
 10
683.00362500000017
 20
2422.9796500000002
 11
585.28695000000027
 21
2422.9796500000002
  0
LINE
  8
_0-4_躯体と製品
  6
PLine2
 62
    2
 10
1974.507525
 20
2598.3052750000002
 11
1974.507525
 21
849.23149999999987
  0
LINE
  8
_0-4_躯体と製品
  6
CONTINUOUS
 62
    3
 10
1084.507525
 20
2108.9796500000002
 11
1084.507525
 21
1645.4855500000001
  0
LINE
  8
_0-4_躯体と製品
  6
PLine1
 62
    5
 10
1083.9847749999999
 20
1682.479525
 11
936.61095
 21
1535.1057000000001
  0
LINE
  8
_0-4_躯体と製品
  6
PLine1
 62
    5
 10
1083.9847749999999
 20
1770.8678749999999
 11
884.49272500000006
 21
1571.3758250000001
  0
LINE
  8
_0-4_躯体と製品
  6
CONTINUOUS
 62
    3
 10
1374.507525
 20
2171.6435999999994
 11
1374.507525
 21
959.75605199999961
  0
LINE
  8
_0-4_躯体と製品
  6
PLine4
 62
    3
 10
1380.5075250000002
 20
2123.1260750000001
 11
1380.5075250000002
 21
961.55605200000014
  0
LINE
  8
_0-4_躯体と製品
  6
CONTINUOUS
 62
    3
 10
1424.5075249999998
 20
2185.6322500000001
 11
1424.5075249999998
 21
967.09449400000017
  0
LINE
  8
_0-4_躯体と製品
  6
CONTINUOUS
 62
    3
 10
1409.4231749999999
 20
1529.38285
 11
1974.507525
 21
1529.38285
  0
LINE
  8
_0-4_躯体と製品
  6
PLine4
 62
    3
 10
1411.5507749999997
 20
1573.38285
 11
1974.507525
 21
1573.38285
  0
LINE
  8
_0-4_躯体と製品
  6
CONTINUOUS
 62
    3
 10
1409.0685750000005
 20
1579.38285
 11
1974.507525
 21
1579.38285
  0
LINE
  8
_0-4_躯体と製品
  6
CONTINUOUS
 62
    3
 10
1364.5075249999998
 20
1231.6946
 11
1364.5075249999998
 21
1068.9796500000004
  0
LINE
  8
_0-4_躯体と製品
  6
CONTINUOUS
 62
    4
 10
1373.658175
 20
1579.38285
 11
1373.658175
 21
1023.4481109999996
  0
LINE
  8
_0-4_躯体と製品
  6
CONTINUOUS
 62
    2
 10
1347.0949250000006
 20
1102.9796500000002
 11
1388.5585000000001
 21
1102.9796500000002
  0
LINE
  8
_0-4_躯体と製品
  6
CONTINUOUS
 62
    2
 10
1347.0949250000006
 20
1135.97965
 11
1388.5585000000001
 21
1135.97965
  0
LINE
  8
_0-4_躯体と製品
  6
CONTINUOUS
 62
    3
 10
1364.5075249999998
 20
1068.9796500000004
 11
1374.507525
 21
1068.9796500000004
  0
LINE
  8
_0-4_躯体と製品
  6
PLine1
 62
    5
 10
1323.2700750000001
 20
1479.8231000000001
 11
1197.2020999999997
 21
1353.7551249999999
  0
LINE
  8
_0-4_躯体と製品
  6
PLine1
 62
    5
 10
1270.9736249999999
 20
1515.915
 11
1145.0838750000003
 21
1390.0252499999999
  0
LINE
  8
_0-4_躯体と製品
  6
CONTINUOUS
 62
    3
 10
1084.507525
 20
1645.4855500000001
 11
1364.5075249999998
 21
1449.4274250000001
  0
LINE
  8
_0-4_躯体と製品
  6
PLine1
 62
    5
 10
1218.6772000000001
 20
1552.0069000000001
 11
1092.9656500000003
 21
1426.2953500000001
  0
LINE
  8
_0-4_躯体と製品
  6
CONTINUOUS
 62
    2
 10
1216.829925
 20
1302.5735999999999
 11
1193.8868750000004
 21
1269.8075249999999
  0
LINE
  8
_0-4_躯体と製品
  6
CONTINUOUS
 62
    2
 10
1030.7456
 20
1432.8712499999999
 11
1007.1202000000004
 21
1400.58295
  0
LINE
  8
_0-4_躯体と製品
  6
PLine1
 62
    5
 10
1166.3807500000003
 20
1588.098825
 11
1040.8473999999999
 21
1462.5654750000001
  0
LINE
  8
_0-4_躯体と製品
  6
PLine1
 62
    5
 10
1114.0843249999996
 20
1624.1907249999999
 11
988.72917499999994
 21
1498.8356000000001
  0
LINE
  8
_0-4_躯体と製品
  6
CONTINUOUS
 62
    2
 10
1347.0949250000006
 20
1511.38285
 11
1388.5585000000001
 21
1511.38285
  0
LINE
  8
_0-4_躯体と製品
  6
CONTINUOUS
 62
    2
 10
1399.507525
 20
1561.38285
 11
1399.507525
 21
1547.38285
  0
LINE
  8
_0-4_躯体と製品
  6
CONTINUOUS
 62
    2
 10
1392.507525
 20
1554.38285
 11
1406.507525
 21
1554.38285
  0
LINE
  8
_0-4_躯体と製品
  6
CONTINUOUS
 62
    3
 10
1380.5075250000002
 20
1529.38285
 11
1394.7072499999999
 21
1529.38285
  0
LINE
  8
_0-4_躯体と製品
  6
PLine4
 62
    3
 10
1380.5075250000002
 20
1573.38285
 11
1392.2250499999998
 21
1573.38285
  0
LINE
  8
_0-4_躯体と製品
  6
CONTINUOUS
 62
    3
 10
1380.5075250000002
 20
1579.38285
 11
1393.8207499999999
 21
1579.38285
  0
LINE
  8
_0-4_躯体と製品
  6
CONTINUOUS
 62
    4
 10
1324.507525
 20
1566.2129749999999
 11
1373.658175
 21
1579.38285
  0
LINE
  8
_0-4_躯体と製品
  6
CONTINUOUS
 62
    3
 10
1364.5075249999998
 20
1433.4060750000001
 11
1364.5075249999998
 21
1449.4274250000001
  0
LINE
  8
_0-4_躯体と製品
  6
CONTINUOUS
 62
    3
 10
1374.1787249999998
 20
1235.922675
 11
1364.5075249999998
 21
1235.7918749999999
  0
LINE
  8
_0-4_躯体と製品
  6
PLine1
 62
    5
 10
1362.4256249999999
 20
1253.813625
 11
1353.5568000000005
 21
1244.9447749999999
  0
LINE
  8
_0-4_躯体と製品
  6
CONTINUOUS
 62
    4
 10
1254.507525
 20
1174.75315
 11
1256.507525
 21
1174.75315
  0
LINE
  8
_0-4_躯体と製品
  6
CONTINUOUS
 62
    4
 10
1254.507525
 20
1174.75315
 11
1256.507525
 21
1174.75315
  0
LINE
  8
_0-4_躯体と製品
  6
CONTINUOUS
 62
    4
 10
1256.507525
 20
1184.75315
 11
1256.507525
 21
1174.75315
  0
LINE
  8
_0-4_躯体と製品
  6
CONTINUOUS
 62
    4
 10
1254.507525
 20
1251.775975
 11
1254.507525
 21
1174.4644999999998
  0
LINE
  8
_0-4_躯体と製品
  6
CONTINUOUS
 62
    3
 10
1364.5075249999998
 20
1174.75315
 11
1254.7742250000003
 21
1251.5892249999999
  0
LINE
  8
_0-4_躯体と製品
  6
CONTINUOUS
 62
    3
 10
1364.5075249999998
 20
1433.4060750000001
 11
1364.5075249999998
 21
1231.6946
  0
LINE
  8
_0-4_躯体と製品
  6
PLine1
 62
    5
 10
1363.6200749999996
 20
1343.3964000000001
 11
1301.4385750000001
 21
1281.2148999999999
  0
LINE
  8
_0-4_躯体と製品
  6
PLine1
 62
    5
 10
1364.8144999999997
 20
1432.9791749999999
 11
1249.3203249999997
 21
1317.4849999999999
  0
LINE
  8
_0-4_躯体と製品
  6
CONTINUOUS
 62
    2
 10
2174.507525
 20
1511.38285
 11
2174.507525
 21
1497.38285
  0
LINE
  8
_0-4_躯体と製品
  6
CONTINUOUS
 62
    2
 10
2167.507525
 20
1504.38285
 11
2181.507525
 21
1504.38285
  0
LINE
  8
_0-4_躯体と製品
  6
CONTINUOUS
 62
    2
 10
1974.507525
 20
1504.38285
 11
1981.507525
 21
1504.38285
  0
LINE
  8
_0-4_躯体と製品
  6
CONTINUOUS
 62
    4
 10
1973.8470000000004
 20
2330.3006999999998
 11
1097.3833999999997
 21
2110.5284249999995
  0
LINE
  8
_0-4_躯体と製品
  6
CONTINUOUS
 62
    3
 10
1974.507525
 20
2277.4489749999998
 11
1411.4170999999994
 21
2137.0547499999993
  0
LINE
  8
_0-4_躯体と製品
  6
PLine4
 62
    3
 10
1975.9590499999999
 20
2323.1578749999999
 11
1423.2892250000002
 21
2185.3618000000001
  0
LINE
  8
_0-4_躯体と製品
  6
CONTINUOUS
 62
    3
 10
1974.507525
 20
2328.9796500000002
 11
1092.1357250000003
 21
2108.9796500000002
  0
LINE
  8
_0-4_躯体と製品
  6
CONTINUOUS
 62
    3
 10
1190.6568500000001
 20
1802.248325
 11
1368.507525
 21
1754.5934
  0
LINE
  8
_0-4_躯体と製品
  6
CONTINUOUS
 62
    3
 10
1203.3429249999999
 20
1805.0607749999999
 11
1374.507525
 21
1759.1973499999999
  0
LINE
  8
_0-4_躯体と製品
  6
CONTINUOUS
 62
    3
 10
1368.69715
 20
1951.6418749999998
 11
1190.6568500000001
 21
1802.248325
  0
LINE
  8
_0-4_躯体と製品
  6
CONTINUOUS
 62
    4
 10
1354.507525
 20
1939.3883749999998
 11
1170.4713750000001
 21
1785.3107
  0
LINE
  8
_0-4_躯体と製品
  6
CONTINUOUS
 62
    3
 10
1374.507525
 20
1948.684925
 11
1203.3429249999999
 21
1805.0607749999999
  0
LINE
  8
_0-4_躯体と製品
  6
CONTINUOUS
 62
    3
 10
1388.5585000000001
 20
2131.3554749999998
 11
1098.2749500000002
 21
2058.9796500000002
  0
LINE
  8
_0-4_躯体と製品
  6
PLine4
 62
    3
 10
1374.4518499999999
 20
2173.1852749999998
 11
1093.5872500000003
 21
2103.1578749999999
  0
LINE
  8
_0-4_躯体と製品
  6
CONTINUOUS
 62
    4
 10
1097.3833999999997
 20
2110.5284249999995
 11
1097.3833999999997
 21
2095.961225
  0
LINE
  8
_0-4_躯体と製品
  6
CONTINUOUS
 62
    4
 10
1170.5075250000002
 20
1770.3107
 11
1170.5075250000002
 21
1785.3410249999999
  0
LINE
  8
_0-4_躯体と製品
  6
CONTINUOUS
 62
    2
 10
1002.1357250000003
 20
2090.9796500000002
 11
1002.1357250000003
 21
2076.9796500000002
  0
LINE
  8
_0-4_躯体と製品
  6
CONTINUOUS
 62
    2
 10
995.13572500000021
 20
2083.9796500000002
 11
1009.1357250000003
 21
2083.9796500000002
  0
LINE
  8
_0-4_躯体と製品
  6
PLine1
 62
    5
 10
1083.9847749999999
 20
2036.0329249999998
 11
728.84171700000024
 21
1680.8898670000001
  0
LINE
  8
_0-4_躯体と製品
  6
PLine1
 62
    5
 10
1068.2641000000003
 20
2108.7006000000001
 11
676.85491699999966
 21
1717.2914169999999
  0
LINE
  8
_0-4_躯体と製品
  6
CONTINUOUS
 62
    2
 10
1154.5940000000001
 20
2145.1645249999997
 11
1164.2452499999997
 21
2106.6747999999998
  0
LINE
  8
_0-4_躯体と製品
  6
CONTINUOUS
 62
    3
 10
1374.4518499999999
 20
2173.1852749999998
 11
1424.5075249999998
 21
2185.6322500000001
  0
LINE
  8
_0-4_躯体と製品
  6
CONTINUOUS
 62
    3
 10
1374.507525
 20
2123.1260750000001
 11
1380.5075250000002
 21
2123.1260750000001
  0
LINE
  8
_0-4_躯体と製品
  6
CONTINUOUS
 62
    2
 10
1392.507525
 20
2158.8639250000001
 11
1406.507525
 21
2158.8639250000001
  0
LINE
  8
_0-4_躯体と製品
  6
CONTINUOUS
 62
    2
 10
1399.507525
 20
2165.8639250000001
 11
1399.507525
 21
2151.8639250000006
  0
LINE
  8
_0-4_躯体と製品
  6
CONTINUOUS
 62
    2
 10
1347.0949250000006
 20
1962.3216249999998
 11
1388.5585000000001
 21
1962.3216249999998
  0
LINE
  8
_0-4_躯体と製品
  6
CONTINUOUS
 62
    4
 10
1354.507525
 20
1954.3883749999998
 11
1354.507525
 21
1939.3883749999998
  0
LINE
  8
_0-4_躯体と製品
  6
CONTINUOUS
 62
    3
 10
1368.507525
 20
1977.3216249999998
 11
1368.507525
 21
1951.4827500000004
  0
LINE
  8
_0-4_躯体と製品
  6
CONTINUOUS
 62
    3
 10
1374.507525
 20
1977.3216249999998
 11
1368.507525
 21
1977.3216249999998
  0
LINE
  8
_0-4_躯体と製品
  6
CONTINUOUS
 62
    2
 10
1275.0356000000002
 20
1888.2496999999998
 11
1297.2675250000002
 21
1861.7547249999998
  0
LINE
  8
_0-4_躯体と製品
  6
CONTINUOUS
 62
    2
 10
1347.0949250000006
 20
1743.267325
 11
1388.5585000000001
 21
1743.267325
  0
LINE
  8
_0-4_躯体と製品
  6
CONTINUOUS
 62
    3
 10
1368.507525
 20
1728.267325
 11
1368.507525
 21
1754.5934
  0
LINE
  8
_0-4_躯体と製品
  6
CONTINUOUS
 62
    3
 10
1374.507525
 20
1728.267325
 11
1368.507525
 21
1728.267325
  0
LINE
  8
_0-4_躯体と製品
  6
CONTINUOUS
 62
    4
 10
1214.5075249999998
 20
2428.7796499999999
 11
1174.507525
 21
2428.7796499999999
  0
LINE
  8
_0-4_躯体と製品
  6
CONTINUOUS
 62
    2
 10
1192.5328749999996
 20
2445.9553999999998
 11
1192.5328749999996
 21
2410.8382499999998
  0
LINE
  8
_0-4_躯体と製品
  6
CONTINUOUS
 62
    4
 10
1214.5075249999998
 20
2428.9796500000002
 11
1174.507525
 21
2428.9796500000002
  0
LINE
  8
_0-4_躯体と製品
  6
CONTINUOUS
 62
    4
 10
874.50752499999999
 20
2428.9796500000002
 11
914.50752499999976
 21
2428.9796500000002
  0
LINE
  8
_0-4_躯体と製品
  6
CONTINUOUS
 62
    4
 10
874.50752499999999
 20
2428.7796499999999
 11
914.50752499999976
 21
2428.7796499999999
  0
LINE
  8
_0-4_躯体と製品
  6
CONTINUOUS
 62
    2
 10
894.5075250000001
 20
2445.5857500000002
 11
894.5075250000001
 21
2414.5347999999999
  0
LINE
  8
_0-4_躯体と製品
  6
CONTINUOUS
 62
    2
 10
1494.1977999999997
 20
2229.83725
 11
1503.7352249999999
 21
2191.8015249999999
  0
LINE
  8
_0-4_躯体と製品
  6
CONTINUOUS
 62
    2
 10
1833.8015999999998
 20
2314.5100000000002
 11
1843.2251749999998
 21
2276.9282499999999
  0
LINE
  8
_0-4_躯体と製品
  6
CONTINUOUS
 62
    2
 10
2164.2120749999999
 20
2263.12995
 11
2160.8251749999999
 21
2249.5457999999999
  0
LINE
  8
_0-4_躯体と製品
  6
CONTINUOUS
 62
    2
 10
2155.7265499999999
 20
2258.0313249999999
 11
2169.3106750000002
 21
2254.644425
  0
LINE
  8
_0-4_躯体と製品
  6
CONTINUOUS
 62
    3
 10
1485.8234499999999
 20
4622.5541499999999
 11
1832.3779749999997
 21
4622.5541499999999
  0
LINE
  8
_0-4_躯体と製品
  6
PLine4
 62
    3
 10
1463.3779750000003
 20
4656.5541499999999
 11
1832.3779749999997
 21
4656.5541499999999
  0
LINE
  8
_0-4_躯体と製品
  6
CONTINUOUS
 62
    3
 10
1463.3779750000003
 20
4662.5541499999999
 11
1832.3779749999997
 21
4662.5541499999999
  0
LINE
  8
_0-4_躯体と製品
  6
PLine1
 62
    3
 10
1832.3779749999997
 20
4378.4308000000001
 11
890.69354999999996
 21
4095.9254499999997
  0
LINE
  8
_0-4_躯体と製品
  6
CONTINUOUS
 62
    4
 10
1457.3779750000001
 20
4662.5541499999999
 11
1457.3779750000001
 21
4203.2889520000008
  0
LINE
  8
_0-4_躯体と製品
  6
CONTINUOUS
 62
    4
 10
1222.1072249999995
 20
4195.9574249999996
 11
1242.9714249999997
 21
4202.2166749999997
  0
LINE
  8
_0-4_躯体と製品
  6
CONTINUOUS
 62
    4
 10
1457.3779750000001
 20
4267.2358249999997
 11
1221.9153500000002
 21
4196.597025
  0
LINE
  8
_0-4_躯体と製品
  6
CONTINUOUS
 62
    4
 10
1221.9153500000002
 20
4196.597025
 11
1222.1072249999995
 21
4195.9574249999996
  0
LINE
  8
_0-4_躯体と製品
  6
PLine1
 62
    5
 10
1270.8686499999997
 20
4726.2935500000003
 11
1187.4440000000002
 21
4642.8688750000001
  0
LINE
  8
_0-4_躯体と製品
  6
CONTINUOUS
 62
    4
 10
977.91849999999965
 20
4752.5907500000003
 11
1372.3779750000003
 21
4476.3872250000004
  0
LINE
  8
_0-4_躯体と製品
  6
PLine4
 62
    3
 10
982.67612499999996
 20
4756.9503000000004
 11
1447.3779750000003
 21
4431.5625499999996
  0
LINE
  8
_0-4_躯体と製品
  6
CONTINUOUS
 62
    3
 10
1447.3779750000003
 20
4460.8611499999997
 11
1000.8004000000003
 21
4773.5581249999996
  0
LINE
  8
_0-4_躯体と製品
  6
CONTINUOUS
 62
    3
 10
1447.3779750000003
 20
4424.2379000000001
 11
978.14505000000031
 21
4752.79835
  0
LINE
  8
_0-4_躯体と製品
  6
CONTINUOUS
 62
    2
 10
945.15467499999954
 20
4779.9393499999996
 11
971.13542499999983
 21
4794.9393499999996
  0
LINE
  8
_0-4_躯体と製品
  6
CONTINUOUS
 62
    2
 10
1171.4456749999997
 20
4599.1361500000003
 11
1188.6529749999997
 21
4623.7107249999999
  0
LINE
  8
_0-4_躯体と製品
  6
CONTINUOUS
 62
    4
 10
1007.75645
 20
4725.3499499999998
 11
984.07062500000029
 21
4741.9349499999998
  0
LINE
  8
_0-4_躯体と製品
  6
CONTINUOUS
 62
    2
 10
1010.4989999999997
 20
4711.8322500000004
 11
1027.7062999999996
 21
4736.4067999999997
  0
LINE
  8
_0-4_躯体と製品
  6
PLine1
 62
    5
 10
1314.8223749999997
 20
4681.8589250000005
 11
1239.4308000000003
 21
4606.4673249999996
  0
LINE
  8
_0-4_躯体と製品
  6
PLine1
 62
    5
 10
1366.8091750000003
 20
4645.457375
 11
1291.4176
 21
4570.0657750000009
  0
LINE
  8
_0-4_躯体と製品
  6
PLine1
 62
    5
 10
1418.795975
 20
4609.0558250000004
 11
1343.4043750000001
 21
4533.6642250000004
  0
LINE
  8
_0-4_躯体と製品
  6
PLine1
 62
    5
 10
1447.3779750000003
 20
4549.2494749999987
 11
1395.3911749999997
 21
4497.2627000000002
  0
LINE
  8
_0-4_躯体と製品
  6
CONTINUOUS
 62
    3
 10
1457.3779750000001
 20
4747.2675749999999
 11
1451.3779750000006
 21
4747.2675749999999
  0
LINE
  8
_0-4_躯体と製品
  6
CONTINUOUS
 62
    2
 10
1477.3779750000003
 20
4649.5541499999999
 11
1477.3779750000003
 21
4635.5541499999999
  0
LINE
  8
_0-4_躯体と製品
  6
CONTINUOUS
 62
    2
 10
1470.3779750000003
 20
4642.5541499999999
 11
1484.3779750000003
 21
4642.5541499999999
  0
LINE
  8
_0-4_躯体と製品
  6
CONTINUOUS
 62
    3
 10
1463.3779750000003
 20
4622.5541499999999
 11
1474.583175
 21
4622.5541499999999
  0
LINE
  8
_0-4_躯体と製品
  6
CONTINUOUS
 62
    3
 10
1447.3779750000003
 20
4460.8611499999997
 11
1457.3779750000001
 21
4460.8611499999997
  0
LINE
  8
_0-4_躯体と製品
  6
CONTINUOUS
 62
    3
 10
1457.3779750000001
 20
4317.2358249999997
 11
1447.3779750000003
 21
4317.2358249999997
  0
LINE
  8
_0-4_躯体と製品
  6
CONTINUOUS
 62
    3
 10
1447.3779750000003
 20
4317.2358249999997
 11
1447.3779750000003
 21
4589.0424750000002
  0
LINE
  8
_0-4_躯体と製品
  6
CONTINUOUS
 62
    3
 10
1451.3779750000006
 20
4772.6635999999999
 11
1451.3779750000006
 21
4747.2675749999999
  0
LINE
  8
_0-4_躯体と製品
  6
CONTINUOUS
 62
    4
 10
1326.1857500000001
 20
4790.7906999999996
 11
1326.1857500000001
 21
4775.7906999999996
  0
LINE
  8
_0-4_躯体と製品
  6
CONTINUOUS
 62
    4
 10
1372.3779750000003
 20
4476.3872250000004
 11
1382.3779750000001
 21
4469.3783750000002
  0
LINE
  8
_0-4_躯体と製品
  6
CONTINUOUS
 62
    4
 10
1382.3779750000001
 20
4417.2358249999997
 11
1385.3779750000003
 21
4417.2358249999997
  0
LINE
  8
_0-4_躯体と製品
  6
CONTINUOUS
 62
    4
 10
1385.3779750000003
 20
4417.2358249999997
 11
1385.3779750000003
 21
4427.2358249999997
  0
LINE
  8
_0-4_躯体と製品
  6
CONTINUOUS
 62
    4
 10
1382.3779750000001
 20
4469.3783750000002
 11
1382.3779750000001
 21
4417.2358249999997
  0
LINE
  8
_0-4_躯体と製品
  6
CONTINUOUS
 62
    2
 10
1348.3876250000003
 20
4511.8633250000003
 11
1331.1803250000003
 21
4487.2887499999997
  0
LINE
  8
_0-4_躯体と製品
  6
CONTINUOUS
 62
    2
 10
1442.3779750000001
 20
4350.2358249999997
 11
1472.3779750000001
 21
4350.2358249999997
  0
LINE
  8
_0-4_躯体と製品
  6
CONTINUOUS
 62
    2
 10
1442.3779750000001
 20
4383.2358249999997
 11
1472.3779750000001
 21
4383.2358249999997
  0
LINE
  8
_0-4_躯体と製品
  6
CONTINUOUS
 62
    3
 10
1447.3779750000003
 20
4589.0424750000002
 11
1270.8686499999997
 21
4712.6356249999999
  0
LINE
  8
_0-4_躯体と製品
  6
CONTINUOUS
 62
    4
 10
1407.3779750000003
 20
4649.1566750000002
 11
1457.3779750000001
 21
4662.5541499999999
  0
LINE
  8
_0-4_躯体と製品
  6
CONTINUOUS
 62
    2
 10
1442.3779750000001
 20
4604.5541499999999
 11
1472.3779750000001
 21
4604.5541499999999
  0
LINE
  8
_0-4_躯体と製品
  6
CONTINUOUS
 62
    2
 10
1442.3779750000001
 20
4762.2675749999999
 11
1472.3779750000001
 21
4762.2675749999999
  0
LINE
  8
_0-4_躯体と製品
  6
PLine4
 62
    3
 10
2201.3779749999999
 20
4417.2358249999997
 11
2201.3779749999999
 21
4205.0889520000001
  0
LINE
  8
_0-4_躯体と製品
  6
CONTINUOUS
 62
    3
 10
2207.3779749999999
 20
4203.2889520000008
 11
2207.3779749999999
 21
4267.2358249999997
  0
LINE
  8
_0-4_躯体と製品
  6
PLine4
 62
    3
 10
2207.3779749999999
 20
4417.2358249999997
 11
2207.3779749999999
 21
4267.2358249999997
  0
LINE
  8
_0-4_躯体と製品
  6
CONTINUOUS
 62
    3
 10
2167.3779749999999
 20
4215.2889530000002
 11
2167.3779749999999
 21
4279.2358219999996
  0
LINE
  8
_0-4_躯体と製品
  6
PLine4
 62
    3
 10
2167.3779749999999
 20
4417.2358249999997
 11
2167.3779749999999
 21
4279.2358219999996
  0
LINE
  8
_0-4_躯体と製品
  6
CONTINUOUS
 62
    4
 10
802.00307499999997
 20
5057.2851749999991
 11
932.16585000000021
 21
5187.4479499999998
  0
LINE
  8
_0-4_躯体と製品
  6
PLine4
 62
    3
 10
809.87612499999977
 20
5056.2486749999998
 11
940.8632749999997
 21
5187.2358249999997
  0
LINE
  8
_0-4_躯体と製品
  6
CONTINUOUS
 62
    3
 10
839.86864999999989
 20
5052.300075000001
 11
953.59119999999984
 21
5166.0226249999996
  0
LINE
  8
_0-4_躯体と製品
  6
CONTINUOUS
 62
    3
 10
932.37797500000011
 20
5187.2358249999997
 11
802.37797500000033
 21
5057.2358249999997
  0
LINE
  8
_0-4_躯体と製品
  6
CONTINUOUS
 62
    2
 10
861.83579999999984
 20
4974.2518749999999
 11
873.96014999999977
 21
4981.2518749999999
  0
LINE
  8
_0-4_躯体と製品
  6
PLine4
 62
    3
 10
847.41129999999976
 20
4991.2358249999997
 11
1271.6053499999998
 21
4991.2358249999997
  0
LINE
  8
_0-4_躯体と製品
  6
CONTINUOUS
 62
    3
 10
843.94720000000007
 20
4997.2358249999997
 11
1270.8686499999997
 21
4997.2358249999997
  0
LINE
  8
_0-4_躯体と製品
  6
CONTINUOUS
 62
    2
 10
809.12780000000009
 20
5014.9448000000002
 11
835.10854999999992
 21
5029.9448000000002
  0
LINE
  8
_0-4_躯体と製品
  6
CONTINUOUS
 62
    3
 10
1832.3779749999997
 20
5096.0112749999998
 11
1487.7853499999999
 21
5010.0946750000003
  0
LINE
  8
_0-4_躯体と製品
  6
PLine4
 62
    3
 10
1271.6053499999998
 20
4991.2358249999997
 11
1833.8295250000001
 21
5131.4140500000012
  0
LINE
  8
_0-4_躯体と製品
  6
CONTINUOUS
 62
    4
 10
1274.45795
 20
5000.1919749999997
 11
1831.8941500000003
 21
5139.1764249999997
  0
LINE
  8
_0-4_躯体と製品
  6
PLine4
 62
    3
 10
932.37797500000011
 20
5193.2358249999997
 11
1832.3779749999997
 21
5193.2358249999997
  0
LINE
  8
_0-4_躯体と製品
  6
CONTINUOUS
 62
    3
 10
1832.3779749999997
 20
5217.2358249999997
 11
932.37797500000011
 21
5217.2358249999997
  0
LINE
  8
_0-4_躯体と製品
  6
CONTINUOUS
 62
    3
 10
932.37797500000011
 20
5187.2358249999997
 11
1832.3779749999997
 21
5187.2358249999997
  0
LINE
  8
_0-4_躯体と製品
  6
CONTINUOUS
 62
    3
 10
1832.3779749999997
 20
5137.2358249999997
 11
1270.8686499999997
 21
4997.2358249999997
  0
LINE
  8
_0-4_躯体と製品
  6
CONTINUOUS
 62
    4
 10
1292.3779750000001
 20
5187.2358249999997
 11
1102.3779750000003
 21
4997.2358249999997
  0
LINE
  8
_0-4_躯体と製品
  6
PLine4
 62
    3
 10
1275.7800249999998
 20
4957.2358249999997
 11
867.04122500000017
 21
4957.2358249999997
  0
LINE
  8
_0-4_躯体と製品
  6
PLine1
 62
    5
 10
923.09249999999963
 20
4997.2358249999997
 11
890.48562500000014
 21
4964.6289500000003
  0
LINE
  8
_0-4_躯体と製品
  6
PLine1
 62
    5
 10
1011.4808499999998
 20
4997.2358249999997
 11
922.83799999999974
 21
4908.5929749999996
  0
LINE
  8
_0-4_躯体と製品
  6
PLine1
 62
    5
 10
1099.8692000000001
 20
4997.2358249999997
 11
955.19037500000013
 21
4852.5569999999989
  0
LINE
  8
_0-4_躯体と製品
  6
CONTINUOUS
 62
    4
 10
1112.1779749999998
 20
5187.0358249999999
 11
1142.3779750000001
 21
5187.0358249999999
  0
LINE
  8
_0-4_躯体と製品
  6
CONTINUOUS
 62
    2
 10
1127.3779750000001
 20
5202.2358249999997
 11
1127.3779750000001
 21
5172.2358249999997
  0
LINE
  8
_0-4_躯体と製品
  6
CONTINUOUS
 62
    4
 10
1142.3779750000001
 20
5187.2358249999997
 11
1112.3779750000001
 21
5187.2358249999997
  0
LINE
  8
_0-4_躯体と製品
  6
CONTINUOUS
 62
    2
 10
1218.7277750000003
 20
4984.7977499999997
 11
1218.7277750000003
 21
4970.7977499999997
  0
LINE
  8
_0-4_躯体と製品
  6
CONTINUOUS
 62
    2
 10
1211.7277750000003
 20
4977.7977499999997
 11
1225.7277750000003
 21
4977.7977499999997
  0
LINE
  8
_0-4_躯体と製品
  6
CONTINUOUS
 62
    2
 10
1087.3779750000003
 20
5012.2358249999997
 11
1087.3779750000003
 21
4982.2358249999997
  0
LINE
  8
_0-4_躯体と製品
  6
CONTINUOUS
 62
    4
 10
1102.3779750000003
 20
4997.4358249999996
 11
1072.3779750000003
 21
4997.4358249999996
  0
LINE
  8
_0-4_躯体と製品
  6
CONTINUOUS
 62
    4
 10
1102.3779750000003
 20
4997.2358249999997
 11
1072.3779750000003
 21
4997.2358249999997
  0
LINE
  8
_0-4_躯体と製品
  6
CONTINUOUS
 62
    2
 10
982.37797500000033
 20
5202.2358249999997
 11
982.37797500000033
 21
5172.2358249999997
  0
LINE
  8
_0-4_躯体と製品
  6
CONTINUOUS
 62
    3
 10
1032.3779750000003
 20
5181.2358249999997
 11
1032.3779750000003
 21
5187.2358249999997
  0
LINE
  8
_0-4_躯体と製品
  6
CONTINUOUS
 62
    3
 10
943.34854999999959
 20
5181.2358249999997
 11
932.37797500000011
 21
5170.2652749999997
  0
LINE
  8
_0-4_躯体と製品
  6
CONTINUOUS
 62
    3
 10
932.37797500000011
 20
5187.2358249999997
 11
932.37797500000011
 21
5217.2358249999997
  0
LINE
  8
_0-4_躯体と製品
  6
CONTINUOUS
 62
    3
 10
953.59119999999984
 20
5166.0226249999996
 11
932.37797500000011
 21
5187.2358249999997
  0
LINE
  8
_0-4_躯体と製品
  6
CONTINUOUS
 62
    3
 10
943.34854999999959
 20
5181.2358249999997
 11
1032.3779750000003
 21
5181.2358249999997
  0
LINE
  8
_0-4_躯体と製品
  6
CONTINUOUS
 62
    2
 10
893.27497500000027
 20
5169.7702999999992
 11
914.48817500000007
 21
5148.5570749999997
  0
LINE
  8
_0-4_躯体と製品
  6
CONTINUOUS
 62
    3
 10
915.40742500000056
 20
5161.7799750000004
 11
919.65007499999979
 21
5157.5373500000005
  0
LINE
  8
_0-4_躯体と製品
  6
CONTINUOUS
 62
    3
 10
928.22005000000001
 20
5166.1073249999999
 11
919.65007499999979
 21
5157.5373500000005
  0
LINE
  8
_0-4_躯体と製品
  6
CONTINUOUS
 62
    2
 10
907.37797500000033
 20
5012.2358249999997
 11
907.37797500000033
 21
4982.2358249999997
  0
LINE
  8
_0-4_躯体と製品
  6
CONTINUOUS
 62
    4
 10
922.37797500000033
 20
4997.4358249999996
 11
892.37797500000033
 21
4997.4358249999996
  0
LINE
  8
_0-4_躯体と製品
  6
CONTINUOUS
 62
    4
 10
922.37797500000033
 20
4997.2358249999997
 11
892.37797500000033
 21
4997.2358249999997
  0
LINE
  8
_0-4_躯体と製品
  6
CONTINUOUS
 62
    2
 10
864.39797499999997
 20
4983.81405
 11
871.39797499999997
 21
4971.689699999999
  0
LINE
  8
_0-4_躯体と製品
  6
CONTINUOUS
 62
    4
 10
922.37797500000033
 20
4997.2358249999997
 11
1112.1779749999998
 21
5187.0358249999999
  0
LINE
  8
_0-4_躯体と製品
  6
CONTINUOUS
 62
    2
 10
1470.3779750000003
 20
5023.9109500000004
 11
1484.3779750000003
 21
5023.9109500000004
  0
LINE
  8
_0-4_躯体と製品
  6
CONTINUOUS
 62
    3
 10
1457.3779750000001
 20
4920.4308000000001
 11
1451.3779750000006
 21
4920.4308000000001
  0
LINE
  8
_0-4_躯体と製品
  6
CONTINUOUS
 62
    3
 10
1457.3779750000001
 20
4997.2358249999997
 11
1463.3779750000003
 21
4997.2358249999997
  0
LINE
  8
_0-4_躯体と製品
  6
CONTINUOUS
 62
    3
 10
1451.3779750000006
 20
4920.4308000000001
 11
1451.3779750000006
 21
4893.22865
  0
LINE
  8
_0-4_躯体と製品
  6
CONTINUOUS
 62
    2
 10
1477.3779750000003
 20
5030.9109500000004
 11
1477.3779750000003
 21
5016.9109500000004
  0
LINE
  8
_0-4_躯体と製品
  6
CONTINUOUS
 62
    2
 10
1307.3779750000001
 20
5202.2358249999997
 11
1307.3779750000001
 21
5172.2358249999997
  0
LINE
  8
_0-4_躯体と製品
  6
CONTINUOUS
 62
    4
 10
1322.3779750000001
 20
5187.0358249999999
 11
1292.3779750000001
 21
5187.0358249999999
  0
LINE
  8
_0-4_躯体と製品
  6
CONTINUOUS
 62
    4
 10
1322.3779750000001
 20
5187.2358249999997
 11
1292.3779750000001
 21
5187.2358249999997
  0
LINE
  8
_0-4_躯体と製品
  6
CONTINUOUS
 62
    4
 10
1274.45795
 20
4983.130725
 11
1274.45795
 21
5000.1919749999997
  0
LINE
  8
_0-4_躯体と製品
  6
CONTINUOUS
 62
    2
 10
1388.9972250000001
 20
4863.0769
 11
1408.2808500000001
 21
4840.0955750000003
  0
LINE
  8
_0-4_躯体と製品
  6
CONTINUOUS
 62
    4
 10
1441.0923999999998
 20
4900.6767499999996
 11
1441.0923999999998
 21
4887.20885
  0
LINE
  8
_0-4_躯体と製品
  6
CONTINUOUS
 62
    2
 10
1329.0468499999997
 20
5029.2617250000003
 11
1336.3045250000002
 21
5000.1528500000004
  0
LINE
  8
_0-4_躯体と製品
  6
CONTINUOUS
 62
    2
 10
1442.3779750000001
 20
4905.4308000000001
 11
1472.3779750000001
 21
4905.4308000000001
  0
LINE
  8
_0-4_躯体と製品
  6
CONTINUOUS
 62
    3
 10
1457.3779750000001
 20
4890.4308000000001
 11
1355.1573499999997
 21
4804.6575000000012
  0
LINE
  8
_0-4_躯体と製品
  6
CONTINUOUS
 62
    3
 10
1451.3779750000006
 20
4893.22865
 11
1342.4712750000001
 21
4801.8450750000002
  0
LINE
  8
_0-4_躯体と製品
  6
CONTINUOUS
 62
    3
 10
1468.4217749999998
 20
5005.2668000000003
 11
1275.7800249999998
 21
4957.2358249999997
  0
LINE
  8
_0-4_躯体と製品
  6
CONTINUOUS
 62
    2
 10
1832.3779749999997
 20
5116.0112749999998
 11
1839.3779749999997
 21
5116.0112749999998
  0
LINE
  8
_0-4_躯体と製品
  6
CONTINUOUS
 62
    2
 10
1711.8298249999998
 20
5124.7002249999987
 11
1719.0874749999998
 21
5095.5913500000006
  0
LINE
  8
_0-4_躯体と製品
  6
CONTINUOUS
 62
    2
 10
2017.9803250000002
 20
5077.5619999999999
 11
2014.593425
 21
5063.9778500000002
  0
LINE
  8
_0-4_躯体と製品
  6
CONTINUOUS
 62
    2
 10
2009.4947999999999
 20
5072.4633749999994
 11
2023.0789499999998
 21
5069.0764749999998
  0
LINE
  8
_0-4_躯体と製品
  6
CONTINUOUS
 62
    2
 10
2204.8592749999998
 20
5030.9678249999997
 11
2201.4723749999998
 21
5017.3837000000003
  0
LINE
  8
_0-4_躯体と製品
  6
CONTINUOUS
 62
    2
 10
2196.3737500000002
 20
5025.8692250000004
 11
2209.9578999999999
 21
5022.4822999999997
  0
LINE
  8
_0-4_躯体と製品
  6
PLine1
 62
    5
 10
5970.7337500000003
 20
4963.7306250000001
 11
5776.6720999999998
 21
4769.6689999999999
  0
LINE
  8
_0-4_躯体と製品
  6
PLine1
 62
    5
 10
5970.7337500000003
 20
4875.3422750000009
 11
5828.6589000000004
 21
4733.2674500000003
  0
LINE
  8
_0-4_躯体と製品
  6
CONTINUOUS
 62
    3
 10
6202.5664999999999
 20
5174.2422499999993
 11
6202.5664999999999
 21
4732.6235500000003
  0
LINE
  8
_0-4_躯体と製品
  6
CONTINUOUS
 62
    3
 10
6252.5664999999999
 20
5186.7086499999996
 11
6252.5664999999999
 21
4217.3201529999997
  0
LINE
  8
_0-4_躯体と製品
  6
PLine4
 62
    3
 10
6208.5664999999999
 20
5122.6235500000003
 11
6208.5664999999999
 21
4211.7817109999996
  0
LINE
  8
_0-4_躯体と製品
  6
CONTINUOUS
 62
    3
 10
5970.7337500000003
 20
4786.3824000000004
 11
5970.7337500000003
 21
5122.6235500000003
  0
LINE
  8
_0-4_躯体と製品
  6
CONTINUOUS
 62
    2
 10
5670.384575
 20
4813.5729499999998
 11
5653.1773000000003
 21
4788.9984000000004
  0
LINE
  8
_0-4_躯体と製品
  6
CONTINUOUS
 62
    4
 10
6112.5664999999999
 20
4485.2759999999998
 11
5612.98675
 21
4835.0855000000001
  0
LINE
  8
_0-4_躯体と製品
  6
PLine4
 62
    3
 10
6192.5664999999999
 20
4436.9502750000001
 11
5617.5505249999997
 21
4839.5807750000004
  0
LINE
  8
_0-4_躯体と製品
  6
CONTINUOUS
 62
    3
 10
5643.2266
 20
4863.108549999999
 11
6192.5664999999999
 21
4478.4566000000004
  0
LINE
  8
_0-4_躯体と製品
  6
CONTINUOUS
 62
    3
 10
5613.0194750000001
 20
4835.428825
 11
6192.5664999999999
 21
4429.6256249999997
  0
LINE
  8
_0-4_躯体と製品
  6
PLine2
 62
    2
 10
6652.5664999999999
 20
5472.2137249999996
 11
6652.5664999999999
 21
4172.6235500000003
  0
LINE
  8
_0-4_躯体と製品
  6
CONTINUOUS
 62
    3
 10
7710.9929750000001
 20
4818.1289999999999
 11
7217.5665000000008
 21
4472.6280500000003
  0
LINE
  8
_0-4_躯体と製品
  6
CONTINUOUS
 62
    3
 10
2705.7169250000002
 20
4735.2909
 11
2893.9951249999999
 21
5061.3982999999998
  0
LINE
  8
_0-4_躯体と製品
  6
CONTINUOUS
 62
    3
 10
3374.5619500000003
 20
1696.0612249999999
 11
2719.507525
 21
1238.7388249999999
  0
LINE
  8
_0-4_躯体と製品
  6
PLine4
 62
    3
 10
2568.507525
 20
1168.9796499999998
 11
2568.507525
 21
961.55605200000014
  0
LINE
  8
_0-4_躯体と製品
  6
CONTINUOUS
 62
    3
 10
2524.507525
 20
967.09449400000017
 11
2524.507525
 21
1038.7029190000003
  0
LINE
  8
_0-4_躯体と製品
  6
PLine4
 62
    3
 10
2524.507525
 20
1168.9796499999998
 11
2524.507525
 21
1038.7029190000003
  0
LINE
  8
_0-4_躯体と製品
  6
CONTINUOUS
 62
    3
 10
2574.507525
 20
959.75605199999961
 11
2574.507525
 21
1023.702916
  0
LINE
  8
_0-4_躯体と製品
  6
PLine4
 62
    3
 10
2574.507525
 20
1168.9796499999998
 11
2574.507525
 21
1023.702916
  0
LINE
  8
_0-4_躯体と製品
  6
CONTINUOUS
 62
    3
 10
2719.507525
 20
1223.8279250000001
 11
2719.507525
 21
980.20290800000009
  0
LINE
  8
_0-4_躯体と製品
  6
CONTINUOUS
 62
    3
 10
2568.507525
 20
1529.38285
 11
2554.3077750000002
 21
1529.38285
  0
LINE
  8
_0-4_躯体と製品
  6
CONTINUOUS
 62
    2
 10
2567.507525
 20
1504.38285
 11
2581.507525
 21
1504.38285
  0
LINE
  8
_0-4_躯体と製品
  6
CONTINUOUS
 62
    2
 10
2574.507525
 20
1511.38285
 11
2574.507525
 21
1497.38285
  0
LINE
  8
_0-4_躯体と製品
  6
CONTINUOUS
 62
    2
 10
2374.507525
 20
1511.38285
 11
2374.507525
 21
1497.38285
  0
LINE
  8
_0-4_躯体と製品
  6
CONTINUOUS
 62
    2
 10
2367.507525
 20
1504.38285
 11
2381.507525
 21
1504.38285
  0
LINE
  8
_0-4_躯体と製品
  6
CONTINUOUS
 62
    2
 10
2774.507525
 20
1511.38285
 11
2774.507525
 21
1497.38285
  0
LINE
  8
_0-4_躯体と製品
  6
CONTINUOUS
 62
    2
 10
2767.507525
 20
1504.38285
 11
2781.507525
 21
1504.38285
  0
LINE
  8
_0-4_躯体と製品
  6
CONTINUOUS
 62
    3
 10
2719.507525
 20
1238.7388249999999
 11
2719.507525
 21
1223.8279250000001
  0
LINE
  8
_0-4_躯体と製品
  6
PLine4
 62
    3
 10
2850.7401
 20
2058.9796500000002
 11
3473.9633749999998
 21
2058.9796500000002
  0
LINE
  8
_0-4_躯体と製品
  6
PLine4
 62
    3
 10
2856.8793249999999
 20
2108.9796500000002
 11
3462.6488250000002
 21
2108.9796500000002
  0
LINE
  8
_0-4_躯体と製品
  6
PLine4
 62
    3
 10
2856.8793249999999
 20
2102.9796500000002
 11
3467.1746499999999
 21
2102.9796500000002
  0
LINE
  8
_0-4_躯体と製品
  6
CONTINUOUS
 62
    2
 10
2552.3303500000002
 20
2166.361175
 11
2548.9434500000007
 21
2152.7770500000001
  0
LINE
  8
_0-4_躯体と製品
  6
CONTINUOUS
 62
    2
 10
2543.8448250000001
 20
2161.2625750000002
 11
2557.4289749999998
 21
2157.87565
  0
LINE
  8
_0-4_躯体と製品
  6
CONTINUOUS
 62
    2
 10
2996.3993999999998
 20
2090.9796500000002
 11
2996.3993999999998
 21
2076.9796500000002
  0
LINE
  8
_0-4_躯体と製品
  6
CONTINUOUS
 62
    2
 10
2989.3994000000002
 20
2083.9796500000002
 11
3003.3993999999998
 21
2083.9796500000002
  0
LINE
  8
_0-4_躯体と製品
  6
CONTINUOUS
 62
    2
 10
2737.9039750000002
 20
2112.8781999999997
 11
2751.4881249999999
 21
2109.4912749999999
  0
LINE
  8
_0-4_躯体と製品
  6
CONTINUOUS
 62
    2
 10
2746.3895000000007
 20
2117.9767999999999
 11
2743.0025999999993
 21
2104.3926750000001
  0
LINE
  8
_0-4_躯体と製品
  6
CONTINUOUS
 62
    2
 10
2358.271225
 20
2214.7455749999999
 11
2354.8843000000002
 21
2201.1614249999998
  0
LINE
  8
_0-4_躯体と製品
  6
CONTINUOUS
 62
    2
 10
2349.7856999999999
 20
2209.6469500000003
 11
2363.3698250000002
 21
2206.2600499999999
  0
LINE
  8
_0-4_躯体と製品
  6
CONTINUOUS
 62
    3
 10
3409.9079250000004
 20
2428.9796500000002
 11
3655.995175
 21
2183.5178500000002
  0
LINE
  8
_0-4_躯体と製品
  6
CONTINUOUS
 62
    3
 10
3612.2659250000002
 20
2107.7765749999999
 11
3374.5619500000003
 21
1696.0612249999999
  0
LINE
  8
_0-4_躯体と製品
  6
CONTINUOUS
 62
    2
 10
3296.3993999999998
 20
2090.9796500000002
 11
3296.3993999999998
 21
2076.9796500000002
  0
LINE
  8
_0-4_躯体と製品
  6
CONTINUOUS
 62
    2
 10
3289.3994000000002
 20
2083.9796500000002
 11
3303.3993999999998
 21
2083.9796500000002
  0
LINE
  8
_0-4_躯体と製品
  6
CONTINUOUS
 62
    2
 10
3146.3993999999998
 20
2090.9796500000002
 11
3146.3993999999998
 21
2076.9796500000002
  0
LINE
  8
_0-4_躯体と製品
  6
CONTINUOUS
 62
    2
 10
3139.3994000000002
 20
2083.9796500000002
 11
3153.3993999999998
 21
2083.9796500000002
  0
LINE
  8
_0-4_躯体と製品
  6
CONTINUOUS
 62
    3
 10
3655.995175
 20
2183.5178500000002
 11
3612.3394499999999
 21
2107.9039499999999
  0
LINE
  8
_0-4_躯体と製品
  6
CONTINUOUS
 62
    3
 10
3374.1444000000006
 20
2428.9796500000002
 11
3409.9079250000004
 21
2428.9796500000002
  0
LINE
  8
_0-4_躯体と製品
  6
CONTINUOUS
 62
    3
 10
3374.507525
 20
2468.9796500000002
 11
3374.507525
 21
2428.9796500000002
  0
LINE
  8
_0-4_躯体と製品
  6
CONTINUOUS
 62
    3
 10
2317.3779749999999
 20
4234.2358249999997
 11
2317.3779749999999
 21
4462.5798249999998
  0
LINE
  8
_0-4_躯体と製品
  6
CONTINUOUS
 62
    4
 10
2442.8406249999998
 20
4196.597025
 11
2442.648725
 21
4195.9574249999996
  0
LINE
  8
_0-4_躯体と製品
  6
CONTINUOUS
 62
    4
 10
2442.648725
 20
4195.9574249999996
 11
2421.7845499999999
 21
4202.2166749999997
  0
LINE
  8
_0-4_躯体と製品
  6
CONTINUOUS
 62
    3
 10
2317.3779749999999
 20
4463.3730500000001
 11
2705.7169250000002
 21
4735.2909
  0
LINE
  8
_0-4_躯体と製品
  6
PLine1
 62
    5
 10
5816.2362499999999
 20
2985.320025
 11
5518.3432249999996
 21
2687.4270000000001
  0
LINE
  8
_0-4_躯体と製品
  6
PLine1
 62
    5
 10
5860.7956000000004
 20
2941.4910249999998
 11
5570.3300250000002
 21
2651.0254500000001
  0
LINE
  8
_0-4_躯体と製品
  6
PLine1
 62
    5
 10
5860.7956000000004
 20
2853.1026750000001
 11
5622.3168249999999
 21
2614.6239000000005
  0
LINE
  8
_0-4_躯体と製品
  6
PLine1
 62
    5
 10
5860.7956000000004
 20
2764.7143249999999
 11
5674.3036249999996
 21
2578.22235
  0
LINE
  8
_0-4_躯体と製品
  6
CONTINUOUS
 62
    3
 10
8029.0862000000006
 20
3059.4331499999998
 11
7796.4202000000005
 21
2656.4438
  0
LINE
  8
_0-4_躯体と製品
  6
CONTINUOUS
 62
    3
 10
6172.8439749999998
 20
3056.9387499999998
 11
6172.8439749999998
 21
2007.4065449999998
  0
LINE
  8
_0-4_躯体と製品
  6
PLine4
 62
    3
 10
6128.8439749999998
 20
2996.43885
 11
6128.8439749999998
 21
2001.8681029999998
  0
LINE
  8
_0-4_躯体と製品
  6
CONTINUOUS
 62
    3
 10
6122.8439749999998
 20
3044.47235
 11
6122.8439749999998
 21
2064.014975
  0
LINE
  8
_0-4_躯体と製品
  6
CONTINUOUS
 62
    2
 10
5425.3735749999996
 20
2706.6297
 11
5460.0146000000004
 21
2726.6296999999995
  0
LINE
  8
_0-4_躯体と製品
  6
CONTINUOUS
 62
    3
 10
5498.3543250000002
 20
2701.4233749999999
 11
5297.8315249999996
 21
3048.7390249999999
  0
LINE
  8
_0-4_躯体と製品
  6
CONTINUOUS
 62
    3
 10
5860.7956000000004
 20
2985.320025
 11
5860.7956000000004
 21
2624.6515749999999
  0
LINE
  8
_0-4_躯体と製品
  6
CONTINUOUS
 62
    4
 10
5247.2689
 20
3055.1691999999998
 11
5472.7147000000004
 21
2664.6855999999998
  0
LINE
  8
_0-4_躯体と製品
  6
PLine4
 62
    3
 10
5255.3420999999998
 20
3054.3328750000001
 11
5472.6782750000002
 21
2677.8955999999998
  0
LINE
  8
_0-4_躯体と製品
  6
CONTINUOUS
 62
    3
 10
5468.1472000000003
 20
2673.7436499999999
 11
5247.8439749999998
 21
3055.320025
  0
LINE
  8
_0-4_躯体と製品
  6
CONTINUOUS
 62
    3
 10
5982.3211499999998
 20
2743.5749249999999
 11
6122.8439749999998
 21
2705.9219499999999
  0
LINE
  8
_0-4_躯体と製品
  6
CONTINUOUS
 62
    3
 10
6116.8439749999998
 20
2701.3180000000002
 11
5969.6350750000001
 21
2740.7624999999998
  0
LINE
  8
_0-4_躯体と製品
  6
PLine2
 62
    2
 10
6622.8439749999998
 20
3432.733925
 11
6622.8439749999998
 21
1970.7456499999998
  0
LINE
  8
_0-4_躯体と製品
  6
PLine1
 62
    3
 10
6622.8439749999998
 20
2214.014975
 11
7689.5284000000001
 21
1894.00965
  0
LINE
  8
_0-4_躯体と製品
  6
PLine1
 62
    5
 10
5986.3630000000003
 20
2536.728325
 11
5882.2508250000001
 21
2432.6161499999998
  0
LINE
  8
_0-4_躯体と製品
  6
PLine1
 62
    5
 10
6038.3498
 20
2500.3267749999995
 11
5934.2376249999998
 21
2396.2145999999998
  0
LINE
  8
_0-4_躯体と製品
  6
CONTINUOUS
 62
    4
 10
6022.4958749999996
 20
2284.85205
 11
5467.5725499999999
 21
2673.4135500000002
  0
LINE
  8
_0-4_躯体と製品
  6
CONTINUOUS
 62
    3
 10
5860.7956000000004
 20
2624.6515749999999
 11
6112.8439749999998
 21
2448.1653999999999
  0
LINE
  8
_0-4_躯体と製品
  6
PLine4
 62
    3
 10
5472.6782750000002
 20
2677.8955999999998
 11
6112.8439749999998
 21
2229.6467499999999
  0
LINE
  8
_0-4_躯体と製品
  6
CONTINUOUS
 62
    3
 10
6112.8439749999998
 20
2271.1530750000002
 11
5498.3543250000002
 21
2701.4233749999999
  0
LINE
  8
_0-4_躯体と製品
  6
CONTINUOUS
 62
    3
 10
6112.8439749999998
 20
2222.3221000000003
 11
5468.1472000000003
 21
2673.7436499999999
  0
LINE
  8
_0-4_躯体と製品
  6
PLine1
 62
    3
 10
6622.8439749999998
 20
2214.014975
 11
5556.1595500000003
 21
1894.00965
  0
LINE
  8
_0-4_躯体と製品
  6
CONTINUOUS
 62
    4
 10
5472.7147000000004
 20
2664.6855999999998
 11
5498.4381999999996
 21
2646.6738249999999
  0
LINE
  8
_0-4_躯体と製品
  6
CONTINUOUS
 62
    2
 10
5497.5757999999996
 20
2628.722025
 11
5520.5188500000004
 21
2661.4881000000005
  0
LINE
  8
_0-4_躯体と製品
  6
PLine1
 62
    5
 10
5860.7956000000004
 20
2676.3259750000002
 11
5726.2904250000001
 21
2541.8208
  0
LINE
  8
_0-4_躯体と製品
  6
PLine1
 62
    5
 10
5882.3894
 20
2609.5314250000001
 11
5778.2772249999998
 21
2505.4192499999999
  0
LINE
  8
_0-4_躯体と製品
  6
PLine1
 62
    5
 10
5934.3761999999997
 20
2573.1298750000001
 11
5830.2640250000004
 21
2469.0176999999999
  0
LINE
  8
_0-4_躯体と製品
  6
CONTINUOUS
 62
    2
 10
5757.4421000000002
 20
2495.5926499999996
 11
5734.4990500000004
 21
2462.826575
  0
LINE
  8
_0-4_躯体と製品
  6
CONTINUOUS
 62
    3
 10
6112.8439749999998
 20
2115.320025
 11
6112.8439749999998
 21
2271.1530750000002
  0
LINE
  8
_0-4_躯体と製品
  6
CONTINUOUS
 62
    4
 10
6122.8439749999998
 20
2555.320025
 11
6122.8439749999998
 21
2000.0681029999998
  0
LINE
  8
_0-4_躯体と製品
  6
CONTINUOUS
 62
    2
 10
6102.8439749999998
 20
2140.320025
 11
6142.8439749999998
 21
2140.320025
  0
LINE
  8
_0-4_躯体と製品
  6
CONTINUOUS
 62
    3
 10
6122.8439749999998
 20
2115.320025
 11
6112.8439749999998
 21
2115.320025
  0
LINE
  8
_0-4_躯体と製品
  6
PLine4
 62
    3
 10
6128.8439749999998
 20
2549.320025
 11
6622.8439749999998
 21
2549.320025
  0
LINE
  8
_0-4_躯体と製品
  6
CONTINUOUS
 62
    3
 10
6128.8439749999998
 20
2555.320025
 11
6622.8439749999998
 21
2555.320025
  0
LINE
  8
_0-4_躯体と製品
  6
CONTINUOUS
 62
    3
 10
6157.8772749999998
 20
2505.320025
 11
6622.8439749999998
 21
2505.320025
  0
LINE
  8
_0-4_躯体と製品
  6
PLine1
 62
    5
 10
6090.3365999999996
 20
2463.925225
 11
5986.2244250000003
 21
2359.8130500000002
  0
LINE
  8
_0-4_躯体と製品
  6
PLine1
 62
    5
 10
6112.8439749999998
 20
2398.0442750000002
 11
6038.211225
 21
2323.4115000000002
  0
LINE
  8
_0-4_躯体と製品
  6
PLine1
 62
    5
 10
6112.8439749999998
 20
2309.655925
 11
6090.1980000000003
 21
2287.0099500000001
  0
LINE
  8
_0-4_躯体と製品
  6
CONTINUOUS
 62
    3
 10
6122.8439749999998
 20
2675.9219499999999
 11
6116.8439749999998
 21
2675.9219499999999
  0
LINE
  8
_0-4_躯体と製品
  6
CONTINUOUS
 62
    3
 10
6116.8439749999998
 20
2675.9219499999999
 11
6116.8439749999998
 21
2701.3180000000002
  0
LINE
  8
_0-4_躯体と製品
  6
CONTINUOUS
 62
    2
 10
6102.8439749999998
 20
2690.9219499999999
 11
6142.8439749999998
 21
2690.9219499999999
  0
LINE
  8
_0-4_躯体と製品
  6
CONTINUOUS
 62
    2
 10
6147.8439749999998
 20
2537.320025
 11
6147.8439749999998
 21
2523.320025
  0
LINE
  8
_0-4_躯体と製品
  6
CONTINUOUS
 62
    2
 10
6140.8439749999998
 20
2530.320025
 11
6154.8439749999998
 21
2530.320025
  0
LINE
  8
_0-4_躯体と製品
  6
CONTINUOUS
 62
    4
 10
6072.8439749999998
 20
2541.9225749999996
 11
6122.8439749999998
 21
2555.320025
  0
LINE
  8
_0-4_躯体と製品
  6
CONTINUOUS
 62
    2
 10
6102.8439749999998
 20
2487.320025
 11
6142.8439749999998
 21
2487.320025
  0
LINE
  8
_0-4_躯体と製品
  6
CONTINUOUS
 62
    3
 10
6128.8439749999998
 20
2505.320025
 11
6139.4589749999996
 21
2505.320025
  0
LINE
  8
_0-4_躯体と製品
  6
CONTINUOUS
 62
    3
 10
6112.8439749999998
 20
2271.1530750000002
 11
6122.8439749999998
 21
2271.1530750000002
  0
LINE
  8
_0-4_躯体と製品
  6
CONTINUOUS
 62
    2
 10
6102.8439749999998
 20
2190.320025
 11
6142.8439749999998
 21
2190.320025
  0
LINE
  8
_0-4_躯体と製品
  6
CONTINUOUS
 62
    3
 10
6112.8439749999998
 20
2448.1653999999999
 11
6112.8439749999998
 21
2271.1530750000002
  0
LINE
  8
_0-4_躯体と製品
  6
CONTINUOUS
 62
    2
 10
5993.3579
 20
2330.40265
 11
5970.4148499999992
 21
2297.6365500000002
  0
LINE
  8
_0-4_躯体と製品
  6
CONTINUOUS
 62
    4
 10
6022.8439749999998
 20
2215.320025
 11
6024.8439749999998
 21
2215.320025
  0
LINE
  8
_0-4_躯体と製品
  6
CONTINUOUS
 62
    4
 10
6024.8439749999998
 20
2215.320025
 11
6024.8439749999998
 21
2225.320025
  0
LINE
  8
_0-4_躯体と製品
  6
CONTINUOUS
 62
    4
 10
6022.8439749999998
 20
2215.320025
 11
6022.8439749999998
 21
2285.3407750000001
  0
LINE
  8
_0-4_躯体と製品
  6
CONTINUOUS
 62
    3
 10
7796.4202000000005
 20
2656.4438
 11
7247.8439749999998
 21
2272.3265999999999
  0
LINE
  8
_0-4_躯体と製品
  6
PLine1
 62
    3
 10
7116.8439749999998
 20
2215.320025
 11
7116.8439749999998
 21
2001.8681029999998
  0
LINE
  8
_0-4_躯体と製品
  6
PLine1
 62
    3
 10
7072.8439749999998
 20
2215.320025
 11
7072.8439749999998
 21
2079.0149759999995
  0
LINE
  8
_0-4_躯体と製品
  6
CONTINUOUS
 62
    3
 10
7072.8439749999998
 20
2007.4065449999998
 11
7072.8439749999998
 21
2079.0149759999995
  0
LINE
  8
_0-4_躯体と製品
  6
PLine1
 62
    3
 10
7122.8439749999998
 20
2215.320025
 11
7122.8439749999998
 21
2064.0149759999995
  0
LINE
  8
_0-4_躯体と製品
  6
CONTINUOUS
 62
    3
 10
7122.8439749999998
 20
2000.0681029999998
 11
7122.8439749999998
 21
2064.0149759999995
  0
LINE
  8
_0-4_躯体と製品
  6
CONTINUOUS
 62
    3
 10
7247.8439749999998
 20
2272.3265999999999
 11
7247.8439749999998
 21
2026.5149700000002
  0
LINE
  8
_0-4_躯体と製品
  6
PLine4
 62
    3
 10
7827.8439749999998
 20
3231.320025
 11
6622.8439749999998
 21
3231.320025
  0
LINE
  8
_0-4_躯体と製品
  6
CONTINUOUS
 62
    3
 10
7827.8439749999998
 20
3265.320025
 11
6622.8439749999998
 21
3265.320025
  0
LINE
  8
_0-4_躯体と製品
  6
CONTINUOUS
 62
    3
 10
7827.8439749999998
 20
3225.320025
 11
6622.8439749999998
 21
3225.320025
  0
LINE
  8
_0-4_躯体と製品
  6
PLine1
 62
    3
 10
6652.5664999999999
 20
4406.3185000000003
 11
7669.2509250000003
 21
4101.3131750000002
  0
LINE
  8
_0-4_躯体と製品
  6
PLine4
 62
    3
 10
6622.8439749999998
 20
3123.78935
 11
7378.7531250000002
 21
2935.320025
  0
LINE
  8
_0-4_躯体と製品
  6
PLine4
 62
    3
 10
6622.8439749999998
 20
3169.1363500000002
 11
7384.1556499999997
 21
2979.320025
  0
LINE
  8
_0-4_躯体と製品
  6
PLine4
 62
    3
 10
7384.8923499999992
 20
2985.320025
 11
6622.8439749999998
 21
3175.320025
  0
LINE
  8
_0-4_躯体と製品
  6
CONTINUOUS
 62
    4
 10
5917.8439749999998
 20
3225.1200250000002
 11
5947.8439749999998
 21
3225.1200250000002
  0
LINE
  8
_0-4_躯体と製品
  6
CONTINUOUS
 62
    4
 10
5917.8439749999998
 20
3225.320025
 11
5947.8439749999998
 21
3225.320025
  0
LINE
  8
_0-4_躯体と製品
  6
PLine4
 62
    3
 10
5417.8439749999998
 20
3231.320025
 11
6622.8439749999998
 21
3231.320025
  0
LINE
  8
_0-4_躯体と製品
  6
CONTINUOUS
 62
    3
 10
5417.8439749999998
 20
3265.320025
 11
6622.8439749999998
 21
3265.320025
  0
LINE
  8
_0-4_躯体と製品
  6
CONTINUOUS
 62
    3
 10
5417.8439749999998
 20
3225.320025
 11
6622.8439749999998
 21
3225.320025
  0
LINE
  8
_0-4_躯体と製品
  6
PLine4
 62
    3
 10
6122.8958249999996
 20
3044.485275
 11
5861.5322999999999
 21
2979.320025
  0
LINE
  8
_0-4_躯体と製品
  6
CONTINUOUS
 62
    3
 10
6112.8439749999998
 20
2996.6320500000002
 11
5866.9348250000003
 21
2935.320025
  0
LINE
  8
_0-4_躯体と製品
  6
CONTINUOUS
 62
    4
 10
6622.8439749999998
 20
3175.5261500000001
 11
5870.7471999999998
 21
2988.0073750000001
  0
LINE
  8
_0-4_躯体と製品
  6
CONTINUOUS
 62
    3
 10
5860.7956000000004
 20
2985.320025
 11
6622.8439749999998
 21
3175.320025
  0
LINE
  8
_0-4_躯体と製品
  6
CONTINUOUS
 62
    2
 10
5932.8439749999998
 20
3245.320025
 11
5932.8439749999998
 21
3205.320025
  0
LINE
  8
_0-4_躯体と製品
  6
CONTINUOUS
 62
    2
 10
5682.8439749999998
 20
3245.320025
 11
5682.8439749999998
 21
3205.320025
  0
LINE
  8
_0-4_躯体と製品
  6
CONTINUOUS
 62
    2
 10
5476.2846749999999
 20
3245.320025
 11
5476.2846749999999
 21
3205.320025
  0
LINE
  8
_0-4_躯体と製品
  6
CONTINUOUS
 62
    3
 10
5417.8439749999998
 20
3265.320025
 11
5417.8439749999998
 21
3225.320025
  0
LINE
  8
_0-4_躯体と製品
  6
PLine1
 62
    5
 10
5639.4595499999996
 20
2985.320025
 11
5446.0890250000002
 21
2791.9495000000002
  0
LINE
  8
_0-4_躯体と製品
  6
PLine1
 62
    5
 10
5727.8478999999998
 20
2985.320025
 11
5478.441425
 21
2735.9135249999999
  0
LINE
  8
_0-4_躯体と製品
  6
PLine4
 62
    3
 10
5860.7956000000004
 20
2979.320025
 11
5298.6508000000003
 21
2979.320025
  0
LINE
  8
_0-4_躯体と製品
  6
PLine4
 62
    3
 10
5866.9348250000003
 20
2935.320025
 11
5324.0541999999996
 21
2935.320025
  0
LINE
  8
_0-4_躯体と製品
  6
CONTINUOUS
 62
    3
 10
5295.1867000000002
 20
2985.320025
 11
5860.7956000000004
 21
2985.320025
  0
LINE
  8
_0-4_躯体と製品
  6
CONTINUOUS
 62
    4
 10
5667.8439749999998
 20
3225.320025
 11
5427.8439749999998
 21
2985.320025
  0
LINE
  8
_0-4_躯体と製品
  6
PLine1
 62
    5
 10
5374.2945250000002
 20
2985.320025
 11
5349.0319
 21
2960.0574000000001
  0
LINE
  8
_0-4_躯体と製品
  6
PLine1
 62
    5
 10
5462.6828750000004
 20
2985.320025
 11
5381.3842750000003
 21
2904.0214249999999
  0
LINE
  8
_0-4_躯体と製品
  6
PLine1
 62
    5
 10
5551.0712249999997
 20
2985.320025
 11
5413.7366499999998
 21
2847.985475
  0
LINE
  8
_0-4_躯体と製品
  6
PLine4
 62
    3
 10
5526.2846749999999
 20
3225.320025
 11
5526.2846749999999
 21
3219.1200250000002
  0
LINE
  8
_0-4_躯体と製品
  6
CONTINUOUS
 62
    4
 10
5417.2196999999996
 20
3225.1200250000002
 11
5447.8439749999998
 21
3225.1200250000002
  0
LINE
  8
_0-4_躯体と製品
  6
CONTINUOUS
 62
    3
 10
5390.9567749999997
 20
3181.496525
 11
5402.1881999999996
 21
3192.7308750000002
  0
LINE
  8
_0-4_躯体と製品
  6
CONTINUOUS
 62
    3
 10
5417.8439749999998
 20
3208.3907250000002
 11
5428.5704750000004
 21
3219.1200250000002
  0
LINE
  8
_0-4_躯体と製品
  6
CONTINUOUS
 62
    3
 10
5386.7312750000001
 20
3185.7220499999999
 11
5390.9567749999997
 21
3181.496525
  0
LINE
  8
_0-4_躯体と製品
  6
CONTINUOUS
 62
    3
 10
5417.8439749999998
 20
3225.320025
 11
5446.1282499999998
 21
3197.03575
  0
LINE
  8
_0-4_躯体と製品
  6
CONTINUOUS
 62
    3
 10
5428.5704750000004
 20
3219.1200250000002
 11
5526.2846749999999
 21
3219.1200250000002
  0
LINE
  8
_0-4_躯体と製品
  6
CONTINUOUS
 62
    2
 10
5412.8439749999998
 20
3005.320025
 11
5412.8439749999998
 21
2965.320025
  0
LINE
  8
_0-4_躯体と製品
  6
CONTINUOUS
 62
    4
 10
5397.8439749999998
 20
2985.5200249999998
 11
5427.8439749999998
 21
2985.5200249999998
  0
LINE
  8
_0-4_躯体と製品
  6
CONTINUOUS
 62
    4
 10
5397.8439749999998
 20
2985.320025
 11
5427.8439749999998
 21
2985.320025
  0
LINE
  8
_0-4_躯体と製品
  6
CONTINUOUS
 62
    2
 10
5322.2862499999992
 20
2966.3822
 11
5329.2862500000001
 21
2954.25785
  0
LINE
  8
_0-4_躯体と製品
  6
CONTINUOUS
 62
    2
 10
5319.7240750000001
 20
2956.820025
 11
5331.8484250000001
 21
2963.820025
  0
LINE
  8
_0-4_躯体と製品
  6
CONTINUOUS
 62
    2
 10
5254.9253749999998
 20
3001.8546500000002
 11
5289.5663999999997
 21
3021.8546500000002
  0
LINE
  8
_0-4_躯体と製品
  6
CONTINUOUS
 62
    4
 10
5247.2689
 20
3055.1691999999998
 11
5417.2196999999996
 21
3225.1200250000002
  0
LINE
  8
_0-4_躯体と製品
  6
CONTINUOUS
 62
    2
 10
5361.1754250000004
 20
3196.9357500000001
 11
5389.4597000000003
 21
3168.6514750000001
  0
LINE
  8
_0-4_躯体と製品
  6
PLine4
 62
    3
 10
5426.284674999999
 20
3225.320025
 11
5255.3420999999998
 21
3054.3328750000001
  0
LINE
  8
_0-4_躯体と製品
  6
CONTINUOUS
 62
    3
 10
5446.1282499999998
 20
3197.03575
 11
5297.8315249999996
 21
3048.7390249999999
  0
LINE
  8
_0-4_躯体と製品
  6
CONTINUOUS
 62
    3
 10
5247.8439749999998
 20
3055.320025
 11
5417.8439749999998
 21
3225.320025
  0
LINE
  8
_0-4_躯体と製品
  6
CONTINUOUS
 62
    4
 10
5667.8439749999998
 20
3225.1200250000002
 11
5697.8439749999998
 21
3225.1200250000002
  0
LINE
  8
_0-4_躯体と製品
  6
CONTINUOUS
 62
    4
 10
5667.8439749999998
 20
3225.320025
 11
5697.8439749999998
 21
3225.320025
  0
LINE
  8
_0-4_躯体と製品
  6
CONTINUOUS
 62
    4
 10
5870.7956000000004
 20
2988.0073750000001
 11
5870.7956000000004
 21
2973.0073750000001
  0
LINE
  8
_0-4_躯体と製品
  6
CONTINUOUS
 62
    2
 10
5933.5698000000002
 20
3024.1238750000002
 11
5943.2577000000001
 21
2985.2678500000002
  0
LINE
  8
_0-4_躯体と製品
  6
CONTINUOUS
 62
    2
 10
5819.5723500000004
 20
2965.56925
 11
5819.5723500000004
 21
2951.56925
  0
LINE
  8
_0-4_躯体と製品
  6
CONTINUOUS
 62
    2
 10
5812.5723500000004
 20
2958.56925
 11
5826.5723500000004
 21
2958.56925
  0
LINE
  8
_0-4_躯体と製品
  6
CONTINUOUS
 62
    2
 10
5662.8439749999998
 20
3005.320025
 11
5662.8439749999998
 21
2965.320025
  0
LINE
  8
_0-4_躯体と製品
  6
CONTINUOUS
 62
    4
 10
5647.8439749999998
 20
2985.5200249999998
 11
5677.8439749999998
 21
2985.5200249999998
  0
LINE
  8
_0-4_躯体と製品
  6
CONTINUOUS
 62
    4
 10
5647.8439749999998
 20
2985.320025
 11
5677.8439749999998
 21
2985.320025
  0
LINE
  8
_0-4_躯体と製品
  6
CONTINUOUS
 62
    4
 10
5917.8439749999998
 20
3225.320025
 11
5677.8439749999998
 21
2985.320025
  0
LINE
  8
_0-4_躯体と製品
  6
PLine4
 62
    3
 10
6622.8439749999998
 20
3169.1363500000002
 11
6172.9863999999998
 21
3056.9742500000002
  0
LINE
  8
_0-4_躯体と製品
  6
CONTINUOUS
 62
    3
 10
6622.8439749999998
 20
3123.78935
 11
6160.2679499999995
 21
3008.4562000000001
  0
LINE
  8
_0-4_躯体と製品
  6
CONTINUOUS
 62
    3
 10
6122.8439749999998
 20
3044.47235
 11
6172.8439749999998
 21
3056.9387499999998
  0
LINE
  8
_0-4_躯体と製品
  6
CONTINUOUS
 62
    3
 10
6122.8439749999998
 20
2996.43885
 11
6128.8439749999998
 21
2996.43885
  0
LINE
  8
_0-4_躯体と製品
  6
CONTINUOUS
 62
    3
 10
6112.8439749999998
 20
2996.6320500000002
 11
6137.5242500000004
 21
3002.7855500000001
  0
LINE
  8
_0-4_躯体と製品
  6
CONTINUOUS
 62
    4
 10
6107.8439749999998
 20
2871.7335250000001
 11
6107.8439749999998
 21
2856.7335250000001
  0
LINE
  8
_0-4_躯体と製品
  6
CONTINUOUS
 62
    3
 10
6122.8439749999998
 20
2891.4875750000001
 11
6116.8439749999998
 21
2891.4875750000001
  0
LINE
  8
_0-4_躯体と製品
  6
CONTINUOUS
 62
    3
 10
6116.8439749999998
 20
2891.4875750000001
 11
6116.8439749999998
 21
2864.285425
  0
LINE
  8
_0-4_躯体と製品
  6
CONTINUOUS
 62
    2
 10
6102.8439749999998
 20
2876.4875750000001
 11
6142.8439749999998
 21
2876.4875750000001
  0
LINE
  8
_0-4_躯体と製品
  6
CONTINUOUS
 62
    4
 10
5954.6350750000001
 20
2728.1759999999999
 11
5954.6350750000001
 21
2713.1759999999999
  0
LINE
  8
_0-4_躯体と製品
  6
CONTINUOUS
 62
    4
 10
6107.8439749999998
 20
2856.7335250000001
 11
5954.6350750000001
 21
2728.1759999999999
  0
LINE
  8
_0-4_躯体と製品
  6
CONTINUOUS
 62
    2
 10
6033.7160000000003
 20
2820.6409250000002
 11
6059.4274999999998
 21
2789.9991249999998
  0
LINE
  8
_0-4_躯体と製品
  6
CONTINUOUS
 62
    3
 10
6122.8439749999998
 20
2861.4875750000001
 11
5982.3211499999998
 21
2743.5749249999999
  0
LINE
  8
_0-4_躯体と製品
  6
CONTINUOUS
 62
    3
 10
5969.6350750000001
 20
2740.7624999999998
 11
6116.8439749999998
 21
2864.285425
  0
LINE
  8
_0-4_躯体と製品
  6
CONTINUOUS
 62
    2
 10
6622.8439749999998
 20
3148.78935
 11
6629.8439749999998
 21
3148.78935
  0
LINE
  8
_0-4_躯体と製品
  6
CONTINUOUS
 62
    2
 10
6404.5404749999998
 20
3141.5031250000002
 11
6414.2173499999999
 21
3102.6913
  0
LINE
  8
_0-4_躯体と製品
  6
PLine1
 62
    5
 10
5970.7337500000003
 20
4786.9539249999998
 11
5880.6457
 21
4696.8658999999998
  0
LINE
  8
_0-4_躯体と製品
  6
PLine1
 62
    5
 10
6022.3843749999996
 20
4750.2162250000001
 11
5932.6324999999997
 21
4660.4643500000002
  0
LINE
  8
_0-4_躯体と製品
  6
PLine1
 62
    3
 10
6652.5664999999999
 20
4406.3185000000003
 11
5635.8820750000004
 21
4101.3131750000002
  0
LINE
  8
_0-4_躯体と製品
  6
CONTINUOUS
 62
    2
 10
5871.0768250000001
 20
4673.0467250000002
 11
5853.8695500000003
 21
4648.4721749999999
  0
LINE
  8
_0-4_躯体と製品
  6
CONTINUOUS
 62
    4
 10
6202.5664999999999
 20
4732.6235500000003
 11
6202.5664999999999
 21
4209.9817110000004
  0
LINE
  8
_0-4_躯体と製品
  6
CONTINUOUS
 62
    3
 10
6208.5664999999999
 20
4732.6235500000003
 11
6652.5664999999999
 21
4732.6235500000003
  0
LINE
  8
_0-4_躯体と製品
  6
PLine4
 62
    3
 10
6208.5664999999999
 20
4726.6235500000003
 11
6652.5664999999999
 21
4726.6235500000003
  0
LINE
  8
_0-4_躯体と製品
  6
CONTINUOUS
 62
    3
 10
6652.5664999999999
 20
4692.6235500000003
 11
6242.4311749999997
 21
4692.6235500000003
  0
LINE
  8
_0-4_躯体と製品
  6
PLine1
 62
    5
 10
6074.3711750000002
 20
4713.8146749999996
 11
5984.6193000000003
 21
4624.0627999999997
  0
LINE
  8
_0-4_躯体と製品
  6
PLine1
 62
    5
 10
6126.3579749999999
 20
4677.413125
 11
6036.6061
 21
4587.6612500000001
  0
LINE
  8
_0-4_躯体と製品
  6
PLine1
 62
    5
 10
6178.3447749999996
 20
4641.0115750000004
 11
6088.5928999999996
 21
4551.2596999999996
  0
LINE
  8
_0-4_躯体と製品
  6
PLine1
 62
    5
 10
6192.5664999999999
 20
4566.8449499999997
 11
6140.5797000000002
 21
4514.85815
  0
LINE
  8
_0-4_躯体と製品
  6
CONTINUOUS
 62
    2
 10
6187.1352000000006
 20
4675.6423750000004
 11
6217.1352000000006
 21
4675.6423750000004
  0
LINE
  8
_0-4_躯体と製品
  6
CONTINUOUS
 62
    2
 10
6227.5665000000008
 20
4719.6235500000003
 11
6227.5665000000008
 21
4705.6235500000003
  0
LINE
  8
_0-4_躯体と製品
  6
CONTINUOUS
 62
    4
 10
6152.5665000000008
 20
4719.2260749999987
 11
6202.5664999999999
 21
4732.6235500000003
  0
LINE
  8
_0-4_躯体と製品
  6
CONTINUOUS
 62
    3
 10
6219.1154749999996
 20
4692.6235500000003
 11
6208.5664999999999
 21
4692.6235500000003
  0
LINE
  8
_0-4_躯体と製品
  6
CONTINUOUS
 62
    2
 10
6063.1773249999997
 20
4501.9132749999999
 11
6080.3846249999997
 21
4526.4878500000004
  0
LINE
  8
_0-4_躯体と製品
  6
CONTINUOUS
 62
    2
 10
6220.5664999999999
 20
4712.6235500000003
 11
6234.5664999999999
 21
4712.6235500000003
  0
LINE
  8
_0-4_躯体と製品
  6
CONTINUOUS
 62
    2
 10
6187.5664999999999
 20
4397.6235500000003
 11
6217.5664999999999
 21
4397.6235500000003
  0
LINE
  8
_0-4_躯体と製品
  6
CONTINUOUS
 62
    3
 10
6192.5664999999999
 20
4478.4566000000004
 11
6202.5664999999999
 21
4478.4566000000004
  0
LINE
  8
_0-4_躯体と製品
  6
CONTINUOUS
 62
    4
 10
6112.5664999999999
 20
4422.6235500000003
 11
6113.0664999999999
 21
4422.6235500000003
  0
LINE
  8
_0-4_躯体と製品
  6
CONTINUOUS
 62
    4
 10
6112.5664999999999
 20
4422.6235500000003
 11
6112.7664999999997
 21
4422.6235500000003
  0
LINE
  8
_0-4_躯体と製品
  6
CONTINUOUS
 62
    4
 10
6113.0664999999999
 20
4422.6235500000003
 11
6113.0664999999999
 21
4442.6235500000003
  0
LINE
  8
_0-4_躯体と製品
  6
CONTINUOUS
 62
    4
 10
6112.5664999999999
 20
4422.6235500000003
 11
6112.5664999999999
 21
4485.2759999999998
  0
LINE
  8
_0-4_躯体と製品
  6
CONTINUOUS
 62
    2
 10
6187.5664999999999
 20
4347.6235500000003
 11
6217.5664999999999
 21
4347.6235500000003
  0
LINE
  8
_0-4_躯体と製品
  6
CONTINUOUS
 62
    3
 10
6202.5664999999999
 20
4322.6235500000003
 11
6192.5664999999999
 21
4322.6235500000003
  0
LINE
  8
_0-4_躯体と製品
  6
CONTINUOUS
 62
    3
 10
6192.5664999999999
 20
4322.6235500000003
 11
6192.5664999999999
 21
4478.4566000000004
  0
LINE
  8
_0-4_躯体と製品
  6
CONTINUOUS
 62
    3
 10
6192.5664999999999
 20
4478.4566000000004
 11
6192.5664999999999
 21
4631.0534250000001
  0
LINE
  8
_0-4_躯体と製品
  6
CONTINUOUS
 62
    3
 10
6192.5664999999999
 20
4631.0534250000001
 11
5970.7337500000003
 21
4786.3824000000004
  0
LINE
  8
_0-4_躯体と製品
  6
PLine4
 62
    3
 10
7950.5012499999993
 20
2985.320025
 11
7384.8923499999992
 21
2985.320025
  0
LINE
  8
_0-4_躯体と製品
  6
PLine4
 62
    3
 10
7378.7531250000002
 20
2935.320025
 11
7921.6337250000006
 21
2935.320025
  0
LINE
  8
_0-4_躯体と製品
  6
PLine4
 62
    3
 10
7384.1556499999997
 20
2979.320025
 11
7931.3686249999992
 21
2979.320025
  0
LINE
  8
_0-4_躯体と製品
  6
CONTINUOUS
 62
    2
 10
7000.1611499999999
 20
3055.4789500000002
 11
6996.7742500000004
 21
3041.8948
  0
LINE
  8
_0-4_躯体と製品
  6
CONTINUOUS
 62
    2
 10
6809.9831749999994
 20
3102.8956250000001
 11
6806.5962749999999
 21
3089.3114999999998
  0
LINE
  8
_0-4_躯体と製品
  6
CONTINUOUS
 62
    2
 10
6991.6756249999999
 20
3050.3803250000001
 11
7005.2597750000004
 21
3046.9934250000001
  0
LINE
  8
_0-4_躯体と製品
  6
CONTINUOUS
 62
    2
 10
6801.4976500000002
 20
3097.7970249999998
 11
6815.0817999999999
 21
3094.4101249999999
  0
LINE
  8
_0-4_躯体と製品
  6
CONTINUOUS
 62
    2
 10
7190.3391000000001
 20
3008.0622499999999
 11
7186.9521999999997
 21
2994.4781250000001
  0
LINE
  8
_0-4_躯体と製品
  6
CONTINUOUS
 62
    2
 10
7181.853575000001
 20
3002.9636249999999
 11
7195.4377249999998
 21
2999.5767249999999
  0
LINE
  8
_0-4_躯体と製品
  6
CONTINUOUS
 62
    3
 10
7827.8439749999998
 20
3265.320025
 11
7827.8439749999998
 21
3225.320025
  0
LINE
  8
_0-4_躯体と製品
  6
CONTINUOUS
 62
    2
 10
7618.8439749999989
 20
2960.320025
 11
7632.8439749999998
 21
2960.320025
  0
LINE
  8
_0-4_躯体と製品
  6
CONTINUOUS
 62
    2
 10
7625.8439749999998
 20
2967.320025
 11
7625.8439749999998
 21
2953.320025
  0
LINE
  8
_0-4_躯体と製品
  6
CONTINUOUS
 62
    2
 10
7420.0239000000001
 20
2967.320025
 11
7420.0239000000001
 21
2953.320025
  0
LINE
  8
_0-4_躯体と製品
  6
CONTINUOUS
 62
    2
 10
7413.0239000000001
 20
2960.320025
 11
7427.0239000000001
 21
2960.320025
  0
LINE
  8
_0-4_躯体と製品
  6
CONTINUOUS
 62
    3
 10
7827.8439749999998
 20
3225.320025
 11
7863.1993000000002
 21
3225.320025
  0
LINE
  8
_0-4_躯体と製品
  6
CONTINUOUS
 62
    2
 10
7827.8439749999998
 20
2967.320025
 11
7827.8439749999998
 21
2953.320025
  0
LINE
  8
_0-4_躯体と製品
  6
CONTINUOUS
 62
    2
 10
7820.8439749999998
 20
2960.320025
 11
7834.8439749999989
 21
2960.320025
  0
LINE
  8
_0-4_躯体と製品
  6
CONTINUOUS
 62
    3
 10
7863.1993000000002
 20
3225.320025
 11
8029.0862000000006
 21
3059.4331499999998
  0
LINE
  8
_0-4_躯体と製品
  6
CONTINUOUS
 62
    3
 10
7217.5665000000008
 20
4239.428578
 11
7217.5665000000008
 21
4472.6280500000003
  0
LINE
  8
_0-4_躯体と製品
  6
PLine4
 62
    3
 10
7096.5664999999999
 20
4478.4566000000004
 11
7096.5664999999999
 21
4211.7817109999996
  0
LINE
  8
_0-4_躯体と製品
  6
CONTINUOUS
 62
    3
 10
7102.5664999999999
 20
4209.9817110000004
 11
7102.5664999999999
 21
4273.9285840000002
  0
LINE
  8
_0-4_躯体と製品
  6
CONTINUOUS
 62
    3
 10
7102.5664999999999
 20
4478.4566000000004
 11
7102.5664999999999
 21
4273.9285840000002
  0
LINE
  8
_0-4_躯体と製品
  6
CONTINUOUS
 62
    3
 10
7052.5665000000008
 20
4217.3201529999997
 11
7052.5665000000008
 21
4288.9285870000003
  0
LINE
  8
_0-4_躯体と製品
  6
CONTINUOUS
 62
    3
 10
7052.5665000000008
 20
4478.4566000000004
 11
7052.5665000000008
 21
4288.9285870000003
  0
LINE
  8
_0-4_躯体と製品
  6
PLine4
 62
    3
 10
2735.4957749999999
 20
4991.2358249999997
 11
2393.1505999999999
 21
4991.2358249999997
  0
LINE
  8
_0-4_躯体と製品
  6
PLine4
 62
    3
 10
2388.9759250000002
 20
4957.2358249999997
 11
2735.4957749999999
 21
4957.2358249999997
  0
LINE
  8
_0-4_躯体と製品
  6
CONTINUOUS
 62
    3
 10
2735.4957749999999
 20
4997.2358249999997
 11
2393.8873250000001
 21
4997.2358249999997
  0
LINE
  8
_0-4_躯体と製品
  6
CONTINUOUS
 62
    2
 10
2609.3045250000005
 20
4984.2358249999997
 11
2609.3045250000005
 21
4970.2358249999997
  0
LINE
  8
_0-4_躯体と製品
  6
CONTINUOUS
 62
    2
 10
2602.304525
 20
4977.2358249999997
 11
2616.304525
 21
4977.2358249999997
  0
LINE
  8
_0-4_躯体と製品
  6
CONTINUOUS
 62
    2
 10
2441.0103250000002
 20
4984.2358249999997
 11
2441.0103250000002
 21
4970.2358249999997
  0
LINE
  8
_0-4_躯体と製品
  6
CONTINUOUS
 62
    2
 10
2434.0103250000002
 20
4977.2358249999997
 11
2448.0103250000002
 21
4977.2358249999997
  0
LINE
  8
_0-4_躯体と製品
  6
CONTINUOUS
 62
    3
 10
2732.3779749999999
 20
5187.2358249999997
 11
2732.3779749999999
 21
5217.2358249999997
  0
LINE
  8
_0-4_躯体と製品
  6
CONTINUOUS
 62
    3
 10
2732.3779749999999
 20
5187.2358249999997
 11
2768.1576
 21
5187.2358249999997
  0
LINE
  8
_0-4_躯体と製品
  6
CONTINUOUS
 62
    3
 10
2768.1576
 20
5187.2358249999997
 11
2893.9951249999999
 21
5061.3982999999998
  0
LINE
  8
_0-4_躯体と製品
  6
CONTINUOUS
 62
    3
 10
2820.808775
 20
4997.2358249999997
 11
2820.4655750000002
 21
4997.2358249999997
  0
LINE
  8
_0-4_躯体と製品
  6
PLine4
 62
    3
 10
6652.5664999999999
 20
5286.439875
 11
7333.66255
 21
5116.6235500000003
  0
LINE
  8
_0-4_躯体と製品
  6
PLine4
 62
    3
 10
6652.5664999999999
 20
5241.0928750000003
 11
7328.2600249999996
 21
5072.6235500000003
  0
LINE
  8
_0-4_躯体と製品
  6
PLine4
 62
    3
 10
6652.5664999999999
 20
5292.6235500000003
 11
7334.3992500000004
 21
5122.6235500000003
  0
LINE
  8
_0-4_躯体と製品
  6
PLine4
 62
    3
 10
6652.5664999999999
 20
5348.6235500000003
 11
7732.566499999999
 21
5348.6235500000003
  0
LINE
  8
_0-4_躯体と製品
  6
CONTINUOUS
 62
    3
 10
7732.566499999999
 20
5372.6235500000003
 11
6652.5664999999999
 21
5372.6235500000003
  0
LINE
  8
_0-4_躯体と製品
  6
CONTINUOUS
 62
    3
 10
6652.5664999999999
 20
5342.6235500000003
 11
7732.566499999999
 21
5342.6235500000003
  0
LINE
  8
_0-4_躯体と製品
  6
PLine1
 62
    5
 10
5952.8499750000001
 20
5122.6235500000003
 11
5672.6985000000004
 21
4842.4721
  0
LINE
  8
_0-4_躯体と製品
  6
PLine1
 62
    5
 10
5970.7337500000003
 20
5052.1189750000012
 11
5724.6853000000001
 21
4806.0705500000004
  0
LINE
  8
_0-4_躯体と製品
  6
PLine4
 62
    3
 10
6652.5664999999999
 20
5348.6235500000003
 11
5572.5664999999999
 21
5348.6235500000003
  0
LINE
  8
_0-4_躯体と製品
  6
CONTINUOUS
 62
    3
 10
5572.5664999999999
 20
5372.6235500000003
 11
6652.5664999999999
 21
5372.6235500000003
  0
LINE
  8
_0-4_躯体と製品
  6
CONTINUOUS
 62
    3
 10
6652.5664999999999
 20
5342.6235500000003
 11
5572.5664999999999
 21
5342.6235500000003
  0
LINE
  8
_0-4_躯体と製品
  6
PLine4
 62
    3
 10
5971.4704499999998
 20
5116.6235500000003
 11
5457.5998250000002
 21
5116.6235500000003
  0
LINE
  8
_0-4_躯体と製品
  6
PLine4
 62
    3
 10
5976.8729750000002
 20
5072.6235500000003
 11
5483.0032250000004
 21
5072.6235500000003
  0
LINE
  8
_0-4_躯体と製品
  6
CONTINUOUS
 62
    3
 10
5970.7337500000003
 20
5122.6235500000003
 11
5454.1357250000001
 21
5122.6235500000003
  0
LINE
  8
_0-4_躯体と製品
  6
CONTINUOUS
 62
    4
 10
5792.5665000000008
 20
5122.6235500000003
 11
6012.7666749999999
 21
5342.6235500000003
  0
LINE
  8
_0-4_躯体と製品
  6
CONTINUOUS
 62
    3
 10
5559.69715
 20
5312.7836500000003
 11
5566.5419499999998
 21
5319.6284249999999
  0
LINE
  8
_0-4_躯体と製品
  6
CONTINUOUS
 62
    3
 10
5572.5664999999999
 20
5342.6235500000003
 11
5600.8507749999999
 21
5314.3392750000003
  0
LINE
  8
_0-4_躯体と製品
  6
CONTINUOUS
 62
    4
 10
5792.7664999999997
 20
5342.8235500000001
 11
5572.5664999999999
 21
5122.6235500000003
  0
LINE
  8
_0-4_躯体と製品
  6
CONTINUOUS
 62
    4
 10
5572.4836500000001
 20
5342.8235500000001
 11
5412.3165749999998
 21
5182.6564500000004
  0
LINE
  8
_0-4_躯体と製品
  6
CONTINUOUS
 62
    3
 10
5572.5664999999999
 20
5342.6235500000003
 11
5412.5664999999999
 21
5182.6235500000003
  0
LINE
  8
_0-4_躯体と製品
  6
PLine4
 62
    3
 10
5420.064625
 20
5181.6364000000003
 11
5581.0517749999999
 21
5342.6235500000003
  0
LINE
  8
_0-4_躯体と製品
  6
PLine1
 62
    5
 10
5599.2965750000003
 20
5122.6235500000003
 11
5532.1580000000004
 21
5055.4849750000003
  0
LINE
  8
_0-4_躯体と製品
  6
PLine1
 62
    5
 10
5687.6849249999996
 20
5122.6235500000003
 11
5564.5104000000001
 21
4999.4489999999996
  0
LINE
  8
_0-4_躯体と製品
  6
CONTINUOUS
 62
    2
 10
5575.6427999999996
 20
4870.1670999999997
 11
5601.6235749999996
 21
4885.1670999999997
  0
LINE
  8
_0-4_躯体と製品
  6
CONTINUOUS
 62
    4
 10
5412.3165749999998
 20
5182.6564500000004
 11
5619.7304249999997
 21
4823.4051250000002
  0
LINE
  8
_0-4_躯体と製品
  6
CONTINUOUS
 62
    3
 10
5412.5664999999999
 20
5182.6235500000003
 11
5613.0194750000001
 21
4835.428825
  0
LINE
  8
_0-4_躯体と製品
  6
PLine4
 62
    3
 10
5617.5505249999997
 20
4839.5807750000004
 11
5420.064625
 21
5181.6364000000003
  0
LINE
  8
_0-4_躯体と製品
  6
CONTINUOUS
 62
    3
 10
5462.5540499999997
 20
5176.0425500000001
 11
5643.2266
 21
4863.108549999999
  0
LINE
  8
_0-4_躯体と製品
  6
CONTINUOUS
 62
    3
 10
5600.8507749999999
 20
5314.3392750000003
 11
5462.5540499999997
 21
5176.0425500000001
  0
LINE
  8
_0-4_躯体と製品
  6
PLine1
 62
    5
 10
5510.9082250000001
 20
5122.6235500000003
 11
5499.805625
 21
5111.5209500000001
  0
LINE
  8
_0-4_躯体と製品
  6
CONTINUOUS
 62
    2
 10
5526.3217249999998
 20
5317.8748000000005
 11
5547.5349249999999
 21
5296.6615999999995
  0
LINE
  8
_0-4_躯体と製品
  6
CONTINUOUS
 62
    3
 10
5555.4545250000001
 20
5317.0262750000002
 11
5559.69715
 21
5312.7836500000003
  0
LINE
  8
_0-4_躯体と製品
  6
CONTINUOUS
 62
    2
 10
5483.5138500000003
 20
5099.7390999999998
 11
5490.5138500000003
 21
5087.6147499999997
  0
LINE
  8
_0-4_躯体と製品
  6
CONTINUOUS
 62
    2
 10
5480.9516750000003
 20
5090.1769249999998
 11
5493.0760499999997
 21
5097.1769249999998
  0
LINE
  8
_0-4_躯体と製品
  6
CONTINUOUS
 62
    2
 10
5557.5664999999999
 20
5137.8235500000001
 11
5557.5664999999999
 21
5107.8235500000001
  0
LINE
  8
_0-4_躯体と製品
  6
CONTINUOUS
 62
    4
 10
5542.5664999999999
 20
5122.8235500000001
 11
5572.5664999999999
 21
5122.8235500000001
  0
LINE
  8
_0-4_躯体と製品
  6
CONTINUOUS
 62
    4
 10
5542.5664999999999
 20
5122.6235500000003
 11
5572.5664999999999
 21
5122.6235500000003
  0
LINE
  8
_0-4_躯体と製品
  6
CONTINUOUS
 62
    2
 10
5424.7493249999998
 20
5131.5222750000003
 11
5450.7300750000004
 21
5146.5222750000003
  0
LINE
  8
_0-4_躯体と製品
  6
PLine1
 62
    5
 10
5776.0732749999997
 20
5122.6235500000003
 11
5596.8627749999996
 21
4943.4130500000001
  0
LINE
  8
_0-4_躯体と製品
  6
PLine1
 62
    5
 10
5864.4616249999999
 20
5122.6235500000003
 11
5629.21515
 21
4887.3770750000003
  0
LINE
  8
_0-4_躯体と製品
  6
CONTINUOUS
 62
    2
 10
5914.8705749999999
 20
5101.0806499999999
 11
5914.8705749999999
 21
5087.0806499999999
  0
LINE
  8
_0-4_躯体と製品
  6
CONTINUOUS
 62
    2
 10
5907.870574999999
 20
5094.0806499999999
 11
5921.8705750000008
 21
5094.0806499999999
  0
LINE
  8
_0-4_躯体と製品
  6
CONTINUOUS
 62
    2
 10
5777.7666749999999
 20
5137.8235500000001
 11
5777.7666749999999
 21
5107.8235500000001
  0
LINE
  8
_0-4_躯体と製品
  6
CONTINUOUS
 62
    4
 10
5762.7666749999999
 20
5122.8235500000001
 11
5792.7664999999997
 21
5122.8235500000001
  0
LINE
  8
_0-4_躯体と製品
  6
CONTINUOUS
 62
    4
 10
5762.7666749999999
 20
5122.6235500000003
 11
5792.5665000000008
 21
5122.6235500000003
  0
LINE
  8
_0-4_躯体と製品
  6
CONTINUOUS
 62
    4
 10
5619.7304249999997
 20
4823.4051250000002
 11
5642.3441000000003
 21
4807.5708500000001
  0
LINE
  8
_0-4_躯体と製品
  6
CONTINUOUS
 62
    3
 10
5575.3320750000003
 20
5328.4185500000003
 11
5583.5370750000002
 21
5336.6235500000003
  0
LINE
  8
_0-4_躯体と製品
  6
CONTINUOUS
 62
    4
 10
5572.4836500000001
 20
5342.8235500000001
 11
5622.5664999999999
 21
5342.8235500000001
  0
LINE
  8
_0-4_躯体と製品
  6
CONTINUOUS
 62
    3
 10
5572.5664999999999
 20
5372.6235500000003
 11
5572.5664999999999
 21
5342.6235500000003
  0
LINE
  8
_0-4_躯体と製品
  6
CONTINUOUS
 62
    2
 10
5807.7666749999999
 20
5357.6235500000003
 11
5807.7666749999999
 21
5327.6235500000003
  0
LINE
  8
_0-4_躯体と製品
  6
CONTINUOUS
 62
    4
 10
5792.5665000000008
 20
5342.4235500000004
 11
5822.5665000000008
 21
5342.4235500000004
  0
LINE
  8
_0-4_躯体と製品
  6
CONTINUOUS
 62
    4
 10
5792.5665000000008
 20
5342.6235500000003
 11
5822.5665000000008
 21
5342.6235500000003
  0
LINE
  8
_0-4_躯体と製品
  6
CONTINUOUS
 62
    3
 10
5672.5665000000008
 20
5342.6235500000003
 11
5672.5665000000008
 21
5336.6235500000003
  0
LINE
  8
_0-4_躯体と製品
  6
CONTINUOUS
 62
    2
 10
5645.8614500000003
 20
5357.6235500000003
 11
5645.8614500000003
 21
5327.6235500000003
  0
LINE
  8
_0-4_躯体と製品
  6
CONTINUOUS
 62
    3
 10
5672.5665000000008
 20
5336.6235500000003
 11
5583.5370750000002
 21
5336.6235500000003
  0
LINE
  8
_0-4_躯体と製品
  6
CONTINUOUS
 62
    3
 10
6652.5664999999999
 20
5241.0928750000003
 11
6240.1704749999999
 21
5138.2709999999988
  0
LINE
  8
_0-4_躯体と製品
  6
PLine4
 62
    3
 10
6652.5664999999999
 20
5286.439875
 11
5971.4704499999998
 21
5116.6235500000003
  0
LINE
  8
_0-4_躯体と製品
  6
CONTINUOUS
 62
    4
 10
5978.210975
 20
5124.6939499999999
 11
6652.5664999999999
 21
5292.8296750000009
  0
LINE
  8
_0-4_躯体と製品
  6
CONTINUOUS
 62
    3
 10
6652.5664999999999
 20
5292.6235500000003
 11
5970.7337500000003
 21
5122.6235500000003
  0
LINE
  8
_0-4_躯体と製品
  6
CONTINUOUS
 62
    3
 10
6202.5664999999999
 20
5037.6420250000001
 11
6196.5664999999999
 21
5037.6420250000001
  0
LINE
  8
_0-4_躯体と製品
  6
PLine4
 62
    3
 10
6202.5664999999999
 20
5122.6235500000003
 11
6208.5664999999999
 21
5122.6235500000003
  0
LINE
  8
_0-4_躯体と製品
  6
CONTINUOUS
 62
    2
 10
6227.5665000000008
 20
5165.5763999999999
 11
6227.5665000000008
 21
5151.5763999999999
  0
LINE
  8
_0-4_躯体と製品
  6
CONTINUOUS
 62
    2
 10
6220.5664999999999
 20
5158.5763999999999
 11
6234.5664999999999
 21
5158.5763999999999
  0
LINE
  8
_0-4_躯体と製品
  6
CONTINUOUS
 62
    4
 10
6187.0527249999996
 20
5017.8485000000001
 11
6187.0527249999996
 21
5002.8485000000001
  0
LINE
  8
_0-4_躯体と製品
  6
CONTINUOUS
 62
    2
 10
6186.0214249999999
 20
5022.6420250000001
 11
6216.0214249999999
 21
5022.6420250000001
  0
LINE
  8
_0-4_躯体と製品
  6
CONTINUOUS
 62
    2
 10
6123.9806500000013
 20
4969.1142
 11
6143.2642750000005
 21
4946.1328750000011
  0
LINE
  8
_0-4_躯体と製品
  6
CONTINUOUS
 62
    3
 10
6202.5664999999999
 20
5007.6420250000001
 11
6077.3645749999996
 21
4902.5851249999996
  0
LINE
  8
_0-4_躯体と製品
  6
CONTINUOUS
 62
    3
 10
6196.5664999999999
 20
5010.439875
 11
6064.6785
 21
4899.7727000000004
  0
LINE
  8
_0-4_躯体と製品
  6
CONTINUOUS
 62
    2
 10
6186.0214249999999
 20
4854.0373749999999
 11
6216.0214249999999
 21
4854.0373749999999
  0
LINE
  8
_0-4_躯体と製品
  6
CONTINUOUS
 62
    3
 10
6196.5664999999999
 20
4864.4333999999999
 11
6196.5664999999999
 21
4839.0373749999999
  0
LINE
  8
_0-4_躯体と製品
  6
CONTINUOUS
 62
    3
 10
6196.5664999999999
 20
4839.0373749999999
 11
6202.5664999999999
 21
4839.0373749999999
  0
LINE
  8
_0-4_躯体と製品
  6
CONTINUOUS
 62
    4
 10
6049.3576249999996
 20
4887.1467499999999
 11
6049.3576249999996
 21
4872.1467499999999
  0
LINE
  8
_0-4_躯体と製品
  6
CONTINUOUS
 62
    4
 10
6187.0527249999996
 20
5002.8485000000001
 11
6049.1647750000002
 21
4887.1467499999999
  0
LINE
  8
_0-4_躯体と製品
  6
CONTINUOUS
 62
    3
 10
6077.3645749999996
 20
4902.5851249999996
 11
6202.5664999999999
 21
4869.0373749999999
  0
LINE
  8
_0-4_躯体と製品
  6
CONTINUOUS
 62
    3
 10
6064.6785
 20
4899.7727000000004
 11
6196.5664999999999
 21
4864.4333999999999
  0
LINE
  8
_0-4_躯体と製品
  6
CONTINUOUS
 62
    3
 10
6196.5664999999999
 20
5010.439875
 11
6196.5664999999999
 21
5037.6420250000001
  0
LINE
  8
_0-4_躯体と製品
  6
CONTINUOUS
 62
    4
 10
5978.210975
 20
5109.4878250000002
 11
5978.210975
 21
5124.6939499999999
  0
LINE
  8
_0-4_躯体と製品
  6
CONTINUOUS
 62
    2
 10
6032.7998749999997
 20
5153.5575750000007
 11
6040.0575500000004
 21
5124.4486999999999
  0
LINE
  8
_0-4_躯体と製品
  6
CONTINUOUS
 62
    3
 10
6214.586225
 20
5131.8921250000003
 11
5976.8729750000002
 21
5072.6235500000003
  0
LINE
  8
_0-4_躯体と製品
  6
CONTINUOUS
 62
    2
 10
6659.5664999999999
 20
5267.829675
 11
6652.5664999999999
 21
5267.829675
  0
LINE
  8
_0-4_躯体と製品
  6
CONTINUOUS
 62
    2
 10
6454.8785250000001
 20
5258.7936
 11
6462.1361749999996
 21
5229.6847250000001
  0
LINE
  8
_0-4_躯体と製品
  6
CONTINUOUS
 62
    2
 10
6027.5664999999999
 20
5357.6235500000003
 11
6027.5664999999999
 21
5327.6235500000003
  0
LINE
  8
_0-4_躯体と製品
  6
CONTINUOUS
 62
    4
 10
6012.7666749999999
 20
5342.6235500000003
 11
6042.5664999999999
 21
5342.6235500000003
  0
LINE
  8
_0-4_躯体と製品
  6
CONTINUOUS
 62
    4
 10
6012.5664999999999
 20
5342.4235500000004
 11
6042.5664999999999
 21
5342.4235500000004
  0
LINE
  8
_0-4_躯体と製品
  6
PLine4
 62
    3
 10
7334.3992500000004
 20
5122.6235500000003
 11
7748.8865249999999
 21
5122.6235500000003
  0
LINE
  8
_0-4_躯体と製品
  6
PLine4
 62
    3
 10
7333.66255
 20
5116.6235500000003
 11
7747.4641250000004
 21
5116.6235500000003
  0
LINE
  8
_0-4_躯体と製品
  6
PLine4
 62
    3
 10
7328.2600249999996
 20
5072.6235500000003
 11
7747.8197249999994
 21
5072.6235500000003
  0
LINE
  8
_0-4_躯体と製品
  6
CONTINUOUS
 62
    2
 10
6851.4329749999997
 20
5224.489525
 11
6848.0460750000002
 21
5210.9053750000003
  0
LINE
  8
_0-4_躯体と製品
  6
CONTINUOUS
 62
    2
 10
6842.9474499999997
 20
5219.3909000000003
 11
6856.5316000000003
 21
5216.0040000000008
  0
LINE
  8
_0-4_躯体と製品
  6
CONTINUOUS
 62
    2
 10
7229.8482999999997
 20
5130.139975
 11
7226.4614000000001
 21
5116.5558499999988
  0
LINE
  8
_0-4_躯体と製品
  6
CONTINUOUS
 62
    2
 10
7221.3627749999996
 20
5125.0413749999998
 11
7234.9469250000002
 21
5121.65445
  0
LINE
  8
_0-4_躯体と製品
  6
PLine4
 62
    3
 10
7096.5664999999999
 20
5175.6481000000003
 11
7096.5664999999999
 21
5175.7382250000001
  0
LINE
  8
_0-4_躯体と製品
  6
CONTINUOUS
 62
    2
 10
7045.4921249999998
 20
5176.1051500000003
 11
7042.1052250000012
 21
5162.5209999999988
  0
LINE
  8
_0-4_躯体と製品
  6
CONTINUOUS
 62
    2
 10
7037.0066000000006
 20
5171.0065249999998
 11
7050.5907500000003
 21
5167.6196249999994
  0
LINE
  8
_0-4_躯体と製品
  6
CONTINUOUS
 62
    3
 10
7767.9218499999997
 20
5342.6235500000003
 11
7923.8087249999999
 21
5186.7366499999998
  0
LINE
  8
_0-4_躯体と製品
  6
CONTINUOUS
 62
    3
 10
7923.8087249999999
 20
5186.7366499999998
 11
7710.9929750000001
 21
4818.1289999999999
  0
LINE
  8
_0-4_躯体と製品
  6
CONTINUOUS
 62
    2
 10
7623.66255
 20
5104.6235500000003
 11
7623.66255
 21
5090.6235500000003
  0
LINE
  8
_0-4_躯体と製品
  6
CONTINUOUS
 62
    2
 10
7616.66255
 20
5097.6235500000003
 11
7630.6625499999991
 21
5097.6235500000003
  0
LINE
  8
_0-4_躯体と製品
  6
CONTINUOUS
 62
    2
 10
7423.66255
 20
5104.6235500000003
 11
7423.66255
 21
5090.6235500000003
  0
LINE
  8
_0-4_躯体と製品
  6
CONTINUOUS
 62
    2
 10
7416.66255
 20
5097.6235500000003
 11
7430.66255
 21
5097.6235500000003
  0
LINE
  8
_0-4_躯体と製品
  6
CONTINUOUS
 62
    3
 10
7732.566499999999
 20
5342.6235500000003
 11
7767.9218499999997
 21
5342.6235500000003
  0
LINE
  8
_0-4_躯体と製品
  6
CONTINUOUS
 62
    3
 10
7732.566499999999
 20
5372.6235500000003
 11
7732.566499999999
 21
5342.6235500000003
  0
LINE
  8
_0-4_躯体と製品
  6
CONTINUOUS
 62
    3
 10
1497.3779750000003
 20
4215.2889530000002
 11
1526.1127660000004
 21
4119.5063250000003
  0
LINE
  8
_0-4_躯体と製品
  6
CONTINUOUS
 62
    3
 10
1526.1127660000004
 20
4119.5063250000003
 11
1486.1127660000002
 21
4107.5063239999999
  0
LINE
  8
_0-4_躯体と製品
  6
CONTINUOUS
 62
    3
 10
1486.1127660000002
 20
4107.5063239999999
 11
1457.3779750000001
 21
4203.2889520000008
  0
LINE
  8
_0-4_躯体と製品
  6
PLine4
 62
    3
 10
1463.3779750000003
 20
4205.0889520000001
 11
1492.1127660000002
 21
4109.3063240000001
  0
LINE
  8
_0-4_躯体と製品
  6
CONTINUOUS
 62
    2
 10
1432.474494
 20
4112.2954540000001
 11
1437.6467560000001
 21
4095.0545809999999
  0
ARC
  8
_0-4_躯体と製品
  6
CONTINUOUS
 62
    2
 10
1439.5624079999996
 20
4095.629277
 40
2
 50
196.69924499999996
 51
286.69924500000002
  0
LINE
  8
_0-4_躯体と製品
  6
CONTINUOUS
 62
    2
 10
1440.1371039999999
 20
4093.7136239999995
 11
1484.1971130000002
 21
4106.9316280000003
  0
ARC
  8
_0-4_躯体と製品
  6
CONTINUOUS
 62
    2
 10
1483.6224169999998
 20
4108.84728
 40
2
 50
286.69924500000002
 51
16.699245000000023
  0
LINE
  8
_0-4_躯体と製品
  6
CONTINUOUS
 62
    2
 10
1485.5380700000003
 20
4109.4219759999996
 11
1457.952671
 21
4201.3732989999999
  0
ARC
  8
_0-4_躯体と製品
  6
CONTINUOUS
 62
    2
 10
1456.037018
 20
4200.7986030000002
 40
2
 50
16.699245000000001
 51
106.69924499999999
  0
LINE
  8
_0-4_躯体と製品
  6
CONTINUOUS
 62
    2
 10
1455.4623220000003
 20
4202.7142560000002
 11
1411.4023139999999
 21
4189.4962519999999
  0
ARC
  8
_0-4_躯体と製品
  6
CONTINUOUS
 62
    2
 10
1411.9770090000002
 20
4187.5806000000002
 40
2
 50
106.699245
 51
196.69924499999999
  0
LINE
  8
_0-4_躯体と製品
  6
CONTINUOUS
 62
    2
 10
1410.061357
 20
4187.0059039999996
 11
1415.2336190000003
 21
4169.765030999999
  0
LINE
  8
_0-4_躯体と製品
  6
CONTINUOUS
 62
    2
 10
1455.2324440000002
 20
4199.3043939999998
 11
1413.4712179999999
 21
4186.7760250000001
  0
LINE
  8
_0-4_躯体と製品
  6
CONTINUOUS
 62
    2
 10
1413.4712179999999
 20
4186.7760250000001
 11
1418.298663
 21
4170.6845439999997
  0
LINE
  8
_0-4_躯体と製品
  6
CONTINUOUS
 62
    2
 10
1482.1282079999999
 20
4109.6518539999997
 11
1455.2324440000002
 21
4199.3043939999998
  0
LINE
  8
_0-4_躯体と製品
  6
CONTINUOUS
 62
    2
 10
1440.3669829999997
 20
4097.1234860000004
 11
1482.1282079999999
 21
4109.6518539999997
  0
LINE
  8
_0-4_躯体と製品
  6
CONTINUOUS
 62
    2
 10
1435.539538
 20
4113.2149669999999
 11
1440.3669829999997
 21
4097.1234860000004
  0
LINE
  8
_0-4_躯体と製品
  6
CONTINUOUS
 62
    2
 10
1418.298663
 20
4170.6845439999997
 11
1415.2336190000003
 21
4169.765030999999
  0
LINE
  8
_0-4_躯体と製品
  6
CONTINUOUS
 62
    2
 10
1432.474494
 20
4112.2954540000001
 11
1435.539538
 21
4113.2149669999999
  0
LINE
  8
_0-4_躯体と製品
  6
CONTINUOUS
 62
    3
 10
1092.470777
 20
4156.4586230000004
 11
1427.170901
 21
4256.8686680000001
  0
LINE
  8
_0-4_躯体と製品
  6
CONTINUOUS
 62
    3
 10
1427.170901
 20
4256.8686680000001
 11
1444.411775
 21
4199.3990910000002
  0
LINE
  8
_0-4_躯体と製品
  6
CONTINUOUS
 62
    3
 10
1444.411775
 20
4199.3990910000002
 11
1109.7116509999998
 21
4098.9890459999997
  0
LINE
  8
_0-4_躯体と製品
  6
CONTINUOUS
 62
    3
 10
1442.687688
 20
4205.1460489999999
 11
1107.9875639999998
 21
4104.7360040000003
  0
LINE
  8
_0-4_躯体と製品
  6
CONTINUOUS
 62
    3
 10
1253.8869440000001
 20
4204.8834770000012
 11
1269.4037310000003
 21
4153.1608580000002
  0
LINE
  8
_0-4_躯体と製品
  6
CONTINUOUS
 62
    3
 10
1292.1999950000002
 20
4216.3773930000007
 11
1307.7167820000002
 21
4164.6547739999996
  0
LINE
  8
_0-4_躯体と製品
  6
CONTINUOUS
 62
    3
 10
1307.7167820000002
 20
4164.6547739999996
 11
1253.8869440000001
 21
4204.8834770000012
  0
LINE
  8
_0-4_躯体と製品
  6
CONTINUOUS
 62
    3
 10
1292.1999950000002
 20
4216.3773930000007
 11
1269.4037310000003
 21
4153.1608580000002
  0
LINE
  8
_0-4_躯体と製品
  6
CONTINUOUS
 62
    4
 10
2442.648725
 20
4195.9574249999996
 11
2421.784525
 21
4202.2166749999997
  0
LINE
  8
_0-4_躯体と製品
  6
CONTINUOUS
 62
    4
 10
2207.3779749999999
 20
4267.2358249999997
 11
2442.8406
 21
4196.597025
  0
LINE
  8
_0-4_躯体と製品
  6
CONTINUOUS
 62
    4
 10
2442.8406
 20
4196.597025
 11
2442.648725
 21
4195.9574249999996
  0
LINE
  8
_0-4_躯体と製品
  6
CONTINUOUS
 62
    3
 10
2138.643184
 20
4119.5063250000003
 11
2178.643184
 21
4107.5063239999999
  0
LINE
  8
_0-4_躯体と製品
  6
CONTINUOUS
 62
    3
 10
2178.643184
 20
4107.5063239999999
 11
2207.3779749999999
 21
4203.2889520000008
  0
LINE
  8
_0-4_躯体と製品
  6
CONTINUOUS
 62
    3
 10
2167.3779749999999
 20
4215.2889530000002
 11
2138.643184
 21
4119.5063250000003
  0
LINE
  8
_0-4_躯体と製品
  6
PLine4
 62
    3
 10
2201.3779749999999
 20
4205.0889520000001
 11
2172.643184
 21
4109.3063240000001
  0
LINE
  8
_0-4_躯体と製品
  6
CONTINUOUS
 62
    2
 10
2232.2814560000002
 20
4112.2954540000001
 11
2227.1091940000001
 21
4095.0545809999999
  0
ARC
  8
_0-4_躯体と製品
  6
CONTINUOUS
 62
    2
 10
2225.193542
 20
4095.629277
 40
2
 50
253.30075500000004
 51
343.30075499999998
  0
LINE
  8
_0-4_躯体と製品
  6
CONTINUOUS
 62
    2
 10
2224.6188459999998
 20
4093.7136239999995
 11
2180.558837
 21
4106.9316280000003
  0
ARC
  8
_0-4_躯体と製品
  6
CONTINUOUS
 62
    2
 10
2181.1335330000002
 20
4108.84728
 40
2
 50
163.30075500000001
 51
253.30075499999998
  0
LINE
  8
_0-4_躯体と製品
  6
CONTINUOUS
 62
    2
 10
2179.2178800000002
 20
4109.4219759999996
 11
2206.8032790000002
 21
4201.3732989999999
  0
ARC
  8
_0-4_躯体と製品
  6
CONTINUOUS
 62
    2
 10
2208.7189320000002
 20
4200.7986030000002
 40
2
 50
73.300754999999995
 51
163.30075500000004
  0
LINE
  8
_0-4_躯体と製品
  6
CONTINUOUS
 62
    2
 10
2209.2936279999999
 20
4202.7142560000002
 11
2253.3536359999998
 21
4189.4962519999999
  0
ARC
  8
_0-4_躯体と製品
  6
CONTINUOUS
 62
    2
 10
2252.778941
 20
4187.5806000000002
 40
2
 50
343.30075499999998
 51
73.300754999999981
  0
LINE
  8
_0-4_躯体と製品
  6
CONTINUOUS
 62
    2
 10
2254.6945930000002
 20
4187.0059039999996
 11
2249.5223310000001
 21
4169.765030999999
  0
LINE
  8
_0-4_躯体と製品
  6
CONTINUOUS
 62
    2
 10
2209.523506
 20
4199.3043939999998
 11
2251.2847320000001
 21
4186.7760250000001
  0
LINE
  8
_0-4_躯体と製品
  6
CONTINUOUS
 62
    2
 10
2251.2847320000001
 20
4186.7760250000001
 11
2246.4572870000002
 21
4170.6845439999997
  0
LINE
  8
_0-4_躯体と製品
  6
CONTINUOUS
 62
    2
 10
2182.6277420000001
 20
4109.6518539999997
 11
2209.523506
 21
4199.3043939999998
  0
LINE
  8
_0-4_躯体と製品
  6
CONTINUOUS
 62
    2
 10
2224.3889669999999
 20
4097.1234860000004
 11
2182.6277420000001
 21
4109.6518539999997
  0
LINE
  8
_0-4_躯体と製品
  6
CONTINUOUS
 62
    2
 10
2229.2164120000002
 20
4113.2149669999999
 11
2224.3889669999999
 21
4097.1234860000004
  0
LINE
  8
_0-4_躯体と製品
  6
CONTINUOUS
 62
    2
 10
2246.4572870000002
 20
4170.6845439999997
 11
2249.5223310000001
 21
4169.765030999999
  0
LINE
  8
_0-4_躯体と製品
  6
CONTINUOUS
 62
    2
 10
2232.2814560000002
 20
4112.2954540000001
 11
2229.2164120000002
 21
4113.2149669999999
  0
LINE
  8
_0-4_躯体と製品
  6
CONTINUOUS
 62
    3
 10
2572.2851729999998
 20
4156.4586230000004
 11
2237.5850489999998
 21
4256.8686680000001
  0
LINE
  8
_0-4_躯体と製品
  6
CONTINUOUS
 62
    3
 10
2237.5850489999998
 20
4256.8686680000001
 11
2220.3441750000002
 21
4199.3990910000002
  0
LINE
  8
_0-4_躯体と製品
  6
CONTINUOUS
 62
    3
 10
2220.3441750000002
 20
4199.3990910000002
 11
2555.0442990000001
 21
4098.9890459999997
  0
LINE
  8
_0-4_躯体と製品
  6
CONTINUOUS
 62
    3
 10
2222.0682619999998
 20
4205.1460489999999
 11
2556.7683859999997
 21
4104.7360040000003
  0
LINE
  8
_0-4_躯体と製品
  6
CONTINUOUS
 62
    3
 10
2410.8690059999999
 20
4204.8834770000012
 11
2395.3522189999999
 21
4153.1608580000002
  0
LINE
  8
_0-4_躯体と製品
  6
CONTINUOUS
 62
    3
 10
2372.5559549999998
 20
4216.3773930000007
 11
2357.0391679999998
 21
4164.6547739999996
  0
LINE
  8
_0-4_躯体と製品
  6
CONTINUOUS
 62
    3
 10
2357.0391679999998
 20
4164.6547739999996
 11
2410.8690059999999
 21
4204.8834770000012
  0
LINE
  8
_0-4_躯体と製品
  6
CONTINUOUS
 62
    3
 10
2372.5559549999998
 20
4216.3773930000007
 11
2395.3522189999999
 21
4153.1608580000002
  0
LINE
  8
_0-4_躯体と製品
  6
CONTINUOUS
 62
    4
 10
5967.2957500000002
 20
4202.6501840000001
 11
5988.1599500000002
 21
4208.9094340000001
  0
LINE
  8
_0-4_躯体と製品
  6
CONTINUOUS
 62
    4
 10
6202.5664999999999
 20
4273.9285840000002
 11
5967.1038749999998
 21
4203.2897839999996
  0
LINE
  8
_0-4_躯体と製品
  6
CONTINUOUS
 62
    4
 10
5967.1038749999998
 20
4203.2897839999996
 11
5967.2957500000002
 21
4202.6501840000001
  0
LINE
  8
_0-4_躯体と製品
  6
CONTINUOUS
 62
    3
 10
6231.3012909999998
 20
4114.1990830000013
 11
6202.5664999999999
 21
4209.9817110000004
  0
LINE
  8
_0-4_躯体と製品
  6
CONTINUOUS
 62
    3
 10
6231.3012909999998
 20
4114.1990830000013
 11
6279.1926050000002
 21
4128.5664780000006
  0
LINE
  8
_0-4_躯体と製品
  6
PLine4
 62
    3
 10
6208.5664999999999
 20
4211.7817109999996
 11
6237.3012909999998
 21
4115.9990829999988
  0
LINE
  8
_0-4_躯体と製品
  6
CONTINUOUS
 62
    2
 10
6177.6630189999996
 20
4118.9882130000005
 11
6182.8352809999997
 21
4101.7473399999999
  0
ARC
  8
_0-4_躯体と製品
  6
CONTINUOUS
 62
    2
 10
6184.7509330000003
 20
4102.3220359999996
 40
2
 50
196.69924499999996
 51
286.69924500000002
  0
LINE
  8
_0-4_躯体と製品
  6
CONTINUOUS
 62
    2
 10
6185.3256289999999
 20
4100.4063829999996
 11
6229.3856379999997
 21
4113.6243869999998
  0
ARC
  8
_0-4_躯体と製品
  6
CONTINUOUS
 62
    2
 10
6228.8109420000001
 20
4115.5400389999995
 40
2
 50
286.69924500000002
 51
16.699245000000023
  0
LINE
  8
_0-4_躯体と製品
  6
CONTINUOUS
 62
    2
 10
6230.7265950000001
 20
4116.1147350000001
 11
6203.1411959999987
 21
4208.0660580000003
  0
ARC
  8
_0-4_躯体と製品
  6
CONTINUOUS
 62
    2
 10
6201.2255429999996
 20
4207.4913619999998
 40
2
 50
16.699245000000001
 51
106.69924499999999
  0
LINE
  8
_0-4_躯体と製品
  6
CONTINUOUS
 62
    2
 10
6200.6508469999999
 20
4209.4070149999989
 11
6156.5908390000004
 21
4196.1890110000004
  0
ARC
  8
_0-4_躯体と製品
  6
CONTINUOUS
 62
    2
 10
6157.1655339999998
 20
4194.2733580000004
 40
2
 50
106.699245
 51
196.69924499999999
  0
LINE
  8
_0-4_躯体と製品
  6
CONTINUOUS
 62
    2
 10
6155.2498820000001
 20
4193.6986630000001
 11
6160.4221440000001
 21
4176.4577900000004
  0
LINE
  8
_0-4_躯体と製品
  6
CONTINUOUS
 62
    2
 10
6200.4209689999998
 20
4205.9971530000003
 11
6158.6597430000002
 21
4193.4687839999997
  0
LINE
  8
_0-4_躯体と製品
  6
CONTINUOUS
 62
    2
 10
6158.6597430000002
 20
4193.4687839999997
 11
6163.4871880000001
 21
4177.3773030000002
  0
LINE
  8
_0-4_躯体と製品
  6
CONTINUOUS
 62
    2
 10
6227.3167329999997
 20
4116.3446130000002
 11
6200.4209689999998
 21
4205.9971530000003
  0
LINE
  8
_0-4_躯体と製品
  6
CONTINUOUS
 62
    2
 10
6185.5555080000004
 20
4103.816245
 11
6227.3167329999997
 21
4116.3446130000002
  0
LINE
  8
_0-4_躯体と製品
  6
CONTINUOUS
 62
    2
 10
6180.7280629999987
 20
4119.9077260000004
 11
6185.5555080000004
 21
4103.816245
  0
LINE
  8
_0-4_躯体と製品
  6
CONTINUOUS
 62
    2
 10
6163.4871880000001
 20
4177.3773030000002
 11
6160.4221440000001
 21
4176.4577900000004
  0
LINE
  8
_0-4_躯体と製品
  6
CONTINUOUS
 62
    2
 10
6177.6630189999996
 20
4118.9882130000005
 11
6180.7280629999987
 21
4119.9077260000004
  0
LINE
  8
_0-4_躯体と製品
  6
CONTINUOUS
 62
    3
 10
5837.659302
 20
4163.151382
 11
6172.359426
 21
4263.5614269999996
  0
LINE
  8
_0-4_躯体と製品
  6
CONTINUOUS
 62
    3
 10
6172.359426
 20
4263.5614269999996
 11
6189.6003000000001
 21
4206.0918499999998
  0
LINE
  8
_0-4_躯体と製品
  6
CONTINUOUS
 62
    3
 10
6189.6003000000001
 20
4206.0918499999998
 11
5854.9001760000001
 21
4105.6818050000002
  0
LINE
  8
_0-4_躯体と製品
  6
CONTINUOUS
 62
    3
 10
6187.8762129999996
 20
4211.8388080000004
 11
5853.1760889999996
 21
4111.4287629999999
  0
LINE
  8
_0-4_躯体と製品
  6
CONTINUOUS
 62
    3
 10
5999.0754690000003
 20
4211.5762359999999
 11
6014.5922559999999
 21
4159.8536169999998
  0
LINE
  8
_0-4_躯体と製品
  6
CONTINUOUS
 62
    3
 10
6037.3885200000004
 20
4223.0701520000002
 11
6052.905307
 21
4171.3475330000001
  0
LINE
  8
_0-4_躯体と製品
  6
CONTINUOUS
 62
    3
 10
6052.905307
 20
4171.3475330000001
 11
5999.0754690000003
 21
4211.5762359999999
  0
LINE
  8
_0-4_躯体と製品
  6
CONTINUOUS
 62
    3
 10
6037.3885200000004
 20
4223.0701520000002
 11
6014.5922559999999
 21
4159.8536169999998
  0
LINE
  8
_0-4_躯体と製品
  6
CONTINUOUS
 62
    3
 10
6252.5664999999999
 20
4217.3201529999997
 11
6279.1926050000002
 21
4128.5664780000006
  0
LINE
  8
_0-4_躯体と製品
  6
CONTINUOUS
 62
    4
 10
7337.8372499999996
 20
4202.6501840000001
 11
7316.9730499999987
 21
4208.9094340000001
  0
LINE
  8
_0-4_躯体と製品
  6
CONTINUOUS
 62
    4
 10
7338.0291250000009
 20
4203.2897839999996
 11
6652.5664999999999
 21
4408.9286080000002
  0
LINE
  8
_0-4_躯体と製品
  6
CONTINUOUS
 62
    4
 10
7338.0291250000009
 20
4203.2897839999996
 11
7337.8372499999996
 21
4202.6501840000001
  0
LINE
  8
_0-4_躯体と製品
  6
CONTINUOUS
 62
    3
 10
7073.831709
 20
4114.1990830000013
 11
7102.5664999999999
 21
4209.9817110000004
  0
LINE
  8
_0-4_躯体と製品
  6
CONTINUOUS
 62
    3
 10
7073.831709
 20
4114.1990830000013
 11
7025.9403949999996
 21
4128.5664780000006
  0
LINE
  8
_0-4_躯体と製品
  6
PLine4
 62
    3
 10
7096.5664999999999
 20
4211.7817109999996
 11
7067.831709
 21
4115.9990829999988
  0
LINE
  8
_0-4_躯体と製品
  6
CONTINUOUS
 62
    2
 10
7127.4699810000002
 20
4118.9882130000005
 11
7122.2977190000001
 21
4101.7473399999999
  0
ARC
  8
_0-4_躯体と製品
  6
CONTINUOUS
 62
    2
 10
7120.3820669999996
 20
4102.3220359999996
 40
2
 50
253.30075500000004
 51
343.30075499999998
  0
LINE
  8
_0-4_躯体と製品
  6
CONTINUOUS
 62
    2
 10
7119.807370999999
 20
4100.4063829999996
 11
7075.7473620000001
 21
4113.6243869999998
  0
ARC
  8
_0-4_躯体と製品
  6
CONTINUOUS
 62
    2
 10
7076.3220579999997
 20
4115.5400389999995
 40
2
 50
163.30075500000001
 51
253.30075499999998
  0
ARC
  8
_0-4_躯体と製品
  6
CONTINUOUS
 62
    2
 10
7103.9074569999993
 20
4207.4913619999998
 40
2
 50
73.300754999999995
 51
163.30075500000004
  0
LINE
  8
_0-4_躯体と製品
  6
CONTINUOUS
 62
    2
 10
7104.4821529999999
 20
4209.4070149999989
 11
7148.5421609999994
 21
4196.1890110000004
  0
ARC
  8
_0-4_躯体と製品
  6
CONTINUOUS
 62
    2
 10
7147.9674659999991
 20
4194.2733580000004
 40
2
 50
343.30075499999998
 51
73.300754999999981
  0
LINE
  8
_0-4_躯体と製品
  6
CONTINUOUS
 62
    2
 10
7149.8831179999997
 20
4193.6986630000001
 11
7144.7108559999997
 21
4176.4577900000004
  0
LINE
  8
_0-4_躯体と製品
  6
CONTINUOUS
 62
    2
 10
7074.4064049999988
 20
4116.1147350000001
 11
7102.5664999999999
 21
4209.9817110000004
  0
LINE
  8
_0-4_躯体と製品
  6
CONTINUOUS
 62
    2
 10
7104.712031
 20
4205.9971530000003
 11
7146.4732569999996
 21
4193.4687839999997
  0
LINE
  8
_0-4_躯体と製品
  6
CONTINUOUS
 62
    2
 10
7146.4732569999996
 20
4193.4687839999997
 11
7141.6458119999998
 21
4177.3773030000002
  0
LINE
  8
_0-4_躯体と製品
  6
CONTINUOUS
 62
    2
 10
7077.8162670000002
 20
4116.3446130000002
 11
7104.712031
 21
4205.9971530000003
  0
LINE
  8
_0-4_躯体と製品
  6
CONTINUOUS
 62
    2
 10
7119.5774920000003
 20
4103.816245
 11
7077.8162670000002
 21
4116.3446130000002
  0
LINE
  8
_0-4_躯体と製品
  6
CONTINUOUS
 62
    2
 10
7124.4049370000002
 20
4119.9077260000004
 11
7119.5774920000003
 21
4103.816245
  0
LINE
  8
_0-4_躯体と製品
  6
CONTINUOUS
 62
    2
 10
7141.6458119999998
 20
4177.3773030000002
 11
7144.7108559999997
 21
4176.4577900000004
  0
LINE
  8
_0-4_躯体と製品
  6
CONTINUOUS
 62
    2
 10
7127.4699810000002
 20
4118.9882130000005
 11
7124.4049370000002
 21
4119.9077260000004
  0
LINE
  8
_0-4_躯体と製品
  6
CONTINUOUS
 62
    3
 10
7467.4736979999998
 20
4163.151382
 11
7132.7735740000007
 21
4263.5614269999996
  0
LINE
  8
_0-4_躯体と製品
  6
CONTINUOUS
 62
    3
 10
7132.7735740000007
 20
4263.5614269999996
 11
7115.5326999999997
 21
4206.0918499999998
  0
LINE
  8
_0-4_躯体と製品
  6
CONTINUOUS
 62
    3
 10
7115.5326999999997
 20
4206.0918499999998
 11
7450.2328240000006
 21
4105.6818050000002
  0
LINE
  8
_0-4_躯体と製品
  6
CONTINUOUS
 62
    3
 10
7117.2567870000003
 20
4211.8388080000004
 11
7451.9569110000002
 21
4111.4287629999999
  0
LINE
  8
_0-4_躯体と製品
  6
CONTINUOUS
 62
    3
 10
7306.0575310000004
 20
4211.5762359999999
 11
7290.540743999999
 21
4159.8536169999998
  0
LINE
  8
_0-4_躯体と製品
  6
CONTINUOUS
 62
    3
 10
7267.7444800000003
 20
4223.0701520000002
 11
7252.2276929999989
 21
4171.3475330000001
  0
LINE
  8
_0-4_躯体と製品
  6
CONTINUOUS
 62
    3
 10
7252.2276929999989
 20
4171.3475330000001
 11
7306.0575310000004
 21
4211.5762359999999
  0
LINE
  8
_0-4_躯体と製品
  6
CONTINUOUS
 62
    3
 10
7267.7444800000003
 20
4223.0701520000002
 11
7290.540743999999
 21
4159.8536169999998
  0
LINE
  8
_0-4_躯体と製品
  6
CONTINUOUS
 62
    3
 10
7052.5665000000008
 20
4217.3201529999997
 11
7025.9403949999996
 21
4128.5664780000006
  0
LINE
  8
_0-4_躯体と製品
  6
CONTINUOUS
 62
    4
 10
5887.5732250000001
 20
1992.7365759999998
 11
5908.4374250000001
 21
1998.9958259999999
  0
LINE
  8
_0-4_躯体と製品
  6
CONTINUOUS
 62
    4
 10
6122.8439749999998
 20
2064.0149759999995
 11
5887.3813499999997
 21
1993.3761760000002
  0
LINE
  8
_0-4_躯体と製品
  6
CONTINUOUS
 62
    4
 10
5887.3813499999997
 20
1993.3761760000002
 11
5887.5732250000001
 21
1992.7365759999998
  0
LINE
  8
_0-4_躯体と製品
  6
CONTINUOUS
 62
    3
 10
6151.5787659999996
 20
1904.2854750000001
 11
6122.8439749999998
 21
2000.0681029999998
  0
LINE
  8
_0-4_躯体と製品
  6
CONTINUOUS
 62
    3
 10
6151.5787659999996
 20
1904.2854750000001
 11
6199.4700800000001
 21
1918.6528699999999
  0
LINE
  8
_0-4_躯体と製品
  6
PLine4
 62
    3
 10
6128.8439749999998
 20
2001.8681029999998
 11
6157.5787659999996
 21
1906.0854749999999
  0
LINE
  8
_0-4_躯体と製品
  6
CONTINUOUS
 62
    2
 10
6097.9404940000004
 20
1909.0746049999998
 11
6103.1127560000004
 21
1891.8337320000001
  0
ARC
  8
_0-4_躯体と製品
  6
CONTINUOUS
 62
    2
 10
6105.0284080000001
 20
1892.4084280000002
 40
2
 50
196.69924499999996
 51
286.69924500000002
  0
LINE
  8
_0-4_躯体と製品
  6
CONTINUOUS
 62
    2
 10
6105.6031039999998
 20
1890.4927750000002
 11
6149.6631129999996
 21
1903.710779
  0
ARC
  8
_0-4_躯体と製品
  6
CONTINUOUS
 62
    2
 10
6149.0884170000008
 20
1905.626432
 40
2
 50
286.69924500000002
 51
16.699245000000023
  0
ARC
  8
_0-4_躯体と製品
  6
CONTINUOUS
 62
    2
 10
6121.5030180000003
 20
1997.5777539999999
 40
2
 50
16.699245000000001
 51
106.69924499999999
  0
LINE
  8
_0-4_躯体と製品
  6
CONTINUOUS
 62
    2
 10
6120.9283219999998
 20
1999.4934069999999
 11
6076.8683140000003
 21
1986.2754029999999
  0
ARC
  8
_0-4_躯体と製品
  6
CONTINUOUS
 62
    2
 10
6077.4430089999996
 20
1984.359751
 40
2
 50
106.699245
 51
196.69924499999999
  0
LINE
  8
_0-4_躯体と製品
  6
CONTINUOUS
 62
    2
 10
6075.5273569999999
 20
1983.7850549999998
 11
6080.6996189999991
 21
1966.5441819999999
  0
LINE
  8
_0-4_躯体と製品
  6
CONTINUOUS
 62
    2
 10
6151.00407
 20
1906.2011269999998
 11
6122.8439749999998
 21
2000.0681029999998
  0
LINE
  8
_0-4_躯体と製品
  6
CONTINUOUS
 62
    2
 10
6120.6984439999997
 20
1996.083545
 11
6078.937218
 21
1983.5551770000002
  0
LINE
  8
_0-4_躯体と製品
  6
CONTINUOUS
 62
    2
 10
6078.937218
 20
1983.5551770000002
 11
6083.7646629999999
 21
1967.4636949999999
  0
LINE
  8
_0-4_躯体と製品
  6
CONTINUOUS
 62
    2
 10
6147.5942080000004
 20
1906.4310059999998
 11
6120.6984439999997
 21
1996.083545
  0
LINE
  8
_0-4_躯体と製品
  6
CONTINUOUS
 62
    2
 10
6105.8329830000002
 20
1893.9026370000001
 11
6147.5942080000004
 21
1906.4310059999998
  0
LINE
  8
_0-4_躯体と製品
  6
CONTINUOUS
 62
    2
 10
6101.0055380000003
 20
1909.9941180000001
 11
6105.8329830000002
 21
1893.9026370000001
  0
LINE
  8
_0-4_躯体と製品
  6
CONTINUOUS
 62
    2
 10
6083.7646629999999
 20
1967.4636949999999
 11
6080.6996189999991
 21
1966.5441819999999
  0
LINE
  8
_0-4_躯体と製品
  6
CONTINUOUS
 62
    2
 10
6097.9404940000004
 20
1909.0746049999998
 11
6101.0055380000003
 21
1909.9941180000001
  0
LINE
  8
_0-4_躯体と製品
  6
CONTINUOUS
 62
    3
 10
5757.9367769999999
 20
1953.2377740000002
 11
6092.6369009999999
 21
2053.6478189999998
  0
LINE
  8
_0-4_躯体と製品
  6
CONTINUOUS
 62
    3
 10
6092.6369009999999
 20
2053.6478189999998
 11
6109.8777749999999
 21
1996.178242
  0
LINE
  8
_0-4_躯体と製品
  6
CONTINUOUS
 62
    3
 10
6109.8777749999999
 20
1996.178242
 11
5775.177651
 21
1895.7681969999999
  0
LINE
  8
_0-4_躯体と製品
  6
CONTINUOUS
 62
    3
 10
6108.1536880000003
 20
2001.9252000000001
 11
5773.4535640000004
 21
1901.515155
  0
LINE
  8
_0-4_躯体と製品
  6
CONTINUOUS
 62
    3
 10
5919.3529440000002
 20
2001.6626280000003
 11
5934.8697309999998
 21
1949.9400089999999
  0
LINE
  8
_0-4_躯体と製品
  6
CONTINUOUS
 62
    3
 10
5957.6659949999994
 20
2013.1565439999997
 11
5973.1827819999999
 21
1961.4339249999998
  0
LINE
  8
_0-4_躯体と製品
  6
CONTINUOUS
 62
    3
 10
5973.1827819999999
 20
1961.4339249999998
 11
5919.3529440000002
 21
2001.6626280000003
  0
LINE
  8
_0-4_躯体と製品
  6
CONTINUOUS
 62
    3
 10
5957.6659949999994
 20
2013.1565439999997
 11
5934.8697309999998
 21
1949.9400089999999
  0
LINE
  8
_0-4_躯体と製品
  6
CONTINUOUS
 62
    3
 10
6172.8439749999998
 20
2007.4065449999998
 11
6199.4700800000001
 21
1918.6528699999999
  0
LINE
  8
_0-4_躯体と製品
  6
CONTINUOUS
 62
    4
 10
7358.1147249999995
 20
1992.7365759999998
 11
7337.2505250000004
 21
1998.9958259999999
  0
LINE
  8
_0-4_躯体と製品
  6
CONTINUOUS
 62
    4
 10
7122.8439749999998
 20
2064.0149759999995
 11
7358.3065999999999
 21
1993.3761760000002
  0
LINE
  8
_0-4_躯体と製品
  6
CONTINUOUS
 62
    4
 10
7358.3065999999999
 20
1993.3761760000002
 11
7358.1147249999995
 21
1992.7365759999998
  0
LINE
  8
_0-4_躯体と製品
  6
CONTINUOUS
 62
    3
 10
7094.1091839999999
 20
1904.2854750000001
 11
7122.8439749999998
 21
2000.0681029999998
  0
LINE
  8
_0-4_躯体と製品
  6
CONTINUOUS
 62
    3
 10
7094.1091839999999
 20
1904.2854750000001
 11
7046.2178700000013
 21
1918.6528699999999
  0
LINE
  8
_0-4_躯体と製品
  6
PLine4
 62
    3
 10
7116.8439749999998
 20
2001.8681029999998
 11
7088.1091840000008
 21
1906.0854749999999
  0
LINE
  8
_0-4_躯体と製品
  6
CONTINUOUS
 62
    2
 10
7147.7474560000001
 20
1909.0746049999998
 11
7142.575194
 21
1891.8337320000001
  0
ARC
  8
_0-4_躯体と製品
  6
CONTINUOUS
 62
    2
 10
7140.6595420000003
 20
1892.4084280000002
 40
2
 50
253.30075500000004
 51
343.30075499999998
  0
LINE
  8
_0-4_躯体と製品
  6
CONTINUOUS
 62
    2
 10
7140.0848460000007
 20
1890.4927750000002
 11
7096.0248370000008
 21
1903.710779
  0
ARC
  8
_0-4_躯体と製品
  6
CONTINUOUS
 62
    2
 10
7096.5995329999996
 20
1905.626432
 40
2
 50
163.30075500000001
 51
253.30075499999998
  0
ARC
  8
_0-4_躯体と製品
  6
CONTINUOUS
 62
    2
 10
7124.1849320000001
 20
1997.5777539999999
 40
2
 50
73.300754999999995
 51
163.30075500000004
  0
LINE
  8
_0-4_躯体と製品
  6
CONTINUOUS
 62
    2
 10
7124.7596279999998
 20
1999.4934069999999
 11
7168.8196360000002
 21
1986.2754029999999
  0
ARC
  8
_0-4_躯体と製品
  6
CONTINUOUS
 62
    2
 10
7168.2449410000008
 20
1984.359751
 40
2
 50
343.30075499999998
 51
73.300754999999981
  0
LINE
  8
_0-4_躯体と製品
  6
CONTINUOUS
 62
    2
 10
7170.1605929999996
 20
1983.7850549999998
 11
7164.9883309999996
 21
1966.5441819999999
  0
LINE
  8
_0-4_躯体と製品
  6
CONTINUOUS
 62
    2
 10
7094.6838800000005
 20
1906.2011269999998
 11
7122.8439749999998
 21
2000.0681029999998
  0
LINE
  8
_0-4_躯体と製品
  6
CONTINUOUS
 62
    2
 10
7124.9895059999999
 20
1996.083545
 11
7166.7507320000004
 21
1983.5551770000002
  0
LINE
  8
_0-4_躯体と製品
  6
CONTINUOUS
 62
    2
 10
7166.7507320000004
 20
1983.5551770000002
 11
7161.9232869999987
 21
1967.4636949999999
  0
LINE
  8
_0-4_躯体と製品
  6
CONTINUOUS
 62
    2
 10
7098.093742
 20
1906.4310059999998
 11
7124.9895059999999
 21
1996.083545
  0
LINE
  8
_0-4_躯体と製品
  6
CONTINUOUS
 62
    2
 10
7139.8549670000002
 20
1893.9026370000001
 11
7098.093742
 21
1906.4310059999998
  0
LINE
  8
_0-4_躯体と製品
  6
CONTINUOUS
 62
    2
 10
7144.6824120000001
 20
1909.9941180000001
 11
7139.8549670000002
 21
1893.9026370000001
  0
LINE
  8
_0-4_躯体と製品
  6
CONTINUOUS
 62
    2
 10
7161.9232869999987
 20
1967.4636949999999
 11
7164.9883309999996
 21
1966.5441819999999
  0
LINE
  8
_0-4_躯体と製品
  6
CONTINUOUS
 62
    2
 10
7147.7474560000001
 20
1909.0746049999998
 11
7144.6824120000001
 21
1909.9941180000001
  0
LINE
  8
_0-4_躯体と製品
  6
CONTINUOUS
 62
    3
 10
7153.0510489999997
 20
2053.6478189999998
 11
7135.8101749999996
 21
1996.178242
  0
LINE
  8
_0-4_躯体と製品
  6
CONTINUOUS
 62
    3
 10
7135.8101749999996
 20
1996.178242
 11
7470.5102989999996
 21
1895.7681969999999
  0
LINE
  8
_0-4_躯体と製品
  6
CONTINUOUS
 62
    3
 10
7487.7511729999997
 20
1953.2377740000002
 11
6622.8439749999998
 21
2212.7099539999999
  0
LINE
  8
_0-4_躯体と製品
  6
CONTINUOUS
 62
    3
 10
7137.5342620000001
 20
2001.9252000000001
 11
7472.2343859999992
 21
1901.515155
  0
LINE
  8
_0-4_躯体と製品
  6
CONTINUOUS
 62
    3
 10
7326.3350060000002
 20
2001.6626280000003
 11
7310.8182190000007
 21
1949.9400089999999
  0
LINE
  8
_0-4_躯体と製品
  6
CONTINUOUS
 62
    3
 10
7288.0219550000002
 20
2013.1565439999997
 11
7272.5051679999997
 21
1961.4339249999998
  0
LINE
  8
_0-4_躯体と製品
  6
CONTINUOUS
 62
    3
 10
7272.5051679999997
 20
1961.4339249999998
 11
7326.3350060000002
 21
2001.6626280000003
  0
LINE
  8
_0-4_躯体と製品
  6
CONTINUOUS
 62
    3
 10
7288.0219550000002
 20
2013.1565439999997
 11
7310.8182190000007
 21
1949.9400089999999
  0
LINE
  8
_0-4_躯体と製品
  6
CONTINUOUS
 62
    3
 10
7072.8439749999998
 20
2007.4065449999998
 11
7046.2178700000013
 21
1918.6528699999999
  0
LINE
  8
_0-4_躯体と製品
  6
CONTINUOUS
 62
    4
 10
1139.2367770000001
 20
952.4245169999997
 11
1160.1009769999998
 21
958.6837670000001
  0
LINE
  8
_0-4_躯体と製品
  6
CONTINUOUS
 62
    4
 10
1373.658175
 20
1023.4481109999996
 11
1139.0449020000003
 21
953.0641169999999
  0
LINE
  8
_0-4_躯体と製品
  6
CONTINUOUS
 62
    4
 10
1139.0449020000003
 20
953.0641169999999
 11
1139.2367770000001
 21
952.4245169999997
  0
LINE
  8
_0-4_躯体と製品
  6
CONTINUOUS
 62
    3
 10
1403.2423180000003
 20
863.97341500000016
 11
1451.1336320000003
 21
878.34081099999992
  0
LINE
  8
_0-4_躯体と製品
  6
CONTINUOUS
 62
    3
 10
1403.2423180000003
 20
863.97341500000016
 11
1374.507525
 21
959.75605199999961
  0
LINE
  8
_0-4_躯体と製品
  6
PLine4
 62
    3
 10
1409.2423179999998
 20
865.77341599999977
 11
1380.5075250000002
 21
961.55605200000014
  0
LINE
  8
_0-4_躯体と製品
  6
CONTINUOUS
 62
    2
 10
1349.6040459999999
 20
868.76254599999982
 11
1354.776308
 21
851.52167300000031
  0
ARC
  8
_0-4_躯体と製品
  6
CONTINUOUS
 62
    2
 10
1356.6919609999998
 20
852.0963680000001
 40
2
 50
196.69924499999996
 51
286.69924500000002
  0
LINE
  8
_0-4_躯体と製品
  6
CONTINUOUS
 62
    2
 10
1357.2666570000001
 20
850.18071599999985
 11
1401.3266659999999
 21
863.39872000000025
  0
ARC
  8
_0-4_躯体と製品
  6
CONTINUOUS
 62
    2
 10
1400.7519700000005
 20
865.31437199999971
 40
2
 50
286.69924500000002
 51
16.699245000000023
  0
ARC
  8
_0-4_躯体と製品
  6
CONTINUOUS
 62
    2
 10
1373.1665709999997
 20
957.26569499999994
 40
2
 50
16.699245000000001
 51
106.69924499999999
  0
LINE
  8
_0-4_躯体と製品
  6
CONTINUOUS
 62
    2
 10
1372.5918750000001
 20
959.18134799999984
 11
1328.5318660000003
 21
945.96334399999989
  0
ARC
  8
_0-4_躯体と製品
  6
CONTINUOUS
 62
    2
 10
1329.1065619999999
 20
944.04769099999999
 40
2
 50
106.699245
 51
196.69924499999999
  0
LINE
  8
_0-4_躯体と製品
  6
CONTINUOUS
 62
    2
 10
1327.1909090000001
 20
943.47299500000008
 11
1332.3631720000005
 21
926.23212199999966
  0
LINE
  8
_0-4_躯体と製品
  6
CONTINUOUS
 62
    2
 10
1402.6676219999999
 20
865.88906800000007
 11
1374.5075269999998
 21
959.75604300000009
  0
LINE
  8
_0-4_躯体と製品
  6
CONTINUOUS
 62
    2
 10
1372.361997
 20
955.77148599999998
 11
1330.6007709999999
 21
943.24311699999998
  0
LINE
  8
_0-4_躯体と製品
  6
CONTINUOUS
 62
    2
 10
1330.6007709999999
 20
943.24311699999998
 11
1335.428216
 21
927.15163600000028
  0
LINE
  8
_0-4_躯体と製品
  6
CONTINUOUS
 62
    2
 10
1399.2577609999996
 20
866.11894600000016
 11
1372.361997
 21
955.77148599999998
  0
LINE
  8
_0-4_躯体と製品
  6
CONTINUOUS
 62
    2
 10
1357.4965350000002
 20
853.59057800000016
 11
1399.2577609999996
 21
866.11894600000016
  0
LINE
  8
_0-4_躯体と製品
  6
CONTINUOUS
 62
    2
 10
1352.6690900000001
 20
869.68205899999987
 11
1357.4965350000002
 21
853.59057800000016
  0
LINE
  8
_0-4_躯体と製品
  6
CONTINUOUS
 62
    2
 10
1335.428216
 20
927.15163600000028
 11
1332.3631720000005
 21
926.23212199999966
  0
LINE
  8
_0-4_躯体と製品
  6
CONTINUOUS
 62
    2
 10
1349.6040459999999
 20
868.76254599999982
 11
1352.6690900000001
 21
869.68205899999987
  0
LINE
  8
_0-4_躯体と製品
  6
CONTINUOUS
 62
    3
 10
1009.600329
 20
912.92571500000054
 11
1344.3004530000001
 21
1013.3357599999998
  0
LINE
  8
_0-4_躯体と製品
  6
CONTINUOUS
 62
    3
 10
1344.3004530000001
 20
1013.3357599999998
 11
1361.5413280000002
 21
955.86618300000032
  0
LINE
  8
_0-4_躯体と製品
  6
CONTINUOUS
 62
    3
 10
1361.5413280000002
 20
955.86618300000032
 11
1026.8412040000001
 21
855.45613800000012
  0
LINE
  8
_0-4_躯体と製品
  6
CONTINUOUS
 62
    3
 10
1359.8172400000003
 20
961.61314100000004
 11
1025.1171159999999
 21
861.2030960000003
  0
LINE
  8
_0-4_躯体と製品
  6
CONTINUOUS
 62
    3
 10
1171.0164970000003
 20
961.35056900000018
 11
1186.5332829999998
 21
909.62795000000006
  0
LINE
  8
_0-4_躯体と製品
  6
CONTINUOUS
 62
    3
 10
1209.3295479999999
 20
972.84448500000008
 11
1224.8463350000002
 21
921.12186599999984
  0
LINE
  8
_0-4_躯体と製品
  6
CONTINUOUS
 62
    3
 10
1224.8463350000002
 20
921.12186599999984
 11
1171.0164970000003
 21
961.35056900000018
  0
LINE
  8
_0-4_躯体と製品
  6
CONTINUOUS
 62
    3
 10
1209.3295479999999
 20
972.84448500000008
 11
1186.5332829999998
 21
909.62795000000006
  0
LINE
  8
_0-4_躯体と製品
  6
CONTINUOUS
 62
    3
 10
1451.1336320000003
 20
878.34081099999992
 11
1424.5075249999998
 21
967.09449400000017
  0
LINE
  8
_0-4_躯体と製品
  6
CONTINUOUS
 62
    4
 10
2809.7782729999999
 20
952.4245169999997
 11
2788.9140729999999
 21
958.6837670000001
  0
LINE
  8
_0-4_躯体と製品
  6
CONTINUOUS
 62
    4
 10
2809.9701479999999
 20
953.0641169999999
 11
1974.507525
 21
1203.7029480000001
  0
LINE
  8
_0-4_躯体と製品
  6
CONTINUOUS
 62
    4
 10
2809.9701479999999
 20
953.0641169999999
 11
2809.7782729999999
 21
952.4245169999997
  0
LINE
  8
_0-4_躯体と製品
  6
CONTINUOUS
 62
    3
 10
2545.7727319999999
 20
863.97341500000016
 11
2497.8814179999999
 21
878.34081099999992
  0
LINE
  8
_0-4_躯体と製品
  6
CONTINUOUS
 62
    3
 10
2545.7727319999999
 20
863.97341500000016
 11
2574.507525
 21
959.75605199999961
  0
LINE
  8
_0-4_躯体と製品
  6
PLine4
 62
    3
 10
2539.7727319999999
 20
865.77341599999977
 11
2568.507525
 21
961.55605200000014
  0
LINE
  8
_0-4_躯体と製品
  6
CONTINUOUS
 62
    2
 10
2599.411004
 20
868.76254599999982
 11
2594.2387420000005
 21
851.52167300000031
  0
ARC
  8
_0-4_躯体と製品
  6
CONTINUOUS
 62
    2
 10
2592.323089
 20
852.0963680000001
 40
2
 50
253.30075500000004
 51
343.30075499999998
  0
LINE
  8
_0-4_躯体と製品
  6
CONTINUOUS
 62
    2
 10
2591.7483929999999
 20
850.18071599999985
 11
2547.688384
 21
863.39872000000025
  0
ARC
  8
_0-4_躯体と製品
  6
CONTINUOUS
 62
    2
 10
2548.2630800000002
 20
865.31437199999971
 40
2
 50
163.30075500000001
 51
253.30075499999998
  0
ARC
  8
_0-4_躯体と製品
  6
CONTINUOUS
 62
    2
 10
2575.8484790000002
 20
957.26569499999994
 40
2
 50
73.300754999999995
 51
163.30075500000004
  0
LINE
  8
_0-4_躯体と製品
  6
CONTINUOUS
 62
    2
 10
2576.4231750000004
 20
959.18134799999984
 11
2620.4831840000002
 21
945.96334399999989
  0
ARC
  8
_0-4_躯体と製品
  6
CONTINUOUS
 62
    2
 10
2619.908488
 20
944.04769099999999
 40
2
 50
343.30075499999998
 51
73.300754999999981
  0
LINE
  8
_0-4_躯体と製品
  6
CONTINUOUS
 62
    2
 10
2621.8241410000001
 20
943.47299500000008
 11
2616.6518780000001
 21
926.23212199999966
  0
LINE
  8
_0-4_躯体と製品
  6
CONTINUOUS
 62
    2
 10
2546.347428
 20
865.88906800000007
 11
2574.5075230000002
 21
959.75604300000009
  0
LINE
  8
_0-4_躯体と製品
  6
CONTINUOUS
 62
    2
 10
2576.6530530000005
 20
955.77148599999998
 11
2618.4142790000001
 21
943.24311699999998
  0
LINE
  8
_0-4_躯体と製品
  6
CONTINUOUS
 62
    2
 10
2618.4142790000001
 20
943.24311699999998
 11
2613.5868340000006
 21
927.15163600000028
  0
LINE
  8
_0-4_躯体と製品
  6
CONTINUOUS
 62
    2
 10
2549.7572890000001
 20
866.11894600000016
 11
2576.6530530000005
 21
955.77148599999998
  0
LINE
  8
_0-4_躯体と製品
  6
CONTINUOUS
 62
    2
 10
2591.5185149999998
 20
853.59057800000016
 11
2549.7572890000001
 21
866.11894600000016
  0
LINE
  8
_0-4_躯体と製品
  6
CONTINUOUS
 62
    2
 10
2596.3459600000001
 20
869.68205899999987
 11
2591.5185149999998
 21
853.59057800000016
  0
LINE
  8
_0-4_躯体と製品
  6
CONTINUOUS
 62
    2
 10
2613.5868340000006
 20
927.15163600000028
 11
2616.6518780000001
 21
926.23212199999966
  0
LINE
  8
_0-4_躯体と製品
  6
CONTINUOUS
 62
    2
 10
2599.411004
 20
868.76254599999982
 11
2596.3459600000001
 21
869.68205899999987
  0
LINE
  8
_0-4_躯体と製品
  6
CONTINUOUS
 62
    3
 10
2939.4147210000001
 20
912.92571500000054
 11
2604.7145970000001
 21
1013.3357599999998
  0
LINE
  8
_0-4_躯体と製品
  6
CONTINUOUS
 62
    3
 10
2604.7145970000001
 20
1013.3357599999998
 11
2587.4737220000002
 21
955.86618300000032
  0
LINE
  8
_0-4_躯体と製品
  6
CONTINUOUS
 62
    3
 10
2587.4737220000002
 20
955.86618300000032
 11
2922.1738460000001
 21
855.45613800000012
  0
LINE
  8
_0-4_躯体と製品
  6
CONTINUOUS
 62
    3
 10
2589.1978100000001
 20
961.61314100000004
 11
2923.8979340000001
 21
861.2030960000003
  0
LINE
  8
_0-4_躯体と製品
  6
CONTINUOUS
 62
    3
 10
2777.9985529999999
 20
961.35056900000018
 11
2762.4817670000002
 21
909.62795000000006
  0
LINE
  8
_0-4_躯体と製品
  6
CONTINUOUS
 62
    3
 10
2739.6855019999998
 20
972.84448500000008
 11
2724.1687149999998
 21
921.12186599999984
  0
LINE
  8
_0-4_躯体と製品
  6
CONTINUOUS
 62
    3
 10
2724.1687149999998
 20
921.12186599999984
 11
2777.9985529999999
 21
961.35056900000018
  0
LINE
  8
_0-4_躯体と製品
  6
CONTINUOUS
 62
    3
 10
2739.6855019999998
 20
972.84448500000008
 11
2762.4817670000002
 21
909.62795000000006
  0
LINE
  8
_0-4_躯体と製品
  6
CONTINUOUS
 62
    3
 10
2497.8814179999999
 20
878.34081099999992
 11
2524.507525
 21
967.09449400000017
  0
TEXT
  8
_0-5_図面枠
 62
    7
 10
2245.6271000000002
 20
6193.2985470000003
 40
250.00000000000003
 41
0.8093559999999999
 50
0
  1
連続式ベンチレーター　排煙ＳＣ－ＨＬ型（７５０～１２００）
  0
LINE
  8
_0-5_図面枠
  6
CONTINUOUS
 62
    4
 10
-394.99999999999972
 20
-212.49999999999986
 11
9284.1666750000004
 21
-212.49999999999986
  0
LINE
  8
_0-5_図面枠
  6
CONTINUOUS
 62
    4
 10
-394.99999999999972
 20
6045.8333249999996
 11
9284.1666750000004
 21
6045.8333249999996
  0
LINE
  8
_0-5_図面枠
  6
CONTINUOUS
 62
    4
 10
-394.99999999999972
 20
6462.5000000000009
 11
9284.1666750000004
 21
6462.5000000000009
  0
LINE
  8
_0-5_図面枠
  6
CONTINUOUS
 62
    4
 10
-394.99999999999972
 20
6462.5000000000009
 11
-394.99999999999972
 21
-212.49999999999986
  0
TEXT
  8
_0-5_図面枠
 62
    7
 10
1715.0487589999998
 20
113.03744599999973
 40
75
 41
0.7593649999999999
 50
0
  1
ＳＣ－１２００ＨＬ
  0
TEXT
  8
_0-5_図面枠
 62
    7
 10
1599.8979520000003
 20
3900.3344459999994
 40
75
 41
0.76
 50
0
  1
ＳＣ－７５０ＨＬ
  0
TEXT
  8
_0-5_図面枠
 62
    7
 10
651.32207000000039
 20
6118.9837209999987
 40
75
 41
0.761905
 50
0
  1
Ｓ　１：２５
  0
TEXT
  8
_0-5_図面枠
 62
    7
 10
649.04936999999961
 20
6324.858745999999
 40
75
 41
0.761905
 50
0
  1
ＭＯＮ００５
  0
LINE
  8
_0-5_図面枠
  6
CONTINUOUS
 62
    2
 10
1271.6666749999997
 20
6254.1666750000004
 11
-394.99999999999972
 21
6254.1666750000004
  0
TEXT
  8
_0-5_図面枠
 62
    7
 10
-199.56424999999996
 20
6319.9934709999998
 40
75
 41
0.761905
 50
0
  1
ファイル名
  0
TEXT
  8
_0-5_図面枠
 62
    7
 10
-156.02650000000011
 20
6122.9937460000001
 40
75
 41
0.761905
 50
0
  1
縮　　尺
  0
LINE
  8
_0-5_図面枠
  6
CONTINUOUS
 62
    2
 10
438.33332499999983
 20
6462.5000000000009
 11
438.33332499999983
 21
6045.8333249999996
  0
LINE
  8
_0-5_図面枠
  6
CONTINUOUS
 62
    4
 10
1271.6666749999997
 20
6462.5000000000009
 11
1271.6666749999997
 21
6045.8333249999996
  0
LINE
  8
_0-5_図面枠
  6
CONTINUOUS
 62
    4
 10
9284.1666750000004
 20
-212.49999999999986
 11
9284.1666750000004
 21
6462.5000000000009
  0
LINE
  8
_0-5_図面枠
  6
CONTINUOUS
 62
    3
 10
8195.6497749999999
 20
1270.7096750000001
 11
4763.52045
 21
1270.7096750000001
  0
LINE
  8
_0-5_図面枠
  6
CONTINUOUS
 62
    2
 10
4763.52045
 20
1083.2096750000001
 11
8195.6497749999999
 21
1083.2096750000001
  0
LINE
  8
_0-5_図面枠
  6
CONTINUOUS
 62
    2
 10
4763.52045
 20
1095.7096750000001
 11
8195.6497749999999
 21
1095.7096750000001
  0
LINE
  8
_0-5_図面枠
  6
CONTINUOUS
 62
    2
 10
4763.52045
 20
895.70967499999995
 11
8195.6497749999999
 21
895.70967499999995
  0
LINE
  8
_0-5_図面枠
  6
CONTINUOUS
 62
    2
 10
4763.52045
 20
708.20967499999995
 11
8195.6497749999999
 21
708.20967499999995
  0
LINE
  8
_0-5_図面枠
  6
CONTINUOUS
 62
    2
 10
4763.52045
 20
520.70967499999995
 11
8195.6497749999999
 21
520.70967499999995
  0
LINE
  8
_0-5_図面枠
  6
CONTINUOUS
 62
    3
 10
4763.52045
 20
333.20967499999995
 11
8195.6497749999999
 21
333.20967499999995
  0
TEXT
  8
_0-5_図面枠
 62
    7
 10
7913.8856209999985
 20
573.04791000000034
 40
75
 41
0.761905
 50
0
  1
Ｌ型鋼
  0
TEXT
  8
_0-5_図面枠
 62
    7
 10
6133.4716159999989
 20
590.51307100000008
 40
75
 41
0.761905
 50
0
  1
１０１０
  0
TEXT
  8
_0-5_図面枠
 62
    7
 10
6628.2368500000011
 20
579.41564599999981
 40
75
 41
0.761905
 50
0
  1
　１５０
  0
TEXT
  8
_0-5_図面枠
 62
    7
 10
5654.3233069999997
 20
590.00352100000032
 40
75
 41
0.761905
 50
0
  1
１０００
  0
LINE
  8
_0-5_図面枠
  6
CONTINUOUS
 62
    2
 10
7820.6497750000008
 20
1270.7096750000001
 11
7820.6497750000008
 21
333.20967499999995
  0
LINE
  8
_0-5_図面枠
  6
CONTINUOUS
 62
    3
 10
4763.52045
 20
1270.7096750000001
 11
4763.52045
 21
333.20967499999995
  0
LINE
  8
_0-5_図面枠
  6
CONTINUOUS
 62
    2
 10
7508.1497749999999
 20
1270.7096750000001
 11
7508.1497749999999
 21
333.20967499999995
  0
LINE
  8
_0-5_図面枠
  6
CONTINUOUS
 62
    2
 10
5582.4392500000004
 20
1270.7096750000001
 11
5582.4392500000004
 21
333.20967499999995
  0
LINE
  8
_0-5_図面枠
  6
CONTINUOUS
 62
    2
 10
6008.1497749999999
 20
1270.7096750000001
 11
6008.1497749999999
 21
333.20967499999995
  0
LINE
  8
_0-5_図面枠
  6
CONTINUOUS
 62
    2
 10
6508.1497749999999
 20
1270.7096750000001
 11
6508.1497749999999
 21
333.20967499999995
  0
LINE
  8
_0-5_図面枠
  6
CONTINUOUS
 62
    2
 10
7008.1497749999999
 20
1270.7096750000001
 11
7008.1497749999999
 21
333.20967499999995
  0
TEXT
  8
_0-5_図面枠
 62
    7
 10
4918.6793379999999
 20
385.46566799999982
 40
75
 41
0.7593649999999999
 50
0
  1
ＳＣ－１２００ＨＬ
  0
TEXT
  8
_0-5_図面枠
 62
    7
 10
4916.5774380000003
 20
571.48061800000005
 40
75
 41
0.7593649999999999
 50
0
  1
ＳＣ－１０００ＨＬ
  0
TEXT
  8
_0-5_図面枠
 62
    7
 10
5664.8320320000003
 20
388.22472099999982
 40
75
 41
0.761905
 50
0
  1
１２００
  0
TEXT
  8
_0-5_図面枠
 62
    7
 10
6128.1501159999998
 20
390.31727099999966
 40
75
 41
0.761905
 50
0
  1
１２６０
  0
TEXT
  8
_0-5_図面枠
 62
    7
 10
6628.2368500000011
 20
391.91564599999981
 40
75
 41
0.761905
 50
0
  1
　１５０
  0
TEXT
  8
_0-5_図面枠
 62
    7
 10
7133.8467500000006
 20
571.71187100000009
 40
75
 41
0.761905
 50
0
  1
２７５０
  0
TEXT
  8
_0-5_図面枠
 62
    7
 10
7128.2368500000002
 20
391.91564599999981
 40
75
 41
0.761905
 50
0
  1
３３００
  0
TEXT
  8
_0-5_図面枠
 62
    7
 10
7609.161556
 20
563.57239600000014
 40
75
 41
0.761905
 50
0
  1
０．６
  0
TEXT
  8
_0-5_図面枠
 62
    7
 10
7609.161556
 20
376.07244600000001
 40
75
 41
0.761905
 50
0
  1
０．８
  0
TEXT
  8
_0-5_図面枠
 62
    7
 10
7913.8856209999985
 20
385.54791000000034
 40
75
 41
0.761905
 50
0
  1
Ｌ型鋼
  0
TEXT
  8
_0-5_図面枠
 62
    7
 10
4906.0679380000001
 20
754.3428429999999
 40
75
 41
0.76
 50
0
  1
ＳＣ－９００ＨＬ
  0
TEXT
  8
_0-5_図面枠
 62
    7
 10
4899.7622629999996
 20
951.91821800000002
 40
75
 41
0.76
 50
0
  1
ＳＣ－７５０ＨＬ
  0
TEXT
  8
_0-5_図面枠
 62
    7
 10
5033.4159989999998
 20
1144.4356319999999
 40
75
 41
0.761905
 50
0
  1
型　　式
  0
TEXT
  8
_0-5_図面枠
 62
    7
 10
6414.8088879999996
 20
1693.7404469999999
 40
75
 41
0.7593649999999999
 50
0
  1
ＳＣ－１０００ＨＬ
  0
TEXT
  8
_0-5_図面枠
 62
    7
 10
5751.2107759999999
 20
1148.4911519999998
 40
75
 41
0.8
 50
0
  1
Ａ
  0
TEXT
  8
_0-5_図面枠
 62
    7
 10
5659.1081560000002
 20
951.52444599999978
 40
75
 41
0.761905
 50
0
  1
　７５０
  0
TEXT
  8
_0-5_図面枠
 62
    7
 10
5650.7005559999998
 20
772.86594600000001
 40
75
 41
0.761905
 50
0
  1
　９００
  0
TEXT
  8
_0-5_図面枠
 62
    7
 10
6213.1019189999997
 20
1153.0761970000001
 40
75
 41
0.8
 50
0
  1
Ｉ
  0
TEXT
  8
_0-5_図面枠
 62
    7
 10
6115.472099999999
 20
762.82214599999986
 40
75
 41
0.761905
 50
0
  1
　９２０
  0
TEXT
  8
_0-5_図面枠
 62
    7
 10
6112.3059000000003
 20
946.6284710000001
 40
75
 41
0.761905
 50
0
  1
　７７０
  0
TEXT
  8
_0-5_図面枠
 62
    7
 10
7140.6018000000004
 20
754.30362099999979
 40
75
 41
0.761905
 50
0
  1
２４８０
  0
TEXT
  8
_0-5_図面枠
 62
    7
 10
6628.2368500000011
 20
766.91559599999994
 40
75
 41
0.761905
 50
0
  1
　１５０
  0
TEXT
  8
_0-5_図面枠
 62
    7
 10
6628.2368500000011
 20
954.41559599999994
 40
75
 41
0.761905
 50
0
  1
　１５０
  0
TEXT
  8
_0-5_図面枠
 62
    7
 10
7129.6978749999998
 20
945.42444599999976
 40
75
 41
0.761905
 50
0
  1
２０６０
  0
TEXT
  8
_0-5_図面枠
 62
    7
 10
6722.2568929999998
 20
1145.976926
 40
75
 41
0.8
 50
0
  1
Ｊ
  0
TEXT
  8
_0-5_図面枠
 62
    7
 10
7225.2934530000002
 20
1141.9087069999998
 40
75
 41
0.8
 50
0
  1
Ｅ
  0
TEXT
  8
_0-5_図面枠
 62
    7
 10
7600.5875960000012
 20
1145.5681709999999
 40
75
 41
0.761905
 50
0
  1
板厚
  0
TEXT
  8
_0-5_図面枠
 62
    7
 10
7946.1915809999991
 20
1143.9665170000001
 40
75
 41
0.761905
 50
0
  1
支柱
  0
TEXT
  8
_0-5_図面枠
 62
    7
 10
7609.161556
 20
938.57239600000014
 40
75
 41
0.761905
 50
0
  1
０．６
  0
TEXT
  8
_0-5_図面枠
 62
    7
 10
7609.161556
 20
751.07239600000014
 40
75
 41
0.761905
 50
0
  1
０．６
  0
TEXT
  8
_0-5_図面枠
 62
    7
 10
7908.9661959999994
 20
946.03865999999994
 40
75
 41
0.761905
 50
0
  1
Ｌ型鋼
  0
TEXT
  8
_0-5_図面枠
 62
    7
 10
7913.0662209999991
 20
765.69150999999988
 40
75
 41
0.761905
 50
0
  1
Ｌ型鋼
  0
TEXT
  8
_0-5_図面枠
 62
    7
 10
6429.3810890000004
 20
3933.3372209999998
 40
75
 41
0.76
 50
0
  1
ＳＣ－９００ＨＬ
  0
LINE
  8
_0-5_図面枠
  6
CONTINUOUS
 62
    3
 10
8195.6497749999999
 20
333.20967499999995
 11
8195.6497749999999
 21
1270.7096750000001
  0
ENDSEC
  0
EOF
