  0
SECTION
  2
HEADER
  9
$ACADVER
  1
AC1009
  9
$INSBASE
 10
0
 20
0
 30
0
  9
$EXTMIN
 10
0
 20
0
  9
$EXTMAX
 10
841
 20
594
  9
$LIMMIN
 10
0
 20
0
  9
$LIMMAX
 10
841
 20
594
  9
$LTSCALE
 40
1
  0
ENDSEC
  0
SECTION
  2
TABLES
  0
TABLE
  2
LTYPE
 70
     9
  0
LTYPE
  2
CONTINUOUS
 70
    64
  3
実線
 72
    65
 73
     0
 40
0.0
  0
LTYPE
  2
DASHED1
 70
    64
  3
--  --  --  --  --  --  --  --  
 72
    65
 73
     2
 40
2.5
 49
1.25
 49
-1.25
  0
LTYPE
  2
DASHED2
 70
    64
  3
----    ----    ----    ----    
 72
    65
 73
     2
 40
5.0
 49
2.5
 49
-2.5
  0
LTYPE
  2
DASHED3
 70
    64
  3
------  ------  ------  ------  
 72
    65
 73
     2
 40
5.0
 49
3.75
 49
-1.25
  0
LTYPE
  2
CENTER1
 70
    64
  3
----- - ----- - ----- - ----- - 
 72
    65
 73
     4
 40
10.0
 49
6.25
 49
-1.25
 49
1.25
 49
-1.25
  0
LTYPE
  2
CENTER2
 70
    64
  3
----------  --  ----------  --  
 72
    65
 73
     4
 40
20.0
 49
12.5
 49
-2.5
 49
2.5
 49
-2.5
  0
LTYPE
  2
PHANTOM1
 70
    64
  3
--- - - --- - - --- - - --- - - 
 72
    65
 73
     6
 40
10.0
 49
3.25
 49
-1.25
 49
1.25
 49
-1.25
 49
1.25
 49
-1.25
  0
LTYPE
  2
PHANTOM2
 70
    64
  3
--------  -  -  --------  -  -  
 72
    65
 73
     6
 40
20.0
 49
10.0
 49
-2.5
 49
1.25
 49
-2.5
 49
1.25
 49
-2.5
  0
LTYPE
  2
DOT
 70
    64
  3
-   -   -   -   -   -   -   -   
 72
    65
 73
     2
 40
2.5
 49
0.625
 49
-1.875
  0
LTYPE
  2
DUMMY
 70
    64
  3
ダミー
 72
    65
 73
     0
 40
0.0
  0
LTYPE
  2
RAND1
 70
    64
  3
ランダム線1
 72
    65
 73
     4
 40
10.0
 49
1.0
 49
-2.0
 49
3.0
 49
-4.0
  0
LTYPE
  2
RAND2
 70
    64
  3
ランダム線2
 72
    65
 73
     4
 40
14.0
 49
2.0
 49
-3.0
 49
4.0
 49
-5.0
  0
LTYPE
  2
RAND3
 70
    64
  3
ランダム線3
 72
    65
 73
     4
 40
18.0
 49
3.0
 49
-4.0
 49
5.0
 49
-6.0
  0
LTYPE
  2
RAND4
 70
    64
  3
ランダム線4
 72
    65
 73
     4
 40
22.0
 49
4.0
 49
-5.0
 49
6.0
 49
-7.0
  0
LTYPE
  2
RAND5
 70
    64
  3
ランダム線5
 72
    65
 73
     4
 40
26.0
 49
5.0
 49
-6.0
 49
7.0
 49
-8.0
  0
LTYPE
  2
LONG1
 70
    64
  3
----------  --  ----------  --  
 72
    65
 73
     4
 40
40.0
 49
32.5
 49
-2.5
 49
2.5
 49
-2.5
  0
LTYPE
  2
LONG2
 70
    64
  3
--------  -  -  --------  -  -  
 72
    65
 73
     6
 40
40.0
 49
30.0
 49
-2.5
 49
1.25
 49
-2.5
 49
1.25
 49
-2.5
  0
LTYPE
  2
LONG3
 70
    64
  3
+++++++++++++++..+++++++++++++++
 72
    65
 73
     2
 40
40.0
 49
37.5
 49
-2.5
  0
LTYPE
  2
LONG4
 70
    64
  3
+++++++++++++++..+++++++++++++++
 72
    65
 73
     2
 40
80.0
 49
75.0
 49
-5.0
  0
LTYPE
  2
LONG5
 70
    64
  3
----------  --  ----------  --  
 72
    65
 73
     4
 40
60.0
 49
37.5
 49
-7.5
 49
7.5
 49
-7.5
  0
LTYPE
  2
dashed
 70
   64
  3
-------   -------------   ------
 72
   65
 73
    2
 40
7.5
 49
6
 49
-1.5
  0
LTYPE
  2
dashed_spaced
 70
   64
  3
----        --------        ----
 72
   65
 73
    2
 40
12
 49
6
 49
-6
  0
LTYPE
  2
long_dashed_dotted
 70
   64
  3
------------- --- --------------
 72
   65
 73
    4
 40
15.25
 49
12
 49
-1.5
 49
0.25
 49
-1.5
  0
LTYPE
  2
long_dashed_double-dotted
 70
   64
  3
----------- --- --- ------------
 72
   65
 73
    6
 40
17
 49
12
 49
-1.5
 49
0.25
 49
-1.5
 49
0.25
 49
-1.5
  0
LTYPE
  2
long_dashed_triplicate-dotted
 70
   64
  3
--------- --- --- --- ----------
 72
   65
 73
    8
 40
18.75
 49
12
 49
-1.5
 49
0.25
 49
-1.5
 49
0.25
 49
-1.5
 49
0.25
 49
-1.5
  0
LTYPE
  2
dotted
 70
   64
  3
   -       -       -       -    
 72
   65
 73
    2
 40
1.75
 49
0.25
 49
-1.5
  0
LTYPE
  2
chain
 70
   64
  3
-------------- -- --------------
 72
   65
 73
    4
 40
18.5
 49
12
 49
-1.5
 49
3.5
 49
-1.5
  0
LTYPE
  2
chain_double_dash
 70
   64
  3
------------ -- -- -------------
 72
   65
 73
    6
 40
23.5
 49
12
 49
-1.5
 49
3.5
 49
-1.5
 49
3.5
 49
-1.5
  0
LTYPE
  2
dashed_dotted
 70
   64
  3
-----------     -     ----------
 72
   65
 73
    4
 40
9.25
 49
6
 49
-1.5
 49
0.25
 49
-1.5
  0
LTYPE
  2
double-dashed_dotted
 70
   64
  3
------   -----------   -   -----
 72
   65
 73
    6
 40
16.75
 49
6
 49
-1.5
 49
6
 49
-1.5
 49
0.25
 49
-1.5
  0
LTYPE
  2
dashed_double-dotted
 70
   64
  3
---------    -    -    ---------
 72
   65
 73
    6
 40
11
 49
6
 49
-1.5
 49
0.25
 49
-1.5
 49
0.25
 49
-1.5
  0
LTYPE
  2
double-dashed_double-dotted
 70
   64
  3
-----   ---------   -   -   ----
 72
   65
 73
    8
 40
18.5
 49
6
 49
-1.5
 49
6
 49
-1.5
 49
0.25
 49
-1.5
 49
0.25
 49
-1.5
  0
LTYPE
  2
dashed_triplicate-dotted
 70
   64
  3
-------    -    -    -    ------
 72
   65
 73
    8
 40
12.75
 49
6
 49
-1.5
 49
0.25
 49
-1.5
 49
0.25
 49
-1.5
 49
0.25
 49
-1.5
  0
LTYPE
  2
double-dashed_triplicate-dotted
 70
   64
  3
-----  ---------  -  -  -  -----
 72
   65
 73
   10
 40
20.25
 49
6
 49
-1.5
 49
6
 49
-1.5
 49
0.25
 49
-1.5
 49
0.25
 49
-1.5
 49
0.25
 49
-1.5
  0
LTYPE
  2
undefined
 70
   64
  3
--------------------------------
 72
   65
 73
    0
 40
0
  0
LTYPE
  2
PLINE2
 70
   64
  3
------     -----------     -----
 72
   65
 73
    2
 40
3
 49
2.1000000000000001
 49
-0.9
  0
LTYPE
  2
PLINE3
 70
   64
  3
------------   ---   -----------
 72
   65
 73
    4
 40
10
 49
7
 49
-1
 49
1
 49
-1
  0
LTYPE
  2
PLINE4
 70
   64
  3
---------   ---   ---   --------
 72
   65
 73
    6
 40
10
 49
5
 49
-1
 49
1
 49
-1
 49
1
 49
-1
  0
LTYPE
  2
PLINE5
 70
   64
  3
------     -----------     -----
 72
   65
 73
    2
 40
5
 49
3.5
 49
-1.5
  0
LTYPE
  2
PLINE6
 70
   64
  3
------------   ---   -----------
 72
   65
 73
    4
 40
15
 49
10.5
 49
-1.5
 49
1.5
 49
-1.5
  0
LTYPE
  2
PLINE7
 70
   64
  3
---------   ---   ---   --------
 72
   65
 73
    6
 40
15
 49
7.5
 49
-1.5
 49
1.5
 49
-1.5
 49
1.5
 49
-1.5
  0
LTYPE
  2
PLINE8
 70
   64
  3
------     -----------     -----
 72
   65
 73
    2
 40
7
 49
4.9000000000000004
 49
-2.1000000000000001
  0
LTYPE
  2
PLINE9
 70
   64
  3
------------   ---   -----------
 72
   65
 73
    4
 40
20
 49
14
 49
-2
 49
2
 49
-2
  0
LTYPE
  2
PLINE10
 70
   64
  3
---------   ---   ---   --------
 72
   65
 73
    6
 40
20
 49
10
 49
-2
 49
2
 49
-2
 49
2
 49
-2
  0
LTYPE
  2
PLINE11
 70
   64
  3
------     -----------     -----
 72
   65
 73
    2
 40
9
 49
6.2999999999999989
 49
-2.7000000000000002
  0
LTYPE
  2
PLINE12
 70
   64
  3
------------   ---   -----------
 72
   65
 73
    4
 40
25
 49
17.5
 49
-2.5
 49
2.5
 49
-2.5
  0
LTYPE
  2
PLINE13
 70
   64
  3
---------   ---   ---   --------
 72
   65
 73
    6
 40
25
 49
12.5
 49
-2.5
 49
2.5
 49
-2.5
 49
2.5
 49
-2.5
  0
LTYPE
  2
PLINE14
 70
   64
  3
------     -----------     -----
 72
   65
 73
    2
 40
11
 49
7.7000000000000002
 49
-3.2999999999999989
  0
LTYPE
  2
PLINE15
 70
   64
  3
------------   ---   -----------
 72
   65
 73
    4
 40
30
 49
21
 49
-3
 49
3
 49
-3
  0
LTYPE
  2
PLINE16
 70
   64
  3
---------   ---   ---   --------
 72
   65
 73
    6
 40
30
 49
15
 49
-3
 49
3
 49
-3
 49
3
 49
-3
  0
ENDTAB
  0
TABLE
  2
STYLE
  5
3
100
AcDbSymbolTable
 70
     1
  0
STYLE
  5
10
100
AcDbSymbolTableRecord
100
AcDbTextStyleTableRecord
  2
STANDARD
 70
     0
 40
0.0
 41
1.0
 50
0.0
 71
     0
 42
0.2
  3
txt
  4
bigfont.shx
  0
STYLE
  5
26
100
AcDbSymbolTableRecord
100
AcDbTextStyleTableRecord
  2
TATEGAKI
 70
    68
 40
0.0
 41
1.0
 50
0.0
 71
     0
 42
1.0
  3
txt
  4
bigfont.shx
  0
ENDTAB
  0
TABLE
  2
LAYER
 70
    4
  0
LAYER
  2
_0-2_寸法
 70
   64
 62
    7
  6
CONTINUOUS
  0
LAYER
  2
_0-3_躯体と製品
 70
   64
 62
    7
  6
CONTINUOUS
  0
LAYER
  2
_0-4_図面枠
 70
   64
 62
    7
  6
CONTINUOUS
  0
LAYER
  2
ADD_LINE
 70
   64
 62
    7
  6
CONTINUOUS
  0
ENDTAB
  0
ENDSEC
  0
SECTION
  2
BLOCKS
  0
BLOCK
  2
-000-_Dot
 70
   64
 10
0
 20
0
 30
0
  0
CIRCLE
  8
_0-0_0
  6
CONTINUOUS
 62
    7
 10
0
 20
0
 40
0.025
  0
LINE
  8
_0-0_0
  6
CONTINUOUS
 62
    7
 10
0.025
 20
0
 11
-0.025
 21
0
  0
LINE
  8
_0-0_0
  6
CONTINUOUS
 62
    7
 10
-0.05
 20
0
 11
-0.1
 21
0
  0
ENDBLK
  0
BLOCK
  2
-001-_D4
 70
   64
 10
0
 20
0
 30
0
  0
LINE
  8
_0-2_寸法
  6
CONTINUOUS
 62
    4
 10
588.23048837989302
 20
-23.07253286567866
 11
460.01211237989276
 21
-23.072532865678617
  0
LINE
  8
_0-2_寸法
  6
CONTINUOUS
 62
    4
 10
596.38781637989268
 20
-238.27253286567861
 11
460.01211237989276
 21
-238.27253286567861
  0
LINE
  8
_0-2_寸法
  6
CONTINUOUS
 62
    4
 10
460.01211237989276
 20
-23.172532865678619
 11
460.01211237989276
 21
-238.17253286567862
  0
INSERT
  2
-000-_Dot
  8
_0-2_寸法
 10
460.01211237989276
 20
-23.072532865678617
 41
1
 42
1
 50
90
  0
INSERT
  2
-000-_Dot
  8
_0-2_寸法
 10
460.01211237989276
 20
-238.27253286567861
 41
1
 42
1
 50
270
  0
TEXT
  8
_0-2_寸法
 62
    7
 10
459.9321123798926
 20
-133.17253286567851
 40
5
 41
1
 50
90
  1
 I
  0
POINT
  8
_0-1_Defpoints
 62
    7
 10
588.23048837989302
 20
-23.07253286567866
  0
POINT
  8
_0-1_Defpoints
 62
    7
 10
596.38781637989268
 20
-238.27253286567861
  0
POINT
  8
_0-1_Defpoints
 62
    7
 10
460.01211237989276
 20
-238.27253286567861
  0
ENDBLK
  0
BLOCK
  2
-002-_D5
 70
   64
 10
0
 20
0
 30
0
  0
LINE
  8
_0-2_寸法
  6
CONTINUOUS
 62
    4
 10
596.38781637989268
 20
-238.27253286567861
 11
460.01211237989276
 21
-238.27253286567861
  0
LINE
  8
_0-2_寸法
  6
CONTINUOUS
 62
    4
 10
593.91589837989227
 20
-250.27253286567861
 11
460.01211237989276
 21
-250.27253286567861
  0
LINE
  8
_0-2_寸法
  6
CONTINUOUS
 62
    4
 10
460.01211237989276
 20
-238.37253286567861
 11
460.01211237989276
 21
-250.17253286567862
  0
INSERT
  2
-000-_Dot
  8
_0-2_寸法
 10
460.01211237989276
 20
-238.27253286567861
 41
1
 42
1
 50
90
  0
INSERT
  2
-000-_Dot
  8
_0-2_寸法
 10
460.01211237989276
 20
-250.27253286567861
 41
1
 42
1
 50
270
  0
TEXT
  8
_0-2_寸法
 62
    7
 10
459.9321123798926
 20
-245.52253286567861
 40
5
 41
1
 50
90
  1
J
  0
POINT
  8
_0-1_Defpoints
 62
    7
 10
596.38781637989268
 20
-238.27253286567861
  0
POINT
  8
_0-1_Defpoints
 62
    7
 10
593.91589837989227
 20
-250.27253286567861
  0
POINT
  8
_0-1_Defpoints
 62
    7
 10
460.01211237989276
 20
-250.27253286567861
  0
ENDBLK
  0
BLOCK
  2
-003-_D6
 70
   64
 10
0
 20
0
 30
0
  0
LINE
  8
_0-2_寸法
  6
CONTINUOUS
 62
    4
 10
482.34187837989305
 20
-146.4240048656786
 11
482.34187837989305
 21
9.9052151343213151
  0
LINE
  8
_0-2_寸法
  6
CONTINUOUS
 62
    4
 10
896.74187837989268
 20
-137.5251028656786
 11
896.74187837989268
 21
9.9052151343213151
  0
LINE
  8
_0-2_寸法
  6
CONTINUOUS
 62
    4
 10
482.44187837989301
 20
9.9052151343213151
 11
896.64187837989266
 21
9.9052151343213151
  0
INSERT
  2
-000-_Dot
  8
_0-2_寸法
 10
482.34187837989305
 20
9.9052151343213151
 41
1
 42
1
 50
180
  0
INSERT
  2
-000-_Dot
  8
_0-2_寸法
 10
896.74187837989268
 20
9.9052151343213151
 41
1
 42
1
 50
0
  0
TEXT
  8
_0-2_寸法
 62
    7
 10
688.29187837989286
 20
9.9852151343213098
 40
5
 41
1
 50
0
  1
E
  0
POINT
  8
_0-1_Defpoints
 62
    7
 10
482.34187837989305
 20
-146.4240048656786
  0
POINT
  8
_0-1_Defpoints
 62
    7
 10
896.74187837989268
 20
-137.5251028656786
  0
POINT
  8
_0-1_Defpoints
 62
    7
 10
896.74187837989268
 20
9.9052151343213151
  0
ENDBLK
  0
BLOCK
  2
-004-_D7
 70
   64
 10
0
 20
0
 30
0
  0
LINE
  8
_0-2_寸法
  6
CONTINUOUS
 62
    4
 10
609.54187837989252
 20
-272.92491486567872
 11
609.54187837989252
 21
-281.10201286567849
  0
LINE
  8
_0-2_寸法
  6
CONTINUOUS
 62
    4
 10
769.54187837989264
 20
-272.92491486567877
 11
769.54187837989264
 21
-281.10201286567849
  0
LINE
  8
_0-2_寸法
  6
CONTINUOUS
 62
    4
 10
609.64187837989255
 20
-281.10201286567849
 11
769.44187837989261
 21
-281.10201286567849
  0
INSERT
  2
-000-_Dot
  8
_0-2_寸法
 10
609.54187837989252
 20
-281.10201286567849
 41
1
 42
1
 50
180
  0
INSERT
  2
-000-_Dot
  8
_0-2_寸法
 10
769.54187837989264
 20
-281.10201286567849
 41
1
 42
1
 50
0
  0
TEXT
  8
_0-2_寸法
 62
    7
 10
688.29187837989264
 20
-281.02201286567851
 40
5
 41
1
 50
0
  1
A
  0
POINT
  8
_0-1_Defpoints
 62
    7
 10
609.54187837989252
 20
-272.92491486567872
  0
POINT
  8
_0-1_Defpoints
 62
    7
 10
769.54187837989264
 20
-272.92491486567877
  0
POINT
  8
_0-1_Defpoints
 62
    7
 10
769.54187837989264
 20
-281.10201286567849
  0
ENDBLK
  0
ENDSEC
  0
SECTION
  2
ENTITIES
  0
LINE
  8
_0-3_躯体と製品
  6
CONTINUOUS
 62
    4
 10
532.42736999999943
 20
-2042.2119400000001
 11
-967.27264999999898
 21
-1742.2719399999992
  0
TEXT
  8
_0-4_図面枠
 62
    7
 10
84.281930000001921
 20
402.21911999999969
 40
59.999999999999972
 41
0.8000000000000004
 50
0
  1
又はシルタップ止め
  0
LINE
  8
_0-4_図面枠
  6
CONTINUOUS
 62
    4
 10
-3451.1666700000023
 20
-2373
 11
4292.1666700000023
 21
-2373
  0
LINE
  8
_0-4_図面枠
  6
CONTINUOUS
 62
    4
 10
-3451.1666700000023
 20
2633.6666599999999
 11
4292.1666700000023
 21
2633.6666599999999
  0
LINE
  8
_0-4_図面枠
  6
CONTINUOUS
 62
    4
 10
-3451.1666700000023
 20
2967
 11
4292.1666700000023
 21
2967
  0
TEXT
  8
_0-4_図面枠
 62
    7
 10
-833.39994999999726
 20
2715.2788
 40
200
 41
0.8
 50
0
  1
連続式ベンチレーター　排煙Ｈ型（１０００～２０００）
  0
LINE
  8
_0-3_躯体と製品
  6
CONTINUOUS
 62
    2
 10
12.727349999999205
 20
-1735.7240200000001
 11
1126.0928100000001
 21
-1315.5861199999999
  0
LINE
  8
_0-3_躯体と製品
  6
PLINE2
 62
    2
 10
219.19058999999743
 20
-601.0128400000001
 11
674.24520999999913
 21
-601.0128400000001
  0
LINE
  8
_0-3_躯体と製品
  6
PLINE2
 62
    2
 10
215.45795000000089
 20
-631.41283999999905
 11
674.24520999999913
 21
-631.41283999999905
  0
LINE
  8
_0-3_躯体と製品
  6
PLINE2
 62
    2
 10
220.36932999999863
 20
-591.41283999999905
 11
674.24520999999913
 21
-591.41283999999905
  0
TEXT
  8
_0-4_図面枠
 62
    7
 10
82.477429999999003
 20
484.87353999999976
 40
60
 41
0.8000000000000001
 50
0
  1
各部シルタップ止め
  0
LINE
  8
_0-4_図面枠
  6
CONTINUOUS
 62
    2
 10
82.478110000002744
 20
468.87301999999966
 11
544.0309699999998
 21
468.87301999999966
  0
LINE
  8
_0-3_躯体と製品
  6
CONTINUOUS
 62
    2
 10
994.39029000000119
 20
60.705240000000231
 11
-167.27264999999898
 21
350.34033999999951
  0
LINE
  8
_0-3_躯体と製品
  6
PLINE4
 62
    2
 10
-967.27264999999898
 20
492.12761999999998
 11
-967.27264999999898
 21
-1982.0902600000009
  0
LINE
  8
_0-3_躯体と製品
  6
CONTINUOUS
 62
    4
 10
-1767.2726500000008
 20
369.72805999999986
 11
-1767.2726500000008
 21
329.72805999999986
  0
LINE
  8
_0-4_図面枠
  6
CONTINUOUS
 62
    2
 10
-1489.4834300000002
 20
332.16195999999957
 11
-1461.1991700000008
 21
360.44620000000009
  0
LINE
  8
_0-4_図面枠
  6
CONTINUOUS
 62
    2
 10
-1489.4834300000002
 20
332.16195999999957
 11
-1479.1306900000018
 21
370.79895999999957
  0
LINE
  8
_0-4_図面枠
  6
CONTINUOUS
 62
    2
 10
-1489.4834300000002
 20
332.16195999999957
 11
-1432.5698300000022
 21
430.73921999999976
  0
LINE
  8
_0-4_図面枠
  6
CONTINUOUS
 62
    2
 10
-2224.581729999999
 20
214.55327999999946
 11
-2408.5341899999994
 21
533.1682599999998
  0
LINE
  8
_0-4_図面枠
  6
CONTINUOUS
 62
    4
 10
-3451.1666700000023
 20
2967
 11
-3451.1666700000023
 21
-2373
  0
LINE
  8
_0-4_図面枠
  6
CONTINUOUS
 62
    2
 10
-16.71545000000151
 20
297.06470000000013
 11
82.478110000002744
 21
468.87301999999966
  0
LINE
  8
_0-3_躯体と製品
  6
PLINE2
 62
    5
 10
-1924.7133299999996
 20
-1338.0812399999991
 11
-2173.0334899999971
 21
-1586.4014000000002
  0
LINE
  8
_0-3_躯体と製品
  6
PLINE2
 62
    5
 10
-1965.7836300000008
 20
-1322.58302
 11
-2214.1037899999992
 21
-1570.9031799999989
  0
LINE
  8
_0-3_躯体と製品
  6
CONTINUOUS
 62
    4
 10
-2466.972649999997
 20
-2042.2119400000001
 11
-1768.0726499999992
 21
-1902.431939999999
  0
LINE
  8
_0-3_躯体と製品
  6
CONTINUOUS
 62
    4
 10
-1927.4542900000006
 20
-1721.82602
 11
-3039.2726499999981
 21
-1302.2719400000001
  0
LINE
  8
_0-3_躯体と製品
  6
CONTINUOUS
 62
    2
 10
-1783.272649999999
 20
-1391.45508
 11
-2294.79511
 21
-1198.4277400000001
  0
LINE
  8
_0-3_躯体と製品
  6
PLINE2
 62
    2
 10
-1783.272649999999
 20
-1765.9734199999989
 11
-3029.0172299999995
 21
-1295.8811199999991
  0
LINE
  8
_0-3_躯体と製品
  6
CONTINUOUS
 62
    2
 10
-1783.272649999999
 20
-1733.4809599999999
 11
-2996.5417500000012
 21
-1275.64356
  0
LINE
  8
_0-3_躯体と製品
  6
CONTINUOUS
 62
    2
 10
-1999.2189700000017
 20
-869.36933999999997
 11
-1772.0726500000001
 21
-869.36933999999997
  0
LINE
  8
_0-3_躯体と製品
  6
CONTINUOUS
 62
    2
 10
-1767.2726500000008
 20
-674.7432600000011
 11
-1999.2189700000017
 21
-869.36933999999997
  0
LINE
  8
_0-3_躯体と製品
  6
CONTINUOUS
 62
    4
 10
-1779.5293499999971
 20
-676.67326000000003
 11
-2024.663569999997
 21
-882.36529999999902
  0
LINE
  8
_0-3_躯体と製品
  6
CONTINUOUS
 62
    2
 10
-2012.4068700000007
 20
-874.16934000000015
 11
-1772.0726500000001
 21
-672.50500000000011
  0
LINE
  8
_0-3_躯体と製品
  6
CONTINUOUS
 62
    2
 10
-1772.0726500000001
 20
-874.16934000000015
 11
-2012.4068700000007
 21
-874.16934000000015
  0
LINE
  8
_0-3_躯体と製品
  6
CONTINUOUS
 62
    2
 10
-1999.2189700000017
 20
-1150.59502
 11
-1772.0726500000001
 21
-1150.59502
  0
LINE
  8
_0-3_躯体と製品
  6
CONTINUOUS
 62
    2
 10
-1767.2726500000008
 20
-955.96893999999907
 11
-1999.2189700000017
 21
-1150.59502
  0
LINE
  8
_0-3_躯体と製品
  6
CONTINUOUS
 62
    4
 10
-1779.5293499999971
 20
-957.89894000000004
 11
-2024.663569999997
 21
-1163.590979999999
  0
LINE
  8
_0-3_躯体と製品
  6
CONTINUOUS
 62
    2
 10
-2012.4068700000007
 20
-1155.3950199999999
 11
-1772.0726500000001
 21
-953.73065999999903
  0
LINE
  8
_0-3_躯体と製品
  6
CONTINUOUS
 62
    2
 10
-1772.0726500000001
 20
-1155.3950199999999
 11
-2012.4068700000007
 21
-1155.3950199999999
  0
LINE
  8
_0-3_躯体と製品
  6
PLINE2
 62
    2
 10
-967.27264999999898
 20
-570.61284000000001
 11
-2028.0754900000011
 21
-570.61284000000001
  0
LINE
  8
_0-3_躯体と製品
  6
CONTINUOUS
 62
    2
 10
-2028.0754900000011
 20
-601.0128400000001
 11
-967.27264999999898
 21
-601.0128400000001
  0
LINE
  8
_0-3_躯体と製品
  6
CONTINUOUS
 62
    2
 10
-967.27264999999898
 20
-561.0128400000001
 11
-2028.0754900000011
 21
-561.0128400000001
  0
LINE
  8
_0-3_躯体と製品
  6
PLINE2
 62
    5
 10
-2131.9631699999991
 20
-1601.8996399999992
 11
-1883.6430100000007
 21
-1353.5794800000001
  0
LINE
  8
_0-3_躯体と製品
  6
PLINE2
 62
    5
 10
-2090.8928500000002
 20
-1617.39786
 11
-1842.5726900000027
 21
-1369.0776999999989
  0
LINE
  8
_0-3_躯体と製品
  6
PLINE2
 62
    5
 10
-2049.822549999998
 20
-1632.8960999999999
 11
-1801.5023900000015
 21
-1384.5759399999999
  0
LINE
  8
_0-3_躯体と製品
  6
PLINE2
 62
    5
 10
-2008.7522300000001
 20
-1648.3943199999999
 11
-1783.272649999999
 21
-1422.9147399999997
  0
LINE
  8
_0-3_躯体と製品
  6
CONTINUOUS
 62
    2
 10
-2154.9146100000016
 20
-591.41283999999905
 11
-967.27264999999898
 21
-295.30044000000044
  0
LINE
  8
_0-3_躯体と製品
  6
CONTINUOUS
 62
    4
 10
-2147.3457899999994
 20
-588.70122000000015
 11
-968.07264999999825
 21
-294.67540000000054
  0
LINE
  8
_0-3_躯体と製品
  6
PLINE2
 62
    2
 10
-1993.30465
 20
-561.0128400000001
 11
-967.27264999999898
 21
-305.19432000000006
  0
LINE
  8
_0-3_躯体と製品
  6
CONTINUOUS
 62
    4
 10
-2913.0083500000001
 20
44.064079999999876
 11
-1767.2726500000008
 21
329.72805999999986
  0
LINE
  8
_0-3_躯体と製品
  6
PLINE2
 62
    2
 10
-2901.4641500000016
 20
37.048480000000154
 11
-1764.9501899999996
 21
320.41322000000036
  0
LINE
  8
_0-3_躯体と製品
  6
CONTINUOUS
 62
    2
 10
-2873.2502699999986
 20
12.7523199999996
 11
-1757.5957699999981
 21
290.91624000000013
  0
LINE
  8
_0-3_躯体と製品
  6
PLINE2
 62
    5
 10
-2130.0648899999987
 20
-1260.5900799999999
 11
-2378.3850299999995
 21
-1508.9102400000011
  0
LINE
  8
_0-3_躯体と製品
  6
PLINE2
 62
    5
 10
-2088.9945699999998
 20
-1276.0883199999998
 11
-2337.3147299999982
 21
-1524.4084800000001
  0
LINE
  8
_0-3_躯体と製品
  6
PLINE2
 62
    5
 10
-2047.9242500000009
 20
-1291.58654
 11
-2296.2444099999984
 21
-1539.9066999999991
  0
LINE
  8
_0-3_躯体と製品
  6
PLINE2
 62
    5
 10
-2006.8539499999997
 20
-1307.0847800000001
 11
-2255.1741099999972
 21
-1555.4049399999999
  0
LINE
  8
_0-3_躯体と製品
  6
PLINE2
 62
    5
 10
-2748.0178500000011
 20
-1369.42616
 11
-2264.9301100000002
 21
-886.33843999999999
  0
LINE
  8
_0-3_躯体と製品
  6
PLINE2
 62
    5
 10
-2706.9475300000022
 20
-1384.9244000000001
 11
-2270.9162100000003
 21
-948.89308000000005
  0
LINE
  8
_0-3_躯体と製品
  6
PLINE2
 62
    5
 10
-2665.877230000001
 20
-1400.42264
 11
-2276.9022899999973
 21
-1011.447699999999
  0
LINE
  8
_0-3_躯体と製品
  6
PLINE2
 62
    5
 10
-2624.8069100000021
 20
-1415.9208599999997
 11
-2282.8883899999992
 21
-1074.00234
  0
LINE
  8
_0-3_躯体と製品
  6
PLINE2
 62
    5
 10
-2583.7365899999986
 20
-1431.4191000000001
 11
-2288.8744700000016
 21
-1136.556959999999
  0
LINE
  8
_0-3_躯体と製品
  6
PLINE2
 62
    5
 10
-2542.6662900000028
 20
-1446.91732
 11
-2294.3461299999981
 21
-1198.5971599999993
  0
LINE
  8
_0-3_躯体と製品
  6
PLINE2
 62
    5
 10
-2501.5959699999994
 20
-1462.4155599999999
 11
-2253.2758100000001
 21
-1214.0954000000002
  0
LINE
  8
_0-3_躯体と製品
  6
PLINE2
 62
    5
 10
-2460.5256700000018
 20
-1477.913779999999
 11
-2212.2055099999998
 21
-1229.593619999999
  0
LINE
  8
_0-3_躯体と製品
  6
PLINE2
 62
    5
 10
-2419.4553499999984
 20
-1493.4120200000002
 11
-2171.13519
 21
-1245.09186
  0
LINE
  8
_0-3_躯体と製品
  6
CONTINUOUS
 62
    2
 10
-2773.7819500000023
 20
-1381.0804800000001
 11
-2787.9042500000014
 21
-1418.5045599999999
  0
LINE
  8
_0-3_躯体と製品
  6
CONTINUOUS
 62
    4
 10
-2466.6588700000011
 20
-2043.7808599999989
 11
-2450.969570000002
 21
-2040.6430000000009
  0
LINE
  8
_0-3_躯体と製品
  6
CONTINUOUS
 62
    4
 10
-2466.972649999997
 20
-2042.2119400000001
 11
-2466.6588700000011
 21
-2043.7808599999989
  0
LINE
  8
_0-4_図面枠
  6
CONTINUOUS
 62
    2
 10
-2253.7053500000002
 20
-1606.909079999999
 11
-2289.8991699999988
 21
-1669.5986199999988
  0
LINE
  8
_0-3_躯体と製品
  6
CONTINUOUS
 62
    2
 10
-2362.117189999999
 20
-1536.4256799999998
 11
-2376.2394899999981
 21
-1573.8497400000001
  0
TEXT
  8
_0-4_図面枠
 62
    7
 10
-2462.9564700000001
 20
-1661.7375778721726
 40
60.000000000000234
 41
0.7999999999999978
 50
0.0000100000010064
  1
外板
  0
LINE
  8
_0-4_図面枠
  6
CONTINUOUS
 62
    2
 10
-2289.8991699999988
 20
-1669.5986199999988
 11
-2479.1883899999993
 21
-1669.5986199999988
  0
LINE
  8
_0-3_躯体と製品
  6
CONTINUOUS
 62
    2
 10
-2567.6671300000007
 20
-1458.0046000000002
 11
-2581.7894100000012
 21
-1495.42866
  0
LINE
  8
_0-4_図面枠
  6
CONTINUOUS
 62
    2
 10
-2253.7053500000002
 20
-1606.909079999999
 11
-2281.9896100000005
 21
-1635.1933400000003
  0
LINE
  8
_0-4_図面枠
  6
CONTINUOUS
 62
    2
 10
-2253.7053500000002
 20
-1606.909079999999
 11
-2264.0580899999986
 21
-1645.5460999999991
  0
LINE
  8
_0-3_躯体と製品
  6
CONTINUOUS
 62
    2
 10
-2152.5424100000018
 20
-1615.5104999999999
 11
-2166.6646899999987
 21
-1652.9345600000001
  0
LINE
  8
_0-3_躯体と製品
  6
PLINE2
 62
    5
 10
-2187.1109500000002
 20
-73.12824000000046
 11
-2954.9454899999992
 21
-840.96278000000007
  0
LINE
  8
_0-3_躯体と製品
  6
PLINE2
 62
    5
 10
-2181.1248699999987
 20
-10.573600000000283
 11
-2948.9594100000022
 21
-778.40813999999909
  0
LINE
  8
_0-3_躯体と製品
  6
PLINE2
 62
    5
 10
-2175.1387699999996
 20
51.981039999999894
 11
-2942.9733100000012
 21
-715.85349999999994
  0
LINE
  8
_0-3_躯体と製品
  6
PLINE2
 62
    5
 10
-2960.9315900000001
 20
-903.51739999999995
 11
-2193.0970500000012
 21
-135.68286000000012
  0
LINE
  8
_0-3_躯体と製品
  6
PLINE2
 62
    5
 10
-2966.9176699999971
 20
-966.07203999999911
 11
-2199.0831299999982
 21
-198.23750000000086
  0
LINE
  8
_0-3_躯体と製品
  6
PLINE2
 62
    5
 10
-2972.9037699999981
 20
-1028.6266600000001
 11
-2205.0692299999992
 21
-260.79212000000052
  0
LINE
  8
_0-3_躯体と製品
  6
PLINE2
 62
    5
 10
-2978.8898500000005
 20
-1091.1813
 11
-2211.0553100000016
 21
-323.34676000000013
  0
LINE
  8
_0-3_躯体と製品
  6
PLINE2
 62
    5
 10
-2984.8759500000006
 20
-1153.7359199999992
 11
-2217.0414100000016
 21
-385.90137999999979
  0
LINE
  8
_0-3_躯体と製品
  6
PLINE2
 62
    5
 10
-2990.8620299999984
 20
-1216.2905600000001
 11
-2223.0274899999995
 21
-448.45602000000008
  0
LINE
  8
_0-3_躯体と製品
  6
PLINE2
 62
    5
 10
-2221.5979299999972
 20
175.22750000000025
 11
-2925.0150500000018
 21
-528.1896200000001
  0
LINE
  8
_0-3_躯体と製品
  6
PLINE2
 62
    5
 10
-2163.1666099999984
 20
177.09029999999916
 11
-2931.0011500000028
 21
-590.74423999999908
  0
LINE
  8
_0-3_躯体と製品
  6
PLINE2
 62
    5
 10
-2169.1526900000008
 20
114.53565999999955
 11
-2936.9872299999997
 21
-653.29888000000005
  0
LINE
  8
_0-3_躯体と製品
  6
CONTINUOUS
 62
    4
 10
-3039.5253499999981
 20
-1304.9127800000001
 11
-2910.37381
 21
44.7209399999997
  0
LINE
  8
_0-3_躯体と製品
  6
PLINE2
 62
    2
 10
-2306.0867499999995
 20
185.49272000000025
 11
-2306.0867499999995
 21
-631.41283999999905
  0
LINE
  8
_0-3_躯体と製品
  6
CONTINUOUS
 62
    2
 10
-2296.4867499999982
 20
187.88627999999943
 11
-2296.4867499999982
 21
-631.41283999999905
  0
LINE
  8
_0-3_躯体と製品
  6
CONTINUOUS
 62
    2
 10
-2336.4867499999991
 20
-631.41283999999905
 11
-2336.4867499999991
 21
177.91315999999983
  0
LINE
  8
_0-3_躯体と製品
  6
CONTINUOUS
 62
    2
 10
-2294.79511
 20
-1198.4277400000001
 11
-2161.9210100000018
 21
190.10664000000014
  0
LINE
  8
_0-3_躯体と製品
  6
PLINE2
 62
    2
 10
-3029.0172299999995
 20
-1295.8811199999991
 11
-2901.4641500000016
 21
37.048480000000154
  0
LINE
  8
_0-3_躯体と製品
  6
CONTINUOUS
 62
    2
 10
-2996.5417500000012
 20
-1275.64356
 11
-2873.2502699999986
 21
12.7523199999996
  0
LINE
  8
_0-3_躯体と製品
  6
PLINE2
 62
    2
 10
-2956.364309999999
 20
-591.41283999999905
 11
-2154.9146100000016
 21
-591.41283999999905
  0
LINE
  8
_0-3_躯体と製品
  6
PLINE2
 62
    2
 10
-2956.364309999999
 20
-601.0128400000001
 11
-2153.7358899999981
 21
-601.0128400000001
  0
LINE
  8
_0-3_躯体と製品
  6
PLINE2
 62
    2
 10
-2956.364309999999
 20
-631.41283999999905
 11
-2150.0032300000012
 21
-631.41283999999905
  0
TEXT
  8
_0-4_図面枠
 62
    7
 10
-2724.9536700000008
 20
-1070.0890800000002
 40
60
 41
0.8000000000000001
 50
0
  1
排気誘導板
  0
LINE
  8
_0-3_躯体と製品
  6
PLINE2
 62
    5
 10
-2994.4397100000015
 20
-1276.4367799999991
 11
-2229.0135899999996
 21
-511.01066000000014
  0
LINE
  8
_0-3_躯体と製品
  6
PLINE2
 62
    5
 10
-2679.4455100000005
 20
-1018.0111200000001
 11
-2234.999670000002
 21
-573.56528000000003
  0
LINE
  8
_0-3_躯体と製品
  6
PLINE2
 62
    5
 10
-2629.5424099999982
 20
-1024.6765600000003
 11
-2240.9857499999998
 21
-636.11992000000009
  0
LINE
  8
_0-3_躯体と製品
  6
PLINE2
 62
    5
 10
-2830.1584700000012
 20
-1338.4297000000001
 11
-2569.3616100000008
 21
-1077.6328399999998
  0
LINE
  8
_0-3_躯体と製品
  6
PLINE2
 62
    5
 10
-2789.0881499999978
 20
-1353.92794
 11
-2258.9440300000024
 21
-823.78382000000011
  0
LINE
  8
_0-3_躯体と製品
  6
PLINE2
 62
    5
 10
-2953.3694100000002
 20
-1291.9350200000001
 11
-2727.8826299999982
 21
-1066.4482399999999
  0
LINE
  8
_0-3_躯体と製品
  6
PLINE2
 62
    5
 10
-2912.2990900000004
 20
-1307.4332399999989
 11
-2673.5463100000015
 21
-1068.68046
  0
LINE
  8
_0-3_躯体と製品
  6
CONTINUOUS
 62
    2
 10
-3057.0175500000005
 20
-1267.673679999999
 11
-3017.1994499999983
 21
-1271.484019999999
  0
LINE
  8
_0-3_躯体と製品
  6
CONTINUOUS
 62
    2
 10
-2979.6143299999994
 20
-1303.40788
 11
-2993.7366100000017
 21
-1340.8319599999991
  0
LINE
  8
_0-3_躯体と製品
  6
CONTINUOUS
 62
    4
 10
-3010.0337500000023
 20
-1316.04168
 11
-3039.5253499999981
 21
-1304.9127800000001
  0
LINE
  8
_0-3_躯体と製品
  6
CONTINUOUS
 62
    2
 10
-3033.4277100000008
 20
-1012.7616199999998
 11
-2993.6096099999986
 21
-1016.5719599999991
  0
LINE
  8
_0-3_躯体と製品
  6
PLINE2
 62
    5
 10
-2871.2287699999988
 20
-1322.93148
 11
-2621.7823499999995
 21
-1073.48504
  0
LINE
  8
_0-3_躯体と製品
  6
CONTINUOUS
 62
    2
 10
-3008.6261700000014
 20
-761.98378000000002
 11
-2968.80807
 21
-765.79412000000002
  0
LINE
  8
_0-3_躯体と製品
  6
CONTINUOUS
 62
    2
 10
-2947.1761900000001
 20
-607.10344000000009
 11
-2947.1761900000001
 21
-623.10344000000009
  0
LINE
  8
_0-3_躯体と製品
  6
CONTINUOUS
 62
    2
 10
-2958.41903
 20
-631.41283999999905
 11
-2965.4317499999988
 21
-631.41283999999905
  0
LINE
  8
_0-3_躯体と製品
  6
CONTINUOUS
 62
    2
 10
-2984.6210100000008
 20
-511.12973999999895
 11
-2944.8029099999985
 21
-514.94007999999894
  0
LINE
  8
_0-3_躯体と製品
  6
CONTINUOUS
 62
    2
 10
-2955.176190000001
 20
-615.10344000000009
 11
-2939.1761899999983
 21
-615.10344000000009
  0
LINE
  8
_0-3_躯体と製品
  6
PLINE2
 62
    2
 10
-2958.8441300000013
 20
-601.0128400000001
 11
-2961.6039899999996
 21
-601.0128400000001
  0
LINE
  8
_0-3_躯体と製品
  6
CONTINUOUS
 62
    2
 10
-2956.364309999999
 20
-591.41283999999905
 11
-2961.6039899999996
 21
-591.41283999999905
  0
LINE
  8
_0-3_躯体と製品
  6
PLINE2
 62
    5
 10
-2571.046510000001
 20
-1022.7492
 11
-2246.9718500000008
 21
-698.67453999999998
  0
LINE
  8
_0-3_躯体と製品
  6
PLINE2
 62
    5
 10
-2521.3623300000017
 20
-1029.6335799999999
 11
-2252.9579300000023
 21
-761.22917999999913
  0
LINE
  8
_0-3_躯体と製品
  6
CONTINUOUS
 62
    4
 10
-2024.663569999997
 20
-1163.590979999999
 11
-2024.663569999997
 21
-1195.5909799999999
  0
LINE
  8
_0-3_躯体と製品
  6
CONTINUOUS
 62
    2
 10
-2316.0627899999999
 20
-608.34850000000006
 11
-2316.0627899999999
 21
-624.34850000000006
  0
LINE
  8
_0-3_躯体と製品
  6
CONTINUOUS
 62
    2
 10
-2324.0627899999981
 20
-616.34849999999915
 11
-2308.062789999999
 21
-616.34849999999915
  0
LINE
  8
_0-3_躯体と製品
  6
CONTINUOUS
 62
    4
 10
-2024.663569999997
 20
-882.36529999999902
 11
-2024.663569999997
 21
-914.36529999999993
  0
LINE
  8
_0-3_躯体と製品
  6
PLINE2
 62
    2
 10
-2153.7358899999981
 20
-601.0128400000001
 11
-2028.0754900000011
 21
-569.68218000000002
  0
LINE
  8
_0-3_躯体と製品
  6
CONTINUOUS
 62
    2
 10
-2150.0032300000012
 20
-631.41283999999905
 11
-2028.0754900000011
 21
-601.0128400000001
  0
LINE
  8
_0-3_躯体と製品
  6
CONTINUOUS
 62
    4
 10
-2147.3457899999994
 20
-600.07619999999997
 11
-2147.3457899999994
 21
-588.70122000000015
  0
LINE
  8
_0-3_躯体と製品
  6
CONTINUOUS
 62
    2
 10
-2119.0058499999986
 20
-570.0924
 11
-2109.3289700000014
 21
-608.90424000000007
  0
LINE
  8
_0-3_躯体と製品
  6
CONTINUOUS
 62
    2
 10
-2004.0554900000016
 20
-573.80770000000007
 11
-2004.0554900000016
 21
-589.80769999999893
  0
LINE
  8
_0-3_躯体と製品
  6
CONTINUOUS
 62
    2
 10
-2012.0554900000025
 20
-581.80770000000007
 11
-1996.0554899999988
 21
-581.80770000000007
  0
LINE
  8
_0-3_躯体と製品
  6
CONTINUOUS
 62
    2
 10
-2028.0754900000011
 20
-601.0128400000001
 11
-2028.0754900000011
 21
-561.0128400000001
  0
LINE
  8
_0-3_躯体と製品
  6
PLINE2
 62
    5
 10
-2901.0706900000014
 20
-277.97108000000037
 11
-2523.0267499999982
 21
100.07285999999954
  0
LINE
  8
_0-3_躯体と製品
  6
PLINE2
 62
    5
 10
-2907.0567900000015
 20
-340.52572000000009
 11
-2447.6695500000005
 21
118.86151999999976
  0
LINE
  8
_0-3_躯体と製品
  6
PLINE2
 62
    5
 10
-2913.0428699999993
 20
-403.08033999999907
 11
-2372.312350000002
 21
137.65017999999986
  0
LINE
  8
_0-3_躯体と製品
  6
PLINE2
 62
    5
 10
-2919.0289699999994
 20
-465.63498000000004
 11
-2296.9551300000012
 21
156.43884000000003
  0
LINE
  8
_0-3_躯体と製品
  6
PLINE2
 62
    5
 10
-2883.112430000001
 20
-90.307200000000307
 11
-2749.0983499999993
 21
43.706879999999614
  0
LINE
  8
_0-3_躯体と製品
  6
PLINE2
 62
    5
 10
-2889.0985099999998
 20
-152.86182000000008
 11
-2673.7411500000007
 21
62.495539999999892
  0
LINE
  8
_0-3_躯体と製品
  6
PLINE2
 62
    5
 10
-2895.084609999999
 20
-215.41645999999969
 11
-2598.3839500000022
 21
81.284199999999942
  0
LINE
  8
_0-3_躯体と製品
  6
CONTINUOUS
 62
    2
 10
-2960.6158300000016
 20
-260.27570000000048
 11
-2920.7977299999993
 21
-264.08604000000037
  0
LINE
  8
_0-3_躯体と製品
  6
CONTINUOUS
 62
    2
 10
-2937.4070299999994
 20
-9.3454400000002806
 11
-2897.5889300000017
 21
-13.155780000000277
  0
LINE
  8
_0-3_躯体と製品
  6
CONTINUOUS
 62
    4
 10
-2916.0081300000002
 20
12.716459999999643
 11
-2913.0083500000001
 21
44.064079999999876
  0
LINE
  8
_0-3_躯体と製品
  6
PLINE2
 62
    5
 10
-2877.1263300000001
 20
-27.752560000000244
 11
-2824.4555700000001
 21
24.918220000000019
  0
LINE
  8
_0-3_躯体と製品
  6
CONTINUOUS
 62
    2
 10
-2883.6881300000014
 20
62.092799999999784
 11
-2874.0112499999987
 21
23.28098
  0
LINE
  8
_0-3_躯体と製品
  6
CONTINUOUS
 62
    2
 10
-2662.6542299999983
 20
118.02724000000006
 11
-2652.9773699999987
 21
79.215399999999818
  0
LINE
  8
_0-3_躯体と製品
  6
CONTINUOUS
 62
    2
 10
-2445.3079900000012
 20
172.21774000000033
 11
-2435.6311099999994
 21
133.40591999999947
  0
LINE
  8
_0-3_躯体と製品
  6
CONTINUOUS
 62
    2
 10
-2316.6103299999986
 20
177.34660000000008
 11
-2316.6103299999986
 21
161.34659999999985
  0
LINE
  8
_0-3_躯体と製品
  6
CONTINUOUS
 62
    2
 10
-2324.6103300000013
 20
169.34659999999997
 11
-2308.6103300000013
 21
169.34659999999997
  0
LINE
  8
_0-4_図面枠
  6
CONTINUOUS
 62
    2
 10
-2224.581729999999
 20
214.55327999999946
 11
-2234.9344900000006
 21
253.19027999999935
  0
LINE
  8
_0-4_図面枠
  6
CONTINUOUS
 62
    2
 10
-2224.581729999999
 20
214.55327999999946
 11
-2252.8659899999993
 21
242.83751999999987
  0
LINE
  8
_0-3_躯体と製品
  6
CONTINUOUS
 62
    2
 10
-2227.9617499999995
 20
226.40824000000003
 11
-2218.2848699999977
 21
187.59641999999974
  0
LINE
  8
_0-3_躯体と製品
  6
CONTINUOUS
 62
    2
 10
-2010.6155099999987
 20
280.59874000000025
 11
-2000.9386300000006
 21
241.78691999999944
  0
LINE
  8
_0-4_図面枠
  6
CONTINUOUS
 62
    2
 10
-1744.5220900000004
 20
-1323.8018999999999
 11
-1733.1823500000028
 21
-1363.4429
  0
LINE
  8
_0-4_図面枠
  6
CONTINUOUS
 62
    2
 10
-1744.5220900000004
 20
-1323.8018999999999
 11
-1648.6304100000007
 21
-1489.8911600000001
  0
LINE
  8
_0-3_躯体と製品
  6
CONTINUOUS
 62
    4
 10
-1768.0726499999992
 20
-1294.8316
 11
-1768.0726499999992
 21
-1902.431939999999
  0
LINE
  8
_0-3_躯体と製品
  6
PLINE2
 62
    2
 10
-1757.6726499999995
 20
-1765.5478599999992
 11
-1757.6726499999995
 21
-601.0128400000001
  0
LINE
  8
_0-3_躯体と製品
  6
CONTINUOUS
 62
    2
 10
-1727.272649999999
 20
-1767.7705399999991
 11
-1727.272649999999
 21
-601.0128400000001
  0
LINE
  8
_0-3_躯体と製品
  6
CONTINUOUS
 62
    2
 10
-1767.2726500000008
 20
-1769.25234
 11
-1767.2726500000008
 21
-601.0128400000001
  0
LINE
  8
_0-3_躯体と製品
  6
PLINE2
 62
    2
 10
-967.27264999999898
 20
-1398.6836000000001
 11
301.80312999999933
 21
-1398.6836000000001
  0
LINE
  8
_0-3_躯体と製品
  6
PLINE2
 62
    2
 10
-967.27264999999898
 20
-1368.2836
 11
301.80312999999933
 21
-1368.2836
  0
LINE
  8
_0-3_躯体と製品
  6
PLINE2
 62
    2
 10
-967.27264999999898
 20
-1358.6836000000001
 11
301.80312999999933
 21
-1358.6836000000001
  0
TEXT
  8
_0-4_図面枠
 62
    7
 10
-1157.6421900000014
 20
-2326.8754600000002
 40
60
 41
0.8
 50
0
  1
ＳＣ２０００Ｈ
  0
TEXT
  8
_0-4_図面枠
 62
    7
 10
-1397.8846500000018
 20
-1477.8862399999989
 40
60
 41
0.7999999999999993
 50
0
  1
ＳＷ．Ｎ
  0
LINE
  8
_0-3_躯体と製品
  6
CONTINUOUS
 62
    2
 10
-967.27264999999898
 20
-1742.2719399999992
 11
-1727.272649999999
 21
-1894.2719400000001
  0
TEXT
  8
_0-4_図面枠
 62
    7
 10
-1609.4546300000002
 20
-2033.4245000000001
 40
60
 41
0.7999999999999999
 50
0
  1
パッキン使用
  0
LINE
  8
_0-4_図面枠
  6
CONTINUOUS
 62
    2
 10
-1609.4547500000008
 20
-2049.4250999999999
 11
-1361.7747499999996
 21
-2049.4250999999999
  0
LINE
  8
_0-4_図面枠
  6
CONTINUOUS
 62
    2
 10
-1648.6304100000007
 20
-1489.8911600000001
 11
-1249.1019100000003
 21
-1489.8911600000001
  0
LINE
  8
_0-3_躯体と製品
  6
PLINE2
 62
    2
 10
-1757.6726499999995
 20
-2112.79576
 11
-1757.6726499999995
 21
-1766.6592000000001
  0
LINE
  8
_0-3_躯体と製品
  6
CONTINUOUS
 62
    2
 10
-1727.272649999999
 20
-2112.79576
 11
-1727.272649999999
 21
-1768.2336
  0
LINE
  8
_0-3_躯体と製品
  6
CONTINUOUS
 62
    2
 10
-1767.2726500000008
 20
-2112.79576
 11
-1767.2726500000008
 21
-1769.7154
  0
LINE
  8
_0-3_躯体と製品
  6
CONTINUOUS
 62
    4
 10
-1924.7126500000013
 20
-1766.2719399999992
 11
-1924.7126500000013
 21
-1782.2719399999992
  0
LINE
  8
_0-3_躯体と製品
  6
CONTINUOUS
 62
    2
 10
-1783.272649999999
 20
-1862.2719399999992
 11
-1783.272649999999
 21
-1391.45508
  0
LINE
  8
_0-3_躯体と製品
  6
CONTINUOUS
 62
    4
 10
-1927.272649999999
 20
-1782.2719399999992
 11
-1927.272649999999
 21
-1721.8945799999992
  0
LINE
  8
_0-4_図面枠
  6
CONTINUOUS
 62
    2
 10
-1762.1544099999983
 20
-1814.73092
 11
-1609.4547500000008
 21
-2049.4250999999999
  0
LINE
  8
_0-3_躯体と製品
  6
CONTINUOUS
 62
    4
 10
-1924.7126500000013
 20
-1782.2719399999992
 11
-1927.272649999999
 21
-1782.2719399999992
  0
LINE
  8
_0-4_図面枠
  6
CONTINUOUS
 62
    2
 10
-1762.1544099999983
 20
-1814.73092
 11
-1749.7609900000007
 21
-1852.7624999999998
  0
LINE
  8
_0-4_図面枠
  6
CONTINUOUS
 62
    2
 10
-1762.1544099999983
 20
-1814.73092
 11
-1732.4056100000007
 21
-1841.4705199999999
  0
LINE
  8
_0-3_躯体と製品
  6
CONTINUOUS
 62
    2
 10
-1796.5000499999996
 20
-1802.6835999999989
 11
-1756.5000499999996
 21
-1802.6835999999989
  0
LINE
  8
_0-3_躯体と製品
  6
CONTINUOUS
 62
    2
 10
-1796.8726499999993
 20
-1842.6835999999989
 11
-1756.8726500000002
 21
-1842.6835999999989
  0
LINE
  8
_0-3_躯体と製品
  6
CONTINUOUS
 62
    2
 10
-1767.2726500000008
 20
-1862.2719399999992
 11
-1783.272649999999
 21
-1862.2719399999992
  0
TEXT
  8
_0-4_図面枠
 62
    7
 10
-1682.3820299999979
 20
-1690.9990399999992
 40
60
 41
0.8000000000000006
 50
0
  1
支柱
  0
LINE
  8
_0-4_図面枠
  6
CONTINUOUS
 62
    2
 10
-1682.381690000002
 20
-1706.9994000000002
 11
-1562.4650100000017
 21
-1706.9994000000002
  0
LINE
  8
_0-3_躯体と製品
  6
PLINE2
 62
    5
 10
-1967.6819299999997
 20
-1663.8925600000002
 11
-1783.272649999999
 21
-1479.4832799999999
  0
LINE
  8
_0-3_躯体と製品
  6
PLINE2
 62
    5
 10
-1926.611609999999
 20
-1679.3907800000002
 11
-1783.272649999999
 21
-1536.0518200000001
  0
LINE
  8
_0-3_躯体と製品
  6
CONTINUOUS
 62
    2
 10
-1783.272649999999
 20
-1776.2341999999999
 11
-1927.3359900000023
 21
-1721.87066
  0
LINE
  8
_0-3_躯体と製品
  6
PLINE2
 62
    5
 10
-1885.541290000001
 20
-1694.8890199999992
 11
-1783.272649999999
 21
-1592.6203599999999
  0
LINE
  8
_0-3_躯体と製品
  6
PLINE2
 62
    5
 10
-1844.4709900000007
 20
-1710.3872400000009
 11
-1783.272649999999
 21
-1649.1889000000001
  0
LINE
  8
_0-3_躯体と製品
  6
CONTINUOUS
 62
    2
 10
-1942.9676299999983
 20
-1694.5953199999999
 11
-1957.0899099999997
 21
-1732.0194000000001
  0
LINE
  8
_0-4_図面枠
  6
CONTINUOUS
 62
    2
 10
-1743.7097700000004
 20
-1600.7760600000001
 11
-1682.381690000002
 21
-1706.9994000000002
  0
LINE
  8
_0-3_躯体と製品
  6
CONTINUOUS
 62
    2
 10
-1783.272649999999
 20
-1733.4809599999999
 11
-1768.0726499999992
 21
-1733.4809599999999
  0
LINE
  8
_0-3_躯体と製品
  6
PLINE2
 62
    5
 10
-1803.40067
 20
-1725.885479999999
 11
-1783.272649999999
 21
-1705.7574399999999
  0
LINE
  8
_0-3_躯体と製品
  6
CONTINUOUS
 62
    2
 10
-1787.2726500000008
 20
-1570.6835999999998
 11
-1747.272649999999
 21
-1570.6835999999998
  0
LINE
  8
_0-4_図面枠
  6
CONTINUOUS
 62
    2
 10
-1743.7097700000004
 20
-1600.7760600000001
 11
-1733.3570300000019
 21
-1639.4130599999989
  0
LINE
  8
_0-4_図面枠
  6
CONTINUOUS
 62
    2
 10
-1743.7097700000004
 20
-1600.7760600000001
 11
-1715.4255300000023
 21
-1629.0603000000001
  0
TEXT
  8
_0-4_図面枠
 62
    7
 10
-1648.6302100000003
 20
-1473.8908799999999
 40
60
 41
0.8000000000000001
 50
0
  1
六角ボルト
  0
LINE
  8
_0-3_躯体と製品
  6
CONTINUOUS
 62
    2
 10
-967.56871000000046
 20
-1385.78178
 11
-959.27264999999716
 21
-1385.78178
  0
LINE
  8
_0-3_躯体と製品
  6
CONTINUOUS
 62
    2
 10
-818.32083000000148
 20
-1378.0542199999991
 11
-818.32083000000148
 21
-1394.0542199999991
  0
LINE
  8
_0-3_躯体と製品
  6
CONTINUOUS
 62
    2
 10
-826.32083000000057
 20
-1386.05422
 11
-810.32083000000057
 21
-1386.05422
  0
LINE
  8
_0-3_躯体と製品
  6
PLINE2
 62
    2
 10
-207.27264999999898
 20
-1893.5459000000001
 11
-207.27264999999898
 21
-1593.8535200000001
  0
LINE
  8
_0-3_躯体と製品
  6
PLINE2
 62
    2
 10
-167.27264999999898
 20
-1901.7542200000003
 11
-167.27264999999898
 21
-1593.8535200000001
  0
LINE
  8
_0-3_躯体と製品
  6
PLINE2
 62
    2
 10
-176.87264999999934
 20
-2112.79576
 11
-176.87264999999934
 21
-1593.8535200000001
  0
LINE
  8
_0-3_躯体と製品
  6
CONTINUOUS
 62
    2
 10
-207.27264999999898
 20
-2112.79576
 11
-207.27264999999898
 21
-1893.934459999999
  0
LINE
  8
_0-3_躯体と製品
  6
CONTINUOUS
 62
    2
 10
-167.27264999999898
 20
-2112.79576
 11
-167.27264999999898
 21
-1902.2884800000002
  0
LINE
  8
_0-3_躯体と製品
  6
CONTINUOUS
 62
    2
 10
-688.13266999999996
 20
-1388.0097000000001
 11
-672.13266999999996
 21
-1388.0097000000001
  0
LINE
  8
_0-3_躯体と製品
  6
CONTINUOUS
 62
    2
 10
-680.13266999999723
 20
-1380.0097000000001
 11
-680.13266999999723
 21
-1396.0097000000001
  0
LINE
  8
_0-3_躯体と製品
  6
CONTINUOUS
 62
    2
 10
-538.68535000000065
 20
-1380.6615400000001
 11
-538.68535000000065
 21
-1396.6615400000001
  0
LINE
  8
_0-3_躯体と製品
  6
CONTINUOUS
 62
    2
 10
-546.68534999999883
 20
-1388.6615400000001
 11
-530.68534999999883
 21
-1388.6615400000001
  0
LINE
  8
_0-3_躯体と製品
  6
CONTINUOUS
 62
    2
 10
-364.64646999999877
 20
-1378.0542199999991
 11
-364.64646999999877
 21
-1394.0542199999991
  0
LINE
  8
_0-3_躯体と製品
  6
CONTINUOUS
 62
    2
 10
-372.64646999999968
 20
-1386.05422
 11
-356.64647000000059
 21
-1386.05422
  0
LINE
  8
_0-3_躯体と製品
  6
CONTINUOUS
 62
    2
 10
12.727349999999205
 20
-1938.2719400000001
 11
12.727349999999205
 21
-1735.7240200000001
  0
LINE
  8
_0-3_躯体と製品
  6
PLINE2
 62
    2
 10
-967.27264999999898
 20
-336.52497999999991
 11
215.45795000000089
 21
-631.41283999999905
  0
LINE
  8
_0-3_躯体と製品
  6
PLINE2
 62
    2
 10
-967.27264999999898
 20
-295.30044000000044
 11
220.36932999999863
 21
-591.41283999999905
  0
LINE
  8
_0-3_躯体と製品
  6
PLINE2
 62
    2
 10
-967.27264999999898
 20
-305.19432000000006
 11
219.19058999999743
 21
-601.0128400000001
  0
LINE
  8
_0-4_図面枠
  6
CONTINUOUS
 62
    2
 10
-849.80400999999802
 20
-335.85225999999989
 11
-728.45691000000079
 21
-125.67290000000014
  0
LINE
  8
_0-3_躯体と製品
  6
CONTINUOUS
 62
    2
 10
-1789.1052900000022
 20
-487.83895999999913
 11
-1779.4284299999981
 21
-526.65080000000012
  0
LINE
  8
_0-3_躯体と製品
  6
CONTINUOUS
 62
    2
 10
-1746.2011100000018
 20
-509.83796000000007
 11
-1746.2011100000018
 21
-525.83795999999916
  0
LINE
  8
_0-3_躯体と製品
  6
CONTINUOUS
 62
    2
 10
-1727.272649999999
 20
-561.0128400000001
 11
-1727.272649999999
 21
-494.68360000000007
  0
LINE
  8
_0-3_躯体と製品
  6
CONTINUOUS
 62
    2
 10
-1767.2726500000008
 20
-561.0128400000001
 11
-1767.2726500000008
 21
-504.65671999999904
  0
LINE
  8
_0-3_躯体と製品
  6
CONTINUOUS
 62
    2
 10
-967.27264999999898
 20
-336.52497999999991
 11
-1727.272649999999
 21
-526.01426000000015
  0
LINE
  8
_0-3_躯体と製品
  6
PLINE2
 62
    2
 10
-967.27264999999898
 20
-1304.2835999999998
 11
-1757.6726499999995
 21
-1304.2835999999998
  0
LINE
  8
_0-3_躯体と製品
  6
CONTINUOUS
 62
    2
 10
-967.27264999999898
 20
-1334.6836000000001
 11
-1738.3447699999997
 21
-1334.6836000000001
  0
LINE
  8
_0-3_躯体と製品
  6
CONTINUOUS
 62
    2
 10
-967.27264999999898
 20
-1294.6836000000001
 11
-1757.6726499999995
 21
-1294.6836000000001
  0
LINE
  8
_0-3_躯体と製品
  6
CONTINUOUS
 62
    4
 10
-1779.5293499999971
 20
-925.89894000000004
 11
-1779.5293499999971
 21
-957.89894000000004
  0
LINE
  8
_0-3_躯体と製品
  6
CONTINUOUS
 62
    2
 10
-1772.0726500000001
 20
-931.96893999999998
 11
-1772.0726500000001
 21
-953.73065999999903
  0
LINE
  8
_0-3_躯体と製品
  6
CONTINUOUS
 62
    2
 10
-1788.0726499999992
 20
-1342.6835999999989
 11
-1748.0726499999992
 21
-1342.6835999999989
  0
LINE
  8
_0-3_躯体と製品
  6
CONTINUOUS
 62
    2
 10
-1748.0852700000014
 20
-1334.6836000000001
 11
-1757.6726499999995
 21
-1334.6836000000001
  0
LINE
  8
_0-3_躯体と製品
  6
CONTINUOUS
 62
    4
 10
-1799.5387100000016
 20
-1300.6528200000012
 11
-1768.0726499999992
 21
-1294.8316
  0
LINE
  8
_0-4_図面枠
  6
CONTINUOUS
 62
    2
 10
-1744.5220900000004
 20
-1323.8018999999999
 11
-1715.8618299999998
 21
-1353.4429
  0
LINE
  8
_0-3_躯体と製品
  6
CONTINUOUS
 62
    2
 10
-1741.5690099999983
 20
-1312.8873000000001
 11
-1741.5690099999983
 21
-1328.887299999999
  0
LINE
  8
_0-3_躯体と製品
  6
CONTINUOUS
 62
    2
 10
-1749.5690100000002
 20
-1320.8873000000001
 11
-1733.5690100000011
 21
-1320.8873000000001
  0
LINE
  8
_0-3_躯体と製品
  6
CONTINUOUS
 62
    2
 10
-1787.2726500000008
 20
-1172.6254199999989
 11
-1747.272649999999
 21
-1172.6254199999989
  0
LINE
  8
_0-3_躯体と製品
  6
CONTINUOUS
 62
    2
 10
-1772.0726500000001
 20
-1187.395019999999
 11
-1772.0726500000001
 21
-1174.59502
  0
LINE
  8
_0-3_躯体と製品
  6
CONTINUOUS
 62
    2
 10
-1767.2726500000008
 20
-1187.395019999999
 11
-1772.0726500000001
 21
-1187.395019999999
  0
LINE
  8
_0-3_躯体と製品
  6
CONTINUOUS
 62
    2
 10
-1772.0726500000001
 20
-1174.59502
 11
-1772.0726500000001
 21
-1155.3950199999999
  0
LINE
  8
_0-3_躯体と製品
  6
CONTINUOUS
 62
    2
 10
-1772.0726500000001
 20
-1150.59502
 11
-1767.2726500000008
 21
-1150.59502
  0
LINE
  8
_0-3_躯体と製品
  6
CONTINUOUS
 62
    2
 10
-1836.2696499999993
 20
-989.84480000000008
 11
-1820.8427500000025
 21
-1008.229879999999
  0
LINE
  8
_0-3_躯体と製品
  6
CONTINUOUS
 62
    2
 10
-1928.1949900000027
 20
-1066.979319999999
 11
-1912.7680899999996
 21
-1085.36438
  0
LINE
  8
_0-3_躯体と製品
  6
CONTINUOUS
 62
    2
 10
-1842.3980100000017
 20
-713.76143999999999
 11
-1826.9711099999995
 21
-732.14649999999915
  0
LINE
  8
_0-3_躯体と製品
  6
CONTINUOUS
 62
    2
 10
-1934.323330000002
 20
-790.89595999999915
 11
-1918.8964299999998
 21
-809.28102000000013
  0
LINE
  8
_0-3_躯体と製品
  6
CONTINUOUS
 62
    2
 10
-1787.2726500000008
 20
-915.96245999999996
 11
-1747.272649999999
 21
-915.96245999999996
  0
LINE
  8
_0-3_躯体と製品
  6
CONTINUOUS
 62
    2
 10
-1772.0726500000001
 20
-893.36933999999997
 11
-1772.0726500000001
 21
-874.16934000000015
  0
LINE
  8
_0-3_躯体と製品
  6
CONTINUOUS
 62
    2
 10
-1772.0726500000001
 20
-869.36933999999997
 11
-1767.2726500000008
 21
-869.36933999999997
  0
LINE
  8
_0-3_躯体と製品
  6
CONTINUOUS
 62
    2
 10
-1772.0726500000001
 20
-893.36933999999997
 11
-1772.0726500000001
 21
-931.96893999999998
  0
LINE
  8
_0-3_躯体と製品
  6
CONTINUOUS
 62
    2
 10
-1767.2726500000008
 20
-535.98737999999912
 11
-1867.6442499999985
 21
-561.0128400000001
  0
LINE
  8
_0-3_躯体と製品
  6
CONTINUOUS
 62
    2
 10
-1787.2726500000008
 20
-654.52753999999914
 11
-1747.272649999999
 21
-654.52753999999914
  0
LINE
  8
_0-3_躯体と製品
  6
CONTINUOUS
 62
    4
 10
-1779.5293499999971
 20
-644.67326000000003
 11
-1779.5293499999971
 21
-676.67326000000003
  0
LINE
  8
_0-3_躯体と製品
  6
CONTINUOUS
 62
    2
 10
-1772.0726500000001
 20
-650.74325999999996
 11
-1772.0726500000001
 21
-672.50500000000011
  0
LINE
  8
_0-3_躯体と製品
  6
CONTINUOUS
 62
    2
 10
-1772.0726500000001
 20
-640.50500000000011
 11
-1772.0726500000001
 21
-650.74325999999996
  0
LINE
  8
_0-3_躯体と製品
  6
CONTINUOUS
 62
    2
 10
-1767.2726500000008
 20
-640.50500000000011
 11
-1772.0726500000001
 21
-640.50500000000011
  0
LINE
  8
_0-3_躯体と製品
  6
CONTINUOUS
 62
    2
 10
-1754.2011099999991
 20
-517.83795999999916
 11
-1738.20111
 21
-517.83795999999916
  0
LINE
  8
_0-3_躯体と製品
  6
CONTINUOUS
 62
    2
 10
-1754.2011099999991
 20
-582.32238000000007
 11
-1738.20111
 21
-582.32238000000007
  0
LINE
  8
_0-3_躯体と製品
  6
PLINE2
 62
    2
 10
-1767.2726500000008
 20
-541.81806000000006
 11
-1757.6726499999995
 21
-541.81806000000006
  0
LINE
  8
_0-3_躯体と製品
  6
PLINE2
 62
    2
 10
-1757.6726499999995
 20
-561.0128400000001
 11
-1757.6726499999995
 21
-541.81806000000006
  0
LINE
  8
_0-3_躯体と製品
  6
CONTINUOUS
 62
    2
 10
-1746.2011100000018
 20
-574.32238000000007
 11
-1746.2011100000018
 21
-590.32238000000007
  0
LINE
  8
_0-3_躯体と製品
  6
CONTINUOUS
 62
    2
 10
-967.27264999999898
 20
320.12806000000006
 11
-1726.411689999999
 21
320.12806000000006
  0
LINE
  8
_0-3_躯体と製品
  6
CONTINUOUS
 62
    2
 10
-1727.590409999998
 20
329.72805999999986
 11
-967.27264999999898
 21
329.72805999999986
  0
LINE
  8
_0-3_躯体と製品
  6
CONTINUOUS
 62
    2
 10
-1455.3235699999996
 20
-404.61784
 11
-1445.6466899999996
 21
-443.4296599999991
  0
LINE
  8
_0-3_躯体と製品
  6
CONTINUOUS
 62
    2
 10
-1809.9026099999992
 20
299.31143999999955
 11
-1829.4434899999987
 21
294.43935999999945
  0
LINE
  8
_0-3_躯体と製品
  6
CONTINUOUS
 62
    2
 10
-1840.2514100000017
 20
291.74463999999995
 11
-1842.5738499999979
 21
301.05948000000006
  0
LINE
  8
_0-3_躯体と製品
  6
CONTINUOUS
 62
    2
 10
-1831.8329899999972
 20
293.84358000000014
 11
-1840.2514100000017
 21
291.74463999999995
  0
LINE
  8
_0-3_躯体と製品
  6
CONTINUOUS
 62
    2
 10
-1726.411689999999
 20
320.12806000000006
 11
-1777.1859700000005
 21
307.46862000000016
  0
LINE
  8
_0-3_躯体と製品
  6
CONTINUOUS
 62
    2
 10
-1764.9501899999996
 20
320.41322000000036
 11
-1727.590409999998
 21
329.72805999999986
  0
LINE
  8
_0-3_躯体と製品
  6
CONTINUOUS
 62
    2
 10
-1767.2726500000008
 20
329.72805999999986
 11
-1757.5957699999981
 21
290.91624000000013
  0
LINE
  8
_0-3_躯体と製品
  6
CONTINUOUS
 62
    2
 10
-1793.0757300000005
 20
334.01301999999987
 11
-1783.3988499999996
 21
295.20118000000014
  0
LINE
  8
_0-3_躯体と製品
  6
CONTINUOUS
 62
    2
 10
-1781.1163299999998
 20
306.48865999999987
 11
-1807.1337099999982
 21
300.00179999999938
  0
LINE
  8
_0-3_躯体と製品
  6
CONTINUOUS
 62
    2
 10
-1126.1932500000012
 20
-322.55642000000023
 11
-1116.5163699999994
 21
-361.36825999999985
  0
LINE
  8
_0-4_図面枠
  6
CONTINUOUS
 62
    2
 10
-849.80400999999802
 20
-335.85225999999989
 11
-839.45126999999957
 21
-297.21523999999988
  0
LINE
  8
_0-3_躯体と製品
  6
CONTINUOUS
 62
    2
 10
-967.27264999999898
 20
-323.25174000000004
 11
-959.27264999999716
 21
-323.25174000000004
  0
LINE
  8
_0-4_図面枠
  6
CONTINUOUS
 62
    2
 10
-849.80400999999802
 20
-335.85225999999989
 11
-821.51977000000079
 21
-307.56799999999942
  0
LINE
  8
_0-3_躯体と製品
  6
CONTINUOUS
 62
    2
 10
-882.4036900000001
 20
-335.47558000000049
 11
-886.2744500000008
 21
-351.00030000000015
  0
LINE
  8
_0-3_躯体と製品
  6
CONTINUOUS
 62
    2
 10
-892.1014299999988
 20
-341.30255999999974
 11
-876.57670999999937
 21
-345.17331999999965
  0
LINE
  8
_0-3_躯体と製品
  6
CONTINUOUS
 62
    2
 10
-792.66497000000163
 20
-357.84996000000046
 11
-796.53570999999738
 21
-373.37468000000001
  0
LINE
  8
_0-3_躯体と製品
  6
CONTINUOUS
 62
    2
 10
-802.3627099999967
 20
-363.67693999999983
 11
-786.83797000000231
 21
-367.54770000000076
  0
LINE
  8
_0-3_躯体と製品
  6
CONTINUOUS
 62
    4
 10
-968.07264999999825
 20
-294.67540000000054
 11
-968.07264999999825
 21
-278.6754000000002
  0
TEXT
  8
_0-4_図面枠
 62
    7
 10
-728.45701000000281
 20
-109.67266000000052
 40
60
 41
0.8
 50
0
  1
妻板補強
  0
LINE
  8
_0-3_躯体と製品
  6
CONTINUOUS
 62
    2
 10
-448.02862999999797
 20
-445.30536000000006
 11
-451.899370000001
 21
-460.83007999999995
  0
LINE
  8
_0-3_躯体と製品
  6
CONTINUOUS
 62
    2
 10
-457.72637000000032
 20
-451.13233999999898
 11
-442.20162999999957
 21
-455.00309999999899
  0
LINE
  8
_0-3_躯体と製品
  6
CONTINUOUS
 62
    2
 10
-628.98298999999952
 20
-400.18835999999999
 11
-632.85373000000254
 21
-415.71309999999903
  0
LINE
  8
_0-3_躯体と製品
  6
CONTINUOUS
 62
    2
 10
-638.68073000000095
 20
-406.01535999999919
 11
-623.1559900000002
 21
-409.88610000000017
  0
LINE
  8
_0-3_躯体と製品
  6
CONTINUOUS
 62
    2
 10
-701.44932999999946
 20
-380.59256000000073
 11
-705.32009000000016
 21
-396.11730000000023
  0
LINE
  8
_0-3_躯体と製品
  6
CONTINUOUS
 62
    2
 10
-711.1470700000018
 20
-386.41956000000005
 11
-695.62234999999964
 21
-390.29029999999989
  0
LINE
  8
_0-3_躯体と製品
  6
CONTINUOUS
 62
    2
 10
-539.24425000000156
 20
-422.56274000000008
 11
-543.11501000000044
 21
-438.087479999999
  0
LINE
  8
_0-3_躯体と製品
  6
CONTINUOUS
 62
    2
 10
-548.94198999999844
 20
-428.38972000000012
 11
-533.41726999999901
 21
-432.26048000000014
  0
LINE
  8
_0-4_図面枠
  6
CONTINUOUS
 62
    2
 10
-728.45691000000079
 20
-125.67290000000014
 11
-508.97213000000284
 21
-125.67290000000014
  0
LINE
  8
_0-4_図面枠
  6
CONTINUOUS
 62
    2
 10
-16.71545000000151
 20
297.06470000000013
 11
11.568790000001172
 21
325.34894000000008
  0
LINE
  8
_0-3_躯体と製品
  6
CONTINUOUS
 62
    2
 10
-4.8356499999990774
 20
293.21541999999954
 11
-8.7064099999997779
 21
277.69069999999988
  0
LINE
  8
_0-3_躯体と製品
  6
CONTINUOUS
 62
    2
 10
-14.533390000001418
 20
287.38843999999966
 11
0.9913300000025628
 21
283.51767999999987
  0
LINE
  8
_0-4_図面枠
  6
CONTINUOUS
 62
    2
 10
-16.71545000000151
 20
297.06470000000013
 11
-6.3627099999994243
 21
335.70170000000013
  0
LINE
  8
_0-3_躯体と製品
  6
CONTINUOUS
 62
    2
 10
75.205329999998867
 20
265.01405999999963
 11
90.730069999999614
 21
261.14329999999984
  0
LINE
  8
_0-3_躯体と製品
  6
CONTINUOUS
 62
    2
 10
84.903070000000298
 20
270.84103999999957
 11
81.032329999997273
 21
255.31631999999934
  0
LINE
  8
_0-3_躯体と製品
  6
CONTINUOUS
 62
    2
 10
176.11871000000065
 20
248.09843999999998
 11
172.24795000000086
 21
232.57369999999975
  0
LINE
  8
_0-3_躯体と製品
  6
CONTINUOUS
 62
    2
 10
166.42096999999831
 20
242.27144000000004
 11
181.94569000000229
 21
238.40070000000014
  0
LINE
  8
_0-3_躯体と製品
  6
PLINE5
 62
    3
 10
-2295.0326899999982
 20
1523.4211799999998
 11
-1672.1523900000011
 21
1288.3720199999998
  0
LINE
  8
_0-3_躯体と製品
  6
CONTINUOUS
 62
    3
 10
-2256.7590299999983
 20
1546.60114
 11
-1672.1523900000011
 21
1325.9948599999993
  0
LINE
  8
_0-3_躯体と製品
  6
CONTINUOUS
 62
    4
 10
-1744.2936099999997
 20
1310.0371999999998
 11
-2300.2936099999997
 21
1519.8485199999998
  0
LINE
  8
_0-3_躯体と製品
  6
CONTINUOUS
 62
    4
 10
-1744.1523899999984
 20
1310.4114399999996
 11
-2300.1523899999984
 21
1520.2227599999997
  0
LINE
  8
_0-3_躯体と製品
  6
PLINE2
 62
    3
 10
-1664.5523899999998
 20
1159.0587199999998
 11
-2117.8999299999996
 21
1023.0544599999994
  0
LINE
  8
_0-3_躯体と製品
  6
CONTINUOUS
 62
    4
 10
-2240.0943899999993
 20
2193.2014399999998
 11
-1664.229089999998
 21
2336.78078
  0
LINE
  8
_0-3_躯体と製品
  6
PLINE5
 62
    3
 10
-2232.7918700000018
 20
2189.6629599999997
 11
-1662.9711099999986
 21
2331.7352399999991
  0
LINE
  8
_0-3_躯体と製品
  6
CONTINUOUS
 62
    4
 10
-2239.7225100000014
 20
2192.8818999999999
 11
-1664.1323300000022
 21
2336.39266
  0
LINE
  8
_0-3_躯体と製品
  6
CONTINUOUS
 62
    3
 10
-2200.065410000002
 20
2161.5449800000001
 11
-1664.1323300000022
 21
2295.1681200000003
  0
LINE
  8
_0-3_躯体と製品
  6
PLINE5
 62
    3
 10
-2262.6658099999986
 20
1869.88462
 11
-1881.8146900000011
 21
1869.88462
  0
LINE
  8
_0-3_躯体と製品
  6
PLINE5
 62
    3
 10
-2265.9542300000012
 20
1834.6846199999989
 11
-1885.1030900000023
 21
1834.6846199999989
  0
LINE
  8
_0-3_躯体と製品
  6
PLINE5
 62
    3
 10
-2262.2173900000007
 20
1874.6846199999989
 11
-1881.3662699999986
 21
1874.6846199999989
  0
LINE
  8
_0-3_躯体と製品
  6
PLINE2
 62
    5
 10
-2217.6506900000004
 20
1973.3076599999999
 11
-1972.7330299999994
 21
2218.22532
  0
LINE
  8
_0-3_躯体と製品
  6
PLINE2
 62
    5
 10
-2220.5653100000027
 20
1942.1087600000001
 11
-1935.0544299999992
 21
2227.619639999999
  0
LINE
  8
_0-3_躯体と製品
  6
PLINE2
 62
    5
 10
-2223.4799299999986
 20
1910.909879999999
 11
-1897.37583
 21
2237.0139799999997
  0
LINE
  8
_0-3_躯体と製品
  6
PLINE2
 62
    5
 10
-2226.3945499999991
 20
1879.7109799999998
 11
-1859.6972300000016
 21
2246.4083000000001
  0
LINE
  8
_0-3_躯体と製品
  6
PLINE2
 62
    5
 10
-2229.309189999999
 20
1848.51208
 11
-1848.2086100000015
 21
2229.6126399999989
  0
LINE
  8
_0-3_躯体と製品
  6
PLINE2
 62
    5
 10
-2232.2238100000004
 20
1817.3131800000001
 11
-1851.1232299999974
 21
2198.413759999999
  0
LINE
  8
_0-3_躯体と製品
  6
PLINE2
 62
    5
 10
-2235.1384300000018
 20
1786.1142799999989
 11
-1854.037870000001
 21
2167.21486
  0
LINE
  8
_0-3_躯体と製品
  6
PLINE2
 62
    5
 10
-2238.0530499999986
 20
1754.915379999999
 11
-1856.9524899999997
 21
2136.0159599999988
  0
LINE
  8
_0-3_躯体と製品
  6
PLINE2
 62
    5
 10
-2240.9676900000022
 20
1723.7164999999989
 11
-1859.8671100000001
 21
2104.8170599999989
  0
LINE
  8
_0-3_躯体と製品
  6
PLINE2
 62
    5
 10
-2243.8823099999981
 20
1692.5176000000001
 11
-1862.7817300000015
 21
2073.6181599999986
  0
LINE
  8
_0-3_躯体と製品
  6
PLINE2
 62
    5
 10
-2246.7969300000013
 20
1661.3186999999989
 11
-1865.6963700000006
 21
2042.4192799999998
  0
LINE
  8
_0-3_躯体と製品
  6
PLINE2
 62
    5
 10
-2249.7115500000027
 20
1630.119799999999
 11
-1868.6109900000019
 21
2011.2203799999991
  0
LINE
  8
_0-3_躯体と製品
  6
PLINE2
 62
    5
 10
-2252.62619
 20
1598.9208999999996
 11
-1871.5256099999988
 21
1980.0214799999999
  0
LINE
  8
_0-3_躯体と製品
  6
PLINE2
 62
    5
 10
-2255.5408100000013
 20
1567.722
 11
-1915.317329999998
 21
1907.9455
  0
LINE
  8
_0-3_躯体と製品
  6
PLINE2
 62
    5
 10
-2250.6737500000008
 20
1544.3047999999997
 11
-1910.6681900000012
 21
1884.3103599999999
  0
LINE
  8
_0-3_躯体と製品
  6
PLINE2
 62
    5
 10
-2127.4628100000027
 20
1497.8100999999997
 11
-1894.8426100000006
 21
1730.4302999999989
  0
LINE
  8
_0-3_躯体と製品
  6
PLINE2
 62
    5
 10
-2106.9276499999987
 20
1490.0609999999999
 11
-1897.757230000002
 21
1699.2314000000001
  0
LINE
  8
_0-3_躯体と製品
  6
PLINE2
 62
    5
 10
-2086.3924899999984
 20
1482.3118799999993
 11
-1900.671870000001
 21
1668.0325199999991
  0
LINE
  8
_0-3_躯体と製品
  6
PLINE2
 62
    5
 10
-2065.8573500000002
 20
1474.5627599999993
 11
-1903.586489999997
 21
1636.833619999999
  0
LINE
  8
_0-3_躯体と製品
  6
PLINE2
 62
    5
 10
-2045.3221900000017
 20
1466.8136399999994
 11
-1906.5011099999992
 21
1605.6347199999991
  0
LINE
  8
_0-3_躯体と製品
  6
PLINE2
 62
    5
 10
-2024.7870300000022
 20
1459.0645399999999
 11
-1909.4157300000006
 21
1574.4358199999999
  0
LINE
  8
_0-3_躯体と製品
  6
PLINE2
 62
    5
 10
-2004.2518699999982
 20
1451.3154199999994
 11
-1898.7158099999988
 21
1556.8514799999998
  0
LINE
  8
_0-3_躯体と製品
  6
PLINE2
 62
    5
 10
-1983.7167099999988
 20
1443.5662999999997
 11
-1878.1806499999993
 21
1549.1023599999999
  0
LINE
  8
_0-3_躯体と製品
  6
PLINE2
 62
    5
 10
-1912.5705299999981
 20
1854.1237399999991
 11
-2230.1385900000014
 21
1536.5556799999999
  0
LINE
  8
_0-3_躯体と製品
  6
PLINE2
 62
    5
 10
-1906.8517699999984
 20
1831.5582400000001
 11
-2209.6034300000028
 21
1528.8065799999997
  0
LINE
  8
_0-3_躯体と製品
  6
PLINE2
 62
    5
 10
-1886.0987299999997
 20
1824.0269999999987
 11
-2189.068269999997
 21
1521.05746
  0
LINE
  8
_0-3_躯体と製品
  6
PLINE2
 62
    5
 10
-1889.0133700000033
 20
1792.828099999999
 11
-2168.5331300000007
 21
1513.3083399999996
  0
LINE
  8
_0-3_躯体と製品
  6
PLINE2
 62
    5
 10
-1891.9279899999992
 20
1761.6291999999989
 11
-2147.9979700000013
 21
1505.5592199999999
  0
LINE
  8
_0-3_躯体と製品
  6
CONTINUOUS
 62
    4
 10
-2237.2545699999991
 20
2193.4972399999997
 11
-2300.399309999998
 21
1517.5797199999997
  0
LINE
  8
_0-3_躯体と製品
  6
CONTINUOUS
 62
    4
 10
-2237.6528300000018
 20
2193.5344399999999
 11
-2300.8259499999995
 21
1517.3131800000001
  0
LINE
  8
_0-3_躯体と製品
  6
PLINE5
 62
    3
 10
-2232.7918700000018
 20
2189.6629599999997
 11
-2295.0326899999982
 21
1523.4211799999998
  0
LINE
  8
_0-3_躯体と製品
  6
PLINE2
 62
    5
 10
-2214.7360500000013
 20
2004.5065599999989
 11
-2010.4116299999996
 21
2208.8309799999997
  0
LINE
  8
_0-3_躯体と製品
  6
CONTINUOUS
 62
    3
 10
-2200.065410000002
 20
2161.5449800000001
 11
-2257.4882299999981
 21
1546.8762999999994
  0
TEXT
  8
_0-4_図面枠
 62
    7
 10
-2666.6953100000001
 20
537.12389999999959
 40
60
 41
0.7999999999999993
 50
0
  1
ＳＷ．Ｗ．Ｐ．Ｎ
  0
TEXT
  8
_0-4_図面枠
 62
    7
 10
-2701.0059499999952
 20
601.78999364405058
 40
59.999999999999943
 41
0.8000000000000016
 50
0.0000100000010064
  1
六角ボルト
  0
LINE
  8
_0-4_図面枠
  6
CONTINUOUS
 62
    2
 10
-2408.5341899999994
 20
533.1682599999998
 11
-2682.2196900000017
 21
533.1682599999998
  0
LINE
  8
_0-3_躯体と製品
  6
CONTINUOUS
 62
    4
 10
-2300.399309999998
 20
1517.5797199999997
 11
-2270.8873499999972
 21
1506.4431400000001
  0
LINE
  8
_0-3_躯体と製品
  6
CONTINUOUS
 62
    4
 10
-2300.8259499999995
 20
1517.3131800000001
 11
-2271.0285699999986
 21
1506.0688999999995
  0
LINE
  8
_0-3_躯体と製品
  6
CONTINUOUS
 62
    2
 10
-2311.4214700000002
 20
1553.7807599999994
 11
-2279.6423300000015
 21
1550.0275399999998
  0
LINE
  8
_0-3_躯体と製品
  6
CONTINUOUS
 62
    2
 10
-2241.8801699999995
 20
1515.3345200000001
 11
-2253.1779899999992
 21
1485.3952799999995
  0
LINE
  8
_0-3_躯体と製品
  6
CONTINUOUS
 62
    2
 10
-2084.6990700000015
 20
1456.0209199999997
 11
-2095.9969099999998
 21
1426.0816599999996
  0
LINE
  8
_0-3_躯体と製品
  6
CONTINUOUS
 62
    2
 10
-2294.8744299999989
 20
1749.1886999999997
 11
-2263.0952900000011
 21
1745.4355
  0
LINE
  8
_0-3_躯体と製品
  6
CONTINUOUS
 62
    2
 10
-2244.0863499999978
 20
1860.2551399999988
 11
-2245.9760099999994
 21
1844.2551399999988
  0
LINE
  8
_0-3_躯体と製品
  6
CONTINUOUS
 62
    2
 10
-2253.0867900000021
 20
1852.2551399999988
 11
-2236.9755900000027
 21
1852.2551399999988
  0
LINE
  8
_0-3_躯体と製品
  6
CONTINUOUS
 62
    2
 10
-2277.1637899999996
 20
1944.4592399999988
 11
-2245.38465
 21
1940.7060199999992
  0
LINE
  8
_0-4_図面枠
  6
CONTINUOUS
 62
    2
 10
-2117.8333299999986
 20
2800.3333400000001
 11
-3451.1666700000023
 21
2800.3333400000001
  0
TEXT
  8
_0-4_図面枠
 62
    7
 10
-3259.987869999999
 20
2678.2521399999991
 40
60
 41
0.8000000000000006
 50
0
  1
縮　　尺
  0
TEXT
  8
_0-4_図面枠
 62
    7
 10
-3294.8180700000012
 20
2835.8519199999992
 40
60
 41
0.8000000000000001
 50
0
  1
ファイル名
  0
TEXT
  8
_0-4_図面枠
 62
    7
 10
-2658.487610000002
 20
2839.7441399999989
 40
60
 41
0.7999999999999999
 50
0
  1
ＭＯＮ００４
  0
LINE
  8
_0-4_図面枠
  6
CONTINUOUS
 62
    4
 10
-2117.8333299999986
 20
2967
 11
-2117.8333299999986
 21
2633.6666599999999
  0
LINE
  8
_0-4_図面枠
  6
CONTINUOUS
 62
    2
 10
-2784.5000100000016
 20
2967
 11
-2784.5000100000016
 21
2633.6666599999999
  0
TEXT
  8
_0-4_図面枠
 62
    7
 10
-2656.6694499999994
 20
2675.0441199999991
 40
60
 41
0.7999999999999999
 50
0
  1
Ｓ　１：２５
  0
LINE
  8
_0-3_躯体と製品
  6
CONTINUOUS
 62
    2
 10
-2036.7154500000015
 20
2259.987059999999
 11
-2028.9352499999995
 21
2228.7823599999992
  0
LINE
  8
_0-3_躯体と製品
  6
PLINE2
 62
    5
 10
-2205.9921699999995
 20
2098.1032399999999
 11
-2123.4474300000011
 21
2180.6480000000001
  0
LINE
  8
_0-3_躯体と製品
  6
PLINE2
 62
    5
 10
-2208.9068099999986
 20
2066.90436
 11
-2085.7688300000018
 21
2190.04232
  0
LINE
  8
_0-3_躯体と製品
  6
PLINE2
 62
    5
 10
-2211.8214299999991
 20
2035.705459999999
 11
-2048.090229999998
 21
2199.4366599999998
  0
LINE
  8
_0-3_躯体と製品
  6
CONTINUOUS
 62
    2
 10
-2257.7561700000024
 20
2139.5293399999991
 11
-2225.9770299999991
 21
2135.7761199999986
  0
LINE
  8
_0-3_躯体と製品
  6
PLINE2
 62
    5
 10
-2203.0775499999982
 20
2129.3021399999989
 11
-2161.1260300000004
 21
2171.2536599999989
  0
LINE
  8
_0-3_躯体と製品
  6
CONTINUOUS
 62
    4
 10
-2243.0134700000008
 20
2161.95498
 11
-2240.0943899999993
 21
2193.2014399999998
  0
LINE
  8
_0-3_躯体と製品
  6
CONTINUOUS
 62
    4
 10
-2242.616109999999
 20
2161.9080400000003
 11
-2239.7225100000014
 21
2192.8818999999999
  0
LINE
  8
_0-3_躯体と製品
  6
CONTINUOUS
 62
    2
 10
-2207.4875100000008
 20
2217.4088199999997
 11
-2199.7072900000012
 21
2186.204099999999
  0
LINE
  8
_0-3_躯体と製品
  6
PLINE2
 62
    5
 10
-2200.1629300000004
 20
2160.5010399999992
 11
-2198.8046300000005
 21
2161.8593399999991
  0
LINE
  8
_0-3_躯体と製品
  6
CONTINUOUS
 62
    3
 10
-272.43986999999834
 20
2209.3045199999988
 11
-206.82030999999733
 21
1506.8959799999998
  0
LINE
  8
_0-3_躯体と製品
  6
PLINE3
 62
    2
 10
-1264.1523899999993
 20
2428.9807799999999
 11
-1264.1523899999993
 21
1037.7449999999997
  0
LINE
  8
_0-3_躯体と製品
  6
CONTINUOUS
 62
    3
 10
-1845.1056900000003
 20
2262.827139999999
 11
-1910.6381899999997
 21
1561.3504999999998
  0
LINE
  8
_0-3_躯体と製品
  6
CONTINUOUS
 62
    3
 10
-764.15238999999929
 20
1296.5819799999995
 11
-206.45570999999927
 21
1507.0335599999994
  0
LINE
  8
_0-3_躯体と製品
  6
CONTINUOUS
 62
    2
 10
-967.27264999999898
 20
369.72805999999986
 11
-167.27264999999898
 21
369.72805999999986
  0
LINE
  8
_0-3_躯体と製品
  6
PLINE2
 62
    3
 10
-1264.1523899999993
 20
1279.1787199999997
 11
-410.40485000000081
 21
1023.0544599999994
  0
LINE
  8
_0-3_躯体と製品
  6
CONTINUOUS
 62
    4
 10
-675.38228999999774
 20
1103.5917199999999
 11
-1264.1523899999993
 21
1280.2227599999997
  0
LINE
  8
_0-3_躯体と製品
  6
PLINE5
 62
    3
 10
-666.45023000000128
 20
1874.6846199999989
 11
-1264.1523899999993
 21
2023.7084999999993
  0
LINE
  8
_0-3_躯体と製品
  6
PLINE5
 62
    3
 10
-1264.1523899999993
 20
2018.761559999999
 11
-667.0395899999985
 21
1869.88462
  0
LINE
  8
_0-3_躯体と製品
  6
PLINE5
 62
    3
 10
-1264.1523899999993
 20
1982.4839599999989
 11
-671.36160999999902
 21
1834.6846199999989
  0
LINE
  8
_0-3_躯体と製品
  6
CONTINUOUS
 62
    4
 10
-1664.5523899999998
 20
1160.1027599999995
 11
-1664.5523899999998
 21
1519.0303599999997
  0
LINE
  8
_0-3_躯体と製品
  6
PLINE2
 62
    3
 10
-864.15238999999929
 20
1400.2227599999997
 11
-864.15238999999929
 21
1162.1726599999997
  0
LINE
  8
_0-3_躯体と製品
  6
PLINE2
 62
    3
 10
-868.95238999999947
 20
1398.7827599999996
 11
-868.95238999999947
 21
1037.7449999999997
  0
LINE
  8
_0-3_躯体と製品
  6
PLINE2
 62
    3
 10
-904.15238999999929
 20
1388.2227599999997
 11
-904.15238999999929
 21
1173.7189199999998
  0
LINE
  8
_0-3_躯体と製品
  6
CONTINUOUS
 62
    3
 10
-764.15238999999929
 20
1295.5865599999997
 11
-764.15238999999929
 21
1130.2227599999997
  0
LINE
  8
_0-3_躯体と製品
  6
CONTINUOUS
 62
    3
 10
-1664.1523899999993
 20
1519.0303599999997
 11
-1664.1523899999993
 21
1037.7449999999997
  0
LINE
  8
_0-3_躯体と製品
  6
PLINE2
 62
    3
 10
-1264.1523899999993
 20
1279.1787199999997
 11
-1624.1523899999993
 21
1171.1787200000001
  0
LINE
  8
_0-3_躯体と製品
  6
PLINE5
 62
    3
 10
-1659.3523899999991
 20
1882.7527599999989
 11
-1659.3523899999991
 21
1037.7449999999997
  0
LINE
  8
_0-3_躯体と製品
  6
CONTINUOUS
 62
    3
 10
-1624.1523899999993
 20
1929.0034799999999
 11
-1624.1523899999993
 21
1037.7449999999997
  0
LINE
  8
_0-3_躯体と製品
  6
CONTINUOUS
 62
    3
 10
-1664.1523899999993
 20
1919.03036
 11
-1664.1523899999993
 21
1037.7449999999997
  0
TEXT
  8
_0-4_図面枠
 62
    7
 10
-1432.5697099999979
 20
446.73937999999953
 40
60
 41
0.7999999999999996
 50
0
  1
渡し金具
  0
LINE
  8
_0-4_図面枠
  6
CONTINUOUS
 62
    2
 10
-1432.5698300000022
 20
430.73921999999976
 11
-1215.5162900000005
 21
430.73921999999976
  0
TEXT
  8
_0-4_図面枠
 62
    7
 10
-1444.5486299999993
 20
902.11047999999982
 40
60
 41
0.7999999999999994
 50
0
  1
ＳＣ１０００Ｈ
  0
LINE
  8
_0-3_躯体と製品
  6
CONTINUOUS
 62
    4
 10
-1763.272649999999
 20
369.72805999999986
 11
-1763.272649999999
 21
361.72805999999974
  0
LINE
  8
_0-3_躯体と製品
  6
CONTINUOUS
 62
    4
 10
-1767.2726500000008
 20
369.72805999999986
 11
-1763.272649999999
 21
369.72805999999986
  0
LINE
  8
_0-3_躯体と製品
  6
CONTINUOUS
 62
    4
 10
-1852.9225099999976
 20
1103.5917199999999
 11
-1664.5523899999998
 21
1160.1027599999995
  0
LINE
  8
_0-3_躯体と製品
  6
CONTINUOUS
 62
    4
 10
-1852.7689900000005
 20
1103.0800399999996
 11
-1836.077650000002
 21
1108.0874399999998
  0
LINE
  8
_0-3_躯体と製品
  6
CONTINUOUS
 62
    4
 10
-1852.9225099999976
 20
1103.5917199999999
 11
-1852.7689900000005
 21
1103.0800399999996
  0
LINE
  8
_0-3_躯体と製品
  6
CONTINUOUS
 62
    3
 10
-864.15238999999929
 20
1161.1091800000002
 11
-864.15238999999929
 21
1037.7449999999997
  0
LINE
  8
_0-3_躯体と製品
  6
CONTINUOUS
 62
    3
 10
-904.15238999999929
 20
1172.1996599999998
 11
-904.15238999999929
 21
1037.7449999999997
  0
LINE
  8
_0-3_躯体と製品
  6
PLINE5
 62
    3
 10
-1264.1523899999993
 20
1514.2303599999996
 11
-1659.3523899999991
 21
1514.2303599999996
  0
LINE
  8
_0-3_躯体と製品
  6
CONTINUOUS
 62
    3
 10
-1264.1523899999993
 20
1479.0303599999997
 11
-1637.324349999998
 21
1479.0303599999997
  0
LINE
  8
_0-3_躯体と製品
  6
CONTINUOUS
 62
    3
 10
-1264.1523899999993
 20
1519.0303599999997
 11
-1636.3189099999991
 21
1519.0303599999997
  0
LINE
  8
_0-3_躯体と製品
  6
CONTINUOUS
 62
    3
 10
-1861.8545700000004
 20
1874.6846199999989
 11
-1264.1523899999993
 21
2023.7084999999993
  0
LINE
  8
_0-3_躯体と製品
  6
CONTINUOUS
 62
    3
 10
-1635.7947700000022
 20
1889.8230999999987
 11
-1264.1523899999993
 21
1982.4839599999989
  0
LINE
  8
_0-3_躯体と製品
  6
PLINE5
 62
    3
 10
-1849.1765300000006
 20
1872.8986600000001
 11
-1264.1523899999993
 21
2018.761559999999
  0
LINE
  8
_0-3_躯体と製品
  6
CONTINUOUS
 62
    4
 10
-1861.8545700000004
 20
1874.8495199999988
 11
-1264.1523899999993
 21
2023.8733999999999
  0
LINE
  8
_0-3_躯体と製品
  6
CONTINUOUS
 62
    3
 10
-1910.6381899999997
 20
1561.3504999999998
 11
-1672.1523900000011
 21
1471.3558599999997
  0
LINE
  8
_0-3_躯体と製品
  6
CONTINUOUS
 62
    4
 10
-1695.4620299999988
 20
1510.2268599999995
 11
-1664.0488700000005
 21
1518.6439799999998
  0
LINE
  8
_0-3_躯体と製品
  6
CONTINUOUS
 62
    4
 10
-1695.5631300000005
 20
1510.6138799999994
 11
-1664.1523899999993
 21
1519.0303599999997
  0
LINE
  8
_0-3_躯体と製品
  6
CONTINUOUS
 62
    3
 10
-1672.1523900000011
 20
1283.2416199999998
 11
-1744.1523899999984
 21
1310.4114399999996
  0
LINE
  8
_0-3_躯体と製品
  6
PLINE2
 62
    5
 10
-1675.6893899999977
 20
1327.3295599999999
 11
-1672.1523900000011
 21
1330.8665599999999
  0
LINE
  8
_0-3_躯体と製品
  6
PLINE2
 62
    5
 10
-1696.2245300000004
 20
1335.0786800000001
 11
-1672.1523900000011
 21
1359.1508199999996
  0
LINE
  8
_0-3_躯体と製品
  6
PLINE2
 62
    5
 10
-1778.3651700000028
 20
1366.0751399999997
 11
-1672.8290900000002
 21
1471.6112200000002
  0
LINE
  8
_0-3_躯体と製品
  6
PLINE2
 62
    5
 10
-1757.8300099999988
 20
1358.3260399999999
 11
-1672.1523900000011
 21
1444.0036399999999
  0
LINE
  8
_0-3_躯体と製品
  6
PLINE2
 62
    5
 10
-1737.2948499999984
 20
1350.5769199999995
 11
-1672.1523900000011
 21
1415.7193799999998
  0
LINE
  8
_0-3_躯体と製品
  6
PLINE2
 62
    5
 10
-1716.759689999998
 20
1342.8277999999993
 11
-1672.1523900000011
 21
1387.4350999999999
  0
LINE
  8
_0-3_躯体と製品
  6
PLINE2
 62
    5
 10
-1839.970629999998
 20
1389.3225
 11
-1734.4345699999985
 21
1494.8585599999999
  0
LINE
  8
_0-3_躯体と製品
  6
PLINE2
 62
    5
 10
-1819.4354699999985
 20
1381.5733799999998
 11
-1713.8994099999982
 21
1487.1094399999997
  0
LINE
  8
_0-3_躯体と製品
  6
PLINE2
 62
    5
 10
-1798.9003099999991
 20
1373.8242599999994
 11
-1693.3642499999996
 21
1479.3603199999995
  0
LINE
  8
_0-3_躯体と製品
  6
CONTINUOUS
 62
    2
 10
-1920.0331700000015
 20
1393.88284
 11
-1931.3310099999981
 21
1363.9435800000001
  0
LINE
  8
_0-3_躯体と製品
  6
CONTINUOUS
 62
    4
 10
-1743.7523899999997
 20
1310.4114399999996
 11
-1743.7523899999997
 21
1278.2604999999999
  0
LINE
  8
_0-3_躯体と製品
  6
CONTINUOUS
 62
    4
 10
-1744.1523899999984
 20
1310.4114399999996
 11
-1744.1523899999984
 21
1278.2604999999999
  0
LINE
  8
_0-3_躯体と製品
  6
CONTINUOUS
 62
    4
 10
-1742.9523900000004
 20
1278.6604999999995
 11
-1742.9523900000004
 21
1286.2604999999994
  0
LINE
  8
_0-3_躯体と製品
  6
CONTINUOUS
 62
    4
 10
-1744.1523899999984
 20
1278.6604999999995
 11
-1742.9523900000004
 21
1278.6604999999995
  0
LINE
  8
_0-3_躯体と製品
  6
CONTINUOUS
 62
    4
 10
-1742.5523900000007
 20
1278.2604999999999
 11
-1742.5523900000007
 21
1286.2604999999994
  0
LINE
  8
_0-3_躯体と製品
  6
CONTINUOUS
 62
    4
 10
-1744.1523899999984
 20
1278.2604999999999
 11
-1742.5523900000007
 21
1278.2604999999999
  0
LINE
  8
_0-3_躯体と製品
  6
CONTINUOUS
 62
    2
 10
-1762.8520900000012
 20
1334.5692200000001
 11
-1774.1499100000001
 21
1304.6299599999995
  0
LINE
  8
_0-3_躯体と製品
  6
PLINE2
 62
    5
 10
-1922.1112499999981
 20
1420.3189599999994
 11
-1816.5751899999987
 21
1525.8550199999995
  0
LINE
  8
_0-3_躯体と製品
  6
PLINE2
 62
    5
 10
-1901.5760899999987
 20
1412.5698399999999
 11
-1796.0400299999992
 21
1518.1059
  0
LINE
  8
_0-3_躯体と製品
  6
PLINE2
 62
    5
 10
-1881.0409299999992
 20
1404.8207199999999
 11
-1775.5048699999998
 21
1510.3567999999991
  0
LINE
  8
_0-3_躯体と製品
  6
PLINE2
 62
    5
 10
-1860.5057900000011
 20
1397.0715999999998
 11
-1754.9697099999994
 21
1502.6076799999996
  0
LINE
  8
_0-3_躯体と製品
  6
PLINE2
 62
    5
 10
-1963.1815700000025
 20
1435.81718
 11
-1857.6454900000008
 21
1541.3532599999994
  0
LINE
  8
_0-3_躯体と製品
  6
PLINE2
 62
    5
 10
-1942.6464100000021
 20
1428.0680799999998
 11
-1837.1103300000004
 21
1533.6041399999997
  0
LINE
  8
_0-3_躯体と製品
  6
CONTINUOUS
 62
    3
 10
-1672.1523900000011
 20
1200.2227599999997
 11
-1672.1523900000011
 21
1471.3558599999997
  0
LINE
  8
_0-3_躯体と製品
  6
CONTINUOUS
 62
    2
 10
-1674.0726899999981
 20
1224.6324399999996
 11
-1656.3870899999974
 21
1224.6324399999996
  0
LINE
  8
_0-3_躯体と製品
  6
CONTINUOUS
 62
    2
 10
-1674.4726900000023
 20
1264.6324399999996
 11
-1656.7870899999971
 21
1264.6324399999996
  0
LINE
  8
_0-3_躯体と製品
  6
CONTINUOUS
 62
    3
 10
-1664.1523899999993
 20
1200.2227599999997
 11
-1672.1523900000011
 21
1200.2227599999997
  0
LINE
  8
_0-3_躯体と製品
  6
CONTINUOUS
 62
    3
 10
-1664.1523899999993
 20
1325.9948599999993
 11
-1672.1523900000011
 21
1325.9948599999993
  0
LINE
  8
_0-3_躯体と製品
  6
CONTINUOUS
 62
    2
 10
-1642.636950000001
 20
1506.1685399999999
 11
-1642.636950000001
 21
1490.1685399999992
  0
LINE
  8
_0-3_躯体と製品
  6
CONTINUOUS
 62
    3
 10
-1645.909230000002
 20
1479.0303599999997
 11
-1659.3523899999991
 21
1479.0303599999997
  0
LINE
  8
_0-3_躯体と製品
  6
CONTINUOUS
 62
    2
 10
-1674.0726899999981
 20
1457.4419999999998
 11
-1656.3870899999974
 21
1457.4419999999998
  0
LINE
  8
_0-3_躯体と製品
  6
CONTINUOUS
 62
    2
 10
-1650.6369499999983
 20
1498.1685399999997
 11
-1634.6369499999992
 21
1498.1685399999997
  0
LINE
  8
_0-3_躯体と製品
  6
CONTINUOUS
 62
    3
 10
-1650.47235
 20
1519.0303599999997
 11
-1659.3523899999991
 21
1519.0303599999997
  0
LINE
  8
_0-3_躯体と製品
  6
CONTINUOUS
 62
    3
 10
-1817.0709900000011
 20
1844.6258600000001
 11
-1652.5541100000009
 21
1885.64454
  0
LINE
  8
_0-3_躯体と製品
  6
CONTINUOUS
 62
    3
 10
-1776.5706499999987
 20
1679.2363799999989
 11
-1664.1523899999993
 21
1649.114
  0
LINE
  8
_0-3_躯体と製品
  6
CONTINUOUS
 62
    3
 10
-1664.1523899999993
 20
1773.56648
 11
-1776.5706499999987
 21
1679.2363799999989
  0
LINE
  8
_0-3_躯体と製品
  6
CONTINUOUS
 62
    3
 10
-1668.9523900000004
 20
1645.4308199999989
 11
-1786.7195099999981
 21
1676.98642
  0
LINE
  8
_0-3_躯体と製品
  6
CONTINUOUS
 62
    3
 10
-1786.7195099999981
 20
1676.98642
 11
-1668.9523900000004
 21
1775.8047599999986
  0
LINE
  8
_0-3_躯体と製品
  6
CONTINUOUS
 62
    4
 10
-1676.1523900000011
 20
1769.7632399999998
 11
-1798.7195100000008
 21
1666.91722
  0
LINE
  8
_0-3_躯体と製品
  6
CONTINUOUS
 62
    4
 10
-1798.7195100000008
 20
1666.91722
 11
-1798.7195100000008
 21
1650.9172200000003
  0
LINE
  8
_0-3_躯体と製品
  6
CONTINUOUS
 62
    4
 10
-1676.1523900000011
 20
1785.7632399999989
 11
-1676.1523900000011
 21
1769.7632399999998
  0
LINE
  8
_0-3_躯体と製品
  6
CONTINUOUS
 62
    2
 10
-1735.4547899999998
 20
1740.889159999999
 11
-1714.8855700000013
 21
1716.37572
  0
LINE
  8
_0-3_躯体と製品
  6
CONTINUOUS
 62
    3
 10
-1856.9431699999996
 20
1834.6846199999989
 11
-1817.0709900000011
 21
1844.6258600000001
  0
LINE
  8
_0-3_躯体と製品
  6
CONTINUOUS
 62
    2
 10
-1835.9458700000005
 20
1897.6342
 11
-1828.0369899999996
 21
1866.626459999999
  0
LINE
  8
_0-3_躯体と製品
  6
CONTINUOUS
 62
    2
 10
-1907.4144100000012
 20
1851.7077599999989
 11
-1891.4144100000012
 21
1851.7077599999989
  0
LINE
  8
_0-3_躯体と製品
  6
CONTINUOUS
 62
    4
 10
-1861.8545700000004
 20
1862.6846199999991
 11
-1861.8545700000004
 21
1874.8495199999988
  0
LINE
  8
_0-3_躯体と製品
  6
CONTINUOUS
 62
    2
 10
-1899.4144099999994
 20
1859.7077599999989
 11
-1899.4144099999994
 21
1843.7077599999989
  0
LINE
  8
_0-3_躯体と製品
  6
PLINE5
 62
    3
 10
-1861.2651899999992
 20
1869.88462
 11
-1849.1765300000006
 21
1872.8986600000001
  0
LINE
  8
_0-3_躯体と製品
  6
PLINE2
 62
    3
 10
-1881.8146900000011
 20
1869.88462
 11
-1861.2651899999992
 21
1869.88462
  0
LINE
  8
_0-3_躯体と製品
  6
PLINE5
 62
    3
 10
-1861.8545700000004
 20
1869.88462
 11
-1861.2651899999992
 21
1869.88462
  0
LINE
  8
_0-3_躯体と製品
  6
CONTINUOUS
 62
    3
 10
-1885.1030900000023
 20
1834.6846199999989
 11
-1856.9431699999996
 21
1834.6846199999989
  0
LINE
  8
_0-3_躯体と製品
  6
CONTINUOUS
 62
    3
 10
-1881.3662699999986
 20
1874.7549199999989
 11
-1861.8545700000004
 21
1874.6846199999989
  0
LINE
  8
_0-3_躯体と製品
  6
PLINE2
 62
    5
 10
-1877.7769700000008
 20
1917.201579999999
 11
-1877.3548699999992
 21
1917.623679999999
  0
LINE
  8
_0-3_躯体と製品
  6
PLINE2
 62
    5
 10
-1883.5872500000005
 20
1854.8227599999989
 11
-1883.1841100000011
 21
1855.2258999999999
  0
LINE
  8
_0-3_躯体と製品
  6
PLINE2
 62
    5
 10
-1875.6072099999983
 20
1947.65562
 11
-1874.4402300000002
 21
1948.8225799999987
  0
LINE
  8
_0-3_躯体と製品
  6
CONTINUOUS
 62
    2
 10
-1674.0726899999981
 20
1637.1139999999989
 11
-1656.3870899999974
 21
1637.1139999999989
  0
LINE
  8
_0-3_躯体と製品
  6
CONTINUOUS
 62
    3
 10
-1668.9523900000004
 20
1625.114
 11
-1668.9523900000004
 21
1645.4308199999989
  0
LINE
  8
_0-3_躯体と製品
  6
CONTINUOUS
 62
    3
 10
-1664.1523899999993
 20
1625.114
 11
-1668.9523900000004
 21
1625.114
  0
LINE
  8
_0-3_躯体と製品
  6
CONTINUOUS
 62
    2
 10
-1673.9024100000006
 20
1785.566479999999
 11
-1655.7890499999985
 21
1785.566479999999
  0
LINE
  8
_0-3_躯体と製品
  6
CONTINUOUS
 62
    3
 10
-1668.9523900000004
 20
1797.566479999999
 11
-1668.9523900000004
 21
1775.8047599999986
  0
LINE
  8
_0-3_躯体と製品
  6
CONTINUOUS
 62
    3
 10
-1664.1523899999993
 20
1797.566479999999
 11
-1668.9523900000004
 21
1797.566479999999
  0
LINE
  8
_0-3_躯体と製品
  6
CONTINUOUS
 62
    2
 10
-1644.8069100000021
 20
1911.4249199999999
 11
-1644.8069100000021
 21
1895.424919999999
  0
LINE
  8
_0-3_躯体と製品
  6
CONTINUOUS
 62
    2
 10
-1652.8069099999993
 20
1903.424919999999
 11
-1636.8069100000002
 21
1903.424919999999
  0
LINE
  8
_0-3_躯体と製品
  6
PLINE5
 62
    3
 10
-1664.1523899999993
 20
1882.7527599999989
 11
-1659.3523899999991
 21
1882.7527599999989
  0
LINE
  8
_0-3_躯体と製品
  6
CONTINUOUS
 62
    2
 10
-1424.4316900000013
 20
2000.2362000000001
 11
-1416.6901899999993
 21
1969.1867399999992
  0
LINE
  8
_0-3_躯体と製品
  6
CONTINUOUS
 62
    2
 10
-1272.1523900000011
 20
2002.4839599999989
 11
-1264.1523899999993
 21
2002.4839599999989
  0
LINE
  8
_0-3_躯体と製品
  6
CONTINUOUS
 62
    2
 10
-1264.1523899999993
 20
2002.4839599999989
 11
-1256.152390000002
 21
2002.4839599999989
  0
LINE
  8
_0-3_躯体と製品
  6
CONTINUOUS
 62
    2
 10
-1150.0612300000012
 20
1982.895019999999
 11
-1153.93199
 21
1967.3702799999999
  0
LINE
  8
_0-3_躯体と製品
  6
CONTINUOUS
 62
    2
 10
-1159.758969999998
 20
1977.068019999999
 11
-1144.2342499999995
 21
1973.1972799999999
  0
LINE
  8
_0-3_躯体と製品
  6
CONTINUOUS
 62
    2
 10
-1023.8215699999992
 20
1951.41994
 11
-1027.6923100000013
 21
1935.895199999999
  0
LINE
  8
_0-3_躯体と製品
  6
CONTINUOUS
 62
    2
 10
-1033.5193100000015
 20
1945.59294
 11
-1017.9945700000007
 21
1941.722199999999
  0
LINE
  8
_0-3_躯体と製品
  6
CONTINUOUS
 62
    2
 10
-881.43097000000034
 20
1915.9179799999999
 11
-885.30170999999973
 21
1900.3932399999999
  0
LINE
  8
_0-3_躯体と製品
  6
CONTINUOUS
 62
    2
 10
-891.12870999999814
 20
1910.0909799999999
 11
-875.60397000000103
 21
1906.2202399999999
  0
LINE
  8
_0-3_躯体と製品
  6
CONTINUOUS
 62
    2
 10
-167.27264999999898
 20
350.34033999999951
 11
-167.27264999999898
 21
369.72805999999986
  0
LINE
  8
_0-3_躯体と製品
  6
CONTINUOUS
 62
    4
 10
-675.535789999999
 20
1103.0800399999996
 11
-692.22714999999971
 21
1108.0874399999998
  0
LINE
  8
_0-3_躯体と製品
  6
CONTINUOUS
 62
    4
 10
-675.38228999999774
 20
1103.5917199999999
 11
-675.535789999999
 21
1103.0800399999996
  0
LINE
  8
_0-3_躯体と製品
  6
PLINE5
 62
    3
 10
-262.35056999999779
 20
1834.6846199999989
 11
-671.36160999999902
 21
1834.6846199999989
  0
LINE
  8
_0-3_躯体と製品
  6
PLINE5
 62
    3
 10
-266.08739000000242
 20
1874.6846199999989
 11
-666.45023000000128
 21
1874.6846199999989
  0
LINE
  8
_0-3_躯体と製品
  6
PLINE5
 62
    3
 10
-274.84883000000082
 20
1869.88462
 11
-667.0395899999985
 21
1869.88462
  0
LINE
  8
_0-3_躯体と製品
  6
PLINE5
 62
    3
 10
-270.12470999999914
 20
1834.6846199999989
 11
-671.36160999999902
 21
1834.6846199999989
  0
LINE
  8
_0-3_躯体と製品
  6
PLINE5
 62
    3
 10
-274.84883000000082
 20
1874.6846199999989
 11
-666.45023000000128
 21
1874.6846199999989
  0
LINE
  8
_0-3_躯体と製品
  6
PLINE5
 62
    3
 10
-667.0395899999985
 20
1869.88462
 11
-265.63896999999997
 21
1869.88462
  0
LINE
  8
_0-3_躯体と製品
  6
CONTINUOUS
 62
    2
 10
-760.93714999999975
 20
2314.61076
 11
-745.41243000000122
 21
2310.7399999999998
  0
LINE
  8
_0-3_躯体と製品
  6
CONTINUOUS
 62
    3
 10
-864.15238999999929
 20
2356.8350199999986
 11
-272.43986999999834
 21
2209.3045199999988
  0
LINE
  8
_0-3_躯体と製品
  6
CONTINUOUS
 62
    3
 10
-1643.8114300000016
 20
2331.5653399999992
 11
-1264.1523899999993
 21
2331.5653399999992
  0
LINE
  8
_0-3_躯体と製品
  6
CONTINUOUS
 62
    3
 10
-1644.9726499999997
 20
2336.2227599999987
 11
-1264.3046700000014
 21
2336.2227599999987
  0
LINE
  8
_0-3_躯体と製品
  6
CONTINUOUS
 62
    3
 10
-1694.0354900000002
 20
2319.0430599999991
 11
-1643.8114300000016
 21
2331.5653399999992
  0
LINE
  8
_0-3_躯体と製品
  6
CONTINUOUS
 62
    3
 10
-1843.9385099999981
 20
2275.3207999999991
 11
-1842.9053900000008
 21
2286.3795799999989
  0
LINE
  8
_0-3_躯体と製品
  6
CONTINUOUS
 62
    2
 10
-1862.0622300000014
 20
2303.532999999999
 11
-1854.2820100000017
 21
2272.3283000000001
  0
LINE
  8
_0-3_躯体と製品
  6
CONTINUOUS
 62
    3
 10
-1740.594769999997
 20
2312.38148
 11
-1739.4335300000012
 21
2307.7240599999986
  0
LINE
  8
_0-3_躯体と製品
  6
CONTINUOUS
 62
    3
 10
-1711.9960700000001
 20
2314.5650000000001
 11
-1697.5643700000001
 21
2318.163219999999
  0
LINE
  8
_0-3_躯体と製品
  6
CONTINUOUS
 62
    3
 10
-1739.4335300000012
 20
2307.7240599999986
 11
-1715.7408100000021
 21
2313.63132
  0
LINE
  8
_0-3_躯体と製品
  6
CONTINUOUS
 62
    2
 10
-1691.2901700000011
 20
2346.1112599999988
 11
-1683.5099700000001
 21
2314.906559999999
  0
LINE
  8
_0-3_躯体と製品
  6
CONTINUOUS
 62
    4
 10
-1664.1323300000022
 20
2376.39266
 11
-1664.1323300000022
 21
2336.39266
  0
LINE
  8
_0-3_躯体と製品
  6
CONTINUOUS
 62
    4
 10
-1663.732329999998
 20
2376.39266
 11
-1663.732329999998
 21
2336.39266
  0
LINE
  8
_0-3_躯体と製品
  6
CONTINUOUS
 62
    3
 10
-1654.4554500000004
 20
2297.5808199999992
 11
-1664.1323300000022
 21
2336.39266
  0
LINE
  8
_0-3_躯体と製品
  6
CONTINUOUS
 62
    3
 10
-1664.1323300000022
 20
2295.1681200000003
 11
-1654.4554500000004
 21
2297.5808199999992
  0
LINE
  8
_0-3_躯体と製品
  6
CONTINUOUS
 62
    3
 10
-1663.5692500000005
 20
2331.5860999999986
 11
-1644.9726499999997
 21
2336.2227599999987
  0
LINE
  8
_0-3_躯体と製品
  6
CONTINUOUS
 62
    4
 10
-1664.1323300000022
 20
2376.39266
 11
-1662.5323299999991
 21
2376.39266
  0
LINE
  8
_0-3_躯体と製品
  6
CONTINUOUS
 62
    4
 10
-1662.5323299999991
 20
2368.3926599999991
 11
-1662.5323299999991
 21
2376.39266
  0
LINE
  8
_0-3_躯体と製品
  6
CONTINUOUS
 62
    4
 10
-1664.1323300000022
 20
2375.992659999999
 11
-1662.5323299999991
 21
2375.992659999999
  0
LINE
  8
_0-3_躯体と製品
  6
CONTINUOUS
 62
    4
 10
-1662.9323299999996
 20
2368.3926599999991
 11
-1662.9323299999996
 21
2376.39266
  0
LINE
  8
_0-3_躯体と製品
  6
CONTINUOUS
 62
    3
 10
-864.15238999999929
 20
2376.2227599999987
 11
-1264.1523899999993
 21
2376.2227599999987
  0
LINE
  8
_0-3_躯体と製品
  6
CONTINUOUS
 62
    3
 10
-864.15238999999929
 20
2376.2227599999987
 11
-864.15238999999929
 21
2356.8350199999986
  0
LINE
  8
_0-3_躯体と製品
  6
CONTINUOUS
 62
    2
 10
-751.23940999999832
 20
2320.4377599999989
 11
-755.1101699999972
 21
2304.9130199999991
  0
LINE
  8
_0-3_躯体と製品
  6
CONTINUOUS
 62
    2
 10
-636.39105000000109
 20
2291.8028399999989
 11
-640.26180999999997
 21
2276.2780999999986
  0
LINE
  8
_0-3_躯体と製品
  6
CONTINUOUS
 62
    2
 10
-646.08878999999979
 20
2285.9758400000001
 11
-630.56406999999945
 21
2282.1050999999989
  0
LINE
  8
_0-3_躯体と製品
  6
CONTINUOUS
 62
    2
 10
-531.24045000000024
 20
2257.34094
 11
-515.71570999999949
 21
2253.4701799999989
  0
LINE
  8
_0-3_躯体と製品
  6
CONTINUOUS
 62
    2
 10
-521.54270999999881
 20
2263.167919999999
 11
-525.41345000000001
 21
2247.6432
  0
LINE
  8
_0-3_躯体と製品
  6
CONTINUOUS
 62
    2
 10
-406.69434999999703
 20
2234.5330199999989
 11
-410.56509000000005
 21
2219.00828
  0
LINE
  8
_0-3_躯体と製品
  6
CONTINUOUS
 62
    2
 10
-416.39208999999937
 20
2228.7060199999987
 11
-400.86734999999862
 21
2224.8352799999998
  0
TEXT
  8
_0-4_図面枠
 62
    7
 10
2437.7682699999932
 20
324.35259999999965
 40
60
 41
0.8000000000000007
 50
0
  1
ＳＣ１５００Ｈ
  0
LINE
  8
_0-4_図面枠
  6
CONTINUOUS
 62
    4
 10
4292.1666700000023
 20
-2373
 11
4292.1666700000023
 21
2967
  0
LINE
  8
_0-3_躯体と製品
  6
PLINE2
 62
    3
 10
3045.458049999992
 20
-324.83274000000006
 11
2671.1604499999921
 21
-231.50954000000024
  0
LINE
  8
_0-3_躯体と製品
  6
CONTINUOUS
 62
    3
 10
2670.3772499999923
 20
193.56725999999975
 11
3151.4268499999926
 21
193.56725999999975
  0
LINE
  8
_0-4_図面枠
  6
CONTINUOUS
 62
    3
 10
4213.9044899999917
 20
-1574.8827999999999
 11
1564.9982899999995
 21
-1574.8827999999999
  0
LINE
  8
_0-4_図面枠
  6
CONTINUOUS
 62
    2
 10
1564.9982899999995
 20
-1724.882799999999
 11
4213.9044899999917
 21
-1724.882799999999
  0
LINE
  8
_0-4_図面枠
  6
CONTINUOUS
 62
    2
 10
1564.9982899999995
 20
-1714.882799999999
 11
4213.9044899999917
 21
-1714.882799999999
  0
LINE
  8
_0-4_図面枠
  6
CONTINUOUS
 62
    2
 10
1564.9982899999995
 20
-1874.882799999999
 11
4213.9044899999917
 21
-1874.882799999999
  0
LINE
  8
_0-4_図面枠
  6
CONTINUOUS
 62
    2
 10
1564.9982899999995
 20
-2024.882799999999
 11
4213.9044899999917
 21
-2024.882799999999
  0
LINE
  8
_0-4_図面枠
  6
CONTINUOUS
 62
    2
 10
1564.9982899999995
 20
-2174.882799999999
 11
4213.9044899999917
 21
-2174.882799999999
  0
LINE
  8
_0-4_図面枠
  6
CONTINUOUS
 62
    3
 10
1564.9982899999995
 20
-2324.882799999999
 11
4213.9044899999917
 21
-2324.882799999999
  0
LINE
  8
_0-3_躯体と製品
  6
PLINE2
 62
    3
 10
2671.9980499999929
 20
-914.23194000000012
 11
3473.7900499999923
 21
-914.23194000000012
  0
LINE
  8
_0-3_躯体と製品
  6
PLINE2
 62
    3
 10
2671.9980499999929
 20
-882.23193999999899
 11
3473.7900499999923
 21
-882.23193999999899
  0
LINE
  8
_0-3_躯体と製品
  6
PLINE2
 62
    3
 10
2671.9980499999929
 20
-874.23194000000012
 11
3473.7900499999923
 21
-874.23194000000012
  0
LINE
  8
_0-3_躯体と製品
  6
PLINE2
 62
    3
 10
2671.9509299999918
 20
-1091.7485200000001
 11
3151.4268499999926
 21
-1235.5913
  0
LINE
  8
_0-3_躯体と製品
  6
CONTINUOUS
 62
    4
 10
2671.9509299999918
 20
-1090.7045000000001
 11
3341.2563299999929
 21
-1291.49612
  0
LINE
  8
_0-3_躯体と製品
  6
PLINE2
 62
    3
 10
2670.838049999993
 20
-223.99194000000034
 11
3390.9765099999931
 21
-403.22393999999906
  0
LINE
  8
_0-3_躯体と製品
  6
PLINE2
 62
    3
 10
2672.3212499999918
 20
-264.62554000000011
 11
3388.655629999992
 21
-443.22713999999905
  0
LINE
  8
_0-3_躯体と製品
  6
PLINE2
 62
    3
 10
2191.0156499999921
 20
-1236.0291200000001
 11
1737.6681100000005
 21
-1372.0333800000003
  0
TEXT
  8
_0-4_図面枠
 62
    7
 10
1661.8814300000013
 20
-1695.4740599999991
 40
60
 41
0.8000000000000006
 50
0
  1
型　　式
  0
TEXT
  8
_0-4_図面枠
 62
    7
 10
1650.2572900000014
 20
-2306.47084
 40
60
 41
0.8000000000000003
 50
0
  1
ＳＣ２０００
  0
TEXT
  8
_0-4_図面枠
 62
    7
 10
1648.5757700000031
 20
-2157.65888
 40
60
 41
0.8000000000000002
 50
0
  1
ＳＣ１５００
  0
TEXT
  8
_0-4_図面枠
 62
    7
 10
1640.1681700000008
 20
-2011.3690599999991
 40
60
 41
0.7999999999999999
 50
0
  1
ＳＣ１２００
  0
TEXT
  8
_0-4_図面枠
 62
    7
 10
1635.1236100000024
 20
-1853.3087599999999
 40
60
 41
0.8000000000000003
 50
0
  1
ＳＣ１０００
  0
LINE
  8
_0-4_図面枠
  6
CONTINUOUS
 62
    3
 10
1564.9982899999995
 20
-1574.8827999999999
 11
1564.9982899999995
 21
-2324.882799999999
  0
LINE
  8
_0-3_躯体と製品
  6
CONTINUOUS
 62
    4
 10
532.11358999999902
 20
-2043.7808599999989
 11
516.42429000000084
 21
-2040.6430000000009
  0
LINE
  8
_0-3_躯体と製品
  6
CONTINUOUS
 62
    4
 10
532.42736999999943
 20
-2042.2119400000001
 11
532.11358999999902
 21
-2043.7808599999989
  0
LINE
  8
_0-4_図面枠
  6
CONTINUOUS
 62
    2
 10
2123.3360700000012
 20
-1574.8827999999999
 11
2123.3360700000012
 21
-2324.882799999999
  0
LINE
  8
_0-4_図面枠
  6
CONTINUOUS
 62
    2
 10
2463.9044899999917
 20
-1574.8827999999999
 11
2463.9044899999917
 21
-2324.882799999999
  0
LINE
  8
_0-4_図面枠
  6
CONTINUOUS
 62
    2
 10
2863.9044899999917
 20
-1574.8827999999999
 11
2863.9044899999917
 21
-2324.882799999999
  0
TEXT
  8
_0-4_図面枠
 62
    7
 10
2157.669989999993
 20
-2298.0136200000002
 40
60
 41
0.8000000000000006
 50
0
  1
２０００
  0
TEXT
  8
_0-4_図面枠
 62
    7
 10
2042.3941300000042
 20
-2301.5697000000009
 40
60
 41
0.800000000000002
 50
0
  1
Ｈ
  0
TEXT
  8
_0-4_図面枠
 62
    7
 10
2550.1877099999929
 20
-2296.3396200000007
 40
60
 41
0.7999999999999993
 50
0
  1
２６９０
  0
TEXT
  8
_0-4_図面枠
 62
    7
 10
2165.2371299999922
 20
-1847.3738200000003
 40
60
 41
0.8000000000000006
 50
0
  1
１０００
  0
TEXT
  8
_0-4_図面枠
 62
    7
 10
2158.5110699999932
 20
-1990.3005999999991
 40
60
 41
0.8000000000000006
 50
0
  1
１２００
  0
TEXT
  8
_0-4_図面枠
 62
    7
 10
2149.2630099999933
 20
-2136.5905600000001
 40
60
 41
0.8000000000000006
 50
0
  1
１５００
  0
TEXT
  8
_0-4_図面枠
 62
    7
 10
2036.8301500000016
 20
-2010.8546999999999
 40
60
 41
0.800000000000002
 50
0
  1
Ｈ
  0
TEXT
  8
_0-4_図面枠
 62
    7
 10
2040.3073300000033
 20
-2156.9075200000002
 40
60
 41
0.7999999999999982
 50
0
  1
Ｈ
  0
TEXT
  8
_0-4_図面枠
 62
    7
 10
2030.570389999999
 20
-1858.5422200000003
 40
60
 41
0.800000000000002
 50
0
  1
Ｈ
  0
TEXT
  8
_0-4_図面枠
 62
    7
 10
2246.2069900000024
 20
-1686.5458400000002
 40
60
 41
0.800000000000002
 50
0
  1
Ａ
  0
TEXT
  8
_0-4_図面枠
 62
    7
 10
2547.2293299999928
 20
-1851.2906400000002
 40
60
 41
0.7999999999999993
 50
0
  1
１３７０
  0
TEXT
  8
_0-4_図面枠
 62
    7
 10
2549.7622899999933
 20
-1998.3357000000001
 40
60
 41
0.7999999999999993
 50
0
  1
１６３５
  0
TEXT
  8
_0-4_図面枠
 62
    7
 10
2554.4449099999929
 20
-2136.1829600000001
 40
60
 41
0.8000000000000006
 50
0
  1
２０３０
  0
TEXT
  8
_0-4_図面枠
 62
    7
 10
2462.9666300000026
 20
-1455.717599999999
 40
60
 41
0.8000000000000002
 50
0
  1
ＳＣ１２００Ｈ
  0
TEXT
  8
_0-4_図面枠
 62
    7
 10
2647.3001299999924
 20
-1691.3397
 40
60
 41
0.7999999999999982
 50
0
  1
Ｉ
  0
LINE
  8
_0-3_躯体と製品
  6
CONTINUOUS
 62
    3
 10
1539.7839900000017
 20
-50.820960000000468
 11
2200.7428899999923
 21
113.97429999999923
  0
LINE
  8
_0-3_躯体と製品
  6
PLINE2
 62
    3
 10
2191.8436500000025
 20
144.73525999999936
 11
1510.3342300000004
 21
-25.183940000000007
  0
LINE
  8
_0-3_躯体と製品
  6
CONTINUOUS
 62
    4
 10
2189.9084499999917
 20
152.49765999999954
 11
1500.1817500000034
 21
-19.470520000000533
  0
LINE
  8
_0-3_躯体と製品
  6
PLINE2
 62
    5
 10
1526.9150700000009
 20
-192.37972000000082
 11
1711.2178499999991
 21
-8.0777799999999615
  0
LINE
  8
_0-3_躯体と製品
  6
PLINE2
 62
    5
 10
1524.6522700000041
 20
-217.27052000000037
 11
1741.360370000004
 21
-0.5624200000000882
  0
LINE
  8
_0-3_躯体と製品
  6
PLINE2
 62
    5
 10
1522.3895700000012
 20
-242.16042000000084
 11
1771.5040500000014
 21
6.9532399999997097
  0
LINE
  8
_0-3_躯体と製品
  6
PLINE2
 62
    5
 10
1513.3386500000015
 20
-341.72094000000084
 11
1892.07431
 21
37.014720000000125
  0
LINE
  8
_0-3_躯体と製品
  6
PLINE2
 62
    5
 10
1511.0758700000006
 20
-366.61172000000022
 11
1922.2179500000002
 21
44.530359999999405
  0
LINE
  8
_0-3_躯体と製品
  6
PLINE2
 62
    5
 10
1520.1267700000044
 20
-267.05122000000028
 11
1801.6454900000044
 21
14.468319999999608
  0
LINE
  8
_0-3_躯体と製品
  6
PLINE2
 62
    5
 10
1517.8640700000014
 20
-291.94111999999973
 11
1831.7891700000037
 21
21.98397999999986
  0
LINE
  8
_0-3_躯体と製品
  6
PLINE2
 62
    5
 10
1515.6013700000003
 20
-316.83102000000019
 11
1861.9328300000016
 21
29.499619999999709
  0
LINE
  8
_0-3_躯体と製品
  6
PLINE2
 62
    3
 10
1507.704670000001
 20
-403.69514000000004
 11
1951.5499500000024
 21
-403.69514000000004
  0
LINE
  8
_0-3_躯体と製品
  6
PLINE2
 62
    3
 10
1507.0202299999983
 20
-411.22394000000008
 11
1952.4372100000001
 21
-411.22394000000008
  0
LINE
  8
_0-3_躯体と製品
  6
PLINE2
 62
    3
 10
1504.0683100000024
 20
-443.69514000000004
 11
1953.8634700000021
 21
-443.69514000000004
  0
LINE
  8
_0-3_躯体と製品
  6
PLINE2
 62
    3
 10
1436.3540500000017
 20
-822.09594000000016
 11
2099.9556500000053
 21
-1073.4271399999991
  0
LINE
  8
_0-3_躯体と製品
  6
PLINE2
 62
    5
 10
1514.2298300000002
 20
-816.00576000000001
 11
1948.9088899999988
 21
-381.32750000000044
  0
LINE
  8
_0-3_躯体と製品
  6
PLINE2
 62
    5
 10
1530.6293499999992
 20
-822.23343999999997
 11
1946.5681500000028
 21
-406.29543999999919
  0
LINE
  8
_0-3_躯体と製品
  6
PLINE2
 62
    5
 10
1612.6276099999995
 20
-853.37198000000012
 11
1934.8643499999998
 21
-531.13603999999896
  0
LINE
  8
_0-3_躯体と製品
  6
PLINE2
 62
    5
 10
1629.027729999998
 20
-859.59986000000004
 11
1932.5236100000002
 21
-556.10397999999896
  0
LINE
  8
_0-3_躯体と製品
  6
PLINE2
 62
    5
 10
1645.4272499999988
 20
-865.82754
 11
1930.1828700000005
 21
-581.07192000000009
  0
LINE
  8
_0-3_躯体と製品
  6
PLINE2
 62
    5
 10
1661.8273700000027
 20
-872.05542000000014
 11
1927.8420499999993
 21
-606.04074000000014
  0
LINE
  8
_0-3_躯体と製品
  6
PLINE2
 62
    5
 10
1678.2269099999994
 20
-878.28308000000015
 11
1925.5013100000015
 21
-631.00868000000014
  0
LINE
  8
_0-3_躯体と製品
  6
CONTINUOUS
 62
    3
 10
1471.6892500000013
 20
-799.85113999999999
 11
2183.9812499999935
 21
-1070.3415400000001
  0
LINE
  8
_0-3_躯体と製品
  6
CONTINUOUS
 62
    4
 10
1427.8252500000035
 20
-827.42074000000002
 11
2096.0356499999998
 21
-1080.49728
  0
LINE
  8
_0-3_躯体と製品
  6
CONTINUOUS
 62
    3
 10
1427.0548500000004
 20
-825.47834000000012
 11
2184.3292500000025
 21
-1111.872139999999
  0
LINE
  8
_0-3_躯体と製品
  6
PLINE2
 62
    5
 10
1481.4307500000014
 20
-803.55043999999907
 11
1953.5904699999992
 21
-331.3907200000001
  0
LINE
  8
_0-3_躯体と製品
  6
PLINE2
 62
    5
 10
1497.8302900000035
 20
-809.77809999999999
 11
1951.2497300000014
 21
-356.35866000000021
  0
LINE
  8
_0-3_躯体と製品
  6
PLINE2
 62
    5
 10
1499.7622300000021
 20
-491.06215999999904
 11
1978.6044500000044
 21
-12.219940000000065
  0
LINE
  8
_0-3_躯体と製品
  6
PLINE2
 62
    5
 10
1497.4994500000012
 20
-515.95294000000013
 11
1976.3644500000009
 21
-37.087940000000117
  0
LINE
  8
_0-3_躯体と製品
  6
PLINE2
 62
    5
 10
1495.2368299999998
 20
-540.84196000000111
 11
1974.1228499999997
 21
-61.956740000000082
  0
LINE
  8
_0-3_躯体と製品
  6
PLINE2
 62
    5
 10
1492.9740300000012
 20
-565.7327600000001
 11
1976.9982300000011
 21
-81.707740000000058
  0
LINE
  8
_0-3_躯体と製品
  6
PLINE2
 62
    5
 10
1490.7113300000001
 20
-590.62265999999909
 11
1974.6573300000018
 21
-106.67748000000029
  0
LINE
  8
_0-3_躯体と製品
  6
PLINE2
 62
    5
 10
1488.4485300000015
 20
-615.51346000000012
 11
1972.3166700000002
 21
-131.6445200000004
  0
LINE
  8
_0-3_躯体と製品
  6
PLINE2
 62
    5
 10
1486.1858300000022
 20
-640.40337999999906
 11
1969.9759300000023
 21
-156.6124599999996
  0
LINE
  8
_0-3_躯体と製品
  6
PLINE2
 62
    5
 10
1483.9231100000034
 20
-665.2932800000001
 11
1967.6350900000016
 21
-181.58129999999971
  0
LINE
  8
_0-3_躯体と製品
  6
PLINE2
 62
    5
 10
1481.6604100000022
 20
-690.18317999999908
 11
1965.2943500000019
 21
-206.54924000000005
  0
LINE
  8
_0-3_躯体と製品
  6
PLINE2
 62
    5
 10
1479.3976100000018
 20
-715.07398000000012
 11
1962.9535300000025
 21
-231.51806000000033
  0
LINE
  8
_0-3_躯体と製品
  6
PLINE2
 62
    5
 10
1477.1349100000025
 20
-739.96388000000002
 11
1960.612790000001
 21
-256.48602000000051
  0
LINE
  8
_0-3_躯体と製品
  6
PLINE2
 62
    5
 10
1474.8721299999997
 20
-764.85468000000014
 11
1958.2720300000001
 21
-281.45393999999953
  0
LINE
  8
_0-3_躯体と製品
  6
PLINE2
 62
    5
 10
1472.6094900000007
 20
-789.74369999999908
 11
1955.9312099999988
 21
-306.42277999999976
  0
LINE
  8
_0-3_躯体と製品
  6
PLINE2
 62
    5
 10
1508.8131500000018
 20
-391.50163999999972
 11
1952.3605300000017
 21
52.045740000000364
  0
LINE
  8
_0-3_躯体と製品
  6
PLINE2
 62
    5
 10
1506.5504499999988
 20
-416.39154000000008
 11
1982.5041700000038
 21
59.561379999999417
  0
LINE
  8
_0-3_躯体と製品
  6
PLINE2
 62
    5
 10
1504.28773
 20
-441.28143999999907
 11
1983.0876499999977
 21
37.517660000000205
  0
LINE
  8
_0-3_躯体と製品
  6
PLINE2
 62
    5
 10
1502.0249500000009
 20
-466.1722400000001
 11
1980.8460500000001
 21
12.6488599999999
  0
LINE
  8
_0-3_躯体と製品
  6
PLINE2
 62
    5
 10
1944.2274099999995
 20
-431.26337999999896
 11
1547.0294699999977
 21
-828.46131999999898
  0
LINE
  8
_0-3_躯体と製品
  6
PLINE2
 62
    5
 10
1941.8866699999999
 20
-456.23131999999896
 11
1563.4290099999998
 21
-834.68898000000013
  0
LINE
  8
_0-3_躯体と製品
  6
PLINE2
 62
    5
 10
1939.5458500000022
 20
-481.2001600000001
 11
1579.828550000002
 21
-840.91666000000009
  0
LINE
  8
_0-3_躯体と製品
  6
PLINE2
 62
    5
 10
1937.2051900000024
 20
-506.16720000000009
 11
1596.228070000001
 21
-847.14432000000011
  0
LINE
  8
_0-3_躯体と製品
  6
PLINE2
 62
    3
 10
1510.3342300000004
 20
-25.183940000000007
 11
1436.3540500000017
 21
-822.09594000000016
  0
LINE
  8
_0-3_躯体と製品
  6
CONTINUOUS
 62
    3
 10
1539.7839900000017
 20
-50.820960000000468
 11
1471.6892500000013
 21
-799.86634000000004
  0
LINE
  8
_0-3_躯体と製品
  6
CONTINUOUS
 62
    2
 10
1126.0928100000001
 20
-1315.5861199999999
 11
994.39029000000119
 21
60.705240000000231
  0
LINE
  8
_0-3_躯体と製品
  6
CONTINUOUS
 62
    4
 10
1502.8931699999994
 20
-18.794479999999794
 11
1427.4728300000024
 21
-831.21713999999906
  0
LINE
  8
_0-3_躯体と製品
  6
CONTINUOUS
 62
    2
 10
1476.5632100000021
 20
-856.70000000000005
 11
1484.6672099999978
 21
-835.62959999999998
  0
LINE
  8
_0-3_躯体と製品
  6
CONTINUOUS
 62
    2
 10
1670.4752700000045
 20
-931.52566000000002
 11
1680.2000700000026
 21
-907.21366000000012
  0
LINE
  8
_0-3_躯体と製品
  6
CONTINUOUS
 62
    2
 10
1444.0514299999995
 20
-555.91247999999996
 11
1466.7426299999988
 21
-557.5332800000001
  0
LINE
  8
_0-4_図面枠
  6
CONTINUOUS
 62
    2
 10
725.43881000000147
 20
329.86439999999953
 11
826.87917000000198
 21
329.86439999999953
  0
LINE
  8
_0-4_図面枠
  6
CONTINUOUS
 62
    2
 10
622.643210000002
 20
151.81719999999973
 11
725.43881000000147
 21
329.86439999999953
  0
LINE
  8
_0-4_図面枠
  6
CONTINUOUS
 62
    2
 10
622.643210000002
 20
151.81719999999973
 11
650.92747000000236
 21
180.10144000000014
  0
LINE
  8
_0-4_図面枠
  6
CONTINUOUS
 62
    2
 10
622.643210000002
 20
151.81719999999973
 11
632.99597000000176
 21
190.45420000000024
  0
LINE
  8
_0-3_躯体と製品
  6
PLINE2
 62
    5
 10
1535.9659900000006
 20
-92.819200000000819
 11
1590.645370000002
 21
-38.139819999999645
  0
LINE
  8
_0-3_躯体と製品
  6
PLINE2
 62
    5
 10
1533.703190000002
 20
-117.70996000000036
 11
1620.7901700000002
 21
-30.623880000000099
  0
LINE
  8
_0-3_躯体と製品
  6
PLINE2
 62
    5
 10
1531.4404100000011
 20
-142.60079999999959
 11
1650.931529999998
 21
-23.108820000000037
  0
LINE
  8
_0-3_躯体と製品
  6
PLINE2
 62
    5
 10
1529.1776900000023
 20
-167.49072000000012
 11
1681.0741100000014
 21
-15.593440000000101
  0
LINE
  8
_0-3_躯体と製品
  6
CONTINUOUS
 62
    2
 10
1488.4180500000002
 20
-412.31514000000004
 11
1488.4180500000002
 21
-436.90953999999897
  0
LINE
  8
_0-3_躯体と製品
  6
CONTINUOUS
 62
    2
 10
1476.9868499999993
 20
-425.47834000000012
 11
1500.8884500000022
 21
-425.47834000000012
  0
LINE
  8
_0-3_躯体と製品
  6
CONTINUOUS
 62
    2
 10
1466.3334299999988
 20
-312.33794000000046
 11
1490.6454300000005
 21
-315.57954000000063
  0
LINE
  8
_0-3_躯体と製品
  6
CONTINUOUS
 62
    2
 10
1536.4273899999989
 20
-2.6429200000001174
 11
1543.1737900000007
 21
-29.70212000000015
  0
LINE
  8
_0-3_躯体と製品
  6
CONTINUOUS
 62
    4
 10
1500.1817500000034
 20
-19.470520000000533
 11
1497.5689899999979
 21
-50.58600000000024
  0
LINE
  8
_0-3_躯体と製品
  6
CONTINUOUS
 62
    2
 10
1489.2253700000001
 20
-73.908540000000585
 11
1510.2957700000061
 21
-75.529340000000047
  0
LINE
  8
_0-3_躯体と製品
  6
CONTINUOUS
 62
    3
 10
1537.4628500000035
 20
-76.963140000000976
 11
1539.886050000001
 21
-50.506340000000137
  0
LINE
  8
_0-3_躯体と製品
  6
PLINE2
 62
    5
 10
1541.0676500000009
 20
-65.090339999999969
 11
1560.5028099999981
 21
-45.655180000000655
  0
LINE
  8
_0-3_躯体と製品
  6
CONTINUOUS
 62
    4
 10
2175.8844499999923
 20
-505.71114000000011
 11
2175.8844499999923
 21
-521.51641999999902
  0
LINE
  8
_0-3_躯体と製品
  6
CONTINUOUS
 62
    3
 10
2186.8076499999934
 20
-491.21353999999997
 11
2186.8076499999934
 21
-512.58953999999903
  0
LINE
  8
_0-3_躯体と製品
  6
PLINE2
 62
    3
 10
2199.6844499999934
 20
-390.2063400000003
 11
2199.6844499999934
 21
-828.61514000000011
  0
LINE
  8
_0-3_躯体と製品
  6
PLINE3
 62
    2
 10
2671.9509299999918
 20
282.25318000000004
 11
2671.9509299999918
 21
-1350.2308799999992
  0
LINE
  8
_0-3_躯体と製品
  6
CONTINUOUS
 62
    3
 10
1911.121250000002
 20
-784.39594000000011
 11
1991.378850000001
 21
71.685659999999871
  0
LINE
  8
_0-3_躯体と製品
  6
CONTINUOUS
 62
    3
 10
2191.6844500000025
 20
-514.07114000000001
 11
2191.6844500000025
 21
-351.73833999999999
  0
LINE
  8
_0-3_躯体と製品
  6
CONTINUOUS
 62
    3
 10
2231.3292499999934
 20
-340.6791400000003
 11
2231.3292499999934
 21
-1234.2119399999988
  0
LINE
  8
_0-3_躯体と製品
  6
PLINE2
 62
    3
 10
2231.3292499999934
 20
-839.50681999999915
 11
2671.9509299999918
 21
-839.50681999999915
  0
LINE
  8
_0-3_躯体と製品
  6
CONTINUOUS
 62
    3
 10
2231.3292499999934
 20
-831.50682000000006
 11
2671.9509299999918
 21
-831.50682000000006
  0
LINE
  8
_0-3_躯体と製品
  6
CONTINUOUS
 62
    3
 10
2231.3292499999934
 20
-871.14841999999999
 11
2671.9509299999918
 21
-871.14841999999999
  0
LINE
  8
_0-3_躯体と製品
  6
PLINE2
 62
    3
 10
2671.9509299999918
 20
-1091.7485200000001
 11
2231.3292499999934
 21
-1223.9350399999998
  0
LINE
  8
_0-3_躯体と製品
  6
CONTINUOUS
 62
    4
 10
2191.0156499999921
 20
-831.50682000000006
 11
2191.0156499999921
 21
-1234.985079999999
  0
LINE
  8
_0-3_躯体と製品
  6
PLINE2
 62
    5
 10
1825.823870000002
 20
-934.33251999999902
 11
1957.8761099999992
 21
-802.28027999999995
  0
LINE
  8
_0-3_躯体と製品
  6
PLINE2
 62
    5
 10
1842.2234100000042
 20
-940.56017999999995
 11
1974.2433900000051
 21
-808.54097999999999
  0
LINE
  8
_0-3_躯体と製品
  6
PLINE2
 62
    5
 10
1858.6235300000026
 20
-946.78808000000004
 11
1990.6101099999978
 21
-814.80148000000008
  0
LINE
  8
_0-3_躯体と製品
  6
PLINE2
 62
    5
 10
1875.0230499999998
 20
-953.01574000000005
 11
2006.9768300000014
 21
-821.06196
  0
LINE
  8
_0-3_躯体と製品
  6
PLINE2
 62
    5
 10
1891.4231699999982
 20
-959.24361999999996
 11
2023.3435500000014
 21
-827.32244000000014
  0
LINE
  8
_0-3_躯体と製品
  6
PLINE2
 62
    5
 10
1907.8227100000004
 20
-965.47127999999998
 11
2039.71083
 21
-833.58316000000013
  0
LINE
  8
_0-3_躯体と製品
  6
PLINE2
 62
    5
 10
1924.2222300000012
 20
-971.69895999999903
 11
2056.0775500000018
 21
-839.84363999999914
  0
LINE
  8
_0-3_躯体と製品
  6
PLINE2
 62
    5
 10
1940.6223499999996
 20
-977.92684000000008
 11
2072.4442700000018
 21
-846.10411999999997
  0
LINE
  8
_0-3_躯体と製品
  6
PLINE2
 62
    5
 10
1957.0218700000005
 20
-984.1545000000001
 11
2088.8109900000018
 21
-852.36460000000011
  0
LINE
  8
_0-3_躯体と製品
  6
PLINE2
 62
    5
 10
1973.4214100000045
 20
-990.38217999999915
 11
2105.1782700000022
 21
-858.6253200000001
  0
LINE
  8
_0-3_躯体と製品
  6
PLINE2
 62
    5
 10
1989.8209499999994
 20
-996.60984000000008
 11
2121.544990000004
 21
-864.88580000000002
  0
LINE
  8
_0-3_躯体と製品
  6
PLINE2
 62
    5
 10
2006.2210700000032
 20
-1002.83772
 11
2137.911709999993
 21
-871.14627999999993
  0
LINE
  8
_0-3_躯体と製品
  6
PLINE2
 62
    5
 10
2022.6206099999999
 20
-1009.06538
 11
2154.2789899999934
 21
-877.40700000000015
  0
LINE
  8
_0-3_躯体と製品
  6
PLINE2
 62
    5
 10
2039.0201300000008
 20
-1015.2930599999991
 11
2170.6457099999934
 21
-883.66747999999893
  0
LINE
  8
_0-3_躯体と製品
  6
PLINE2
 62
    5
 10
2055.419670000003
 20
-1021.52072
 11
2184.3292500000025
 21
-892.61113999999907
  0
LINE
  8
_0-3_躯体と製品
  6
PLINE2
 62
    5
 10
2071.8192100000015
 20
-1027.7483799999991
 11
2184.3292500000025
 21
-915.23916000000008
  0
LINE
  8
_0-3_躯体と製品
  6
CONTINUOUS
 62
    3
 10
2184.3292500000025
 20
-889.01834000000008
 11
2184.3292500000025
 21
-1193.5503399999993
  0
LINE
  8
_0-3_躯体と製品
  6
PLINE2
 62
    3
 10
2199.6844499999934
 20
-828.61514000000011
 11
2199.6844499999934
 21
-1231.9911399999987
  0
LINE
  8
_0-3_躯体と製品
  6
CONTINUOUS
 62
    2
 10
1871.6431699999994
 20
-1011.8029000000001
 11
1881.367970000003
 21
-984.24929999999904
  0
LINE
  8
_0-3_躯体と製品
  6
CONTINUOUS
 62
    4
 10
2191.0156499999921
 20
-1234.985079999999
 11
2002.6455499999975
 21
-1291.49612
  0
LINE
  8
_0-3_躯体と製品
  6
CONTINUOUS
 62
    4
 10
2002.7990500000014
 20
-1292.0077999999999
 11
2019.4904099999985
 21
-1287.0004000000001
  0
LINE
  8
_0-3_躯体と製品
  6
CONTINUOUS
 62
    4
 10
2002.6455499999975
 20
-1291.49612
 11
2002.7990500000014
 21
-1292.0077999999999
  0
LINE
  8
_0-3_躯体と製品
  6
PLINE2
 62
    3
 10
2199.6844499999934
 20
-1231.9911399999987
 11
2199.6844499999934
 21
-1326.4919400000001
  0
LINE
  8
_0-3_躯体と製品
  6
CONTINUOUS
 62
    3
 10
2191.0156499999921
 20
-1233.6415400000001
 11
2191.0156499999921
 21
-1327.1319399999993
  0
LINE
  8
_0-3_躯体と製品
  6
CONTINUOUS
 62
    3
 10
2231.3292499999934
 20
-1234.2119399999988
 11
2231.3292499999934
 21
-1329.7519400000001
  0
LINE
  8
_0-3_躯体と製品
  6
CONTINUOUS
 62
    2
 10
2175.3068499999918
 20
-1173.59754
 11
2207.3068499999918
 21
-1173.59754
  0
LINE
  8
_0-3_躯体と製品
  6
CONTINUOUS
 62
    3
 10
2184.0556500000021
 20
-1193.5047400000001
 11
2190.8956499999931
 21
-1193.5047400000001
  0
LINE
  8
_0-3_躯体と製品
  6
PLINE2
 62
    5
 10
2088.2193100000004
 20
-1033.976279999999
 11
2184.3292500000025
 21
-937.86634000000004
  0
LINE
  8
_0-3_躯体と製品
  6
PLINE2
 62
    5
 10
2104.6188499999989
 20
-1040.203939999999
 11
2184.3292500000025
 21
-960.49353999999994
  0
LINE
  8
_0-3_躯体と製品
  6
PLINE2
 62
    5
 10
2121.0184100000024
 20
-1046.4316200000001
 11
2184.3292500000025
 21
-983.12156000000004
  0
LINE
  8
_0-3_躯体と製品
  6
PLINE2
 62
    5
 10
2137.4179499999918
 20
-1052.6592799999989
 11
2184.3292500000025
 21
-1005.748779999999
  0
LINE
  8
_0-3_躯体と製品
  6
PLINE2
 62
    3
 10
2098.4044499999982
 20
-1072.70634
 11
2184.3396499999926
 21
-1104.58554
  0
LINE
  8
_0-3_躯体と製品
  6
CONTINUOUS
 62
    2
 10
2072.0683300000019
 20
-1080.7936400000001
 11
2080.1723300000012
 21
-1058.1024400000001
  0
LINE
  8
_0-3_躯体と製品
  6
CONTINUOUS
 62
    4
 10
2096.0356499999998
 20
-1080.49728
 11
2096.0356499999998
 21
-1116.49728
  0
LINE
  8
_0-3_躯体と製品
  6
CONTINUOUS
 62
    4
 10
2096.9860500000013
 20
-1116.49728
 11
2096.9860500000013
 21
-1109.2108800000001
  0
LINE
  8
_0-3_躯体と製品
  6
CONTINUOUS
 62
    3
 10
2096.0356499999998
 20
-1116.49728
 11
2096.9860500000013
 21
-1116.49728
  0
LINE
  8
_0-3_躯体と製品
  6
PLINE2
 62
    5
 10
2153.8174900000031
 20
-1058.8869400000001
 11
2184.3292500000025
 21
-1028.376
  0
LINE
  8
_0-3_躯体と製品
  6
CONTINUOUS
 62
    5
 10
2170.2175699999934
 20
-1065.1148199999998
 11
2184.3292500000025
 21
-1051.0031400000003
  0
LINE
  8
_0-3_躯体と製品
  6
CONTINUOUS
 62
    2
 10
2172.1068499999928
 20
-1134.3975399999999
 11
2172.9068499999921
 21
-1134.3975399999999
  0
LINE
  8
_0-3_躯体と製品
  6
CONTINUOUS
 62
    2
 10
2172.1068499999928
 20
-1134.3975399999999
 11
2208.1068499999928
 21
-1134.3975399999999
  0
LINE
  8
_0-3_躯体と製品
  6
CONTINUOUS
 62
    2
 10
2172.1068499999928
 20
-1134.3975399999999
 11
2174.5068499999925
 21
-1134.3975399999999
  0
LINE
  8
_0-3_躯体と製品
  6
CONTINUOUS
 62
    3
 10
2184.1988499999934
 20
-1070.92554
 11
2190.6628499999933
 21
-1070.92554
  0
LINE
  8
_0-3_躯体と製品
  6
CONTINUOUS
 62
    3
 10
1911.121250000002
 20
-784.39594000000011
 11
2184.2788500000024
 21
-888.88234000000011
  0
LINE
  8
_0-3_躯体と製品
  6
PLINE2
 62
    5
 10
1694.6264299999984
 20
-884.51076000000012
 11
1923.160550000006
 21
-655.97663999999895
  0
LINE
  8
_0-3_躯体と製品
  6
PLINE2
 62
    5
 10
1711.0265500000005
 20
-890.73864000000003
 11
1920.8197300000029
 21
-680.945459999999
  0
LINE
  8
_0-3_躯体と製品
  6
PLINE2
 62
    5
 10
1727.4260900000008
 20
-896.96629999999914
 11
1918.4789899999996
 21
-705.91340000000014
  0
LINE
  8
_0-3_躯体と製品
  6
PLINE2
 62
    5
 10
1743.8256300000048
 20
-903.19396000000006
 11
1916.13825
 21
-730.88134000000014
  0
LINE
  8
_0-3_躯体と製品
  6
PLINE2
 62
    5
 10
1760.2251500000039
 20
-909.42164000000002
 11
1913.7975100000021
 21
-755.84928000000014
  0
LINE
  8
_0-3_躯体と製品
  6
PLINE2
 62
    5
 10
1776.6252700000023
 20
-915.64951999999994
 11
1908.7753900000043
 21
-783.49860000000012
  0
LINE
  8
_0-3_躯体と製品
  6
PLINE2
 62
    5
 10
1793.0248100000044
 20
-921.87717999999904
 11
1925.1426700000011
 21
-789.75932000000012
  0
LINE
  8
_0-3_躯体と製品
  6
PLINE2
 62
    5
 10
1809.4243500000011
 20
-928.10486000000014
 11
1941.5099699999992
 21
-796.02001999999993
  0
LINE
  8
_0-3_躯体と製品
  6
CONTINUOUS
 62
    3
 10
2191.6844500000025
 20
-679.58474000000001
 11
2191.6844500000025
 21
-832.10256000000004
  0
LINE
  8
_0-3_躯体と製品
  6
PLINE2
 62
    3
 10
2199.5004499999923
 20
-839.50681999999915
 11
2231.3292499999934
 21
-839.50681999999915
  0
LINE
  8
_0-3_躯体と製品
  6
PLINE2
 62
    3
 10
2199.5004499999923
 20
-871.14841999999999
 11
2231.3292499999934
 21
-871.14841999999999
  0
LINE
  8
_0-3_躯体と製品
  6
PLINE2
 62
    3
 10
2199.5004499999923
 20
-831.50682000000006
 11
2231.3292499999934
 21
-831.50682000000006
  0
LINE
  8
_0-3_躯体と製品
  6
CONTINUOUS
 62
    4
 10
2160.7746899999929
 20
-839.60932000000003
 11
2191.0156499999921
 21
-831.50682000000006
  0
LINE
  8
_0-3_躯体と製品
  6
CONTINUOUS
 62
    2
 10
2180.906850000003
 20
-876.79754000000003
 11
2208.1068499999928
 21
-876.79754000000003
  0
LINE
  8
_0-3_躯体と製品
  6
CONTINUOUS
 62
    2
 10
2201.0524499999919
 20
-851.83482000000004
 11
2222.0188499999931
 21
-851.83482000000004
  0
LINE
  8
_0-3_躯体と製品
  6
CONTINUOUS
 62
    2
 10
2211.8044499999924
 20
-841.88922000000002
 11
2211.8044499999924
 21
-865.00602000000003
  0
LINE
  8
_0-3_躯体と製品
  6
CONTINUOUS
 62
    4
 10
2175.8844499999923
 20
-521.51641999999902
 11
2027.9292499999974
 21
-645.66486000000009
  0
LINE
  8
_0-3_躯体と製品
  6
CONTINUOUS
 62
    3
 10
2186.7348499999935
 20
-682.9711400000001
 11
2035.6924500000023
 21
-642.4367400000001
  0
LINE
  8
_0-3_躯体と製品
  6
CONTINUOUS
 62
    3
 10
2190.4172500000022
 20
-678.98954000000003
 11
2044.6188500000007
 21
-639.86314000000016
  0
LINE
  8
_0-3_躯体と製品
  6
CONTINUOUS
 62
    3
 10
2191.1132499999931
 20
-515.29673999999909
 11
2044.3116500000015
 21
-638.47753999999895
  0
LINE
  8
_0-3_躯体と製品
  6
CONTINUOUS
 62
    4
 10
2027.9292499999974
 20
-661.66486000000009
 11
2027.9292499999974
 21
-645.66486000000009
  0
ARC
  8
_0-3_躯体と製品
  6
CONTINUOUS
 62
    3
 10
2036.1068500000019
 20
-640.89193999999907
 40
1.6000000000000001
 50
130.01095599999951
 51
254.98365800000414
  0
ARC
  8
_0-3_躯体と製品
  6
CONTINUOUS
 62
    3
 10
2044.8260500000033
 20
-639.09033999999997
 40
0.8
 50
130.01095599999951
 51
254.9910889999959
  0
LINE
  8
_0-3_躯体と製品
  6
CONTINUOUS
 62
    2
 10
2093.8108500000017
 20
-573.64553999999998
 11
2110.4508499999993
 21
-598.47753999999895
  0
LINE
  8
_0-3_躯体と製品
  6
CONTINUOUS
 62
    3
 10
2191.6844500000025
 20
-679.86874000000012
 11
2191.6844500000025
 21
-515.02153999999996
  0
ARC
  8
_0-3_躯体と製品
  6
CONTINUOUS
 62
    3
 10
2190.0028499999935
 20
-680.53434000000016
 40
1.6000000000000001
 50
0
 51
74.98366500000165
  0
LINE
  8
_0-3_躯体と製品
  6
CONTINUOUS
 62
    3
 10
2191.602849999992
 20
-703.37354000000005
 11
2186.7372499999929
 21
-703.41514000000006
  0
LINE
  8
_0-3_躯体と製品
  6
CONTINUOUS
 62
    3
 10
2191.602849999992
 20
-680.53434000000016
 11
2191.602849999992
 21
-703.37354000000005
  0
LINE
  8
_0-3_躯体と製品
  6
CONTINUOUS
 62
    3
 10
2186.8028499999928
 20
-703.43754000000013
 11
2186.7388500000034
 21
-683.08554000000004
  0
LINE
  8
_0-3_躯体と製品
  6
CONTINUOUS
 62
    3
 10
2191.602849999992
 20
-703.43754000000013
 11
2186.8028499999928
 21
-703.43754000000013
  0
LINE
  8
_0-3_躯体と製品
  6
CONTINUOUS
 62
    2
 10
2176.3292499999934
 20
-693.47273999999993
 11
2208.3292499999934
 21
-693.47273999999993
  0
ARC
  8
_0-3_躯体と製品
  6
CONTINUOUS
 62
    3
 10
2190.084449999993
 20
-514.07114000000001
 40
1.6000000000000001
 50
310.01095599999951
 51
0.0000000000000063
  0
LINE
  8
_0-3_躯体と製品
  6
CONTINUOUS
 62
    3
 10
2175.6516499999925
 20
-521.71114000000011
 11
2186.8076499999934
 21
-512.4615399999991
  0
LINE
  8
_0-3_躯体と製品
  6
CONTINUOUS
 62
    2
 10
2671.9980499999929
 20
-896.78233999999998
 11
2680.7676499999925
 21
-896.78233999999998
  0
LINE
  8
_0-3_躯体と製品
  6
CONTINUOUS
 62
    2
 10
2831.1036499999918
 20
-890.51834000000008
 11
2831.1036499999918
 21
-904.29914000000008
  0
LINE
  8
_0-3_躯体と製品
  6
CONTINUOUS
 62
    2
 10
2822.3340499999922
 20
-896.78233999999998
 11
2838.6204499999931
 21
-896.78233999999998
  0
LINE
  8
_0-3_躯体と製品
  6
PLINE2
 62
    3
 10
2298.936449999992
 20
-324.83274000000006
 11
2673.2340500000028
 21
-231.50954000000024
  0
LINE
  8
_0-3_躯体と製品
  6
CONTINUOUS
 62
    3
 10
2232.342049999992
 20
149.88565999999975
 11
2669.8004500000025
 21
149.88565999999975
  0
LINE
  8
_0-3_躯体と製品
  6
CONTINUOUS
 62
    3
 10
2231.7516499999929
 20
154.68565999999993
 11
2669.8004500000025
 21
154.68565999999993
  0
LINE
  8
_0-3_躯体と製品
  6
CONTINUOUS
 62
    3
 10
2672.0732499999922
 20
-264.62554000000011
 11
2216.4084499999917
 21
-378.23513999999989
  0
LINE
  8
_0-3_躯体と製品
  6
CONTINUOUS
 62
    4
 10
1968.0612500000025
 20
-399.2559399999999
 11
2671.7252499999922
 21
-223.3399400000003
  0
LINE
  8
_0-3_躯体と製品
  6
CONTINUOUS
 62
    3
 10
1953.8634700000021
 20
-443.69514000000004
 11
2203.7452500000018
 21
-381.39273999999955
  0
LINE
  8
_0-3_躯体と製品
  6
CONTINUOUS
 62
    2
 10
1998.2121100000004
 20
-382.47685999999987
 11
2004.0769099999998
 21
-406.00005999999917
  0
LINE
  8
_0-3_躯体と製品
  6
PLINE2
 62
    3
 10
1952.4372100000001
 20
-411.22394000000008
 11
2191.5716499999926
 21
-351.60153999999989
  0
LINE
  8
_0-3_躯体と製品
  6
CONTINUOUS
 62
    4
 10
1968.0838899999981
 20
-399.25028000000054
 11
1968.0838899999981
 21
-411.63638000000014
  0
LINE
  8
_0-3_躯体と製品
  6
CONTINUOUS
 62
    2
 10
1894.9772500000054
 20
-426.43193999999994
 11
1913.6332500000044
 21
-426.43193999999994
  0
LINE
  8
_0-3_躯体と製品
  6
CONTINUOUS
 62
    2
 10
1904.3052499999976
 20
-415.83194000000003
 11
1904.3052499999976
 21
-436.60793999999896
  0
LINE
  8
_0-3_躯体と製品
  6
CONTINUOUS
 62
    3
 10
1951.5499500000024
 20
-403.69514000000004
 11
1967.8492499999993
 21
-399.63193999999999
  0
LINE
  8
_0-3_躯体と製品
  6
CONTINUOUS
 62
    3
 10
2186.8076499999934
 20
-491.21353999999997
 11
2191.602849999992
 21
-491.21353999999997
  0
LINE
  8
_0-3_躯体と製品
  6
CONTINUOUS
 62
    2
 10
2176.3292499999934
 20
-501.47273999999902
 11
2208.3292499999934
 21
-501.47273999999902
  0
LINE
  8
_0-3_躯体と製品
  6
CONTINUOUS
 62
    3
 10
2191.4972500000022
 20
-351.61993999999993
 11
2231.182849999992
 21
-341.72554000000059
  0
LINE
  8
_0-3_躯体と製品
  6
CONTINUOUS
 62
    2
 10
2200.8028499999928
 20
-361.96394000000009
 11
2221.9228499999917
 21
-361.96394000000009
  0
LINE
  8
_0-3_躯体と製品
  6
CONTINUOUS
 62
    3
 10
2191.4516499999918
 20
-390.2063400000003
 11
2199.6180499999919
 21
-390.2063400000003
  0
LINE
  8
_0-3_躯体と製品
  6
CONTINUOUS
 62
    2
 10
2219.1676499999921
 20
-373.70713999999975
 11
2211.2410899999923
 21
-368.95119999999974
  0
LINE
  8
_0-3_躯体と製品
  6
CONTINUOUS
 62
    2
 10
2212.0028499999935
 20
-352.36394000000075
 11
2212.0028499999935
 21
-374.12394000000018
  0
LINE
  8
_0-3_躯体と製品
  6
CONTINUOUS
 62
    2
 10
2258.3621500000027
 20
-318.08452000000057
 11
2264.020549999992
 21
-340.78212000000087
  0
LINE
  8
_0-3_躯体と製品
  6
CONTINUOUS
 62
    2
 10
2292.4820499999933
 20
-306.25834000000009
 11
2292.5924500000019
 21
-306.70073999999943
  0
LINE
  8
_0-3_躯体と製品
  6
PLINE2
 62
    3
 10
2301.2484500000028
 20
-324.2559399999999
 11
2231.1084500000034
 21
-341.7439399999995
  0
LINE
  8
_0-3_躯体と製品
  6
CONTINUOUS
 62
    2
 10
1747.6333700000014
 20
50.016639999999938
 11
1754.3797700000014
 21
22.957439999999565
  0
LINE
  8
_0-3_躯体と製品
  6
CONTINUOUS
 62
    2
 10
1957.2863500000003
 20
102.28900000000004
 11
1964.0327500000021
 21
75.2297999999995
  0
LINE
  8
_0-3_躯体と製品
  6
CONTINUOUS
 62
    2
 10
1959.9104299999999
 20
90.259259999999642
 11
1959.9104299999999
 21
101.07845999999995
  0
LINE
  8
_0-3_躯体と製品
  6
CONTINUOUS
 62
    3
 10
1992.5252499999988
 20
83.911259999999174
 11
1993.4604500000023
 21
93.888860000000079
  0
LINE
  8
_0-3_躯体と製品
  6
CONTINUOUS
 62
    3
 10
2200.7428899999923
 20
113.97429999999923
 11
2192.0868499999924
 21
152.92645999999985
  0
LINE
  8
_0-3_躯体と製品
  6
CONTINUOUS
 62
    3
 10
2193.2868499999931
 20
140.14805999999953
 11
2115.6628500000006
 21
120.79446000000013
  0
LINE
  8
_0-3_躯体と製品
  6
CONTINUOUS
 62
    3
 10
2114.4244500000023
 20
125.33925999999997
 11
2115.4612500000003
 21
120.67365999999987
  0
LINE
  8
_0-3_躯体と製品
  6
CONTINUOUS
 62
    3
 10
2192.9380500000025
 20
140.06085999999976
 11
2232.342049999992
 21
149.88565999999975
  0
LINE
  8
_0-3_躯体と製品
  6
CONTINUOUS
 62
    3
 10
2191.7764499999921
 20
144.71845999999965
 11
2231.7516499999929
 21
154.68565999999993
  0
LINE
  8
_0-3_躯体と製品
  6
CONTINUOUS
 62
    2
 10
2166.9393499999933
 20
154.56135999999947
 11
2173.6857499999933
 21
127.50215999999955
  0
LINE
  8
_0-3_躯体と製品
  6
CONTINUOUS
 62
    4
 10
2192.2972500000033
 20
152.92245999999977
 11
2192.2972500000033
 21
194.33845999999954
  0
LINE
  8
_0-3_躯体と製品
  6
CONTINUOUS
 62
    4
 10
2191.0228499999921
 20
152.63925999999958
 11
2192.2972500000033
 21
152.92245999999977
  0
LINE
  8
_0-3_躯体と製品
  6
CONTINUOUS
 62
    3
 10
2190.965249999992
 20
152.62966000000006
 11
2191.0228499999921
 21
152.63925999999958
  0
LINE
  8
_0-3_躯体と製品
  6
CONTINUOUS
 62
    4
 10
2193.3660499999933
 20
194.33845999999954
 11
2193.3660499999933
 21
186.32245999999947
  0
LINE
  8
_0-3_躯体と製品
  6
CONTINUOUS
 62
    4
 10
2192.2972500000033
 20
194.33845999999954
 11
2193.3660499999933
 21
194.33845999999954
  0
LINE
  8
_0-3_躯体と製品
  6
CONTINUOUS
 62
    4
 10
2189.302049999993
 20
152.34645999999987
 11
2191.0228499999921
 21
152.63925999999958
  0
LINE
  8
_0-3_躯体と製品
  6
CONTINUOUS
 62
    2
 10
2514.8361900000018
 20
-255.4848599999998
 11
2519.6713899999922
 21
-274.88005999999996
  0
LINE
  8
_0-3_躯体と製品
  6
CONTINUOUS
 62
    2
 10
2672.117250000003
 20
-249.08954000000062
 11
2678.4604499999932
 21
-249.08954000000062
  0
LINE
  8
_0-3_躯体と製品
  6
CONTINUOUS
 62
    2
 10
2832.1124499999933
 20
-289.26313999999991
 11
2831.0580500000033
 21
-293.49193999999966
  0
LINE
  8
_0-3_躯体と製品
  6
CONTINUOUS
 62
    2
 10
2834.2212499999932
 20
-280.8055399999995
 11
2832.1124499999933
 21
-289.26313999999991
  0
LINE
  8
_0-3_躯体と製品
  6
CONTINUOUS
 62
    2
 10
2825.7636499999935
 20
-285.03434000000038
 11
2838.4500500000031
 21
-288.1967400000002
  0
LINE
  8
_0-3_躯体と製品
  6
PLINE2
 62
    3
 10
3151.4268499999926
 20
-1235.5913
 11
3606.2337500000031
 21
-1372.0333800000003
  0
TEXT
  8
_0-4_図面枠
 62
    7
 10
3967.5534299999927
 20
-1841.9447399999999
 40
60
 41
0.8000000000000013
 50
0
  1
Ｌ型鋼
  0
TEXT
  8
_0-4_図面枠
 62
    7
 10
3970.8328499999934
 20
-1986.2224999999989
 40
60
 41
0.8000000000000013
 50
0
  1
Ｌ型鋼
  0
TEXT
  8
_0-4_図面枠
 62
    7
 10
3971.4883499999924
 20
-2290.3374000000003
 40
60
 41
0.7999999999999988
 50
0
  1
Ｌ型鋼
  0
TEXT
  8
_0-4_図面枠
 62
    7
 10
3971.4883499999924
 20
-2140.3373999999999
 40
60
 41
0.7999999999999988
 50
0
  1
Ｌ型鋼
  0
LINE
  8
_0-4_図面枠
  6
CONTINUOUS
 62
    2
 10
3663.9044899999917
 20
-1574.8827999999999
 11
3663.9044899999917
 21
-2324.882799999999
  0
LINE
  8
_0-4_図面枠
  6
CONTINUOUS
 62
    2
 10
3263.9044899999917
 20
-1574.8827999999999
 11
3263.9044899999917
 21
-2324.882799999999
  0
LINE
  8
_0-4_図面枠
  6
CONTINUOUS
 62
    2
 10
3913.9044899999917
 20
-1574.8827999999999
 11
3913.9044899999917
 21
-2324.882799999999
  0
TEXT
  8
_0-4_図面枠
 62
    7
 10
3359.9740699999929
 20
-2295.0609199999999
 40
60
 41
0.8000000000000006
 50
0
  1
５１８０
  0
TEXT
  8
_0-4_図面枠
 62
    7
 10
2959.9740699999929
 20
-2295.0609199999999
 40
60
 41
0.7999999999999993
 50
0
  1
　１５０
  0
TEXT
  8
_0-4_図面枠
 62
    7
 10
3725.279869999993
 20
-2307.7354799999998
 40
60
 41
0.8000000000000013
 50
0
  1
１．０
  0
TEXT
  8
_0-4_図面枠
 62
    7
 10
3369.8660499999933
 20
-2005.1505000000002
 40
60
 41
0.7999999999999987
 50
0
  1
３１１０
  0
TEXT
  8
_0-4_図面枠
 62
    7
 10
3364.4619899999925
 20
-2151.2239399999999
 40
60
 41
0.7999999999999987
 50
0
  1
３８８０
  0
TEXT
  8
_0-4_図面枠
 62
    7
 10
3361.1429099999932
 20
-1852.2538399999999
 40
60
 41
0.8000000000000006
 50
0
  1
２５９０
  0
TEXT
  8
_0-4_図面枠
 62
    7
 10
2959.9740699999929
 20
-1845.060919999999
 40
60
 41
0.7999999999999993
 50
0
  1
　１５０
  0
TEXT
  8
_0-4_図面枠
 62
    7
 10
2959.9740699999929
 20
-2145.0608999999999
 40
60
 41
0.7999999999999993
 50
0
  1
　１５０
  0
TEXT
  8
_0-4_図面枠
 62
    7
 10
2959.9740699999929
 20
-1995.060919999999
 40
60
 41
0.7999999999999993
 50
0
  1
　１５０
  0
TEXT
  8
_0-4_図面枠
 62
    7
 10
3066.7703499999934
 20
-1683.3498799999988
 40
60
 41
0.7999999999999982
 50
0
  1
Ｊ
  0
TEXT
  8
_0-4_図面枠
 62
    7
 10
3466.7703499999934
 20
-1683.3498799999988
 40
60
 41
0.7999999999999982
 50
0
  1
Ｅ
  0
TEXT
  8
_0-4_図面枠
 62
    7
 10
3725.279869999993
 20
-1857.7354799999998
 40
60
 41
0.8000000000000013
 50
0
  1
０．８
  0
TEXT
  8
_0-4_図面枠
 62
    7
 10
3725.279869999993
 20
-2007.7354799999998
 40
60
 41
0.8000000000000013
 50
0
  1
１．０
  0
TEXT
  8
_0-4_図面枠
 62
    7
 10
3725.279869999993
 20
-2157.7354599999999
 40
60
 41
0.8000000000000013
 50
0
  1
１．０
  0
TEXT
  8
_0-4_図面枠
 62
    7
 10
3720.849929999993
 20
-1692.1388000000002
 40
60
 41
0.7999999999999982
 50
0
  1
板厚
  0
TEXT
  8
_0-4_図面枠
 62
    7
 10
3994.9038899999923
 20
-1691.3397
 40
60
 41
0.800000000000002
 50
0
  1
支柱
  0
LINE
  8
_0-4_図面枠
  6
CONTINUOUS
 62
    3
 10
4213.9044899999917
 20
-2324.882799999999
 11
4213.9044899999917
 21
-1574.8827999999999
  0
LINE
  8
_0-3_躯体と製品
  6
CONTINUOUS
 62
    3
 10
3855.4340499999926
 20
-1.0527400000007674
 11
3935.5612099999926
 21
-839.32934
  0
LINE
  8
_0-3_躯体と製品
  6
CONTINUOUS
 62
    3
 10
3267.4268500000035
 20
-1091.7892200000001
 11
3935.5612099999926
 21
-839.32934
  0
LINE
  8
_0-3_躯体と製品
  6
PLINE2
 62
    3
 10
3111.4268499999926
 20
-1084.5703400000002
 11
3111.4268499999926
 21
-1221.9448600000001
  0
LINE
  8
_0-3_躯体と製品
  6
PLINE2
 62
    3
 10
3151.4268499999926
 20
-1084.5703400000002
 11
3151.4268499999926
 21
-1234.0832399999999
  0
LINE
  8
_0-3_躯体と製品
  6
PLINE2
 62
    3
 10
3143.4268499999926
 20
-1084.5703400000002
 11
3143.4268499999926
 21
-1308.3143400000001
  0
LINE
  8
_0-3_躯体と製品
  6
CONTINUOUS
 62
    3
 10
3111.4268499999926
 20
-1222.57816
 11
3111.4268499999926
 21
-1308.3143400000001
  0
LINE
  8
_0-3_躯体と製品
  6
CONTINUOUS
 62
    3
 10
3151.4268499999926
 20
-1234.36472
 11
3151.4268499999926
 21
-1308.3143400000001
  0
LINE
  8
_0-3_躯体と製品
  6
CONTINUOUS
 62
    3
 10
3267.4268500000035
 20
-1269.2787000000001
 11
3267.4268500000035
 21
-1091.7892200000001
  0
LINE
  8
_0-3_躯体と製品
  6
CONTINUOUS
 62
    4
 10
3341.1028100000021
 20
-1292.0077999999999
 11
3324.4114699999918
 21
-1287.0004000000001
  0
LINE
  8
_0-3_躯体と製品
  6
CONTINUOUS
 62
    4
 10
3341.2563299999929
 20
-1291.49612
 11
3341.1028100000021
 21
-1292.0077999999999
  0
LINE
  8
_0-3_躯体と製品
  6
CONTINUOUS
 62
    2
 10
2985.1980499999918
 20
-898.03513999999996
 11
2997.726049999992
 21
-898.03513999999996
  0
LINE
  8
_0-3_躯体と製品
  6
CONTINUOUS
 62
    2
 10
2991.4620499999928
 20
-893.02394000000004
 11
2991.4620499999928
 21
-904.29914000000008
  0
LINE
  8
_0-3_躯体と製品
  6
CONTINUOUS
 62
    2
 10
3144.3036499999926
 20
-898.03513999999996
 11
3158.0844500000021
 21
-898.03513999999996
  0
LINE
  8
_0-3_躯体と製品
  6
CONTINUOUS
 62
    2
 10
3151.820449999992
 20
-893.02394000000004
 11
3151.820449999992
 21
-903.0463400000001
  0
LINE
  8
_0-3_躯体と製品
  6
CONTINUOUS
 62
    3
 10
3935.5748499999918
 20
-839.48634000000015
 11
3935.2628499999919
 21
-837.45834000000013
  0
LINE
  8
_0-3_躯体と製品
  6
CONTINUOUS
 62
    4
 10
3922.3324499999926
 20
-844.32794000000013
 11
3935.5748499999918
 21
-839.48634000000015
  0
LINE
  8
_0-3_躯体と製品
  6
CONTINUOUS
 62
    3
 10
3151.8300499999932
 20
175.30166000000008
 11
3855.4340499999926
 21
-1.0527400000007674
  0
LINE
  8
_0-3_躯体と製品
  6
PLINE2
 62
    3
 10
3390.9765099999931
 20
-403.22393999999906
 11
3661.6412500000024
 21
-403.22393999999906
  0
LINE
  8
_0-3_躯体と製品
  6
PLINE2
 62
    3
 10
3391.9572299999927
 20
-411.22394000000008
 11
3660.2612499999923
 21
-411.22394000000008
  0
LINE
  8
_0-3_躯体と製品
  6
PLINE2
 62
    3
 10
3388.655629999992
 20
-443.22713999999905
 11
3657.5012499999921
 21
-443.22713999999905
  0
LINE
  8
_0-3_躯体と製品
  6
PLINE2
 62
    3
 10
3140.6492500000022
 20
-381.39273999999955
 11
3388.6796499999928
 21
-443.23353999999995
  0
LINE
  8
_0-3_躯体と製品
  6
PLINE2
 62
    3
 10
3043.1460499999921
 20
-324.2559399999999
 11
3391.9572299999927
 21
-411.22394000000008
  0
LINE
  8
_0-3_躯体と製品
  6
CONTINUOUS
 62
    2
 10
2984.3436500000025
 20
-325.91273999999953
 11
2999.1444499999925
 21
-329.60233999999957
  0
LINE
  8
_0-3_躯体と製品
  6
CONTINUOUS
 62
    2
 10
2993.5060500000018
 20
-320.97914000000003
 11
2990.6940499999928
 21
-332.25594000000069
  0
LINE
  8
_0-3_躯体と製品
  6
CONTINUOUS
 62
    2
 10
3144.3332499999924
 20
-364.67674000000056
 11
3159.1340500000024
 21
-368.36634000000072
  0
LINE
  8
_0-3_躯体と製品
  6
CONTINUOUS
 62
    2
 10
3151.9156500000026
 20
-369.61033999999984
 11
3151.2124500000027
 21
-372.42954000000009
  0
LINE
  8
_0-3_躯体と製品
  6
CONTINUOUS
 62
    2
 10
3154.200449999993
 20
-360.44793999999979
 11
3151.9156500000026
 21
-369.61033999999984
  0
LINE
  8
_0-3_躯体と製品
  6
CONTINUOUS
 62
    3
 10
3376.5452499999919
 20
-399.63193999999999
 11
3390.8452500000021
 21
-403.19674000000009
  0
LINE
  8
_0-3_躯体と製品
  6
CONTINUOUS
 62
    3
 10
3399.4860499999922
 20
-443.22713999999905
 11
3388.5172499999935
 21
-443.22713999999905
  0
LINE
  8
_0-3_躯体と製品
  6
CONTINUOUS
 62
    2
 10
3185.8316499999928
 20
154.07925999999964
 11
3199.6540499999919
 21
150.63285999999994
  0
LINE
  8
_0-3_躯体と製品
  6
CONTINUOUS
 62
    2
 10
3191.055649999993
 20
146.89205999999956
 11
3189.9620499999928
 21
142.50805999999943
  0
LINE
  8
_0-3_躯体と製品
  6
CONTINUOUS
 62
    2
 10
3193.8980499999925
 20
158.29045999999994
 11
3191.055649999993
 21
146.89205999999956
  0
CIRCLE
  8
_0-3_躯体と製品
  6
CONTINUOUS
 62
    2
 10
3192.1444500000034
 20
152.15285999999924
 40
2.7728000000000002
  0
LINE
  8
_0-3_躯体と製品
  6
CONTINUOUS
 62
    3
 10
3151.4268499999926
 20
193.56725999999975
 11
3151.4268499999926
 21
175.40245999999956
  0
LINE
  8
_0-3_躯体と製品
  6
CONTINUOUS
 62
    2
 10
3316.6500499999929
 20
127.60245999999984
 11
3313.1516499999925
 21
113.57366000000007
  0
LINE
  8
_0-3_躯体と製品
  6
CONTINUOUS
 62
    2
 10
3307.7772499999919
 20
123.67445999999967
 11
3323.6652499999927
 21
119.71285999999958
  0
CIRCLE
  8
_0-3_躯体と製品
  6
CONTINUOUS
 62
    2
 10
3314.8964499999929
 20
121.46485999999976
 40
3.1615999999999991
  0
LINE
  8
_0-3_躯体と製品
  6
CONTINUOUS
 62
    2
 10
3427.8660500000024
 20
93.732859999999448
 11
3444.9908499999929
 21
89.463259999999366
  0
CIRCLE
  8
_0-3_躯体と製品
  6
CONTINUOUS
 62
    2
 10
3435.8948499999933
 20
90.776859999999658
 40
3.1615999999999991
  0
LINE
  8
_0-3_躯体と製品
  6
CONTINUOUS
 62
    2
 10
3437.6484500000024
 20
98.668059999999855
 11
3433.4940499999921
 21
82.008859999999686
  0
LINE
  8
_0-3_躯体と製品
  6
CONTINUOUS
 62
    2
 10
3546.3044499999924
 20
64.202459999999519
 11
3564.0492499999928
 21
59.778459999999313
  0
CIRCLE
  8
_0-3_躯体と製品
  6
CONTINUOUS
 62
    2
 10
3554.2628499999919
 20
61.842459999999619
 40
3.1615999999999991
  0
LINE
  8
_0-3_躯体と製品
  6
CONTINUOUS
 62
    2
 10
3556.0164499999919
 20
67.980059999999867
 11
3552.5180499999933
 21
53.951259999999365
  0
LINE
  8
_0-3_躯体と製品
  6
PLINE5
 62
    3
 10
2642.1462899999933
 20
1092.1955199999995
 11
3740.4173100000025
 21
1092.1955199999995
  0
LINE
  8
_0-3_躯体と製品
  6
PLINE5
 62
    3
 10
2642.1462899999933
 20
1122.5955199999996
 11
3740.4173100000025
 21
1122.5955199999996
  0
LINE
  8
_0-3_躯体と製品
  6
PLINE5
 62
    3
 10
2642.1462899999933
 20
1132.1955199999995
 11
3740.4173100000025
 21
1132.1955199999995
  0
LINE
  8
_0-3_躯体と製品
  6
PLINE2
 62
    3
 10
2642.6262899999929
 20
875.62007999999969
 11
3696.7738299999928
 21
559.37581999999952
  0
LINE
  8
_0-3_躯体と製品
  6
CONTINUOUS
 62
    4
 10
3431.7963899999922
 20
639.91307999999992
 11
2642.6262899999929
 21
876.66409999999973
  0
LINE
  8
_0-3_躯体と製品
  6
PLINE5
 62
    3
 10
2642.6262899999929
 20
1890.5881799999991
 11
3534.2681499999926
 21
1668.2768999999989
  0
LINE
  8
_0-3_躯体と製品
  6
PLINE5
 62
    3
 10
2642.6262899999929
 20
1931.8127399999998
 11
3539.1795300000031
 21
1708.2768999999989
  0
LINE
  8
_0-3_躯体と製品
  6
PLINE5
 62
    3
 10
2642.6262899999929
 20
1921.9188399999989
 11
3538.5901699999922
 21
1698.5299599999989
  0
LINE
  8
_0-3_躯体と製品
  6
CONTINUOUS
 62
    3
 10
3242.6262899999929
 20
2440.6755599999988
 11
2642.6262899999929
 21
2440.6755599999988
  0
LINE
  8
_0-3_躯体と製品
  6
CONTINUOUS
 62
    4
 10
1186.565529999998
 20
2187.1441999999993
 11
1090.1246300000003
 21
1171.2999599999998
  0
LINE
  8
_0-3_躯体と製品
  6
PLINE5
 62
    3
 10
1100.8758699999998
 20
1182.9716799999999
 11
1195.4804299999978
 21
2179.4730399999989
  0
LINE
  8
_0-3_躯体と製品
  6
CONTINUOUS
 62
    3
 10
1223.7109099999998
 20
2155.1810199999991
 11
1133.3328700000002
 21
1203.1989999999994
  0
LINE
  8
_0-3_躯体と製品
  6
PLINE2
 62
    5
 10
1211.2776900000026
 20
2024.2178600000002
 11
1381.6093700000019
 21
2194.54954
  0
LINE
  8
_0-3_躯体と製品
  6
PLINE2
 62
    5
 10
1205.3439299999991
 20
1961.7155599999992
 11
1456.9665700000005
 21
2213.3382000000001
  0
LINE
  8
_0-3_躯体と製品
  6
PLINE2
 62
    5
 10
1199.410170000001
 20
1899.21324
 11
1532.3237900000022
 21
2232.1268599999999
  0
LINE
  8
_0-3_躯体と製品
  6
PLINE2
 62
    5
 10
1193.4764099999993
 20
1836.7109399999999
 11
1607.6809899999989
 21
2250.9155199999987
  0
LINE
  8
_0-3_躯体と製品
  6
PLINE2
 62
    5
 10
1187.5426500000031
 20
1774.2086400000001
 11
1683.0381899999993
 21
2269.7041799999988
  0
LINE
  8
_0-3_躯体と製品
  6
PLINE2
 62
    5
 10
1181.60887
 20
1711.7063199999989
 11
1758.3953900000015
 21
2288.492839999999
  0
LINE
  8
_0-3_躯体と製品
  6
PLINE2
 62
    5
 10
1175.675110000002
 20
1649.204019999999
 11
1779.44067
 21
2252.9695599999986
  0
LINE
  8
_0-3_躯体と製品
  6
PLINE2
 62
    5
 10
1169.7413500000002
 20
1586.70172
 11
1773.5068900000024
 21
2190.467259999999
  0
LINE
  8
_0-3_躯体と製品
  6
PLINE2
 62
    5
 10
1163.8075900000022
 20
1524.1994199999995
 11
1767.5731300000025
 21
2127.9649600000002
  0
LINE
  8
_0-3_躯体と製品
  6
PLINE2
 62
    5
 10
1157.8738300000005
 20
1461.6971000000001
 11
1761.6393700000062
 21
2065.4626600000001
  0
LINE
  8
_0-3_躯体と製品
  6
CONTINUOUS
 62
    3
 10
1684.3564100000003
 20
1251.4153999999994
 11
1783.3925099999997
 21
2294.5957199999989
  0
LINE
  8
_0-3_躯体と製品
  6
PLINE3
 62
    2
 10
2642.6262899999929
 20
2440.5840999999991
 11
2642.6262899999929
 21
1927.1553199999998
  0
LINE
  8
_0-3_躯体と製品
  6
PLINE5
 62
    3
 10
1100.8758699999998
 20
1182.9716799999999
 11
2026.6262900000002
 21
832.89799999999991
  0
LINE
  8
_0-3_躯体と製品
  6
CONTINUOUS
 62
    3
 10
2026.6262900000002
 20
865.39895999999987
 11
1133.3328700000002
 21
1203.1989999999994
  0
LINE
  8
_0-3_躯体と製品
  6
PLINE2
 62
    3
 10
2042.6262900000002
 20
695.6200799999998
 11
1588.4787300000044
 21
559.37581999999952
  0
LINE
  8
_0-3_躯体と製品
  6
CONTINUOUS
 62
    4
 10
1090.6262900000002
 20
1176.5840999999998
 11
1922.6262900000002
 21
861.96225999999945
  0
LINE
  8
_0-3_躯体と製品
  6
PLINE2
 62
    5
 10
1151.9400700000024
 20
1399.1947999999995
 11
1755.7056100000009
 21
2002.960339999999
  0
LINE
  8
_0-3_躯体と製品
  6
PLINE2
 62
    5
 10
1146.0062900000012
 20
1336.6924999999997
 11
1749.7718499999974
 21
1940.4580399999986
  0
LINE
  8
_0-3_躯体と製品
  6
PLINE2
 62
    5
 10
1140.0725299999958
 20
1274.1901799999998
 11
1743.8380900000011
 21
1877.955739999999
  0
LINE
  8
_0-3_躯体と製品
  6
PLINE2
 62
    5
 10
1134.1387699999996
 20
1211.6878799999993
 11
1737.9043099999999
 21
1815.4534200000003
  0
LINE
  8
_0-3_躯体と製品
  6
PLINE2
 62
    5
 10
1168.8047100000003
 20
1189.7852799999996
 11
1731.97055
 21
1752.9511199999993
  0
LINE
  8
_0-3_躯体と製品
  6
PLINE2
 62
    5
 10
1415.0848300000034
 20
1096.6541399999999
 11
1696.367970000003
 21
1377.9372799999996
  0
LINE
  8
_0-3_躯体と製品
  6
PLINE2
 62
    5
 10
1538.2248900000013
 20
1050.0885799999996
 11
1724.3905300000006
 21
1236.25422
  0
LINE
  8
_0-3_躯体と製品
  6
PLINE2
 62
    5
 10
1579.2715700000008
 20
1034.56672
 11
1765.4206699999977
 21
1220.7158199999997
  0
LINE
  8
_0-3_躯体と製品
  6
PLINE2
 62
    5
 10
1620.3182500000003
 20
1019.0448599999995
 11
1806.4508299999998
 21
1205.1774199999998
  0
LINE
  8
_0-3_躯体と製品
  6
PLINE2
 62
    5
 10
1661.3649500000029
 20
1003.5230000000001
 11
1847.4809699999969
 21
1189.63904
  0
LINE
  8
_0-3_躯体と製品
  6
CONTINUOUS
 62
    3
 10
2026.6262900000002
 20
1121.9856199999997
 11
1684.3564100000003
 21
1251.4153999999994
  0
LINE
  8
_0-3_躯体と製品
  6
PLINE5
 62
    3
 10
1149.8352100000011
 20
1698.676899999999
 11
1726.8179299999974
 21
1698.676899999999
  0
LINE
  8
_0-3_躯体と製品
  6
PLINE5
 62
    3
 10
1727.7293300000019
 20
1708.2768999999989
 11
1150.746610000002
 21
1708.2768999999989
  0
LINE
  8
_0-3_躯体と製品
  6
PLINE5
 62
    3
 10
1723.9318700000022
 20
1668.2768999999989
 11
1146.9491500000004
 21
1668.2768999999989
  0
LINE
  8
_0-3_躯体と製品
  6
PLINE2
 62
    5
 10
1726.0367899999983
 20
1690.4488199999989
 11
1209.8513899999998
 21
1174.2634199999995
  0
LINE
  8
_0-3_躯体と製品
  6
PLINE2
 62
    5
 10
1720.103030000002
 20
1627.9465199999991
 11
1250.8980900000006
 21
1158.7415599999995
  0
LINE
  8
_0-3_躯体と製品
  6
PLINE2
 62
    5
 10
1714.1692700000021
 20
1565.4441999999999
 11
1291.9447700000001
 21
1143.2197000000001
  0
LINE
  8
_0-3_躯体と製品
  6
PLINE2
 62
    5
 10
1708.2355100000004
 20
1502.9418999999998
 11
1332.9914500000014
 21
1127.6978599999993
  0
LINE
  8
_0-3_躯体と製品
  6
PLINE2
 62
    5
 10
1702.3017299999992
 20
1440.4395999999992
 11
1374.038150000004
 21
1112.1759999999999
  0
LINE
  8
_0-3_躯体と製品
  6
PLINE2
 62
    5
 10
1456.1315100000011
 20
1081.1322799999998
 11
1690.4342099999994
 21
1315.4349799999998
  0
LINE
  8
_0-3_躯体と製品
  6
PLINE2
 62
    5
 10
1497.17821
 20
1065.6104199999997
 11
1684.5004500000014
 21
1252.9326799999999
  0
TEXT
  8
_0-4_図面枠
 62
    7
 10
725.43824999999742
 20
345.8647400000001
 40
60
 41
0.8000000000000002
 50
0
  1
妻板
  0
LINE
  8
_0-3_躯体と製品
  6
CONTINUOUS
 62
    4
 10
1090.1246300000003
 20
1171.2999599999998
 11
1118.7467100000013
 21
1160.4764799999996
  0
LINE
  8
_0-3_躯体と製品
  6
CONTINUOUS
 62
    2
 10
1149.2314700000024
 20
1173.2388399999995
 11
1136.2150900000015
 21
1138.81772
  0
LINE
  8
_0-3_躯体と製品
  6
CONTINUOUS
 62
    2
 10
1336.3027899999979
 20
1102.4975799999997
 11
1323.2863899999993
 21
1068.0764599999995
  0
LINE
  8
_0-3_躯体と製品
  6
CONTINUOUS
 62
    2
 10
1523.3740899999957
 20
1031.7563199999993
 11
1510.3577100000002
 21
997.33519999999976
  0
LINE
  8
_0-3_躯体と製品
  6
CONTINUOUS
 62
    2
 10
1075.2483300000004
 20
1209.2878399999993
 11
1111.8836100000008
 21
1205.8097999999993
  0
LINE
  8
_0-3_躯体と製品
  6
CONTINUOUS
 62
    2
 10
1093.0165500000003
 20
1396.4462999999994
 11
1129.6518100000012
 21
1392.9682799999994
  0
LINE
  8
_0-3_躯体と製品
  6
CONTINUOUS
 62
    2
 10
1110.7847499999989
 20
1583.6047599999997
 11
1147.4200299999993
 21
1580.1267399999999
  0
LINE
  8
_0-3_躯体と製品
  6
CONTINUOUS
 62
    2
 10
1164.415490000003
 20
1689.0953399999989
 11
1164.415490000003
 21
1677.8953399999991
  0
LINE
  8
_0-3_躯体と製品
  6
CONTINUOUS
 62
    2
 10
1158.8154900000009
 20
1683.495339999999
 11
1170.0154900000016
 21
1683.495339999999
  0
LINE
  8
_0-3_躯体と製品
  6
CONTINUOUS
 62
    2
 10
1128.1749099999979
 20
1766.7811400000001
 11
1164.8101899999983
 21
1763.3030999999999
  0
LINE
  8
_0-3_躯体と製品
  6
CONTINUOUS
 62
    2
 10
1145.5650700000024
 20
1949.9574999999988
 11
1182.2003499999992
 21
1946.47948
  0
LINE
  8
_0-3_躯体と製品
  6
CONTINUOUS
 62
    2
 10
1680.8187700000017
 20
1689.0953399999989
 11
1680.8187700000017
 21
1677.8953399999991
  0
LINE
  8
_0-3_躯体と製品
  6
CONTINUOUS
 62
    2
 10
1675.2187700000031
 20
1683.495339999999
 11
1686.4187700000002
 21
1683.495339999999
  0
LINE
  8
_0-3_躯体と製品
  6
CONTINUOUS
 62
    3
 10
2042.6262900000002
 20
438.54393999999945
 11
2042.6262900000002
 21
1772.3220399999989
  0
LINE
  8
_0-3_躯体と製品
  6
PLINE3
 62
    2
 10
2642.6262899999929
 20
1926.8657799999999
 11
2642.6262899999929
 21
438.54393999999945
  0
LINE
  8
_0-3_躯体と製品
  6
PLINE5
 62
    3
 10
2052.2262900000005
 20
1740.991379999999
 11
2052.2262900000005
 21
686.45596
  0
LINE
  8
_0-3_躯体と製品
  6
PLINE3
 62
    2
 10
2642.6262899999929
 20
1926.8657799999999
 11
2642.6262899999929
 21
438.54393999999945
  0
LINE
  8
_0-3_躯体と製品
  6
CONTINUOUS
 62
    3
 10
2082.626290000002
 20
685.04085999999961
 11
2082.626290000002
 21
1782.2951599999988
  0
LINE
  8
_0-3_躯体と製品
  6
CONTINUOUS
 62
    3
 10
2642.6262899999929
 20
1142.5457199999998
 11
2069.6613900000011
 21
1142.5457199999998
  0
LINE
  8
_0-3_躯体と製品
  6
PLINE5
 62
    3
 10
2642.6262899999929
 20
1172.9457199999999
 11
2052.2262900000005
 21
1172.9457199999999
  0
LINE
  8
_0-3_躯体と製品
  6
CONTINUOUS
 62
    3
 10
2642.6262899999929
 20
1182.5457199999998
 11
2052.2262900000005
 21
1182.5457199999998
  0
LINE
  8
_0-3_躯体と製品
  6
PLINE2
 62
    3
 10
2642.6262899999929
 20
875.62007999999969
 11
2082.626290000002
 21
707.62007999999969
  0
LINE
  8
_0-3_躯体と製品
  6
CONTINUOUS
 62
    4
 10
2041.8262900000009
 20
696.42409999999973
 11
2041.8262900000009
 21
1182.5457199999998
  0
LINE
  8
_0-3_躯体と製品
  6
CONTINUOUS
 62
    3
 10
2026.6262900000002
 20
736.58409999999981
 11
2026.6262900000002
 21
1121.9856199999997
  0
LINE
  8
_0-3_躯体と製品
  6
CONTINUOUS
 62
    4
 10
1853.4561700000031
 20
639.91307999999992
 11
2041.8262900000009
 21
696.42409999999973
  0
LINE
  8
_0-3_躯体と製品
  6
CONTINUOUS
 62
    4
 10
1853.6096900000048
 20
639.40137999999979
 11
1870.3010300000024
 21
644.4087799999993
  0
LINE
  8
_0-3_躯体と製品
  6
CONTINUOUS
 62
    4
 10
1853.4561700000031
 20
639.91307999999992
 11
1853.6096900000048
 21
639.40137999999979
  0
LINE
  8
_0-3_躯体と製品
  6
PLINE5
 62
    3
 10
2052.2262900000005
 20
685.74839999999983
 11
2052.2262900000005
 21
438.54393999999945
  0
LINE
  8
_0-3_躯体と製品
  6
CONTINUOUS
 62
    3
 10
2082.626290000002
 20
438.54393999999945
 11
2082.626290000002
 21
684.47481999999968
  0
LINE
  8
_0-3_躯体と製品
  6
CONTINUOUS
 62
    2
 10
2018.6262900000038
 20
748.19551999999976
 11
2066.626290000002
 21
748.19551999999976
  0
LINE
  8
_0-3_躯体と製品
  6
CONTINUOUS
 62
    3
 10
2042.6262900000002
 20
736.58409999999981
 11
2026.6262900000002
 21
736.58409999999981
  0
LINE
  8
_0-3_躯体と製品
  6
CONTINUOUS
 62
    3
 10
1922.6262900000002
 20
861.96225999999945
 11
2026.6262900000002
 21
822.63451999999961
  0
LINE
  8
_0-3_躯体と製品
  6
PLINE2
 62
    5
 10
1825.5516900000039
 20
941.43557999999962
 11
2011.6015700000025
 21
1127.4854599999996
  0
LINE
  8
_0-3_躯体と製品
  6
PLINE2
 62
    5
 10
1866.5983700000033
 20
925.91372000000024
 11
2026.6262900000002
 21
1085.9416199999996
  0
LINE
  8
_0-3_躯体と製品
  6
PLINE2
 62
    5
 10
1907.6450699999987
 20
910.3918599999995
 11
2026.6262900000002
 21
1029.3730799999996
  0
LINE
  8
_0-3_躯体と製品
  6
PLINE2
 62
    5
 10
1948.6917499999981
 20
894.86999999999944
 11
2026.6262900000002
 21
972.80454000000009
  0
LINE
  8
_0-3_躯体と製品
  6
PLINE2
 62
    5
 10
1989.7384299999958
 20
879.34816000000001
 11
2026.6262900000002
 21
916.23599999999988
  0
LINE
  8
_0-3_躯体と製品
  6
PLINE2
 62
    5
 10
1784.5050099999989
 20
956.95743999999968
 11
1970.57143
 21
1143.0238599999993
  0
LINE
  8
_0-3_躯体と製品
  6
CONTINUOUS
 62
    2
 10
1710.4454100000039
 20
961.01508000000013
 11
1697.4290100000017
 21
926.59395999999947
  0
LINE
  8
_0-3_躯体と製品
  6
CONTINUOUS
 62
    2
 10
1904.9995699999999
 20
887.44417999999985
 11
1891.9831900000027
 21
853.02305999999965
  0
LINE
  8
_0-3_躯体と製品
  6
CONTINUOUS
 62
    4
 10
1927.4262900000012
 20
816.58409999999981
 11
1922.6262900000002
 21
816.58409999999981
  0
LINE
  8
_0-3_躯体と製品
  6
CONTINUOUS
 62
    4
 10
1922.6262900000002
 20
816.58409999999981
 11
1922.6262900000002
 21
861.96225999999945
  0
LINE
  8
_0-3_躯体と製品
  6
CONTINUOUS
 62
    4
 10
1927.4262900000012
 20
829.46157999999957
 11
1927.4262900000012
 21
816.58409999999981
  0
LINE
  8
_0-3_躯体と製品
  6
PLINE2
 62
    5
 10
1702.4116300000023
 20
988.00113999999985
 11
1888.511129999999
 21
1174.1006399999997
  0
LINE
  8
_0-3_躯体と製品
  6
PLINE2
 62
    5
 10
1743.4583100000018
 20
972.47929999999974
 11
1929.5412700000034
 21
1158.5622599999997
  0
LINE
  8
_0-3_躯体と製品
  6
CONTINUOUS
 62
    2
 10
2018.6262900000038
 20
788.19551999999976
 11
2066.626290000002
 21
788.19551999999976
  0
LINE
  8
_0-3_躯体と製品
  6
CONTINUOUS
 62
    3
 10
2026.6262900000002
 20
865.39895999999987
 11
2042.6262900000002
 21
865.39895999999987
  0
LINE
  8
_0-3_躯体と製品
  6
CONTINUOUS
 62
    2
 10
2018.6262900000038
 20
956.19551999999976
 11
2066.626290000002
 21
956.19551999999976
  0
LINE
  8
_0-3_躯体と製品
  6
CONTINUOUS
 62
    2
 10
2017.8262900000063
 20
1124.19552
 11
2065.8262900000009
 21
1124.19552
  0
LINE
  8
_0-3_躯体と製品
  6
CONTINUOUS
 62
    4
 10
2010.9166499999992
 20
1174.26352
 11
2041.8262900000009
 21
1182.5457199999998
  0
LINE
  8
_0-3_躯体と製品
  6
CONTINUOUS
 62
    2
 10
2066.4360500000039
 20
1164.3140999999996
 11
2066.4360500000039
 21
1153.1141
  0
LINE
  8
_0-3_躯体と製品
  6
CONTINUOUS
 62
    2
 10
2060.8360499999981
 20
1158.7141000000001
 11
2072.0360499999988
 21
1158.7141000000001
  0
LINE
  8
_0-3_躯体と製品
  6
CONTINUOUS
 62
    3
 10
2061.4378100000013
 20
1142.5457199999998
 11
2052.2262900000005
 21
1142.5457199999998
  0
LINE
  8
_0-3_躯体と製品
  6
CONTINUOUS
 62
    2
 10
2642.6262899999929
 20
1112.1955199999995
 11
2648.2262899999932
 21
1112.1955199999995
  0
LINE
  8
_0-3_躯体と製品
  6
CONTINUOUS
 62
    2
 10
2701.7628499999919
 20
1117.7955199999994
 11
2701.7628499999919
 21
1106.5955199999994
  0
LINE
  8
_0-3_躯体と製品
  6
CONTINUOUS
 62
    2
 10
2696.1628499999933
 20
1112.1955199999995
 11
2707.3628499999922
 21
1112.1955199999995
  0
LINE
  8
_0-3_躯体と製品
  6
CONTINUOUS
 62
    2
 10
2802.3769699999921
 20
1117.7955199999994
 11
2802.3769699999921
 21
1106.5955199999994
  0
LINE
  8
_0-3_躯体と製品
  6
CONTINUOUS
 62
    2
 10
2796.7769700000026
 20
1112.1955199999995
 11
2807.9769699999924
 21
1112.1955199999995
  0
LINE
  8
_0-3_躯体と製品
  6
CONTINUOUS
 62
    2
 10
2910.6715699999932
 20
1117.7955199999994
 11
2910.6715699999932
 21
1106.5955199999994
  0
LINE
  8
_0-3_躯体と製品
  6
CONTINUOUS
 62
    2
 10
2905.0715699999928
 20
1112.1955199999995
 11
2916.2715699999935
 21
1112.1955199999995
  0
LINE
  8
_0-3_躯体と製品
  6
CONTINUOUS
 62
    4
 10
2642.3062900000023
 20
1932.0627399999998
 11
1745.7530300000035
 21
1708.5269199999989
  0
LINE
  8
_0-3_躯体と製品
  6
CONTINUOUS
 62
    3
 10
2642.6262899999929
 20
1890.5881799999991
 11
2071.7778300000027
 21
1748.2596799999988
  0
LINE
  8
_0-3_躯体と製品
  6
CONTINUOUS
 62
    3
 10
2642.6262899999929
 20
1931.8127399999998
 11
1746.0730299999996
 21
1708.2768999999989
  0
LINE
  8
_0-3_躯体と製品
  6
PLINE5
 62
    3
 10
1745.7530300000035
 20
1698.30322
 11
2642.6262899999929
 21
1921.9188399999989
  0
LINE
  8
_0-3_躯体と製品
  6
CONTINUOUS
 62
    4
 10
2016.5693699999993
 20
1541.3813399999995
 11
1832.7186900000015
 21
1387.1123199999997
  0
LINE
  8
_0-3_躯体と製品
  6
CONTINUOUS
 62
    3
 10
1879.0732700000008
 20
1409.2992200000001
 11
2042.6262900000002
 21
1365.4753199999998
  0
LINE
  8
_0-3_躯体と製品
  6
CONTINUOUS
 62
    3
 10
2042.6262900000002
 20
1546.5364799999995
 11
1879.0732700000008
 21
1409.2992200000001
  0
LINE
  8
_0-3_躯体と製品
  6
CONTINUOUS
 62
    3
 10
1858.7755500000021
 20
1404.7993199999996
 11
2033.026289999998
 21
1358.10898
  0
LINE
  8
_0-3_躯体と製品
  6
CONTINUOUS
 62
    3
 10
2033.026289999998
 20
1551.0130399999994
 11
1858.7755500000021
 21
1404.7993199999996
  0
LINE
  8
_0-3_躯体と製品
  6
CONTINUOUS
 62
    4
 10
1832.7186900000015
 20
1387.1123199999997
 11
1832.7186900000015
 21
1371.1123199999995
  0
LINE
  8
_0-3_躯体と製品
  6
CONTINUOUS
 62
    2
 10
1965.6079900000022
 20
1514.9942199999996
 11
1980.8773299999993
 21
1496.7969199999998
  0
LINE
  8
_0-3_躯体と製品
  6
CONTINUOUS
 62
    2
 10
1865.0011700000014
 20
1435.7600999999997
 11
1882.5188300000009
 21
1414.88336
  0
LINE
  8
_0-3_躯体と製品
  6
CONTINUOUS
 62
    2
 10
2018.6262900000038
 20
1341.4753199999996
 11
2066.626290000002
 21
1341.4753199999996
  0
LINE
  8
_0-3_躯体と製品
  6
CONTINUOUS
 62
    3
 10
2033.026289999998
 20
1358.10898
 11
2033.026289999998
 21
1317.4753199999996
  0
LINE
  8
_0-3_躯体と製品
  6
CONTINUOUS
 62
    3
 10
2042.6262900000002
 20
1317.4753199999996
 11
2033.026289999998
 21
1317.4753199999996
  0
LINE
  8
_0-3_躯体と製品
  6
CONTINUOUS
 62
    4
 10
2016.5693699999993
 20
1557.3813399999992
 11
2016.5693699999993
 21
1541.3813399999995
  0
LINE
  8
_0-3_躯体と製品
  6
CONTINUOUS
 62
    2
 10
2018.6262900000038
 20
1570.5364799999998
 11
2066.626290000002
 21
1570.5364799999998
  0
LINE
  8
_0-3_躯体と製品
  6
CONTINUOUS
 62
    3
 10
2033.026289999998
 20
1594.5364799999998
 11
2033.026289999998
 21
1551.0130399999994
  0
LINE
  8
_0-3_躯体と製品
  6
CONTINUOUS
 62
    3
 10
2042.6262900000002
 20
1594.5364799999998
 11
2033.026289999998
 21
1594.5364799999998
  0
LINE
  8
_0-3_躯体と製品
  6
CONTINUOUS
 62
    3
 10
2056.4257300000008
 20
1744.4319800000001
 11
1750.9844100000028
 21
1668.2768999999989
  0
LINE
  8
_0-3_躯体と製品
  6
CONTINUOUS
 62
    2
 10
1773.7744500000008
 20
1728.413219999999
 11
1781.7137700000021
 21
1696.5703999999989
  0
LINE
  8
_0-3_躯体と製品
  6
CONTINUOUS
 62
    4
 10
1745.7530300000035
 20
1708.5269199999989
 11
1745.7530300000035
 21
1676.2768999999989
  0
LINE
  8
_0-3_躯体と製品
  6
PLINE2
 62
    3
 10
1727.7293300000019
 20
1708.2768999999989
 11
1745.2730300000003
 21
1708.2768999999989
  0
LINE
  8
_0-3_躯体と製品
  6
PLINE2
 62
    3
 10
1723.9318700000022
 20
1668.2768999999989
 11
1750.9844100000028
 21
1668.2768999999989
  0
LINE
  8
_0-3_躯体と製品
  6
PLINE5
 62
    3
 10
1746.0730299999996
 20
1708.2768999999989
 11
1745.2730300000003
 21
1708.2768999999989
  0
LINE
  8
_0-3_躯体と製品
  6
PLINE2
 62
    3
 10
1726.8179299999974
 20
1698.676899999999
 11
1745.7530300000035
 21
1698.676899999999
  0
LINE
  8
_0-3_躯体と製品
  6
CONTINUOUS
 62
    2
 10
2066.4195699999982
 20
1769.223
 11
2066.4195699999982
 21
1758.0229999999999
  0
LINE
  8
_0-3_躯体と製品
  6
CONTINUOUS
 62
    2
 10
2060.8195700000015
 20
1763.623
 11
2072.019570000004
 21
1763.623
  0
LINE
  8
_0-3_躯体と製品
  6
PLINE2
 62
    3
 10
2042.6262900000002
 20
1740.991379999999
 11
2052.2262900000005
 21
1740.991379999999
  0
LINE
  8
_0-3_躯体と製品
  6
CONTINUOUS
 62
    2
 10
2130.8432700000012
 20
1817.4404799999988
 11
2138.7825900000025
 21
1785.59764
  0
LINE
  8
_0-3_躯体と製品
  6
CONTINUOUS
 62
    2
 10
2484.0309299999917
 20
1905.5000599999989
 11
2491.9702299999917
 21
1873.6572199999991
  0
LINE
  8
_0-3_躯体と製品
  6
CONTINUOUS
 62
    4
 10
2642.3062900000023
 20
1932.0627399999998
 11
2642.3062900000023
 21
1948.0627399999998
  0
LINE
  8
_0-3_躯体と製品
  6
CONTINUOUS
 62
    2
 10
2784.2585299999919
 20
1876.536499999999
 11
2781.5490099999934
 21
1865.6691999999989
  0
LINE
  8
_0-3_躯体と製品
  6
CONTINUOUS
 62
    2
 10
2777.4701099999929
 20
1872.4576199999992
 11
2788.3374300000032
 21
1869.7480799999998
  0
LINE
  8
_0-3_躯体と製品
  6
PLINE5
 62
    3
 10
1195.4804299999978
 20
2179.4730399999989
 11
1786.4516499999991
 21
2326.8187000000003
  0
LINE
  8
_0-3_躯体と製品
  6
CONTINUOUS
 62
    4
 10
2042.6262900000002
 20
2400.5840999999991
 11
1180.4747300000017
 21
2185.6255799999999
  0
LINE
  8
_0-3_躯体と製品
  6
CONTINUOUS
 62
    3
 10
2052.3031500000016
 20
2361.7722799999992
 11
1223.7109099999998
 21
2155.1810199999991
  0
LINE
  8
_0-3_躯体と製品
  6
PLINE2
 62
    5
 10
1217.2114499999989
 20
2086.7201599999989
 11
1306.2521699999979
 21
2175.7608799999989
  0
LINE
  8
_0-3_躯体と製品
  6
CONTINUOUS
 62
    2
 10
1162.9552299999978
 20
2133.133879999999
 11
1199.59051
 21
2129.655839999999
  0
LINE
  8
_0-3_躯体と製品
  6
PLINE2
 62
    5
 10
1223.1452300000001
 20
2149.222459999999
 11
1230.8949700000012
 21
2156.9722199999992
  0
LINE
  8
_0-3_躯体と製品
  6
CONTINUOUS
 62
    2
 10
1211.5035900000021
 20
2212.2373200000002
 11
1220.567689999998
 21
2175.8832400000001
  0
LINE
  8
_0-3_躯体と製品
  6
CONTINUOUS
 62
    4
 10
1177.6599500000029
 20
2155.9765199999993
 11
1180.4747300000017
 21
2185.6255799999999
  0
LINE
  8
_0-3_躯体と製品
  6
CONTINUOUS
 62
    2
 10
1417.2062900000001
 20
2263.5247599999989
 11
1426.2703899999979
 21
2227.1706799999993
  0
LINE
  8
_0-3_躯体と製品
  6
CONTINUOUS
 62
    2
 10
1622.9089900000017
 20
2314.8121999999998
 11
1631.97307
 21
2278.4581200000002
  0
LINE
  8
_0-3_躯体と製品
  6
CONTINUOUS
 62
    3
 10
2642.6262899999929
 20
2395.7840999999989
 11
2063.0567700000029
 21
2395.7840999999989
  0
LINE
  8
_0-3_躯体と製品
  6
CONTINUOUS
 62
    3
 10
2642.6262899999929
 20
2386.184099999999
 11
2066.057710000001
 21
2386.184099999999
  0
LINE
  8
_0-3_躯体と製品
  6
PLINE5
 62
    3
 10
1786.8072700000012
 20
2326.9073799999992
 11
2044.9487300000019
 21
2391.2692599999991
  0
LINE
  8
_0-3_躯体と製品
  6
CONTINUOUS
 62
    3
 10
2012.0204300000041
 20
2372.9217600000002
 11
1986.3634099999999
 21
2366.6247599999988
  0
LINE
  8
_0-3_躯体と製品
  6
CONTINUOUS
 62
    2
 10
1820.6557700000048
 20
2364.9404999999997
 11
1829.7198700000008
 21
2328.58644
  0
LINE
  8
_0-3_躯体と製品
  6
CONTINUOUS
 62
    3
 10
1786.4516499999991
 20
2326.8187000000003
 11
1784.8830500000004
 21
2310.2961199999991
  0
LINE
  8
_0-3_躯体と製品
  6
CONTINUOUS
 62
    3
 10
1786.4516499999991
 20
2326.8187000000003
 11
1786.4391700000015
 21
2326.6872799999987
  0
LINE
  8
_0-3_躯体と製品
  6
CONTINUOUS
 62
    3
 10
1949.5155900000027
 20
2357.5812199999991
 11
1947.1931300000015
 21
2366.8960599999991
  0
LINE
  8
_0-3_躯体と製品
  6
CONTINUOUS
 62
    3
 10
1957.8480899999995
 20
2359.6262599999991
 11
1949.5155900000027
 21
2357.5812199999991
  0
LINE
  8
_0-3_躯体と製品
  6
CONTINUOUS
 62
    3
 10
1980.5825700000041
 20
2365.2059799999997
 11
1963.3530500000033
 21
2360.977339999999
  0
LINE
  8
_0-3_躯体と製品
  6
CONTINUOUS
 62
    4
 10
2042.6262900000002
 20
2440.5840999999991
 11
2042.6262900000002
 21
2400.5840999999991
  0
LINE
  8
_0-3_躯体と製品
  6
CONTINUOUS
 62
    2
 10
2014.9084500000026
 20
2412.5486599999999
 11
2023.9725500000004
 21
2376.1945799999999
  0
LINE
  8
_0-3_躯体と製品
  6
CONTINUOUS
 62
    3
 10
2063.0567700000029
 20
2395.7840999999989
 11
2044.9487300000019
 21
2391.2692599999991
  0
LINE
  8
_0-3_躯体と製品
  6
CONTINUOUS
 62
    4
 10
2047.4262899999994
 20
2433.7290199999989
 11
2047.4262899999994
 21
2440.5840999999991
  0
LINE
  8
_0-3_躯体と製品
  6
CONTINUOUS
 62
    4
 10
2047.4262899999994
 20
2440.5840999999991
 11
2042.6262900000002
 21
2440.5840999999991
  0
LINE
  8
_0-3_躯体と製品
  6
CONTINUOUS
 62
    3
 10
2030.7078899999997
 20
2377.5082199999988
 11
2015.731770000004
 21
2373.8326399999987
  0
LINE
  8
_0-3_躯体と製品
  6
CONTINUOUS
 62
    3
 10
2066.057710000001
 20
2386.184099999999
 11
2035.9713300000039
 21
2378.8000199999988
  0
LINE
  8
_0-3_躯体と製品
  6
CONTINUOUS
 62
    3
 10
2052.3031500000016
 20
2361.7722799999992
 11
2042.6262900000002
 21
2400.5840999999991
  0
LINE
  8
_0-3_躯体と製品
  6
CONTINUOUS
 62
    3
 10
4117.2597299999925
 20
2203.1257799999998
 11
4215.9795699999922
 21
1163.27666
  0
LINE
  8
_0-3_躯体と製品
  6
CONTINUOUS
 62
    3
 10
4215.9795699999922
 20
1163.27666
 11
3382.4662900000021
 21
848.0825599999996
  0
LINE
  8
_0-3_躯体と製品
  6
PLINE2
 62
    3
 10
3242.6262899999929
 20
931.75705999999968
 11
3242.6262899999929
 21
696.66409999999973
  0
LINE
  8
_0-3_躯体と製品
  6
PLINE2
 62
    3
 10
3233.0262899999925
 20
931.75705999999968
 11
3233.0262899999925
 21
438.54393999999945
  0
LINE
  8
_0-3_躯体と製品
  6
CONTINUOUS
 62
    3
 10
3382.4662900000021
 20
654.71209999999974
 11
3382.4662900000021
 21
816.58409999999981
  0
LINE
  8
_0-3_躯体と製品
  6
PLINE2
 62
    3
 10
3202.6262899999929
 20
708.66409999999951
 11
3202.6262899999929
 21
931.75705999999968
  0
LINE
  8
_0-3_躯体と製品
  6
CONTINUOUS
 62
    3
 10
3202.6262899999929
 20
438.54393999999945
 11
3202.6262899999929
 21
707.62007999999969
  0
LINE
  8
_0-3_躯体と製品
  6
CONTINUOUS
 62
    3
 10
3242.6262899999929
 20
695.6200799999998
 11
3242.6262899999929
 21
438.54393999999945
  0
LINE
  8
_0-3_躯体と製品
  6
CONTINUOUS
 62
    4
 10
3431.6428899999919
 20
639.40137999999979
 11
3414.951529999993
 21
644.4087799999993
  0
LINE
  8
_0-3_躯体と製品
  6
CONTINUOUS
 62
    4
 10
3431.7963899999922
 20
639.91307999999992
 11
3431.6428899999919
 21
639.40137999999979
  0
LINE
  8
_0-3_躯体と製品
  6
CONTINUOUS
 62
    2
 10
3032.7910099999917
 20
1117.7955199999994
 11
3032.7910099999917
 21
1106.5955199999994
  0
LINE
  8
_0-3_躯体と製品
  6
CONTINUOUS
 62
    2
 10
3027.1910099999932
 20
1112.1955199999995
 11
3038.3910099999921
 21
1112.1955199999995
  0
LINE
  8
_0-3_躯体と製品
  6
CONTINUOUS
 62
    3
 10
3382.4662900000021
 20
848.0825599999996
 11
3382.4662900000021
 21
816.58409999999981
  0
LINE
  8
_0-3_躯体と製品
  6
CONTINUOUS
 62
    2
 10
3188.0420700000032
 20
1775.861959999999
 11
3185.3325499999919
 21
1764.9946599999989
  0
LINE
  8
_0-3_躯体と製品
  6
CONTINUOUS
 62
    2
 10
3181.2536499999933
 20
1771.7830799999992
 11
3192.1209700000018
 21
1769.0735399999999
  0
LINE
  8
_0-3_躯体と製品
  6
CONTINUOUS
 62
    2
 10
2954.0910899999926
 20
1834.192499999999
 11
2951.3815500000019
 21
1823.3251799999989
  0
LINE
  8
_0-3_躯体と製品
  6
CONTINUOUS
 62
    2
 10
2947.3026699999918
 20
1830.113599999999
 11
2958.1699699999917
 21
1827.4040800000002
  0
LINE
  8
_0-3_躯体と製品
  6
CONTINUOUS
 62
    2
 10
3360.6818499999918
 20
1732.818039999999
 11
3357.9723099999919
 21
1721.9507199999989
  0
LINE
  8
_0-3_躯体と製品
  6
CONTINUOUS
 62
    2
 10
3353.8934299999928
 20
1728.7391399999999
 11
3364.7607299999927
 21
1726.0296199999989
  0
LINE
  8
_0-3_躯体と製品
  6
PLINE5
 62
    3
 10
3539.1795300000031
 20
1708.2768999999989
 11
3905.6210099999935
 21
1708.2768999999989
  0
LINE
  8
_0-3_躯体と製品
  6
PLINE5
 62
    3
 10
3538.5901699999922
 20
1698.5299599999989
 11
3906.5463499999933
 21
1698.5299599999989
  0
LINE
  8
_0-3_躯体と製品
  6
PLINE5
 62
    3
 10
3534.2681499999926
 20
1668.2768999999989
 11
3909.4184899999927
 21
1668.2768999999989
  0
LINE
  8
_0-3_躯体と製品
  6
CONTINUOUS
 62
    3
 10
4117.2597299999925
 20
2203.1257799999998
 11
3262.6262899999929
 21
2416.20982
  0
LINE
  8
_0-3_躯体と製品
  6
CONTINUOUS
 62
    3
 10
3242.6262899999929
 20
2421.196379999999
 11
3262.6262899999929
 21
2416.20982
  0
LINE
  8
_0-3_躯体と製品
  6
CONTINUOUS
 62
    3
 10
3242.6262899999929
 20
2440.6755599999988
 11
3242.6262899999929
 21
2421.196379999999
  0
LINE
  8
_0-3_躯体と製品
  6
CONTINUOUS
 62
    2
 10
3330.671829999992
 20
2375.1469199999992
 11
3327.9623100000026
 21
2364.2795999999989
  0
LINE
  8
_0-3_躯体と製品
  6
CONTINUOUS
 62
    2
 10
3323.8834099999931
 20
2371.0680199999988
 11
3334.7507299999925
 21
2368.3585000000003
  0
LINE
  8
_0-3_躯体と製品
  6
CONTINUOUS
 62
    2
 10
3448.0886099999934
 20
2345.871619999999
 11
3445.3790899999931
 21
2335.00432
  0
LINE
  8
_0-3_躯体と製品
  6
CONTINUOUS
 62
    2
 10
3441.3001900000017
 20
2341.7927399999999
 11
3452.167509999992
 21
2339.0832
  0
LINE
  8
_0-3_躯体と製品
  6
CONTINUOUS
 62
    2
 10
3579.2964900000024
 20
2313.1578199999999
 11
3576.586969999993
 21
2302.2905199999987
  0
LINE
  8
_0-3_躯体と製品
  6
CONTINUOUS
 62
    2
 10
3572.5080699999926
 20
2309.0789399999999
 11
3583.375389999992
 21
2306.3694199999986
  0
LINE
  8
_0-3_躯体と製品
  6
CONTINUOUS
 62
    2
 10
3705.5548700000018
 20
2281.6780799999988
 11
3702.8453299999928
 21
2270.8107599999989
  0
LINE
  8
_0-3_躯体と製品
  6
CONTINUOUS
 62
    2
 10
3698.7664500000028
 20
2277.5991799999993
 11
3709.6337500000027
 21
2274.8896600000003
  0
INSERT
  2
-001-_D4
  8
_0-2_寸法
 10
-7862.6914337989274
 20
600.45338865678696
 41
10
 42
10
 50
0
  0
INSERT
  2
-002-_D5
  8
_0-2_寸法
 10
-7862.6914337989274
 20
600.45338865678696
 41
10
 42
10
 50
0
  0
INSERT
  2
-003-_D6
  8
_0-2_寸法
 10
-7862.6914337989274
 20
600.45338865678696
 41
10
 42
10
 50
0
  0
INSERT
  2
-004-_D7
  8
_0-2_寸法
 10
-7862.6914337989274
 20
600.45338865678696
 41
10
 42
10
 50
0
  0
ENDSEC
  0
EOF
