  0
SECTION
  2
HEADER
  9
$ACADVER
  1
AC1009
  9
$INSBASE
 10
0
 20
0
 30
0
  9
$EXTMIN
 10
0
 20
0
  9
$EXTMAX
 10
841
 20
594
  9
$LIMMIN
 10
0
 20
0
  9
$LIMMAX
 10
841
 20
594
  9
$LTSCALE
 40
1
  0
ENDSEC
  0
SECTION
  2
TABLES
  0
TABLE
  2
LTYPE
 70
     9
  0
LTYPE
  2
CONTINUOUS
 70
    64
  3
実線
 72
    65
 73
     0
 40
0.0
  0
LTYPE
  2
DASHED1
 70
    64
  3
--  --  --  --  --  --  --  --  
 72
    65
 73
     2
 40
2.5
 49
1.25
 49
-1.25
  0
LTYPE
  2
DASHED2
 70
    64
  3
----    ----    ----    ----    
 72
    65
 73
     2
 40
5.0
 49
2.5
 49
-2.5
  0
LTYPE
  2
DASHED3
 70
    64
  3
------  ------  ------  ------  
 72
    65
 73
     2
 40
5.0
 49
3.75
 49
-1.25
  0
LTYPE
  2
CENTER1
 70
    64
  3
----- - ----- - ----- - ----- - 
 72
    65
 73
     4
 40
10.0
 49
6.25
 49
-1.25
 49
1.25
 49
-1.25
  0
LTYPE
  2
CENTER2
 70
    64
  3
----------  --  ----------  --  
 72
    65
 73
     4
 40
20.0
 49
12.5
 49
-2.5
 49
2.5
 49
-2.5
  0
LTYPE
  2
PHANTOM1
 70
    64
  3
--- - - --- - - --- - - --- - - 
 72
    65
 73
     6
 40
10.0
 49
3.25
 49
-1.25
 49
1.25
 49
-1.25
 49
1.25
 49
-1.25
  0
LTYPE
  2
PHANTOM2
 70
    64
  3
--------  -  -  --------  -  -  
 72
    65
 73
     6
 40
20.0
 49
10.0
 49
-2.5
 49
1.25
 49
-2.5
 49
1.25
 49
-2.5
  0
LTYPE
  2
DOT
 70
    64
  3
-   -   -   -   -   -   -   -   
 72
    65
 73
     2
 40
2.5
 49
0.625
 49
-1.875
  0
LTYPE
  2
DUMMY
 70
    64
  3
ダミー
 72
    65
 73
     0
 40
0.0
  0
LTYPE
  2
RAND1
 70
    64
  3
ランダム線1
 72
    65
 73
     4
 40
10.0
 49
1.0
 49
-2.0
 49
3.0
 49
-4.0
  0
LTYPE
  2
RAND2
 70
    64
  3
ランダム線2
 72
    65
 73
     4
 40
14.0
 49
2.0
 49
-3.0
 49
4.0
 49
-5.0
  0
LTYPE
  2
RAND3
 70
    64
  3
ランダム線3
 72
    65
 73
     4
 40
18.0
 49
3.0
 49
-4.0
 49
5.0
 49
-6.0
  0
LTYPE
  2
RAND4
 70
    64
  3
ランダム線4
 72
    65
 73
     4
 40
22.0
 49
4.0
 49
-5.0
 49
6.0
 49
-7.0
  0
LTYPE
  2
RAND5
 70
    64
  3
ランダム線5
 72
    65
 73
     4
 40
26.0
 49
5.0
 49
-6.0
 49
7.0
 49
-8.0
  0
LTYPE
  2
LONG1
 70
    64
  3
----------  --  ----------  --  
 72
    65
 73
     4
 40
40.0
 49
32.5
 49
-2.5
 49
2.5
 49
-2.5
  0
LTYPE
  2
LONG2
 70
    64
  3
--------  -  -  --------  -  -  
 72
    65
 73
     6
 40
40.0
 49
30.0
 49
-2.5
 49
1.25
 49
-2.5
 49
1.25
 49
-2.5
  0
LTYPE
  2
LONG3
 70
    64
  3
+++++++++++++++..+++++++++++++++
 72
    65
 73
     2
 40
40.0
 49
37.5
 49
-2.5
  0
LTYPE
  2
LONG4
 70
    64
  3
+++++++++++++++..+++++++++++++++
 72
    65
 73
     2
 40
80.0
 49
75.0
 49
-5.0
  0
LTYPE
  2
LONG5
 70
    64
  3
----------  --  ----------  --  
 72
    65
 73
     4
 40
60.0
 49
37.5
 49
-7.5
 49
7.5
 49
-7.5
  0
LTYPE
  2
dashed
 70
   64
  3
-------   -------------   ------
 72
   65
 73
    2
 40
7.5
 49
6
 49
-1.5
  0
LTYPE
  2
dashed_spaced
 70
   64
  3
----        --------        ----
 72
   65
 73
    2
 40
12
 49
6
 49
-6
  0
LTYPE
  2
long_dashed_dotted
 70
   64
  3
------------- --- --------------
 72
   65
 73
    4
 40
15.25
 49
12
 49
-1.5
 49
0.25
 49
-1.5
  0
LTYPE
  2
long_dashed_double-dotted
 70
   64
  3
----------- --- --- ------------
 72
   65
 73
    6
 40
17
 49
12
 49
-1.5
 49
0.25
 49
-1.5
 49
0.25
 49
-1.5
  0
LTYPE
  2
long_dashed_triplicate-dotted
 70
   64
  3
--------- --- --- --- ----------
 72
   65
 73
    8
 40
18.75
 49
12
 49
-1.5
 49
0.25
 49
-1.5
 49
0.25
 49
-1.5
 49
0.25
 49
-1.5
  0
LTYPE
  2
dotted
 70
   64
  3
   -       -       -       -    
 72
   65
 73
    2
 40
1.75
 49
0.25
 49
-1.5
  0
LTYPE
  2
chain
 70
   64
  3
-------------- -- --------------
 72
   65
 73
    4
 40
18.5
 49
12
 49
-1.5
 49
3.5
 49
-1.5
  0
LTYPE
  2
chain_double_dash
 70
   64
  3
------------ -- -- -------------
 72
   65
 73
    6
 40
23.5
 49
12
 49
-1.5
 49
3.5
 49
-1.5
 49
3.5
 49
-1.5
  0
LTYPE
  2
dashed_dotted
 70
   64
  3
-----------     -     ----------
 72
   65
 73
    4
 40
9.25
 49
6
 49
-1.5
 49
0.25
 49
-1.5
  0
LTYPE
  2
double-dashed_dotted
 70
   64
  3
------   -----------   -   -----
 72
   65
 73
    6
 40
16.75
 49
6
 49
-1.5
 49
6
 49
-1.5
 49
0.25
 49
-1.5
  0
LTYPE
  2
dashed_double-dotted
 70
   64
  3
---------    -    -    ---------
 72
   65
 73
    6
 40
11
 49
6
 49
-1.5
 49
0.25
 49
-1.5
 49
0.25
 49
-1.5
  0
LTYPE
  2
double-dashed_double-dotted
 70
   64
  3
-----   ---------   -   -   ----
 72
   65
 73
    8
 40
18.5
 49
6
 49
-1.5
 49
6
 49
-1.5
 49
0.25
 49
-1.5
 49
0.25
 49
-1.5
  0
LTYPE
  2
dashed_triplicate-dotted
 70
   64
  3
-------    -    -    -    ------
 72
   65
 73
    8
 40
12.75
 49
6
 49
-1.5
 49
0.25
 49
-1.5
 49
0.25
 49
-1.5
 49
0.25
 49
-1.5
  0
LTYPE
  2
double-dashed_triplicate-dotted
 70
   64
  3
-----  ---------  -  -  -  -----
 72
   65
 73
   10
 40
20.25
 49
6
 49
-1.5
 49
6
 49
-1.5
 49
0.25
 49
-1.5
 49
0.25
 49
-1.5
 49
0.25
 49
-1.5
  0
LTYPE
  2
undefined
 70
   64
  3
--------------------------------
 72
   65
 73
    0
 40
0
  0
LTYPE
  2
PLINE2
 70
   64
  3
------     -----------     -----
 72
   65
 73
    2
 40
3
 49
2.1000000000000001
 49
-0.9
  0
LTYPE
  2
PLINE3
 70
   64
  3
------------   ---   -----------
 72
   65
 73
    4
 40
10
 49
7
 49
-1
 49
1
 49
-1
  0
LTYPE
  2
PLINE4
 70
   64
  3
---------   ---   ---   --------
 72
   65
 73
    6
 40
10
 49
5
 49
-1
 49
1
 49
-1
 49
1
 49
-1
  0
LTYPE
  2
PLINE5
 70
   64
  3
------     -----------     -----
 72
   65
 73
    2
 40
5
 49
3.5
 49
-1.5
  0
LTYPE
  2
PLINE6
 70
   64
  3
------------   ---   -----------
 72
   65
 73
    4
 40
15
 49
10.5
 49
-1.5
 49
1.5
 49
-1.5
  0
LTYPE
  2
PLINE7
 70
   64
  3
---------   ---   ---   --------
 72
   65
 73
    6
 40
15
 49
7.5
 49
-1.5
 49
1.5
 49
-1.5
 49
1.5
 49
-1.5
  0
LTYPE
  2
PLINE8
 70
   64
  3
------     -----------     -----
 72
   65
 73
    2
 40
7
 49
4.9000000000000004
 49
-2.1000000000000001
  0
LTYPE
  2
PLINE9
 70
   64
  3
------------   ---   -----------
 72
   65
 73
    4
 40
20
 49
14
 49
-2
 49
2
 49
-2
  0
LTYPE
  2
PLINE10
 70
   64
  3
---------   ---   ---   --------
 72
   65
 73
    6
 40
20
 49
10
 49
-2
 49
2
 49
-2
 49
2
 49
-2
  0
LTYPE
  2
PLINE11
 70
   64
  3
------     -----------     -----
 72
   65
 73
    2
 40
9
 49
6.2999999999999989
 49
-2.7000000000000002
  0
LTYPE
  2
PLINE12
 70
   64
  3
------------   ---   -----------
 72
   65
 73
    4
 40
25
 49
17.5
 49
-2.5
 49
2.5
 49
-2.5
  0
LTYPE
  2
PLINE13
 70
   64
  3
---------   ---   ---   --------
 72
   65
 73
    6
 40
25
 49
12.5
 49
-2.5
 49
2.5
 49
-2.5
 49
2.5
 49
-2.5
  0
LTYPE
  2
PLINE14
 70
   64
  3
------     -----------     -----
 72
   65
 73
    2
 40
11
 49
7.7000000000000002
 49
-3.2999999999999989
  0
LTYPE
  2
PLINE15
 70
   64
  3
------------   ---   -----------
 72
   65
 73
    4
 40
30
 49
21
 49
-3
 49
3
 49
-3
  0
LTYPE
  2
PLINE16
 70
   64
  3
---------   ---   ---   --------
 72
   65
 73
    6
 40
30
 49
15
 49
-3
 49
3
 49
-3
 49
3
 49
-3
  0
ENDTAB
  0
TABLE
  2
STYLE
  5
3
100
AcDbSymbolTable
 70
     1
  0
STYLE
  5
10
100
AcDbSymbolTableRecord
100
AcDbTextStyleTableRecord
  2
STANDARD
 70
     0
 40
0.0
 41
1.0
 50
0.0
 71
     0
 42
0.2
  3
txt
  4
bigfont.shx
  0
STYLE
  5
26
100
AcDbSymbolTableRecord
100
AcDbTextStyleTableRecord
  2
TATEGAKI
 70
    68
 40
0.0
 41
1.0
 50
0.0
 71
     0
 42
1.0
  3
txt
  4
bigfont.shx
  0
ENDTAB
  0
TABLE
  2
LAYER
 70
    4
  0
LAYER
  2
_0-2_寸法
 70
   64
 62
    7
  6
CONTINUOUS
  0
LAYER
  2
_0-3_躯体と製品
 70
   64
 62
    7
  6
CONTINUOUS
  0
LAYER
  2
_0-4_図面枠
 70
   64
 62
    7
  6
CONTINUOUS
  0
LAYER
  2
ADD_LINE
 70
   64
 62
    7
  6
CONTINUOUS
  0
ENDTAB
  0
ENDSEC
  0
SECTION
  2
BLOCKS
  0
BLOCK
  2
-000-_Dot
 70
   64
 10
0
 20
0
 30
0
  0
CIRCLE
  8
_0-0_0
  6
CONTINUOUS
 62
    7
 10
0
 20
0
 40
0.025
  0
LINE
  8
_0-0_0
  6
CONTINUOUS
 62
    7
 10
0.025
 20
0
 11
-0.025
 21
0
  0
LINE
  8
_0-0_0
  6
CONTINUOUS
 62
    7
 10
-0.05
 20
0
 11
-0.1
 21
0
  0
ENDBLK
  0
BLOCK
  2
-001-_D4
 70
   64
 10
0
 20
0
 30
0
  0
LINE
  8
_0-2_寸法
  6
CONTINUOUS
 62
    4
 10
-1100.0701344639931
 20
-2461.1947411935953
 11
-1100.0701344639931
 21
-2336.9486871935951
  0
LINE
  8
_0-2_寸法
  6
CONTINUOUS
 62
    4
 10
-867.07013446399344
 20
-2413.4661291935881
 11
-867.07013446399344
 21
-2336.9486871935951
  0
LINE
  8
_0-2_寸法
  6
CONTINUOUS
 62
    4
 10
-1099.970134463993
 20
-2336.9486871935951
 11
-867.17013446399358
 21
-2336.9486871935951
  0
INSERT
  2
-000-_Dot
  8
_0-2_寸法
 10
-1100.0701344639931
 20
-2336.9486871935951
 41
1
 42
1
 50
180
  0
INSERT
  2
-000-_Dot
  8
_0-2_寸法
 10
-867.07013446399344
 20
-2336.9486871935951
 41
1
 42
1
 50
0
  0
TEXT
  8
_0-2_寸法
 62
    7
 10
-984.82013446399355
 20
-2336.8686871935952
 40
5
 41
1
 50
0
  1
E
  0
POINT
  8
_0-1_Defpoints
 62
    7
 10
-1100.0701344639931
 20
-2461.1947411935953
  0
POINT
  8
_0-1_Defpoints
 62
    7
 10
-867.07013446399344
 20
-2413.4661291935881
  0
POINT
  8
_0-1_Defpoints
 62
    7
 10
-867.07013446399344
 20
-2336.9486871935951
  0
ENDBLK
  0
BLOCK
  2
-002-_D5
 70
   64
 10
0
 20
0
 30
0
  0
LINE
  8
_0-2_寸法
  6
CONTINUOUS
 62
    4
 10
-1041.6309084639938
 20
-2385.9813731935919
 11
-1114.455280463997
 21
-2385.9813731935919
  0
LINE
  8
_0-2_寸法
  6
CONTINUOUS
 62
    4
 10
-1034.5474424639949
 20
-2508.9813731935919
 11
-1114.455280463997
 21
-2508.9813731935919
  0
LINE
  8
_0-2_寸法
  6
CONTINUOUS
 62
    4
 10
-1114.455280463997
 20
-2386.0813731935918
 11
-1114.455280463997
 21
-2508.881373193592
  0
INSERT
  2
-000-_Dot
  8
_0-2_寸法
 10
-1114.455280463997
 20
-2385.9813731935919
 41
1
 42
1
 50
90
  0
INSERT
  2
-000-_Dot
  8
_0-2_寸法
 10
-1114.455280463997
 20
-2508.9813731935919
 41
1
 42
1
 50
270
  0
TEXT
  8
_0-2_寸法
 62
    7
 10
-1114.5352804639961
 20
-2448.7313731935919
 40
5
 41
1
 50
90
  1
J
  0
POINT
  8
_0-1_Defpoints
 62
    7
 10
-1041.6309084639938
 20
-2385.9813731935919
  0
POINT
  8
_0-1_Defpoints
 62
    7
 10
-1034.5474424639949
 20
-2508.9813731935919
  0
POINT
  8
_0-1_Defpoints
 62
    7
 10
-1114.455280463997
 20
-2508.9813731935919
  0
ENDBLK
  0
BLOCK
  2
-003-_D6
 70
   64
 10
0
 20
0
 30
0
  0
LINE
  8
_0-2_寸法
  6
CONTINUOUS
 62
    4
 10
-1034.5474424639949
 20
-2508.9813731935919
 11
-1114.455280463997
 21
-2508.9813731935919
  0
LINE
  8
_0-2_寸法
  6
CONTINUOUS
 62
    4
 10
-1034.547442463989
 20
-2523.9813731935983
 11
-1114.455280463997
 21
-2523.9813731935983
  0
LINE
  8
_0-2_寸法
  6
CONTINUOUS
 62
    4
 10
-1114.455280463997
 20
-2509.0813731935918
 11
-1114.455280463997
 21
-2523.8813731935979
  0
INSERT
  2
-000-_Dot
  8
_0-2_寸法
 10
-1114.455280463997
 20
-2508.9813731935919
 41
1
 42
1
 50
90
  0
INSERT
  2
-000-_Dot
  8
_0-2_寸法
 10
-1114.455280463997
 20
-2523.9813731935983
 41
1
 42
1
 50
270
  0
TEXT
  8
_0-2_寸法
 62
    7
 10
-1114.5352804639961
 20
-2518.9813731935947
 40
5
 41
1
 50
90
  1
 I
  0
POINT
  8
_0-1_Defpoints
 62
    7
 10
-1034.5474424639949
 20
-2508.9813731935919
  0
POINT
  8
_0-1_Defpoints
 62
    7
 10
-1034.547442463989
 20
-2523.9813731935983
  0
POINT
  8
_0-1_Defpoints
 62
    7
 10
-1114.455280463997
 20
-2523.9813731935983
  0
ENDBLK
  0
BLOCK
  2
-004-_D7
 70
   64
 10
0
 20
0
 30
0
  0
LINE
  8
_0-2_寸法
  6
CONTINUOUS
 62
    4
 10
-1028.586224463995
 20
-2525.0816411935948
 11
-1028.586224463995
 21
-2555.9755891935902
  0
LINE
  8
_0-2_寸法
  6
CONTINUOUS
 62
    4
 10
-938.58622446399534
 20
-2525.0816411935948
 11
-938.58622446399534
 21
-2555.9755891935902
  0
LINE
  8
_0-2_寸法
  6
CONTINUOUS
 62
    4
 10
-1028.4862244639949
 20
-2555.9755891935902
 11
-938.68622446399536
 21
-2555.9755891935902
  0
INSERT
  2
-000-_Dot
  8
_0-2_寸法
 10
-1028.586224463995
 20
-2555.9755891935902
 41
1
 42
1
 50
180
  0
INSERT
  2
-000-_Dot
  8
_0-2_寸法
 10
-938.58622446399534
 20
-2555.9755891935902
 41
1
 42
1
 50
0
  0
TEXT
  8
_0-2_寸法
 62
    7
 10
-984.83622446399545
 20
-2555.8955891935889
 40
5
 41
1
 50
0
  1
A
  0
POINT
  8
_0-1_Defpoints
 62
    7
 10
-1028.586224463995
 20
-2525.0816411935948
  0
POINT
  8
_0-1_Defpoints
 62
    7
 10
-938.58622446399534
 20
-2525.0816411935948
  0
POINT
  8
_0-1_Defpoints
 62
    7
 10
-938.58622446399534
 20
-2555.9755891935902
  0
ENDBLK
  0
ENDSEC
  0
SECTION
  2
ENTITIES
  0
LINE
  8
_0-3_躯体と製品
  6
CONTINUOUS
 62
    4
 10
176.96679809897432
 20
-1356.8825814037882
 11
818.81699809898237
 21
-1549.4376614038192
  0
LINE
  8
_0-3_躯体と製品
  6
PLINE2
 62
    3
 10
176.96679809897432
 20
-1357.926621403778
 11
1083.7944380989848
 21
-1629.9749214037984
  0
TEXT
  8
_0-4_図面枠
 62
    7
 10
-833.27846190099444
 20
2715.6534785961921
 40
200
 41
0.8
 50
0
  1
連続式ベンチレーター　排煙Ｈ型（３００～９００）
  0
LINE
  8
_0-4_図面枠
  6
CONTINUOUS
 62
    4
 10
-3451.0451819009941
 20
-2372.6253214037788
 11
4292.2881580989906
 21
-2372.6253214037788
  0
LINE
  8
_0-4_図面枠
  6
CONTINUOUS
 62
    4
 10
-3451.0451819009941
 20
2634.0413385961911
 11
4292.2881580989906
 21
2634.0413385961911
  0
LINE
  8
_0-4_図面枠
  6
CONTINUOUS
 62
    4
 10
-3451.0451819009941
 20
2967.3746785962212
 11
4292.2881580989906
 21
2967.3746785962212
  0
LINE
  8
_0-3_躯体と製品
  6
CONTINUOUS
 62
    3
 10
845.18309809899802
 20
-722.64086140380095
 11
176.96679809897432
 21
-556.03584140382009
  0
LINE
  8
_0-3_躯体と製品
  6
PLINE5
 62
    3
 10
850.58561809898492
 20
-678.64086140379004
 11
176.96679809897432
 21
-510.6888414037785
  0
LINE
  8
_0-3_躯体と製品
  6
CONTINUOUS
 62
    3
 10
176.96679809897432
 20
-504.50516140375112
 11
851.32231809900077
 21
-672.64086140380095
  0
LINE
  8
_0-4_図面枠
  6
CONTINUOUS
 62
    2
 10
347.9495980989941
 20
-585.13200140378831
 11
478.22933809899951
 21
-359.48086140380838
  0
LINE
  8
_0-3_躯体と製品
  6
CONTINUOUS
 62
    3
 10
176.96679809897432
 20
-112.9266214037707
 11
626.96679809897432
 21
-112.9266214037707
  0
LINE
  8
_0-3_躯体と製品
  6
CONTINUOUS
 62
    4
 10
457.28947809900092
 20
1343.3084985962087
 11
807.28947809900092
 21
1212.0584985962087
  0
LINE
  8
_0-3_躯体と製品
  6
PLINE2
 62
    2
 10
460.48791809897921
 20
1345.3130785962021
 11
808.34285809897483
 21
1214.8674785962503
  0
LINE
  8
_0-3_躯体と製品
  6
PLINE2
 62
    2
 10
498.9660180989722
 20
1760.8765785961914
 11
460.48791809897921
 21
1345.3130785962021
  0
LINE
  8
_0-3_躯体と製品
  6
CONTINUOUS
 62
    4
 10
496.17503809898153
 20
1763.2725585961889
 11
457.09833809897646
 21
1341.2441785962219
  0
LINE
  8
_0-3_躯体と製品
  6
CONTINUOUS
 62
    4
 10
493.99355809898407
 20
1327.4084785962405
 11
457.09833809897646
 21
1341.2441785962219
  0
LINE
  8
_0-3_躯体と製品
  6
CONTINUOUS
 62
    4
 10
-2731.2961619010148
 20
226.59305859624146
 11
-2731.2961619010148
 21
449.54997859623109
  0
LINE
  8
_0-3_躯体と製品
  6
CONTINUOUS
 62
    2
 10
-2770.2961619009948
 20
340.84903859618134
 11
-2735.7961619010239
 21
327.91153859621045
  0
LINE
  8
_0-3_躯体と製品
  6
PLINE4
 62
    4
 10
-2770.2961619009948
 20
340.84903859618134
 11
-2770.2961619009948
 21
325.84903859618134
  0
LINE
  8
_0-3_躯体と製品
  6
PLINE2
 62
    2
 10
-2336.2961619010148
 20
228.69305859622909
 11
-2336.2961619010148
 21
417.42739859623907
  0
LINE
  8
_0-3_躯体と製品
  6
PLINE2
 62
    2
 10
-2330.2961619009948
 20
226.89305859622982
 11
-2330.2961619009948
 21
420.08481859620224
  0
LINE
  8
_0-3_躯体と製品
  6
CONTINUOUS
 62
    2
 10
-2265.2961619009948
 20
323.52401859619204
 11
-1983.6733819009951
 21
429.13255859622222
  0
LINE
  8
_0-3_躯体と製品
  6
CONTINUOUS
 62
    2
 10
-3045.5040619010142
 20
448.85799859619146
 11
-2731.2961619010148
 21
331.03003859618912
  0
LINE
  8
_0-3_躯体と製品
  6
CONTINUOUS
 62
    2
 10
-2724.2961619010039
 20
227.64903859618062
 11
-2724.2961619010039
 21
417.42739859623907
  0
LINE
  8
_0-4_図面枠
  6
CONTINUOUS
 62
    4
 10
-3451.0451819009941
 20
2967.3746785962212
 11
-3451.0451819009941
 21
-2372.6253214037788
  0
LINE
  8
_0-3_躯体と製品
  6
PLINE3
 62
    2
 10
-2530.2961619009948
 20
954.57969859617879
 11
-2530.2961619009948
 21
111.39537859618213
  0
LINE
  8
_0-3_躯体と製品
  6
CONTINUOUS
 62
    2
 10
-2730.2961619009948
 20
225.84903859618134
 11
-2730.2961619009948
 21
420.08481859620224
  0
LINE
  8
_0-3_躯体と製品
  6
CONTINUOUS
 62
    4
 10
-1855.565201901014
 20
-1740.725401403779
 11
-2422.4154019010239
 21
-1570.6703414037693
  0
LINE
  8
_0-3_躯体と製品
  6
PLINE2
 62
    3
 10
-2424.4154019009948
 20
-1571.1143814037678
 11
-1590.5877619010153
 21
-1821.262661403769
  0
LINE
  8
_0-3_躯体と製品
  6
PLINE2
 62
    3
 10
-2530.2961619009948
 20
285.84903859618134
 11
-1961.2169619010147
 21
115.12527859620968
  0
LINE
  8
_0-3_躯体と製品
  6
PLINE5
 62
    3
 10
-2422.4154019010239
 20
-837.19648140376012
 11
-1859.6438819009945
 21
-977.51118140378094
  0
LINE
  8
_0-3_躯体と製品
  6
PLINE5
 62
    3
 10
-1860.3806019010244
 20
-983.51118140375911
 11
-2422.4154019010239
 21
-843.38016140379113
  0
LINE
  8
_0-3_躯体と製品
  6
CONTINUOUS
 62
    3
 10
-2048.3144419010241
 20
-518.22488140375935
 11
-1487.9857619010036
 21
-657.93052140378859
  0
LINE
  8
_0-3_躯体と製品
  6
PLINE5
 62
    3
 10
-1864.555261901005
 20
-1017.5111814037809
 11
-2057.2318019010036
 21
-969.47152140377875
  0
LINE
  8
_0-3_躯体と製品
  6
PLINE5
 62
    3
 10
-3386.0172019010151
 20
-1305.2192014037682
 11
-2807.4154019010239
 21
-1524.0182014037709
  0
LINE
  8
_0-3_躯体と製品
  6
CONTINUOUS
 62
    3
 10
-3349.7607019009938
 20
-1282.5798614038213
 11
-2807.4154019010239
 21
-1487.6684214037487
  0
LINE
  8
_0-3_躯体と製品
  6
CONTINUOUS
 62
    3
 10
-3033.5793419009951
 20
-1284.5420414037908
 11
-2807.4154019010239
 21
-1370.0662014037807
  0
LINE
  8
_0-3_躯体と製品
  6
PLINE5
 62
    3
 10
-2791.4154019009948
 20
-977.51118140378094
 11
-2791.4154019009948
 21
-1682.4143814037488
  0
LINE
  8
_0-3_躯体と製品
  6
CONTINUOUS
 62
    3
 10
-2757.4154019010239
 20
-926.90504140375924
 11
-2757.4154019010239
 21
-1672.2143814037809
  0
LINE
  8
_0-3_躯体と製品
  6
CONTINUOUS
 62
    4
 10
-3392.4154019010239
 20
-1309.2143814037481
 11
-2872.4154019010239
 21
-1505.8530414037778
  0
LINE
  8
_0-3_躯体と製品
  6
PLINE4
 62
    2
 10
-2422.4154019010239
 20
-450.71638140378855
 11
-2422.4154019010239
 21
-1722.8846614037611
  0
LINE
  8
_0-3_躯体と製品
  6
PLINE2
 62
    5
 10
-3148.4645619010244
 20
-1358.7002614038211
 11
-3029.3950419010143
 21
-1239.6307414037692
  0
LINE
  8
_0-3_躯体と製品
  6
PLINE2
 62
    5
 10
-3122.8103819010048
 20
-1368.4014214037779
 11
-3033.0274419010038
 21
-1278.6184614037811
  0
LINE
  8
_0-3_躯体と製品
  6
PLINE2
 62
    5
 10
-3097.1562019010235
 20
-1378.1025814037494
 11
-3011.822901901005
 21
-1292.7692614037587
  0
LINE
  8
_0-3_躯体と製品
  6
PLINE2
 62
    5
 10
-3071.5020419010052
 20
-1387.8037414037899
 11
-2986.1687219010146
 21
-1302.4704214037993
  0
LINE
  8
_0-3_躯体と製品
  6
PLINE2
 62
    5
 10
-3045.8478619010239
 20
-1397.5049014037613
 11
-2960.514541900995
 21
-1312.1715814037707
  0
LINE
  8
_0-3_躯体と製品
  6
PLINE2
 62
    5
 10
-3020.1936819010043
 20
-1407.2060614037982
 11
-2934.8603619010137
 21
-1321.8727414038112
  0
LINE
  8
_0-3_躯体と製品
  6
PLINE2
 62
    5
 10
-2945.0800619009951
 20
-1367.4477814037782
 11
-2909.2061819009941
 21
-1331.573901403779
  0
LINE
  8
_0-3_躯体と製品
  6
PLINE2
 62
    5
 10
-2960.4067619010038
 20
-1418.1298214038106
 11
-2883.5520019010146
 21
-1341.2750614037504
  0
LINE
  8
_0-3_躯体と製品
  6
PLINE2
 62
    5
 10
-2943.2311419010239
 20
-1436.309541403778
 11
-2857.897821900995
 21
-1350.976221403791
  0
LINE
  8
_0-3_躯体と製品
  6
PLINE4
 62
    2
 10
-2422.4154019010239
 20
-450.71638140378855
 11
-2422.4154019010239
 21
-1733.9855014037603
  0
LINE
  8
_0-3_躯体と製品
  6
CONTINUOUS
 62
    3
 10
-2797.4154019010239
 20
-1684.2143814037481
 11
-2797.4154019010239
 21
-936.87816140375071
  0
LINE
  8
_0-3_躯体と製品
  6
PLINE2
 62
    3
 10
-2420.4154019010148
 20
-1571.1143814037678
 11
-3254.2430419009943
 21
-1821.262661403769
  0
TEXT
  8
_0-4_図面枠
 62
    7
 10
-2611.9540619010149
 20
-1954.5440814037611
 40
60
 41
0.7999999999999999
 50
0
  1
ＳＣ７５０Ｈ
  0
LINE
  8
_0-3_躯体と製品
  6
CONTINUOUS
 62
    2
 10
-2897.1087419009946
 20
-1483.6858814037478
 11
-2905.9514019010039
 21
-1507.0698014037989
  0
LINE
  8
_0-3_躯体と製品
  6
PLINE2
 62
    5
 10
-2917.5769619010043
 20
-1446.0107014038185
 11
-2832.2436419010046
 21
-1360.6773814037588
  0
LINE
  8
_0-3_躯体と製品
  6
CONTINUOUS
 62
    4
 10
-2989.265621900995
 20
-1740.725401403779
 11
-2797.4154019010239
 21
-1683.1703414037693
  0
LINE
  8
_0-3_躯体と製品
  6
CONTINUOUS
 62
    4
 10
-2989.1121019010152
 20
-1741.2371014037708
 11
-2972.420761901014
 21
-1736.2297014038195
  0
LINE
  8
_0-3_躯体と製品
  6
CONTINUOUS
 62
    4
 10
-2989.265621900995
 20
-1740.725401403779
 11
-2989.1121019010152
 21
-1741.2371014037708
  0
LINE
  8
_0-3_躯体と製品
  6
CONTINUOUS
 62
    2
 10
-3112.4176019010047
 20
-1402.8011214037797
 11
-3121.260261901014
 21
-1426.1850414037581
  0
LINE
  8
_0-3_躯体と製品
  6
PLINE2
 62
    5
 10
-2994.5395019010248
 20
-1416.9072214037697
 11
-2974.3776819009945
 21
-1396.7454014037794
  0
LINE
  8
_0-3_躯体と製品
  6
PLINE2
 62
    5
 10
-2968.8853219010052
 20
-1426.6083814038102
 11
-2965.6104819010252
 21
-1423.3335214037907
  0
LINE
  8
_0-3_躯体と製品
  6
CONTINUOUS
 62
    3
 10
-2807.4154019010239
 20
-1370.0662014037807
 11
-2807.4154019010239
 21
-1634.2143814037481
  0
LINE
  8
_0-3_躯体と製品
  6
CONTINUOUS
 62
    2
 10
-2812.4154019010239
 20
-1606.9050414037592
 11
-2782.4154019010239
 21
-1606.9050414037592
  0
LINE
  8
_0-3_躯体と製品
  6
CONTINUOUS
 62
    3
 10
-2807.4154019010239
 20
-1634.2143814037481
 11
-2797.4154019010239
 21
-1634.2143814037481
  0
LINE
  8
_0-3_躯体と製品
  6
PLINE2
 62
    5
 10
-2866.2686019009943
 20
-1465.4130214037505
 11
-2807.4154019010239
 21
-1406.5598214038109
  0
LINE
  8
_0-3_躯体と製品
  6
PLINE2
 62
    5
 10
-2840.6144219010148
 20
-1475.114181403791
 11
-2807.4154019010239
 21
-1441.9151614037582
  0
LINE
  8
_0-3_躯体と製品
  6
CONTINUOUS
 62
    3
 10
-2807.4154019010239
 20
-1530.4328614037804
 11
-2872.4154019010239
 21
-1505.8530414037778
  0
LINE
  8
_0-3_躯体と製品
  6
CONTINUOUS
 62
    4
 10
-2870.4154019010148
 20
-1535.3530414037486
 11
-2870.4154019010148
 21
-1525.8530414037778
  0
LINE
  8
_0-3_躯体と製品
  6
CONTINUOUS
 62
    4
 10
-2872.4154019010239
 20
-1535.3530414037486
 11
-2870.4154019010148
 21
-1535.3530414037486
  0
LINE
  8
_0-3_躯体と製品
  6
CONTINUOUS
 62
    4
 10
-2872.4154019010239
 20
-1505.8530414037778
 11
-2872.4154019010239
 21
-1535.3530414037486
  0
LINE
  8
_0-3_躯体と製品
  6
CONTINUOUS
 62
    2
 10
-2812.4154019010239
 20
-1556.9050414037592
 11
-2782.4154019010239
 21
-1556.9050414037592
  0
LINE
  8
_0-3_躯体と製品
  6
CONTINUOUS
 62
    3
 10
-2807.4154019010239
 20
-1487.6684214037487
 11
-2797.4154019010239
 21
-1487.6684214037487
  0
LINE
  8
_0-3_躯体と製品
  6
PLINE2
 62
    5
 10
-2814.9602419009952
 20
-1484.8153414037588
 11
-2807.4154019010239
 21
-1477.2705014037892
  0
LINE
  8
_0-3_躯体と製品
  6
PLINE2
 62
    5
 10
-2891.9227819010139
 20
-1455.71186140379
 11
-2807.4154019010239
 21
-1371.2044814037909
  0
LINE
  8
_0-3_躯体と製品
  6
CONTINUOUS
 62
    2
 10
-2812.4154019010239
 20
-1369.5517414038004
 11
-2782.4154019010239
 21
-1369.5517414038004
  0
LINE
  8
_0-3_躯体と製品
  6
PLINE2
 62
    3
 10
-2047.4154019010239
 20
-1426.1255014037597
 11
-2047.4154019010239
 21
-1683.1703414037693
  0
LINE
  8
_0-3_躯体と製品
  6
PLINE2
 62
    3
 10
-2087.4154019010239
 20
-1426.1255014037597
 11
-2087.4154019010239
 21
-1671.1703414037984
  0
LINE
  8
_0-3_躯体と製品
  6
PLINE5
 62
    3
 10
-2053.4154019010039
 20
-1426.1255014037597
 11
-2053.4154019010039
 21
-1681.37034140377
  0
LINE
  8
_0-3_躯体と製品
  6
PLINE2
 62
    5
 10
-3011.2829019010042
 20
-1045.2270614038098
 11
-3276.383421901015
 21
-1310.3275814037879
  0
LINE
  8
_0-3_躯体と製品
  6
PLINE2
 62
    5
 10
-3041.5933019010135
 20
-968.98628140379878
 11
-3349.2032219010143
 21
-1276.596181403751
  0
LINE
  8
_0-3_躯体と製品
  6
PLINE2
 62
    5
 10
-3014.865461900994
 20
-1083.6797814038
 11
-3251.0812819009952
 21
-1319.8956214038008
  0
LINE
  8
_0-3_躯体と製品
  6
PLINE2
 62
    5
 10
-2993.0710619009951
 20
-849.75336140381114
 11
-3341.9384219010044
 21
-1198.6207214038113
  0
LINE
  8
_0-3_躯体と製品
  6
PLINE2
 62
    5
 10
-3328.0438219010139
 20
-1290.7921414037482
 11
-3003.9682619009945
 21
-966.71658140376894
  0
LINE
  8
_0-3_躯体と製品
  6
PLINE5
 62
    3
 10
-3004.9739819010247
 20
-977.51118140378094
 11
-3355.4854019009945
 21
-977.51118140378094
  0
LINE
  8
_0-3_躯体と製品
  6
PLINE5
 62
    3
 10
-3359.2121019010046
 20
-1017.5111814037809
 11
-3008.7006819009948
 21
-1017.5111814037809
  0
LINE
  8
_0-3_躯体と製品
  6
PLINE5
 62
    3
 10
-3356.0444019010247
 20
-983.51118140375911
 11
-3005.532981901024
 21
-983.51118140375911
  0
LINE
  8
_0-3_躯体と製品
  6
CONTINUOUS
 62
    4
 10
-2797.4154019010239
 20
-544.21438140374812
 11
-3336.8875419010237
 21
-678.71988140375834
  0
LINE
  8
_0-3_躯体と製品
  6
PLINE5
 62
    3
 10
-2795.9638819010142
 20
-550.03614140379068
 11
-3328.0177819010041
 21
-682.69208140375849
  0
LINE
  8
_0-3_躯体と製品
  6
CONTINUOUS
 62
    3
 10
-2787.7385419010243
 20
-583.02620140379804
 11
-3296.4007819009948
 21
-709.84994140375784
  0
LINE
  8
_0-3_躯体と製品
  6
PLINE2
 62
    5
 10
-3305.6144419010252
 20
-808.74334140378051
 11
-3176.9348419010239
 21
-680.06374140382104
  0
LINE
  8
_0-3_躯体と製品
  6
PLINE2
 62
    5
 10
-3309.2468419010038
 20
-847.73108140378827
 11
-3129.836581901005
 21
-668.32082140378043
  0
LINE
  8
_0-3_躯体と製品
  6
PLINE2
 62
    5
 10
-3312.8792419009951
 20
-886.71882140379967
 11
-3082.7383419010239
 21
-656.57792140376114
  0
LINE
  8
_0-3_躯体と製品
  6
PLINE2
 62
    5
 10
-3316.5116419010246
 20
-925.70656140381107
 11
-3035.640081901005
 21
-644.83500140380056
  0
LINE
  8
_0-3_躯体と製品
  6
PLINE2
 62
    5
 10
-3320.144041901005
 20
-964.69430140374971
 11
-2988.5418419009948
 21
-633.09210140377036
  0
LINE
  8
_0-3_躯体と製品
  6
PLINE2
 62
    5
 10
-3323.7764419009945
 20
-1003.682021403758
 11
-2974.9090819009944
 21
-654.81468140376091
  0
LINE
  8
_0-3_躯体と製品
  6
PLINE2
 62
    5
 10
-3327.4088219010137
 20
-1042.6697614037694
 11
-2978.5414819010148
 21
-693.80242140376868
  0
LINE
  8
_0-3_躯体と製品
  6
PLINE2
 62
    5
 10
-3331.041221901005
 20
-1081.6575014037808
 11
-2982.1738819010043
 21
-732.79016140378008
  0
LINE
  8
_0-3_躯体と製品
  6
PLINE2
 62
    5
 10
-3334.6736219010236
 20
-1120.6452414037885
 11
-2985.8062819009938
 21
-771.77788140378834
  0
LINE
  8
_0-3_躯体と製品
  6
PLINE2
 62
    5
 10
-3338.3060219010149
 20
-1159.6329814037999
 11
-2989.4386819010142
 21
-810.76562140379974
  0
LINE
  8
_0-3_躯体と製品
  6
PLINE2
 62
    5
 10
-3345.5708219010248
 20
-1237.6084414038196
 11
-3059.8862819010246
 21
-951.92390140381031
  0
LINE
  8
_0-3_躯体と製品
  6
PLINE2
 62
    5
 10
-3225.4271019010048
 20
-1329.5967814037685
 11
-3018.4978619010235
 21
-1122.6675214038078
  0
LINE
  8
_0-3_躯体と製品
  6
PLINE2
 62
    5
 10
-3007.6006619010241
 20
-1005.7043214037803
 11
-3302.3896419009943
 21
-1300.4933014037888
  0
LINE
  8
_0-3_躯体と製品
  6
CONTINUOUS
 62
    4
 10
-3333.5972619010136
 20
-677.89952140376772
 11
-3392.7233019009946
 21
-1312.51910140377
  0
LINE
  8
_0-3_躯体と製品
  6
PLINE5
 62
    3
 10
-3328.0177819010041
 20
-682.69208140375849
 11
-3386.0172019010151
 21
-1305.2192014037682
  0
LINE
  8
_0-3_躯体と製品
  6
CONTINUOUS
 62
    3
 10
-3296.4007819009948
 20
-709.84994140375784
 11
-3349.7607019009938
 21
-1282.5798614038213
  0
LINE
  8
_0-3_躯体と製品
  6
CONTINUOUS
 62
    4
 10
-3392.7233019009946
 20
-1312.51910140377
 11
-3356.1330019010038
 21
-1326.3557614037782
  0
LINE
  8
_0-3_躯体と製品
  6
CONTINUOUS
 62
    2
 10
-3401.7532019010141
 20
-1269.3024614038113
 11
-3376.8610019010248
 21
-1271.6216014037782
  0
LINE
  8
_0-3_躯体と製品
  6
CONTINUOUS
 62
    2
 10
-3322.6959819010244
 20
-1322.7495414037803
 11
-3331.5386219010252
 21
-1346.1334414037483
  0
LINE
  8
_0-3_躯体と製品
  6
CONTINUOUS
 62
    2
 10
-3380.3830219010051
 20
-1045.3190614038213
 11
-3355.4908219010049
 21
-1047.6382014037808
  0
LINE
  8
_0-3_躯体と製品
  6
CONTINUOUS
 62
    2
 10
-3344.5880019009946
 20
-992.79684140378959
 11
-3344.5880019009946
 21
-1006.7968414038005
  0
LINE
  8
_0-3_躯体と製品
  6
CONTINUOUS
 62
    2
 10
-3351.5880019010037
 20
-999.79684140376048
 11
-3337.5880019010237
 21
-999.79684140376048
  0
LINE
  8
_0-3_躯体と製品
  6
PLINE2
 62
    5
 10
-3298.3496419010044
 20
-730.76788140376084
 11
-3271.1313419010239
 21
-703.54956140380091
  0
LINE
  8
_0-3_躯体と製品
  6
PLINE2
 62
    5
 10
-3301.9820419009939
 20
-769.75560140375819
 11
-3224.0331019010137
 21
-691.80666140377798
  0
LINE
  8
_0-3_躯体と製品
  6
CONTINUOUS
 62
    2
 10
-3352.5532419010051
 20
-746.61268140381071
 11
-3327.661041901014
 21
-748.9318214037703
  0
LINE
  8
_0-3_躯体と製品
  6
CONTINUOUS
 62
    2
 10
-3300.2626819010038
 20
-656.19030140378891
 11
-3294.2146419010242
 21
-680.44770140378023
  0
LINE
  8
_0-3_躯体と製品
  6
CONTINUOUS
 62
    4
 10
-3336.8875419010237
 20
-678.71988140375834
 11
-3340.4941019010239
 21
-717.4302014037894
  0
LINE
  8
_0-3_躯体と製品
  6
CONTINUOUS
 62
    3
 10
-2048.3144419010241
 20
-504.21438140374812
 11
-2048.3144419010241
 21
-518.22488140375935
  0
LINE
  8
_0-3_躯体と製品
  6
CONTINUOUS
 62
    4
 10
-2795.4154019010148
 20
-514.21438140374812
 11
-2795.4154019010148
 21
-504.21438140374812
  0
LINE
  8
_0-3_躯体と製品
  6
CONTINUOUS
 62
    4
 10
-2797.4154019010239
 20
-504.21438140374812
 11
-2797.4154019010239
 21
-544.21438140374812
  0
LINE
  8
_0-3_躯体と製品
  6
CONTINUOUS
 62
    4
 10
-2422.5363619010041
 20
-836.71134140381037
 11
-2985.4353219009936
 21
-977.0578014038183
  0
LINE
  8
_0-3_躯体と製品
  6
CONTINUOUS
 62
    3
 10
-2422.4154019010239
 20
-837.19648140376012
 11
-2985.1869219010041
 21
-977.51118140378094
  0
LINE
  8
_0-3_躯体と製品
  6
CONTINUOUS
 62
    3
 10
-2770.0550219009947
 20
-965.09732140375854
 11
-2422.4154019010239
 21
-878.4210414038098
  0
LINE
  8
_0-3_躯体と製品
  6
PLINE5
 62
    3
 10
-2984.4502219009937
 20
-983.51118140375911
 11
-2422.4154019010239
 21
-843.38016140379113
  0
LINE
  8
_0-3_躯体と製品
  6
CONTINUOUS
 62
    4
 10
-2422.4638019009944
 20
-837.0024214037694
 11
-2985.2353219010238
 21
-977.31712140377931
  0
LINE
  8
_0-3_躯体と製品
  6
PLINE5
 62
    3
 10
-2790.8307619010247
 20
-1318.0420814037898
 11
-2423.7523419010249
 21
-1318.0420814037898
  0
LINE
  8
_0-3_躯体と製品
  6
CONTINUOUS
 62
    3
 10
-2790.8307619010247
 20
-1312.0420814038007
 11
-2423.7523419010249
 21
-1312.0420814038007
  0
LINE
  8
_0-3_躯体と製品
  6
CONTINUOUS
 62
    3
 10
-2769.0578219010149
 20
-1352.0420814038007
 11
-2423.7523419010249
 21
-1352.0420814038007
  0
LINE
  8
_0-3_躯体と製品
  6
CONTINUOUS
 62
    3
 10
-2971.2095819010246
 20
-615.10672140381939
 11
-3033.5793419009951
 21
-1284.5420414037908
  0
LINE
  8
_0-3_躯体と製品
  6
PLINE2
 62
    5
 10
-3032.5277419009944
 20
-959.92072140377786
 11
-3000.335861901005
 21
-927.72884140376118
  0
LINE
  8
_0-3_躯体と製品
  6
CONTINUOUS
 62
    4
 10
-2813.7009819010236
 20
-1077.2503614038105
 11
-2928.6076419010042
 21
-1173.6685014037612
  0
LINE
  8
_0-3_躯体と製品
  6
CONTINUOUS
 62
    3
 10
-2912.3221019010143
 20
-1162.614121403778
 11
-2803.4154019010039
 21
-1191.7955814038105
  0
LINE
  8
_0-3_躯体と製品
  6
CONTINUOUS
 62
    3
 10
-2803.4154019010039
 20
-1071.2305414038092
 11
-2912.3221019010143
 21
-1162.614121403778
  0
LINE
  8
_0-3_躯体と製品
  6
CONTINUOUS
 62
    3
 10
-2787.5990019010042
 20
-969.47152140377875
 11
-2980.2755419009936
 21
-1017.5111814037809
  0
LINE
  8
_0-3_躯体と製品
  6
PLINE2
 62
    5
 10
-3199.7729219010253
 20
-1339.2979414038091
 11
-3022.1302619010039
 21
-1161.65526140375
  0
LINE
  8
_0-3_躯体と製品
  6
PLINE2
 62
    5
 10
-3174.1187419010039
 20
-1348.9991014037805
 11
-3025.7626419010248
 21
-1200.6430014037578
  0
LINE
  8
_0-3_躯体と製品
  6
CONTINUOUS
 62
    4
 10
-2928.6076419010042
 20
-1173.6685014037612
 11
-2928.6076419010042
 21
-1193.6685014037612
  0
LINE
  8
_0-3_躯体と製品
  6
CONTINUOUS
 62
    4
 10
-2985.4353219009936
 20
-977.0578014038183
 11
-2985.4353219009936
 21
-992.31712140377931
  0
LINE
  8
_0-3_躯体と製品
  6
CONTINUOUS
 62
    3
 10
-2980.2755419009936
 20
-1017.5111814037809
 11
-3008.7006819009948
 21
-1017.5111814037809
  0
LINE
  8
_0-3_躯体と製品
  6
CONTINUOUS
 62
    4
 10
-2985.2353219010238
 20
-977.31712140377931
 11
-2985.2353219010238
 21
-992.31712140377931
  0
LINE
  8
_0-3_躯体と製品
  6
PLINE2
 62
    3
 10
-3005.532981901024
 20
-983.51118140375911
 11
-2984.4502219009937
 21
-983.51118140375911
  0
LINE
  8
_0-3_躯体と製品
  6
CONTINUOUS
 62
    3
 10
-3004.9739819010247
 20
-977.51118140378094
 11
-2985.1869219010041
 21
-977.51118140378094
  0
LINE
  8
_0-3_躯体と製品
  6
CONTINUOUS
 62
    2
 10
-2948.2564619010045
 20
-954.90540140376106
 11
-2942.2084019010144
 21
-979.16280140374874
  0
LINE
  8
_0-3_躯体と製品
  6
CONTINUOUS
 62
    3
 10
-2797.4154019010239
 20
-1074.0284014038007
 11
-2899.6360419010052
 21
-1159.801681403791
  0
LINE
  8
_0-3_躯体と製品
  6
CONTINUOUS
 62
    4
 10
-2836.0524419010144
 20
-1322.3948414037586
 11
-2797.4154019010239
 21
-1312.0420814038007
  0
LINE
  8
_0-3_躯体と製品
  6
CONTINUOUS
 62
    2
 10
-2773.436921901015
 20
-1327.6353014038177
 11
-2773.436921901015
 21
-1341.6353014037595
  0
LINE
  8
_0-3_躯体と製品
  6
CONTINUOUS
 62
    2
 10
-2780.4369219010241
 20
-1334.6353014037886
 11
-2766.4369219010041
 21
-1334.6353014037886
  0
LINE
  8
_0-3_躯体と製品
  6
CONTINUOUS
 62
    3
 10
-2790.8307619010247
 20
-1352.0420814038007
 11
-2781.8154019010035
 21
-1352.0420814038007
  0
LINE
  8
_0-3_躯体と製品
  6
CONTINUOUS
 62
    3
 10
-2899.6360419010052
 20
-1159.801681403791
 11
-2797.4154019010239
 21
-1187.1916214037883
  0
LINE
  8
_0-3_躯体と製品
  6
CONTINUOUS
 62
    2
 10
-2812.4154019010239
 20
-1202.1916214037883
 11
-2782.4154019010239
 21
-1202.1916214037883
  0
LINE
  8
_0-3_躯体と製品
  6
CONTINUOUS
 62
    3
 10
-2803.4154019010039
 20
-1191.7955814038105
 11
-2803.4154019010039
 21
-1217.1916214037883
  0
LINE
  8
_0-3_躯体と製品
  6
CONTINUOUS
 62
    3
 10
-2797.4154019010239
 20
-1217.1916214037883
 11
-2803.4154019010039
 21
-1217.1916214037883
  0
LINE
  8
_0-3_躯体と製品
  6
CONTINUOUS
 62
    2
 10
-2865.7961619010239
 20
-1101.3823014038207
 11
-2846.5125419009946
 21
-1124.3636214037797
  0
LINE
  8
_0-3_躯体と製品
  6
CONTINUOUS
 62
    4
 10
-2813.7009819010236
 20
-1057.2503614038105
 11
-2813.7009819010236
 21
-1077.2503614038105
  0
LINE
  8
_0-3_躯体と製品
  6
CONTINUOUS
 62
    2
 10
-2812.4154019010239
 20
-1059.0284014038007
 11
-2782.4154019010239
 21
-1059.0284014038007
  0
LINE
  8
_0-3_躯体と製品
  6
CONTINUOUS
 62
    3
 10
-2803.4154019010039
 20
-1044.0284014038007
 11
-2803.4154019010039
 21
-1071.2305414038092
  0
LINE
  8
_0-3_躯体と製品
  6
CONTINUOUS
 62
    3
 10
-2797.4154019010239
 20
-1044.0284014038007
 11
-2803.4154019010039
 21
-1044.0284014038007
  0
LINE
  8
_0-3_躯体と製品
  6
CONTINUOUS
 62
    2
 10
-2778.939981901025
 20
-944.53812140376976
 11
-2778.939981901025
 21
-958.53812140378795
  0
LINE
  8
_0-3_躯体と製品
  6
CONTINUOUS
 62
    2
 10
-2785.9399819009941
 20
-951.5381214038207
 11
-2771.939981901025
 21
-951.5381214038207
  0
LINE
  8
_0-3_躯体と製品
  6
PLINE5
 62
    3
 10
-2797.4154019010239
 20
-977.51118140378094
 11
-2791.4154019009948
 21
-977.51118140378094
  0
LINE
  8
_0-3_躯体と製品
  6
PLINE2
 62
    5
 10
-3034.3306019010251
 20
-926.36824140379031
 11
-2996.7034619010246
 21
-888.74110140374978
  0
LINE
  8
_0-3_躯体と製品
  6
CONTINUOUS
 62
    2
 10
-3062.4192819010241
 20
-597.40460140378127
 11
-3056.371221900994
 21
-621.66198140376946
  0
LINE
  8
_0-3_躯体と製品
  6
CONTINUOUS
 62
    3
 10
-2969.170581901024
 20
-593.22144140375894
 11
-2970.0375019009934
 21
-602.52646140378056
  0
LINE
  8
_0-3_躯体と製品
  6
CONTINUOUS
 62
    2
 10
-2619.4985819009944
 20
-873.45216140379125
 11
-2613.4505219010043
 21
-897.70956140377893
  0
LINE
  8
_0-3_躯体と製品
  6
CONTINUOUS
 62
    2
 10
-2829.5483019010135
 20
-539.34334140374995
 11
-2823.5002619009938
 21
-563.60072140381089
  0
LINE
  8
_0-3_躯体と製品
  6
CONTINUOUS
 62
    3
 10
-2797.4154019010239
 20
-544.21438140374812
 11
-2787.7385419010243
 21
-583.02620140379804
  0
LINE
  8
_0-3_躯体と製品
  6
PLINE5
 62
    3
 10
-2074.7757819010149
 20
-965.09732140375854
 11
-2422.4154019010239
 21
-878.4210414038098
  0
LINE
  8
_0-3_躯体と製品
  6
CONTINUOUS
 62
    3
 10
-2074.7757819010149
 20
-965.09732140375854
 11
-2057.2318019010036
 21
-969.47152140377875
  0
LINE
  8
_0-3_躯体と製品
  6
CONTINUOUS
 62
    2
 10
-2032.5945819009939
 20
-950.15668140377966
 11
-2035.9814819010044
 21
-963.74082140380051
  0
LINE
  8
_0-3_躯体と製品
  6
CONTINUOUS
 62
    2
 10
-2041.0801019009941
 20
-955.25530140375849
 11
-2027.4959619010151
 21
-958.64222140381025
  0
LINE
  8
_0-3_躯体と製品
  6
CONTINUOUS
 62
    2
 10
-2287.2553019009938
 20
-886.66264140377098
 11
-2290.6422019009951
 21
-900.24678140378819
  0
LINE
  8
_0-3_躯体と製品
  6
CONTINUOUS
 62
    2
 10
-2295.7408219010249
 20
-891.76126140376073
 11
-2282.156681901004
 21
-895.14816140379844
  0
LINE
  8
_0-3_躯体と製品
  6
CONTINUOUS
 62
    2
 10
-2422.4154019010239
 20
-858.4210414038098
 11
-2415.4154019010148
 21
-858.4210414038098
  0
LINE
  8
_0-3_躯体と製品
  6
CONTINUOUS
 62
    2
 10
-2161.723541901014
 20
-917.96122140376974
 11
-2165.1104419010244
 21
-931.54536140379059
  0
LINE
  8
_0-3_躯体と製品
  6
CONTINUOUS
 62
    2
 10
-2170.2090619010141
 20
-923.05984140375949
 11
-2156.6249219010242
 21
-926.44674140380084
  0
LINE
  8
_0-3_躯体と製品
  6
CONTINUOUS
 62
    2
 10
-1996.7766619010235
 20
-540.1165814037995
 11
-2000.1635819010044
 21
-553.70072140375123
  0
LINE
  8
_0-3_躯体と製品
  6
CONTINUOUS
 62
    2
 10
-2005.2621819010237
 20
-545.21520140380017
 11
-1991.6780419010047
 21
-548.60210140375784
  0
TEXT
  8
_0-4_図面枠
 62
    7
 10
-2671.157941901005
 20
-2.8323814038085402
 40
60
 41
0.7999999999999999
 50
0
  1
ＳＣ４００Ｈ
  0
LINE
  8
_0-3_躯体と製品
  6
PLINE2
 62
    3
 10
-2530.2961619009948
 20
285.84903859618134
 11
-3099.375361901004
 21
115.12527859620968
  0
LINE
  8
_0-3_躯体と製品
  6
CONTINUOUS
 62
    4
 10
-2795.4154019010148
 20
-504.21438140374812
 11
-2797.4154019010239
 21
-504.21438140374812
  0
LINE
  8
_0-3_躯体と製品
  6
CONTINUOUS
 62
    4
 10
-2923.146381900995
 20
169.03799859623177
 11
-2731.2961619010148
 21
226.59305859624146
  0
LINE
  8
_0-3_躯体と製品
  6
CONTINUOUS
 62
    4
 10
-2922.9928619010043
 20
168.52629859623994
 11
-2906.301521901014
 21
173.53371859620165
  0
LINE
  8
_0-3_躯体と製品
  6
CONTINUOUS
 62
    4
 10
-2923.146381900995
 20
169.03799859623177
 11
-2922.9928619010043
 21
168.52629859623994
  0
LINE
  8
_0-3_躯体と製品
  6
PLINE4
 62
    4
 10
-2769.2961619010039
 20
325.84903859618134
 11
-2769.2961619010039
 21
330.84903859618134
  0
LINE
  8
_0-3_躯体と製品
  6
PLINE4
 62
    4
 10
-2770.2961619009948
 20
325.84903859618134
 11
-2769.2961619010039
 21
325.84903859618134
  0
LINE
  8
_0-3_躯体と製品
  6
CONTINUOUS
 62
    2
 10
-2735.7961619010239
 20
327.91153859621045
 11
-2735.7961619010239
 21
259.84903859619953
  0
LINE
  8
_0-3_躯体と製品
  6
PLINE4
 62
    2
 10
-2739.2717219009937
 20
299.54997859623109
 11
-2720.1461619009951
 21
299.54997859623109
  0
LINE
  8
_0-3_躯体と製品
  6
CONTINUOUS
 62
    2
 10
-2731.2961619010148
 20
259.84903859619953
 11
-2735.7961619010239
 21
259.84903859619953
  0
LINE
  8
_0-3_躯体と製品
  6
CONTINUOUS
 62
    3
 10
-2422.4154019010239
 20
-504.21438140374812
 11
-2048.3144419010241
 21
-504.21438140374812
  0
LINE
  8
_0-3_躯体と製品
  6
CONTINUOUS
 62
    4
 10
-2137.445961900994
 20
169.03799859623177
 11
-2530.2961619009948
 21
286.89305859621891
  0
LINE
  8
_0-3_躯体と製品
  6
CONTINUOUS
 62
    2
 10
-2265.2961619009948
 20
207.39305859617889
 11
-2265.2961619009948
 21
323.52401859619204
  0
LINE
  8
_0-3_躯体と製品
  6
CONTINUOUS
 62
    4
 10
-2137.5994619010144
 20
168.52629859623994
 11
-2154.2908019010138
 21
173.53371859620165
  0
LINE
  8
_0-3_躯体と製品
  6
CONTINUOUS
 62
    4
 10
-2137.445961900994
 20
169.03799859623177
 11
-2137.5994619010144
 21
168.52629859623994
  0
LINE
  8
_0-3_躯体と製品
  6
PLINE5
 62
    3
 10
-267.03320190100385
 20
-1442.9266214037707
 11
-267.03320190100385
 21
-672.64086140380095
  0
LINE
  8
_0-3_躯体と製品
  6
CONTINUOUS
 62
    3
 10
-223.03320190102386
 20
-1476.8825814037882
 11
-223.03320190102386
 21
-610.42004140379868
  0
LINE
  8
_0-3_躯体と製品
  6
CONTINUOUS
 62
    3
 10
-273.03320190102386
 20
-1442.9266214037707
 11
-273.03320190102386
 21
-622.88644140377801
  0
LINE
  8
_0-3_躯体と製品
  6
CONTINUOUS
 62
    3
 10
-283.03320190102386
 20
-1136.0548214037699
 11
-283.03320190102386
 21
-1442.9266214037707
  0
LINE
  8
_0-3_躯体と製品
  6
CONTINUOUS
 62
    4
 10
-273.53320190101476
 20
-1072.886441403778
 11
-273.53320190101476
 21
-1492.926621403778
  0
LINE
  8
_0-3_躯体と製品
  6
CONTINUOUS
 62
    3
 10
-273.03320190102386
 20
-1072.2348214037884
 11
-273.03320190102386
 21
-1491.8825814037882
  0
LINE
  8
_0-3_躯体と製品
  6
PLINE3
 62
    2
 10
176.96679809897432
 20
-40.729021403771185
 11
176.96679809897432
 21
-1492.926621403778
  0
LINE
  8
_0-3_躯体と製品
  6
CONTINUOUS
 62
    3
 10
-1425.7562219009942
 20
-1325.8609414037601
 11
-1948.3967219010137
 21
-1523.4981014037694
  0
LINE
  8
_0-3_躯体と製品
  6
CONTINUOUS
 62
    3
 10
-1948.3967219010137
 20
-1523.4981014037694
 11
-1948.3967219010137
 21
-1713.9199814037711
  0
LINE
  8
_0-3_躯体と製品
  6
CONTINUOUS
 62
    4
 10
-1855.7187019009943
 20
-1741.2371014037708
 11
-1872.4100419010247
 21
-1736.2297014038195
  0
LINE
  8
_0-3_躯体と製品
  6
CONTINUOUS
 62
    4
 10
-1855.565201901014
 20
-1740.725401403779
 11
-1855.7187019009943
 21
-1741.2371014037708
  0
LINE
  8
_0-3_躯体と製品
  6
PLINE2
 62
    3
 10
176.96679809897432
 20
-1357.926621403778
 11
-729.86086190100468
 21
-1629.9749214037984
  0
LINE
  8
_0-3_躯体と製品
  6
CONTINUOUS
 62
    4
 10
176.96679809897432
 20
-1356.8825814037882
 11
-464.88342190099502
 21
-1549.4376614038192
  0
LINE
  8
_0-3_躯体と製品
  6
CONTINUOUS
 62
    4
 10
-464.72990190101518
 20
-1549.9493414038006
 11
-448.03856190101396
 21
-1544.9419414037584
  0
LINE
  8
_0-3_躯体と製品
  6
CONTINUOUS
 62
    4
 10
-464.88342190099502
 20
-1549.4376614038192
 11
-464.72990190101518
 21
-1549.9493414038006
  0
LINE
  8
_0-3_躯体と製品
  6
PLINE5
 62
    3
 10
-267.03320190100385
 20
-1442.9266214037707
 11
-267.03320190100385
 21
-1490.0825814037889
  0
LINE
  8
_0-3_躯体と製品
  6
CONTINUOUS
 62
    3
 10
-273.03320190102386
 20
-1442.9266214037707
 11
-273.03320190102386
 21
-1491.8825814037882
  0
LINE
  8
_0-3_躯体と製品
  6
CONTINUOUS
 62
    2
 10
-289.57828190101463
 20
-1360.4200414037987
 11
-259.57828190101463
 21
-1360.4200414037987
  0
LINE
  8
_0-3_躯体と製品
  6
CONTINUOUS
 62
    2
 10
-289.57828190101463
 20
-1410.4200414037987
 11
-259.57828190101463
 21
-1410.4200414037987
  0
LINE
  8
_0-3_躯体と製品
  6
CONTINUOUS
 62
    3
 10
-273.53320190101476
 20
-1442.9266214037707
 11
-283.03320190102386
 21
-1442.9266214037707
  0
TEXT
  8
_0-4_図面枠
 62
    7
 10
21.282698098973924
 20
-1970.0060014037699
 40
60
 41
0.8000000000000001
 50
0
  1
ＳＣ９００Ｈ
  0
LINE
  8
_0-3_躯体と製品
  6
PLINE2
 62
    5
 10
-847.26856190100443
 20
-1072.6363014037888
 11
-682.65550190099384
 21
-908.02324140381097
  0
LINE
  8
_0-3_躯体と製品
  6
PLINE2
 62
    5
 10
-821.60454190100427
 20
-1082.3276014037692
 11
-648.14650190099383
 21
-908.86956140380062
  0
LINE
  8
_0-3_躯体と製品
  6
PLINE2
 62
    5
 10
-795.9405019009937
 20
-1092.0189214037491
 11
-613.63748190099432
 21
-909.71590140378976
  0
LINE
  8
_0-3_躯体と製品
  6
PLINE2
 62
    5
 10
-770.27648190102445
 20
-1101.7102214037986
 11
-579.1284819009943
 21
-910.56222140376849
  0
LINE
  8
_0-3_躯体と製品
  6
PLINE2
 62
    5
 10
-828.91516190099355
 20
-842.15086140381027
 11
-615.78286190099425
 21
-629.01856140382006
  0
LINE
  8
_0-3_躯体と製品
  6
PLINE2
 62
    5
 10
-792.79676190101418
 20
-841.38780140379095
 11
-598.71018190101495
 21
-647.3012214037808
  0
LINE
  8
_0-3_躯体と製品
  6
PLINE2
 62
    5
 10
-756.67836190100388
 20
-840.62474140376071
 11
-505.32594190099371
 21
-589.27232140379783
  0
TEXT
  8
_0-4_図面枠
 62
    7
 10
-829.77320190101455
 20
-43.439381403761217
 40
60
 41
0.8000000000000001
 50
0
  1
六角ボルト
  0
LINE
  8
_0-4_図面枠
  6
CONTINUOUS
 62
    2
 10
-581.64592190100484
 20
-54.040041403808573
 11
-827.70674190102363
 21
-54.040041403808573
  0
LINE
  8
_0-3_躯体と製品
  6
PLINE2
 62
    5
 10
-872.932601901015
 20
-1062.9449814038089
 11
-720.64370190099362
 21
-910.65608140375116
  0
LINE
  8
_0-3_躯体と製品
  6
CONTINUOUS
 62
    3
 10
-283.03320190102386
 20
-1285.7042014038088
 11
-934.3086419010142
 21
-1039.76802140375
  0
LINE
  8
_0-3_躯体と製品
  6
PLINE5
 62
    3
 10
-360.91356190100487
 20
-1303.3274814037795
 11
-981.58626190099494
 21
-1068.9475814037978
  0
LINE
  8
_0-3_躯体と製品
  6
CONTINUOUS
 62
    4
 10
-363.03320190102386
 20
-1308.9406014037595
 11
-988.03320190102386
 21
-1072.9266214037707
  0
LINE
  8
_0-3_躯体と製品
  6
PLINE2
 62
    5
 10
-874.25194190102411
 20
-463.22356140381817
 11
-729.22774190101518
 21
-318.19938140377781
  0
LINE
  8
_0-3_躯体と製品
  6
PLINE2
 62
    5
 10
-878.36302190099377
 20
-502.68998140376789
 11
-682.12950190100491
 21
-306.45646140374811
  0
LINE
  8
_0-3_躯体と製品
  6
PLINE2
 62
    5
 10
-882.47410190099436
 20
-542.15642140380805
 11
-635.03124190101516
 21
-294.71354140379117
  0
LINE
  8
_0-3_躯体と製品
  6
PLINE2
 62
    5
 10
-886.58520190100353
 20
-581.62284140375777
 11
-587.93298190099449
 21
-282.97064140376096
  0
LINE
  8
_0-3_躯体と製品
  6
PLINE2
 62
    5
 10
-890.69628190100411
 20
-621.08926140378026
 11
-540.83474190102424
 21
-271.22772140380039
  0
LINE
  8
_0-3_躯体と製品
  6
PLINE2
 62
    5
 10
-894.8073619010047
 20
-660.55568140381001
 11
-493.73648190100357
 21
-259.48480140377069
  0
LINE
  8
_0-3_躯体と製品
  6
PLINE2
 62
    5
 10
-898.91846190101387
 20
-700.02212140377014
 11
-472.4372619010046
 21
-273.54092140378998
  0
LINE
  8
_0-3_躯体と製品
  6
PLINE2
 62
    5
 10
-903.02954190102355
 20
-739.48854140378899
 11
-476.54834190100519
 21
-313.00734140381974
  0
LINE
  8
_0-3_躯体と製品
  6
PLINE2
 62
    5
 10
-907.14062190102413
 20
-778.95496140374962
 11
-480.65944190101436
 21
-352.47378140377987
  0
LINE
  8
_0-3_躯体と製品
  6
PLINE2
 62
    5
 10
-911.25172190099511
 20
-818.42138140376846
 11
-484.77052190101494
 21
-391.94020140379871
  0
LINE
  8
_0-3_躯体と製品
  6
PLINE2
 62
    5
 10
-915.36280190099387
 20
-857.88782140380863
 11
-488.88160190101371
 21
-431.40662140375935
  0
LINE
  8
_0-3_躯体と製品
  6
PLINE2
 62
    5
 10
-919.47388190099446
 20
-897.35424140375835
 11
-492.99268190101429
 21
-470.87304140377819
  0
LINE
  8
_0-3_躯体と製品
  6
PLINE2
 62
    5
 10
-898.59662190102426
 20
-1053.2536814037594
 11
-755.7500819009947
 21
-910.40712140380128
  0
LINE
  8
_0-3_躯体と製品
  6
CONTINUOUS
 62
    4
 10
-912.52866190102395
 20
-312.3707414038181
 11
-273.03320190102386
 21
-152.9266214037707
  0
LINE
  8
_0-3_躯体と製品
  6
PLINE5
 62
    3
 10
-903.17744190099438
 20
-316.22290140376936
 11
-271.58168190101424
 21
-158.74840140380911
  0
LINE
  8
_0-3_躯体と製品
  6
PLINE5
 62
    3
 10
-945.51264190101392
 20
-722.64086140380095
 11
-519.21850190101395
 21
-722.64086140380095
  0
LINE
  8
_0-3_躯体と製品
  6
PLINE5
 62
    3
 10
-940.30432190102511
 20
-678.64086140379004
 11
-514.63516190099472
 21
-678.64086140379004
  0
LINE
  8
_0-3_躯体と製品
  6
PLINE5
 62
    3
 10
-940.30432190102511
 20
-672.64086140380095
 11
-514.01016190099472
 21
-672.64086140380095
  0
LINE
  8
_0-3_躯体と製品
  6
CONTINUOUS
 62
    3
 10
-260.9371219010136
 20
-201.44140140381933
 11
-862.60940190099427
 21
-351.45516140382097
  0
TEXT
  8
_0-4_図面枠
 62
    7
 10
-775.85272190101387
 20
-1282.3541814038181
 40
60
 41
0.7999999999999993
 50
0
  1
外板
  0
LINE
  8
_0-4_図面枠
  6
CONTINUOUS
 62
    2
 10
-628.96018190102404
 20
-1288.9802414037913
 11
-774.67322190099367
 21
-1288.9802414037913
  0
TEXT
  8
_0-4_図面枠
 62
    7
 10
-833.98464190101367
 20
-905.74558140377849
 40
60
 41
0.8000000000000001
 50
0
  1
排気誘導板
  0
LINE
  8
_0-3_躯体と製品
  6
PLINE5
 62
    3
 10
-981.58626190099494
 20
-1068.9475814037978
 11
-903.17744190099438
 21
-316.22290140376936
  0
LINE
  8
_0-3_躯体と製品
  6
CONTINUOUS
 62
    4
 10
-908.70944190101363
 20
-311.41850140377937
 11
-988.37602190102371
 21
-1076.2177214037583
  0
LINE
  8
_0-3_躯体と製品
  6
CONTINUOUS
 62
    3
 10
-862.60940190099427
 20
-351.45516140382097
 11
-934.3086419010142
 21
-1039.76802140375
  0
LINE
  8
_0-3_躯体と製品
  6
CONTINUOUS
 62
    3
 10
-1487.9857619010036
 20
-657.93052140378859
 11
-1425.7562219009942
 21
-1325.8609414037601
  0
LINE
  8
_0-3_躯体と製品
  6
PLINE5
 62
    3
 10
-1859.6438819009945
 20
-977.51118140378094
 11
-1489.3454219010237
 21
-977.51118140378094
  0
LINE
  8
_0-3_躯体と製品
  6
PLINE5
 62
    3
 10
-1485.6187019010049
 20
-1017.5111814037809
 11
-1864.555261901005
 21
-1017.5111814037809
  0
LINE
  8
_0-3_躯体と製品
  6
PLINE5
 62
    3
 10
-1488.7864019010249
 20
-983.51118140375911
 11
-1860.3806019010244
 21
-983.51118140375911
  0
LINE
  8
_0-3_躯体と製品
  6
CONTINUOUS
 62
    2
 10
-1871.2449019010146
 20
-571.41516140380918
 11
-1874.6318219010245
 21
-584.99930140376091
  0
LINE
  8
_0-3_躯体と製品
  6
CONTINUOUS
 62
    2
 10
-1879.7304419010143
 20
-576.51378140379893
 11
-1866.1463019009952
 21
-579.90068140377116
  0
LINE
  8
_0-3_躯体と製品
  6
CONTINUOUS
 62
    2
 10
-1742.115961901005
 20
-603.61062140380818
 11
-1745.5028619010136
 21
-617.19476140375991
  0
LINE
  8
_0-3_躯体と製品
  6
CONTINUOUS
 62
    2
 10
-1750.6014819010052
 20
-608.70924140379793
 11
-1737.0173419010152
 21
-612.09614140377016
  0
LINE
  8
_0-3_躯体と製品
  6
CONTINUOUS
 62
    2
 10
-1612.0787819010038
 20
-636.03254140379067
 11
-1615.4657019010137
 21
-649.61668140380789
  0
LINE
  8
_0-3_躯体と製品
  6
CONTINUOUS
 62
    2
 10
-1620.5643219010035
 20
-641.13114140378093
 11
-1606.9801819010245
 21
-644.51806140374902
  0
LINE
  8
_0-3_躯体と製品
  6
PLINE2
 62
    5
 10
-923.58496190100414
 20
-936.82066140378811
 11
-839.79082190101508
 21
-853.02652140376085
  0
LINE
  8
_0-3_躯体と製品
  6
PLINE2
 62
    5
 10
-927.69606190101513
 20
-976.28708140381059
 11
-838.09448190099465
 21
-886.68550140380103
  0
LINE
  8
_0-3_躯体と製品
  6
PLINE2
 62
    5
 10
-924.26064190102443
 20
-1043.5623614037686
 11
-790.11480190100519
 21
-909.41652140378937
  0
LINE
  8
_0-3_躯体と製品
  6
PLINE2
 62
    5
 10
-931.80714190101389
 20
-1015.7535214037707
 11
-821.79106190102357
 21
-905.73744140379131
  0
LINE
  8
_0-3_躯体と製品
  6
CONTINUOUS
 62
    4
 10
-988.37602190102371
 20
-1076.2177214037583
 11
-950.95522190102383
 21
-1090.3486614037902
  0
LINE
  8
_0-3_躯体と製品
  6
CONTINUOUS
 62
    2
 10
-917.34322190099374
 20
-1086.2591814037587
 11
-926.52834190099384
 21
-1110.5827014037895
  0
LINE
  8
_0-3_躯体と製品
  6
CONTINUOUS
 62
    2
 10
-997.25120190102461
 20
-1031.1181614038178
 11
-971.39112190100423
 21
-1033.8119214037797
  0
LINE
  8
_0-3_躯体と製品
  6
CONTINUOUS
 62
    2
 10
-974.47858190102488
 20
-817.32702140379115
 11
-948.61850190100449
 21
-820.02078140374942
  0
LINE
  8
_0-3_躯体と製品
  6
CONTINUOUS
 62
    2
 10
-923.07650190102504
 20
-690.64086140376094
 11
-924.53484190100426
 21
-704.64086140376821
  0
LINE
  8
_0-3_躯体と製品
  6
CONTINUOUS
 62
    2
 10
-930.84354190101476
 20
-697.64086140380095
 11
-916.76780190101454
 21
-697.64086140380095
  0
LINE
  8
_0-3_躯体と製品
  6
CONTINUOUS
 62
    2
 10
-951.66452190100426
 20
-593.48606140376796
 11
-925.80444190102389
 21
-596.17982140380991
  0
LINE
  8
_0-3_躯体と製品
  6
CONTINUOUS
 62
    2
 10
-886.22084190101486
 20
-292.63652140379054
 11
-880.39344190100383
 21
-317.27812140374954
  0
LINE
  8
_0-3_躯体と製品
  6
CONTINUOUS
 62
    2
 10
-928.39460190102363
 20
-379.7467214038079
 11
-902.53452190100506
 21
-382.44048140378072
  0
LINE
  8
_0-3_躯体と製品
  6
CONTINUOUS
 62
    4
 10
-916.53378190102376
 20
-350.81990140376001
 11
-912.52866190102395
 21
-312.3707414038181
  0
LINE
  8
_0-3_躯体と製品
  6
PLINE2
 62
    5
 10
-870.14086190102353
 20
-423.75714140378841
 11
-776.32600190100493
 21
-329.94228140380801
  0
LINE
  8
_0-3_躯体と製品
  6
PLINE2
 62
    5
 10
-866.02976190101435
 20
-384.29072140376957
 11
-823.42424190101519
 21
-341.68520140376859
  0
LINE
  8
_0-3_躯体と製品
  6
CONTINUOUS
 62
    4
 10
-497.73712190101469
 20
-672.21242140376853
 11
176.84583809898686
 21
-504.02000140379096
  0
LINE
  8
_0-3_躯体と製品
  6
CONTINUOUS
 62
    4
 10
176.91839809899648
 20
-504.31110140374949
 11
-497.43712190102451
 21
-672.44680140381024
  0
LINE
  8
_0-3_躯体と製品
  6
CONTINUOUS
 62
    3
 10
176.96679809897432
 20
-504.50516140375112
 11
-497.38874190101524
 21
-672.64086140380095
  0
LINE
  8
_0-3_躯体と製品
  6
CONTINUOUS
 62
    3
 10
-469.33742190100384
 20
-243.78242140376824
 11
-551.71372190100374
 21
-1034.5950414037579
  0
LINE
  8
_0-3_躯体と製品
  6
PLINE5
 62
    3
 10
176.96679809897432
 20
-1078.8864414037598
 11
-267.03320190100385
 21
-1078.8864414037598
  0
LINE
  8
_0-3_躯体と製品
  6
CONTINUOUS
 62
    3
 10
176.96679809897432
 20
-1122.886441403778
 11
-237.79846190100398
 21
-1122.886441403778
  0
LINE
  8
_0-3_躯体と製品
  6
CONTINUOUS
 62
    3
 10
176.96679809897432
 20
-1072.886441403778
 11
-267.03320190100385
 21
-1072.886441403778
  0
LINE
  8
_0-3_躯体と製品
  6
CONTINUOUS
 62
    3
 10
-237.4387819010044
 20
-659.3587414038011
 11
176.96679809897432
 21
-556.03584140382009
  0
LINE
  8
_0-3_躯体と製品
  6
PLINE5
 62
    3
 10
-496.65202190099444
 20
-678.64086140379004
 11
176.96679809897432
 21
-510.6888414037785
  0
TEXT
  8
_0-4_図面枠
 62
    7
 10
-168.52412190099494
 20
-1344.4962814038008
 40
60
 41
0.8
 50
0
  1
支柱
  0
LINE
  8
_0-4_図面枠
  6
CONTINUOUS
 62
    2
 10
-168.52414190100353
 20
-1354.4963214038107
 11
-76.77814190101526
 21
-1354.4963214038107
  0
LINE
  8
_0-3_躯体と製品
  6
PLINE2
 62
    5
 10
-744.61246190102429
 20
-1111.4015414037785
 11
-538.21464190100414
 21
-905.00372140379841
  0
LINE
  8
_0-3_躯体と製品
  6
CONTINUOUS
 62
    3
 10
-279.03320190100385
 20
-928.56632140379952
 11
-279.03320190100385
 21
-953.96234140377055
  0
LINE
  8
_0-3_躯体と製品
  6
CONTINUOUS
 62
    3
 10
-283.03320190102386
 20
-1136.0548214037699
 11
-551.71372190100374
 21
-1034.5950414037579
  0
LINE
  8
_0-3_躯体と製品
  6
PLINE2
 62
    5
 10
-539.30022190099407
 20
-1188.9320214037689
 11
-430.67150190101347
 21
-1080.3033014037901
  0
LINE
  8
_0-3_躯体と製品
  6
PLINE2
 62
    5
 10
-513.63620190099391
 20
-1198.6233414037488
 11
-405.00748190101513
 21
-1089.99462140377
  0
LINE
  8
_0-3_躯体と製品
  6
PLINE2
 62
    5
 10
-487.97218190099375
 20
-1208.3146614038087
 11
-379.34344190100455
 21
-1099.6859214037504
  0
LINE
  8
_0-3_躯体と製品
  6
PLINE2
 62
    5
 10
-462.3081419010141
 20
-1218.0059614037782
 11
-353.67942190100439
 21
-1109.3772414038103
  0
LINE
  8
_0-3_躯体と製品
  6
PLINE2
 62
    5
 10
-641.95634190099372
 20
-1150.1667814037683
 11
-533.32762190101494
 21
-1041.5380614038004
  0
LINE
  8
_0-3_躯体と製品
  6
PLINE2
 62
    5
 10
-616.29232190102448
 20
-1159.8581014037591
 11
-507.66358190100436
 21
-1051.2293614037699
  0
LINE
  8
_0-3_躯体と製品
  6
PLINE2
 62
    5
 10
-590.62828190101391
 20
-1169.5494014038086
 11
-481.9995619009951
 21
-1060.9206814037607
  0
LINE
  8
_0-3_躯体と製品
  6
PLINE2
 62
    5
 10
-564.96426190100465
 20
-1179.2407214037885
 11
-456.33552190102455
 21
-1070.6119814038102
  0
LINE
  8
_0-4_図面枠
  6
CONTINUOUS
 62
    2
 10
-592.04750190100458
 20
-1225.0456014037882
 11
-628.96018190102404
 21
-1288.9802414037913
  0
LINE
  8
_0-3_躯体と製品
  6
CONTINUOUS
 62
    2
 10
-744.09536190102517
 20
-1151.1470014037586
 11
-753.28048190102345
 21
-1175.4705214037895
  0
LINE
  8
_0-4_図面枠
  6
CONTINUOUS
 62
    2
 10
-592.04750190100458
 20
-1225.0456014037882
 11
-602.40024190101394
 21
-1263.6826014038088
  0
LINE
  8
_0-3_躯体と製品
  6
CONTINUOUS
 62
    2
 10
-561.66894190101448
 20
-1220.035301403801
 11
-570.85404190100417
 21
-1244.3588214037591
  0
LINE
  8
_0-3_躯体と製品
  6
PLINE2
 62
    5
 10
-718.94842190100462
 20
-1121.0928614037693
 11
-542.32572190100473
 21
-944.47014140374813
  0
LINE
  8
_0-3_躯体と製品
  6
PLINE2
 62
    5
 10
-693.28440190100446
 20
-1130.7841614038189
 11
-546.43680190100349
 21
-983.93658140378102
  0
LINE
  8
_0-3_躯体と製品
  6
PLINE2
 62
    5
 10
-667.62036190099388
 20
-1140.4754814037988
 11
-550.54790190101448
 21
-1023.4030014038108
  0
LINE
  8
_0-3_躯体と製品
  6
PLINE2
 62
    5
 10
-436.64412190101393
 20
-1227.697281403769
 11
-328.01538190099382
 21
-1119.0685414037798
  0
LINE
  8
_0-3_躯体と製品
  6
PLINE2
 62
    5
 10
-410.98010190100467
 20
-1237.3885814038185
 11
-302.35136190102457
 21
-1128.7598614037706
  0
LINE
  8
_0-3_躯体と製品
  6
PLINE2
 62
    5
 10
-333.9880019010252
 20
-1266.4625214037587
 11
-283.03320190102386
 21
-1215.5077214037992
  0
LINE
  8
_0-3_躯体と製品
  6
PLINE2
 62
    5
 10
-359.65204190099394
 20
-1256.7712014037788
 11
-283.03320190102386
 21
-1180.1523814037682
  0
LINE
  8
_0-3_躯体と製品
  6
PLINE2
 62
    5
 10
-385.3160619009941
 20
-1247.0799014037984
 11
-283.03320190102386
 21
-1144.7970414037482
  0
LINE
  8
_0-3_躯体と製品
  6
PLINE2
 62
    5
 10
-308.32398190101412
 20
-1276.1538214038083
 11
-283.03320190102386
 21
-1250.8630614037502
  0
LINE
  8
_0-3_躯体と製品
  6
PLINE5
 62
    3
 10
-360.91356190100487
 20
-1303.3274814037795
 11
-283.03320190102386
 21
-1332.7368614037805
  0
LINE
  8
_0-3_躯体と製品
  6
CONTINUOUS
 62
    3
 10
-363.03320190102386
 20
-1308.9406014037595
 11
-283.03320190102386
 21
-1339.150401403771
  0
LINE
  8
_0-3_躯体と製品
  6
CONTINUOUS
 62
    2
 10
-388.77434190101485
 20
-1285.8586214037787
 11
-397.95946190101495
 21
-1310.1821414038095
  0
LINE
  8
_0-3_躯体と製品
  6
CONTINUOUS
 62
    4
 10
-363.03320190102386
 20
-1308.9406014037595
 11
-363.03320190102386
 21
-1342.926621403778
  0
LINE
  8
_0-3_躯体と製品
  6
CONTINUOUS
 62
    4
 10
-361.03320190101476
 20
-1342.926621403778
 11
-363.03320190102386
 21
-1342.926621403778
  0
LINE
  8
_0-3_躯体と製品
  6
CONTINUOUS
 62
    4
 10
-361.03320190101476
 20
-1333.5618614037485
 11
-361.03320190101476
 21
-1342.926621403778
  0
LINE
  8
_0-4_図面枠
  6
CONTINUOUS
 62
    2
 10
-232.17902190099448
 20
-1244.2428214037791
 11
-203.51876190100484
 21
-1273.88384140376
  0
LINE
  8
_0-4_図面枠
  6
CONTINUOUS
 62
    2
 10
-232.17902190099448
 20
-1244.2428214037791
 11
-168.52414190100353
 21
-1354.4963214038107
  0
LINE
  8
_0-3_躯体と製品
  6
CONTINUOUS
 62
    3
 10
-283.03320190102386
 20
-1285.7042014038088
 11
-273.03320190102386
 21
-1285.7042014038088
  0
LINE
  8
_0-3_躯体と製品
  6
CONTINUOUS
 62
    4
 10
-311.53782190100355
 20
-1083.0697414037713
 11
-273.53320190101476
 21
-1072.886441403778
  0
LINE
  8
_0-3_躯体と製品
  6
CONTINUOUS
 62
    3
 10
-253.44976190099442
 20
-1122.886441403778
 11
-267.03320190100385
 21
-1122.886441403778
  0
LINE
  8
_0-3_躯体と製品
  6
CONTINUOUS
 62
    2
 10
-289.57828190101463
 20
-1140.1026414038206
 11
-259.57828190101463
 21
-1140.1026414038206
  0
LINE
  8
_0-3_躯体と製品
  6
CONTINUOUS
 62
    2
 10
-245.684801901014
 20
-1092.4946614037908
 11
-245.684801901014
 21
-1106.4946614037981
  0
LINE
  8
_0-3_躯体と製品
  6
CONTINUOUS
 62
    2
 10
-252.684801901014
 20
-1099.4946614037581
 11
-238.6848019010049
 21
-1099.4946614037581
  0
LINE
  8
_0-3_躯体と製品
  6
CONTINUOUS
 62
    2
 10
-284.84680190100516
 20
-938.96234140377055
 11
-259.57828190101463
 21
-938.96234140377055
  0
LINE
  8
_0-3_躯体と製品
  6
CONTINUOUS
 62
    3
 10
-279.03320190100385
 20
-953.96234140377055
 11
-273.03320190102386
 21
-953.96234140377055
  0
LINE
  8
_0-3_躯体と製品
  6
CONTINUOUS
 62
    3
 10
-491.2495019010039
 20
-722.64086140380095
 11
-259.39466190099483
 21
-664.83296140376115
  0
LINE
  8
_0-3_躯体と製品
  6
PLINE2
 62
    5
 10
-720.55996190102451
 20
-839.8616614038001
 11
-509.4370419010047
 21
-628.73874140375119
  0
LINE
  8
_0-3_躯体と製品
  6
PLINE2
 62
    5
 10
-684.44156190100512
 20
-839.09860140376986
 11
-513.54812190100347
 21
-668.20518140378044
  0
LINE
  8
_0-3_躯体と製品
  6
PLINE2
 62
    5
 10
-648.32314190102443
 20
-838.33554140375054
 11
-517.65920190101497
 21
-707.6716014038102
  0
LINE
  8
_0-3_躯体と製品
  6
PLINE2
 62
    5
 10
-612.20474190101413
 20
-837.57248140378942
 11
-521.77028190101373
 21
-747.13802140375992
  0
LINE
  8
_0-3_躯体と製品
  6
PLINE2
 62
    5
 10
-576.08634190099474
 20
-836.80940140375969
 11
-525.88138190102472
 21
-786.60444140377876
  0
LINE
  8
_0-3_躯体と製品
  6
PLINE2
 62
    5
 10
-563.57414190101372
 20
-859.65256140381098
 11
-529.99246190102349
 21
-826.07088140373889
  0
LINE
  8
_0-3_躯体と製品
  6
PLINE2
 62
    5
 10
-568.35908190100417
 20
-899.79282140377836
 11
-534.10354190102407
 21
-865.53730140376865
  0
LINE
  8
_0-3_躯体と製品
  6
CONTINUOUS
 62
    3
 10
-519.21850190101395
 20
-722.64086140380095
 11
-491.2495019010039
 21
-722.64086140380095
  0
LINE
  8
_0-3_躯体と製品
  6
CONTINUOUS
 62
    4
 10
-497.73712190101469
 20
-687.64086140380095
 11
-497.73712190101469
 21
-672.21242140376853
  0
LINE
  8
_0-3_躯体と製品
  6
CONTINUOUS
 62
    2
 10
-461.72190190100446
 20
-650.35014140378917
 11
-455.4319219010049
 21
-675.57784140381773
  0
LINE
  8
_0-3_躯体と製品
  6
PLINE2
 62
    3
 10
-514.63516190099472
 20
-678.64086140379004
 11
-496.65202190099444
 21
-678.64086140379004
  0
LINE
  8
_0-3_躯体と製品
  6
CONTINUOUS
 62
    3
 10
-514.01016190099472
 20
-672.64086140380095
 11
-497.38874190101524
 21
-672.64086140380095
  0
LINE
  8
_0-3_躯体と製品
  6
CONTINUOUS
 62
    4
 10
-497.43712190102451
 20
-672.44680140381024
 11
-497.43712190102451
 21
-687.64086140380095
  0
LINE
  8
_0-3_躯体と製品
  6
PLINE2
 62
    5
 10
-582.50874190100512
 20
-595.74444140375999
 11
-497.10378190099436
 21
-510.33948140381835
  0
LINE
  8
_0-3_躯体と製品
  6
PLINE2
 62
    5
 10
-557.19316190101381
 20
-605.78418140374924
 11
-501.21486190099495
 21
-549.80590140376808
  0
LINE
  8
_0-3_躯体と製品
  6
CONTINUOUS
 62
    4
 10
-288.54698190102499
 20
-790.15124140374974
 11
-426.43494190099409
 21
-905.85296140375067
  0
LINE
  8
_0-3_躯体と製品
  6
CONTINUOUS
 62
    3
 10
-398.23514190099377
 20
-890.41460140377967
 11
-273.03320190102386
 21
-923.96234140377055
  0
LINE
  8
_0-3_躯体と製品
  6
CONTINUOUS
 62
    3
 10
-273.03320190102386
 20
-785.35770140379827
 11
-398.23514190099377
 21
-890.41460140377967
  0
LINE
  8
_0-3_躯体と製品
  6
CONTINUOUS
 62
    3
 10
-410.92120190100468
 20
-893.22702140374895
 11
-279.03320190100385
 21
-928.56632140379952
  0
LINE
  8
_0-3_躯体と製品
  6
CONTINUOUS
 62
    3
 10
-279.03320190100385
 20
-782.55986140380992
 11
-410.92120190100468
 21
-893.22702140374895
  0
LINE
  8
_0-3_躯体と製品
  6
CONTINUOUS
 62
    2
 10
-351.6190619010049
 20
-823.88552140381944
 11
-332.33544190101384
 21
-846.86684140377838
  0
LINE
  8
_0-3_躯体と製品
  6
CONTINUOUS
 62
    4
 10
-426.24210190101439
 20
-905.85296140375067
 11
-426.24210190101439
 21
-925.85296140375067
  0
LINE
  8
_0-3_躯体と製品
  6
CONTINUOUS
 62
    4
 10
-288.54698190102499
 20
-770.15124140374974
 11
-288.54698190102499
 21
-790.15124140374974
  0
LINE
  8
_0-3_躯体と製品
  6
CONTINUOUS
 62
    2
 10
-284.84680190100516
 20
-770.35770140379827
 11
-259.57828190101463
 21
-770.35770140379827
  0
LINE
  8
_0-3_躯体と製品
  6
CONTINUOUS
 62
    3
 10
-279.03320190100385
 20
-782.55986140380992
 11
-279.03320190100385
 21
-755.35770140379827
  0
LINE
  8
_0-3_躯体と製品
  6
CONTINUOUS
 62
    3
 10
-273.03320190102386
 20
-755.35770140379827
 11
-279.03320190100385
 21
-755.35770140379827
  0
LINE
  8
_0-3_躯体と製品
  6
CONTINUOUS
 62
    2
 10
-247.70780190101505
 20
-631.4354614037693
 11
-247.58152190101464
 21
-645.43490140380891
  0
LINE
  8
_0-3_躯体と製品
  6
CONTINUOUS
 62
    2
 10
-254.64438190102373
 20
-638.49832140377112
 11
-240.64494190101505
 21
-638.37204140381073
  0
LINE
  8
_0-3_躯体と製品
  6
CONTINUOUS
 62
    2
 10
-247.64466190099483
 20
-631.4351814037509
 11
-247.64466190099483
 21
-645.43518140375818
  0
LINE
  8
_0-3_躯体と製品
  6
CONTINUOUS
 62
    2
 10
-254.64466190100393
 20
-638.43518140379092
 11
-240.64466190099483
 21
-638.43518140379092
  0
LINE
  8
_0-3_躯体と製品
  6
PLINE5
 62
    3
 10
-273.03320190102386
 20
-672.64086140380095
 11
-267.03320190100385
 21
-672.64086140380095
  0
LINE
  8
_0-3_躯体と製品
  6
CONTINUOUS
 62
    2
 10
-20.237341901014588
 20
-540.27568140374933
 11
-13.947361901015029
 21
-565.50338140378881
  0
LINE
  8
_0-3_躯体と製品
  6
CONTINUOUS
 62
    2
 10
318.54203809899263
 20
-560.66034140381089
 11
315.1551380989913
 21
-574.24448140375898
  0
LINE
  8
_0-3_躯体と製品
  6
CONTINUOUS
 62
    2
 10
310.05651809899973
 20
-565.75896140380064
 11
323.6406580989842
 21
-569.14588140376873
  0
LINE
  8
_0-3_躯体と製品
  6
CONTINUOUS
 62
    2
 10
176.96679809897432
 20
-531.03584140382009
 11
183.9667980989816
 21
-531.03584140382009
  0
LINE
  8
_0-4_図面枠
  6
CONTINUOUS
 62
    2
 10
347.9495980989941
 20
-585.13200140378831
 11
358.30233809897436
 21
-546.49500140377131
  0
LINE
  8
_0-3_躯体と製品
  6
CONTINUOUS
 62
    2
 10
431.97553809898636
 20
-588.94250140374788
 11
428.58863809898139
 21
-602.52664140376874
  0
LINE
  8
_0-3_躯体と製品
  6
CONTINUOUS
 62
    2
 10
423.49001809899164
 20
-594.04112140381039
 11
437.07415809897611
 21
-597.42802140377898
  0
LINE
  8
_0-4_図面枠
  6
CONTINUOUS
 62
    2
 10
-220.95226190100402
 20
-152.66362140380079
 11
-66.578921901023932
 21
114.71883859621084
  0
LINE
  8
_0-3_躯体と製品
  6
CONTINUOUS
 62
    3
 10
-248.23182190099396
 20
-152.9266214037707
 11
176.96679809897432
 21
-152.9266214037707
  0
LINE
  8
_0-3_躯体と製品
  6
CONTINUOUS
 62
    3
 10
-246.78028190101395
 20
-158.74840140380911
 11
176.96679809897432
 21
-158.74840140380911
  0
LINE
  8
_0-4_図面枠
  6
CONTINUOUS
 62
    2
 10
-496.26826190099382
 20
-207.82512140375911
 11
-581.64592190100484
 21
-54.040041403808573
  0
LINE
  8
_0-3_躯体と製品
  6
CONTINUOUS
 62
    2
 10
-691.19140190102371
 20
-244.0102214037579
 11
-685.36400190100358
 21
-268.65180140377925
  0
LINE
  8
_0-4_図面枠
  6
CONTINUOUS
 62
    2
 10
-496.26826190099382
 20
-207.82512140375911
 11
-524.07364190101362
 21
-179.06998140375799
  0
LINE
  8
_0-3_躯体と製品
  6
CONTINUOUS
 62
    2
 10
-496.16196190102346
 20
-195.38392140379801
 11
-490.33456190100515
 21
-220.02550140375024
  0
LINE
  8
_0-3_躯体と製品
  6
CONTINUOUS
 62
    3
 10
-466.35222190100467
 20
-215.12450140379951
 11
-468.84964190100436
 21
-239.09974140379927
  0
LINE
  8
_0-3_躯体と製品
  6
CONTINUOUS
 62
    3
 10
-465.51652190101413
 20
-207.10178140378775
 11
-466.26286190101382
 21
-214.26674140380055
  0
LINE
  8
_0-3_躯体と製品
  6
CONTINUOUS
 62
    3
 10
-349.5537819010151
 20
-184.37270140380133
 11
-288.07720190100372
 21
-169.04488140378089
  0
LINE
  8
_0-3_躯体と製品
  6
CONTINUOUS
 62
    2
 10
-304.48798190100388
 20
-154.29322140380827
 11
-298.66058190102376
 21
-178.9348014037605
  0
LINE
  8
_0-3_躯体と製品
  6
CONTINUOUS
 62
    3
 10
-367.15972190101456
 20
-188.76236140380934
 11
-353.62840190101451
 21
-185.38862140378842
  0
LINE
  8
_0-3_躯体と製品
  6
CONTINUOUS
 62
    3
 10
-368.61124190102419
 20
-182.94058140377092
 11
-367.15972190101456
 21
-188.76236140380934
  0
LINE
  8
_0-3_躯体と製品
  6
CONTINUOUS
 62
    3
 10
-273.03320190102386
 20
-152.9266214037707
 11
-260.9371219010136
 21
-201.44140140381933
  0
LINE
  8
_0-4_図面枠
  6
CONTINUOUS
 62
    2
 10
-220.95226190100402
 20
-152.66362140380079
 11
-210.59952190099466
 21
-114.02662140378015
  0
LINE
  8
_0-3_躯体と製品
  6
CONTINUOUS
 62
    4
 10
-271.03320190101476
 20
-122.92662140377797
 11
-271.03320190101476
 21
-112.9266214037707
  0
LINE
  8
_0-3_躯体と製品
  6
CONTINUOUS
 62
    3
 10
-271.58168190101424
 20
-158.74840140380911
 11
-248.23182190099396
 21
-152.9266214037707
  0
LINE
  8
_0-3_躯体と製品
  6
CONTINUOUS
 62
    3
 10
-283.19906190100482
 20
-167.82862140376892
 11
-246.78028190101395
 21
-158.74840140380911
  0
LINE
  8
_0-3_躯体と製品
  6
CONTINUOUS
 62
    4
 10
-273.03320190102386
 20
-112.9266214037707
 11
-273.03320190102386
 21
-152.9266214037707
  0
LINE
  8
_0-3_躯体と製品
  6
CONTINUOUS
 62
    4
 10
-271.03320190101476
 20
-112.9266214037707
 11
-273.03320190102386
 21
-112.9266214037707
  0
TEXT
  8
_0-4_図面枠
 62
    7
 10
-66.579241901024943
 20
124.71887859622075
 40
60.000000000000014
 41
0.7999999999999998
 50
0
  1
渡し金具
  0
LINE
  8
_0-4_図面枠
  6
CONTINUOUS
 62
    2
 10
-66.578921901023932
 20
114.71883859621084
 11
132.58001809898815
 21
114.71883859621084
  0
LINE
  8
_0-3_躯体と製品
  6
CONTINUOUS
 62
    2
 10
-2380.2962219010151
 20
2042.3962385962404
 11
-2138.6265619010046
 21
1982.1412185961999
  0
LINE
  8
_0-3_躯体と製品
  6
CONTINUOUS
 62
    4
 10
-2680.2961019010036
 20
2046.6309185962491
 11
-2680.2961019010036
 21
2016.6309185962491
  0
LINE
  8
_0-3_躯体と製品
  6
PLINE3
 62
    2
 10
-2530.2961619009948
 20
2089.6574585962408
 11
-2530.2961619009948
 21
1481.2375785962395
  0
LINE
  8
_0-3_躯体と製品
  6
CONTINUOUS
 62
    2
 10
-2830.5353019010035
 20
620.09611859624056
 11
-2530.2961619009948
 21
694.95413859620021
  0
LINE
  8
_0-3_躯体と製品
  6
CONTINUOUS
 62
    2
 10
-2831.087841900995
 20
624.59611859621145
 11
-2530.2961619009948
 21
699.59189859624166
  0
LINE
  8
_0-3_躯体と製品
  6
CONTINUOUS
 62
    4
 10
-2831.087841900995
 20
625.62673859623101
 11
-2530.2961619009948
 21
700.62251859619209
  0
LINE
  8
_0-3_躯体と製品
  6
CONTINUOUS
 62
    2
 10
-3015.3884419010246
 20
780.12977859620878
 11
-3045.5040619010142
 21
448.85799859619146
  0
LINE
  8
_0-3_躯体と製品
  6
CONTINUOUS
 62
    4
 10
-3019.5804019010047
 20
783.72237859619054
 11
-3050.3900619010237
 21
444.8162385962205
  0
LINE
  8
_0-3_躯体と製品
  6
CONTINUOUS
 62
    2
 10
-3025.4184019010136
 20
620.09611859624056
 11
-2830.5353019010035
 21
620.09611859624056
  0
LINE
  8
_0-3_躯体と製品
  6
CONTINUOUS
 62
    2
 10
-3029.5278619010151
 20
624.59611859621145
 11
-2831.087841900995
 21
624.59611859621145
  0
LINE
  8
_0-3_躯体と製品
  6
CONTINUOUS
 62
    4
 10
-3050.2961619009948
 20
445.84903859618134
 11
-2770.2961619009948
 21
340.84903859618134
  0
LINE
  8
_0-3_躯体と製品
  6
CONTINUOUS
 62
    4
 10
-3026.981821900994
 20
436.03815859624956
 11
-3050.3900619010237
 21
444.8162385962205
  0
LINE
  8
_0-3_躯体と製品
  6
CONTINUOUS
 62
    2
 10
-2982.6463819010041
 20
426.88835859623941
 11
-2986.8598619009936
 21
415.65241859618982
  0
LINE
  8
_0-3_躯体と製品
  6
CONTINUOUS
 62
    2
 10
-3052.7439819010051
 20
485.19517859623011
 11
-3040.7932619010244
 21
484.10875859624139
  0
LINE
  8
_0-3_躯体と製品
  6
CONTINUOUS
 62
    2
 10
-3027.9435019009943
 20
592.32011859623162
 11
-3025.4184019010136
 21
620.09611859624056
  0
LINE
  8
_0-3_躯体と製品
  6
CONTINUOUS
 62
    2
 10
-3032.4250219010046
 20
592.72753859620207
 11
-3027.9435019009943
 21
592.32011859623162
  0
LINE
  8
_0-3_躯体と製品
  6
CONTINUOUS
 62
    2
 10
-3029.1772019010041
 20
744.42985859623877
 11
-3017.2264819010252
 21
743.34341859623964
  0
LINE
  8
_0-3_躯体と製品
  6
CONTINUOUS
 62
    2
 10
-2724.2961619010039
 20
417.46379859618901
 11
-2724.2961619010039
 21
640.40083859622973
  0
LINE
  8
_0-3_躯体と製品
  6
CONTINUOUS
 62
    2
 10
-2730.2961619009948
 20
420.41243859622045
 11
-2730.2961619009948
 21
645.08853859622104
  0
LINE
  8
_0-3_躯体と製品
  6
CONTINUOUS
 62
    4
 10
-2759.840401901025
 20
444.51685859623103
 11
-2731.2961619010148
 21
449.54997859623109
  0
LINE
  8
_0-3_躯体と製品
  6
CONTINUOUS
 62
    2
 10
-2796.2793019010151
 20
357.00071859622039
 11
-2800.4927819010136
 21
345.76475859624043
  0
LINE
  8
_0-3_躯体と製品
  6
CONTINUOUS
 62
    4
 10
-2831.087841900995
 20
609.59611859621145
 11
-2831.087841900995
 21
625.62673859623101
  0
LINE
  8
_0-3_躯体と製品
  6
CONTINUOUS
 62
    2
 10
-2793.199341901025
 20
637.97631859624016
 11
-2790.4334419010047
 21
626.88287859619959
  0
LINE
  8
_0-3_躯体と製品
  6
CONTINUOUS
 62
    2
 10
-2724.2961619010039
 20
640.40083859622973
 11
-2697.7951619010146
 21
647.0082785962295
  0
LINE
  8
_0-3_躯体と製品
  6
CONTINUOUS
 62
    2
 10
-2699.2467019009946
 20
652.8300385961993
 11
-2697.7951619010146
 21
647.0082785962295
  0
LINE
  8
_0-3_躯体と製品
  6
CONTINUOUS
 62
    2
 10
-2729.2075219010148
 20
851.48269859619904
 11
-3015.3884419010246
 21
780.12977859620878
  0
LINE
  8
_0-3_躯体と製品
  6
CONTINUOUS
 62
    4
 10
-2730.2961619009948
 20
855.84903859618134
 11
-3019.5804019010047
 21
783.72237859619054
  0
LINE
  8
_0-3_躯体と製品
  6
CONTINUOUS
 62
    2
 10
-2760.4623819010249
 20
852.26127859625194
 11
-2757.6964819010045
 21
841.16785859621086
  0
LINE
  8
_0-3_躯体と製品
  6
CONTINUOUS
 62
    4
 10
-2730.2961619009948
 20
885.84903859618134
 11
-2730.2961619009948
 21
855.84903859618134
  0
LINE
  8
_0-3_躯体と製品
  6
CONTINUOUS
 62
    2
 10
-2730.2961619009948
 20
855.84903859618134
 11
-2729.2075219010148
 21
851.48269859619904
  0
LINE
  8
_0-3_躯体と製品
  6
CONTINUOUS
 62
    4
 10
-2729.2961619010039
 20
885.84903859618134
 11
-2730.2961619009948
 21
885.84903859618134
  0
LINE
  8
_0-3_躯体と製品
  6
CONTINUOUS
 62
    4
 10
-2729.2961619010039
 20
875.84903859618134
 11
-2729.2961619010039
 21
885.84903859618134
  0
LINE
  8
_0-3_躯体と製品
  6
CONTINUOUS
 62
    2
 10
-2017.7232619010138
 20
803.68119859621947
 11
-1983.6733819009951
 21
429.13255859622222
  0
LINE
  8
_0-3_躯体と製品
  6
CONTINUOUS
 62
    2
 10
-2330.2961619009948
 20
881.61437859625221
 11
-2017.7232619010138
 21
803.68119859621947
  0
LINE
  8
_0-3_躯体と製品
  6
CONTINUOUS
 62
    2
 10
-2530.2961619009948
 20
885.84903859618134
 11
-2330.2961619009948
 21
885.84903859618134
  0
LINE
  8
_0-3_躯体と製品
  6
PLINE4
 62
    2
 10
-2294.8158619010137
 20
865.83987859620902
 11
-2296.751221900995
 21
858.07751859623022
  0
LINE
  8
_0-3_躯体と製品
  6
PLINE4
 62
    2
 10
-2299.6647219009938
 20
862.92637859621027
 11
-2291.902361901015
 21
860.9909985962222
  0
LINE
  8
_0-3_躯体と製品
  6
CONTINUOUS
 62
    2
 10
-2330.2961619009948
 20
885.84903859618134
 11
-2330.2961619009948
 21
881.61437859625221
  0
LINE
  8
_0-3_躯体と製品
  6
PLINE4
 62
    2
 10
-2216.6740619009943
 20
842.23447859619046
 11
-2208.9117019010246
 21
840.29911859620188
  0
LINE
  8
_0-3_躯体と製品
  6
PLINE4
 62
    2
 10
-2211.8251819010038
 20
845.1479785961892
 11
-2213.7605619010046
 21
837.38561859621041
  0
LINE
  8
_0-3_躯体と製品
  6
PLINE4
 62
    2
 10
-2141.9721219010244
 20
827.73165859622168
 11
-2143.9075019010143
 21
819.96929859623924
  0
LINE
  8
_0-3_躯体と製品
  6
PLINE4
 62
    2
 10
-2146.8210019010148
 20
824.81815859621929
 11
-2139.0586419009942
 21
822.88277859623122
  0
TEXT
  8
_0-4_図面枠
 62
    7
 10
-2702.3150219010149
 20
1320.7996585961992
 40
60
 41
0.7999999999999999
 50
0
  1
ＳＣ３００Ｈ
  0
LINE
  8
_0-3_躯体と製品
  6
PLINE2
 62
    3
 10
-2530.2961619009948
 20
1571.6310985962409
 11
-2986.9278219010139
 21
1434.6415985961794
  0
LINE
  8
_0-3_躯体と製品
  6
CONTINUOUS
 62
    4
 10
-2530.2961619009948
 20
1899.4381185962011
 11
-2758.3155619010049
 21
1842.5864985961816
  0
LINE
  8
_0-3_躯体と製品
  6
CONTINUOUS
 62
    2
 10
-2530.2961619009948
 20
1894.8003585962288
 11
-2757.7630419010238
 21
1838.0864985962216
  0
LINE
  8
_0-3_躯体と製品
  6
CONTINUOUS
 62
    2
 10
-2530.2961619009948
 20
1899.4381185962011
 11
-2758.3155619010049
 21
1842.5864985961816
  0
LINE
  8
_0-3_躯体と製品
  6
CONTINUOUS
 62
    2
 10
-2684.7961019010145
 20
1628.318558596191
 11
-2684.7961019010145
 21
1559.6310585962492
  0
LINE
  8
_0-3_躯体と製品
  6
CONTINUOUS
 62
    4
 10
-2680.2961019010036
 20
1712.0389785962216
 11
-2680.2961019010036
 21
1526.6310985962409
  0
LINE
  8
_0-3_躯体と製品
  6
CONTINUOUS
 62
    2
 10
-2680.2961019010036
 20
1526.6310985962409
 11
-2680.2961019010036
 21
1857.4011585962289
  0
LINE
  8
_0-3_躯体と製品
  6
CONTINUOUS
 62
    2
 10
-2674.2961019010236
 20
1852.7134585962413
 11
-2674.2961019010236
 21
1528.4311185962397
  0
LINE
  8
_0-3_躯体と製品
  6
CONTINUOUS
 62
    4
 10
-2680.2961619009948
 20
1527.6751385962198
 11
-2873.146381900995
 21
1469.8200785962108
  0
LINE
  8
_0-3_躯体と製品
  6
CONTINUOUS
 62
    4
 10
-2872.9928619010043
 20
1469.3083785962299
 11
-2856.301521901014
 21
1474.3157785961812
  0
LINE
  8
_0-3_躯体と製品
  6
CONTINUOUS
 62
    4
 10
-2873.146381900995
 20
1469.8200785962108
 11
-2872.9928619010043
 21
1469.3083785962299
  0
LINE
  8
_0-3_躯体と製品
  6
CONTINUOUS
 62
    2
 10
-2684.7961019010145
 20
1559.6310585962492
 11
-2680.2961019010036
 21
1559.6310585962492
  0
LINE
  8
_0-3_躯体と製品
  6
CONTINUOUS
 62
    2
 10
-2690.2961019010036
 20
1601.6310785962305
 11
-2670.2961019010036
 21
1601.6310785962305
  0
LINE
  8
_0-3_躯体と製品
  6
CONTINUOUS
 62
    4
 10
-2920.2960019010152
 20
1716.6310385962206
 11
-2710.2960819010041
 21
1637.8810585962201
  0
LINE
  8
_0-3_躯体と製品
  6
CONTINUOUS
 62
    2
 10
-2915.5127419010041
 20
1719.6432985962492
 11
-2680.2961019010036
 21
1631.4370585962497
  0
LINE
  8
_0-3_躯体と製品
  6
CONTINUOUS
 62
    2
 10
-2900.5443819010252
 20
1838.0864985962216
 11
-2757.7630419010238
 21
1838.0864985962216
  0
LINE
  8
_0-3_躯体と製品
  6
CONTINUOUS
 62
    2
 10
-2758.3155619010049
 20
1842.5864985961816
 11
-2904.6648019010245
 21
1842.5864985961816
  0
LINE
  8
_0-3_躯体と製品
  6
CONTINUOUS
 62
    4
 10
-2900.1683419010151
 20
1961.8105985962502
 11
-2680.2961019010036
 21
2016.6309185962491
  0
LINE
  8
_0-3_躯体と製品
  6
CONTINUOUS
 62
    2
 10
-2910.3147819010046
 20
1892.9536585962087
 11
-2898.3612219010047
 21
1891.8989385962523
  0
LINE
  8
_0-3_躯体と製品
  6
CONTINUOUS
 62
    4
 10
-2898.6286419010139
 20
1962.1944985961891
 11
-2920.2960019010152
 21
1716.6310385962206
  0
LINE
  8
_0-3_躯体と製品
  6
CONTINUOUS
 62
    2
 10
-2894.4279619010249
 20
1958.6040785962286
 11
-2915.5127419010041
 21
1719.6432985962492
  0
LINE
  8
_0-3_躯体と製品
  6
CONTINUOUS
 62
    2
 10
-2902.9708619010144
 20
1810.5864985962107
 11
-2900.5443819010252
 21
1838.0864985962216
  0
LINE
  8
_0-3_躯体と製品
  6
CONTINUOUS
 62
    2
 10
-2907.4883419010148
 20
1810.5864985962107
 11
-2902.9708619010144
 21
1810.5864985962107
  0
LINE
  8
_0-3_躯体と製品
  6
CONTINUOUS
 62
    4
 10
-2903.6385819010047
 20
1922.4811385962421
 11
-2900.1683419010151
 21
1961.8105985962502
  0
LINE
  8
_0-3_躯体と製品
  6
CONTINUOUS
 62
    4
 10
-2710.2960819010041
 20
1637.8810585962201
 11
-2710.2960819010041
 21
1626.631058596231
  0
LINE
  8
_0-3_躯体と製品
  6
CONTINUOUS
 62
    2
 10
-2735.6579419010141
 20
1655.6894785962322
 11
-2739.8714219010144
 21
1644.453538596179
  0
LINE
  8
_0-3_躯体と製品
  6
CONTINUOUS
 62
    4
 10
-2709.2961019010236
 20
1626.631058596231
 11
-2709.2961019010236
 21
1631.6310585962201
  0
LINE
  8
_0-3_躯体と製品
  6
CONTINUOUS
 62
    4
 10
-2710.2960819010041
 20
1626.631058596231
 11
-2709.2961019010236
 21
1626.631058596231
  0
LINE
  8
_0-3_躯体と製品
  6
CONTINUOUS
 62
    2
 10
-2710.2960819010041
 20
1637.8810585962201
 11
-2684.7961019010145
 21
1628.318558596191
  0
LINE
  8
_0-3_躯体と製品
  6
CONTINUOUS
 62
    4
 10
-2709.2738819009937
 20
1704.2744185962292
 11
-2680.2961019010036
 21
1712.0389785962216
  0
LINE
  8
_0-3_躯体と製品
  6
CONTINUOUS
 62
    2
 10
-2894.4279619010249
 20
1958.6040785962286
 11
-2679.2074619009945
 21
2012.2645785962013
  0
LINE
  8
_0-3_躯体と製品
  6
CONTINUOUS
 62
    4
 10
-2758.3155619010049
 20
1842.5864985961816
 11
-2758.3155619010049
 21
1827.5864985961889
  0
LINE
  8
_0-3_躯体と製品
  6
CONTINUOUS
 62
    2
 10
-2860.6879019010048
 20
1975.7149585961888
 11
-2857.7848419010152
 21
1964.0714185961915
  0
LINE
  8
_0-3_躯体と製品
  6
CONTINUOUS
 62
    2
 10
-2647.7951219010047
 20
1859.320898596241
 11
-2674.2961019010236
 21
1852.7134585962413
  0
LINE
  8
_0-3_躯体と製品
  6
CONTINUOUS
 62
    2
 10
-2719.1418019009943
 20
1857.0131185962018
 11
-2715.8660819010038
 21
1844.7879585961819
  0
LINE
  8
_0-3_躯体と製品
  6
CONTINUOUS
 62
    2
 10
-2649.2466619010247
 20
1865.1426585962108
 11
-2647.7951219010047
 21
1859.320898596241
  0
LINE
  8
_0-3_躯体と製品
  6
CONTINUOUS
 62
    2
 10
-2711.2493019010144
 20
2012.9741785962397
 11
-2708.3462419010248
 21
2001.3306385962387
  0
LINE
  8
_0-3_躯体と製品
  6
CONTINUOUS
 62
    2
 10
-2680.2961019010036
 20
2016.6309185962491
 11
-2679.2074619009945
 21
2012.2645785962013
  0
LINE
  8
_0-3_躯体と製品
  6
PLINE2
 62
    2
 10
-2380.2962219010151
 20
1645.2258785962222
 11
-2380.2962219010151
 21
1527.5047585962311
  0
LINE
  8
_0-3_躯体と製品
  6
PLINE2
 62
    2
 10
-2386.2962219009951
 20
1645.2258785962222
 11
-2386.2962219009951
 21
1529.6929785961911
  0
LINE
  8
_0-3_躯体と製品
  6
CONTINUOUS
 62
    2
 10
-2355.2962419010237
 20
1519.1309985961998
 11
-2355.2962419010237
 21
1609.3060585962412
  0
LINE
  8
_0-3_躯体と製品
  6
PLINE2
 62
    3
 10
-2530.2961619009948
 20
1571.6310985962409
 11
-2073.6645019010048
 21
1434.6415985961794
  0
LINE
  8
_0-3_躯体と製品
  6
CONTINUOUS
 62
    4
 10
-2530.2961619009948
 20
1572.6751385962198
 11
-2187.445961900994
 21
1469.8200785962108
  0
LINE
  8
_0-3_躯体と製品
  6
CONTINUOUS
 62
    4
 10
-2187.5994619010144
 20
1469.3083785962299
 11
-2204.2908019010138
 21
1474.3157785961812
  0
LINE
  8
_0-3_躯体と製品
  6
CONTINUOUS
 62
    4
 10
-2187.445961900994
 20
1469.8200785962108
 11
-2187.5994619010144
 21
1469.3083785962299
  0
LINE
  8
_0-3_躯体と製品
  6
CONTINUOUS
 62
    2
 10
-2113.7226019009941
 20
1699.8961785962201
 11
-2355.2962419010237
 21
1609.3060585962412
  0
LINE
  8
_0-3_躯体と製品
  6
CONTINUOUS
 62
    2
 10
-2332.2565819010251
 20
2017.9320585962414
 11
-2333.9500419010146
 21
2011.1399785962312
  0
LINE
  8
_0-3_躯体と製品
  6
CONTINUOUS
 62
    2
 10
-2336.4993419010043
 20
2015.3827385962104
 11
-2329.7072819009936
 21
2013.6892985961895
  0
LINE
  8
_0-3_躯体と製品
  6
CONTINUOUS
 62
    2
 10
-2138.6265619010046
 20
1982.1412185961999
 11
-2113.7226019009941
 21
1699.8961785962201
  0
LINE
  8
_0-3_躯体と製品
  6
CONTINUOUS
 62
    2
 10
-2267.1804419010041
 20
2001.7067585962395
 11
-2268.8739019009936
 21
1994.9146785962294
  0
LINE
  8
_0-3_躯体と製品
  6
CONTINUOUS
 62
    2
 10
-2271.4232019010251
 20
1999.1574385962012
 11
-2264.6311419010144
 21
1997.4639985961912
  0
LINE
  8
_0-3_躯体と製品
  6
CONTINUOUS
 62
    2
 10
-2157.7423019010239
 20
1974.4207585962213
 11
-2159.4357619010152
 21
1967.6286985962106
  0
LINE
  8
_0-3_躯体と製品
  6
CONTINUOUS
 62
    2
 10
-2161.9850619010049
 20
1971.8714585961898
 11
-2155.1930019009942
 21
1970.1779985962421
  0
LINE
  8
_0-3_躯体と製品
  6
CONTINUOUS
 62
    2
 10
-2202.6939619009936
 20
1985.6284585962312
 11
-2204.387421901014
 21
1978.8363985962314
  0
LINE
  8
_0-3_躯体と製品
  6
CONTINUOUS
 62
    2
 10
-2206.9367219010037
 20
1983.0791585961997
 11
-2200.1446619010039
 21
1981.385698596252
  0
LINE
  8
_0-4_図面枠
  6
CONTINUOUS
 62
    2
 10
-2117.7118419010039
 20
2800.7080185962404
 11
-3451.0451819009941
 21
2800.7080185962404
  0
TEXT
  8
_0-4_図面枠
 62
    7
 10
-3259.8663819010144
 20
2678.6268185962217
 40
60
 41
0.8000000000000006
 50
0
  1
縮　　尺
  0
TEXT
  8
_0-4_図面枠
 62
    7
 10
-3294.6965819010147
 20
2836.2265985962295
 40
60
 41
0.8000000000000001
 50
0
  1
ファイル名
  0
TEXT
  8
_0-4_図面枠
 62
    7
 10
-2658.3661219010246
 20
2840.1188185962092
 40
60
 41
0.7999999999999999
 50
0
  1
ＭＯＮ００３
  0
LINE
  8
_0-4_図面枠
  6
CONTINUOUS
 62
    4
 10
-2117.7118419010039
 20
2967.3746785962212
 11
-2117.7118419010039
 21
2634.0413385961911
  0
LINE
  8
_0-4_図面枠
  6
CONTINUOUS
 62
    2
 10
-2784.3785219010242
 20
2967.3746785962212
 11
-2784.3785219010242
 21
2634.0413385961911
  0
TEXT
  8
_0-4_図面枠
 62
    7
 10
-2656.5479619010239
 20
2675.4187985961908
 40
60
 41
0.7999999999999999
 50
0
  1
Ｓ　１：２０
  0
LINE
  8
_0-3_躯体と製品
  6
CONTINUOUS
 62
    4
 10
-2678.2961019010036
 20
2046.6309185962491
 11
-2680.2961019010036
 21
2046.6309185962491
  0
LINE
  8
_0-3_躯体と製品
  6
CONTINUOUS
 62
    4
 10
-2678.2961019010036
 20
2036.6309185962491
 11
-2678.2961019010036
 21
2046.6309185962491
  0
LINE
  8
_0-3_躯体と製品
  6
CONTINUOUS
 62
    2
 10
-2530.2961619009948
 20
2046.6309185962491
 11
-2380.2962219010151
 21
2046.6309185962491
  0
LINE
  8
_0-3_躯体と製品
  6
CONTINUOUS
 62
    2
 10
-2380.2962219010151
 20
2046.6309185962491
 11
-2380.2962219010151
 21
2042.3962385962404
  0
TEXT
  8
_0-4_図面枠
 62
    7
 10
-935.11608190100378
 20
755.80729859623898
 40
60
 41
0.8000000000000003
 50
0
  1
ＳＣ４５０Ｈ
  0
LINE
  8
_0-3_躯体と製品
  6
PLINE2
 62
    3
 10
-769.22386190101497
 20
1062.6608985962012
 11
-175.14466190099483
 21
884.43713859622949
  0
LINE
  8
_0-3_躯体と製品
  6
CONTINUOUS
 62
    4
 10
-351.37366190102512
 20
938.34987859625107
 11
-769.22386190101497
 21
1063.7049385962491
  0
LINE
  8
_0-3_躯体と製品
  6
PLINE5
 62
    2
 10
-429.98872190099428
 20
1429.8239785962214
 11
-769.22386190101497
 21
1514.4047985961988
  0
LINE
  8
_0-3_躯体と製品
  6
PLINE5
 62
    2
 10
-769.22386190101497
 20
1517.4966385962507
 11
-429.6203619010048
 21
1432.8239785961814
  0
LINE
  8
_0-3_躯体と製品
  6
PLINE5
 62
    2
 10
-433.3039019010248
 20
1402.8239785961814
 11
-769.22386190101497
 21
1486.5782385962411
  0
LINE
  8
_0-3_躯体と製品
  6
PLINE4
 62
    2
 10
-769.22386190101497
 20
1723.2858985962012
 11
-544.22386190101497
 21
1723.2858985962012
  0
LINE
  8
_0-3_躯体と製品
  6
PLINE5
 62
    2
 10
-991.22386190102407
 20
1430.4794385962014
 11
-991.22386190102407
 21
996.06089859623171
  0
LINE
  8
_0-3_躯体と製品
  6
PLINE4
 62
    2
 10
-964.22386190101497
 20
1465.78583859625
 11
-964.22386190101497
 21
1004.1608985962121
  0
LINE
  8
_0-3_躯体と製品
  6
PLINE6
 62
    2
 10
-769.22386190101497
 20
1775.9726385961912
 11
-769.22386190101497
 21
864.64451859622204
  0
LINE
  8
_0-3_躯体と製品
  6
PLINE5
 62
    2
 10
-1351.0271019010252
 20
1235.2911185961893
 11
-1004.223861901015
 21
1105.2398985962391
  0
LINE
  8
_0-3_躯体と製品
  6
PLINE4
 62
    4
 10
-1354.223861901015
 20
1233.2858985962012
 11
-1039.223861901015
 21
1115.1608985962012
  0
LINE
  8
_0-3_躯体と製品
  6
PLINE2
 62
    5
 10
-1004.223861901015
 20
1189.7334785962194
 11
-1044.702081901014
 21
1149.2552585962221
  0
LINE
  8
_0-3_躯体と製品
  6
PLINE2
 62
    5
 10
-1010.954921900995
 20
1200.6800985962509
 11
-1057.5585819010048
 21
1154.0764385962102
  0
LINE
  8
_0-3_躯体と製品
  6
PLINE2
 62
    5
 10
-1023.8114019010045
 20
1205.5012785962499
 11
-1070.4150619010052
 21
1158.8976185962092
  0
LINE
  8
_0-3_躯体と製品
  6
PLINE2
 62
    5
 10
-1036.667881901014
 20
1210.3224585962489
 11
-1083.2715419010146
 21
1163.7187985962119
  0
LINE
  8
_0-3_躯体と製品
  6
PLINE2
 62
    5
 10
-1049.5243819009938
 20
1215.1436385962515
 11
-1096.1280419009945
 21
1168.5399785962109
  0
LINE
  8
_0-3_躯体と製品
  6
PLINE2
 62
    5
 10
-1062.3808619010051
 20
1219.9648185962506
 11
-1108.984521901004
 21
1173.3611585962099
  0
LINE
  8
_0-3_躯体と製品
  6
PLINE2
 62
    5
 10
-1075.237361901025
 20
1224.7859985962496
 11
-1121.8410019010153
 21
1178.1823385962089
  0
LINE
  8
_0-3_躯体と製品
  6
PLINE2
 62
    5
 10
-1128.4462219009947
 20
1189.254798596201
 11
-1134.6975019009951
 21
1183.0035385962219
  0
LINE
  8
_0-3_躯体と製品
  6
PLINE4
 62
    2
 10
-1322.2561019010045
 20
1253.337998596231
 11
-1004.223861901015
 21
1134.0759185961797
  0
LINE
  8
_0-3_躯体と製品
  6
PLINE4
 62
    2
 10
-994.22386190101497
 20
1458.3059985962318
 11
-994.22386190101497
 21
995.16089859620115
  0
LINE
  8
_0-3_躯体と製品
  6
CONTINUOUS
 62
    4
 10
-995.22386190100406
 20
995.90493859619164
 11
-995.22386190100406
 21
1236.2215185961904
  0
LINE
  8
_0-3_躯体と製品
  6
PLINE4
 62
    2
 10
-1004.223861901015
 20
1198.1559385962209
 11
-1004.223861901015
 21
1045.1608985962012
  0
LINE
  8
_0-3_躯体と製品
  6
PLINE2
 62
    3
 10
-769.22386190101497
 20
1062.6608985962012
 11
-1363.3030619009951
 21
884.43713859622949
  0
LINE
  8
_0-3_躯体と製品
  6
CONTINUOUS
 62
    4
 10
-1187.0740819010152
 20
938.34987859625107
 11
-995.22386190100406
 21
995.90493859619164
  0
LINE
  8
_0-3_躯体と製品
  6
CONTINUOUS
 62
    4
 10
-1186.9205819009949
 20
937.83817859619012
 11
-1170.2292219009942
 21
942.84557859622146
  0
LINE
  8
_0-3_躯体と製品
  6
CONTINUOUS
 62
    4
 10
-1187.0740819010152
 20
938.34987859625107
 11
-1186.9205819009949
 21
937.83817859619012
  0
LINE
  8
_0-3_躯体と製品
  6
CONTINUOUS
 62
    2
 10
-1066.0264419010146
 20
1132.3923785962397
 11
-1069.3938019009947
 21
1123.4127585962196
  0
LINE
  8
_0-3_躯体と製品
  6
CONTINUOUS
 62
    2
 10
-1013.7351819009946
 20
1071.3978385962109
 11
-986.84704190102457
 21
1071.3978385962109
  0
LINE
  8
_0-3_躯体と製品
  6
CONTINUOUS
 62
    2
 10
-1004.223861901015
 20
1045.1608985962012
 11
-995.22386190100406
 21
1045.1608985962012
  0
LINE
  8
_0-3_躯体と製品
  6
PLINE2
 62
    5
 10
-1004.223861901015
 20
1136.7004585962204
 11
-1006.1326219010243
 21
1134.7916985962111
  0
LINE
  8
_0-3_躯体と製品
  6
PLINE2
 62
    5
 10
-1004.223861901015
 20
1154.3781385961993
 11
-1018.9891219010042
 21
1139.6128785962101
  0
LINE
  8
_0-3_躯体と製品
  6
PLINE2
 62
    5
 10
-1004.223861901015
 20
1172.0557985962405
 11
-1031.8456019010137
 21
1144.4340585962091
  0
LINE
  8
_0-3_躯体と製品
  6
PLINE4
 62
    4
 10
-1039.223861901015
 20
1115.1608985962012
 11
-1039.223861901015
 21
1095.1608985962012
  0
LINE
  8
_0-3_躯体と製品
  6
PLINE4
 62
    2
 10
-1004.223861901015
 20
1134.0759185961797
 11
-994.22386190101497
 21
1134.0759185961797
  0
LINE
  8
_0-3_躯体と製品
  6
PLINE4
 62
    2
 10
-1039.223861901015
 20
1115.1608985962012
 11
-1004.223861901015
 21
1102.0358985962012
  0
LINE
  8
_0-3_躯体と製品
  6
PLINE4
 62
    4
 10
-1038.223861900995
 20
1095.1608985962012
 11
-1038.223861900995
 21
1098.2858985962012
  0
LINE
  8
_0-3_躯体と製品
  6
PLINE4
 62
    4
 10
-1039.223861901015
 20
1095.1608985962012
 11
-1038.223861900995
 21
1095.1608985962012
  0
LINE
  8
_0-3_躯体と製品
  6
PLINE2
 62
    5
 10
-1113.7121819009935
 20
1610.5752385961896
 11
-1307.2197019010146
 21
1417.0677185962013
  0
LINE
  8
_0-3_躯体と製品
  6
PLINE2
 62
    5
 10
-1111.9245419009949
 20
1630.0405385962003
 11
-1305.4320819010245
 21
1436.5330185962121
  0
LINE
  8
_0-3_躯体と製品
  6
PLINE2
 62
    5
 10
-1131.5027419010239
 20
1628.1400385962188
 11
-1303.644441901024
 21
1455.9983185962192
  0
LINE
  8
_0-3_躯体と製品
  6
PLINE2
 62
    5
 10
-1155.0518619010145
 20
1622.2685785962422
 11
-1301.8568219010249
 21
1475.4636185962299
  0
LINE
  8
_0-3_躯体と製品
  6
PLINE2
 62
    5
 10
-1178.6009819010051
 20
1616.3971185961891
 11
-1300.0691819010244
 21
1494.9289185962407
  0
LINE
  8
_0-3_躯体と製品
  6
PLINE2
 62
    5
 10
-1202.1501019009938
 20
1610.5256585962088
 11
-1298.2815619010235
 21
1514.3942185961787
  0
LINE
  8
_0-3_躯体と製品
  6
PLINE5
 62
    2
 10
-1316.6326419010147
 20
1609.8085385962404
 11
-1351.0271019010252
 21
1235.2911185961893
  0
LINE
  8
_0-3_躯体と製品
  6
PLINE4
 62
    4
 10
-1354.3186819009952
 20
1232.2534585962094
 11
-1319.425261901024
 21
1612.2040985962412
  0
LINE
  8
_0-3_躯体と製品
  6
PLINE4
 62
    2
 10
-1146.6813619009936
 20
1251.5774985962089
 11
-1110.9473419010137
 21
1640.6812985962206
  0
LINE
  8
_0-3_躯体と製品
  6
PLINE4
 62
    2
 10
-986.96622190102426
 20
1664.1770385962191
 11
-1291.4990219010051
 21
1588.2484785961897
  0
LINE
  8
_0-3_躯体と製品
  6
CONTINUOUS
 62
    4
 10
-1001.9807619010044
 20
1371.1458385962505
 11
-1070.924721900994
 21
1313.2949585962087
  0
LINE
  8
_0-3_躯体と製品
  6
CONTINUOUS
 62
    3
 10
-1063.1678619010236
 20
1319.6079385962112
 11
-997.22386190100406
 21
1301.9382985961893
  0
LINE
  8
_0-3_躯体と製品
  6
CONTINUOUS
 62
    3
 10
-997.22386190100406
 20
1374.9415185962098
 11
-1063.1678619010236
 21
1319.6079385962112
  0
LINE
  8
_0-3_躯体と製品
  6
PLINE5
 62
    2
 10
-1108.4590219010042
 20
1429.8239785962214
 11
-769.22386190101497
 21
1514.4047985961988
  0
LINE
  8
_0-3_躯体と製品
  6
CONTINUOUS
 62
    4
 10
-1108.8273819009937
 20
1433.854598596201
 11
-769.22386190101497
 21
1518.5272585962011
  0
LINE
  8
_0-3_躯体と製品
  6
PLINE4
 62
    2
 10
-1004.223861901015
 20
1198.1559385962209
 11
-1146.6813619009936
 21
1251.5774985962089
  0
LINE
  8
_0-3_躯体と製品
  6
PLINE4
 62
    2
 10
-769.22386190101497
 20
1517.4966385962507
 11
-1108.8273819009937
 21
1432.8239785961814
  0
LINE
  8
_0-3_躯体と製品
  6
PLINE4
 62
    2
 10
-983.560161901014
 20
1433.1381985961816
 11
-1105.1438419010137
 21
1402.8239785961814
  0
LINE
  8
_0-3_躯体と製品
  6
PLINE2
 62
    5
 10
-1133.3761019010144
 20
1396.4569585962199
 11
-1288.975341900994
 21
1240.8577185962095
  0
LINE
  8
_0-3_躯体と製品
  6
PLINE2
 62
    5
 10
-1131.5884819010244
 20
1415.9222585962307
 11
-1301.8318219010052
 21
1245.6788985962121
  0
LINE
  8
_0-3_躯体と製品
  6
PLINE2
 62
    5
 10
-1129.8008419010148
 20
1435.3875585962414
 11
-1314.6883219010142
 21
1250.5000785962111
  0
LINE
  8
_0-3_躯体と製品
  6
PLINE2
 62
    5
 10
-1150.8438419010145
 20
1432.0222185962193
 11
-1321.5207419010039
 21
1261.3453385962021
  0
LINE
  8
_0-3_躯体と製品
  6
PLINE2
 62
    5
 10
-1151.390481901004
 20
1449.1532585962523
 11
-1319.7331019010035
 21
1280.8106185961988
  0
LINE
  8
_0-3_躯体と製品
  6
PLINE2
 62
    5
 10
-1124.4379619010251
 20
1493.7834585962009
 11
-1317.9454819010152
 21
1300.2759185962095
  0
LINE
  8
_0-3_躯体と製品
  6
PLINE2
 62
    5
 10
-1122.6503219010247
 20
1513.2487585962117
 11
-1316.1578419010038
 21
1319.7412185962203
  0
LINE
  8
_0-3_躯体と製品
  6
PLINE2
 62
    5
 10
-1120.8627019009946
 20
1532.7140585962188
 11
-1314.3702219010138
 21
1339.206518596231
  0
LINE
  8
_0-3_躯体と製品
  6
PLINE2
 62
    5
 10
-1119.075061901025
 20
1552.1793385962192
 11
-1312.5825819010151
 21
1358.6718185962418
  0
LINE
  8
_0-3_躯体と製品
  6
PLINE2
 62
    5
 10
-1117.287441900995
 20
1571.6446385962408
 11
-1310.7949619010142
 21
1378.1371185962489
  0
LINE
  8
_0-3_躯体と製品
  6
PLINE4
 62
    2
 10
-1322.2561019010045
 20
1253.337998596231
 11
-1291.4990219010051
 21
1588.2484785961897
  0
LINE
  8
_0-3_躯体と製品
  6
PLINE2
 62
    5
 10
-1142.3142419010037
 20
1299.1304585962389
 11
-1224.692901901004
 21
1216.7517985962113
  0
LINE
  8
_0-3_躯体と製品
  6
PLINE2
 62
    5
 10
-1237.5493819010135
 20
1221.5729985962098
 11
-1140.5266219010136
 21
1318.5957585962497
  0
LINE
  8
_0-3_躯体と製品
  6
PLINE2
 62
    5
 10
-1250.4058819009952
 20
1226.3941785962088
 11
-1138.7390019010145
 21
1338.0610585961913
  0
LINE
  8
_0-3_躯体と製品
  6
PLINE2
 62
    5
 10
-1263.2623619010046
 20
1231.2153585962114
 11
-1136.951361901014
 21
1357.526358596202
  0
LINE
  8
_0-3_躯体と製品
  6
PLINE2
 62
    5
 10
-1276.1188619010136
 20
1236.0365385962104
 11
-1135.163741901024
 21
1376.9916585962092
  0
LINE
  8
_0-3_躯体と製品
  6
CONTINUOUS
 62
    2
 10
-1354.0146419010143
 20
1268.9288585962422
 11
-1344.5088619010148
 21
1268.0558785962494
  0
LINE
  8
_0-3_躯体と製品
  6
PLINE4
 62
    4
 10
-1317.1335219010252
 20
1218.3090185962392
 11
-1354.3186819009952
 21
1232.2534585962094
  0
LINE
  8
_0-3_躯体と製品
  6
CONTINUOUS
 62
    2
 10
-1285.8868419010141
 20
1215.3782785962321
 11
-1289.7699219009937
 21
1205.0234185962217
  0
LINE
  8
_0-3_躯体と製品
  6
PLINE2
 62
    5
 10
-1100.9503219010039
 20
1234.4283585962403
 11
-1147.5539819010046
 21
1187.82471859621
  0
LINE
  8
_0-3_躯体と製品
  6
PLINE2
 62
    5
 10
-1113.8068219010238
 20
1239.2495585962497
 11
-1160.4104619010141
 21
1192.645898596209
  0
LINE
  8
_0-3_躯体と製品
  6
PLINE2
 62
    5
 10
-1126.6633019009951
 20
1244.0707385962487
 11
-1173.2669619009939
 21
1197.4670785962116
  0
LINE
  8
_0-3_躯体と製品
  6
PLINE2
 62
    5
 10
-1139.5197819010045
 20
1248.8919185962513
 11
-1186.1234419010052
 21
1202.2882585962107
  0
LINE
  8
_0-3_躯体と製品
  6
PLINE2
 62
    5
 10
-1145.8895019010051
 20
1260.199858596221
 11
-1198.9799219010147
 21
1207.1094385962097
  0
LINE
  8
_0-3_躯体と製品
  6
PLINE2
 62
    5
 10
-1144.1018819010151
 20
1279.6651585962318
 11
-1211.8364219009945
 21
1211.9306185962087
  0
LINE
  8
_0-3_躯体と製品
  6
PLINE2
 62
    5
 10
-1088.0938419009944
 20
1229.6071785962522
 11
-1110.0511819010044
 21
1207.6498385962404
  0
LINE
  8
_0-3_躯体と製品
  6
CONTINUOUS
 62
    4
 10
-1070.8283219009936
 20
1313.2949585962087
 11
-1070.8283219009936
 21
1293.2949585962087
  0
LINE
  8
_0-3_躯体と製品
  6
PLINE2
 62
    5
 10
-1115.4998019009945
 20
1591.1099385962516
 11
-1309.007341901015
 21
1397.6024185961905
  0
LINE
  8
_0-3_躯体と製品
  6
PLINE5
 62
    2
 10
-1335.8989419010049
 20
1429.8239785962214
 11
-1108.4590219010042
 21
1429.8239785962214
  0
LINE
  8
_0-3_躯体と製品
  6
PLINE4
 62
    2
 10
-1105.1438419010137
 20
1402.8239785961814
 11
-1335.8989419010049
 21
1402.8239785961814
  0
LINE
  8
_0-3_躯体と製品
  6
PLINE4
 62
    2
 10
-1108.8273819009937
 20
1432.8239785961814
 11
-1335.8989419010049
 21
1432.8239785961814
  0
LINE
  8
_0-3_躯体と製品
  6
CONTINUOUS
 62
    2
 10
-1321.577081901014
 20
1424.7487785962294
 11
-1322.9310019010245
 21
1410.8143985962415
  0
LINE
  8
_0-3_躯体と製品
  6
CONTINUOUS
 62
    2
 10
-1315.2868419010047
 20
1417.1046185962514
 11
-1329.2212219009944
 21
1418.4585585962195
  0
LINE
  8
_0-3_躯体と製品
  6
PLINE2
 62
    5
 10
-1272.7974819010051
 20
1592.911298596202
 11
-1292.9186619010252
 21
1572.7901185962219
  0
LINE
  8
_0-3_躯体と製品
  6
PLINE2
 62
    5
 10
-1225.6992419010239
 20
1604.6541985962322
 11
-1296.4939219010248
 21
1533.8595185961894
  0
LINE
  8
_0-3_躯体と製品
  6
PLINE2
 62
    5
 10
-1249.2483619010145
 20
1598.7827385962519
 11
-1294.7063019009947
 21
1553.3248185962002
  0
LINE
  8
_0-3_躯体と製品
  6
CONTINUOUS
 62
    2
 10
-1326.1218219010043
 20
1572.6507585961808
 11
-1316.6160219009944
 21
1571.7777785961989
  0
LINE
  8
_0-3_躯体と製品
  6
PLINE2
 62
    5
 10
-1126.2255819010243
 20
1474.3181585961902
 11
-1140.9098619010238
 21
1459.6338785961889
  0
LINE
  8
_0-3_躯体と製品
  6
PLINE2
 62
    5
 10
-1128.0132219010247
 20
1454.8528585962522
 11
-1137.4751019010037
 21
1445.3909785962314
  0
LINE
  8
_0-3_躯体と製品
  6
CONTINUOUS
 62
    2
 10
-1070.6499619010046
 20
1446.0759385962301
 11
-1069.4393219010144
 21
1441.2203985962406
  0
LINE
  8
_0-3_躯体と製品
  6
CONTINUOUS
 62
    4
 10
-1108.8273819009937
 20
1418.854598596201
 11
-1108.8273819009937
 21
1433.854598596201
  0
LINE
  8
_0-3_躯体と製品
  6
PLINE5
 62
    2
 10
-769.22386190101497
 20
1233.3978385961891
 11
-991.22386190102407
 21
1233.3978385961891
  0
LINE
  8
_0-3_躯体と製品
  6
PLINE4
 62
    2
 10
-991.22386190102407
 20
1206.3978385962109
 11
-769.22386190101497
 21
1206.3978385962109
  0
LINE
  8
_0-3_躯体と製品
  6
PLINE4
 62
    2
 10
-769.22386190101497
 20
1236.3978385962109
 11
-991.22386190102407
 21
1236.3978385962109
  0
LINE
  8
_0-3_躯体と製品
  6
CONTINUOUS
 62
    3
 10
-997.22386190100406
 20
1301.9382985961893
 11
-997.22386190100406
 21
1289.2402785962295
  0
LINE
  8
_0-3_躯体と製品
  6
CONTINUOUS
 62
    2
 10
-986.71394190100364
 20
1221.2699785962213
 11
-972.71394190102365
 21
1221.2699785962213
  0
LINE
  8
_0-3_躯体と製品
  6
CONTINUOUS
 62
    3
 10
-997.22386190100406
 20
1289.2402785962295
 11
-994.22386190101497
 21
1289.2402785962295
  0
LINE
  8
_0-3_躯体と製品
  6
CONTINUOUS
 62
    4
 10
-1024.7681019009942
 20
1231.0120585962213
 11
-995.22386190100406
 21
1236.2215185961904
  0
LINE
  8
_0-3_躯体と製品
  6
CONTINUOUS
 62
    2
 10
-979.71394190099454
 20
1228.2699785961922
 11
-979.71394190099454
 21
1214.2699785962504
  0
LINE
  8
_0-3_躯体と製品
  6
CONTINUOUS
 62
    4
 10
-1001.9807619010044
 20
1391.1458385962505
 11
-1001.9807619010044
 21
1371.1458385962505
  0
LINE
  8
_0-3_躯体と製品
  6
CONTINUOUS
 62
    2
 10
-1000.1306619010247
 20
1296.7402785962404
 11
-987.49640190101491
 21
1296.7402785962404
  0
LINE
  8
_0-3_躯体と製品
  6
CONTINUOUS
 62
    2
 10
-1000.1306619010247
 20
1381.0425985962211
 11
-987.49640190101491
 21
1381.0425985962211
  0
LINE
  8
_0-3_躯体と製品
  6
CONTINUOUS
 62
    2
 10
-1033.5168019009943
 20
1354.2786985962193
 11
-1023.8749819009936
 21
1342.7880185962313
  0
LINE
  8
_0-3_躯体と製品
  6
CONTINUOUS
 62
    3
 10
-997.22386190100406
 20
1374.9415185962098
 11
-997.22386190100406
 21
1388.5425985962211
  0
LINE
  8
_0-3_躯体と製品
  6
CONTINUOUS
 62
    3
 10
-994.22386190101497
 20
1388.5425985962211
 11
-997.22386190100406
 21
1388.5425985962211
  0
LINE
  8
_0-3_躯体と製品
  6
CONTINUOUS
 62
    3
 10
-1056.8248419010051
 20
1321.014158596201
 11
-994.22386190101497
 21
1304.2402785962404
  0
LINE
  8
_0-3_躯体と製品
  6
CONTINUOUS
 62
    3
 10
-994.22386190101497
 20
1373.5425985962211
 11
-1056.8248419010051
 21
1321.014158596201
  0
LINE
  8
_0-3_躯体と製品
  6
PLINE4
 62
    2
 10
-769.22386190101497
 20
1486.5782385962411
 11
-972.33702190100485
 21
1435.936438596229
  0
LINE
  8
_0-3_躯体と製品
  6
CONTINUOUS
 62
    2
 10
-985.77488190102486
 20
1446.8663185961996
 11
-971.77488190100485
 21
1446.8663185961996
  0
LINE
  8
_0-3_躯体と製品
  6
PLINE5
 62
    2
 10
-994.22386190101497
 20
1430.4794385962014
 11
-991.22386190102407
 21
1430.4794385962014
  0
LINE
  8
_0-3_躯体と製品
  6
CONTINUOUS
 62
    2
 10
-978.77488190101394
 20
1453.8663185962396
 11
-978.77488190101394
 21
1439.8663185962214
  0
LINE
  8
_0-3_躯体と製品
  6
PLINE5
 62
    2
 10
-993.49810190099379
 20
1690.3750185962199
 11
-1316.6326419010147
 21
1609.8085385962404
  0
LINE
  8
_0-3_躯体と製品
  6
PLINE4
 62
    4
 10
-994.22386190101497
 20
1693.2858985962012
 11
-1319.425261901024
 21
1612.2040985962412
  0
LINE
  8
_0-3_躯体と製品
  6
PLINE4
 62
    2
 10
-1110.2709019010235
 20
1648.0469785962196
 11
-1109.0290019010044
 21
1661.5699385961889
  0
LINE
  8
_0-3_躯体と製品
  6
PLINE4
 62
    4
 10
-994.22386190101497
 20
1723.2858985962012
 11
-994.22386190101497
 21
1693.2858985962012
  0
LINE
  8
_0-3_躯体と製品
  6
PLINE4
 62
    4
 10
-993.22386190099496
 20
1713.2858985962012
 11
-993.22386190099496
 21
1723.2858985962012
  0
LINE
  8
_0-3_躯体と製品
  6
CONTINUOUS
 62
    2
 10
-1023.8579419010148
 20
1688.1347385962508
 11
-1021.928681901014
 21
1680.3968385961816
  0
LINE
  8
_0-3_躯体と製品
  6
PLINE4
 62
    2
 10
-994.22386190101497
 20
1693.2858985962012
 11
-986.96622190102426
 21
1664.1770385962191
  0
LINE
  8
_0-3_躯体と製品
  6
PLINE4
 62
    4
 10
-993.22386190099496
 20
1723.2858985962012
 11
-994.22386190101497
 21
1723.2858985962012
  0
LINE
  8
_0-3_躯体と製品
  6
PLINE2
 62
    2
 10
-544.22386190101497
 20
1206.3978385962109
 11
-544.22386190101497
 21
996.20493859624912
  0
LINE
  8
_0-3_躯体と製品
  6
PLINE2
 62
    2
 10
-574.22386190101497
 20
1206.3978385962109
 11
-574.22386190101497
 21
1005.2049385961909
  0
LINE
  8
_0-3_躯体と製品
  6
PLINE5
 62
    2
 10
-547.22386190100406
 20
1206.3978385962109
 11
-547.22386190100406
 21
997.10493859622147
  0
LINE
  8
_0-3_躯体と製品
  6
PLINE4
 62
    2
 10
-474.22386190101497
 20
1097.8358985962113
 11
-157.58406190100504
 21
1216.5758185962222
  0
LINE
  8
_0-3_躯体と製品
  6
PLINE4
 62
    2
 10
-474.22386190101497
 20
975.20493859619091
 11
-474.22386190101497
 21
1097.8358985962113
  0
LINE
  8
_0-3_躯体と製品
  6
CONTINUOUS
 62
    4
 10
-351.52716190100364
 20
937.83817859619012
 11
-368.21852190100435
 21
942.84557859622146
  0
LINE
  8
_0-3_躯体と製品
  6
CONTINUOUS
 62
    4
 10
-351.37366190102512
 20
938.34987859625107
 11
-351.52716190100364
 21
937.83817859619012
  0
LINE
  8
_0-3_躯体と製品
  6
PLINE4
 62
    2
 10
-157.58406190100504
 20
1216.5758185962222
 11
-195.75062190099379
 21
1632.1670985962301
  0
LINE
  8
_0-3_躯体と製品
  6
CONTINUOUS
 62
    2
 10
-711.12422190101461
 20
1494.7661985962404
 11
-714.57354190101432
 21
1481.1977785962299
  0
LINE
  8
_0-3_躯体と製品
  6
CONTINUOUS
 62
    2
 10
-719.63310190102493
 20
1489.7066585962421
 11
-706.06468190101441
 21
1486.2573385962387
  0
LINE
  8
_0-3_躯体と製品
  6
CONTINUOUS
 62
    2
 10
-639.55852190102451
 20
1476.9228785962114
 11
-643.00784190102422
 21
1463.3544385961904
  0
LINE
  8
_0-3_躯体と製品
  6
CONTINUOUS
 62
    2
 10
-648.06740190099481
 20
1471.863318596199
 11
-634.4989619010139
 21
1468.4139985961992
  0
LINE
  8
_0-3_躯体と製品
  6
CONTINUOUS
 62
    2
 10
-547.77350190099423
 20
1454.0382985962497
 11
-551.22282190099395
 21
1440.4698785962391
  0
LINE
  8
_0-3_躯体と製品
  6
CONTINUOUS
 62
    2
 10
-556.28238190100456
 20
1448.9787385962409
 11
-542.71394190102365
 21
1445.5294185962412
  0
LINE
  8
_0-3_躯体と製品
  6
PLINE5
 62
    2
 10
-202.54880190099357
 20
1429.8239785962214
 11
-429.98872190099428
 21
1429.8239785962214
  0
LINE
  8
_0-3_躯体と製品
  6
PLINE5
 62
    2
 10
-433.3039019010248
 20
1402.8239785961814
 11
-202.54880190099357
 21
1402.8239785961814
  0
LINE
  8
_0-3_躯体と製品
  6
PLINE5
 62
    2
 10
-429.6203619010048
 20
1432.8239785961814
 11
-202.54880190099357
 21
1432.8239785961814
  0
LINE
  8
_0-3_躯体と製品
  6
PLINE4
 62
    2
 10
-544.22386190101497
 20
1719.0512385961993
 11
-195.75062190099379
 21
1632.1670985962301
  0
LINE
  8
_0-3_躯体と製品
  6
CONTINUOUS
 62
    2
 10
-487.29826190102358
 20
1696.5912785962209
 11
-490.74756190101471
 21
1683.0228585962104
  0
LINE
  8
_0-3_躯体と製品
  6
CONTINUOUS
 62
    2
 10
-495.80712190102349
 20
1691.5317385962117
 11
-482.23870190101479
 21
1688.0824185962119
  0
LINE
  8
_0-3_躯体と製品
  6
PLINE4
 62
    2
 10
-544.22386190101497
 20
1723.2858985962012
 11
-544.22386190101497
 21
1719.0512385961993
  0
LINE
  8
_0-3_躯体と製品
  6
CONTINUOUS
 62
    2
 10
-415.73254190102489
 20
1678.7479585961919
 11
-419.1818619010246
 21
1665.1795185962401
  0
LINE
  8
_0-3_躯体と製品
  6
CONTINUOUS
 62
    2
 10
-424.24142190099519
 20
1673.6883985962522
 11
-410.67298190101428
 21
1670.2390785962489
  0
LINE
  8
_0-3_躯体と製品
  6
CONTINUOUS
 62
    2
 10
-323.94752190099462
 20
1655.8633785962411
 11
-327.39684190099433
 21
1642.2949585962197
  0
LINE
  8
_0-3_躯体と製品
  6
CONTINUOUS
 62
    2
 10
-332.45640190100494
 20
1650.8038185962287
 11
-318.88798190099442
 21
1647.354498596229
  0
LINE
  8
_0-3_躯体と製品
  6
CONTINUOUS
 62
    2
 10
455.70001809896894
 20
1380.3733785962395
 11
465.65743809899686
 21
1379.4513985961894
  0
LINE
  8
_0-4_図面枠
  6
CONTINUOUS
 62
    4
 10
4292.2881580989906
 20
-2372.6253214037788
 11
4292.2881580989906
 21
2967.3746785962212
  0
LINE
  8
_0-4_図面枠
  6
CONTINUOUS
 62
    3
 10
1580.3591580989723
 20
-1807.6037014038084
 11
4229.2653580989918
 21
-1807.6037014038084
  0
LINE
  8
_0-4_図面枠
  6
CONTINUOUS
 62
    3
 10
4229.2653580989918
 20
-607.60370140380837
 11
1580.3591580989723
 21
-607.60370140380837
  0
LINE
  8
_0-4_図面枠
  6
CONTINUOUS
 62
    2
 10
1580.3591580989723
 20
-1657.6037014038084
 11
4229.2653580989918
 21
-1657.6037014038084
  0
LINE
  8
_0-4_図面枠
  6
CONTINUOUS
 62
    2
 10
1580.3591580989723
 20
-757.60370140380837
 11
4229.2653580989918
 21
-757.60370140380837
  0
LINE
  8
_0-4_図面枠
  6
CONTINUOUS
 62
    2
 10
1580.3591580989723
 20
-747.60370140380837
 11
4229.2653580989918
 21
-747.60370140380837
  0
LINE
  8
_0-4_図面枠
  6
CONTINUOUS
 62
    2
 10
1580.3591580989723
 20
-907.60370140380837
 11
4229.2653580989918
 21
-907.60370140380837
  0
LINE
  8
_0-4_図面枠
  6
CONTINUOUS
 62
    2
 10
1580.3591580989723
 20
-1057.6037014038084
 11
4229.2653580989918
 21
-1057.6037014038084
  0
LINE
  8
_0-4_図面枠
  6
CONTINUOUS
 62
    2
 10
1580.3591580989723
 20
-1207.6037014038084
 11
4229.2653580989918
 21
-1207.6037014038084
  0
LINE
  8
_0-4_図面枠
  6
CONTINUOUS
 62
    2
 10
1580.3591580989723
 20
-1357.6037014038084
 11
4229.2653580989918
 21
-1357.6037014038084
  0
LINE
  8
_0-4_図面枠
  6
CONTINUOUS
 62
    2
 10
1580.3591580989723
 20
-1507.6037014038084
 11
4229.2653580989918
 21
-1507.6037014038084
  0
LINE
  8
_0-4_図面枠
  6
CONTINUOUS
 62
    3
 10
1580.3591580989723
 20
-607.60370140380837
 11
1580.3591580989723
 21
-1807.6037014038084
  0
LINE
  8
_0-4_図面枠
  6
CONTINUOUS
 62
    2
 10
2079.2653580989927
 20
-607.60370140380837
 11
2079.2653580989927
 21
-1807.6037014038084
  0
LINE
  8
_0-4_図面枠
  6
CONTINUOUS
 62
    2
 10
2479.2653580989918
 20
-607.60370140380837
 11
2479.2653580989918
 21
-1807.6037014038084
  0
LINE
  8
_0-4_図面枠
  6
CONTINUOUS
 62
    2
 10
2879.2653580989918
 20
-607.60370140380837
 11
2879.2653580989918
 21
-1807.6037014038084
  0
LINE
  8
_0-3_躯体と製品
  6
PLINE5
 62
    3
 10
626.96679809897432
 20
-1208.5582014037391
 11
626.96679809897432
 21
-1491.8825814037882
  0
LINE
  8
_0-3_躯体と製品
  6
PLINE5
 62
    3
 10
620.96679809898887
 20
-1210.4529414038079
 11
620.96679809898887
 21
-1490.0825814037889
  0
LINE
  8
_0-3_躯体と製品
  6
PLINE5
 62
    3
 10
576.96679809897432
 20
-1476.8825814037882
 11
576.96679809897432
 21
-1224.3476814037713
  0
LINE
  8
_0-3_躯体と製品
  6
CONTINUOUS
 62
    3
 10
742.46679809900343
 20
-1326.5688014037987
 11
742.46679809900343
 21
-1529.2424014037788
  0
TEXT
  8
_0-4_図面枠
 62
    7
 10
1654.6884580990009
 20
-1774.2049014038203
 40
60
 41
0.8000000000000001
 50
0
  1
ＳＣ９００
  0
TEXT
  8
_0-4_図面枠
 62
    7
 10
1654.6884580990009
 20
-1624.2048414037999
 40
60
 41
0.8000000000000001
 50
0
  1
ＳＣ７５０
  0
TEXT
  8
_0-4_図面枠
 62
    7
 10
1662.2549980989697
 20
-1484.6410014037501
 40
60
 41
0.8000000000000003
 50
0
  1
ＳＣ６００
  0
LINE
  8
_0-3_躯体と製品
  6
CONTINUOUS
 62
    4
 10
818.66349809900385
 20
-1549.9493414038006
 11
801.97213809899949
 21
-1544.9419414037584
  0
LINE
  8
_0-3_躯体と製品
  6
CONTINUOUS
 62
    4
 10
818.81699809898237
 20
-1549.4376614038192
 11
818.66349809900385
 21
-1549.9493414038006
  0
TEXT
  8
_0-4_図面枠
 62
    7
 10
2241.5292780989976
 20
-1780.0902214037596
 40
60
 41
0.800000000000001
 50
0
  1
９００
  0
TEXT
  8
_0-4_図面枠
 62
    7
 10
2244.0512580989807
 20
-1480.4372814038179
 40
60
 41
0.800000000000001
 50
0
  1
６００
  0
TEXT
  8
_0-4_図面枠
 62
    7
 10
2241.5292780989976
 20
-1630.090141403809
 40
60
 41
0.800000000000001
 50
0
  1
７５０
  0
TEXT
  8
_0-4_図面枠
 62
    7
 10
1990.5789580989858
 20
-1774.8668414038111
 40
60
 41
0.7999999999999982
 50
0
  1
Ｈ
  0
TEXT
  8
_0-4_図面枠
 62
    7
 10
1989.8837780989825
 20
-1620.4678014038182
 40
60
 41
0.7999999999999982
 50
0
  1
Ｈ
  0
TEXT
  8
_0-4_図面枠
 62
    7
 10
1989.8837780989825
 20
-1485.5425814038099
 40
60
 41
0.7999999999999982
 50
0
  1
Ｈ
  0
TEXT
  8
_0-4_図面枠
 62
    7
 10
2573.6087580989906
 20
-1779.38276140378
 40
60
 41
0.8000000000000006
 50
0
  1
１２３０
  0
TEXT
  8
_0-4_図面枠
 62
    7
 10
2583.5135380989868
 20
-1623.7225814038102
 40
60
 41
0.8000000000000006
 50
0
  1
１０３０
  0
TEXT
  8
_0-4_図面枠
 62
    7
 10
2644.0512580989798
 20
-1480.4372814038179
 40
60
 41
0.7999999999999999
 50
0
  1
８３５
  0
TEXT
  8
_0-4_図面枠
 62
    7
 10
1677.2421780989953
 20
-728.19494140380993
 40
60
 41
0.8
 50
0
  1
型　　式
  0
TEXT
  8
_0-4_図面枠
 62
    7
 10
1665.6180180990032
 20
-1339.1918614037713
 40
60
 41
0.8000000000000003
 50
0
  1
ＳＣ５００
  0
TEXT
  8
_0-4_図面枠
 62
    7
 10
1663.9364980989812
 20
-1190.3797614037685
 40
60
 41
0.8000000000000001
 50
0
  1
ＳＣ４５０
  0
TEXT
  8
_0-4_図面枠
 62
    7
 10
1655.5289180990003
 20
-1044.0900214037792
 40
60
 41
0.8000000000000001
 50
0
  1
ＳＣ４００
  0
TEXT
  8
_0-4_図面枠
 62
    7
 10
1650.4843580989746
 20
-886.02970140377874
 40
60
 41
0.8000000000000003
 50
0
  1
ＳＣ３００
  0
TEXT
  8
_0-4_図面枠
 62
    7
 10
1387.6019780990009
 20
-15.154921403758635
 40
60
 41
0.8
 50
0
  1
妻板ｔ＝０．８
  0
LINE
  8
_0-4_図面枠
  6
CONTINUOUS
 62
    2
 10
1387.6023180989705
 20
-25.15504140379926
 11
1697.3964380989764
 21
-25.15504140379926
  0
LINE
  8
_0-3_躯体と製品
  6
CONTINUOUS
 62
    3
 10
1368.8826380989758
 20
-1090.0201614037578
 11
1285.6930580989756
 21
-291.40018140375832
  0
LINE
  8
_0-3_躯体と製品
  6
CONTINUOUS
 62
    3
 10
742.46679809900343
 20
-1326.5688014037987
 11
1368.8826380989758
 21
-1090.0201614037578
  0
LINE
  8
_0-3_躯体と製品
  6
PLINE5
 62
    3
 10
1299.4462180989922
 20
-722.64086140380095
 11
845.18309809899802
 21
-722.64086140380095
  0
LINE
  8
_0-3_躯体と製品
  6
PLINE5
 62
    3
 10
1294.2378980989743
 20
-678.64086140379004
 11
850.58561809898492
 21
-678.64086140379004
  0
LINE
  8
_0-3_躯体と製品
  6
PLINE5
 62
    3
 10
1294.2378980989743
 20
-672.64086140380095
 11
851.32231809900077
 21
-672.64086140380095
  0
LINE
  8
_0-3_躯体と製品
  6
CONTINUOUS
 62
    2
 10
543.40667809897241
 20
-623.9397014037495
 11
556.99081809899326
 21
-627.32660140379085
  0
LINE
  8
_0-3_躯体と製品
  6
CONTINUOUS
 62
    2
 10
551.89219809900351
 20
-618.84108140375974
 11
548.50529809900036
 21
-632.4252214037806
  0
TEXT
  8
_0-4_図面枠
 62
    7
 10
853.28739809897343
 20
130.48243859620197
 40
60
 41
0.8000000000000001
 50
0
  1
シルタップ止め
  0
LINE
  8
_0-4_図面枠
  6
CONTINUOUS
 62
    2
 10
853.28733809898949
 20
120.48235859625129
 11
1202.3496180989878
 21
120.48235859625129
  0
LINE
  8
_0-3_躯体と製品
  6
CONTINUOUS
 62
    3
 10
1285.6930580989756
 20
-291.40018140375832
 11
651.9667980989725
 21
-133.39448140377135
  0
LINE
  8
_0-4_図面枠
  6
CONTINUOUS
 62
    2
 10
684.85537809897323
 20
-171.25036140374868
 11
853.28733809898949
 21
120.48235859625129
  0
TEXT
  8
_0-4_図面枠
 62
    7
 10
478.23033809897424
 20
-349.48078140378857
 40
60
 41
0.8000000000000001
 50
0
  1
妻板補強
  0
LINE
  8
_0-4_図面枠
  6
CONTINUOUS
 62
    2
 10
478.22933809899951
 20
-359.48086140380838
 11
711.76351809898915
 21
-359.48086140380838
  0
LINE
  8
_0-4_図面枠
  6
CONTINUOUS
 62
    2
 10
684.85537809897323
 20
-171.25036140374868
 11
695.20811809898805
 21
-132.61334140380131
  0
LINE
  8
_0-3_躯体と製品
  6
CONTINUOUS
 62
    2
 10
685.98007809897354
 20
-160.64092140378125
 11
682.59315809899817
 21
-174.22506140379846
  0
LINE
  8
_0-3_躯体と製品
  6
CONTINUOUS
 62
    2
 10
677.49453809897204
 20
-165.739541403771
 11
691.0786780989929
 21
-169.12644140380871
  0
LINE
  8
_0-3_躯体と製品
  6
CONTINUOUS
 62
    3
 10
626.96679809897432
 20
-127.9266214037707
 11
651.9667980989725
 21
-133.39448140377135
  0
LINE
  8
_0-3_躯体と製品
  6
CONTINUOUS
 62
    3
 10
626.96679809897432
 20
-112.9266214037707
 11
626.96679809897432
 21
-127.9266214037707
  0
LINE
  8
_0-3_躯体と製品
  6
CONTINUOUS
 62
    2
 10
799.41357809900182
 20
-188.92308140379828
 11
796.02665809899008
 21
-202.50722140375001
  0
LINE
  8
_0-3_躯体と製品
  6
CONTINUOUS
 62
    2
 10
790.92803809900033
 20
-194.02170140378803
 11
804.5121780989848
 21
-197.40860140376026
  0
LINE
  8
_0-3_躯体と製品
  6
CONTINUOUS
 62
    2
 10
919.33021809897582
 20
-218.82166140381014
 11
915.94331809897085
 21
-232.40580140375096
  0
LINE
  8
_0-3_躯体と製品
  6
CONTINUOUS
 62
    2
 10
910.8446980989811
 20
-223.92028140379989
 11
924.42883809900195
 21
-227.30718140376848
  0
LINE
  8
_0-3_躯体と製品
  6
CONTINUOUS
 62
    2
 10
1038.2269980989713
 20
-248.46594140379966
 11
1034.8400980990009
 21
-262.05008140374775
  0
LINE
  8
_0-3_躯体と製品
  6
CONTINUOUS
 62
    2
 10
1029.7414780989766
 20
-253.56456140378941
 11
1043.3256180989974
 21
-256.95148140376841
  0
LINE
  8
_0-4_図面枠
  6
CONTINUOUS
 62
    2
 10
1240.3463980989818
 20
-280.20978140378065
 11
1387.6023180989705
 21
-25.15504140379926
  0
LINE
  8
_0-4_図面枠
  6
CONTINUOUS
 62
    2
 10
1240.3463980989818
 20
-280.20978140378065
 11
1250.6991380990003
 21
-241.57278140376002
  0
TEXT
  8
_0-4_図面枠
 62
    7
 10
2261.5677380989928
 20
-719.26670140377973
 40
60
 41
0.7999999999999982
 50
0
  1
Ａ
  0
TEXT
  8
_0-4_図面枠
 62
    7
 10
2248.2553580990043
 20
-888.55198140375069
 40
60
 41
0.7999999999999999
 50
0
  1
３００
  0
TEXT
  8
_0-4_図面枠
 62
    7
 10
2241.5292780989976
 20
-1031.47878140381
 40
60
 41
0.800000000000001
 50
0
  1
４００
  0
TEXT
  8
_0-4_図面枠
 62
    7
 10
2232.2812380989753
 20
-1177.7686814037806
 40
60
 41
0.7999999999999999
 50
0
  1
４５０
  0
TEXT
  8
_0-4_図面枠
 62
    7
 10
2240.688218098976
 20
-1339.1918614037713
 40
60
 41
0.7999999999999999
 50
0
  1
５００
  0
TEXT
  8
_0-4_図面枠
 62
    7
 10
1990.5789580989858
 20
-1184.3951214037479
 40
60
 41
0.7999999999999982
 50
0
  1
Ｈ
  0
TEXT
  8
_0-4_図面枠
 62
    7
 10
1987.1017980989827
 20
-1038.3421814038084
 40
60
 41
0.7999999999999982
 50
0
  1
Ｈ
  0
TEXT
  8
_0-4_図面枠
 62
    7
 10
1992.6657580989822
 20
-1329.05712140377
 40
60
 41
0.7999999999999982
 50
0
  1
Ｈ
  0
TEXT
  8
_0-4_図面枠
 62
    7
 10
1980.8420180989824
 20
-886.02970140377874
 40
60
 41
0.7999999999999982
 50
0
  1
Ｈ
  0
TEXT
  8
_0-4_図面枠
 62
    7
 10
2632.2812380989753
 20
-1177.7686814037806
 40
60
 41
0.7999999999999999
 50
0
  1
６２５
  0
TEXT
  8
_0-4_図面枠
 62
    7
 10
2640.688218098976
 20
-1339.1918614037713
 40
60
 41
0.7999999999999999
 50
0
  1
６９０
  0
TEXT
  8
_0-4_図面枠
 62
    7
 10
2641.5292780989967
 20
-1031.47878140381
 40
60
 41
0.7999999999999999
 50
0
  1
５６０
  0
TEXT
  8
_0-4_図面枠
 62
    7
 10
2641.5292780989967
 20
-881.47878140380999
 40
60
 41
0.7999999999999999
 50
0
  1
４３０
  0
TEXT
  8
_0-4_図面枠
 62
    7
 10
2662.6608780990036
 20
-724.06056140377041
 40
60
 41
0.7999999999999982
 50
0
  1
Ｉ
  0
LINE
  8
_0-4_図面枠
  6
CONTINUOUS
 62
    3
 10
4229.2653580989918
 20
-1807.6037014038084
 11
4229.2653580989918
 21
-607.60370140380837
  0
LINE
  8
_0-4_図面枠
  6
CONTINUOUS
 62
    2
 10
3679.2653580989918
 20
-607.60370140380837
 11
3679.2653580989918
 21
-1807.6037014038084
  0
LINE
  8
_0-4_図面枠
  6
CONTINUOUS
 62
    2
 10
3279.2653580989927
 20
-607.60370140380837
 11
3279.2653580989927
 21
-1807.6037014038084
  0
LINE
  8
_0-4_図面枠
  6
CONTINUOUS
 62
    2
 10
3929.2653580989918
 20
-607.60370140380837
 11
3929.2653580989918
 21
-1807.6037014038084
  0
TEXT
  8
_0-4_図面枠
 62
    7
 10
3986.8490980990009
 20
-1773.0583614037678
 40
60
 41
0.7999999999999988
 50
0
  1
Ｌ型鋼
  0
TEXT
  8
_0-4_図面枠
 62
    7
 10
3986.8490980990009
 20
-1623.0582814038207
 40
60
 41
0.7999999999999988
 50
0
  1
Ｌ型鋼
  0
TEXT
  8
_0-4_図面枠
 62
    7
 10
3986.8490980990009
 20
-1473.0582814038207
 40
60
 41
0.7999999999999988
 50
0
  1
Ｌ型鋼
  0
TEXT
  8
_0-4_図面枠
 62
    7
 10
3358.8486180989912
 20
-1783.2153814038211
 40
60
 41
0.8000000000000006
 50
0
  1
２３３０
  0
TEXT
  8
_0-4_図面枠
 62
    7
 10
3366.6580580989748
 20
-1477.0277014038111
 40
60
 41
0.8000000000000006
 50
0
  1
１５６０
  0
TEXT
  8
_0-4_図面枠
 62
    7
 10
3358.8486180989912
 20
-1633.2153014037904
 40
60
 41
0.8000000000000006
 50
0
  1
１９４０
  0
TEXT
  8
_0-4_図面枠
 62
    7
 10
2958.8486180989912
 20
-1633.2153014037904
 40
60
 41
0.8000000000000006
 50
0
  1
　１５０
  0
TEXT
  8
_0-4_図面枠
 62
    7
 10
2958.8486180989912
 20
-1783.2153814038211
 40
60
 41
0.8000000000000006
 50
0
  1
　１５０
  0
TEXT
  8
_0-4_図面枠
 62
    7
 10
2966.6580580989748
 20
-1477.0277014038111
 40
60
 41
0.8000000000000006
 50
0
  1
　１５０
  0
TEXT
  8
_0-4_図面枠
 62
    7
 10
3740.6406180989788
 20
-1790.4564414037595
 40
60
 41
0.8000000000000013
 50
0
  1
０．８
  0
TEXT
  8
_0-4_図面枠
 62
    7
 10
3740.6406180989788
 20
-1490.4563614037979
 40
60
 41
0.8000000000000013
 50
0
  1
０．６
  0
TEXT
  8
_0-4_図面枠
 62
    7
 10
3740.6406180989788
 20
-1640.4563614037979
 40
60
 41
0.8000000000000013
 50
0
  1
０．８
  0
TEXT
  8
_0-4_図面枠
 62
    7
 10
3986.8490980990009
 20
-1323.0582814038207
 40
60
 41
0.7999999999999988
 50
0
  1
Ｌ型鋼
  0
TEXT
  8
_0-4_図面枠
 62
    7
 10
3986.8490980990009
 20
-1173.0582814038207
 40
60
 41
0.7999999999999988
 50
0
  1
Ｌ型鋼
  0
TEXT
  8
_0-4_図面枠
 62
    7
 10
3385.2267980989836
 20
-1037.8714414037895
 40
60
 41
0.8000000000000006
 50
0
  1
１０４０
  0
TEXT
  8
_0-4_図面枠
 62
    7
 10
3379.8227380989838
 20
-1183.9448214038093
 40
60
 41
0.8000000000000006
 50
0
  1
１１７０
  0
TEXT
  8
_0-4_図面枠
 62
    7
 10
3375.3348180989906
 20
-1327.7818014037912
 40
60
 41
0.8000000000000006
 50
0
  1
１３００
  0
TEXT
  8
_0-4_図面枠
 62
    7
 10
3441.5292780989967
 20
-881.47878140380999
 40
60
 41
0.7999999999999988
 50
0
  1
７８０
  0
TEXT
  8
_0-4_図面枠
 62
    7
 10
2975.3348180989897
 20
-1327.7818014037912
 40
60
 41
0.7999999999999993
 50
0
  1
　１００
  0
TEXT
  8
_0-4_図面枠
 62
    7
 10
2975.3348180989897
 20
-1177.7818014037912
 40
60
 41
0.7999999999999993
 50
0
  1
　１００
  0
TEXT
  8
_0-4_図面枠
 62
    7
 10
2975.3348180989897
 20
-1027.781881403811
 40
60
 41
0.7999999999999993
 50
0
  1
　１００
  0
TEXT
  8
_0-4_図面枠
 62
    7
 10
2975.3348180989897
 20
-877.78188140381826
 40
60
 41
0.7999999999999993
 50
0
  1
　１００
  0
TEXT
  8
_0-4_図面枠
 62
    7
 10
3082.1310780989998
 20
-716.07076140377831
 40
60
 41
0.8000000000000058
 50
0
  1
Ｊ
  0
TEXT
  8
_0-4_図面枠
 62
    7
 10
3482.1310780990007
 20
-716.07076140377831
 40
60
 41
0.7999999999999982
 50
0
  1
Ｅ
  0
TEXT
  8
_0-4_図面枠
 62
    7
 10
3740.6406180989788
 20
-1040.4564414037486
 40
60
 41
0.8000000000000013
 50
0
  1
０．６
  0
TEXT
  8
_0-4_図面枠
 62
    7
 10
3740.6406180989788
 20
-1190.4563614037979
 40
60
 41
0.8000000000000013
 50
0
  1
０．６
  0
TEXT
  8
_0-4_図面枠
 62
    7
 10
3740.6406180989788
 20
-1340.4563614037979
 40
60
 41
0.8000000000000013
 50
0
  1
０．６
  0
TEXT
  8
_0-4_図面枠
 62
    7
 10
4017.9135580989805
 20
-1031.7264214037496
 40
60
 41
0.7999999999999982
 50
0
  1
ＦＢ
  0
TEXT
  8
_0-4_図面枠
 62
    7
 10
3736.2106780989698
 20
-724.85966140377786
 40
60
 41
0.800000000000002
 50
0
  1
板厚
  0
TEXT
  8
_0-4_図面枠
 62
    7
 10
3740.6406180989788
 20
-890.45644140375953
 40
60
 41
0.8000000000000013
 50
0
  1
０．６
  0
TEXT
  8
_0-4_図面枠
 62
    7
 10
4010.2646380989872
 20
-724.06056140377041
 40
60
 41
0.800000000000002
 50
0
  1
支柱
  0
TEXT
  8
_0-4_図面枠
 62
    7
 10
4017.9135580989805
 20
-881.72642140374955
 40
60
 41
0.7999999999999982
 50
0
  1
ＦＢ
  0
TEXT
  8
_0-4_図面枠
 62
    7
 10
2875.7468180989872
 20
787.43785859622221
 40
60
 41
0.7999999999999999
 50
0
  1
ＳＣ６００Ｈ
  0
LINE
  8
_0-3_躯体と製品
  6
PLINE5
 62
    2
 10
2562.9539180990005
 20
1590.8065385962
 11
3018.2562180990044
 21
1704.3261385961996
  0
LINE
  8
_0-3_躯体と製品
  6
PLINE5
 62
    2
 10
3018.2562180990044
 20
1323.5277385962108
 11
2724.2562180989898
 21
1323.5277385962108
  0
LINE
  8
_0-3_躯体と製品
  6
CONTINUOUS
 62
    4
 10
3018.2562180990044
 20
1713.6016785962202
 11
2561.4914580989989
 21
1599.7174185962394
  0
LINE
  8
_0-3_躯体と製品
  6
CONTINUOUS
 62
    2
 10
3018.2562180990044
 20
1289.5277385961999
 11
2742.7949980989706
 21
1289.5277385961999
  0
LINE
  8
_0-3_躯体と製品
  6
CONTINUOUS
 62
    2
 10
3018.2562180990044
 20
1329.5277385961999
 11
2740.520798098979
 21
1329.5277385961999
  0
LINE
  8
_0-3_躯体と製品
  6
CONTINUOUS
 62
    2
 10
3018.2562180990044
 20
1710.509838596241
 11
2562.2172180989846
 21
1596.8065385961891
  0
LINE
  8
_0-3_躯体と製品
  6
CONTINUOUS
 62
    2
 10
3018.2562180990044
 20
1669.2852785961913
 11
2746.1577580989879
 21
1601.4435185961811
  0
LINE
  8
_0-3_躯体と製品
  6
PLINE2
 62
    3
 10
3018.2562180990044
 20
1090.1955185961997
 11
2348.1770180990043
 21
889.17175859625058
  0
LINE
  8
_0-3_躯体と製品
  6
PLINE2
 62
    3
 10
1106.2894780989791
 20
1070.0819385962423
 11
1724.3686780989719
 21
884.65817859618983
  0
LINE
  8
_0-3_躯体と製品
  6
CONTINUOUS
 62
    2
 10
1432.2894780990009
 20
1195.4834785961903
 11
1781.9431580989731
 21
1326.6036185962512
  0
LINE
  8
_0-3_躯体と製品
  6
CONTINUOUS
 62
    2
 10
1355.2894780989936
 20
1879.0738385962104
 11
1739.6621180989951
 21
1783.2389785962514
  0
LINE
  8
_0-3_躯体と製品
  6
PLINE2
 62
    2
 10
1483.3364580989928
 20
1560.6375585961796
 11
1734.8886380989916
 21
1560.6375585961796
  0
LINE
  8
_0-3_躯体と製品
  6
PLINE2
 62
    2
 10
1480.0212780990023
 20
1533.6375585962087
 11
1734.8886380989916
 21
1533.6375585962087
  0
LINE
  8
_0-3_躯体と製品
  6
PLINE2
 62
    2
 10
1483.7048180989841
 20
1563.6375585962087
 11
1734.8886380989916
 21
1563.6375585962087
  0
LINE
  8
_0-3_躯体と製品
  6
CONTINUOUS
 62
    2
 10
1432.2894780990009
 20
973.32597859622911
 11
1432.2894780990009
 21
1195.4834785961903
  0
LINE
  8
_0-3_躯体と製品
  6
PLINE5
 62
    2
 10
1325.2894780989918
 20
1206.9126785962508
 11
1325.2894780989918
 21
1005.4259785962313
  0
LINE
  8
_0-3_躯体と製品
  6
PLINE5
 62
    2
 10
1355.2894780989936
 20
1206.9126785962508
 11
1355.2894780989936
 21
996.42597859620946
  0
LINE
  8
_0-3_躯体と製品
  6
PLINE2
 62
    2
 10
1352.2894780990009
 20
1206.9126785962508
 11
1352.2894780990009
 21
997.32597859625093
  0
LINE
  8
_0-3_躯体と製品
  6
CONTINUOUS
 62
    2
 10
847.2894780989991
 20
1303.8585385962215
 11
847.2894780989991
 21
1123.1629185961792
  0
LINE
  8
_0-3_躯体と製品
  6
CONTINUOUS
 62
    4
 10
856.28947809897909
 20
1345.4787585961894
 11
856.28947809897909
 21
996.1259785962211
  0
LINE
  8
_0-3_躯体と製品
  6
PLINE3
 62
    2
 10
1106.2894780989791
 20
1941.1565185962318
 11
1106.2894780989791
 21
992.97511859620136
  0
LINE
  8
_0-3_躯体と製品
  6
PLINE2
 62
    2
 10
860.28947809899546
 20
1564.7366785962113
 11
860.28947809899546
 21
996.28193859619205
  0
LINE
  8
_0-3_躯体と製品
  6
CONTINUOUS
 62
    2
 10
887.28947809900092
 20
1600.0430985961902
 11
887.28947809900092
 21
1004.3819385962415
  0
LINE
  8
_0-3_躯体と製品
  6
CONTINUOUS
 62
    2
 10
857.28947809900092
 20
1592.5632585962521
 11
857.28947809900092
 21
995.38193859623061
  0
TEXT
  8
_0-4_図面枠
 62
    7
 10
959.35337809899283
 20
788.34299859625025
 40
60
 41
0.8000000000000001
 50
0
  1
ＳＣ５００Ｈ
  0
LINE
  8
_0-3_躯体と製品
  6
PLINE2
 62
    3
 10
1106.2894780989791
 20
1070.0819385962423
 11
488.21027809898806
 21
884.65817859618983
  0
LINE
  8
_0-3_躯体と製品
  6
CONTINUOUS
 62
    4
 10
856.28947809897909
 20
996.1259785962211
 11
664.43927809897104
 21
938.57091859621141
  0
LINE
  8
_0-3_躯体と製品
  6
CONTINUOUS
 62
    4
 10
664.59277809898595
 20
938.05921859621958
 11
681.28411809898535
 21
943.06661859625092
  0
LINE
  8
_0-3_躯体と製品
  6
CONTINUOUS
 62
    4
 10
664.43927809897104
 20
938.57091859621141
 11
664.59277809898595
 21
938.05921859621958
  0
LINE
  8
_0-3_躯体と製品
  6
CONTINUOUS
 62
    2
 10
847.2894780989991
 20
1123.1629185961792
 11
857.28947809900092
 21
1123.1629185961792
  0
LINE
  8
_0-3_躯体と製品
  6
CONTINUOUS
 62
    2
 10
840.7305180989988
 20
1165.6550985962313
 11
869.45711809897148
 21
1165.6550985962313
  0
LINE
  8
_0-3_躯体と製品
  6
CONTINUOUS
 62
    4
 10
1106.2894780989791
 20
1071.1259785962211
 11
1548.1396980989939
 21
938.57091859621141
  0
LINE
  8
_0-3_躯体と製品
  6
CONTINUOUS
 62
    4
 10
1547.9861780989722
 20
938.05921859621958
 11
1531.2948380989765
 21
943.06661859625092
  0
LINE
  8
_0-3_躯体と製品
  6
CONTINUOUS
 62
    4
 10
1548.1396980989939
 20
938.57091859621141
 11
1547.9861780989722
 21
938.05921859621958
  0
LINE
  8
_0-3_躯体と製品
  6
CONTINUOUS
 62
    2
 10
1106.2894780989791
 20
1315.6550985962313
 11
873.76593809897713
 21
1315.6550985962313
  0
LINE
  8
_0-3_躯体と製品
  6
CONTINUOUS
 62
    4
 10
728.87413809897225
 20
1564.6681585962215
 11
1106.2894780989791
 21
1658.768378596189
  0
LINE
  8
_0-3_躯体と製品
  6
CONTINUOUS
 62
    2
 10
728.87413809897225
 20
1563.6375585962087
 11
1106.2894780989791
 21
1657.7377585962422
  0
LINE
  8
_0-3_躯体と製品
  6
CONTINUOUS
 62
    2
 10
732.55767809899226
 20
1533.6375585962087
 11
1106.2894780989791
 21
1626.819358596229
  0
LINE
  8
_0-3_躯体と製品
  6
PLINE2
 62
    2
 10
729.24249809900175
 20
1560.6375585961796
 11
1106.2894780989791
 21
1654.6459185961903
  0
LINE
  8
_0-3_躯体と製品
  6
CONTINUOUS
 62
    2
 10
1106.2894780989791
 20
1345.6550985962313
 11
876.10373809900011
 21
1345.6550985962313
  0
LINE
  8
_0-3_躯体と製品
  6
PLINE2
 62
    2
 10
1106.2894780989791
 20
1342.6550985962022
 11
860.28947809899546
 21
1342.6550985962022
  0
LINE
  8
_0-3_躯体と製品
  6
PLINE2
 62
    5
 10
713.26785809897774
 20
1613.2495385961811
 11
687.67711809897264
 21
1587.6587985962105
  0
LINE
  8
_0-3_躯体と製品
  6
PLINE2
 62
    5
 10
715.07169809897096
 20
1632.7310585962296
 11
493.72073809899121
 21
1411.3800785962412
  0
LINE
  8
_0-3_躯体と製品
  6
PLINE2
 62
    5
 10
716.87553809900237
 20
1652.2125585962021
 11
495.52457809898442
 21
1430.8615985962097
  0
LINE
  8
_0-3_躯体と製品
  6
PLINE2
 62
    5
 10
718.67937809899377
 20
1671.6940785962397
 11
497.32841809897945
 21
1450.3431185961817
  0
LINE
  8
_0-3_躯体と製品
  6
PLINE2
 62
    5
 10
720.48323809899557
 20
1691.1755985962118
 11
499.13225809897085
 21
1469.8246185962198
  0
LINE
  8
_0-3_躯体と製品
  6
PLINE2
 62
    5
 10
722.28707809898879
 20
1710.6570985962499
 11
500.93609809900227
 21
1489.3061385961992
  0
LINE
  8
_0-3_躯体と製品
  6
PLINE2
 62
    5
 10
724.090918098982
 20
1730.1386185962219
 11
502.73995809900043
 21
1508.7876585962404
  0
LINE
  8
_0-3_躯体と製品
  6
PLINE2
 62
    5
 10
725.89475809897522
 20
1749.6201385961904
 11
504.54379809899183
 21
1528.2691585962093
  0
LINE
  8
_0-3_躯体と製品
  6
PLINE2
 62
    5
 10
727.69859809896843
 20
1769.1016385962321
 11
506.34763809898686
 21
1547.7506785962505
  0
LINE
  8
_0-3_躯体と製品
  6
PLINE2
 62
    5
 10
729.50245809900298
 20
1788.5831585962114
 11
508.15147809898008
 21
1567.232198596219
  0
LINE
  8
_0-3_躯体と製品
  6
PLINE2
 62
    5
 10
708.54573809897374
 20
1785.3040985962216
 11
509.95531809897329
 21
1586.7136985961915
  0
LINE
  8
_0-3_躯体と製品
  6
PLINE2
 62
    5
 10
684.99659809897821
 20
1779.4326585962408
 11
511.75917809897328
 21
1606.1952185962291
  0
LINE
  8
_0-3_躯体と製品
  6
CONTINUOUS
 62
    2
 10
730.86413809897749
 20
1803.2894585962422
 11
690.07923809897875
 21
1362.8123985961902
  0
LINE
  8
_0-3_躯体と製品
  6
CONTINUOUS
 62
    2
 10
524.08487809897451
 20
1739.3128585962113
 11
489.2738980989725
 21
1363.3543585962398
  0
LINE
  8
_0-3_躯体と製品
  6
CONTINUOUS
 62
    2
 10
777.39701809899088
 20
1228.6081785962306
 11
773.88577809898379
 21
1219.2448785961897
  0
LINE
  8
_0-3_躯体と製品
  6
PLINE2
 62
    5
 10
766.13583809898955
 20
1259.5311185962491
 11
820.50677809899753
 21
1313.9020585961916
  0
LINE
  8
_0-3_躯体と製品
  6
PLINE2
 62
    5
 10
753.27935809898008
 20
1264.3523185961822
 11
807.65029809898988
 21
1318.7232385961906
  0
LINE
  8
_0-3_躯体と製品
  6
PLINE2
 62
    5
 10
740.42287809897243
 20
1269.1734985961812
 11
794.79379809897182
 21
1323.5444185961787
  0
LINE
  8
_0-3_躯体と製品
  6
PLINE2
 62
    5
 10
727.56637809898893
 20
1273.9946785961802
 11
781.93731809899873
 21
1328.3655985961814
  0
LINE
  8
_0-3_躯体と製品
  6
CONTINUOUS
 62
    2
 10
690.07923809897875
 20
1362.8123985961902
 11
847.2894780989991
 21
1303.8585385962215
  0
LINE
  8
_0-3_躯体と製品
  6
CONTINUOUS
 62
    2
 10
489.2738980989725
 20
1363.3543585962398
 11
817.82317809897904
 21
1240.1483785962519
  0
LINE
  8
_0-3_躯体と製品
  6
CONTINUOUS
 62
    4
 10
849.78947809900092
 20
1496.3618385962509
 11
773.18503809899084
 21
1432.0830785962389
  0
LINE
  8
_0-3_躯体と製品
  6
PLINE2
 62
    5
 10
693.42557809900427
 20
1398.9528985962315
 11
611.85799809899618
 21
1317.3853185961816
  0
LINE
  8
_0-3_躯体と製品
  6
PLINE2
 62
    5
 10
695.22941809899748
 20
1418.4343985962005
 11
599.00151809898489
 21
1322.2064985962497
  0
LINE
  8
_0-3_躯体と製品
  6
PLINE2
 62
    5
 10
697.03325809898888
 20
1437.9159185962417
 11
586.14501809900503
 21
1327.0276785962487
  0
LINE
  8
_0-3_躯体と製品
  6
PLINE2
 62
    5
 10
706.05247809899993
 20
1535.3234785962304
 11
521.86259809898729
 21
1351.1335985961814
  0
LINE
  8
_0-3_躯体と製品
  6
PLINE2
 62
    5
 10
707.85631809899314
 20
1554.8049985961989
 11
509.00609809896923
 21
1355.9547785962604
  0
LINE
  8
_0-3_躯体と製品
  6
PLINE2
 62
    5
 10
709.66015809898818
 20
1574.286518596251
 11
496.14961809899796
 21
1360.7759585962522
  0
LINE
  8
_0-3_躯体と製品
  6
PLINE2
 62
    5
 10
686.26243809899279
 20
1568.5664585962295
 11
490.113038098998
 21
1372.4170585962311
  0
LINE
  8
_0-3_躯体と製品
  6
PLINE2
 62
    5
 10
674.57143809900117
 20
1574.5531185961991
 11
491.91687809899122
 21
1391.8985785961995
  0
LINE
  8
_0-3_躯体と製品
  6
PLINE2
 62
    5
 10
573.28853809899556
 20
1331.8488585962514
 11
698.83709809898392
 21
1457.3974385962101
  0
LINE
  8
_0-3_躯体と製品
  6
PLINE2
 62
    5
 10
560.43205809898609
 20
1336.6700385962504
 11
700.6409580989839
 21
1476.8789385962518
  0
LINE
  8
_0-3_躯体と製品
  6
PLINE2
 62
    5
 10
547.57555809896985
 20
1341.4912385961798
 11
702.44479809897894
 21
1496.3604585962203
  0
LINE
  8
_0-3_躯体と製品
  6
PLINE2
 62
    5
 10
534.71907809899494
 20
1346.3124185961788
 11
704.24863809897033
 21
1515.8419785961887
  0
LINE
  8
_0-3_躯体と製品
  6
CONTINUOUS
 62
    2
 10
524.58813809898129
 20
1323.4114985962296
 11
521.0768980989742
 21
1314.0482185961919
  0
LINE
  8
_0-3_躯体と製品
  6
PLINE2
 62
    5
 10
701.85339809900142
 20
1283.6370385961818
 11
710.51701809897168
 21
1292.3006585961921
  0
LINE
  8
_0-3_躯体と製品
  6
PLINE2
 62
    5
 10
714.70989809898128
 20
1278.8158585961792
 11
769.08081809898249
 21
1333.1867985961908
  0
LINE
  8
_0-3_躯体と製品
  6
PLINE2
 62
    5
 10
688.99691809899196
 20
1288.4582185962499
 11
708.77851809897948
 21
1308.2398185962411
  0
LINE
  8
_0-3_躯体と製品
  6
CONTINUOUS
 62
    2
 10
650.99257809898336
 20
1276.0098385961901
 11
647.48133809897809
 21
1266.6465385962292
  0
LINE
  8
_0-3_躯体と製品
  6
PLINE2
 62
    5
 10
676.14043809898249
 20
1293.2793985962489
 11
730.51135809898551
 21
1347.6503385961914
  0
LINE
  8
_0-3_躯体と製品
  6
PLINE2
 62
    5
 10
663.28393809900263
 20
1298.1005785962516
 11
717.65487809897422
 21
1352.4715185961904
  0
LINE
  8
_0-3_躯体と製品
  6
PLINE2
 62
    5
 10
650.42745809899316
 20
1302.921778596181
 11
704.79839809900113
 21
1357.2926985961894
  0
LINE
  8
_0-3_躯体と製品
  6
PLINE2
 62
    5
 10
637.57097809898187
 20
1307.74295859618
 11
691.94189809898489
 21
1362.1138785961812
  0
LINE
  8
_0-3_躯体と製品
  6
PLINE2
 62
    5
 10
691.62173809897467
 20
1379.4713785961794
 11
624.71447809900383
 21
1312.564138596179
  0
LINE
  8
_0-3_躯体と製品
  6
PLINE2
 62
    5
 10
724.84909809899364
 20
1306.6327385962104
 11
756.2243380989712
 21
1338.0079785961898
  0
LINE
  8
_0-3_躯体と製品
  6
PLINE2
 62
    5
 10
723.9618580989827
 20
1323.4231585962516
 11
743.36785809899993
 21
1342.8291585961888
  0
LINE
  8
_0-3_躯体と製品
  6
PLINE2
 62
    2
 10
729.24249809900175
 20
1560.6375585961796
 11
477.69031809900298
 21
1560.6375585961796
  0
LINE
  8
_0-3_躯体と製品
  6
CONTINUOUS
 62
    2
 10
732.55767809899226
 20
1533.6375585962087
 11
477.69031809900298
 21
1533.6375585962087
  0
LINE
  8
_0-3_躯体と製品
  6
CONTINUOUS
 62
    2
 10
728.87413809897225
 20
1563.6375585962087
 11
477.69031809900298
 21
1563.6375585962087
  0
LINE
  8
_0-3_躯体と製品
  6
CONTINUOUS
 62
    2
 10
493.13997809897955
 20
1553.33407859621
 11
491.71273809900413
 21
1539.4070185962191
  0
LINE
  8
_0-3_躯体と製品
  6
CONTINUOUS
 62
    2
 10
485.46281809899483
 20
1547.0841785962402
 11
499.38987809898208
 21
1545.6569385961993
  0
LINE
  8
_0-3_躯体と製品
  6
CONTINUOUS
 62
    2
 10
469.0687580989761
 20
1524.7557785962017
 11
479.02617809900221
 21
1523.8337985962207
  0
LINE
  8
_0-3_躯体と製品
  6
CONTINUOUS
 62
    4
 10
773.18503809899084
 20
1432.0830785962389
 11
773.18503809899084
 21
1412.0830785962316
  0
LINE
  8
_0-3_躯体と製品
  6
PLINE2
 62
    5
 10
711.46401809898634
 20
1593.768018596209
 11
693.98531809899396
 21
1576.2893385962307
  0
LINE
  8
_0-3_躯体と製品
  6
CONTINUOUS
 62
    2
 10
765.3516580989799
 20
1578.4226185962107
 11
768.23229809898294
 21
1566.8690385962509
  0
LINE
  8
_0-3_躯体と製品
  6
CONTINUOUS
 62
    4
 10
728.87413809897225
 20
1564.6681585962215
 11
728.87413809897225
 21
1549.6681585962215
  0
LINE
  8
_0-3_躯体と製品
  6
PLINE2
 62
    5
 10
791.84881809897888
 20
1249.888758596182
 11
846.21975809898686
 21
1304.25969859619
  0
LINE
  8
_0-3_躯体と製品
  6
PLINE2
 62
    5
 10
778.99233809896941
 20
1254.709938596181
 11
833.3632580989688
 21
1309.080878596189
  0
LINE
  8
_0-3_躯体と製品
  6
CONTINUOUS
 62
    2
 10
847.2894780989991
 20
1229.0985185962018
 11
857.28947809900092
 21
1229.0985185962018
  0
LINE
  8
_0-3_躯体と製品
  6
CONTINUOUS
 62
    2
 10
807.28993809897474
 20
1212.0583185962205
 11
847.2894780989991
 21
1197.0584985962087
  0
LINE
  8
_0-3_躯体と製品
  6
CONTINUOUS
 62
    4
 10
807.28947809900092
 20
1212.0584985962087
 11
807.28947809900092
 21
1193.3084985962087
  0
LINE
  8
_0-3_躯体と製品
  6
PLINE2
 62
    2
 10
808.34329809898009
 20
1214.8673185961998
 11
847.2894780989991
 21
1200.2624985962502
  0
LINE
  8
_0-3_躯体と製品
  6
CONTINUOUS
 62
    2
 10
817.82363809898925
 20
1240.1481985961909
 11
847.2894780989991
 21
1229.0985185962018
  0
LINE
  8
_0-3_躯体と製品
  6
CONTINUOUS
 62
    4
 10
808.28947809898636
 20
1193.3084985962087
 11
808.28947809898636
 21
1200.3084985962487
  0
LINE
  8
_0-3_躯体と製品
  6
CONTINUOUS
 62
    4
 10
807.28947809900092
 20
1193.3084985962087
 11
808.28947809898636
 21
1193.3084985962087
  0
LINE
  8
_0-3_躯体と製品
  6
PLINE2
 62
    5
 10
843.27475809898715
 20
1230.6040385961896
 11
847.2894780989991
 21
1234.6187385962294
  0
LINE
  8
_0-3_躯体と製品
  6
PLINE2
 62
    5
 10
830.41827809897768
 20
1235.4252185961923
 11
847.2894780989991
 21
1252.2964185962119
  0
LINE
  8
_0-3_躯体と製品
  6
PLINE2
 62
    5
 10
817.56179809900459
 20
1240.2463985961804
 11
847.2894780989991
 21
1269.9740785962495
  0
LINE
  8
_0-3_躯体と製品
  6
PLINE2
 62
    5
 10
804.70529809898835
 20
1245.0675785961794
 11
847.2894780989991
 21
1287.651758596232
  0
LINE
  8
_0-3_躯体と製品
  6
CONTINUOUS
 62
    4
 10
827.74523809896709
 20
1340.4456385961894
 11
856.28947809897909
 21
1345.4787585961894
  0
LINE
  8
_0-3_躯体と製品
  6
CONTINUOUS
 62
    2
 10
868.11165809899649
 20
1315.6550985962313
 11
860.28947809899546
 21
1315.6550985962313
  0
LINE
  8
_0-3_躯体と製品
  6
CONTINUOUS
 62
    2
 10
873.7140780989921
 20
1336.9123385962012
 11
873.7140780989921
 21
1322.9123385961902
  0
LINE
  8
_0-3_躯体と製品
  6
CONTINUOUS
 62
    2
 10
866.71407809898483
 20
1329.9123385962303
 11
880.71407809899938
 21
1329.9123385962303
  0
LINE
  8
_0-3_躯体と製品
  6
CONTINUOUS
 62
    2
 10
869.50859809897338
 20
1345.6550985962313
 11
860.28947809899546
 21
1345.6550985962313
  0
LINE
  8
_0-3_躯体と製品
  6
CONTINUOUS
 62
    4
 10
849.78947809900092
 20
1516.3618385962509
 11
849.78947809900092
 21
1496.3618385962509
  0
LINE
  8
_0-3_躯体と製品
  6
CONTINUOUS
 62
    3
 10
854.28947809897181
 20
1513.7388785962394
 11
854.28947809897181
 21
1500.1377985962317
  0
LINE
  8
_0-3_躯体と製品
  6
CONTINUOUS
 62
    2
 10
851.08929809898655
 20
1413.4560585962499
 11
862.1427980990029
 21
1413.4560585962499
  0
LINE
  8
_0-3_躯体と製品
  6
CONTINUOUS
 62
    3
 10
787.02807809898331
 20
1439.7825385962387
 11
857.28947809900092
 21
1420.9560585962499
  0
LINE
  8
_0-3_躯体と製品
  6
CONTINUOUS
 62
    3
 10
857.28947809900092
 20
1498.7388785962394
 11
787.02807809898331
 21
1439.7825385962387
  0
LINE
  8
_0-3_躯体と製品
  6
CONTINUOUS
 62
    3
 10
854.28947809897181
 20
1418.6540785961988
 11
780.68503809899084
 21
1438.3763385961793
  0
LINE
  8
_0-3_躯体と製品
  6
CONTINUOUS
 62
    3
 10
780.68503809899084
 20
1438.3763385961793
 11
854.28947809897181
 21
1500.1377985962317
  0
LINE
  8
_0-3_躯体と製品
  6
CONTINUOUS
 62
    2
 10
812.72547809897333
 20
1478.3155385961909
 11
825.58123809899371
 21
1462.9946385961921
  0
LINE
  8
_0-3_躯体と製品
  6
CONTINUOUS
 62
    3
 10
854.28947809897181
 20
1405.9560585962499
 11
854.28947809897181
 21
1418.6540785961988
  0
LINE
  8
_0-3_躯体と製品
  6
CONTINUOUS
 62
    3
 10
857.28947809900092
 20
1405.9560585962499
 11
854.28947809897181
 21
1405.9560585962499
  0
LINE
  8
_0-3_躯体と製品
  6
CONTINUOUS
 62
    2
 10
851.19571809899753
 20
1506.2388785962394
 11
862.51657809897551
 21
1506.2388785962394
  0
LINE
  8
_0-3_躯体と製品
  6
CONTINUOUS
 62
    2
 10
872.10241809897525
 20
1591.0523385962515
 11
872.10241809897525
 21
1577.0523385962297
  0
LINE
  8
_0-3_躯体と製品
  6
CONTINUOUS
 62
    2
 10
865.10241809900435
 20
1584.0523385962006
 11
879.10241809898253
 21
1584.0523385962006
  0
LINE
  8
_0-3_躯体と製品
  6
CONTINUOUS
 62
    3
 10
857.28947809900092
 20
1513.7388785962394
 11
854.28947809897181
 21
1513.7388785962394
  0
LINE
  8
_0-3_躯体と製品
  6
PLINE2
 62
    2
 10
857.28947809900092
 20
1564.7366785962113
 11
860.28947809899546
 21
1564.7366785962113
  0
LINE
  8
_0-3_躯体と製品
  6
CONTINUOUS
 62
    4
 10
857.28947809900092
 20
1853.3084985962087
 11
496.17503809898153
 21
1763.2725585961889
  0
LINE
  8
_0-3_躯体と製品
  6
PLINE2
 62
    2
 10
858.01523809898754
 20
1850.397618596231
 11
498.9660180989722
 21
1760.8765785961914
  0
LINE
  8
_0-3_躯体と製品
  6
CONTINUOUS
 62
    2
 10
864.54713809899658
 20
1824.1996185962198
 11
524.08487809897451
 21
1739.3128585962113
  0
LINE
  8
_0-3_躯体と製品
  6
PLINE2
 62
    5
 10
661.44747809898945
 20
1773.5611985961914
 11
513.56301809900287
 21
1625.6767385962121
  0
LINE
  8
_0-3_躯体と製品
  6
PLINE2
 62
    5
 10
637.89835809900069
 20
1767.6897385962111
 11
515.36685809899609
 21
1645.1582385962392
  0
LINE
  8
_0-3_躯体と製品
  6
PLINE2
 62
    5
 10
614.34921809896878
 20
1761.8182785962308
 11
517.17069809898931
 21
1664.6397585962113
  0
LINE
  8
_0-3_躯体と製品
  6
PLINE2
 62
    5
 10
590.8000980989782
 20
1755.9468185962505
 11
518.97453809898252
 21
1684.1212785961907
  0
LINE
  8
_0-3_躯体と製品
  6
PLINE2
 62
    5
 10
567.25097809899125
 20
1750.0753585962011
 11
520.77837809897574
 21
1703.6027785962215
  0
LINE
  8
_0-3_躯体と製品
  6
PLINE2
 62
    5
 10
543.7018380989939
 20
1744.2039185962203
 11
522.5822380989739
 21
1723.0842985962008
  0
LINE
  8
_0-3_躯体と製品
  6
CONTINUOUS
 62
    2
 10
535.99811809896892
 20
1777.8611585962499
 11
538.87873809899975
 21
1766.307578596221
  0
LINE
  8
_0-3_躯体と製品
  6
CONTINUOUS
 62
    2
 10
487.50841809897793
 20
1723.903918596232
 11
497.46581809899908
 21
1722.981938596251
  0
LINE
  8
_0-3_躯体と製品
  6
CONTINUOUS
 62
    2
 10
732.32431809897207
 20
1819.0593385962493
 11
731.4822380989699
 21
1809.96483859625
  0
LINE
  8
_0-3_躯体と製品
  6
CONTINUOUS
 62
    2
 10
827.08683809897593
 20
1850.4377185962003
 11
829.9674580989722
 21
1838.8841385962296
  0
LINE
  8
_0-3_躯体と製品
  6
CONTINUOUS
 62
    2
 10
857.28947809900092
 20
1853.3084985962087
 11
864.54713809899658
 21
1824.1996185962198
  0
LINE
  8
_0-3_躯体と製品
  6
CONTINUOUS
 62
    4
 10
857.28947809900092
 20
1883.3084985962087
 11
857.28947809900092
 21
1853.3084985962087
  0
LINE
  8
_0-3_躯体と製品
  6
CONTINUOUS
 62
    4
 10
858.28947809898636
 20
1883.3084985962087
 11
857.28947809900092
 21
1883.3084985962087
  0
LINE
  8
_0-3_躯体と製品
  6
CONTINUOUS
 62
    4
 10
858.28947809898636
 20
1873.3084985962087
 11
858.28947809898636
 21
1883.3084985962087
  0
LINE
  8
_0-3_躯体と製品
  6
PLINE2
 62
    2
 10
1106.2894780989791
 20
1657.7377585962422
 11
1483.7048180989841
 21
1563.6375585962087
  0
LINE
  8
_0-3_躯体と製品
  6
PLINE2
 62
    2
 10
1106.2894780989791
 20
1626.819358596229
 11
1480.0212780990023
 21
1533.6375585962087
  0
LINE
  8
_0-3_躯体と製品
  6
PLINE2
 62
    2
 10
1106.2894780989791
 20
1654.6459185961903
 11
1483.3364580989928
 21
1560.6375585961796
  0
LINE
  8
_0-3_躯体と製品
  6
CONTINUOUS
 62
    2
 10
1287.6603380990036
 20
1604.3262185962303
 11
1284.4447380990005
 21
1590.7005185962516
  0
LINE
  8
_0-3_躯体と製品
  6
CONTINUOUS
 62
    2
 10
1279.239678098993
 20
1599.1211785962296
 11
1292.8653980989748
 21
1595.9055585962487
  0
LINE
  8
_0-3_躯体と製品
  6
PLINE2
 62
    2
 10
1355.2894780989936
 20
1564.7366785962113
 11
1352.2894780990009
 21
1564.7366785962113
  0
LINE
  8
_0-3_躯体と製品
  6
CONTINUOUS
 62
    2
 10
1408.2839780989798
 20
1574.251378596211
 11
1405.0683580989698
 21
1560.6256785962396
  0
LINE
  8
_0-3_躯体と製品
  6
CONTINUOUS
 62
    2
 10
1399.8633180989691
 20
1569.0463385962103
 11
1413.4890180989805
 21
1565.8307185962294
  0
LINE
  8
_0-3_躯体と製品
  6
CONTINUOUS
 62
    2
 10
1176.6507780989832
 20
1632.0040185962389
 11
1173.4351580989733
 21
1618.378318596202
  0
LINE
  8
_0-3_躯体と製品
  6
CONTINUOUS
 62
    2
 10
1168.2301180989743
 20
1626.7989785962491
 11
1181.8558180989839
 21
1623.5833585961991
  0
LINE
  8
_0-3_躯体と製品
  6
CONTINUOUS
 62
    2
 10
1107.2894780990009
 20
1883.3084985962087
 11
1355.2894780989936
 21
1883.3084985962087
  0
LINE
  8
_0-3_躯体と製品
  6
CONTINUOUS
 62
    2
 10
1355.2894780989936
 20
1883.3084985962087
 11
1355.2894780989936
 21
1879.0738385962104
  0
LINE
  8
_0-3_躯体と製品
  6
CONTINUOUS
 62
    2
 10
1540.853258099005
 20
1819.4638185962394
 11
1537.637638098995
 21
1805.8381185961916
  0
LINE
  8
_0-3_躯体と製品
  6
CONTINUOUS
 62
    2
 10
1532.4325980989943
 20
1814.2587785962387
 11
1546.0582980989693
 21
1811.0431585961996
  0
LINE
  8
_0-3_躯体と製品
  6
CONTINUOUS
 62
    2
 10
1661.4768780989743
 20
1789.388978596231
 11
1658.2612580990008
 21
1775.7632785962487
  0
LINE
  8
_0-3_躯体と製品
  6
CONTINUOUS
 62
    2
 10
1653.056218099
 20
1784.1839385962303
 11
1666.6819180989751
 21
1780.9683185962494
  0
LINE
  8
_0-3_躯体と製品
  6
CONTINUOUS
 62
    2
 10
1429.8436980989845
 20
1847.1416185961898
 11
1426.6280780989746
 21
1833.5159185962111
  0
LINE
  8
_0-3_躯体と製品
  6
CONTINUOUS
 62
    2
 10
1421.4230380989738
 20
1841.9365785961891
 11
1435.0487380989853
 21
1838.7209585962191
  0
LINE
  8
_0-3_躯体と製品
  6
PLINE5
 62
    2
 10
2244.6487380989765
 20
1333.9063185962514
 11
2709.3095780989725
 21
1159.658498596229
  0
LINE
  8
_0-3_躯体と製品
  6
CONTINUOUS
 62
    4
 10
2237.1907980989899
 20
1329.2270585961996
 11
2648.7415380989733
 21
1174.8955185962113
  0
LINE
  8
_0-3_躯体と製品
  6
PLINE5
 62
    2
 10
2724.2562180989898
 20
1342.5926985962506
 11
2724.2562180989898
 21
1001.9955185962099
  0
LINE
  8
_0-3_躯体と製品
  6
CONTINUOUS
 62
    2
 10
2708.2562180990035
 20
1049.8955185962113
 11
2708.2562180990035
 21
1281.8055785962206
  0
LINE
  8
_0-3_躯体と製品
  6
CONTINUOUS
 62
    2
 10
2758.2562180990035
 20
1639.5008585961987
 11
2758.2562180990035
 21
1012.1955185962506
  0
LINE
  8
_0-3_躯体と製品
  6
CONTINUOUS
 62
    2
 10
2718.2562180990044
 20
1629.5277385961999
 11
2718.2562180990044
 21
1000.1955185961997
  0
LINE
  8
_0-3_躯体と製品
  6
CONTINUOUS
 62
    3
 10
2238.2562180990044
 20
1329.8955185962113
 11
2708.2562180990035
 21
1153.6455185962222
  0
LINE
  8
_0-3_躯体と製品
  6
CONTINUOUS
 62
    2
 10
2623.6362180989727
 20
1193.3880185962116
 11
2618.3693580989984
 21
1179.34307859619
  0
LINE
  8
_0-3_躯体と製品
  6
CONTINUOUS
 62
    4
 10
2717.2562180989826
 20
1000.9395385961907
 11
2717.2562180989826
 21
1329.5277385961999
  0
LINE
  8
_0-3_躯体と製品
  6
CONTINUOUS
 62
    4
 10
2524.4059980989814
 20
943.084478596189
 11
2717.2562180989826
 21
1000.9395385961907
  0
LINE
  8
_0-3_躯体と製品
  6
CONTINUOUS
 62
    4
 10
2524.5594980989972
 20
942.57279859621121
 11
2541.2508580990016
 21
947.58019859623164
  0
LINE
  8
_0-3_躯体と製品
  6
CONTINUOUS
 62
    4
 10
2524.4059980989814
 20
943.084478596189
 11
2524.5594980989972
 21
942.57279859621121
  0
LINE
  8
_0-3_躯体と製品
  6
CONTINUOUS
 62
    2
 10
2717.2562180989826
 20
1049.8955185962113
 11
2708.2562180990035
 21
1049.8955185962113
  0
LINE
  8
_0-3_躯体と製品
  6
CONTINUOUS
 62
    4
 10
2648.7415380989733
 20
1174.8955185962113
 11
2648.7415380989733
 21
1149.8955185962222
  0
LINE
  8
_0-3_躯体と製品
  6
CONTINUOUS
 62
    4
 10
2649.7415380989969
 20
1149.8955185962222
 11
2648.7415380989733
 21
1149.8955185962222
  0
LINE
  8
_0-3_躯体と製品
  6
CONTINUOUS
 62
    4
 10
2649.7415380989969
 20
1159.8955185962113
 11
2649.7415380989969
 21
1149.8955185962222
  0
LINE
  8
_0-3_躯体と製品
  6
CONTINUOUS
 62
    2
 10
2699.672518098987
 20
1082.8955185962404
 11
2725.1957380989816
 21
1082.8955185962404
  0
LINE
  8
_0-3_躯体と製品
  6
CONTINUOUS
 62
    2
 10
2699.672518098987
 20
1115.8955185962004
 11
2725.1957380989816
 21
1115.8955185962004
  0
LINE
  8
_0-3_躯体と製品
  6
PLINE2
 62
    5
 10
2548.478918098981
 20
1647.0291985961812
 11
2283.1710780989933
 21
1381.7213585962309
  0
LINE
  8
_0-3_躯体と製品
  6
PLINE2
 62
    5
 10
2559.1746580989902
 20
1763.7909585961897
 11
2293.8668180990044
 21
1498.4831185962394
  0
LINE
  8
_0-3_躯体と製品
  6
PLINE2
 62
    5
 10
2562.7398980989792
 20
1802.7115385962388
 11
2297.4320580989943
 21
1537.4036985962193
  0
LINE
  8
_0-3_躯体と製品
  6
PLINE2
 62
    5
 10
2566.3051580989759
 20
1841.6321185962188
 11
2300.9973180989882
 21
1576.3242785961993
  0
LINE
  8
_0-3_躯体と製品
  6
PLINE2
 62
    5
 10
2551.3823380989834
 20
1862.06463859625
 11
2304.5625580989772
 21
1615.2448585962411
  0
LINE
  8
_0-3_躯体と製品
  6
PLINE5
 62
    2
 10
2290.2760380989912
 20
1832.0043985962293
 11
2719.7077380989786
 21
1939.073738596242
  0
LINE
  8
_0-3_躯体と製品
  6
CONTINUOUS
 62
    4
 10
2280.6757580989788
 20
1836.8250785962118
 11
2717.2562180989826
 21
1945.6767985962215
  0
LINE
  8
_0-3_躯体と製品
  6
CONTINUOUS
 62
    3
 10
2718.2562180990044
 20
1944.8955185962113
 11
2284.6897780989739
 21
1836.7952585962194
  0
LINE
  8
_0-3_躯体と製品
  6
CONTINUOUS
 62
    2
 10
2280.8730380989718
 20
1356.6342185962021
 11
2708.2562180990035
 21
1196.3655385961902
  0
LINE
  8
_0-3_躯体と製品
  6
PLINE2
 62
    5
 10
2290.3015780989799
 20
1459.5625185961908
 11
2555.6094180990012
 21
1724.8703585962103
  0
LINE
  8
_0-3_躯体と製品
  6
PLINE2
 62
    5
 10
2290.0121380990004
 20
1353.2070585962101
 11
2544.913678098992
 21
1608.1086185962122
  0
LINE
  8
_0-3_躯体と製品
  6
PLINE2
 62
    2
 10
2539.1507580989764
 20
1556.8065385961891
 11
2265.0670780989731
 21
1556.8065385961891
  0
LINE
  8
_0-3_躯体と製品
  6
PLINE2
 62
    2
 10
2542.8447180989942
 20
1596.8065385961891
 11
2268.7311980990034
 21
1596.8065385961891
  0
LINE
  8
_0-3_躯体と製品
  6
PLINE5
 62
    2
 10
2562.2172180989846
 20
1590.8065385962
 11
2268.1815780989837
 21
1590.8065385962
  0
LINE
  8
_0-3_躯体と製品
  6
CONTINUOUS
 62
    2
 10
2321.9315180989988
 20
1804.8561385962021
 11
2280.8730380989718
 21
1356.6342185962021
  0
LINE
  8
_0-3_躯体と製品
  6
PLINE2
 62
    5
 10
2552.0441780989777
 20
1685.9497785962412
 11
2286.73633809899
 21
1420.6419385962108
  0
LINE
  8
_0-3_躯体と製品
  6
CONTINUOUS
 62
    2
 10
1739.6621180989951
 20
1783.2389785962514
 11
1781.9431580989731
 21
1326.6036185962512
  0
LINE
  8
_0-3_躯体と製品
  6
CONTINUOUS
 62
    3
 10
2284.6897780989739
 20
1836.7952585962194
 11
2238.2562180990044
 21
1329.8955185962113
  0
LINE
  8
_0-3_躯体と製品
  6
PLINE5
 62
    2
 10
2244.6487380989765
 20
1333.9063185962514
 11
2290.2760380989912
 21
1832.0043985962293
  0
LINE
  8
_0-3_躯体と製品
  6
CONTINUOUS
 62
    4
 10
2283.758738098978
 20
1837.5937385962316
 11
2236.9070380989706
 21
1326.1294585962314
  0
LINE
  8
_0-3_躯体と製品
  6
CONTINUOUS
 62
    4
 10
2236.9070380989706
 20
1326.1294585962314
 11
2273.5905780989833
 21
1312.3731185961988
  0
LINE
  8
_0-3_躯体と製品
  6
CONTINUOUS
 62
    2
 10
2295.9209980989817
 20
1316.2812185962393
 11
2290.6541580989779
 21
1302.2362785962214
  0
LINE
  8
_0-3_躯体と製品
  6
CONTINUOUS
 62
    2
 10
2233.891018098976
 20
1364.4598585962121
 11
2248.8284780989752
 21
1363.0915385962508
  0
LINE
  8
_0-3_躯体と製品
  6
CONTINUOUS
 62
    2
 10
2250.3108180989784
 20
1543.7093785962206
 11
2265.2482780989794
 21
1542.3410585961901
  0
LINE
  8
_0-3_躯体と製品
  6
CONTINUOUS
 62
    2
 10
2281.598978098983
 20
1583.8065385962291
 11
2280.3165380989867
 21
1569.8065385962109
  0
LINE
  8
_0-3_躯体と製品
  6
CONTINUOUS
 62
    2
 10
2273.928438098983
 20
1576.8065385961818
 11
2287.9870580989782
 21
1576.8065385961818
  0
LINE
  8
_0-3_躯体と製品
  6
CONTINUOUS
 62
    4
 10
2277.0257780990059
 20
1796.9794785962295
 11
2280.6757580989788
 21
1836.8250785962118
  0
LINE
  8
_0-3_躯体と製品
  6
CONTINUOUS
 62
    2
 10
2270.8355580989783
 20
1767.7712785962394
 11
2285.7730180989811
 21
1766.4029585962016
  0
LINE
  8
_0-3_躯体と製品
  6
CONTINUOUS
 62
    2
 10
2570.0118580989783
 20
1882.096998596222
 11
2521.4406580989735
 21
1351.8613985962002
  0
LINE
  8
_0-3_躯体と製品
  6
CONTINUOUS
 62
    2
 10
2599.2146380989916
 20
1613.7606385961917
 11
2602.8434580989679
 21
1599.2061985961991
  0
LINE
  8
_0-3_躯体と製品
  6
PLINE2
 62
    5
 10
2598.5678180989908
 20
1237.498678596221
 11
2660.7060180989984
 21
1299.636898596189
  0
LINE
  8
_0-3_躯体と製品
  6
PLINE2
 62
    5
 10
2572.8548380990014
 20
1247.1410385962117
 11
2634.9930580989803
 21
1309.2792585961906
  0
LINE
  8
_0-3_躯体と製品
  6
CONTINUOUS
 62
    2
 10
2729.8301380989788
 20
1597.3725785962415
 11
2567.1285980989978
 21
1556.8065385961891
  0
LINE
  8
_0-3_躯体と製品
  6
CONTINUOUS
 62
    2
 10
2708.2562180990035
 20
1281.8055785962206
 11
2521.4406580989735
 21
1351.8613985962002
  0
LINE
  8
_0-3_躯体と製品
  6
PLINE2
 62
    5
 10
2527.0874580990039
 20
1413.505698596251
 11
2418.5769980989699
 21
1304.9952385962097
  0
LINE
  8
_0-3_躯体と製品
  6
PLINE2
 62
    5
 10
2530.6526980989938
 20
1452.426278596231
 11
2392.8640180989796
 21
1314.6375985962113
  0
LINE
  8
_0-3_躯体と製品
  6
PLINE2
 62
    5
 10
2367.1510580989971
 20
1324.2799785962088
 11
2534.2179580989887
 21
1491.3468585962
  0
LINE
  8
_0-3_躯体と製品
  6
PLINE2
 62
    5
 10
2537.7831980989777
 20
1530.2674585961795
 11
2341.4380780989713
 21
1333.9223385962214
  0
LINE
  8
_0-3_躯体と製品
  6
PLINE2
 62
    5
 10
2541.348438099003
 20
1569.1880385962322
 11
2315.7250980989838
 21
1343.5646985962121
  0
LINE
  8
_0-3_躯体と製品
  6
PLINE2
 62
    5
 10
2523.5222180989786
 20
1374.5851185962019
 11
2444.2899780989965
 21
1295.3528785962189
  0
LINE
  8
_0-3_躯体と製品
  6
CONTINUOUS
 62
    2
 10
2459.7786180989988
 20
1254.8346185961891
 11
2454.5117580989872
 21
1240.7896785962403
  0
LINE
  8
_0-3_躯体と製品
  6
PLINE2
 62
    5
 10
2564.0411180990022
 20
1273.6826585962008
 11
2609.2800780989901
 21
1318.9216185961923
  0
LINE
  8
_0-3_躯体と製品
  6
PLINE2
 62
    5
 10
2521.4288980989941
 20
1266.4257785962109
 11
2583.5670980990017
 21
1328.5639785961903
  0
LINE
  8
_0-3_躯体と製品
  6
PLINE2
 62
    5
 10
2495.7159180990038
 20
1276.0681385962089
 11
2557.8541380989836
 21
1338.2063585961914
  0
LINE
  8
_0-3_躯体と製品
  6
PLINE2
 62
    5
 10
2470.0029580989849
 20
1285.7105185962209
 11
2532.1411580989934
 21
1347.8487185961894
  0
LINE
  8
_0-3_躯体と製品
  6
PLINE2
 62
    5
 10
2547.1418780989825
 20
1256.7834185962201
 11
2553.0310180989818
 21
1262.6725585962122
  0
LINE
  8
_0-3_躯体と製品
  6
CONTINUOUS
 62
    2
 10
2567.1285980989978
 20
1556.8065385961891
 11
2540.0880180990043
 21
1556.8065385961891
  0
LINE
  8
_0-3_躯体と製品
  6
CONTINUOUS
 62
    2
 10
2562.2172180989846
 20
1596.8065385961891
 11
2543.396038098972
 21
1596.8065385961891
  0
LINE
  8
_0-3_躯体と製品
  6
CONTINUOUS
 62
    4
 10
2561.4914580989989
 20
1584.7174185962394
 11
2561.4914580989989
 21
1599.7174185962394
  0
LINE
  8
_0-3_躯体と製品
  6
PLINE5
 62
    2
 10
2724.2562180989898
 20
1594.4868785961917
 11
2724.2562180989898
 21
1342.5926985962506
  0
LINE
  8
_0-3_躯体と製品
  6
PLINE2
 62
    5
 10
2675.7067380989874
 20
1208.5715785962093
 11
2708.2562180990035
 21
1241.121058596229
  0
LINE
  8
_0-3_躯体と製品
  6
PLINE2
 62
    5
 10
2649.9937580989999
 20
1218.2139585962213
 11
2708.2562180990035
 21
1276.4763985962491
  0
LINE
  8
_0-3_躯体と製品
  6
PLINE2
 62
    5
 10
2624.2807980989783
 20
1227.8563185962121
 11
2686.4189980989895
 21
1289.9945185961915
  0
LINE
  8
_0-3_躯体と製品
  6
PLINE2
 62
    5
 10
2701.4197180989786
 20
1198.9292185962222
 11
2708.2562180990035
 21
1205.7657185962016
  0
LINE
  8
_0-3_躯体と製品
  6
CONTINUOUS
 62
    2
 10
2736.3703780989717
 20
1289.5277385961999
 11
2721.256218098998
 21
1289.5277385961999
  0
LINE
  8
_0-3_躯体と製品
  6
CONTINUOUS
 62
    2
 10
2708.2562180990035
 20
1196.3655385961902
 11
2717.2562180989826
 21
1196.3655385961902
  0
LINE
  8
_0-3_躯体と製品
  6
CONTINUOUS
 62
    2
 10
2700.6725180989715
 20
1271.8069385962517
 11
2726.1957380990043
 21
1271.8069385962517
  0
LINE
  8
_0-3_躯体と製品
  6
CONTINUOUS
 62
    4
 10
2678.6191780989875
 20
1319.1749785962493
 11
2717.2562180989826
 21
1329.5277385961999
  0
LINE
  8
_0-3_躯体と製品
  6
CONTINUOUS
 62
    2
 10
2733.5844980989987
 20
1329.5277385961999
 11
2721.256218098998
 21
1329.5277385961999
  0
LINE
  8
_0-3_躯体と製品
  6
CONTINUOUS
 62
    2
 10
2738.7051980990045
 20
1317.5172185962292
 11
2738.7051980990045
 21
1303.5172185962219
  0
LINE
  8
_0-3_躯体と製品
  6
CONTINUOUS
 62
    2
 10
2731.7051980989991
 20
1310.5172185961892
 11
2745.7051980989754
 21
1310.5172185961892
  0
LINE
  8
_0-3_躯体と製品
  6
CONTINUOUS
 62
    2
 10
2715.3510180989815
 20
1528.7484185962021
 11
2626.3308780989883
 21
1454.0516385961819
  0
LINE
  8
_0-3_躯体と製品
  6
CONTINUOUS
 62
    4
 10
2708.2562180990035
 20
1522.621658596232
 11
2616.2381380989882
 21
1445.5828385962122
  0
LINE
  8
_0-3_躯体と製品
  6
CONTINUOUS
 62
    2
 10
2718.2562180990044
 20
1527.2699385961896
 11
2632.6739180989798
 21
1455.4578585962518
  0
LINE
  8
_0-3_躯体と製品
  6
CONTINUOUS
 62
    2
 10
2626.3308780989883
 20
1454.0516385961819
 11
2715.2562180989744
 21
1430.2241785962287
  0
LINE
  8
_0-3_躯体と製品
  6
CONTINUOUS
 62
    2
 10
2632.6739180989798
 20
1455.4578585962518
 11
2718.2562180990044
 21
1432.5261585962107
  0
LINE
  8
_0-3_躯体と製品
  6
CONTINUOUS
 62
    4
 10
2616.2562180989953
 20
1425.5979985962513
 11
2616.2562180989953
 21
1445.5979985962513
  0
LINE
  8
_0-3_躯体と製品
  6
CONTINUOUS
 62
    2
 10
2668.5202580989699
 20
1497.0523385962297
 11
2679.6362180989945
 21
1483.804838596232
  0
LINE
  8
_0-3_躯体と製品
  6
CONTINUOUS
 62
    2
 10
2704.5499180989918
 20
1424.5611585962397
 11
2725.2816980989783
 21
1424.5611585962397
  0
LINE
  8
_0-3_躯体と製品
  6
CONTINUOUS
 62
    2
 10
2715.2562180989744
 20
1417.0611585962397
 11
2715.2562180989744
 21
1430.2241785962287
  0
LINE
  8
_0-3_躯体と製品
  6
CONTINUOUS
 62
    2
 10
2718.2562180990044
 20
1417.0611585962397
 11
2715.2562180989744
 21
1417.0611585962397
  0
LINE
  8
_0-3_躯体と製品
  6
CONTINUOUS
 62
    2
 10
2709.7856980989945
 20
1534.0882985962307
 11
2726.517638098986
 21
1534.0882985962307
  0
LINE
  8
_0-3_躯体と製品
  6
CONTINUOUS
 62
    4
 10
2708.2562180990035
 20
1542.5586585962192
 11
2708.2562180990035
 21
1522.621658596232
  0
LINE
  8
_0-3_躯体と製品
  6
CONTINUOUS
 62
    2
 10
2715.2562180989744
 20
1541.5882985962307
 11
2715.2562180989744
 21
1528.668858596182
  0
LINE
  8
_0-3_躯体と製品
  6
CONTINUOUS
 62
    2
 10
2718.2562180990044
 20
1541.5882985962307
 11
2715.2562180989744
 21
1541.5882985962307
  0
LINE
  8
_0-3_躯体と製品
  6
PLINE5
 62
    2
 10
2718.2562180990044
 20
1594.4868785961917
 11
2724.2562180989898
 21
1594.4868785961917
  0
LINE
  8
_0-3_躯体と製品
  6
CONTINUOUS
 62
    2
 10
2727.933078099004
 20
1906.083678596231
 11
2321.9315180989988
 21
1804.8561385962021
  0
LINE
  8
_0-3_躯体と製品
  6
PLINE2
 62
    5
 10
2504.2840780989991
 20
1850.3217185962203
 11
2308.1277980990035
 21
1654.1654385962211
  0
LINE
  8
_0-3_躯体と製品
  6
PLINE2
 62
    5
 10
2457.1858380989861
 20
1838.5788185961901
 11
2311.6930380989925
 21
1693.086018596201
  0
LINE
  8
_0-3_躯体と製品
  6
PLINE2
 62
    5
 10
2410.0875780990009
 20
1826.8358985962295
 11
2315.2582780989815
 21
1732.0066185962496
  0
LINE
  8
_0-3_躯体と製品
  6
PLINE2
 62
    5
 10
2362.9893180989793
 20
1815.0929985961993
 11
2318.8235380989763
 21
1770.9271985962296
  0
LINE
  8
_0-3_躯体と製品
  6
CONTINUOUS
 62
    2
 10
2323.4720180989734
 20
1854.194358596189
 11
2327.1008580989928
 21
1839.6399385961995
  0
LINE
  8
_0-3_躯体と製品
  6
CONTINUOUS
 62
    2
 10
2507.8282180989754
 20
1900.1595185962396
 11
2511.4570380989881
 21
1885.6050985962502
  0
LINE
  8
_0-3_躯体と製品
  6
CONTINUOUS
 62
    2
 10
2571.8542380989948
 20
1902.2097185962521
 11
2570.7203780989857
 21
1889.8316585962093
  0
LINE
  8
_0-3_躯体と製品
  6
CONTINUOUS
 62
    2
 10
2738.7051980990045
 20
1625.5821785962107
 11
2738.7051980990045
 21
1611.5821785961889
  0
LINE
  8
_0-3_躯体と製品
  6
CONTINUOUS
 62
    2
 10
2731.7051980989991
 20
1618.5821785962398
 11
2745.7051980989754
 21
1618.5821785962398
  0
LINE
  8
_0-3_躯体と製品
  6
CONTINUOUS
 62
    2
 10
2900.0063180989937
 20
1688.756418596211
 11
2903.6351380989718
 21
1674.201978596222
  0
LINE
  8
_0-3_躯体と製品
  6
CONTINUOUS
 62
    2
 10
2718.2562180990044
 20
1944.8955185962113
 11
2727.933078099004
 21
1906.083678596231
  0
LINE
  8
_0-3_躯体と製品
  6
CONTINUOUS
 62
    2
 10
2687.3329180989731
 20
1944.9150785962192
 11
2690.9617580989925
 21
1930.3606385962194
  0
LINE
  8
_0-3_躯体と製品
  6
CONTINUOUS
 62
    4
 10
2720.2562180989753
 20
1984.8955185962113
 11
2717.2562180989826
 21
1984.8955185962113
  0
LINE
  8
_0-3_躯体と製品
  6
CONTINUOUS
 62
    4
 10
2720.2562180989753
 20
1974.8955185962222
 11
2720.2562180989753
 21
1984.8955185962113
  0
LINE
  8
_0-3_躯体と製品
  6
CONTINUOUS
 62
    4
 10
2717.2562180989826
 20
1984.8955185962113
 11
2717.2562180989826
 21
1945.6767985962215
  0
LINE
  8
_0-3_躯体と製品
  6
CONTINUOUS
 62
    3
 10
2718.2562180990044
 20
1984.8955185962113
 11
2718.2562180990044
 21
1944.8955185962113
  0
LINE
  8
_0-3_躯体と製品
  6
PLINE3
 62
    2
 10
3018.2562180990044
 20
2026.2728185962405
 11
3018.2562180990044
 21
891.08065859623093
  0
LINE
  8
_0-3_躯体と製品
  6
CONTINUOUS
 62
    3
 10
3412.7708780989906
 20
1158.6384985962395
 11
3824.8917180989783
 21
1313.1838185962006
  0
LINE
  8
_0-3_躯体と製品
  6
PLINE2
 62
    3
 10
3018.2562180990044
 20
1090.1955185961997
 11
3688.3354180989691
 21
889.17175859625058
  0
LINE
  8
_0-3_躯体と製品
  6
CONTINUOUS
 62
    4
 10
3512.1064180989833
 20
943.084478596189
 11
3018.2562180990044
 21
1091.2395385962518
  0
LINE
  8
_0-3_躯体と製品
  6
CONTINUOUS
 62
    3
 10
3412.7708780989906
 20
971.54111859618934
 11
3412.7708780989906
 21
1158.6384985962395
  0
LINE
  8
_0-3_躯体と製品
  6
CONTINUOUS
 62
    4
 10
3511.9529180990048
 20
942.57279859621121
 11
3495.2615580989996
 21
947.58019859623164
  0
LINE
  8
_0-3_躯体と製品
  6
CONTINUOUS
 62
    4
 10
3512.1064180989833
 20
943.084478596189
 11
3511.9529180990048
 21
942.57279859621121
  0
LINE
  8
_0-3_躯体と製品
  6
PLINE5
 62
    2
 10
3318.2562180990044
 20
1114.2069785962412
 11
3318.2562180990044
 21
1001.2395385962518
  0
LINE
  8
_0-3_躯体と製品
  6
PLINE5
 62
    2
 10
3312.2562180989835
 20
1114.2069785962412
 11
3312.2562180989835
 21
1003.0395385962511
  0
LINE
  8
_0-3_躯体と製品
  6
PLINE5
 62
    2
 10
3278.2562180990035
 20
1114.2069785962412
 11
3278.2562180990035
 21
1013.2395385962191
  0
LINE
  8
_0-3_躯体と製品
  6
CONTINUOUS
 62
    3
 10
3318.2562180990044
 20
1970.6608585962094
 11
3775.0987380989955
 21
1856.7572185962308
  0
LINE
  8
_0-3_躯体と製品
  6
PLINE2
 62
    2
 10
3497.3616580989892
 20
1556.8065385961891
 11
3774.4578980989809
 21
1556.8065385961891
  0
LINE
  8
_0-3_躯体と製品
  6
PLINE2
 62
    2
 10
3493.6677180989773
 20
1596.8065385961891
 11
3770.7937780989869
 21
1596.8065385961891
  0
LINE
  8
_0-3_躯体と製品
  6
PLINE5
 62
    2
 10
3474.2951980989792
 20
1590.8065385962
 11
3771.0685980989992
 21
1590.8065385962
  0
LINE
  8
_0-3_躯体と製品
  6
PLINE2
 62
    2
 10
3018.2562180990044
 20
1669.2852785961913
 11
3290.3546780989846
 21
1601.4435185961811
  0
LINE
  8
_0-3_躯体と製品
  6
PLINE2
 62
    2
 10
3018.2562180990044
 20
1710.509838596241
 11
3474.2951980989792
 21
1596.8065385961891
  0
LINE
  8
_0-3_躯体と製品
  6
PLINE5
 62
    2
 10
3018.2562180990044
 20
1704.3261385961996
 11
3473.2010780990004
 21
1590.8956585962515
  0
LINE
  8
_0-3_躯体と製品
  6
PLINE2
 62
    2
 10
3306.6822780989887
 20
1597.3725785962415
 11
3469.3838180990033
 21
1556.8065385961891
  0
LINE
  8
_0-3_躯体と製品
  6
PLINE2
 62
    2
 10
3290.3546780989846
 20
1601.4435185961811
 11
3306.6822780989887
 21
1597.3725785962415
  0
LINE
  8
_0-3_躯体と製品
  6
PLINE2
 62
    2
 10
3318.2562180990044
 20
1594.4868785961917
 11
3315.2562180989744
 21
1594.4868785961917
  0
LINE
  8
_0-3_躯体と製品
  6
CONTINUOUS
 62
    2
 10
3415.0483380989945
 20
1598.1804585962309
 11
3411.6614380989895
 21
1584.59631859621
  0
LINE
  8
_0-3_躯体と製品
  6
CONTINUOUS
 62
    2
 10
3406.5628180990007
 20
1593.0818385962411
 11
3420.146958098986
 21
1589.6949385961998
  0
LINE
  8
_0-3_躯体と製品
  6
PLINE2
 62
    2
 10
3469.3838180990033
 20
1556.8065385961891
 11
3496.4243980989977
 21
1556.8065385961891
  0
LINE
  8
_0-3_躯体と製品
  6
PLINE2
 62
    2
 10
3474.2951980989792
 20
1596.8065385961891
 11
3493.1163780989928
 21
1596.8065385961891
  0
LINE
  8
_0-3_躯体と製品
  6
CONTINUOUS
 62
    3
 10
3018.2562180990044
 20
1984.8955185962113
 11
3318.2562180990044
 21
1984.8955185962113
  0
LINE
  8
_0-3_躯体と製品
  6
CONTINUOUS
 62
    2
 10
3140.7200980990001
 20
1666.5781785962208
 11
3137.3331980989942
 21
1652.9940385962
  0
LINE
  8
_0-3_躯体と製品
  6
CONTINUOUS
 62
    2
 10
3132.2345780989699
 20
1661.4795585962311
 11
3145.8187180989898
 21
1658.0926585961897
  0
LINE
  8
_0-3_躯体と製品
  6
CONTINUOUS
 62
    2
 10
3280.553278098987
 20
1631.7138385962317
 11
3277.1663780989829
 21
1618.1296985962108
  0
LINE
  8
_0-3_躯体と製品
  6
CONTINUOUS
 62
    2
 10
3272.0677580989923
 20
1626.6152385962487
 11
3285.6518980989758
 21
1623.2283185962006
  0
LINE
  8
_0-3_躯体と製品
  6
CONTINUOUS
 62
    3
 10
3318.2562180990044
 20
1984.8955185962113
 11
3318.2562180990044
 21
1970.6608585962094
  0
LINE
  8
_0-3_躯体と製品
  6
CONTINUOUS
 62
    2
 10
3363.6254580990044
 20
1945.9510585962307
 11
3360.2385580989985
 21
1932.3669185962099
  0
LINE
  8
_0-3_躯体と製品
  6
CONTINUOUS
 62
    2
 10
3355.1399380989733
 20
1940.852438596241
 11
3368.7240780989932
 21
1937.4655385961996
  0
LINE
  8
_0-3_躯体と製品
  6
CONTINUOUS
 62
    2
 10
3503.4586380989904
 20
1911.0867185962488
 11
3500.0717380989863
 21
1897.5025785962316
  0
LINE
  8
_0-3_躯体と製品
  6
CONTINUOUS
 62
    2
 10
3494.9731180989966
 20
1905.9881185961895
 11
3508.557258098981
 21
1902.6011985962214
  0
LINE
  8
_0-3_躯体と製品
  6
CONTINUOUS
 62
    3
 10
3775.0987380989955
 20
1856.7572185962308
 11
3824.8917180989783
 21
1313.1838185962006
  0
LINE
  8
_0-3_躯体と製品
  6
CONTINUOUS
 62
    2
 10
3637.9536980989997
 20
1877.5533385962408
 11
3634.5667980989947
 21
1863.9691985962199
  0
LINE
  8
_0-3_躯体と製品
  6
CONTINUOUS
 62
    2
 10
3629.4681780990059
 20
1872.454718596251
 11
3643.0523180989894
 21
1869.0678185962097
  0
INSERT
  2
-001-_D4
  8
_0-2_寸法
 10
10012.829042738946
 20
23746.88711053213
 41
10
 42
10
 50
0
  0
INSERT
  2
-002-_D5
  8
_0-2_寸法
 10
10012.829042738946
 20
23746.88711053213
 41
10
 42
10
 50
0
  0
INSERT
  2
-003-_D6
  8
_0-2_寸法
 10
10012.829042738946
 20
23746.88711053213
 41
10
 42
10
 50
0
  0
INSERT
  2
-004-_D7
  8
_0-2_寸法
 10
10012.829042738946
 20
23746.88711053213
 41
10
 42
10
 50
0
  0
ENDSEC
  0
EOF
