  0
SECTION
  2
HEADER
  9
$ACADVER
  1
AC1009
  9
$INSBASE
 10
0
 20
0
 30
0
  9
$EXTMIN
 10
0
 20
0
  9
$EXTMAX
 10
841
 20
594
  9
$LIMMIN
 10
0
 20
0
  9
$LIMMAX
 10
841
 20
594
  9
$LTSCALE
 40
1
  0
ENDSEC
  0
SECTION
  2
TABLES
  0
TABLE
  2
LTYPE
 70
     9
  0
LTYPE
  2
CONTINUOUS
 70
    64
  3
実線
 72
    65
 73
     0
 40
0.0
  0
LTYPE
  2
DASHED1
 70
    64
  3
--  --  --  --  --  --  --  --  
 72
    65
 73
     2
 40
2.5
 49
1.25
 49
-1.25
  0
LTYPE
  2
DASHED2
 70
    64
  3
----    ----    ----    ----    
 72
    65
 73
     2
 40
5.0
 49
2.5
 49
-2.5
  0
LTYPE
  2
DASHED3
 70
    64
  3
------  ------  ------  ------  
 72
    65
 73
     2
 40
5.0
 49
3.75
 49
-1.25
  0
LTYPE
  2
CENTER1
 70
    64
  3
----- - ----- - ----- - ----- - 
 72
    65
 73
     4
 40
10.0
 49
6.25
 49
-1.25
 49
1.25
 49
-1.25
  0
LTYPE
  2
CENTER2
 70
    64
  3
----------  --  ----------  --  
 72
    65
 73
     4
 40
20.0
 49
12.5
 49
-2.5
 49
2.5
 49
-2.5
  0
LTYPE
  2
PHANTOM1
 70
    64
  3
--- - - --- - - --- - - --- - - 
 72
    65
 73
     6
 40
10.0
 49
3.25
 49
-1.25
 49
1.25
 49
-1.25
 49
1.25
 49
-1.25
  0
LTYPE
  2
PHANTOM2
 70
    64
  3
--------  -  -  --------  -  -  
 72
    65
 73
     6
 40
20.0
 49
10.0
 49
-2.5
 49
1.25
 49
-2.5
 49
1.25
 49
-2.5
  0
LTYPE
  2
DOT
 70
    64
  3
-   -   -   -   -   -   -   -   
 72
    65
 73
     2
 40
2.5
 49
0.625
 49
-1.875
  0
LTYPE
  2
DUMMY
 70
    64
  3
ダミー
 72
    65
 73
     0
 40
0.0
  0
LTYPE
  2
RAND1
 70
    64
  3
ランダム線1
 72
    65
 73
     4
 40
10.0
 49
1.0
 49
-2.0
 49
3.0
 49
-4.0
  0
LTYPE
  2
RAND2
 70
    64
  3
ランダム線2
 72
    65
 73
     4
 40
14.0
 49
2.0
 49
-3.0
 49
4.0
 49
-5.0
  0
LTYPE
  2
RAND3
 70
    64
  3
ランダム線3
 72
    65
 73
     4
 40
18.0
 49
3.0
 49
-4.0
 49
5.0
 49
-6.0
  0
LTYPE
  2
RAND4
 70
    64
  3
ランダム線4
 72
    65
 73
     4
 40
22.0
 49
4.0
 49
-5.0
 49
6.0
 49
-7.0
  0
LTYPE
  2
RAND5
 70
    64
  3
ランダム線5
 72
    65
 73
     4
 40
26.0
 49
5.0
 49
-6.0
 49
7.0
 49
-8.0
  0
LTYPE
  2
LONG1
 70
    64
  3
----------  --  ----------  --  
 72
    65
 73
     4
 40
40.0
 49
32.5
 49
-2.5
 49
2.5
 49
-2.5
  0
LTYPE
  2
LONG2
 70
    64
  3
--------  -  -  --------  -  -  
 72
    65
 73
     6
 40
40.0
 49
30.0
 49
-2.5
 49
1.25
 49
-2.5
 49
1.25
 49
-2.5
  0
LTYPE
  2
LONG3
 70
    64
  3
+++++++++++++++..+++++++++++++++
 72
    65
 73
     2
 40
40.0
 49
37.5
 49
-2.5
  0
LTYPE
  2
LONG4
 70
    64
  3
+++++++++++++++..+++++++++++++++
 72
    65
 73
     2
 40
80.0
 49
75.0
 49
-5.0
  0
LTYPE
  2
LONG5
 70
    64
  3
----------  --  ----------  --  
 72
    65
 73
     4
 40
60.0
 49
37.5
 49
-7.5
 49
7.5
 49
-7.5
  0
LTYPE
  2
dashed
 70
   64
  3
-------   -------------   ------
 72
   65
 73
    2
 40
7.5
 49
6
 49
-1.5
  0
LTYPE
  2
dashed_spaced
 70
   64
  3
----        --------        ----
 72
   65
 73
    2
 40
12
 49
6
 49
-6
  0
LTYPE
  2
long_dashed_dotted
 70
   64
  3
------------- --- --------------
 72
   65
 73
    4
 40
15.25
 49
12
 49
-1.5
 49
0.25
 49
-1.5
  0
LTYPE
  2
long_dashed_double-dotted
 70
   64
  3
----------- --- --- ------------
 72
   65
 73
    6
 40
17
 49
12
 49
-1.5
 49
0.25
 49
-1.5
 49
0.25
 49
-1.5
  0
LTYPE
  2
long_dashed_triplicate-dotted
 70
   64
  3
--------- --- --- --- ----------
 72
   65
 73
    8
 40
18.75
 49
12
 49
-1.5
 49
0.25
 49
-1.5
 49
0.25
 49
-1.5
 49
0.25
 49
-1.5
  0
LTYPE
  2
dotted
 70
   64
  3
   -       -       -       -    
 72
   65
 73
    2
 40
1.75
 49
0.25
 49
-1.5
  0
LTYPE
  2
chain
 70
   64
  3
-------------- -- --------------
 72
   65
 73
    4
 40
18.5
 49
12
 49
-1.5
 49
3.5
 49
-1.5
  0
LTYPE
  2
chain_double_dash
 70
   64
  3
------------ -- -- -------------
 72
   65
 73
    6
 40
23.5
 49
12
 49
-1.5
 49
3.5
 49
-1.5
 49
3.5
 49
-1.5
  0
LTYPE
  2
dashed_dotted
 70
   64
  3
-----------     -     ----------
 72
   65
 73
    4
 40
9.25
 49
6
 49
-1.5
 49
0.25
 49
-1.5
  0
LTYPE
  2
double-dashed_dotted
 70
   64
  3
------   -----------   -   -----
 72
   65
 73
    6
 40
16.75
 49
6
 49
-1.5
 49
6
 49
-1.5
 49
0.25
 49
-1.5
  0
LTYPE
  2
dashed_double-dotted
 70
   64
  3
---------    -    -    ---------
 72
   65
 73
    6
 40
11
 49
6
 49
-1.5
 49
0.25
 49
-1.5
 49
0.25
 49
-1.5
  0
LTYPE
  2
double-dashed_double-dotted
 70
   64
  3
-----   ---------   -   -   ----
 72
   65
 73
    8
 40
18.5
 49
6
 49
-1.5
 49
6
 49
-1.5
 49
0.25
 49
-1.5
 49
0.25
 49
-1.5
  0
LTYPE
  2
dashed_triplicate-dotted
 70
   64
  3
-------    -    -    -    ------
 72
   65
 73
    8
 40
12.75
 49
6
 49
-1.5
 49
0.25
 49
-1.5
 49
0.25
 49
-1.5
 49
0.25
 49
-1.5
  0
LTYPE
  2
double-dashed_triplicate-dotted
 70
   64
  3
-----  ---------  -  -  -  -----
 72
   65
 73
   10
 40
20.25
 49
6
 49
-1.5
 49
6
 49
-1.5
 49
0.25
 49
-1.5
 49
0.25
 49
-1.5
 49
0.25
 49
-1.5
  0
LTYPE
  2
undefined
 70
   64
  3
--------------------------------
 72
   65
 73
    0
 40
0
  0
LTYPE
  2
PLINE2
 70
   64
  3
------     -----------     -----
 72
   65
 73
    2
 40
3
 49
2.1000000000000001
 49
-0.9
  0
LTYPE
  2
PLINE3
 70
   64
  3
------------   ---   -----------
 72
   65
 73
    4
 40
10
 49
7
 49
-1
 49
1
 49
-1
  0
LTYPE
  2
PLINE4
 70
   64
  3
---------   ---   ---   --------
 72
   65
 73
    6
 40
10
 49
5
 49
-1
 49
1
 49
-1
 49
1
 49
-1
  0
LTYPE
  2
PLINE5
 70
   64
  3
------     -----------     -----
 72
   65
 73
    2
 40
5
 49
3.5
 49
-1.5
  0
LTYPE
  2
PLINE6
 70
   64
  3
------------   ---   -----------
 72
   65
 73
    4
 40
15
 49
10.5
 49
-1.5
 49
1.5
 49
-1.5
  0
LTYPE
  2
PLINE7
 70
   64
  3
---------   ---   ---   --------
 72
   65
 73
    6
 40
15
 49
7.5
 49
-1.5
 49
1.5
 49
-1.5
 49
1.5
 49
-1.5
  0
LTYPE
  2
PLINE8
 70
   64
  3
------     -----------     -----
 72
   65
 73
    2
 40
7
 49
4.9000000000000004
 49
-2.1000000000000001
  0
LTYPE
  2
PLINE9
 70
   64
  3
------------   ---   -----------
 72
   65
 73
    4
 40
20
 49
14
 49
-2
 49
2
 49
-2
  0
LTYPE
  2
PLINE10
 70
   64
  3
---------   ---   ---   --------
 72
   65
 73
    6
 40
20
 49
10
 49
-2
 49
2
 49
-2
 49
2
 49
-2
  0
LTYPE
  2
PLINE11
 70
   64
  3
------     -----------     -----
 72
   65
 73
    2
 40
9
 49
6.2999999999999989
 49
-2.7000000000000002
  0
LTYPE
  2
PLINE12
 70
   64
  3
------------   ---   -----------
 72
   65
 73
    4
 40
25
 49
17.5
 49
-2.5
 49
2.5
 49
-2.5
  0
LTYPE
  2
PLINE13
 70
   64
  3
---------   ---   ---   --------
 72
   65
 73
    6
 40
25
 49
12.5
 49
-2.5
 49
2.5
 49
-2.5
 49
2.5
 49
-2.5
  0
LTYPE
  2
PLINE14
 70
   64
  3
------     -----------     -----
 72
   65
 73
    2
 40
11
 49
7.7000000000000002
 49
-3.2999999999999989
  0
LTYPE
  2
PLINE15
 70
   64
  3
------------   ---   -----------
 72
   65
 73
    4
 40
30
 49
21
 49
-3
 49
3
 49
-3
  0
LTYPE
  2
PLINE16
 70
   64
  3
---------   ---   ---   --------
 72
   65
 73
    6
 40
30
 49
15
 49
-3
 49
3
 49
-3
 49
3
 49
-3
  0
ENDTAB
  0
TABLE
  2
STYLE
  5
3
100
AcDbSymbolTable
 70
     1
  0
STYLE
  5
10
100
AcDbSymbolTableRecord
100
AcDbTextStyleTableRecord
  2
STANDARD
 70
     0
 40
0.0
 41
1.0
 50
0.0
 71
     0
 42
0.2
  3
txt
  4
bigfont.shx
  0
STYLE
  5
26
100
AcDbSymbolTableRecord
100
AcDbTextStyleTableRecord
  2
TATEGAKI
 70
    68
 40
0.0
 41
1.0
 50
0.0
 71
     0
 42
1.0
  3
txt
  4
bigfont.shx
  0
ENDTAB
  0
TABLE
  2
LAYER
 70
    4
  0
LAYER
  2
_0-2_寸法
 70
   64
 62
    7
  6
CONTINUOUS
  0
LAYER
  2
_0-3_躯体と製品
 70
   64
 62
    7
  6
CONTINUOUS
  0
LAYER
  2
_0-4_図面枠
 70
   64
 62
    7
  6
CONTINUOUS
  0
LAYER
  2
ADD_LINE
 70
   64
 62
    7
  6
CONTINUOUS
  0
ENDTAB
  0
ENDSEC
  0
SECTION
  2
BLOCKS
  0
BLOCK
  2
-000-_Dot
 70
   64
 10
0
 20
0
 30
0
  0
CIRCLE
  8
_0-0_0
  6
CONTINUOUS
 62
    7
 10
0
 20
0
 40
0.025
  0
LINE
  8
_0-0_0
  6
CONTINUOUS
 62
    7
 10
0.025
 20
0
 11
-0.025
 21
0
  0
LINE
  8
_0-0_0
  6
CONTINUOUS
 62
    7
 10
-0.05
 20
0
 11
-0.1
 21
0
  0
ENDBLK
  0
BLOCK
  2
-001-_D4
 70
   64
 10
0
 20
0
 30
0
  0
LINE
  8
_0-2_寸法
  6
CONTINUOUS
 62
    4
 10
442.0789214026546
 20
-136.37586244806829
 11
442.0789214026546
 21
-11.714744448068259
  0
LINE
  8
_0-2_寸法
  6
CONTINUOUS
 62
    4
 10
742.07892140265471
 20
-129.27714044806831
 11
742.07892140265471
 21
-11.714744448068259
  0
LINE
  8
_0-2_寸法
  6
CONTINUOUS
 62
    4
 10
442.17892140265468
 20
-11.714744448068259
 11
741.97892140265469
 21
-11.714744448068259
  0
INSERT
  2
-000-_Dot
  8
_0-2_寸法
 10
442.0789214026546
 20
-11.714744448068259
 41
1
 42
1
 50
180
  0
INSERT
  2
-000-_Dot
  8
_0-2_寸法
 10
742.07892140265471
 20
-11.714744448068259
 41
1
 42
1
 50
0
  0
TEXT
  8
_0-2_寸法
 62
    7
 10
590.82892140265471
 20
-11.634744448068268
 40
5
 41
1
 50
0
  1
E
  0
POINT
  8
_0-1_Defpoints
 62
    7
 10
442.0789214026546
 20
-136.37586244806829
  0
POINT
  8
_0-1_Defpoints
 62
    7
 10
742.07892140265471
 20
-129.27714044806831
  0
POINT
  8
_0-1_Defpoints
 62
    7
 10
742.07892140265471
 20
-11.714744448068259
  0
ENDBLK
  0
BLOCK
  2
-002-_D5
 70
   64
 10
0
 20
0
 30
0
  0
LINE
  8
_0-2_寸法
  6
CONTINUOUS
 62
    4
 10
509.70806940265464
 20
-200.81955844806831
 11
420.61613740265494
 21
-200.81955844806831
  0
LINE
  8
_0-2_寸法
  6
CONTINUOUS
 62
    4
 10
512.60133540265474
 20
-215.81955844806831
 11
420.61613740265494
 21
-215.81955844806831
  0
LINE
  8
_0-2_寸法
  6
CONTINUOUS
 62
    4
 10
420.61613740265494
 20
-200.9195584480683
 11
420.61613740265494
 21
-215.71955844806831
  0
INSERT
  2
-000-_Dot
  8
_0-2_寸法
 10
420.61613740265494
 20
-200.81955844806831
 41
1
 42
1
 50
90
  0
INSERT
  2
-000-_Dot
  8
_0-2_寸法
 10
420.61613740265494
 20
-215.81955844806831
 41
1
 42
1
 50
270
  0
TEXT
  8
_0-2_寸法
 62
    7
 10
420.53613740265502
 20
-209.56955844806822
 40
5
 41
1
 50
90
  1
J
  0
POINT
  8
_0-1_Defpoints
 62
    7
 10
509.70806940265464
 20
-200.81955844806831
  0
POINT
  8
_0-1_Defpoints
 62
    7
 10
512.60133540265474
 20
-215.81955844806831
  0
POINT
  8
_0-1_Defpoints
 62
    7
 10
420.61613740265494
 20
-215.81955844806831
  0
ENDBLK
  0
BLOCK
  2
-003-_D6
 70
   64
 10
0
 20
0
 30
0
  0
LINE
  8
_0-2_寸法
  6
CONTINUOUS
 62
    4
 10
510.97387340265476
 20
-50.819558448068342
 11
420.61613740265494
 21
-50.819558448068321
  0
LINE
  8
_0-2_寸法
  6
CONTINUOUS
 62
    4
 10
509.70806940265464
 20
-200.81955844806831
 11
420.61613740265494
 21
-200.81955844806831
  0
LINE
  8
_0-2_寸法
  6
CONTINUOUS
 62
    4
 10
420.61613740265494
 20
-50.919558448068315
 11
420.61613740265494
 21
-200.71955844806831
  0
INSERT
  2
-000-_Dot
  8
_0-2_寸法
 10
420.61613740265494
 20
-50.819558448068321
 41
1
 42
1
 50
90
  0
INSERT
  2
-000-_Dot
  8
_0-2_寸法
 10
420.61613740265494
 20
-200.81955844806831
 41
1
 42
1
 50
270
  0
TEXT
  8
_0-2_寸法
 62
    7
 10
420.53613740265484
 20
-128.31955844806822
 40
5
 41
1
 50
90
  1
 I
  0
POINT
  8
_0-1_Defpoints
 62
    7
 10
510.97387340265476
 20
-50.819558448068342
  0
POINT
  8
_0-1_Defpoints
 62
    7
 10
509.70806940265464
 20
-200.81955844806831
  0
POINT
  8
_0-1_Defpoints
 62
    7
 10
420.61613740265494
 20
-200.81955844806831
  0
ENDBLK
  0
BLOCK
  2
-004-_D7
 70
   64
 10
0
 20
0
 30
0
  0
LINE
  8
_0-2_寸法
  6
CONTINUOUS
 62
    4
 10
517.07892140265471
 20
-216.8085164480683
 11
517.07892140265471
 21
-236.95247413118699
  0
LINE
  8
_0-2_寸法
  6
CONTINUOUS
 62
    4
 10
667.07892140265471
 20
-216.80851644806822
 11
667.07892140265471
 21
-236.95247413118699
  0
LINE
  8
_0-2_寸法
  6
CONTINUOUS
 62
    4
 10
517.17892140265462
 20
-236.95247413118699
 11
666.97892140265469
 21
-236.95247413118699
  0
INSERT
  2
-000-_Dot
  8
_0-2_寸法
 10
517.07892140265471
 20
-236.95247413118699
 41
1
 42
1
 50
180
  0
INSERT
  2
-000-_Dot
  8
_0-2_寸法
 10
667.07892140265471
 20
-236.95247413118699
 41
1
 42
1
 50
0
  0
TEXT
  8
_0-2_寸法
 62
    7
 10
590.82892140265471
 20
-236.87247413118698
 40
5
 41
1
 50
0
  1
A
  0
POINT
  8
_0-1_Defpoints
 62
    7
 10
517.07892140265471
 20
-216.8085164480683
  0
POINT
  8
_0-1_Defpoints
 62
    7
 10
667.07892140265471
 20
-216.80851644806822
  0
POINT
  8
_0-1_Defpoints
 62
    7
 10
667.07892140265471
 20
-236.95247413118699
  0
ENDBLK
  0
ENDSEC
  0
SECTION
  2
ENTITIES
  0
INSERT
  2
-001-_D4
  8
_0-2_寸法
 10
-6893.8263907411074
 20
342.7945120475265
 41
10
 42
10
 50
0
  0
INSERT
  2
-002-_D5
  8
_0-2_寸法
 10
-6893.8263907411074
 20
342.7945120475265
 41
10
 42
10
 50
0
  0
INSERT
  2
-003-_D6
  8
_0-2_寸法
 10
-6893.8263907411074
 20
342.7945120475265
 41
10
 42
10
 50
0
  0
TEXT
  8
_0-4_図面枠
 62
    7
 10
-2309.1226367145564
 20
-105.36897878910668
 40
60
 41
0.8000000000000002
 50
0.0000100000010064
  1
六角ボルト
  0
TEXT
  8
_0-4_図面枠
 62
    7
 10
-2164.6627167145571
 20
-1596.6469503053295
 40
60.000000000000007
 41
0.8000000000000008
 50
0.0000100000010064
  1
外板
  0
LINE
  8
_0-3_躯体と製品
  6
PLINE5
 62
    2
 10
-1905.9396767145599
 20
1628.3857475668437
 11
-2349.9396767145618
 21
1628.3857475668437
  0
LINE
  8
_0-3_躯体と製品
  6
CONTINUOUS
 62
    2
 10
-1905.9396767145599
 20
1584.3857475668424
 11
-2321.29627671456
 21
1584.3857475668424
  0
LINE
  8
_0-3_躯体と製品
  6
CONTINUOUS
 62
    2
 10
-1905.9396767145599
 20
1634.3857475668424
 11
-2349.9396767145618
 21
1634.3857475668424
  0
LINE
  8
_0-3_躯体と製品
  6
CONTINUOUS
 62
    4
 10
-2581.8265167145582
 20
1906.8547675668437
 11
-1905.9396767145599
 21
2142.2234675668428
  0
LINE
  8
_0-3_躯体と製品
  6
CONTINUOUS
 62
    2
 10
-2337.6951967145615
 20
2174.0010475668423
 11
-1905.9396767145599
 21
2174.0010475668423
  0
LINE
  8
_0-3_躯体と製品
  6
CONTINUOUS
 62
    2
 10
-2336.6803767145611
 20
2168.0010475668423
 11
-1905.9396767145599
 21
2168.0010475668423
  0
LINE
  8
_0-3_躯体と製品
  6
CONTINUOUS
 62
    2
 10
-1905.9396767145599
 20
2087.1606675668427
 11
-2322.7131167145571
 21
1942.0248075668435
  0
LINE
  8
_0-3_躯体と製品
  6
PLINE5
 62
    2
 10
-1905.9396767145599
 20
2133.7522675668438
 11
-2764.0313167145587
 21
1834.9331275668426
  0
LINE
  8
_0-3_躯体と製品
  6
CONTINUOUS
 62
    2
 10
-1905.9396767145599
 20
2140.1056675668424
 11
-2618.953356714559
 21
1891.8080275668422
  0
LINE
  8
_0-3_躯体と製品
  6
PLINE2
 62
    3
 10
-1905.9396767145599
 20
1299.0010475668432
 11
-2812.7673167145613
 21
1026.9527675668428
  0
LINE
  8
_0-3_躯体と製品
  6
PLINE6
 62
    5
 10
-2089.4167967145577
 20
-517.02843243315658
 11
-2361.6528967145578
 21
-789.26455243315559
  0
LINE
  8
_0-3_躯体と製品
  6
PLINE6
 62
    5
 10
-2367.5454567145607
 20
-830.51245243315657
 11
-2095.3093367145584
 21
-558.27633243315722
  0
LINE
  8
_0-3_躯体と製品
  6
PLINE6
 62
    5
 10
-2373.4380167145573
 20
-871.76033243315646
 11
-2101.2018967145605
 21
-599.52423243315695
  0
LINE
  8
_0-3_躯体と製品
  6
PLINE6
 62
    5
 10
-2379.3305767145594
 20
-913.00823243315654
 11
-2107.0944567145571
 21
-640.77213243315657
  0
LINE
  8
_0-3_躯体と製品
  6
PLINE5
 62
    3
 10
-2118.9690167145582
 20
-723.89409243315754
 11
-2411.3040967145607
 21
-825.69593243315649
  0
LINE
  8
_0-3_躯体と製品
  6
PLINE5
 62
    3
 10
-2111.0094767145611
 20
-668.17729243315648
 11
-2403.3445567145582
 21
-769.97913243315656
  0
LINE
  8
_0-3_躯体と製品
  6
PLINE6
 62
    5
 10
-2191.3721567145594
 20
-1326.0905724331574
 11
-2023.0034167145595
 21
-1157.7218324331566
  0
LINE
  8
_0-3_躯体と製品
  6
PLINE6
 62
    5
 10
-2169.2750567145586
 20
-1339.3488324331565
 11
-2000.90633671456
 21
-1170.9800924331564
  0
LINE
  8
_0-3_躯体と製品
  6
PLINE6
 62
    5
 10
-2279.7604967145608
 20
-1273.0575724331566
 11
-2111.3917567145591
 21
-1104.6888324331555
  0
LINE
  8
_0-3_躯体と製品
  6
PLINE6
 62
    5
 10
-2257.6634167145585
 20
-1286.3158124331565
 11
-2089.2946767145613
 21
-1117.9470924331556
  0
LINE
  8
_0-3_躯体と製品
  6
PLINE6
 62
    5
 10
-2235.5663167145613
 20
-1299.5740724331565
 11
-2067.1975967145581
 21
-1131.2053324331555
  0
LINE
  8
_0-3_躯体と製品
  6
PLINE6
 62
    5
 10
-2213.4692367145581
 20
-1312.8323324331573
 11
-2045.1004967145573
 21
-1144.4635924331565
  0
LINE
  8
_0-3_躯体と製品
  6
PLINE6
 62
    5
 10
-2390.2459367145584
 20
-1206.7663124331566
 11
-2154.2349167145585
 21
-970.75529243315646
  0
LINE
  8
_0-3_躯体と製品
  6
PLINE6
 62
    5
 10
-2368.1488367145585
 20
-1220.0245524331565
 11
-2160.1274767145596
 21
-1012.0031924331565
  0
LINE
  8
_0-3_躯体と製品
  6
PLINE6
 62
    5
 10
-2323.9546767145603
 20
-1246.5410724331566
 11
-2155.5859367145595
 21
-1078.1723324331565
  0
LINE
  8
_0-3_躯体と製品
  6
PLINE6
 62
    5
 10
-2301.8575767145603
 20
-1259.7993124331565
 11
-2133.4888567145617
 21
-1091.4305724331575
  0
LINE
  8
_0-3_躯体と製品
  6
PLINE6
 62
    5
 10
-2385.2231367145614
 20
-954.25613243315661
 11
-2112.9870167145591
 21
-682.02001243315658
  0
LINE
  8
_0-3_躯体と製品
  6
PLINE6
 62
    5
 10
-2391.1156767145612
 20
-995.50403243315645
 11
-2118.8795767145612
 21
-723.26791243315643
  0
LINE
  8
_0-3_躯体と製品
  6
PLINE6
 62
    5
 10
-2397.0082367145587
 20
-1036.7519124331566
 11
-2124.7721367145596
 21
-764.5158124331565
  0
LINE
  8
_0-3_躯体と製品
  6
PLINE6
 62
    5
 10
-2402.9007967145617
 20
-1077.9998124331564
 11
-2130.6646767145585
 21
-805.76371243315657
  0
LINE
  8
_0-3_躯体と製品
  6
PLINE6
 62
    5
 10
-2408.7933567145583
 20
-1119.2477124331565
 11
-2136.5572367145605
 21
-847.01159243315647
  0
LINE
  8
_0-3_躯体と製品
  6
PLINE6
 62
    5
 10
-2414.6859167145603
 20
-1160.4956124331566
 11
-2142.449796714558
 21
-888.25949243315654
  0
LINE
  8
_0-3_躯体と製品
  6
PLINE6
 62
    5
 10
-2412.3430167145571
 20
-1193.5080524331565
 11
-2148.3423567145592
 21
-929.50739243315661
  0
LINE
  8
_0-3_躯体と製品
  6
PLINE6
 62
    5
 10
-2083.5242367145593
 20
-475.78053243315696
 11
-2355.7603367145603
 21
-748.01665243315642
  0
LINE
  8
_0-3_躯体と製品
  6
PLINE6
 62
    5
 10
-2349.8677967145604
 20
-706.76875243315658
 11
-2077.6316767145572
 21
-434.5326524331573
  0
LINE
  8
_0-3_躯体と製品
  6
PLINE6
 62
    5
 10
-2343.9752367145584
 20
-665.52085243315651
 11
-2071.7391167145606
 21
-393.28475243315654
  0
LINE
  8
_0-3_躯体と製品
  6
PLINE6
 62
    5
 10
-2338.0826767145618
 20
-624.27297243315695
 11
-2120.602776714557
 21
-406.7930524331573
  0
LINE
  8
_0-3_躯体と製品
  6
CONTINUOUS
 62
    3
 10
-2071.2117767145573
 20
-389.59329243315653
 11
-2168.4753967145607
 21
-1070.4386524331564
  0
LINE
  8
_0-3_躯体と製品
  6
CONTINUOUS
 62
    4
 10
-2473.1138967145571
 20
-1215.9381524331566
 11
-1873.2944167145615
 21
-1575.8298324331556
  0
LINE
  8
_0-3_躯体と製品
  6
CONTINUOUS
 62
    4
 10
-1873.0371767145598
 20
-1575.4010724331565
 11
-2473.0371767145607
 21
-1215.4010724331556
  0
LINE
  8
_0-3_躯体と製品
  6
CONTINUOUS
 62
    3
 10
-2168.4753967145607
 20
-1070.4386524331564
 11
-1733.0371767145607
 21
-1331.7015924331563
  0
LINE
  8
_0-3_躯体と製品
  6
PLINE5
 62
    3
 10
-1733.0371767145607
 20
-1652.4039324331566
 11
-2466.5340767145608
 21
-1212.3057924331556
  0
LINE
  8
_0-3_躯体と製品
  6
CONTINUOUS
 62
    3
 10
-1733.0371767145607
 20
-1601.0915524331565
 11
-2418.8446967145592
 21
-1189.6070524331565
  0
LINE
  8
_0-3_躯体と製品
  6
CONTINUOUS
 62
    4
 10
-2365.8191567145595
 20
-438.71199243315675
 11
-1723.5371767145616
 21
-215.04575243315787
  0
LINE
  8
_0-3_躯体と製品
  6
CONTINUOUS
 62
    4
 10
-2365.3672367145591
 20
-439.08407243315753
 11
-1723.0371767145598
 21
-215.40107243315663
  0
LINE
  8
_0-3_躯体と製品
  6
PLINE5
 62
    3
 10
-973.03717671455979
 20
-278.24681243315683
 11
-2404.29969671456
 21
-776.66515243315644
  0
LINE
  8
_0-3_躯体と製品
  6
PLINE5
 62
    3
 10
-2356.5424367145615
 20
-442.36435243315645
 11
-1721.0639767145576
 21
-221.06733243315705
  0
LINE
  8
_0-3_躯体と製品
  6
CONTINUOUS
 62
    3
 10
-2316.7732367145618
 20
-475.10685243315709
 11
-1706.5938367145591
 21
-262.61989243315713
  0
LINE
  8
_0-3_躯体と製品
  6
PLINE2
 62
    3
 10
-973.03717671455979
 20
-1589.8010724331566
 11
-2181.8648167145593
 21
-1952.4493724331564
  0
LINE
  8
_0-4_図面枠
  6
CONTINUOUS
 62
    2
 10
-2043.5226767145596
 20
-115.36881243315622
 11
-2302.4609567145571
 21
-115.36881243315622
  0
LINE
  8
_0-4_図面枠
  6
CONTINUOUS
 62
    2
 10
-2062.2628367145617
 20
-1606.6467724331565
 11
-2195.6757167145588
 21
-1606.6467724331565
  0
LINE
  8
_0-4_図面枠
  6
CONTINUOUS
 62
    4
 10
-3451.2055967145625
 20
2966.9999875668427
 11
4292.1277432854422
 21
2966.9999875668427
  0
LINE
  8
_0-4_図面枠
  6
CONTINUOUS
 62
    4
 10
-3451.2055967145625
 20
2633.6666475668426
 11
4292.1277432854422
 21
2633.6666475668426
  0
LINE
  8
_0-4_図面枠
  6
CONTINUOUS
 62
    4
 10
-3451.2055967145625
 20
-2373.0000124331564
 11
4292.1277432854422
 21
-2373.0000124331564
  0
LINE
  8
_0-4_図面枠
  6
CONTINUOUS
 62
    2
 10
-2117.8722567145578
 20
2800.3333275668433
 11
-3451.2055967145625
 21
2800.3333275668433
  0
LINE
  8
_0-4_図面枠
  6
CONTINUOUS
 62
    4
 10
-3451.2055967145625
 20
2966.9999875668427
 11
-3451.2055967145625
 21
-2373.0000124331564
  0
LINE
  8
_0-3_躯体と製品
  6
PLINE6
 62
    5
 10
-2346.0517567145598
 20
-1233.2828124331566
 11
-2166.0200167145595
 21
-1053.2510724331573
  0
LINE
  8
_0-3_躯体と製品
  6
CONTINUOUS
 62
    4
 10
-2474.0701367145575
 20
-1219.0962124331563
 11
-2362.497036714557
 21
-438.08457243315718
  0
LINE
  8
_0-3_躯体と製品
  6
CONTINUOUS
 62
    4
 10
-2361.9655167145575
 20
-437.89947243315726
 11
-2473.5281967145593
 21
-1218.8382724331566
  0
LINE
  8
_0-3_躯体と製品
  6
PLINE5
 62
    3
 10
-2466.5340767145608
 20
-1212.3057924331556
 11
-2356.5424367145615
 21
-442.36435243315645
  0
LINE
  8
_0-3_躯体と製品
  6
CONTINUOUS
 62
    3
 10
-2418.8446967145592
 20
-1189.6070524331565
 11
-2316.7732367145618
 21
-475.10685243315709
  0
LINE
  8
_0-3_躯体と製品
  6
CONTINUOUS
 62
    2
 10
-2236.7865767145622
 20
-1342.5740724331565
 11
-2249.6489767145604
 21
-1364.0113924331565
  0
LINE
  8
_0-3_躯体と製品
  6
CONTINUOUS
 62
    2
 10
-2474.2893167145621
 20
-1135.7776724331554
 11
-2449.5405767145612
 21
-1139.3132124331564
  0
LINE
  8
_0-3_躯体と製品
  6
CONTINUOUS
 62
    2
 10
-2399.1398767145611
 20
-1245.1620724331565
 11
-2412.002276714561
 21
-1266.5993924331565
  0
LINE
  8
_0-3_躯体と製品
  6
CONTINUOUS
 62
    4
 10
-2432.066156714558
 20
-1244.2985924331565
 11
-2474.0701367145575
 21
-1219.0962124331563
  0
LINE
  8
_0-3_躯体と製品
  6
CONTINUOUS
 62
    4
 10
-2473.5281967145593
 20
-1218.8382724331566
 11
-2431.8089167145572
 21
-1243.8698524331564
  0
LINE
  8
_0-3_躯体と製品
  6
CONTINUOUS
 62
    2
 10
-2439.9132567145625
 20
-895.14533243315645
 11
-2415.1645167145571
 21
-898.68087243315654
  0
LINE
  8
_0-3_躯体と製品
  6
CONTINUOUS
 62
    2
 10
-2385.9802767145575
 20
-782.77949243315652
 11
-2389.5158167145601
 21
-807.52823243315652
  0
LINE
  8
_0-3_躯体と製品
  6
CONTINUOUS
 62
    2
 10
-2400.122416714561
 20
-793.3860924331575
 11
-2375.3736767145601
 21
-796.92163243315645
  0
LINE
  8
_0-3_躯体と製品
  6
CONTINUOUS
 62
    2
 10
-2414.8323367145613
 20
-719.57891243315544
 11
-2390.083616714559
 21
-723.11445243315643
  0
LINE
  8
_0-3_躯体と製品
  6
CONTINUOUS
 62
    2
 10
-2305.708976714558
 20
-411.42603243315625
 11
-2297.4873167145597
 21
-435.03543243315664
  0
LINE
  8
_0-3_躯体と製品
  6
CONTINUOUS
 62
    4
 10
-2372.69939671456
 20
-486.87369243315618
 11
-2365.8191567145595
 21
-438.71199243315675
  0
LINE
  8
_0-3_躯体と製品
  6
CONTINUOUS
 62
    4
 10
-2372.2044167145614
 20
-486.9443924331573
 11
-2365.3672367145591
 21
-439.08407243315753
  0
LINE
  8
_0-3_躯体と製品
  6
PLINE6
 62
    5
 10
-2320.4049967145593
 20
-500.52927243315685
 11
-2283.3398367145583
 21
-463.46409243315725
  0
LINE
  8
_0-3_躯体と製品
  6
CONTINUOUS
 62
    2
 10
-2386.5447767145588
 20
-521.56593243315672
 11
-2361.796036714557
 21
-525.10147243315703
  0
LINE
  8
_0-3_躯体と製品
  6
PLINE6
 62
    5
 10
-2332.1901167145588
 20
-583.02507243315733
 11
-2174.8484567145615
 21
-425.6834124331566
  0
LINE
  8
_0-3_躯体と製品
  6
PLINE6
 62
    5
 10
-2326.2975567145622
 20
-541.77717243315647
 11
-2229.0941367145606
 21
-444.57375243315698
  0
LINE
  8
_0-3_躯体と製品
  6
PLINE2
 62
    5
 10
-2747.0816967145574
 20
1642.4535275668436
 11
-2611.5528967145601
 21
1777.9823275668423
  0
LINE
  8
_0-3_躯体と製品
  6
CONTINUOUS
 62
    2
 10
-2751.7471967145584
 20
1609.7950875668425
 11
-2695.6077567145612
 21
2002.7711275668426
  0
LINE
  8
_0-3_躯体と製品
  6
PLINE2
 62
    5
 10
-2741.1891367145599
 20
1683.7014275668425
 11
-2605.6603367145581
 21
1819.2302275668426
  0
LINE
  8
_0-3_躯体と製品
  6
PLINE2
 62
    5
 10
-2735.2965767145588
 20
1724.9493275668424
 11
-2599.7677767145615
 21
1860.4781275668424
  0
LINE
  8
_0-3_躯体と製品
  6
CONTINUOUS
 62
    4
 10
-2806.4306967145594
 20
1580.5638675668424
 11
-2740.8000367145587
 21
2039.9784875668424
  0
LINE
  8
_0-3_躯体と製品
  6
CONTINUOUS
 62
    2
 10
-2573.3585367145588
 20
2045.3428075668426
 11
-2627.1044567145591
 21
1669.1213475668426
  0
LINE
  8
_0-3_躯体と製品
  6
PLINE5
 62
    2
 10
-2799.4365767145591
 20
1587.0963475668425
 11
-2735.3769567145582
 21
2035.5136075668424
  0
LINE
  8
_0-3_躯体と製品
  6
CONTINUOUS
 62
    2
 10
-2481.1415967145595
 20
1759.4191075668427
 11
-2355.9396767145599
 21
1725.8713475668424
  0
LINE
  8
_0-3_躯体と製品
  6
CONTINUOUS
 62
    2
 10
-2493.827676714558
 20
1756.6066675668426
 11
-2361.939676714559
 21
1721.2673875668424
  0
LINE
  8
_0-3_躯体と製品
  6
CONTINUOUS
 62
    4
 10
-2371.4534367145579
 20
1859.6824675668436
 11
-2509.3413967145616
 21
1743.9807275668425
  0
LINE
  8
_0-3_躯体と製品
  6
PLINE2
 62
    2
 10
-2349.9396767145618
 20
1308.8552275668435
 11
-2349.9396767145618
 21
1911.5967475668426
  0
LINE
  8
_0-3_躯体と製品
  6
CONTINUOUS
 62
    2
 10
-2305.939676714559
 20
1320.9641475668429
 11
-2305.939676714559
 21
1994.4575275668426
  0
LINE
  8
_0-3_躯体と製品
  6
CONTINUOUS
 62
    2
 10
-2355.9396767145599
 20
1304.9491075668434
 11
-2355.9396767145599
 21
1977.0456875668438
  0
LINE
  8
_0-3_躯体と製品
  6
CONTINUOUS
 62
    4
 10
-2356.939676714559
 20
1164.745087566843
 11
-2356.939676714559
 21
1634.3857475668424
  0
LINE
  8
_0-3_躯体と製品
  6
PLINE2
 62
    2
 10
-2349.9396767145618
 20
1165.8010475668434
 11
-2349.9396767145618
 21
1308.7575675668434
  0
LINE
  8
_0-3_躯体と製品
  6
CONTINUOUS
 62
    2
 10
-2305.939676714559
 20
1179.0010475668432
 11
-2305.939676714559
 21
1320.8176875668432
  0
LINE
  8
_0-3_躯体と製品
  6
CONTINUOUS
 62
    2
 10
-2355.9396767145599
 20
1164.0010475668432
 11
-2355.9396767145599
 21
1304.900287566843
  0
LINE
  8
_0-3_躯体と製品
  6
CONTINUOUS
 62
    2
 10
-2365.9396767145599
 20
1214.0010475668432
 11
-2365.9396767145599
 21
1512.4224675668424
  0
LINE
  8
_0-3_躯体と製品
  6
CONTINUOUS
 62
    4
 10
-2547.789876714558
 20
1107.4900275668431
 11
-2356.939676714559
 21
1164.745087566843
  0
LINE
  8
_0-3_躯体と製品
  6
CONTINUOUS
 62
    4
 10
-2547.789876714558
 20
1107.4900275668431
 11
-2547.6363767145585
 21
1106.9783275668431
  0
LINE
  8
_0-3_躯体と製品
  6
CONTINUOUS
 62
    4
 10
-2547.6363767145585
 20
1106.9783275668431
 11
-2530.94503671456
 21
1111.9857275668433
  0
LINE
  8
_0-3_躯体と製品
  6
CONTINUOUS
 62
    2
 10
-2372.4847367145594
 20
1248.8020075668433
 11
-2342.4847367145585
 21
1248.8020075668433
  0
LINE
  8
_0-3_躯体と製品
  6
CONTINUOUS
 62
    2
 10
-2355.9396767145599
 20
1214.0010475668432
 11
-2365.9396767145599
 21
1214.0010475668432
  0
LINE
  8
_0-3_躯体と製品
  6
CONTINUOUS
 62
    4
 10
-2805.939676714559
 20
1584.0010475668425
 11
-2445.9396767145599
 21
1368.0010475668425
  0
LINE
  8
_0-3_躯体と製品
  6
CONTINUOUS
 62
    2
 10
-2365.9396767145599
 20
1378.3105675668426
 11
-2751.7471967145584
 21
1609.7950875668425
  0
LINE
  8
_0-3_躯体と製品
  6
CONTINUOUS
 62
    2
 10
-2627.1044567145591
 20
1669.1213475668426
 11
-2365.9396767145599
 21
1512.4224675668424
  0
LINE
  8
_0-3_躯体と製品
  6
PLINE5
 62
    2
 10
-2365.9396767145599
 20
1326.9982075668431
 11
-2799.4365767145591
 21
1587.0963475668425
  0
LINE
  8
_0-3_躯体と製品
  6
PLINE2
 62
    5
 10
-2592.466096714561
 20
1514.2264275668424
 11
-2508.6461567145561
 21
1598.0463475668425
  0
LINE
  8
_0-3_躯体と製品
  6
PLINE2
 62
    5
 10
-2526.1748367145574
 20
1474.4516675668424
 11
-2442.3548967145598
 21
1558.2716075668425
  0
LINE
  8
_0-3_躯体と製品
  6
PLINE2
 62
    5
 10
-2548.2719167145615
 20
1487.7099275668425
 11
-2464.4519767145575
 21
1571.5298475668426
  0
LINE
  8
_0-3_躯体と製品
  6
PLINE2
 62
    5
 10
-2570.3689967145592
 20
1500.9681675668426
 11
-2486.5490767145584
 21
1584.7881075668424
  0
LINE
  8
_0-3_躯体と製品
  6
PLINE2
 62
    5
 10
-2481.9806567145588
 20
1447.9351675668424
 11
-2398.1607167145594
 21
1531.7550875668426
  0
LINE
  8
_0-3_躯体と製品
  6
PLINE2
 62
    5
 10
-2504.0777367145611
 20
1461.1934075668426
 11
-2420.257796714558
 21
1545.0133475668424
  0
LINE
  8
_0-3_躯体と製品
  6
CONTINUOUS
 62
    2
 10
-2611.9709767145605
 20
1481.6141075668424
 11
-2624.833356714561
 21
1460.1767875668424
  0
LINE
  8
_0-3_躯体と製品
  6
PLINE2
 62
    5
 10
-2415.6893967145597
 20
1408.1604075668424
 11
-2365.9396767145599
 21
1457.9101275668436
  0
LINE
  8
_0-3_躯体と製品
  6
PLINE2
 62
    5
 10
-2437.7864767145584
 20
1421.4186475668425
 11
-2365.9396767145599
 21
1493.2654675668425
  0
LINE
  8
_0-3_躯体と製品
  6
PLINE2
 62
    5
 10
-2459.883556714557
 20
1434.6769075668426
 11
-2376.0636367145607
 21
1518.4968475668425
  0
LINE
  8
_0-3_躯体と製品
  6
PLINE2
 62
    5
 10
-2371.4952167145602
 20
1381.6439075668425
 11
-2365.9396767145599
 21
1387.1994475668425
  0
LINE
  8
_0-3_躯体と製品
  6
CONTINUOUS
 62
    2
 10
-2372.4847367145594
 20
1295.1886275668435
 11
-2342.4847367145585
 21
1295.1886275668435
  0
LINE
  8
_0-3_躯体と製品
  6
CONTINUOUS
 62
    2
 10
-2365.9396767145599
 20
1378.3105675668426
 11
-2355.9396767145599
 21
1378.3105675668426
  0
LINE
  8
_0-3_躯体と製品
  6
CONTINUOUS
 62
    4
 10
-2445.9396767145599
 20
1368.0010475668425
 11
-2445.9396767145599
 21
1314.0010475668432
  0
LINE
  8
_0-3_躯体と製品
  6
CONTINUOUS
 62
    2
 10
-2464.7762167145584
 20
1393.2972675668425
 11
-2477.6386167145611
 21
1371.8599475668425
  0
LINE
  8
_0-3_躯体と製品
  6
CONTINUOUS
 62
    4
 10
-2442.7396767145583
 20
1326.5783475668431
 11
-2442.7396767145583
 21
1314.0010475668432
  0
LINE
  8
_0-3_躯体と製品
  6
CONTINUOUS
 62
    4
 10
-2442.7396767145583
 20
1314.0010475668432
 11
-2445.9396767145599
 21
1314.0010475668432
  0
LINE
  8
_0-3_躯体と製品
  6
CONTINUOUS
 62
    2
 10
-2365.9396767145599
 20
1320.0010475668432
 11
-2445.9396767145599
 21
1368.0010475668425
  0
LINE
  8
_0-3_躯体と製品
  6
PLINE2
 62
    5
 10
-2393.5922967145598
 20
1394.9021475668426
 11
-2365.9396767145599
 21
1422.5547875668426
  0
LINE
  8
_0-3_躯体と製品
  6
CONTINUOUS
 62
    2
 10
-2812.0730767145592
 20
1629.4556075668424
 11
-2787.3243367145596
 21
1625.9200675668435
  0
LINE
  8
_0-3_躯体と製品
  6
CONTINUOUS
 62
    4
 10
-2806.4306967145594
 20
1580.5638675668424
 11
-2784.9933767145594
 21
1567.7014675668424
  0
LINE
  8
_0-3_躯体と製品
  6
CONTINUOUS
 62
    2
 10
-2757.1860567145577
 20
1539.5884075668425
 11
-2744.3236567145595
 21
1561.0257275668425
  0
LINE
  8
_0-3_躯体と製品
  6
PLINE2
 62
    5
 10
-2680.8544367145614
 20
1567.2594275668425
 11
-2597.0344967145584
 21
1651.0793675668424
  0
LINE
  8
_0-3_躯体と製品
  6
PLINE2
 62
    5
 10
-2702.9515167145601
 20
1580.5176875668435
 11
-2619.1315967145592
 21
1664.3376075668434
  0
LINE
  8
_0-3_躯体と製品
  6
PLINE2
 62
    5
 10
-2725.04861671456
 20
1593.7759275668425
 11
-2623.3380167145606
 21
1695.4865275668426
  0
LINE
  8
_0-3_躯体と製品
  6
PLINE2
 62
    5
 10
-2747.1456967145596
 20
1607.0341875668425
 11
-2617.4454567145585
 21
1736.7344275668424
  0
LINE
  8
_0-3_躯体と製品
  6
PLINE2
 62
    5
 10
-2614.5631767145596
 20
1527.4846675668425
 11
-2530.7432367145602
 21
1611.3046075668435
  0
LINE
  8
_0-3_躯体と製品
  6
PLINE2
 62
    5
 10
-2636.6602567145574
 20
1540.7429275668426
 11
-2552.8403367145611
 21
1624.5628675668422
  0
LINE
  8
_0-3_躯体と製品
  6
PLINE2
 62
    5
 10
-2658.7573567145582
 20
1554.0011875668424
 11
-2574.9374167145597
 21
1637.8211075668423
  0
LINE
  8
_0-3_躯体と製品
  6
CONTINUOUS
 62
    4
 10
-2509.1485567145583
 20
1743.9807275668425
 11
-2509.1485567145583
 21
1728.9807275668425
  0
LINE
  8
_0-3_躯体と製品
  6
CONTINUOUS
 62
    2
 10
-2361.939676714559
 20
1695.8713475668424
 11
-2355.9396767145599
 21
1695.8713475668424
  0
LINE
  8
_0-3_躯体と製品
  6
CONTINUOUS
 62
    2
 10
-2372.4847367145594
 20
1710.8713475668424
 11
-2342.4847367145585
 21
1710.8713475668424
  0
LINE
  8
_0-3_躯体と製品
  6
CONTINUOUS
 62
    4
 10
-2395.0865567145584
 20
1624.1643275668425
 11
-2356.939676714559
 21
1634.3857475668424
  0
LINE
  8
_0-3_躯体と製品
  6
CONTINUOUS
 62
    2
 10
-2361.939676714559
 20
1721.2673875668424
 11
-2361.939676714559
 21
1695.8713475668424
  0
LINE
  8
_0-3_躯体と製品
  6
CONTINUOUS
 62
    2
 10
-2335.4539967145583
 20
1605.7091475668435
 11
-2321.4539967145574
 21
1605.7091475668435
  0
LINE
  8
_0-3_躯体と製品
  6
CONTINUOUS
 62
    2
 10
-2337.1891167145614
 20
1584.3857475668424
 11
-2349.9396767145618
 21
1584.3857475668424
  0
LINE
  8
_0-3_躯体と製品
  6
CONTINUOUS
 62
    2
 10
-2328.4539967145602
 20
1612.7091475668426
 11
-2328.4539967145602
 21
1598.7091475668435
  0
TEXT
  8
_0-4_図面枠
 62
    7
 10
-2656.7083767145596
 20
2675.0441075668423
 40
60
 41
0.7999999999999999
 50
0
  1
Ｓ　１：２０
  0
TEXT
  8
_0-4_図面枠
 62
    7
 10
-3260.0267967145592
 20
2678.2521275668423
 40
60
 41
0.8000000000000006
 50
0
  1
縮　　尺
  0
LINE
  8
_0-4_図面枠
  6
CONTINUOUS
 62
    2
 10
-2784.5389367145608
 20
2966.9999875668427
 11
-2784.5389367145608
 21
2633.6666475668426
  0
LINE
  8
_0-3_躯体と製品
  6
PLINE2
 62
    5
 10
-2699.9412367145615
 20
1972.4366875668425
 11
-2655.71451671456
 21
2016.6634275668434
  0
LINE
  8
_0-3_躯体と製品
  6
PLINE2
 62
    5
 10
-2711.726356714561
 20
1889.9409075668425
 11
-2576.1975567145582
 21
2025.4697075668423
  0
LINE
  8
_0-3_躯体と製品
  6
PLINE2
 62
    5
 10
-2705.833796714558
 20
1931.1887875668426
 11
-2601.46883671456
 21
2035.5537675668425
  0
LINE
  8
_0-3_躯体と製品
  6
CONTINUOUS
 62
    2
 10
-2343.8893167145561
 20
1934.6504675668425
 11
-2611.4955967145561
 21
1841.4601075668425
  0
LINE
  8
_0-3_躯体と製品
  6
CONTINUOUS
 62
    2
 10
-2499.1479367145621
 20
1948.8827475668425
 11
-2490.9262567145606
 21
1925.2733275668438
  0
LINE
  8
_0-3_躯体と製品
  6
CONTINUOUS
 62
    2
 10
-2622.0116767145591
 20
1837.7980275668424
 11
-2646.0156967145613
 21
1829.4389275668434
  0
LINE
  8
_0-3_躯体と製品
  6
CONTINUOUS
 62
    2
 10
-2694.8165367145602
 20
1865.3896675668425
 11
-2737.4985567145577
 21
1850.5262275668435
  0
LINE
  8
_0-3_躯体と製品
  6
CONTINUOUS
 62
    2
 10
-2631.1883167145606
 20
1887.5473675668422
 11
-2675.7805367145593
 21
1872.0187075668423
  0
LINE
  8
_0-3_躯体と製品
  6
CONTINUOUS
 62
    2
 10
-2762.8825367145591
 20
1973.7894475668425
 11
-2738.1337967145582
 21
1970.2539075668428
  0
LINE
  8
_0-3_躯体と製品
  6
CONTINUOUS
 62
    2
 10
-2743.7919767145595
 20
1848.3346275668425
 11
-2763.0761767145614
 21
1841.6191475668436
  0
LINE
  8
_0-3_躯体と製品
  6
CONTINUOUS
 62
    2
 10
-2699.630596714559
 20
1810.7682475668425
 11
-2744.2706367145583
 21
1795.2229475668423
  0
LINE
  8
_0-3_躯体と製品
  6
CONTINUOUS
 62
    2
 10
-2787.4541967145606
 20
1801.7877475668424
 11
-2762.7054567145615
 21
1798.2522075668426
  0
LINE
  8
_0-3_躯体と製品
  6
CONTINUOUS
 62
    2
 10
-2758.0283967145624
 20
1790.4319875668434
 11
-2771.0357167145585
 21
1785.9023475668428
  0
LINE
  8
_0-3_躯体と製品
  6
CONTINUOUS
 62
    2
 10
-2751.767156714558
 20
1818.5664675668424
 11
-2737.9078567145598
 21
1816.5865675668424
  0
LINE
  8
_0-3_躯体と製品
  6
CONTINUOUS
 62
    2
 10
-2743.8475567145588
 20
1824.5061675668426
 11
-2745.827456714559
 21
1810.6468875668425
  0
LINE
  8
_0-3_躯体と製品
  6
CONTINUOUS
 62
    2
 10
-2652.7272167145602
 20
1827.1017275668426
 11
-2686.8586367145581
 21
1815.2159275668425
  0
LINE
  8
_0-3_躯体と製品
  6
PLINE2
 62
    5
 10
-2729.4040167145604
 20
1766.1972075668434
 11
-2593.8752167145594
 21
1901.7260075668414
  0
LINE
  8
_0-3_躯体と製品
  6
PLINE2
 62
    5
 10
-2723.5114767145606
 20
1807.4451075668426
 11
-2587.9826767145587
 21
1942.9739075668424
  0
LINE
  8
_0-3_躯体と製品
  6
PLINE2
 62
    5
 10
-2717.6189167145585
 20
1848.6930075668424
 11
-2582.0901167145612
 21
1984.2218075668425
  0
LINE
  8
_0-3_躯体と製品
  6
CONTINUOUS
 62
    4
 10
-2581.8265167145582
 20
1896.8547675668424
 11
-2581.8265167145582
 21
1906.8547675668437
  0
LINE
  8
_0-3_躯体と製品
  6
CONTINUOUS
 62
    2
 10
-2337.8878967145602
 20
1958.7169675668436
 11
-2323.8878967145583
 21
1958.7169675668436
  0
LINE
  8
_0-3_躯体と製品
  6
CONTINUOUS
 62
    2
 10
-2330.8878967145611
 20
1965.7169675668433
 11
-2330.8878967145611
 21
1951.7169675668438
  0
LINE
  8
_0-3_躯体と製品
  6
CONTINUOUS
 62
    2
 10
-2361.939676714559
 20
1867.2738475668425
 11
-2361.939676714559
 21
1894.4760075668426
  0
LINE
  8
_0-3_躯体と製品
  6
CONTINUOUS
 62
    2
 10
-2355.9396767145599
 20
1894.4760075668426
 11
-2361.939676714559
 21
1894.4760075668426
  0
LINE
  8
_0-3_躯体と製品
  6
CONTINUOUS
 62
    2
 10
-2355.9396767145599
 20
1911.5967475668426
 11
-2349.9396767145618
 21
1911.5967475668426
  0
LINE
  8
_0-3_躯体と製品
  6
CONTINUOUS
 62
    4
 10
-2371.4534367145579
 20
1874.6824675668436
 11
-2371.4534367145579
 21
1859.6824675668436
  0
LINE
  8
_0-3_躯体と製品
  6
CONTINUOUS
 62
    2
 10
-2372.4847367145594
 20
1879.4760075668426
 11
-2342.4847367145585
 21
1879.4760075668426
  0
LINE
  8
_0-3_躯体と製品
  6
CONTINUOUS
 62
    2
 10
-2355.9396767145599
 20
1864.4760075668426
 11
-2481.1415967145595
 21
1759.4191075668427
  0
LINE
  8
_0-3_躯体と製品
  6
CONTINUOUS
 62
    2
 10
-2361.939676714559
 20
1867.2738475668425
 11
-2493.827676714558
 21
1756.6066675668426
  0
LINE
  8
_0-3_躯体と製品
  6
CONTINUOUS
 62
    2
 10
-2434.5255367145583
 20
1825.9481875668434
 11
-2415.2418967145595
 21
1802.9668675668424
  0
LINE
  8
_0-3_躯体と製品
  6
CONTINUOUS
 62
    2
 10
-2695.6077567145612
 20
2002.7711275668426
 11
-2339.4963367145592
 21
2126.7822275668427
  0
LINE
  8
_0-3_躯体と製品
  6
CONTINUOUS
 62
    4
 10
-2355.9396767145599
 20
2174.0010475668423
 11
-2744.2017567145604
 21
2038.7938875668424
  0
LINE
  8
_0-3_躯体と製品
  6
PLINE5
 62
    2
 10
-2735.3769567145582
 20
2035.5136075668424
 11
-2353.9664767145587
 21
2168.3347875668428
  0
LINE
  8
_0-3_躯体と製品
  6
CONTINUOUS
 62
    4
 10
-2744.2017567145604
 20
2038.7938875668424
 11
-2751.0389567145594
 21
1990.9335675668422
  0
LINE
  8
_0-3_躯体と製品
  6
CONTINUOUS
 62
    2
 10
-2555.7889167145595
 20
2111.2890475668428
 11
-2547.5672367145571
 21
2087.6796275668426
  0
LINE
  8
_0-3_躯体と製品
  6
CONTINUOUS
 62
    2
 10
-2566.3541367145572
 20
2094.3735875668426
 11
-2568.0718567145586
 21
2082.3495475668428
  0
LINE
  8
_0-3_躯体と製品
  6
CONTINUOUS
 62
    2
 10
-2568.8220967145617
 20
2077.0979275668437
 11
-2571.5526967145606
 21
2057.9837675668423
  0
LINE
  8
_0-3_躯体と製品
  6
CONTINUOUS
 62
    2
 10
-2571.8998967145571
 20
2055.5532675668437
 11
-2573.3585367145588
 21
2045.3428075668426
  0
LINE
  8
_0-3_躯体と製品
  6
CONTINUOUS
 62
    2
 10
-2694.6634967145601
 20
2062.9277875668427
 11
-2686.4418367145618
 21
2039.3183875668433
  0
LINE
  8
_0-3_躯体と製品
  6
CONTINUOUS
 62
    4
 10
-2355.9396767145599
 20
2174.0010475668423
 11
-2355.9396767145599
 21
2214.0010475668423
  0
LINE
  8
_0-3_躯体と製品
  6
CONTINUOUS
 62
    2
 10
-2353.9664767145587
 20
2168.3347875668428
 11
-2337.6951967145615
 21
2174.0010475668423
  0
LINE
  8
_0-3_躯体と製品
  6
CONTINUOUS
 62
    4
 10
-2355.9396767145599
 20
2214.0010475668423
 11
-2352.7396767145583
 21
2214.0010475668423
  0
LINE
  8
_0-3_躯体と製品
  6
CONTINUOUS
 62
    4
 10
-2352.7396767145583
 20
2200.0888875668425
 11
-2352.7396767145583
 21
2214.0010475668423
  0
LINE
  8
_0-3_躯体と製品
  6
CONTINUOUS
 62
    2
 10
-2409.4145367145611
 20
2162.2619875668424
 11
-2401.1928767145582
 21
2138.6525675668427
  0
LINE
  8
_0-3_躯体と製品
  6
CONTINUOUS
 62
    2
 10
-2425.1310367145607
 20
2137.1992875668425
 11
-2379.0932967145591
 21
2153.2313075668435
  0
LINE
  8
_0-3_躯体と製品
  6
CONTINUOUS
 62
    2
 10
-2371.7367967145583
 20
2155.7931075668434
 11
-2336.6803767145611
 21
2168.0010475668423
  0
LINE
  8
_0-3_躯体と製品
  6
CONTINUOUS
 62
    2
 10
-2355.9396767145599
 20
2174.0010475668423
 11
-2339.4963367145592
 21
2126.7822275668427
  0
LINE
  8
_0-3_躯体と製品
  6
CONTINUOUS
 62
    2
 10
-2448.4041167145597
 20
2135.4481275668422
 11
-2446.4309167145611
 21
2129.7818675668423
  0
LINE
  8
_0-3_躯体と製品
  6
CONTINUOUS
 62
    2
 10
-2446.4309167145611
 20
2129.7818675668423
 11
-2431.6950767145581
 21
2134.9134275668425
  0
TEXT
  8
_0-4_図面枠
 62
    7
 10
-3294.8569967145613
 20
2835.8519075668419
 40
60
 41
0.8000000000000001
 50
0
  1
ファイル名
  0
TEXT
  8
_0-4_図面枠
 62
    7
 10
-2658.5265367145621
 20
2839.7441275668425
 40
60
 41
0.7999999999999999
 50
0
  1
ＭＯＮ００２
  0
TEXT
  8
_0-4_図面枠
 62
    7
 10
23.950663285442715
 20
-171.91557243315719
 40
60
 41
0.8000000000000001
 50
0
  1
　　シルタップ
  0
LINE
  8
_0-3_躯体と製品
  6
PLINE2
 62
    5
 10
2035.6319232854385
 20
-242.40255243315676
 11
2163.1840032854379
 21
-114.85047243315739
  0
LINE
  8
_0-3_躯体と製品
  6
PLINE2
 62
    5
 10
1991.4377632854394
 20
-215.88603243315663
 11
2118.9898232854357
 21
-88.333972433157328
  0
LINE
  8
_0-3_躯体と製品
  6
PLINE2
 62
    5
 10
1947.2435832854353
 20
-189.36953243315747
 11
2074.7956632854366
 21
-61.817472433157093
  0
LINE
  8
_0-3_躯体と製品
  6
PLINE2
 62
    5
 10
1903.0494032854403
 20
-162.85303243315741
 11
2030.601483285438
 21
-35.300952433157022
  0
LINE
  8
_0-3_躯体と製品
  6
PLINE2
 62
    5
 10
1858.8552432854394
 20
-136.33653243315723
 11
1986.4073032854376
 21
-8.7844524331567868
  0
LINE
  8
_0-3_躯体と製品
  6
PLINE3
 62
    2
 10
-973.03717671455979
 20
-77.983772433157014
 11
-973.03717671455979
 21
-1726.7980124331575
  0
LINE
  8
_0-3_躯体と製品
  6
CONTINUOUS
 62
    2
 10
3547.1636832854329
 20
-109.41373243315741
 11
3547.1636832854329
 21
-123.41373243315712
  0
LINE
  8
_0-3_躯体と製品
  6
CONTINUOUS
 62
    3
 10
4013.8976232854329
 20
-44.310732433157
 11
3531.8013832854322
 21
-333.56849243315639
  0
LINE
  8
_0-3_躯体と製品
  6
CONTINUOUS
 62
    2
 10
3438.9984632854321
 20
-109.41373243315741
 11
3438.9984632854321
 21
-123.41373243315712
  0
LINE
  8
_0-3_躯体と製品
  6
CONTINUOUS
 62
    2
 10
3300.6476032854425
 20
-109.41373243315741
 11
3300.6476032854425
 21
-123.41373243315712
  0
LINE
  8
_0-3_躯体と製品
  6
CONTINUOUS
 62
    2
 10
3127.9186432854331
 20
-109.41373243315741
 11
3127.9186432854331
 21
-123.41373243315712
  0
LINE
  8
_0-3_躯体と製品
  6
CONTINUOUS
 62
    2
 10
2970.1111032854424
 20
-109.41373243315741
 11
2970.1111032854424
 21
-123.41373243315712
  0
LINE
  8
_0-3_躯体と製品
  6
CONTINUOUS
 62
    3
 10
1830.6675632854422
 20
84.659387566843122
 11
2176.8013832854376
 21
-123.0208924331564
  0
LINE
  8
_0-3_躯体と製品
  6
CONTINUOUS
 62
    4
 10
2185.8013832854394
 20
-540.66969243315714
 11
2185.8013832854394
 21
35.240807566842875
  0
LINE
  8
_0-3_躯体と製品
  6
PLINE5
 62
    3
 10
1593.3044632854399
 20
-28.318452433156722
 11
2176.8013832854376
 21
-378.41659243315678
  0
LINE
  8
_0-3_躯体と製品
  6
CONTINUOUS
 62
    3
 10
1640.9938632854391
 20
-5.6197124331570762
 11
2176.8013832854376
 21
-327.10421243315625
  0
LINE
  8
_0-3_躯体と製品
  6
CONTINUOUS
 62
    4
 10
1586.8013832854413
 20
-31.413732433156724
 11
2066.8013832854394
 21
-319.41373243315741
  0
LINE
  8
_0-3_躯体と製品
  6
PLINE5
 62
    3
 10
2192.8013832854413
 20
438.05336756684267
 11
2192.8013832854413
 21
-539.61373243315722
  0
LINE
  8
_0-3_躯体と製品
  6
CONTINUOUS
 62
    3
 10
2186.8013832854376
 20
498.09690756684302
 11
2186.8013832854376
 21
-541.41373243315672
  0
LINE
  8
_0-3_躯体と製品
  6
PLINE4
 62
    2
 10
2786.8013832854394
 20
877.90348756684295
 11
2786.8013832854394
 21
-770.85619243315659
  0
LINE
  8
_0-3_躯体と製品
  6
CONTINUOUS
 62
    3
 10
2236.8013832854394
 20
-526.41373243315672
 11
2236.8013832854394
 21
515.50874756684266
  0
LINE
  8
_0-4_図面枠
  6
CONTINUOUS
 62
    2
 10
-101.92271671456001
 20
-269.19367243315696
 11
-9.2683567145595589
 21
-108.71161243315663
  0
LINE
  8
_0-4_図面枠
  6
CONTINUOUS
 62
    2
 10
-1628.988396714557
 20
-215.12729243315664
 11
-1529.9202967145575
 21
-43.536292433156916
  0
LINE
  8
_0-4_図面枠
  6
CONTINUOUS
 62
    2
 10
-1948.0121167145626
 20
-280.79795243315721
 11
-2043.5226767145596
 21
-115.36881243315622
  0
LINE
  8
_0-4_図面枠
  6
CONTINUOUS
 62
    4
 10
4292.1277432854422
 20
-2373.0000124331564
 11
4292.1277432854422
 21
2966.9999875668427
  0
TEXT
  8
_0-4_図面枠
 62
    7
 10
3132.090303285433
 20
-1681.0885524331566
 40
60
 41
0.7999999999999988
 50
0
  1
０．８
  0
TEXT
  8
_0-4_図面枠
 62
    7
 10
3127.660363285433
 20
-1515.4917724331565
 40
60
 41
0.7999999999999982
 50
0
  1
板厚
  0
TEXT
  8
_0-4_図面枠
 62
    7
 10
3132.090303285433
 20
-2131.0885524331566
 40
60
 41
0.7999999999999988
 50
0
  1
１．０
  0
TEXT
  8
_0-4_図面枠
 62
    7
 10
3132.090303285433
 20
-1981.0885524331566
 40
60
 41
0.7999999999999988
 50
0
  1
１．０
  0
TEXT
  8
_0-4_図面枠
 62
    7
 10
3132.090303285433
 20
-1831.0885524331566
 40
60
 41
0.7999999999999988
 50
0
  1
０．８
  0
LINE
  8
_0-3_躯体と製品
  6
PLINE5
 62
    3
 10
2786.8013832854394
 20
-141.41373243315672
 11
3664.1308232854335
 21
-141.41373243315672
  0
LINE
  8
_0-3_躯体と製品
  6
PLINE2
 62
    3
 10
2786.8013832854394
 20
-361.41373243315661
 11
3843.6290232854335
 21
-678.46203243315654
  0
LINE
  8
_0-3_躯体と製品
  6
CONTINUOUS
 62
    4
 10
3578.651583285442
 20
-597.92475243315698
 11
2786.8013832854394
 21
-360.36969243315627
  0
LINE
  8
_0-4_図面枠
  6
CONTINUOUS
 62
    2
 10
971.80890328544137
 20
-1998.2358524331567
 11
3920.7151032854326
 21
-1998.2358524331567
  0
LINE
  8
_0-4_図面枠
  6
CONTINUOUS
 62
    2
 10
971.80890328544137
 20
-1848.2358524331567
 11
3920.7151032854326
 21
-1848.2358524331567
  0
LINE
  8
_0-4_図面枠
  6
CONTINUOUS
 62
    2
 10
971.80890328544137
 20
-1698.2358524331564
 11
3920.7151032854326
 21
-1698.2358524331564
  0
LINE
  8
_0-4_図面枠
  6
CONTINUOUS
 62
    2
 10
971.80890328544137
 20
-1548.2358524331564
 11
3920.7151032854326
 21
-1548.2358524331564
  0
LINE
  8
_0-4_図面枠
  6
CONTINUOUS
 62
    2
 10
971.80890328544137
 20
-1538.2358524331564
 11
3920.7151032854326
 21
-1538.2358524331564
  0
LINE
  8
_0-4_図面枠
  6
CONTINUOUS
 62
    2
 10
971.80890328544137
 20
-1548.2358524331564
 11
3920.7151032854326
 21
-1548.2358524331564
  0
LINE
  8
_0-4_図面枠
  6
CONTINUOUS
 62
    3
 10
971.80890328544137
 20
-2148.2358524331576
 11
3920.7151032854326
 21
-2148.2358524331576
  0
LINE
  8
_0-4_図面枠
  6
CONTINUOUS
 62
    3
 10
3920.7151032854326
 20
-1398.2358524331564
 11
971.80890328544137
 21
-1398.2358524331564
  0
INSERT
  2
-004-_D7
  8
_0-2_寸法
 10
-6893.8263907411074
 20
342.7945120475265
 41
10
 42
10
 50
0
  0
LINE
  8
_0-4_図面枠
  6
CONTINUOUS
 62
    2
 10
3070.7151032854381
 20
-1398.2358524331564
 11
3070.7151032854381
 21
-2148.2358524331576
  0
LINE
  8
_0-4_図面枠
  6
CONTINUOUS
 62
    2
 10
2670.7151032854381
 20
-1398.2358524331564
 11
2670.7151032854381
 21
-2148.2358524331576
  0
LINE
  8
_0-4_図面枠
  6
CONTINUOUS
 62
    2
 10
2270.7151032854381
 20
-1398.2358524331564
 11
2270.7151032854381
 21
-2148.2358524331576
  0
LINE
  8
_0-4_図面枠
  6
CONTINUOUS
 62
    2
 10
1870.7151032854381
 20
-1398.2358524331564
 11
1870.7151032854381
 21
-2148.2358524331576
  0
LINE
  8
_0-4_図面枠
  6
CONTINUOUS
 62
    2
 10
1470.7151032854381
 20
-1398.2358524331564
 11
1470.7151032854381
 21
-2148.2358524331576
  0
LINE
  8
_0-4_図面枠
  6
CONTINUOUS
 62
    3
 10
971.80890328544137
 20
-1398.2358524331564
 11
971.80890328544137
 21
-2148.2358524331576
  0
TEXT
  8
_0-4_図面枠
 62
    7
 10
-1125.9873967145577
 20
-2210.3241924331574
 40
60
 41
0.8000000000000003
 50
0
  1
ＳＣ１５００
  0
TEXT
  8
_0-4_図面枠
 62
    7
 10
1046.1384632854388
 20
-2114.8370124331564
 40
60
 41
0.8000000000000002
 50
0
  1
ＳＣ１５００
  0
TEXT
  8
_0-4_図面枠
 62
    7
 10
1556.2788432854413
 20
-2117.5264724331564
 40
60
 41
0.8
 50
0
  1
１５００
  0
TEXT
  8
_0-4_図面枠
 62
    7
 10
2350.2983032854409
 20
-2123.8474924331567
 40
60
 41
0.8000000000000006
 50
0
  1
　１５０
  0
TEXT
  8
_0-4_図面枠
 62
    7
 10
1962.1537832854392
 20
-2116.4611924331575
 40
60
 41
0.7999999999999996
 50
0
  1
１５００
  0
TEXT
  8
_0-4_図面枠
 62
    7
 10
2750.2983032854409
 20
-2123.8474924331567
 40
60
 41
0.8000000000000006
 50
0
  1
３０００
  0
LINE
  8
_0-3_躯体と製品
  6
CONTINUOUS
 62
    3
 10
554.05906328544188
 20
-1228.2980924331564
 11
-48.037176714560701
 21
-1589.5558324331564
  0
LINE
  8
_0-3_躯体と製品
  6
CONTINUOUS
 62
    3
 10
554.05906328544188
 20
-1228.2980924331564
 11
438.48730328543752
 21
-419.29579243315732
  0
LINE
  8
_0-4_図面枠
  6
CONTINUOUS
 62
    2
 10
437.80278328543773
 20
-562.66585243315706
 11
692.09284328544163
 21
-122.2225724331575
  0
LINE
  8
_0-3_躯体と製品
  6
PLINE5
 62
    3
 10
-1717.0371767145607
 20
-605.13443243315669
 11
-1717.0371767145607
 21
-1813.0010724331564
  0
LINE
  8
_0-3_躯体と製品
  6
CONTINUOUS
 62
    3
 10
-1673.0371767145598
 20
-522.01259243315678
 11
-1673.0371767145598
 21
-1799.8010724331566
  0
LINE
  8
_0-3_躯体と製品
  6
CONTINUOUS
 62
    3
 10
-1723.0371767145598
 20
-539.42443243315665
 11
-1723.0371767145598
 21
-1814.8010724331566
  0
LINE
  8
_0-3_躯体と製品
  6
PLINE5
 62
    3
 10
-973.03717671455979
 20
-1340.4010724331565
 11
172.17912328544116
 21
-1340.4010724331565
  0
LINE
  8
_0-3_躯体と製品
  6
PLINE5
 62
    3
 10
-973.03717671455979
 20
-1296.4010724331565
 11
172.17912328544116
 21
-1296.4010724331565
  0
LINE
  8
_0-3_躯体と製品
  6
PLINE5
 62
    3
 10
-973.03717671455979
 20
-1290.4010724331565
 11
172.17912328544116
 21
-1290.4010724331565
  0
LINE
  8
_0-3_躯体と製品
  6
PLINE2
 62
    3
 10
-973.03717671455979
 20
-1589.8010724331566
 11
235.79046328543973
 21
-1952.4493724331564
  0
LINE
  8
_0-3_躯体と製品
  6
CONTINUOUS
 62
    4
 10
16.617483285441267
 20
-1885.6534524331573
 11
-973.03717671455979
 21
-1588.7570524331568
  0
LINE
  8
_0-3_躯体と製品
  6
PLINE6
 62
    5
 10
-1815.7216767145601
 20
-1551.4808724331565
 11
-1733.0371767145607
 21
-1468.7963724331555
  0
LINE
  8
_0-3_躯体と製品
  6
PLINE6
 62
    5
 10
-1793.6245767145592
 20
-1564.7391124331566
 11
-1733.0371767145607
 21
-1504.1517124331565
  0
LINE
  8
_0-3_躯体と製品
  6
PLINE6
 62
    5
 10
-1837.8187567145587
 20
-1538.2226124331564
 11
-1733.0371767145607
 21
-1433.4410324331566
  0
LINE
  8
_0-3_躯体と製品
  6
CONTINUOUS
 62
    4
 10
-1723.2371767145596
 20
-1813.8170524331554
 11
-1723.2371767145596
 21
-1121.6506524331567
  0
LINE
  8
_0-3_躯体と製品
  6
CONTINUOUS
 62
    3
 10
-1733.0371767145607
 20
-1765.4010724331565
 11
-1733.0371767145607
 21
-1331.7015924331563
  0
LINE
  8
_0-4_図面枠
  6
CONTINUOUS
 62
    2
 10
-1683.0145367145587
 20
-1418.6621924331555
 11
-1618.9364367145608
 21
-1529.6487324331574
  0
LINE
  8
_0-4_図面枠
  6
CONTINUOUS
 62
    2
 10
-2003.7192167145613
 20
-1505.2462724331556
 11
-2014.0719767145574
 21
-1543.8832724331573
  0
LINE
  8
_0-4_図面枠
  6
CONTINUOUS
 62
    2
 10
-2003.7192167145613
 20
-1505.2462724331556
 11
-2062.2628367145617
 21
-1606.6467724331565
  0
LINE
  8
_0-3_躯体と製品
  6
CONTINUOUS
 62
    4
 10
-1962.6918367145618
 20
-1885.6534524331573
 11
-1723.2371767145596
 21
-1813.8170524331554
  0
LINE
  8
_0-3_躯体と製品
  6
CONTINUOUS
 62
    4
 10
-1962.6918367145618
 20
-1885.6534524331573
 11
-1962.5383167145574
 21
-1886.1651324331565
  0
LINE
  8
_0-3_躯体と製品
  6
CONTINUOUS
 62
    4
 10
-1962.5383167145574
 20
-1886.1651324331565
 11
-1945.8469767145598
 21
-1881.1577324331574
  0
LINE
  8
_0-3_躯体と製品
  6
CONTINUOUS
 62
    3
 10
-1723.0371767145598
 20
-1765.4010724331565
 11
-1733.0371767145607
 21
-1765.4010724331565
  0
LINE
  8
_0-3_躯体と製品
  6
CONTINUOUS
 62
    3
 10
-1733.0371767145607
 20
-1659.4010724331574
 11
-1873.0371767145598
 21
-1575.4010724331565
  0
LINE
  8
_0-3_躯体と製品
  6
CONTINUOUS
 62
    2
 10
-1908.0991967145592
 20
-1539.7864924331566
 11
-1920.9615967145592
 21
-1561.2238124331575
  0
LINE
  8
_0-3_躯体と製品
  6
CONTINUOUS
 62
    4
 10
-1873.5371767145616
 20
-1665.9010724331574
 11
-1870.9307767145574
 21
-1665.9010724331574
  0
LINE
  8
_0-3_躯体と製品
  6
CONTINUOUS
 62
    4
 10
-1873.5371767145616
 20
-1575.4010724331565
 11
-1873.5371767145616
 21
-1665.9010724331574
  0
LINE
  8
_0-3_躯体と製品
  6
CONTINUOUS
 62
    4
 10
-1870.9307767145574
 20
-1648.5237524331565
 11
-1870.9307767145574
 21
-1665.9010724331574
  0
LINE
  8
_0-3_躯体と製品
  6
CONTINUOUS
 62
    4
 10
-1871.4307767145583
 20
-1648.5237524331565
 11
-1871.4307767145583
 21
-1665.4010724331565
  0
LINE
  8
_0-3_躯体と製品
  6
CONTINUOUS
 62
    4
 10
-1871.4307767145583
 20
-1665.4010724331565
 11
-1873.0371767145598
 21
-1665.4010724331565
  0
LINE
  8
_0-3_躯体と製品
  6
CONTINUOUS
 62
    4
 10
-1873.0371767145598
 20
-1665.4010724331565
 11
-1873.0371767145598
 21
-1575.4010724331565
  0
LINE
  8
_0-3_躯体と製品
  6
CONTINUOUS
 62
    3
 10
-1733.0371767145607
 20
-1601.0915524331565
 11
-1723.0371767145598
 21
-1601.0915524331565
  0
LINE
  8
_0-3_躯体と製品
  6
PLINE6
 62
    5
 10
-1749.4304167145574
 20
-1591.2556124331566
 11
-1733.0371767145607
 21
-1574.8623924331564
  0
LINE
  8
_0-3_躯体と製品
  6
CONTINUOUS
 62
    2
 10
-1752.83717671456
 20
-1692.7499124331575
 11
-1692.8371767145591
 21
-1692.7499124331575
  0
LINE
  8
_0-3_躯体と製品
  6
CONTINUOUS
 62
    2
 10
-1753.0371767145607
 20
-1737.5296324331566
 11
-1693.0371767145607
 21
-1737.5296324331566
  0
LINE
  8
_0-3_躯体と製品
  6
PLINE6
 62
    5
 10
-1771.5274967145615
 20
-1577.9973724331564
 11
-1733.0371767145607
 21
-1539.5070524331566
  0
LINE
  8
_0-4_図面枠
  6
CONTINUOUS
 62
    2
 10
-1618.9364367145608
 20
-1529.6487324331574
 11
-1523.3613367145608
 21
-1529.6487324331574
  0
TEXT
  8
_0-4_図面枠
 62
    7
 10
-1624.1679367145607
 20
-1264.7810924331575
 40
60
 41
0.8000000000000001
 50
0
  1
六角ボルト
  0
LINE
  8
_0-3_躯体と製品
  6
PLINE5
 62
    3
 10
-973.03717671455979
 20
-1128.0125924331564
 11
-1717.0371767145607
 21
-1128.0125924331564
  0
LINE
  8
_0-3_躯体と製品
  6
CONTINUOUS
 62
    3
 10
-973.03717671455979
 20
-1172.0125924331564
 11
-1717.0371767145607
 21
-1172.0125924331564
  0
LINE
  8
_0-3_躯体と製品
  6
CONTINUOUS
 62
    3
 10
-973.03717671455979
 20
-1122.0125924331564
 11
-1717.0371767145607
 21
-1122.0125924331564
  0
LINE
  8
_0-4_図面枠
  6
CONTINUOUS
 62
    2
 10
-1624.1678767145586
 20
-1274.7808524331565
 11
-1355.0906567145594
 21
-1274.7808524331565
  0
TEXT
  8
_0-4_図面枠
 62
    7
 10
-2081.2022367145601
 20
-1354.2506924331574
 40
60
 41
0.8000000000000001
 50
0
  1
排気誘導板
  0
LINE
  8
_0-3_躯体と製品
  6
PLINE6
 62
    5
 10
-1963.3813767145593
 20
-1310.2318324331554
 11
-1890.4208967145578
 21
-1237.2713524331566
  0
LINE
  8
_0-3_躯体と製品
  6
PLINE6
 62
    5
 10
-1937.3306367145588
 20
-1319.5364324331565
 11
-1868.3237967145578
 21
-1250.5296124331564
  0
LINE
  8
_0-3_躯体と製品
  6
PLINE6
 62
    5
 10
-1970.4012767145596
 20
-1458.6730924331564
 11
-1802.0325367145588
 21
-1290.3043724331565
  0
LINE
  8
_0-3_躯体と製品
  6
PLINE6
 62
    5
 10
-2147.1779767145608
 20
-1352.6070724331566
 11
-1978.8092367145591
 21
-1184.2383524331565
  0
LINE
  8
_0-3_躯体と製品
  6
PLINE6
 62
    5
 10
-2125.0808967145622
 20
-1365.8653324331567
 11
-1956.7121567145605
 21
-1197.4965924331566
  0
LINE
  8
_0-3_躯体と製品
  6
PLINE6
 62
    5
 10
-2029.451776714558
 20
-1305.5915524331574
 11
-1934.6150567145596
 21
-1210.7548524331564
  0
LINE
  8
_0-3_躯体と製品
  6
PLINE6
 62
    5
 10
-1995.566836714559
 20
-1307.0619524331564
 11
-1912.517976714561
 21
-1224.0131124331565
  0
LINE
  8
_0-3_躯体と製品
  6
PLINE6
 62
    5
 10
-2014.5954567145591
 20
-1432.1565924331564
 11
-1846.2267167145574
 21
-1263.7878524331566
  0
LINE
  8
_0-3_躯体と製品
  6
PLINE6
 62
    5
 10
-1992.4983767145604
 20
-1445.4148524331565
 11
-1824.1296367145596
 21
-1277.0461124331564
  0
LINE
  8
_0-3_躯体と製品
  6
PLINE6
 62
    5
 10
-1882.0129367145582
 20
-1511.7061124331556
 11
-1733.0371767145607
 21
-1362.7303524331564
  0
LINE
  8
_0-3_躯体と製品
  6
PLINE6
 62
    5
 10
-1859.9158367145574
 20
-1524.9643524331555
 11
-1733.0371767145607
 21
-1398.0856924331556
  0
LINE
  8
_0-3_躯体と製品
  6
PLINE6
 62
    5
 10
-1948.30419671456
 20
-1471.9313524331565
 11
-1779.9354567145601
 21
-1303.5626124331575
  0
LINE
  8
_0-3_躯体と製品
  6
PLINE6
 62
    5
 10
-1926.2071167145587
 20
-1485.1896124331574
 11
-1757.8383767145615
 21
-1316.8208724331575
  0
LINE
  8
_0-3_躯体と製品
  6
PLINE6
 62
    5
 10
-1904.1100167145578
 20
-1498.4478524331562
 11
-1735.7412767145606
 21
-1330.0791124331568
  0
LINE
  8
_0-3_躯体と製品
  6
CONTINUOUS
 62
    2
 10
-2056.7954767145584
 20
-1450.5687124331555
 11
-2069.6578767145584
 21
-1472.0060324331575
  0
LINE
  8
_0-3_躯体と製品
  6
PLINE6
 62
    5
 10
-2102.9837967145604
 20
-1379.1235924331568
 11
-2065.0165767145591
 21
-1341.1563524331566
  0
LINE
  8
_0-3_躯体と製品
  6
PLINE6
 62
    5
 10
-2080.8867167145563
 20
-1392.3818324331564
 11
-2030.3026167145617
 21
-1341.7977324331564
  0
LINE
  8
_0-3_躯体と製品
  6
PLINE6
 62
    5
 10
-2058.7896367145586
 20
-1405.6400924331565
 11
-1991.940976714558
 21
-1338.7914524331566
  0
LINE
  8
_0-3_躯体と製品
  6
PLINE6
 62
    5
 10
-2036.6925367145577
 20
-1418.8983524331566
 11
-1959.4239167145588
 21
-1341.6297324331565
  0
TEXT
  8
_0-4_図面枠
 62
    7
 10
-1618.9364567145585
 20
-1519.6486524331567
 40
60
 41
0.8000000000000006
 50
0
  1
支柱
  0
LINE
  8
_0-3_躯体と製品
  6
CONTINUOUS
 62
    2
 10
-1753.2371767145605
 20
-1479.0165124331575
 11
-1693.2371767145596
 21
-1479.0165124331575
  0
LINE
  8
_0-4_図面枠
  6
CONTINUOUS
 62
    2
 10
-1683.0145367145587
 20
-1418.6621924331555
 11
-1654.35427671456
 21
-1448.3032124331567
  0
LINE
  8
_0-3_躯体と製品
  6
CONTINUOUS
 62
    2
 10
-1705.037176714558
 20
-1147.0125924331564
 11
-1691.0371767145625
 21
-1147.0125924331564
  0
LINE
  8
_0-3_躯体と製品
  6
CONTINUOUS
 62
    2
 10
-1752.5695567145603
 20
-1217.3490324331556
 11
-1692.5695567145594
 21
-1217.3490324331556
  0
LINE
  8
_0-3_躯体と製品
  6
CONTINUOUS
 62
    2
 10
-1698.0371767145598
 20
-1140.0125924331564
 11
-1698.0371767145598
 21
-1154.0125924331576
  0
LINE
  8
_0-3_躯体と製品
  6
CONTINUOUS
 62
    4
 10
-1723.2371767145596
 20
-1121.6506524331567
 11
-1801.1951167145608
 21
-1161.1650524331565
  0
LINE
  8
_0-4_図面枠
  6
CONTINUOUS
 62
    2
 10
-1692.583516714556
 20
-1156.2815124331564
 11
-1624.1678767145586
 21
-1274.7808524331565
  0
LINE
  8
_0-4_図面枠
  6
CONTINUOUS
 62
    2
 10
-1692.583516714556
 20
-1156.2815124331564
 11
-1664.2992567145602
 21
-1184.5657524331568
  0
LINE
  8
_0-3_躯体と製品
  6
PLINE2
 62
    3
 10
-229.03717671455979
 20
-1454.5352724331574
 11
-229.03717671455979
 21
-1813.0010724331564
  0
LINE
  8
_0-3_躯体と製品
  6
PLINE2
 62
    3
 10
-273.0371767145607
 20
-1454.5352724331574
 11
-273.0371767145607
 21
-1799.8010724331566
  0
LINE
  8
_0-3_躯体と製品
  6
PLINE2
 62
    3
 10
-223.0371767145607
 20
-1454.5352724331574
 11
-223.0371767145607
 21
-1814.8010724331566
  0
LINE
  8
_0-3_躯体と製品
  6
CONTINUOUS
 62
    3
 10
-48.037176714560701
 20
-1589.5558324331564
 11
-48.037176714560701
 21
-1866.2570524331563
  0
LINE
  8
_0-3_躯体と製品
  6
CONTINUOUS
 62
    4
 10
16.617483285441267
 20
-1885.6534524331573
 11
16.463963285442333
 21
-1886.1651324331565
  0
LINE
  8
_0-3_躯体と製品
  6
CONTINUOUS
 62
    4
 10
16.463963285442333
 20
-1886.1651324331565
 11
-0.2273767145607053
 21
-1881.1577324331574
  0
LINE
  8
_0-3_躯体と製品
  6
CONTINUOUS
 62
    2
 10
-521.6613967145604
 20
-1308.7536924331564
 11
-521.6613967145604
 21
-1322.7536924331564
  0
LINE
  8
_0-3_躯体と製品
  6
CONTINUOUS
 62
    2
 10
-528.66139671455949
 20
-1315.7536924331575
 11
-514.66139671455858
 21
-1315.7536924331575
  0
LINE
  8
_0-3_躯体と製品
  6
CONTINUOUS
 62
    2
 10
-771.61953671456013
 20
-1308.4010724331565
 11
-771.61953671456013
 21
-1322.4010724331565
  0
LINE
  8
_0-3_躯体と製品
  6
CONTINUOUS
 62
    2
 10
-778.61953671455831
 20
-1315.4010724331565
 11
-764.6195367145574
 21
-1315.4010724331565
  0
LINE
  8
_0-3_躯体と製品
  6
CONTINUOUS
 62
    2
 10
-276.5494967145587
 20
-1308.7536924331564
 11
-276.5494967145587
 21
-1322.7536924331564
  0
LINE
  8
_0-3_躯体と製品
  6
CONTINUOUS
 62
    2
 10
-283.5494967145587
 20
-1315.7536924331575
 11
-269.54949671456052
 21
-1315.7536924331575
  0
LINE
  8
_0-3_躯体と製品
  6
CONTINUOUS
 62
    2
 10
185.20108328543756
 20
-1315.4010724331565
 11
199.20108328543938
 21
-1315.4010724331565
  0
LINE
  8
_0-3_躯体と製品
  6
CONTINUOUS
 62
    2
 10
-77.222376714561506
 20
-1308.4010724331565
 11
-77.222376714561506
 21
-1322.4010724331565
  0
LINE
  8
_0-3_躯体と製品
  6
CONTINUOUS
 62
    2
 10
-84.222376714560596
 20
-1315.4010724331565
 11
-70.222376714558777
 21
-1315.4010724331565
  0
LINE
  8
_0-3_躯体と製品
  6
CONTINUOUS
 62
    2
 10
192.20108328544029
 20
-1308.4010724331565
 11
192.20108328544029
 21
-1322.4010724331565
  0
LINE
  8
_0-3_躯体と製品
  6
PLINE5
 62
    3
 10
-973.03717671455979
 20
-835.40107243315651
 11
172.17912328544116
 21
-835.40107243315651
  0
LINE
  8
_0-3_躯体と製品
  6
PLINE5
 62
    3
 10
-973.03717671455979
 20
-791.40107243315651
 11
172.17912328544116
 21
-791.40107243315651
  0
LINE
  8
_0-3_躯体と製品
  6
PLINE5
 62
    3
 10
-973.03717671455979
 20
-785.40107243315651
 11
172.17912328544116
 21
-785.40107243315651
  0
LINE
  8
_0-3_躯体と製品
  6
CONTINUOUS
 62
    3
 10
-973.03717671455979
 20
-165.40107243315663
 11
-223.0371767145607
 21
-165.40107243315663
  0
LINE
  8
_0-3_躯体と製品
  6
CONTINUOUS
 62
    4
 10
-2097.6739167145606
 20
-661.94501243315653
 11
-973.20161671455844
 21
-270.36231243315672
  0
LINE
  8
_0-3_躯体と製品
  6
CONTINUOUS
 62
    4
 10
-973.03717671455979
 20
-270.83451243315699
 11
-2097.1739167145597
 21
-662.30033243315643
  0
LINE
  8
_0-3_躯体と製品
  6
CONTINUOUS
 62
    3
 10
-2111.0094767145611
 20
-668.17729243315648
 11
-973.03717671455979
 21
-271.89341243315641
  0
LINE
  8
_0-3_躯体と製品
  6
CONTINUOUS
 62
    3
 10
-1708.9868567145586
 20
-581.12319243315699
 11
-2118.9690167145582
 21
-723.89409243315754
  0
LINE
  8
_0-4_図面枠
  6
CONTINUOUS
 62
    2
 10
-1691.6635767145581
 20
-560.31961243315766
 11
-1611.0036967145597
 21
-700.02661243315652
  0
TEXT
  8
_0-4_図面枠
 62
    7
 10
-1611.0037167145574
 20
-690.02653243315558
 40
60
 41
0.8000000000000001
 50
0
  1
六角ボルト
  0
LINE
  8
_0-4_図面枠
  6
CONTINUOUS
 62
    2
 10
-1611.0036967145597
 20
-700.02661243315652
 11
-1354.4010167145598
 21
-700.02661243315652
  0
LINE
  8
_0-3_躯体と製品
  6
CONTINUOUS
 62
    3
 10
-1723.0371767145598
 20
-741.08637243315661
 11
-1927.4784367145585
 21
-912.63295243315656
  0
LINE
  8
_0-3_躯体と製品
  6
CONTINUOUS
 62
    3
 10
-1735.037176714558
 20
-735.49069243315648
 11
-1952.8505767145571
 21
-918.2578324331555
  0
LINE
  8
_0-3_躯体と製品
  6
CONTINUOUS
 62
    4
 10
-1755.6083167145607
 20
-747.53029243315655
 11
-1985.4216567145604
 21
-940.36659243315648
  0
LINE
  8
_0-3_躯体と製品
  6
CONTINUOUS
 62
    3
 10
-1927.4784367145585
 20
-912.63295243315656
 11
-1723.0371767145598
 21
-967.41283243315661
  0
LINE
  8
_0-3_躯体と製品
  6
CONTINUOUS
 62
    3
 10
-1952.8505767145571
 20
-918.2578324331555
 11
-1735.037176714558
 21
-976.62075243315644
  0
LINE
  8
_0-3_躯体と製品
  6
CONTINUOUS
 62
    2
 10
-1910.2524767145578
 20
-838.12993243315555
 11
-1871.6852167145571
 21
-884.09261243315541
  0
LINE
  8
_0-3_躯体と製品
  6
CONTINUOUS
 62
    4
 10
-1985.4216567145604
 20
-940.36659243315648
 11
-1985.4216567145604
 21
-970.36659243315648
  0
LINE
  8
_0-3_躯体と製品
  6
CONTINUOUS
 62
    3
 10
-1735.037176714558
 20
-976.62075243315644
 11
-1735.037176714558
 21
-1027.4128324331566
  0
LINE
  8
_0-3_躯体と製品
  6
CONTINUOUS
 62
    3
 10
-1723.0371767145598
 20
-1027.4128324331566
 11
-1735.037176714558
 21
-1027.4128324331566
  0
LINE
  8
_0-3_躯体と製品
  6
CONTINUOUS
 62
    2
 10
-1753.0371767145607
 20
-997.41283243315661
 11
-1693.0371767145607
 21
-997.41283243315661
  0
LINE
  8
_0-3_躯体と製品
  6
CONTINUOUS
 62
    2
 10
-1829.1752167145605
 20
-770.0980324331565
 11
-1790.6079567145607
 21
-816.06069243315642
  0
LINE
  8
_0-3_躯体と製品
  6
CONTINUOUS
 62
    2
 10
-2047.845776714561
 20
-632.94511243315685
 11
-2039.6241167145572
 21
-656.55451243315702
  0
LINE
  8
_0-3_躯体と製品
  6
CONTINUOUS
 62
    4
 10
-2097.6739167145606
 20
-677.30033243315643
 11
-2097.6739167145606
 21
-661.94501243315653
  0
LINE
  8
_0-3_躯体と製品
  6
CONTINUOUS
 62
    4
 10
-2097.1739167145597
 20
-662.30033243315643
 11
-2097.1739167145597
 21
-677.30033243315643
  0
LINE
  8
_0-3_躯体と製品
  6
PLINE5
 62
    3
 10
-1723.0371767145598
 20
-605.13443243315669
 11
-1717.0371767145607
 21
-605.13443243315669
  0
LINE
  8
_0-3_躯体と製品
  6
CONTINUOUS
 62
    3
 10
-1723.0371767145598
 20
-681.08637243315638
 11
-1735.037176714558
 21
-681.08637243315638
  0
LINE
  8
_0-3_躯体と製品
  6
CONTINUOUS
 62
    2
 10
-1753.0371767145607
 20
-711.08637243315661
 11
-1693.0371767145607
 21
-711.08637243315661
  0
LINE
  8
_0-3_躯体と製品
  6
CONTINUOUS
 62
    4
 10
-1755.6083167145607
 20
-720.5944724331564
 11
-1755.6083167145607
 21
-747.53029243315655
  0
LINE
  8
_0-3_躯体と製品
  6
CONTINUOUS
 62
    3
 10
-1735.037176714558
 20
-681.08637243315638
 11
-1735.037176714558
 21
-735.49069243315648
  0
LINE
  8
_0-3_躯体と製品
  6
CONTINUOUS
 62
    3
 10
-973.03717671455979
 20
-215.40107243315663
 11
-1704.7926967145613
 21
-215.40107243315663
  0
LINE
  8
_0-3_躯体と製品
  6
CONTINUOUS
 62
    3
 10
-1703.777876714561
 20
-221.40107243315686
 11
-973.03717671455979
 21
-221.40107243315686
  0
LINE
  8
_0-3_躯体と製品
  6
CONTINUOUS
 62
    3
 10
-973.03717671455979
 20
-324.83839243315606
 11
-1691.1822367145578
 21
-574.92297243315625
  0
LINE
  8
_0-3_躯体と製品
  6
CONTINUOUS
 62
    2
 10
-2119.909336714557
 20
-346.7237524331573
 11
-2111.6876767145595
 21
-370.33315243315644
  0
LINE
  8
_0-3_躯体と製品
  6
PLINE2
 62
    3
 10
-2064.2073767145603
 20
-340.56251243315705
 11
-2071.2117767145573
 21
-389.59329243315653
  0
LINE
  8
_0-3_躯体と製品
  6
CONTINUOUS
 62
    2
 10
-1832.2766367145587
 20
-557.87599243315628
 11
-1824.0549567145626
 21
-581.48539243315645
  0
LINE
  8
_0-3_躯体と製品
  6
CONTINUOUS
 62
    2
 10
-1578.7595967145626
 20
-469.59201243315749
 11
-1570.5379367145588
 21
-493.20143243315658
  0
LINE
  8
_0-3_躯体と製品
  6
CONTINUOUS
 62
    2
 10
-1698.0371767145598
 20
-547.79843243315645
 11
-1698.0371767145598
 21
-561.79843243315736
  0
LINE
  8
_0-3_躯体と製品
  6
CONTINUOUS
 62
    2
 10
-1705.037176714558
 20
-554.79843243315702
 11
-1691.0371767145625
 21
-554.79843243315702
  0
LINE
  8
_0-4_図面枠
  6
CONTINUOUS
 62
    2
 10
-1691.6635767145581
 20
-560.31961243315766
 11
-1663.3793167145577
 21
-588.60385243315693
  0
LINE
  8
_0-3_躯体と製品
  6
CONTINUOUS
 62
    2
 10
-1957.7919167145592
 20
-283.91507243315675
 11
-1949.5702367145614
 21
-307.52449243315687
  0
LINE
  8
_0-4_図面枠
  6
CONTINUOUS
 62
    2
 10
-1948.0121167145626
 20
-280.79795243315721
 11
-1976.2963767145584
 21
-252.51371243315691
  0
LINE
  8
_0-3_躯体と製品
  6
CONTINUOUS
 62
    4
 10
-1721.0222567145584
 20
-164.90107243315703
 11
-1723.5371767145616
 21
-164.90107243315703
  0
LINE
  8
_0-3_躯体と製品
  6
CONTINUOUS
 62
    4
 10
-1721.0222567145584
 20
-179.721892433157
 11
-1721.0222567145584
 21
-164.90107243315703
  0
LINE
  8
_0-3_躯体と製品
  6
CONTINUOUS
 62
    4
 10
-1721.5222567145602
 20
-179.721892433157
 11
-1721.5222567145602
 21
-165.40107243315663
  0
LINE
  8
_0-3_躯体と製品
  6
CONTINUOUS
 62
    4
 10
-1721.5222567145602
 20
-165.40107243315663
 11
-1723.0371767145598
 21
-165.40107243315663
  0
LINE
  8
_0-3_躯体と製品
  6
CONTINUOUS
 62
    3
 10
-1704.7926967145613
 20
-215.40107243315663
 11
-1721.0639767145576
 21
-221.06733243315705
  0
LINE
  8
_0-3_躯体と製品
  6
CONTINUOUS
 62
    3
 10
-1719.09077671456
 20
-226.73359243315736
 11
-1703.777876714561
 21
-221.40107243315686
  0
LINE
  8
_0-3_躯体と製品
  6
CONTINUOUS
 62
    3
 10
-1723.0371767145598
 20
-215.40107243315663
 11
-1706.5938367145591
 21
-262.61989243315713
  0
LINE
  8
_0-3_躯体と製品
  6
CONTINUOUS
 62
    2
 10
-1775.1615767145577
 20
-226.66987243315691
 11
-1766.9399167145584
 21
-250.27927243315708
  0
LINE
  8
_0-3_躯体と製品
  6
CONTINUOUS
 62
    3
 10
-1815.5016167145595
 20
-253.95401243315735
 11
-1813.528416714561
 21
-259.62025243315668
  0
LINE
  8
_0-3_躯体と製品
  6
PLINE2
 62
    3
 10
-1813.528416714561
 20
-259.62025243315668
 11
-1719.09077671456
 21
-226.73359243315736
  0
LINE
  8
_0-3_躯体と製品
  6
CONTINUOUS
 62
    4
 10
-1723.5371767145616
 20
-215.04575243315787
 11
-1723.5371767145616
 21
-164.90107243315703
  0
LINE
  8
_0-3_躯体と製品
  6
CONTINUOUS
 62
    4
 10
-1723.0371767145598
 20
-215.40107243315663
 11
-1723.0371767145598
 21
-165.40107243315663
  0
LINE
  8
_0-4_図面枠
  6
CONTINUOUS
 62
    2
 10
-1628.988396714557
 20
-215.12729243315664
 11
-1618.6356567145585
 21
-176.49027243315675
  0
LINE
  8
_0-3_躯体と製品
  6
CONTINUOUS
 62
    2
 10
-1360.9752367145602
 20
-393.75149243315707
 11
-1352.7535767145573
 21
-417.3608924331561
  0
LINE
  8
_0-3_躯体と製品
  6
CONTINUOUS
 62
    2
 10
-1153.84185671456
 20
-321.62001243315649
 11
-1145.6201967145616
 21
-345.22941243315677
  0
TEXT
  8
_0-4_図面枠
 62
    7
 10
-630.53879671455798
 20
-682.83049243315645
 40
60.000000000000007
 41
0.8
 50
0.0000100000010064
  1
妻板補強
  0
LINE
  8
_0-4_図面枠
  6
CONTINUOUS
 62
    2
 10
-630.53867671455828
 20
-692.83035243315658
 11
-429.60193671456182
 21
-692.83035243315658
  0
LINE
  8
_0-3_躯体と製品
  6
CONTINUOUS
 62
    2
 10
-521.6613967145604
 20
-803.7536924331564
 11
-521.6613967145604
 21
-817.7536924331564
  0
LINE
  8
_0-3_躯体と製品
  6
CONTINUOUS
 62
    2
 10
-528.66139671455949
 20
-810.7536924331564
 11
-514.66139671455858
 21
-810.7536924331564
  0
LINE
  8
_0-3_躯体と製品
  6
CONTINUOUS
 62
    2
 10
-771.61953671456013
 20
-803.40107243315651
 11
-771.61953671456013
 21
-817.40107243315651
  0
LINE
  8
_0-3_躯体と製品
  6
CONTINUOUS
 62
    2
 10
-778.61953671455831
 20
-810.40107243315651
 11
-764.6195367145574
 21
-810.40107243315651
  0
LINE
  8
_0-4_図面枠
  6
CONTINUOUS
 62
    2
 10
-700.53757671455878
 20
-814.07203243315644
 11
-690.18483671456033
 21
-775.43503243315649
  0
LINE
  8
_0-4_図面枠
  6
CONTINUOUS
 62
    2
 10
-700.53757671455878
 20
-814.07203243315644
 11
-630.53867671455828
 21
-692.83035243315658
  0
LINE
  8
_0-3_躯体と製品
  6
PLINE2
 62
    3
 10
-178.02609671456048
 20
-779.40107243315651
 11
-178.02609671456048
 21
-735.40107243315651
  0
LINE
  8
_0-3_躯体と製品
  6
PLINE2
 62
    3
 10
-178.02609671456048
 20
-735.40107243315651
 11
-172.02609671456048
 21
-735.40107243315651
  0
LINE
  8
_0-3_躯体と製品
  6
PLINE2
 62
    3
 10
-172.02609671456048
 20
-735.40107243315651
 11
-172.02609671456048
 21
-785.40107243315651
  0
LINE
  8
_0-3_躯体と製品
  6
CONTINUOUS
 62
    2
 10
-276.5494967145587
 20
-803.7536924331564
 11
-276.5494967145587
 21
-817.7536924331564
  0
LINE
  8
_0-3_躯体と製品
  6
CONTINUOUS
 62
    2
 10
-283.5494967145587
 20
-810.7536924331564
 11
-269.54949671456052
 21
-810.7536924331564
  0
LINE
  8
_0-3_躯体と製品
  6
PLINE2
 62
    3
 10
-222.02609671456139
 20
-785.40107243315651
 11
-222.02609671456139
 21
-779.40107243315651
  0
LINE
  8
_0-3_躯体と製品
  6
PLINE2
 62
    3
 10
-222.02609671456139
 20
-779.40107243315651
 11
-178.02609671456048
 21
-779.40107243315651
  0
LINE
  8
_0-3_躯体と製品
  6
CONTINUOUS
 62
    2
 10
185.20108328543756
 20
-810.40107243315651
 11
199.20108328543938
 21
-810.40107243315651
  0
LINE
  8
_0-3_躯体と製品
  6
CONTINUOUS
 62
    2
 10
-77.222376714561506
 20
-803.40107243315651
 11
-77.222376714561506
 21
-817.40107243315651
  0
LINE
  8
_0-3_躯体と製品
  6
CONTINUOUS
 62
    2
 10
-84.222376714560596
 20
-810.40107243315651
 11
-70.222376714558777
 21
-810.40107243315651
  0
LINE
  8
_0-3_躯体と製品
  6
CONTINUOUS
 62
    2
 10
192.20108328544029
 20
-803.40107243315651
 11
192.20108328544029
 21
-817.40107243315651
  0
LINE
  8
_0-3_躯体と製品
  6
CONTINUOUS
 62
    3
 10
438.48730328543752
 20
-419.29579243315732
 11
-223.0371767145607
 21
-188.92859243315672
  0
LINE
  8
_0-3_躯体と製品
  6
CONTINUOUS
 62
    3
 10
-223.0371767145607
 20
-188.92859243315672
 11
-223.0371767145607
 21
-165.40107243315663
  0
LINE
  8
_0-3_躯体と製品
  6
CONTINUOUS
 62
    2
 10
186.59526328544052
 20
-373.93369243315749
 11
210.20468328543757
 21
-382.15535243315674
  0
LINE
  8
_0-3_躯体と製品
  6
CONTINUOUS
 62
    2
 10
202.5108032854414
 20
-366.239812433157
 11
194.28914328544124
 21
-389.84923243315723
  0
LINE
  8
_0-4_図面枠
  6
CONTINUOUS
 62
    2
 10
437.80278328543773
 20
-562.66585243315706
 11
448.1555432854384
 21
-524.02883243315716
  0
LINE
  8
_0-3_躯体と製品
  6
CONTINUOUS
 62
    2
 10
-101.9303367145576
 20
-260.22219243315692
 11
-110.15199671455593
 21
-283.83161243315715
  0
LINE
  8
_0-3_躯体と製品
  6
CONTINUOUS
 62
    2
 10
-117.84587671455938
 20
-267.91607243315741
 11
-94.236456714561427
 21
-276.13773243315666
  0
LINE
  8
_0-3_躯体と製品
  6
CONTINUOUS
 62
    2
 10
38.204763285441004
 20
-309.02239243315626
 11
29.983103285440848
 21
-332.63181243315648
  0
LINE
  8
_0-3_躯体と製品
  6
CONTINUOUS
 62
    2
 10
22.289223285438311
 20
-316.71627243315686
 11
45.898643285440812
 21
-324.93793243315724
  0
LINE
  8
_0-4_図面枠
  6
CONTINUOUS
 62
    2
 10
-101.92271671456001
 20
-269.19367243315696
 11
-91.569976714557015
 21
-230.55667243315713
  0
TEXT
  8
_0-4_図面枠
 62
    7
 10
1041.9343632854416
 20
-1676.6618124331565
 40
60
 41
0.8000000000000002
 50
0
  1
ＳＣ　９００
  0
TEXT
  8
_0-4_図面枠
 62
    7
 10
1057.0680232854384
 20
-1829.8240524331563
 40
60
 41
0.8000000000000002
 50
0
  1
ＳＣ１０００
  0
TEXT
  8
_0-4_図面枠
 62
    7
 10
1053.7049832854382
 20
-1975.2731924331565
 40
60
 41
0.8000000000000002
 50
0
  1
ＳＣ１２００
  0
TEXT
  8
_0-4_図面枠
 62
    7
 10
1561.1579832854386
 20
-1813.5189724331567
 40
60
 41
0.8
 50
0
  1
１０００
  0
TEXT
  8
_0-4_図面枠
 62
    7
 10
1561.1579832854386
 20
-1963.5189724331553
 40
60
 41
0.8
 50
0
  1
１２００
  0
TEXT
  8
_0-4_図面枠
 62
    7
 10
1623.7315432854393
 20
-1668.4008524331566
 40
60
 41
0.8000000000000006
 50
0
  1
９００
  0
TEXT
  8
_0-4_図面枠
 62
    7
 10
1068.6921632854419
 20
-1518.8270324331575
 40
60
 41
0.8
 50
0
  1
型　　式
  0
TEXT
  8
_0-4_図面枠
 62
    7
 10
1653.0180432854359
 20
-1509.8988124331565
 40
60
 41
0.7999999999999982
 50
0
  1
Ａ
  0
TEXT
  8
_0-4_図面枠
 62
    7
 10
2358.1077632854413
 20
-1667.6598924331574
 40
60
 41
0.8000000000000006
 50
0
  1
　１５０
  0
TEXT
  8
_0-4_図面枠
 62
    7
 10
2358.1077632854413
 20
-1967.6598924331574
 40
60
 41
0.8000000000000006
 50
0
  1
　１５０
  0
TEXT
  8
_0-4_図面枠
 62
    7
 10
2358.1077632854413
 20
-1817.6598924331574
 40
60
 41
0.8000000000000006
 50
0
  1
　１５０
  0
TEXT
  8
_0-4_図面枠
 62
    7
 10
1961.1576832854425
 20
-1813.5189724331567
 40
60
 41
0.8000000000000006
 50
0
  1
１０００
  0
TEXT
  8
_0-4_図面枠
 62
    7
 10
1961.1576832854425
 20
-1963.5189724331553
 40
60
 41
0.8000000000000006
 50
0
  1
１２００
  0
TEXT
  8
_0-4_図面枠
 62
    7
 10
2023.7315432854393
 20
-1668.4008524331566
 40
60
 41
0.7999999999999999
 50
0
  1
９００
  0
TEXT
  8
_0-4_図面枠
 62
    7
 10
2766.7845232854397
 20
-1818.4139924331566
 40
60
 41
0.8000000000000006
 50
0
  1
２０００
  0
TEXT
  8
_0-4_図面枠
 62
    7
 10
2758.1077632854413
 20
-1967.6598924331574
 40
60
 41
0.8000000000000006
 50
0
  1
２４００
  0
TEXT
  8
_0-4_図面枠
 62
    7
 10
2758.8981632854411
 20
-1676.1095924331564
 40
60
 41
0.7999999999999993
 50
0
  1
１８００
  0
TEXT
  8
_0-4_図面枠
 62
    7
 10
2054.1105632854378
 20
-1514.6926724331565
 40
60
 41
0.7999999999999982
 50
0
  1
Ｉ
  0
TEXT
  8
_0-4_図面枠
 62
    7
 10
2473.5807832854389
 20
-1506.7028724331567
 40
60
 41
0.7999999999999982
 50
0
  1
Ｊ
  0
TEXT
  8
_0-4_図面枠
 62
    7
 10
2873.5807832854389
 20
-1506.7028724331567
 40
60
 41
0.7999999999999982
 50
0
  1
Ｅ
  0
LINE
  8
_0-3_躯体と製品
  6
PLINE2
 62
    3
 10
2786.8013832854394
 20
-361.41373243315661
 11
1729.9737232854404
 21
-678.46203243315654
  0
LINE
  8
_0-4_図面枠
  6
CONTINUOUS
 62
    2
 10
692.09284328544163
 20
-122.2225724331575
 11
782.95456328543969
 21
-122.2225724331575
  0
LINE
  8
_0-3_躯体と製品
  6
CONTINUOUS
 62
    2
 10
1870.1881832854433
 20
-183.95295243315661
 11
1854.7533032854444
 21
-209.67775243315702
  0
LINE
  8
_0-3_躯体と製品
  6
CONTINUOUS
 62
    4
 10
1994.951163285441
 20
-597.92475243315698
 11
2185.8013832854394
 21
-540.66969243315714
  0
LINE
  8
_0-3_躯体と製品
  6
CONTINUOUS
 62
    4
 10
1994.951163285441
 20
-597.92475243315698
 11
1995.1046632854377
 21
-598.43645243315666
  0
LINE
  8
_0-3_躯体と製品
  6
CONTINUOUS
 62
    4
 10
1995.1046632854377
 20
-598.43645243315666
 11
2011.7960232854421
 21
-593.42905243315715
  0
TEXT
  8
_0-4_図面枠
 62
    7
 10
2631.8144232854429
 20
-956.0549724331554
 40
60
 41
0.8000000000000002
 50
0
  1
ＳＣ　１２００
  0
LINE
  8
_0-3_躯体と製品
  6
CONTINUOUS
 62
    4
 10
2066.8013832854394
 20
-319.41373243315741
 11
2066.8013832854394
 21
-391.41373243315672
  0
LINE
  8
_0-3_躯体と製品
  6
CONTINUOUS
 62
    3
 10
2066.8013832854394
 20
-319.41373243315741
 11
2176.8013832854376
 21
-385.4137324331565
  0
LINE
  8
_0-3_躯体と製品
  6
CONTINUOUS
 62
    3
 10
2176.8013832854376
 20
-123.0208924331564
 11
2176.8013832854376
 21
-491.41373243315672
  0
LINE
  8
_0-3_躯体と製品
  6
CONTINUOUS
 62
    2
 10
2158.3887832854398
 20
-456.53647243315709
 11
2199.8523632854412
 21
-456.53647243315709
  0
LINE
  8
_0-3_躯体と製品
  6
CONTINUOUS
 62
    2
 10
2159.3887832854398
 20
-408.90659243315758
 11
2200.8523632854394
 21
-408.90659243315758
  0
LINE
  8
_0-3_躯体と製品
  6
CONTINUOUS
 62
    3
 10
2186.8013832854376
 20
-491.41373243315672
 11
2176.8013832854376
 21
-491.41373243315672
  0
LINE
  8
_0-3_躯体と製品
  6
CONTINUOUS
 62
    4
 10
2070.0013832854402
 20
-374.11495243315687
 11
2070.0013832854402
 21
-391.41373243315672
  0
LINE
  8
_0-3_躯体と製品
  6
CONTINUOUS
 62
    4
 10
2070.0013832854402
 20
-391.41373243315672
 11
2066.8013832854394
 21
-391.41373243315672
  0
LINE
  8
_0-3_躯体と製品
  6
PLINE2
 62
    5
 10
2168.2144432854384
 20
-321.95205243315718
 11
2176.8013832854376
 21
-313.3651324331571
  0
LINE
  8
_0-3_躯体と製品
  6
PLINE2
 62
    5
 10
2124.0202832854357
 20
-295.43555243315711
 11
2176.8013832854376
 21
-242.65445243315617
  0
LINE
  8
_0-3_躯体と製品
  6
PLINE2
 62
    5
 10
2079.8261032854352
 20
-268.91905243315693
 11
2176.8013832854376
 21
-171.9437724331566
  0
LINE
  8
_0-3_躯体と製品
  6
CONTINUOUS
 62
    2
 10
2159.3887832854398
 20
-221.63161243315676
 11
2200.8523632854394
 21
-221.63161243315676
  0
LINE
  8
_0-3_躯体と製品
  6
CONTINUOUS
 62
    3
 10
2176.8013832854376
 20
-327.10421243315625
 11
2185.8013832854394
 21
-327.10421243315625
  0
LINE
  8
_0-3_躯体と製品
  6
CONTINUOUS
 62
    2
 10
2040.8154632854403
 20
-286.32933243315722
 11
2025.3805832854414
 21
-312.05411243315757
  0
LINE
  8
_0-4_図面枠
  6
CONTINUOUS
 62
    3
 10
3920.7151032854326
 20
-2148.2358524331576
 11
3920.7151032854326
 21
-1398.2358524331564
  0
LINE
  8
_0-4_図面枠
  6
CONTINUOUS
 62
    2
 10
3320.7151032854326
 20
-1398.2358524331564
 11
3320.7151032854326
 21
-2148.2358524331576
  0
TEXT
  8
_0-4_図面枠
 62
    7
 10
3505.292823285432
 20
-2116.6438124331567
 40
60
 41
0.8000000000000013
 50
0
  1
Ｌ型鋼
  0
TEXT
  8
_0-4_図面枠
 62
    7
 10
3505.292823285432
 20
-1816.6438124331567
 40
60
 41
0.8000000000000013
 50
0
  1
Ｌ型鋼
  0
TEXT
  8
_0-4_図面枠
 62
    7
 10
3505.292823285432
 20
-1966.6438124331567
 40
60
 41
0.8000000000000013
 50
0
  1
Ｌ型鋼
  0
TEXT
  8
_0-4_図面枠
 62
    7
 10
3505.292823285432
 20
-1666.6438124331564
 40
60
 41
0.8000000000000013
 50
0
  1
Ｌ型鋼
  0
TEXT
  8
_0-4_図面枠
 62
    7
 10
3401.7143232854432
 20
-1514.6926724331565
 40
60
 41
0.7999999999999994
 50
0
  1
支柱・妻板補強
  0
LINE
  8
_0-3_躯体と製品
  6
CONTINUOUS
 62
    4
 10
3578.651583285442
 20
-597.92475243315698
 11
3578.4980832854326
 21
-598.43645243315666
  0
LINE
  8
_0-3_躯体と製品
  6
CONTINUOUS
 62
    4
 10
3578.4980832854326
 20
-598.43645243315666
 11
3561.8067232854319
 21
-593.42905243315715
  0
LINE
  8
_0-3_躯体と製品
  6
CONTINUOUS
 62
    3
 10
3531.8013832854322
 20
-583.86969243315639
 11
3531.8013832854322
 21
-333.56849243315639
  0
TEXT
  8
_0-4_図面枠
 62
    7
 10
-833.43887671455741
 20
2715.2787875668437
 40
200
 41
0.8
 50
0
  1
連続式ベンチレーター　標準型（９００～１５００）
  0
LINE
  8
_0-3_躯体と製品
  6
CONTINUOUS
 62
    3
 10
2786.8013832854394
 20
808.58626756684259
 11
3386.8013832854322
 21
808.58626756684259
  0
LINE
  8
_0-3_躯体と製品
  6
PLINE5
 62
    3
 10
2786.8013832854394
 20
-97.413732433156895
 11
3664.1308232854335
 21
-97.413732433156895
  0
LINE
  8
_0-3_躯体と製品
  6
PLINE5
 62
    3
 10
2786.8013832854394
 20
-91.413732433156724
 11
3664.1308232854335
 21
-91.413732433156724
  0
LINE
  8
_0-3_躯体と製品
  6
PLINE5
 62
    3
 10
2786.8013832854394
 20
252.58626756684305
 11
3664.1308232854335
 21
252.58626756684305
  0
LINE
  8
_0-3_躯体と製品
  6
PLINE5
 62
    3
 10
2786.8013832854394
 20
296.58626756684282
 11
3664.1308232854335
 21
296.58626756684282
  0
LINE
  8
_0-3_躯体と製品
  6
PLINE5
 62
    3
 10
2786.8013832854394
 20
302.58626756684305
 11
3664.1308232854335
 21
302.58626756684305
  0
LINE
  8
_0-3_躯体と製品
  6
PLINE2
 62
    5
 10
340.88750328544029
 20
1722.9237075668434
 11
507.05758328544289
 21
1889.0937875668426
  0
LINE
  8
_0-3_躯体と製品
  6
PLINE2
 62
    5
 10
334.99494328543733
 20
1681.6758075668424
 11
501.16502328544084
 21
1847.8458875668425
  0
LINE
  8
_0-3_躯体と製品
  6
PLINE2
 62
    5
 10
333.14706328544253
 20
1644.4725875668425
 11
495.27248328543919
 21
1806.5980075668435
  0
LINE
  8
_0-3_躯体と製品
  6
PLINE2
 62
    5
 10
355.24414328544117
 20
1631.2143275668425
 11
489.3799232854426
 21
1765.3501075668426
  0
LINE
  8
_0-3_躯体と製品
  6
CONTINUOUS
 62
    3
 10
1854.1905232854424
 20
1720.0944475668425
 11
1854.1905232854424
 21
1770.0944475668425
  0
LINE
  8
_0-3_躯体と製品
  6
CONTINUOUS
 62
    3
 10
1860.1905232854424
 20
1767.0944475668425
 11
1860.1905232854424
 21
1729.0944475668434
  0
LINE
  8
_0-3_躯体と製品
  6
CONTINUOUS
 62
    3
 10
769.76140328543897
 20
1740.6582075668425
 11
769.76140328543897
 21
1766.0542475668426
  0
LINE
  8
_0-3_躯体と製品
  6
PLINE5
 62
    3
 10
781.7614032854417
 20
1171.8944475668429
 11
781.7614032854417
 21
1993.5556875668426
  0
LINE
  8
_0-3_躯体と製品
  6
CONTINUOUS
 62
    3
 10
2226.8153832854387
 20
2139.9933475668436
 11
2302.8576432854443
 21
1607.6974475668426
  0
LINE
  8
_0-3_躯体と製品
  6
CONTINUOUS
 62
    3
 10
482.77670328544082
 20
1719.1276275668424
 11
549.38842328544251
 21
2185.4096475668425
  0
LINE
  8
_0-3_躯体と製品
  6
CONTINUOUS
 62
    3
 10
775.76140328544352
 20
1170.094447566843
 11
775.76140328544352
 21
2052.4610875668423
  0
LINE
  8
_0-3_躯体と製品
  6
PLINE3
 62
    2
 10
1275.7614032854435
 20
2422.8271075668436
 11
1275.7614032854435
 21
1093.822107566843
  0
LINE
  8
_0-3_躯体と製品
  6
CONTINUOUS
 62
    3
 10
825.76140328544261
 20
1185.094447566843
 11
825.76140328544261
 21
2069.8729275668438
  0
LINE
  8
_0-3_躯体と製品
  6
CONTINUOUS
 62
    2
 10
-978.84343671455918
 20
1571.1040475668424
 11
-1048.4831567145593
 21
2058.5821875668425
  0
LINE
  8
_0-3_躯体と製品
  6
PLINE3
 62
    2
 10
-1905.9396767145599
 20
2355.0478275668424
 11
-1905.9396767145599
 21
1108.6436275668434
  0
LINE
  8
_0-3_躯体と製品
  6
CONTINUOUS
 62
    4
 10
347.30358328543844
 20
2121.3896475668425
 11
275.27038328544222
 21
1617.1572675668424
  0
LINE
  8
_0-3_躯体と製品
  6
CONTINUOUS
 62
    3
 10
392.49586328544046
 20
2084.1822875668427
 11
329.95388328543868
 21
1646.3884875668425
  0
LINE
  8
_0-3_躯体と製品
  6
PLINE5
 62
    3
 10
352.72664328544306
 20
2116.9247675668425
 11
282.26450328544161
 21
1623.6897475668425
  0
LINE
  8
_0-3_躯体と製品
  6
CONTINUOUS
 62
    3
 10
329.95388328543868
 20
1646.3884875668425
 11
765.7614032854417
 21
1384.9039675668425
  0
LINE
  8
_0-3_躯体と製品
  6
CONTINUOUS
 62
    4
 10
275.76140328544352
 20
1620.5944475668425
 11
675.76140328544261
 21
1380.5944475668425
  0
LINE
  8
_0-3_躯体と製品
  6
PLINE5
 62
    3
 10
282.26450328544161
 20
1623.6897475668425
 11
765.7614032854417
 21
1333.5916075668433
  0
LINE
  8
_0-3_躯体と製品
  6
PLINE2
 62
    5
 10
443.63248328544159
 20
1578.1813275668437
 11
546.40302328543839
 21
1680.9518475668424
  0
LINE
  8
_0-3_躯体と製品
  6
PLINE2
 62
    5
 10
465.72958328543791
 20
1564.9230675668425
 11
568.50010328544249
 21
1667.6936075668427
  0
LINE
  8
_0-3_躯体と製品
  6
PLINE2
 62
    3
 10
1275.7614032854435
 20
1320.094447566843
 11
318.93376328544127
 21
1033.0461675668432
  0
LINE
  8
_0-3_躯体と製品
  6
PLINE2
 62
    5
 10
487.82666328544201
 20
1551.6648275668424
 11
590.59718328544204
 21
1654.4353475668427
  0
LINE
  8
_0-3_躯体と製品
  6
PLINE2
 62
    5
 10
509.92374328544065
 20
1538.4065675668435
 11
612.69428328544291
 21
1641.1770875668426
  0
LINE
  8
_0-3_躯体と製品
  6
CONTINUOUS
 62
    3
 10
765.7614032854417
 20
1549.3368275668424
 11
482.77670328544082
 21
1719.1276275668424
  0
TEXT
  8
_0-4_図面枠
 62
    7
 10
-1522.0364367145603
 20
-31.893592433157096
 40
60
 41
0.8000000000000006
 50
0
  1
渡し金具
  0
LINE
  8
_0-4_図面枠
  6
CONTINUOUS
 62
    2
 10
-1529.9202967145575
 20
-43.536292433156916
 11
-1295.6190167145578
 21
-43.536292433156916
  0
TEXT
  8
_0-4_図面枠
 62
    7
 10
-9.2683367145573357
 20
-98.711232433157477
 40
60
 41
0.8
 50
0
  1
各部リベット又は
  0
LINE
  8
_0-4_図面枠
  6
CONTINUOUS
 62
    2
 10
-9.2683567145595589
 20
-108.71161243315663
 11
391.58052328543818
 21
-108.71161243315663
  0
LINE
  8
_0-3_躯体と製品
  6
CONTINUOUS
 62
    2
 10
-1340.939676714559
 20
1353.8462875668424
 11
-1340.939676714559
 21
1130.545087566843
  0
LINE
  8
_0-3_躯体と製品
  6
PLINE2
 62
    2
 10
-1461.939676714559
 20
1166.8450875668429
 11
-1461.939676714559
 21
1314.0010475668432
  0
LINE
  8
_0-3_躯体と製品
  6
PLINE2
 62
    2
 10
-1505.939676714559
 20
1180.0450875668428
 11
-1505.939676714559
 21
1314.0010475668432
  0
LINE
  8
_0-3_躯体と製品
  6
PLINE2
 62
    2
 10
-1455.9396767145599
 20
1165.045087566843
 11
-1455.9396767145599
 21
1314.0010475668432
  0
LINE
  8
_0-3_躯体と製品
  6
PLINE2
 62
    3
 10
-1905.9396767145599
 20
1299.0010475668432
 11
-999.11203671455951
 21
1026.9527675668428
  0
LINE
  8
_0-3_躯体と製品
  6
CONTINUOUS
 62
    4
 10
-1264.0894567145588
 20
1107.4900275668431
 11
-1905.9396767145599
 21
1300.045087566843
  0
TEXT
  8
_0-4_図面枠
 62
    7
 10
-2069.6414167145604
 20
910.78294756684284
 40
60
 41
0.7999999999999999
 50
0
  1
ＳＣ　９００
  0
LINE
  8
_0-3_躯体と製品
  6
CONTINUOUS
 62
    4
 10
-1264.0894567145588
 20
1107.4900275668431
 11
-1264.2429767145577
 21
1106.9783275668431
  0
LINE
  8
_0-3_躯体と製品
  6
CONTINUOUS
 62
    4
 10
-1264.2429767145577
 20
1106.9783275668431
 11
-1280.9343167145607
 21
1111.9857275668433
  0
LINE
  8
_0-3_躯体と製品
  6
PLINE5
 62
    2
 10
-1905.9396767145599
 20
1678.3857475668424
 11
-1187.7162567145615
 21
1678.3857475668424
  0
LINE
  8
_0-3_躯体と製品
  6
PLINE5
 62
    2
 10
-1905.9396767145599
 20
1684.3857475668424
 11
-1187.7162567145615
 21
1684.3857475668424
  0
LINE
  8
_0-3_躯体と製品
  6
PLINE5
 62
    2
 10
-1905.9396767145599
 20
1634.3857475668424
 11
-1187.7162567145615
 21
1634.3857475668424
  0
LINE
  8
_0-3_躯体と製品
  6
CONTINUOUS
 62
    2
 10
-1845.4921367145607
 20
1655.4541475668425
 11
-1831.492136714558
 21
1655.4541475668425
  0
LINE
  8
_0-3_躯体と製品
  6
CONTINUOUS
 62
    2
 10
-1838.4921367145562
 20
1662.4541475668425
 11
-1838.4921367145562
 21
1648.4541475668434
  0
LINE
  8
_0-3_躯体と製品
  6
CONTINUOUS
 62
    2
 10
-1597.1054167145612
 20
1654.0788075668424
 11
-1583.1054167145594
 21
1654.0788075668424
  0
LINE
  8
_0-3_躯体と製品
  6
CONTINUOUS
 62
    2
 10
-1590.1054167145585
 20
1661.0788075668424
 11
-1590.1054167145585
 21
1647.0788075668424
  0
LINE
  8
_0-3_躯体と製品
  6
CONTINUOUS
 62
    2
 10
-1722.2615167145605
 20
1654.0788075668424
 11
-1708.2615167145595
 21
1654.0788075668424
  0
LINE
  8
_0-3_躯体と製品
  6
CONTINUOUS
 62
    2
 10
-1715.2615167145577
 20
1661.0788075668424
 11
-1715.2615167145577
 21
1647.0788075668424
  0
LINE
  8
_0-3_躯体と製品
  6
CONTINUOUS
 62
    2
 10
-1340.939676714559
 20
1353.8462875668424
 11
-978.84343671455918
 21
1571.1040475668424
  0
LINE
  8
_0-3_躯体と製品
  6
CONTINUOUS
 62
    2
 10
-1252.4447967145616
 20
1656.2793675668422
 11
-1238.4447967145607
 21
1656.2793675668422
  0
LINE
  8
_0-3_躯体と製品
  6
CONTINUOUS
 62
    2
 10
-1245.4447967145588
 20
1663.2793675668424
 11
-1245.4447967145588
 21
1649.2793675668424
  0
LINE
  8
_0-3_躯体と製品
  6
CONTINUOUS
 62
    2
 10
-1356.7922567145606
 20
1657.0649875668428
 11
-1342.7922567145606
 21
1657.0649875668428
  0
LINE
  8
_0-3_躯体と製品
  6
CONTINUOUS
 62
    2
 10
-1349.7922567145588
 20
1664.0649875668425
 11
-1349.7922567145588
 21
1650.0649875668425
  0
LINE
  8
_0-3_躯体と製品
  6
PLINE2
 62
    2
 10
-1395.5043567145585
 20
1734.3857475668424
 11
-1389.5043567145603
 21
1734.3857475668424
  0
LINE
  8
_0-3_躯体と製品
  6
PLINE2
 62
    2
 10
-1439.5043567145594
 20
1684.3857475668424
 11
-1439.5043567145594
 21
1690.3857475668424
  0
LINE
  8
_0-3_躯体と製品
  6
PLINE2
 62
    2
 10
-1439.5043567145594
 20
1690.3857475668424
 11
-1395.5043567145585
 21
1690.3857475668424
  0
LINE
  8
_0-3_躯体と製品
  6
CONTINUOUS
 62
    2
 10
-1460.9465967145607
 20
1653.8037475668425
 11
-1446.9465967145607
 21
1653.8037475668425
  0
LINE
  8
_0-3_躯体と製品
  6
CONTINUOUS
 62
    2
 10
-1453.9465967145588
 20
1660.8037475668425
 11
-1453.9465967145588
 21
1646.8037475668425
  0
LINE
  8
_0-3_躯体と製品
  6
PLINE2
 62
    2
 10
-1395.5043567145585
 20
1690.3857475668424
 11
-1395.5043567145585
 21
1734.3857475668424
  0
LINE
  8
_0-3_躯体と製品
  6
PLINE2
 62
    2
 10
-1389.5043567145603
 20
1734.3857475668424
 11
-1389.5043567145603
 21
1684.3857475668424
  0
LINE
  8
_0-3_躯体と製品
  6
CONTINUOUS
 62
    2
 10
515.51650328544019
 20
1491.3187875668425
 11
502.65410328544021
 21
1469.8814675668425
  0
LINE
  8
_0-3_躯体と製品
  6
PLINE2
 62
    5
 10
377.34122328543981
 20
1617.9560875668435
 11
483.48736328544055
 21
1724.1022075668434
  0
LINE
  8
_0-3_躯体と製品
  6
PLINE2
 62
    5
 10
399.43832328544067
 20
1604.6978275668425
 11
502.2088432854398
 21
1707.4683475668426
  0
LINE
  8
_0-3_躯体と製品
  6
PLINE2
 62
    5
 10
421.53540328543841
 20
1591.4395675668425
 11
524.30592328543844
 21
1694.2101075668436
  0
LINE
  8
_0-3_躯体と製品
  6
CONTINUOUS
 62
    2
 10
271.64130328544252
 20
1680.1421275668424
 11
296.39004328544252
 21
1676.6065875668435
  0
LINE
  8
_0-3_躯体と製品
  6
CONTINUOUS
 62
    2
 10
344.34862328544205
 20
1594.0195075668425
 11
331.48622328543843
 21
1572.5821875668425
  0
LINE
  8
_0-3_躯体と製品
  6
CONTINUOUS
 62
    4
 10
275.27038328544222
 20
1617.1572675668424
 11
296.70770328543858
 21
1604.2948675668426
  0
LINE
  8
_0-3_躯体と製品
  6
PLINE2
 62
    5
 10
1814.661063285439
 20
-109.820032433157
 11
1942.2131432854403
 21
17.732047566843391
  0
LINE
  8
_0-3_躯体と製品
  6
PLINE2
 62
    5
 10
1770.4668832854404
 20
-83.303512433156925
 11
1898.0189632854399
 21
44.24854756684357
  0
LINE
  8
_0-3_躯体と製品
  6
PLINE2
 62
    5
 10
1883.4178832854377
 20
453.91154756684278
 11
1677.1784032854393
 21
247.67206756684243
  0
LINE
  8
_0-3_躯体と製品
  6
PLINE2
 62
    5
 10
1895.202983285435
 20
536.40732756684258
 11
1688.963523285438
 21
330.16784756684285
  0
LINE
  8
_0-3_躯体と製品
  6
PLINE2
 62
    5
 10
1890.5662832854377
 20
602.48130756684304
 11
1700.7486232854371
 21
412.66364756684322
  0
LINE
  8
_0-3_躯体と製品
  6
CONTINUOUS
 62
    3
 10
2199.882483285437
 20
456.0606475668431
 11
1867.1732232854411
 21
340.19902756684257
  0
LINE
  8
_0-3_躯体と製品
  6
CONTINUOUS
 62
    3
 10
2203.2447032854416
 20
711.36744756684266
 11
1719.3476232854391
 21
542.85666756684304
  0
LINE
  8
_0-3_躯体と製品
  6
CONTINUOUS
 62
    4
 10
1670.7536232854418
 20
578.87942756684322
 11
2186.8013832854376
 21
758.58626756684259
  0
LINE
  8
_0-3_躯体と製品
  6
PLINE5
 62
    3
 10
2188.7745832854398
 20
752.92000756684274
 11
1679.5784232854385
 21
575.59914756684293
  0
LINE
  8
_0-3_躯体と製品
  6
PLINE5
 62
    3
 10
1642.327763285437
 20
314.84452756684288
 11
1875.1327832854404
 21
395.91580756684277
  0
LINE
  8
_0-3_躯体と製品
  6
CONTINUOUS
 62
    3
 10
1830.6675632854422
 20
84.659387566843122
 11
1905.3790432854385
 21
607.639647566843
  0
LINE
  8
_0-3_躯体と製品
  6
PLINE5
 62
    3
 10
2788.7745832854416
 20
707.72614756684334
 11
1641.3726032854411
 21
308.15850756684324
  0
LINE
  8
_0-3_躯体と製品
  6
PLINE2
 62
    5
 10
1871.6327632854391
 20
371.41574756684304
 11
1665.3932832854389
 21
165.17626756684319
  0
LINE
  8
_0-3_躯体と製品
  6
CONTINUOUS
 62
    4
 10
1674.155343285438
 20
580.06402756684292
 11
1586.3103432854423
 21
-34.850912433156282
  0
LINE
  8
_0-3_躯体と製品
  6
PLINE5
 62
    3
 10
1679.5784232854385
 20
575.59914756684293
 11
1593.3044632854399
 21
-28.318452433156722
  0
LINE
  8
_0-3_躯体と製品
  6
CONTINUOUS
 62
    3
 10
1719.3476232854391
 20
542.85666756684304
 11
1640.9938632854391
 21
-5.6197124331570762
  0
TEXT
  8
_0-4_図面枠
 62
    7
 10
692.09304328544204
 20
-112.2225724331575
 40
60
 41
0.8
 50
0
  1
妻板
  0
LINE
  8
_0-3_躯体と製品
  6
PLINE2
 62
    5
 10
1682.0785432854391
 20
-30.270512433156512
 11
1836.2774232854372
 21
123.9283675668425
  0
LINE
  8
_0-3_躯体と製品
  6
PLINE2
 62
    5
 10
1848.0625432854395
 20
206.42416756684401
 11
1641.8230632854375
 21
0.1846875668435927
  0
LINE
  8
_0-3_躯体と製品
  6
PLINE2
 62
    5
 10
1859.8476432854404
 20
288.91996756684318
 11
1653.6081832854361
 21
82.680487566842771
  0
LINE
  8
_0-3_躯体と製品
  6
PLINE2
 62
    5
 10
1726.2727232854395
 20
-56.78701243315669
 11
1853.8247832854358
 21
70.765067566843697
  0
LINE
  8
_0-3_躯体と製品
  6
CONTINUOUS
 62
    2
 10
1578.7705232854387
 20
18.436267566843469
 11
1608.4690032854433
 21
14.193627566843475
  0
LINE
  8
_0-3_躯体と製品
  6
CONTINUOUS
 62
    4
 10
1586.3103432854423
 20
-34.850912433156282
 11
1636.6045632854421
 21
-65.027452433156327
  0
LINE
  8
_0-3_躯体と製品
  6
CONTINUOUS
 62
    2
 10
1672.3473632854402
 20
-65.248452433156501
 11
1656.9124832854395
 21
-90.973252433156915
  0
LINE
  8
_0-3_躯体と製品
  6
CONTINUOUS
 62
    2
 10
1659.6600232854416
 20
301.82006756684257
 11
1657.4313432854397
 21
286.21936756684261
  0
LINE
  8
_0-3_躯体と製品
  6
CONTINUOUS
 62
    2
 10
1651.1044232854383
 20
291.42838756684239
 11
1665.9869432854393
 21
296.61102756684284
  0
LINE
  8
_0-3_躯体と製品
  6
CONTINUOUS
 62
    2
 10
1612.3219832854375
 20
253.29648756684389
 11
1642.0204632854402
 21
249.05384756684282
  0
LINE
  8
_0-3_躯体と製品
  6
PLINE5
 62
    3
 10
1867.1732232854411
 20
340.19902756684257
 11
1634.3682032854413
 21
259.12772756684387
  0
LINE
  8
_0-3_躯体と製品
  6
CONTINUOUS
 62
    2
 10
1721.2107032854419
 20
607.25146756684308
 11
1731.7073232854418
 21
577.10926756684285
  0
LINE
  8
_0-3_躯体と製品
  6
PLINE2
 62
    5
 10
1782.0749232854359
 20
564.70060756684302
 11
1712.5337432854394
 21
495.15942756684302
  0
LINE
  8
_0-3_躯体と製品
  6
CONTINUOUS
 62
    2
 10
1645.6252832854425
 20
486.4196075668429
 11
1675.3237632854434
 21
482.17696756684302
  0
LINE
  8
_0-3_躯体と製品
  6
CONTINUOUS
 62
    4
 10
1662.5022232854444
 20
521.11960756684323
 11
1670.7536232854418
 21
578.87942756684322
  0
LINE
  8
_0-3_躯体と製品
  6
CONTINUOUS
 62
    3
 10
2180.9910032854405
 20
347.94424756684305
 11
2002.9507032854417
 21
198.55072756684319
  0
LINE
  8
_0-3_躯体と製品
  6
CONTINUOUS
 62
    4
 10
2166.8013832854394
 20
350.69074756684256
 11
2166.8013832854394
 21
335.69074756684256
  0
LINE
  8
_0-3_躯体と製品
  6
CONTINUOUS
 62
    3
 10
2786.8013832854394
 20
35.508747566842771
 11
2217.1063432854407
 21
35.508747566842771
  0
LINE
  8
_0-3_躯体と製品
  6
PLINE5
 62
    3
 10
2786.8013832854394
 20
29.508747566842601
 11
2192.8013832854413
 21
29.508747566842601
  0
LINE
  8
_0-3_躯体と製品
  6
CONTINUOUS
 62
    3
 10
2223.5424832854442
 20
-14.491252433157229
 11
2786.8013832854394
 21
-14.491252433157229
  0
LINE
  8
_0-3_躯体と製品
  6
CONTINUOUS
 62
    3
 10
2217.1063432854407
 20
35.508747566842771
 11
2192.8013832854413
 21
35.508747566842771
  0
LINE
  8
_0-3_躯体と製品
  6
CONTINUOUS
 62
    3
 10
2192.8013832854413
 20
-14.491252433157229
 11
2217.1063432854407
 21
-14.491252433157229
  0
LINE
  8
_0-3_躯体と製品
  6
CONTINUOUS
 62
    2
 10
2165.3887832854398
 20
-6.4440724331562933
 11
2206.8523632854394
 21
-6.4440724331562933
  0
LINE
  8
_0-3_躯体と製品
  6
CONTINUOUS
 62
    4
 10
2138.5050832854413
 20
22.567787566843208
 11
2185.8013832854394
 21
35.240807566842875
  0
LINE
  8
_0-3_躯体と製品
  6
CONTINUOUS
 62
    2
 10
2217.0129032854402
 20
12.505587566843303
 11
2217.0129032854402
 21
-1.4944124331565263
  0
LINE
  8
_0-3_躯体と製品
  6
CONTINUOUS
 62
    2
 10
2210.012903285442
 20
5.5055875668427916
 11
2224.0129032854384
 21
5.5055875668427916
  0
LINE
  8
_0-3_躯体と製品
  6
CONTINUOUS
 62
    2
 10
2159.3887832854398
 20
139.56972756684328
 11
2200.8523632854394
 21
139.56972756684328
  0
LINE
  8
_0-3_躯体と製品
  6
CONTINUOUS
 62
    2
 10
2087.3294632854431
 20
284.55210756684335
 11
2109.5613832854415
 21
258.05712756684341
  0
LINE
  8
_0-3_躯体と製品
  6
CONTINUOUS
 62
    3
 10
2002.9507032854417
 20
198.55072756684319
 11
2180.8013832854394
 21
150.8957675668434
  0
LINE
  8
_0-3_躯体と製品
  6
CONTINUOUS
 62
    3
 10
2015.6367832854412
 20
201.36314756684351
 11
2186.8013832854376
 21
155.49974756684279
  0
LINE
  8
_0-3_躯体と製品
  6
CONTINUOUS
 62
    3
 10
2186.8013832854376
 20
124.5697275668432
 11
2180.8013832854394
 21
124.5697275668432
  0
LINE
  8
_0-3_躯体と製品
  6
CONTINUOUS
 62
    3
 10
2180.8013832854394
 20
124.5697275668432
 11
2180.8013832854394
 21
150.8957675668434
  0
LINE
  8
_0-3_躯体と製品
  6
CONTINUOUS
 62
    4
 10
1982.8013832854431
 20
166.6130875668434
 11
1982.8013832854431
 21
181.64342756684289
  0
LINE
  8
_0-3_躯体と製品
  6
CONTINUOUS
 62
    4
 10
2166.8013832854394
 20
335.69074756684256
 11
1982.7652232854416
 21
181.6130875668434
  0
LINE
  8
_0-3_躯体と製品
  6
CONTINUOUS
 62
    3
 10
2186.8013832854376
 20
344.98730756684279
 11
2015.6367832854412
 21
201.36314756684351
  0
LINE
  8
_0-3_躯体と製品
  6
CONTINUOUS
 62
    2
 10
2786.8013832854394
 20
-116.41373243315672
 11
2793.8013832854431
 21
-116.41373243315672
  0
LINE
  8
_0-3_躯体と製品
  6
CONTINUOUS
 62
    2
 10
3120.9186432854331
 20
-116.41373243315672
 11
3134.9186432854331
 21
-116.41373243315672
  0
LINE
  8
_0-3_躯体と製品
  6
CONTINUOUS
 62
    2
 10
2963.1111032854442
 20
-116.41373243315672
 11
2977.1111032854424
 21
-116.41373243315672
  0
LINE
  8
_0-3_躯体と製品
  6
CONTINUOUS
 62
    2
 10
2786.8013832854394
 20
277.58626756684305
 11
2793.8013832854431
 21
277.58626756684305
  0
LINE
  8
_0-3_躯体と製品
  6
CONTINUOUS
 62
    2
 10
3104.4409232854377
 20
284.5862675668435
 11
3104.4409232854377
 21
270.58626756684259
  0
LINE
  8
_0-3_躯体と製品
  6
CONTINUOUS
 62
    2
 10
3097.4409232854432
 20
277.58626756684305
 11
3111.4409232854323
 21
277.58626756684305
  0
LINE
  8
_0-3_躯体と製品
  6
CONTINUOUS
 62
    2
 10
2963.1111032854442
 20
284.5862675668435
 11
2963.1111032854442
 21
270.58626756684259
  0
LINE
  8
_0-3_躯体と製品
  6
CONTINUOUS
 62
    2
 10
2956.1111032854405
 20
277.58626756684305
 11
2970.1111032854424
 21
277.58626756684305
  0
LINE
  8
_0-3_躯体と製品
  6
CONTINUOUS
 62
    4
 10
1931.4830232854401
 20
417.65684756684277
 11
2786.8013832854394
 21
715.51020756684306
  0
LINE
  8
_0-3_躯体と製品
  6
CONTINUOUS
 62
    3
 10
2786.8013832854394
 20
660.44742756684286
 11
2224.9868832854427
 21
464.8029075668428
  0
LINE
  8
_0-3_躯体と製品
  6
CONTINUOUS
 62
    3
 10
2786.8013832854394
 20
713.39240756684262
 11
1875.1327832854404
 21
395.91580756684277
  0
LINE
  8
_0-3_躯体と製品
  6
CONTINUOUS
 62
    3
 10
2786.8013832854394
 20
752.58626756684293
 11
2206.060683285441
 21
752.58626756684293
  0
LINE
  8
_0-3_躯体と製品
  6
CONTINUOUS
 62
    3
 10
2205.045843285443
 20
758.58626756684259
 11
2786.8013832854394
 21
758.58626756684259
  0
LINE
  8
_0-3_躯体と製品
  6
CONTINUOUS
 62
    2
 10
2205.1283432854398
 20
478.08640756684281
 11
2219.1283432854379
 21
478.08640756684281
  0
LINE
  8
_0-3_躯体と製品
  6
CONTINUOUS
 62
    2
 10
2159.3887832854398
 20
358.62400756684235
 11
2200.8523632854394
 21
358.62400756684235
  0
LINE
  8
_0-3_躯体と製品
  6
CONTINUOUS
 62
    3
 10
2180.8013832854394
 20
373.62400756684292
 11
2180.8013832854394
 21
347.78514756684342
  0
LINE
  8
_0-3_躯体と製品
  6
CONTINUOUS
 62
    3
 10
2186.8013832854376
 20
373.62400756684292
 11
2180.8013832854394
 21
373.62400756684292
  0
LINE
  8
_0-3_躯体と製品
  6
PLINE2
 62
    3
 10
2186.8013832854376
 20
438.05336756684267
 11
2192.8013832854413
 21
438.05336756684267
  0
LINE
  8
_0-3_躯体と製品
  6
CONTINUOUS
 62
    2
 10
2022.3822832854421
 20
464.95312756684319
 11
2032.8789232854397
 21
434.81092756684302
  0
LINE
  8
_0-3_躯体と製品
  6
CONTINUOUS
 62
    4
 10
1930.9830232854401
 20
402.65684756684277
 11
1930.9830232854401
 21
418.01218756684318
  0
LINE
  8
_0-3_躯体と製品
  6
CONTINUOUS
 62
    4
 10
1931.4830232854401
 20
402.65684756684277
 11
1931.4830232854401
 21
417.65684756684277
  0
LINE
  8
_0-3_躯体と製品
  6
CONTINUOUS
 62
    2
 10
2212.1283432854379
 20
485.08640756684321
 11
2212.1283432854379
 21
471.08640756684292
  0
LINE
  8
_0-3_躯体と製品
  6
CONTINUOUS
 62
    2
 10
2304.5966032854412
 20
561.11276756684276
 11
2315.093243285437
 21
530.97054756684315
  0
LINE
  8
_0-3_躯体と製品
  6
CONTINUOUS
 62
    4
 10
2186.8013832854376
 20
808.58626756684259
 11
2190.0013832854402
 21
808.58626756684259
  0
LINE
  8
_0-3_躯体と製品
  6
CONTINUOUS
 62
    4
 10
2190.0013832854402
 20
793.58626756684271
 11
2190.0013832854402
 21
808.58626756684259
  0
LINE
  8
_0-3_躯体と製品
  6
CONTINUOUS
 62
    3
 10
2206.060683285441
 20
752.58626756684293
 11
2190.747783285442
 21
747.253747566843
  0
LINE
  8
_0-3_躯体と製品
  6
CONTINUOUS
 62
    3
 10
2188.7745832854398
 20
752.92000756684274
 11
2205.045843285443
 21
758.58626756684259
  0
LINE
  8
_0-3_躯体と製品
  6
CONTINUOUS
 62
    3
 10
2186.8013832854376
 20
758.58626756684259
 11
2203.2447032854416
 21
711.36744756684266
  0
LINE
  8
_0-3_躯体と製品
  6
PLINE2
 62
    3
 10
2096.3101432854419
 20
714.36708756684311
 11
2094.3369432854379
 21
720.03334756684308
  0
LINE
  8
_0-3_躯体と製品
  6
CONTINUOUS
 62
    2
 10
2140.1228032854397
 20
753.13210756684327
 11
2150.6194432854409
 21
722.98988756684321
  0
LINE
  8
_0-3_躯体と製品
  6
PLINE2
 62
    3
 10
2190.747783285442
 20
747.253747566843
 11
2096.3101432854419
 21
714.36708756684311
  0
LINE
  8
_0-3_躯体と製品
  6
CONTINUOUS
 62
    2
 10
1927.1622832854391
 20
678.97140756684291
 11
1937.658903285439
 21
648.8291875668433
  0
LINE
  8
_0-3_躯体と製品
  6
PLINE2
 62
    3
 10
1905.3790432854385
 20
607.639647566843
 11
1912.3834432854401
 21
656.67042756684282
  0
LINE
  8
_0-3_躯体と製品
  6
CONTINUOUS
 62
    4
 10
2186.8013832854376
 20
808.58626756684259
 11
2186.8013832854376
 21
758.58626756684259
  0
LINE
  8
_0-3_躯体と製品
  6
CONTINUOUS
 62
    2
 10
2568.4164032854424
 20
652.98452756684298
 11
2578.9130232854404
 21
622.84232756684287
  0
LINE
  8
_0-3_躯体と製品
  6
CONTINUOUS
 62
    3
 10
1863.1905232854388
 20
1726.0944475668425
 11
1901.1905232854424
 21
1726.0944475668425
  0
LINE
  8
_0-3_躯体と製品
  6
CONTINUOUS
 62
    2
 10
1870.6244832854372
 20
1695.0944475668425
 11
1884.6244832854445
 21
1695.0944475668425
  0
LINE
  8
_0-3_躯体と製品
  6
PLINE5
 62
    3
 10
1275.7614032854435
 20
1670.0944475668425
 11
2123.4836432854408
 21
1670.0944475668425
  0
LINE
  8
_0-3_躯体と製品
  6
PLINE5
 62
    3
 10
1275.7614032854435
 20
1714.0944475668425
 11
2123.4836432854408
 21
1714.0944475668425
  0
LINE
  8
_0-3_躯体と製品
  6
PLINE5
 62
    3
 10
1275.7614032854435
 20
1720.0944475668425
 11
2123.4836432854408
 21
1720.0944475668425
  0
LINE
  8
_0-3_躯体と製品
  6
CONTINUOUS
 62
    4
 10
1967.6116232854365
 20
1113.5834275668431
 11
1275.7614032854435
 21
1321.1384875668432
  0
LINE
  8
_0-3_躯体と製品
  6
PLINE2
 62
    3
 10
1275.7614032854435
 20
1320.094447566843
 11
2232.5890432854376
 21
1033.0461675668432
  0
LINE
  8
_0-3_躯体と製品
  6
CONTINUOUS
 62
    3
 10
765.7614032854417
 20
1220.5944475668427
 11
765.7614032854417
 21
1549.3368275668424
  0
LINE
  8
_0-3_躯体と製品
  6
CONTINUOUS
 62
    4
 10
775.26140328544079
 20
1170.9884875668429
 11
775.26140328544079
 21
1669.8729275668425
  0
TEXT
  8
_0-4_図面枠
 62
    7
 10
1144.8857032854403
 20
937.51970756684341
 40
60
 41
0.8
 50
0
  1
ＳＣ　１０００
  0
LINE
  8
_0-3_躯体と製品
  6
CONTINUOUS
 62
    2
 10
755.26140328544079
 20
1250.3968075668431
 11
795.26140328544079
 21
1250.3968075668431
  0
LINE
  8
_0-3_躯体と製品
  6
CONTINUOUS
 62
    3
 10
775.76140328544352
 20
1220.5944475668427
 11
765.7614032854417
 21
1220.5944475668427
  0
LINE
  8
_0-3_躯体と製品
  6
CONTINUOUS
 62
    4
 10
583.91118328544053
 20
1113.5834275668431
 11
584.06470328543946
 21
1113.0717275668433
  0
LINE
  8
_0-3_躯体と製品
  6
CONTINUOUS
 62
    4
 10
584.06470328543946
 20
1113.0717275668433
 11
600.7560432854425
 21
1118.079127566843
  0
LINE
  8
_0-3_躯体と製品
  6
CONTINUOUS
 62
    4
 10
583.91118328544053
 20
1113.5834275668431
 11
775.26140328544079
 21
1170.9884875668429
  0
LINE
  8
_0-3_躯体と製品
  6
PLINE5
 62
    3
 10
1275.7614032854435
 20
1663.8729275668425
 11
781.7614032854417
 21
1663.8729275668425
  0
LINE
  8
_0-3_躯体と製品
  6
CONTINUOUS
 62
    3
 10
1275.7614032854435
 20
1619.8729275668425
 11
781.7614032854417
 21
1619.8729275668425
  0
LINE
  8
_0-3_躯体と製品
  6
CONTINUOUS
 62
    3
 10
1275.7614032854435
 20
1669.8729275668425
 11
781.7614032854417
 21
1669.8729275668425
  0
LINE
  8
_0-3_躯体と製品
  6
PLINE2
 62
    5
 10
642.50626328544149
 20
1458.8570475668425
 11
745.27680328544284
 21
1561.6275875668425
  0
LINE
  8
_0-3_躯体と製品
  6
PLINE2
 62
    5
 10
664.60336328544145
 20
1445.5988075668424
 11
765.7614032854417
 21
1546.7568475668425
  0
LINE
  8
_0-3_躯体と製品
  6
PLINE2
 62
    5
 10
576.21500328544334
 20
1498.6318075668426
 11
678.98554328544105
 21
1601.4023275668426
  0
LINE
  8
_0-3_躯体と製品
  6
PLINE2
 62
    5
 10
598.31210328543966
 20
1485.3735675668424
 11
701.08262328543969
 21
1588.1440875668425
  0
LINE
  8
_0-3_躯体と製品
  6
PLINE2
 62
    5
 10
620.4091832854383
 20
1472.1153075668426
 11
723.17970328544288
 21
1574.8858275668424
  0
LINE
  8
_0-3_躯体と製品
  6
PLINE2
 62
    5
 10
554.11792328543925
 20
1511.8900675668424
 11
656.88844328543928
 21
1614.6605875668424
  0
LINE
  8
_0-3_躯体と製品
  6
PLINE2
 62
    5
 10
708.79754328544186
 20
1419.0822875668425
 11
765.7614032854417
 21
1476.0461675668435
  0
LINE
  8
_0-3_躯体と製品
  6
PLINE2
 62
    5
 10
730.8946232854405
 20
1405.8240475668424
 11
765.7614032854417
 21
1440.6908275668425
  0
LINE
  8
_0-3_躯体と製品
  6
PLINE2
 62
    5
 10
686.70044328544191
 20
1432.3405475668426
 11
765.7614032854417
 21
1511.4015075668424
  0
LINE
  8
_0-3_躯体と製品
  6
CONTINUOUS
 62
    4
 10
678.9614032854397
 20
1339.776887566843
 11
678.9614032854397
 21
1320.5944475668427
  0
LINE
  8
_0-3_躯体と製品
  6
CONTINUOUS
 62
    4
 10
678.9614032854397
 20
1320.5944475668427
 11
675.76140328544261
 21
1320.5944475668427
  0
LINE
  8
_0-3_躯体と製品
  6
CONTINUOUS
 62
    4
 10
675.76140328544261
 20
1380.5944475668425
 11
675.76140328544261
 21
1320.5944475668427
  0
LINE
  8
_0-3_躯体と製品
  6
CONTINUOUS
 62
    3
 10
765.7614032854417
 20
1326.5944475668434
 11
675.76140328544261
 21
1380.5944475668425
  0
LINE
  8
_0-3_躯体と製品
  6
CONTINUOUS
 62
    2
 10
643.45822328543818
 20
1414.5537475668416
 11
630.59582328544002
 21
1393.1164275668434
  0
LINE
  8
_0-3_躯体と製品
  6
PLINE2
 62
    5
 10
752.99170328544005
 20
1392.5657875668426
 11
765.7614032854417
 21
1405.3354875668424
  0
LINE
  8
_0-3_躯体と製品
  6
CONTINUOUS
 62
    2
 10
755.76140328544261
 20
1293.2334075668427
 11
795.76140328544261
 21
1293.2334075668427
  0
LINE
  8
_0-3_躯体と製品
  6
CONTINUOUS
 62
    3
 10
765.7614032854417
 20
1384.9039675668425
 11
775.76140328544352
 21
1384.9039675668425
  0
LINE
  8
_0-3_躯体と製品
  6
CONTINUOUS
 62
    2
 10
800.76140328544261
 20
1648.4128275668422
 11
800.76140328544261
 21
1634.4128275668427
  0
LINE
  8
_0-3_躯体と製品
  6
CONTINUOUS
 62
    2
 10
793.76140328543988
 20
1641.4128275668425
 11
807.76140328544079
 21
1641.4128275668425
  0
LINE
  8
_0-3_躯体と製品
  6
CONTINUOUS
 62
    4
 10
726.44848328544049
 20
1656.7935475668423
 11
775.26140328544079
 21
1669.8729275668425
  0
LINE
  8
_0-3_躯体と製品
  6
CONTINUOUS
 62
    3
 10
775.76140328544352
 20
1740.6582075668425
 11
769.76140328543897
 21
1740.6582075668425
  0
LINE
  8
_0-3_躯体と製品
  6
CONTINUOUS
 62
    2
 10
755.76140328544261
 20
1601.4754675668426
 11
795.76140328544261
 21
1601.4754675668426
  0
LINE
  8
_0-3_躯体と製品
  6
PLINE2
 62
    5
 10
532.02084328544061
 20
1525.1483075668425
 11
634.79136328544064
 21
1627.9188475668425
  0
LINE
  8
_0-3_躯体と製品
  6
CONTINUOUS
 62
    2
 10
1521.6566432854397
 20
1702.0944475668425
 11
1521.6566432854397
 21
1688.0944475668425
  0
LINE
  8
_0-3_躯体と製品
  6
CONTINUOUS
 62
    2
 10
1514.6566432854397
 20
1695.0944475668425
 11
1528.6566432854379
 21
1695.0944475668425
  0
LINE
  8
_0-3_躯体と製品
  6
CONTINUOUS
 62
    2
 10
1378.3645032854402
 20
1702.0944475668425
 11
1378.3645032854402
 21
1688.0944475668425
  0
LINE
  8
_0-3_躯体と製品
  6
CONTINUOUS
 62
    2
 10
1371.3645032854402
 20
1695.0944475668425
 11
1385.364503285442
 21
1695.0944475668425
  0
ARC
  8
_0-3_躯体と製品
  6
CONTINUOUS
 62
    3
 10
1863.1905232854388
 20
1729.0944475668434
 40
3
 50
180
 51
270
  0
LINE
  8
_0-3_躯体と製品
  6
CONTINUOUS
 62
    2
 10
1704.9197432854435
 20
1702.0944475668425
 11
1704.9197432854435
 21
1688.0944475668425
  0
LINE
  8
_0-3_躯体と製品
  6
CONTINUOUS
 62
    2
 10
1697.919743285438
 20
1695.0944475668425
 11
1711.9197432854398
 21
1695.0944475668425
  0
LINE
  8
_0-3_躯体と製品
  6
CONTINUOUS
 62
    3
 10
1900.7614032854417
 20
1366.4396875668426
 11
1900.7614032854417
 21
1133.6384875668432
  0
LINE
  8
_0-3_躯体と製品
  6
CONTINUOUS
 62
    4
 10
1967.6116232854365
 20
1113.5834275668431
 11
1967.4581032854403
 21
1113.0717275668433
  0
LINE
  8
_0-3_躯体と製品
  6
CONTINUOUS
 62
    4
 10
1967.4581032854403
 20
1113.0717275668433
 11
1950.7667632854427
 21
1118.079127566843
  0
LINE
  8
_0-3_躯体と製品
  6
CONTINUOUS
 62
    3
 10
2302.8576432854443
 20
1607.6974475668426
 11
1900.7614032854417
 21
1366.4396875668426
  0
LINE
  8
_0-3_躯体と製品
  6
CONTINUOUS
 62
    2
 10
2094.0710432854412
 20
1702.0944475668425
 11
2094.0710432854412
 21
1688.0944475668425
  0
LINE
  8
_0-3_躯体と製品
  6
CONTINUOUS
 62
    2
 10
2087.071043285443
 20
1695.0944475668425
 11
2101.0710432854394
 21
1695.0944475668425
  0
ARC
  8
_0-3_躯体と製品
  6
CONTINUOUS
 62
    3
 10
1901.1905232854424
 20
1723.0944475668425
 40
3
 50
0
 51
90
  0
LINE
  8
_0-3_躯体と製品
  6
CONTINUOUS
 62
    3
 10
1904.1905232854424
 20
1723.0944475668425
 11
1904.1905232854424
 21
1720.0944475668425
  0
LINE
  8
_0-3_躯体と製品
  6
CONTINUOUS
 62
    2
 10
1877.6244832854409
 20
1702.0944475668425
 11
1877.6244832854409
 21
1688.0944475668425
  0
LINE
  8
_0-3_躯体と製品
  6
CONTINUOUS
 62
    4
 10
343.90186328544132
 20
2120.2050475668425
 11
775.76140328544352
 21
2270.5944475668425
  0
LINE
  8
_0-3_躯体と製品
  6
PLINE5
 62
    3
 10
1275.7614032854435
 20
2226.5795075668425
 11
320.88848328543918
 21
1894.0575675668424
  0
LINE
  8
_0-3_躯体と製品
  6
PLINE5
 62
    3
 10
352.72664328544306
 20
2116.9247675668425
 11
777.73460328544024
 21
2264.9282075668434
  0
LINE
  8
_0-3_躯体と製品
  6
CONTINUOUS
 62
    3
 10
392.49586328544046
 20
2084.1822875668427
 11
792.20474328543969
 21
2223.3756275668425
  0
LINE
  8
_0-3_躯体と製品
  6
PLINE2
 62
    5
 10
376.24282328543904
 20
1970.4110675668435
 11
542.11796328544187
 21
2136.2862075668427
  0
LINE
  8
_0-3_躯体と製品
  6
PLINE2
 62
    5
 10
370.35028328543922
 20
1929.1631675668425
 11
536.52036328544091
 21
2095.3332675668426
  0
LINE
  8
_0-3_躯体と製品
  6
PLINE2
 62
    5
 10
364.45772328544081
 20
1887.9152875668426
 11
530.62782328544017
 21
2054.0853675668423
  0
LINE
  8
_0-3_躯体と製品
  6
CONTINUOUS
 62
    3
 10
789.67522328544055
 20
2010.7147875668425
 11
510.54586328543883
 21
1913.5116675668426
  0
LINE
  8
_0-3_躯体と製品
  6
CONTINUOUS
 62
    3
 10
1275.7614032854435
 20
2232.9329075668425
 11
518.50540328544048
 21
1969.2284675668434
  0
LINE
  8
_0-4_図面枠
  6
CONTINUOUS
 62
    4
 10
-2117.8722567145578
 20
2966.9999875668427
 11
-2117.8722567145578
 21
2633.6666475668426
  0
LINE
  8
_0-3_躯体と製品
  6
CONTINUOUS
 62
    2
 10
-1905.9396767145599
 20
2214.0010475668423
 11
-1455.9396767145599
 21
2214.0010475668423
  0
LINE
  8
_0-3_躯体と製品
  6
CONTINUOUS
 62
    2
 10
-2124.9107167145612
 20
2077.0881275668426
 11
-2116.6890367145597
 21
2053.4787275668423
  0
LINE
  8
_0-3_躯体と製品
  6
CONTINUOUS
 62
    2
 10
-1048.4831567145593
 20
2058.5821875668425
 11
-1455.9396767145599
 21
2200.4735475668422
  0
LINE
  8
_0-3_躯体と製品
  6
CONTINUOUS
 62
    2
 10
-1198.7608167145618
 20
2080.3037075668426
 11
-1203.3649567145585
 21
2067.0824275668438
  0
LINE
  8
_0-3_躯体と製品
  6
CONTINUOUS
 62
    2
 10
-1207.6735367145593
 20
2075.9951275668427
 11
-1194.4522567145614
 21
2071.3910075668418
  0
LINE
  8
_0-3_躯体と製品
  6
CONTINUOUS
 62
    2
 10
-1284.1872567145574
 20
2110.0523275668425
 11
-1288.7913967145587
 21
2096.8310675668426
  0
LINE
  8
_0-3_躯体と製品
  6
CONTINUOUS
 62
    2
 10
-1293.0999567145582
 20
2105.7437675668434
 11
-1279.8786767145602
 21
2101.1396275668426
  0
LINE
  8
_0-3_躯体と製品
  6
CONTINUOUS
 62
    2
 10
-1400.5694367145588
 20
2150.5809075668426
 11
-1405.1735767145592
 21
2137.3596275668424
  0
LINE
  8
_0-3_躯体と製品
  6
CONTINUOUS
 62
    2
 10
-1409.4821367145587
 20
2146.2723275668423
 11
-1396.2608767145584
 21
2141.6682075668432
  0
LINE
  8
_0-3_躯体と製品
  6
CONTINUOUS
 62
    2
 10
-1455.9396767145599
 20
2200.4735475668422
 11
-1455.9396767145599
 21
2214.0010475668423
  0
LINE
  8
_0-3_躯体と製品
  6
CONTINUOUS
 62
    2
 10
-1114.4671967145578
 20
2050.9495475668427
 11
-1119.0713367145581
 21
2037.7282875668425
  0
LINE
  8
_0-3_躯体と製品
  6
CONTINUOUS
 62
    2
 10
-1123.3798967145585
 20
2046.6409875668426
 11
-1110.1586367145583
 21
2042.0368475668424
  0
LINE
  8
_0-3_躯体と製品
  6
PLINE2
 62
    5
 10
358.56516328544058
 20
1846.6673875668425
 11
524.73526328543994
 21
2012.8374875668426
  0
LINE
  8
_0-3_躯体と製品
  6
PLINE5
 62
    3
 10
510.54586328543883
 20
1913.5116675668426
 11
313.88408328543937
 21
1845.0267875668426
  0
LINE
  8
_0-3_躯体と製品
  6
PLINE5
 62
    3
 10
518.50540328544048
 20
1969.2284675668434
 11
321.84362328544194
 21
1900.7435875668425
  0
LINE
  8
_0-3_躯体と製品
  6
PLINE2
 62
    5
 10
352.67260328544126
 20
1805.4194875668425
 11
518.84270328544153
 21
1971.5895875668425
  0
LINE
  8
_0-3_躯体と製品
  6
PLINE2
 62
    5
 10
346.78004328543921
 20
1764.1715875668424
 11
512.95014328543948
 21
1930.3416875668436
  0
LINE
  8
_0-3_躯体と製品
  6
CONTINUOUS
 62
    2
 10
339.17588328543843
 20
1887.7191275668424
 11
336.94720328544099
 21
1872.1184275668436
  0
LINE
  8
_0-3_躯体と製品
  6
CONTINUOUS
 62
    2
 10
330.62028328543875
 20
1877.3274475668425
 11
345.50280328544159
 21
1882.5100875668425
  0
LINE
  8
_0-3_躯体と製品
  6
CONTINUOUS
 62
    2
 10
294.57698328544393
 20
1837.1562875668426
 11
319.32572328543847
 21
1833.6207475668425
  0
LINE
  8
_0-3_躯体と製品
  6
PLINE2
 62
    5
 10
382.13538328544018
 20
2011.6589675668424
 11
487.8722832854437
 21
2117.3958675668428
  0
LINE
  8
_0-3_躯体と製品
  6
CONTINUOUS
 62
    4
 10
337.02812328544223
 20
2072.0889275668437
 11
343.90186328544132
 21
2120.2050475668425
  0
LINE
  8
_0-3_躯体と製品
  6
CONTINUOUS
 62
    2
 10
323.95034328544261
 20
2046.3053875668438
 11
348.69908328544261
 21
2042.7698475668435
  0
LINE
  8
_0-3_躯体と製品
  6
PLINE2
 62
    5
 10
388.02794328544405
 20
2052.9068675668423
 11
433.62660328543916
 21
2098.5055275668437
  0
LINE
  8
_0-3_躯体と製品
  6
CONTINUOUS
 62
    2
 10
412.75058328544401
 20
2151.0635675668427
 11
420.97224328544235
 21
2127.4541475668425
  0
LINE
  8
_0-3_躯体と製品
  6
CONTINUOUS
 62
    3
 10
1775.7614032854417
 20
2297.0669475668428
 11
2226.8153832854387
 21
2139.9933475668436
  0
LINE
  8
_0-3_躯体と製品
  6
CONTINUOUS
 62
    4
 10
1275.1036632854421
 20
2234.8216675668427
 11
529.70406328543959
 21
1975.2460475668424
  0
LINE
  8
_0-3_躯体と製品
  6
CONTINUOUS
 62
    3
 10
1275.7614032854435
 20
2179.9879075668423
 11
809.47864328543892
 21
2017.6110875668426
  0
LINE
  8
_0-3_躯体と製品
  6
CONTINUOUS
 62
    3
 10
769.76140328543897
 20
1956.2238275668428
 11
769.76140328543897
 21
1929.0216675668426
  0
LINE
  8
_0-3_躯体と製品
  6
CONTINUOUS
 62
    2
 10
686.63342328543877
 20
1885.3771475668425
 11
712.34492328544275
 21
1854.7353675668426
  0
LINE
  8
_0-3_躯体と製品
  6
CONTINUOUS
 62
    4
 10
760.76140328544261
 20
1936.4697675668426
 11
760.76140328544261
 21
1921.4697675668426
  0
LINE
  8
_0-3_躯体と製品
  6
CONTINUOUS
 62
    4
 10
529.70406328543959
 20
1958.1282475668422
 11
529.70406328543959
 21
1975.2460475668424
  0
LINE
  8
_0-3_躯体と製品
  6
CONTINUOUS
 62
    3
 10
769.76140328543897
 20
1766.0542475668426
 11
622.55252328544066
 21
1805.4987475668424
  0
LINE
  8
_0-3_躯体と製品
  6
CONTINUOUS
 62
    4
 10
607.55252328544157
 20
1792.9122475668426
 11
607.55252328544157
 21
1777.9122475668426
  0
LINE
  8
_0-3_躯体と製品
  6
CONTINUOUS
 62
    4
 10
760.76140328544261
 20
1921.4697675668426
 11
607.55252328544157
 21
1792.9122475668426
  0
LINE
  8
_0-3_躯体と製品
  6
CONTINUOUS
 62
    3
 10
622.55252328544066
 20
1805.4987475668424
 11
769.76140328543897
 21
1929.0216675668426
  0
LINE
  8
_0-3_躯体と製品
  6
CONTINUOUS
 62
    2
 10
755.76140328544261
 20
1755.6582075668434
 11
795.76140328544261
 21
1755.6582075668434
  0
LINE
  8
_0-3_躯体と製品
  6
CONTINUOUS
 62
    2
 10
755.76140328544261
 20
1941.2238275668428
 11
795.76140328544261
 21
1941.2238275668428
  0
LINE
  8
_0-3_躯体と製品
  6
CONTINUOUS
 62
    3
 10
775.76140328544352
 20
1956.2238275668428
 11
769.76140328543897
 21
1956.2238275668428
  0
LINE
  8
_0-3_躯体と製品
  6
CONTINUOUS
 62
    3
 10
775.76140328544352
 20
1926.2238275668428
 11
635.23858328544247
 21
1808.3111675668436
  0
LINE
  8
_0-3_躯体と製品
  6
CONTINUOUS
 62
    3
 10
635.23858328544247
 20
1808.3111675668436
 11
775.76140328544352
 21
1770.6582075668434
  0
LINE
  8
_0-3_躯体と製品
  6
CONTINUOUS
 62
    2
 10
800.76140328544261
 20
2046.0336075668424
 11
800.76140328544261
 21
2032.0336075668424
  0
LINE
  8
_0-3_躯体と製品
  6
CONTINUOUS
 62
    2
 10
793.76140328543988
 20
2039.0336075668424
 11
807.76140328544079
 21
2039.0336075668424
  0
LINE
  8
_0-3_躯体と製品
  6
CONTINUOUS
 62
    2
 10
592.10696328544145
 20
2214.0515075668427
 11
600.32862328544161
 21
2190.4421075668424
  0
LINE
  8
_0-3_躯体と製品
  6
CONTINUOUS
 62
    3
 10
775.76140328544352
 20
1993.5556875668426
 11
781.7614032854417
 21
1993.5556875668426
  0
LINE
  8
_0-3_躯体と製品
  6
CONTINUOUS
 62
    2
 10
617.06286328544229
 20
2016.7860475668424
 11
625.28452328544154
 21
1993.1766475668435
  0
LINE
  8
_0-3_躯体と製品
  6
CONTINUOUS
 62
    2
 10
1075.2427032854403
 20
2176.3411475668436
 11
1083.4643632854386
 21
2152.7317475668424
  0
LINE
  8
_0-3_躯体と製品
  6
CONTINUOUS
 62
    3
 10
1854.1905232854424
 20
1770.0944475668425
 11
1857.1905232854406
 21
1770.0944475668425
  0
ARC
  8
_0-3_躯体と製品
  6
CONTINUOUS
 62
    3
 10
1857.1905232854406
 20
1767.0944475668425
 40
3
 50
0
 51
90
  0
LINE
  8
_0-3_躯体と製品
  6
CONTINUOUS
 62
    3
 10
1275.7614032854435
 20
2270.5944475668425
 11
794.005883285442
 21
2270.5944475668425
  0
LINE
  8
_0-3_躯体と製品
  6
CONTINUOUS
 62
    3
 10
795.02070328544141
 20
2264.5944475668425
 11
1275.7614032854435
 21
2264.5944475668425
  0
LINE
  8
_0-3_躯体と製品
  6
CONTINUOUS
 62
    4
 10
778.9614032854397
 20
2297.5226675668428
 11
778.9614032854397
 21
2320.5944475668425
  0
LINE
  8
_0-3_躯体と製品
  6
CONTINUOUS
 62
    4
 10
778.9614032854397
 20
2320.5944475668425
 11
775.76140328544352
 21
2320.5944475668425
  0
LINE
  8
_0-3_躯体と製品
  6
CONTINUOUS
 62
    3
 10
794.005883285442
 20
2270.5944475668425
 11
777.85082328544104
 21
2264.5944475668425
  0
LINE
  8
_0-3_躯体と製品
  6
CONTINUOUS
 62
    4
 10
775.76140328544352
 20
2320.5944475668425
 11
775.76140328544352
 21
2270.5944475668425
  0
LINE
  8
_0-3_躯体と製品
  6
CONTINUOUS
 62
    3
 10
792.20474328543969
 20
2223.3756275668425
 11
775.76140328544352
 21
2270.5944475668425
  0
LINE
  8
_0-3_躯体と製品
  6
CONTINUOUS
 62
    3
 10
683.29696328543923
 20
2232.0415275668424
 11
685.2701632854405
 21
2226.3752675668434
  0
LINE
  8
_0-3_躯体と製品
  6
CONTINUOUS
 62
    2
 10
724.34302328544254
 20
2259.5715275668435
 11
732.56468328544179
 21
2235.9621275668433
  0
LINE
  8
_0-3_躯体と製品
  6
CONTINUOUS
 62
    3
 10
685.2701632854405
 20
2226.3752675668434
 11
795.02070328544141
 21
2264.5944475668425
  0
LINE
  8
_0-3_躯体と製品
  6
CONTINUOUS
 62
    3
 10
1275.7614032854435
 20
2320.5944475668425
 11
1775.7614032854417
 21
2320.5944475668425
  0
LINE
  8
_0-3_躯体と製品
  6
CONTINUOUS
 62
    3
 10
1775.7614032854417
 20
2320.5944475668425
 11
1775.7614032854417
 21
2297.0669475668428
  0
LINE
  8
_0-3_躯体と製品
  6
CONTINUOUS
 62
    2
 10
2144.8122232854403
 20
2151.3937675668426
 11
2140.2081032854403
 21
2138.1725075668428
  0
LINE
  8
_0-3_躯体と製品
  6
CONTINUOUS
 62
    2
 10
2135.8995232854395
 20
2147.0852075668427
 11
2149.1208032854411
 21
2142.4810675668427
  0
LINE
  8
_0-3_躯体と製品
  6
CONTINUOUS
 62
    2
 10
2005.2915832854378
 20
2198.0758875668434
 11
2000.6874632854397
 21
2184.8546275668423
  0
LINE
  8
_0-3_躯体と製品
  6
CONTINUOUS
 62
    2
 10
1996.3788832854425
 20
2193.7673275668426
 11
2009.6001632854404
 21
2189.1631875668427
  0
LINE
  8
_0-3_躯体と製品
  6
CONTINUOUS
 62
    2
 10
1888.1915832854411
 20
2238.8544275668428
 11
1883.5874432854434
 21
2225.6331475668426
  0
LINE
  8
_0-3_躯体と製品
  6
CONTINUOUS
 62
    2
 10
1879.2788832854421
 20
2234.5458475668424
 11
1892.5001432854424
 21
2229.9417275668425
  0
LINE
  8
_0-3_躯体と製品
  6
CONTINUOUS
 62
    3
 10
3922.043543285432
 20
598.66772756684327
 11
4013.8976232854329
 21
-44.310732433157
  0
LINE
  8
_0-3_躯体と製品
  6
CONTINUOUS
 62
    2
 10
3486.8013832854322
 20
302.58626756684305
 11
3486.8013832854322
 21
352.58626756684305
  0
LINE
  8
_0-3_躯体と製品
  6
CONTINUOUS
 62
    2
 10
3492.8013832854322
 20
349.5862675668435
 11
3492.8013832854322
 21
311.58626756684282
  0
LINE
  8
_0-3_躯体と製品
  6
CONTINUOUS
 62
    2
 10
3540.1636832854329
 20
-116.41373243315672
 11
3554.1636832854329
 21
-116.41373243315672
  0
LINE
  8
_0-3_躯体と製品
  6
CONTINUOUS
 62
    2
 10
3431.9984632854321
 20
-116.41373243315672
 11
3445.998463285443
 21
-116.41373243315672
  0
LINE
  8
_0-3_躯体と製品
  6
CONTINUOUS
 62
    2
 10
3293.6476032854334
 20
-116.41373243315672
 11
3307.6476032854334
 21
-116.41373243315672
  0
ARC
  8
_0-3_躯体と製品
  6
CONTINUOUS
 62
    2
 10
3533.8013832854322
 20
305.58626756684259
 40
3
 50
0
 51
90
  0
LINE
  8
_0-3_躯体と製品
  6
CONTINUOUS
 62
    2
 10
3536.8013832854322
 20
305.58626756684259
 11
3536.8013832854322
 21
302.58626756684305
  0
LINE
  8
_0-3_躯体と製品
  6
CONTINUOUS
 62
    2
 10
3495.9892032854332
 20
284.5862675668435
 11
3495.9892032854332
 21
270.58626756684259
  0
LINE
  8
_0-3_躯体と製品
  6
CONTINUOUS
 62
    2
 10
3488.9892032854332
 20
277.58626756684305
 11
3502.9892032854423
 21
277.58626756684305
  0
ARC
  8
_0-3_躯体と製品
  6
CONTINUOUS
 62
    2
 10
3495.8013832854322
 20
311.58626756684282
 40
3
 50
180
 51
270
  0
LINE
  8
_0-3_躯体と製品
  6
CONTINUOUS
 62
    2
 10
3386.8454832854422
 20
284.5862675668435
 11
3386.8454832854422
 21
270.58626756684259
  0
LINE
  8
_0-3_躯体と製品
  6
CONTINUOUS
 62
    2
 10
3379.8454832854331
 20
277.58626756684305
 11
3393.8454832854331
 21
277.58626756684305
  0
LINE
  8
_0-3_躯体と製品
  6
CONTINUOUS
 62
    2
 10
3256.6067832854333
 20
284.5862675668435
 11
3256.6067832854333
 21
270.58626756684259
  0
LINE
  8
_0-3_躯体と製品
  6
CONTINUOUS
 62
    2
 10
3249.6067832854333
 20
277.58626756684305
 11
3263.6067832854424
 21
277.58626756684305
  0
LINE
  8
_0-3_躯体と製品
  6
CONTINUOUS
 62
    2
 10
3495.8013832854322
 20
308.58626756684214
 11
3533.8013832854322
 21
308.58626756684214
  0
LINE
  8
_0-3_躯体と製品
  6
CONTINUOUS
 62
    2
 10
3604.2157232854424
 20
284.5862675668435
 11
3604.2157232854424
 21
270.58626756684259
  0
LINE
  8
_0-3_躯体と製品
  6
CONTINUOUS
 62
    2
 10
3597.2157232854333
 20
277.58626756684305
 11
3611.2157232854333
 21
277.58626756684305
  0
LINE
  8
_0-3_躯体と製品
  6
CONTINUOUS
 62
    3
 10
3386.8013832854322
 20
785.05876756684302
 11
3922.043543285432
 21
598.66772756684327
  0
LINE
  8
_0-3_躯体と製品
  6
CONTINUOUS
 62
    2
 10
3486.8013832854322
 20
352.58626756684305
 11
3489.8013832854322
 21
352.58626756684305
  0
ARC
  8
_0-3_躯体と製品
  6
CONTINUOUS
 62
    2
 10
3489.8013832854322
 20
349.5862675668435
 40
3
 50
0
 51
90
  0
LINE
  8
_0-3_躯体と製品
  6
CONTINUOUS
 62
    3
 10
3386.8013832854322
 20
808.58626756684259
 11
3386.8013832854322
 21
785.05876756684302
  0
LINE
  8
_0-3_躯体と製品
  6
CONTINUOUS
 62
    2
 10
3463.002283285432
 20
729.2957275668432
 11
3458.3981432854325
 21
716.07444756684299
  0
LINE
  8
_0-3_躯体と製品
  6
CONTINUOUS
 62
    2
 10
3454.0895632854426
 20
724.98714756684308
 11
3467.3108432854333
 21
720.383027566843
  0
LINE
  8
_0-3_躯体と製品
  6
CONTINUOUS
 62
    2
 10
3776.1708632854425
 20
620.23888756684312
 11
3771.566723285443
 21
607.01760756684291
  0
LINE
  8
_0-3_躯体と製品
  6
CONTINUOUS
 62
    2
 10
3767.2581632854326
 20
615.93030756684311
 11
3780.479423285442
 21
611.32618756684349
  0
LINE
  8
_0-3_躯体と製品
  6
CONTINUOUS
 62
    2
 10
3612.1378832854425
 20
677.3612075668434
 11
3607.5337432854321
 21
664.13994756684315
  0
LINE
  8
_0-3_躯体と製品
  6
CONTINUOUS
 62
    2
 10
3603.2251832854417
 20
673.05264756684323
 11
3616.4464432854329
 21
668.4485075668432
  0
ENDSEC
  0
EOF
