  0
SECTION
  2
HEADER
  9
$ACADVER
  1
AC1009
  9
$INSBASE
 10
0
 20
0
 30
0
  9
$EXTMIN
 10
0
 20
0
  9
$EXTMAX
 10
841
 20
594
  9
$LIMMIN
 10
0
 20
0
  9
$LIMMAX
 10
841
 20
594
  9
$LTSCALE
 40
1
  0
ENDSEC
  0
SECTION
  2
TABLES
  0
TABLE
  2
LTYPE
 70
     9
  0
LTYPE
  2
CONTINUOUS
 70
    64
  3
実線
 72
    65
 73
     0
 40
0.0
  0
LTYPE
  2
DASHED1
 70
    64
  3
--  --  --  --  --  --  --  --  
 72
    65
 73
     2
 40
2.5
 49
1.25
 49
-1.25
  0
LTYPE
  2
DASHED2
 70
    64
  3
----    ----    ----    ----    
 72
    65
 73
     2
 40
5.0
 49
2.5
 49
-2.5
  0
LTYPE
  2
DASHED3
 70
    64
  3
------  ------  ------  ------  
 72
    65
 73
     2
 40
5.0
 49
3.75
 49
-1.25
  0
LTYPE
  2
CENTER1
 70
    64
  3
----- - ----- - ----- - ----- - 
 72
    65
 73
     4
 40
10.0
 49
6.25
 49
-1.25
 49
1.25
 49
-1.25
  0
LTYPE
  2
CENTER2
 70
    64
  3
----------  --  ----------  --  
 72
    65
 73
     4
 40
20.0
 49
12.5
 49
-2.5
 49
2.5
 49
-2.5
  0
LTYPE
  2
PHANTOM1
 70
    64
  3
--- - - --- - - --- - - --- - - 
 72
    65
 73
     6
 40
10.0
 49
3.25
 49
-1.25
 49
1.25
 49
-1.25
 49
1.25
 49
-1.25
  0
LTYPE
  2
PHANTOM2
 70
    64
  3
--------  -  -  --------  -  -  
 72
    65
 73
     6
 40
20.0
 49
10.0
 49
-2.5
 49
1.25
 49
-2.5
 49
1.25
 49
-2.5
  0
LTYPE
  2
DOT
 70
    64
  3
-   -   -   -   -   -   -   -   
 72
    65
 73
     2
 40
2.5
 49
0.625
 49
-1.875
  0
LTYPE
  2
DUMMY
 70
    64
  3
ダミー
 72
    65
 73
     0
 40
0.0
  0
LTYPE
  2
RAND1
 70
    64
  3
ランダム線1
 72
    65
 73
     4
 40
10.0
 49
1.0
 49
-2.0
 49
3.0
 49
-4.0
  0
LTYPE
  2
RAND2
 70
    64
  3
ランダム線2
 72
    65
 73
     4
 40
14.0
 49
2.0
 49
-3.0
 49
4.0
 49
-5.0
  0
LTYPE
  2
RAND3
 70
    64
  3
ランダム線3
 72
    65
 73
     4
 40
18.0
 49
3.0
 49
-4.0
 49
5.0
 49
-6.0
  0
LTYPE
  2
RAND4
 70
    64
  3
ランダム線4
 72
    65
 73
     4
 40
22.0
 49
4.0
 49
-5.0
 49
6.0
 49
-7.0
  0
LTYPE
  2
RAND5
 70
    64
  3
ランダム線5
 72
    65
 73
     4
 40
26.0
 49
5.0
 49
-6.0
 49
7.0
 49
-8.0
  0
LTYPE
  2
LONG1
 70
    64
  3
----------  --  ----------  --  
 72
    65
 73
     4
 40
40.0
 49
32.5
 49
-2.5
 49
2.5
 49
-2.5
  0
LTYPE
  2
LONG2
 70
    64
  3
--------  -  -  --------  -  -  
 72
    65
 73
     6
 40
40.0
 49
30.0
 49
-2.5
 49
1.25
 49
-2.5
 49
1.25
 49
-2.5
  0
LTYPE
  2
LONG3
 70
    64
  3
+++++++++++++++..+++++++++++++++
 72
    65
 73
     2
 40
40.0
 49
37.5
 49
-2.5
  0
LTYPE
  2
LONG4
 70
    64
  3
+++++++++++++++..+++++++++++++++
 72
    65
 73
     2
 40
80.0
 49
75.0
 49
-5.0
  0
LTYPE
  2
LONG5
 70
    64
  3
----------  --  ----------  --  
 72
    65
 73
     4
 40
60.0
 49
37.5
 49
-7.5
 49
7.5
 49
-7.5
  0
LTYPE
  2
dashed
 70
   64
  3
-------   -------------   ------
 72
   65
 73
    2
 40
7.5
 49
6
 49
-1.5
  0
LTYPE
  2
dashed_spaced
 70
   64
  3
----        --------        ----
 72
   65
 73
    2
 40
12
 49
6
 49
-6
  0
LTYPE
  2
long_dashed_dotted
 70
   64
  3
------------- --- --------------
 72
   65
 73
    4
 40
15.25
 49
12
 49
-1.5
 49
0.25
 49
-1.5
  0
LTYPE
  2
long_dashed_double-dotted
 70
   64
  3
----------- --- --- ------------
 72
   65
 73
    6
 40
17
 49
12
 49
-1.5
 49
0.25
 49
-1.5
 49
0.25
 49
-1.5
  0
LTYPE
  2
long_dashed_triplicate-dotted
 70
   64
  3
--------- --- --- --- ----------
 72
   65
 73
    8
 40
18.75
 49
12
 49
-1.5
 49
0.25
 49
-1.5
 49
0.25
 49
-1.5
 49
0.25
 49
-1.5
  0
LTYPE
  2
dotted
 70
   64
  3
   -       -       -       -    
 72
   65
 73
    2
 40
1.75
 49
0.25
 49
-1.5
  0
LTYPE
  2
chain
 70
   64
  3
-------------- -- --------------
 72
   65
 73
    4
 40
18.5
 49
12
 49
-1.5
 49
3.5
 49
-1.5
  0
LTYPE
  2
chain_double_dash
 70
   64
  3
------------ -- -- -------------
 72
   65
 73
    6
 40
23.5
 49
12
 49
-1.5
 49
3.5
 49
-1.5
 49
3.5
 49
-1.5
  0
LTYPE
  2
dashed_dotted
 70
   64
  3
-----------     -     ----------
 72
   65
 73
    4
 40
9.25
 49
6
 49
-1.5
 49
0.25
 49
-1.5
  0
LTYPE
  2
double-dashed_dotted
 70
   64
  3
------   -----------   -   -----
 72
   65
 73
    6
 40
16.75
 49
6
 49
-1.5
 49
6
 49
-1.5
 49
0.25
 49
-1.5
  0
LTYPE
  2
dashed_double-dotted
 70
   64
  3
---------    -    -    ---------
 72
   65
 73
    6
 40
11
 49
6
 49
-1.5
 49
0.25
 49
-1.5
 49
0.25
 49
-1.5
  0
LTYPE
  2
double-dashed_double-dotted
 70
   64
  3
-----   ---------   -   -   ----
 72
   65
 73
    8
 40
18.5
 49
6
 49
-1.5
 49
6
 49
-1.5
 49
0.25
 49
-1.5
 49
0.25
 49
-1.5
  0
LTYPE
  2
dashed_triplicate-dotted
 70
   64
  3
-------    -    -    -    ------
 72
   65
 73
    8
 40
12.75
 49
6
 49
-1.5
 49
0.25
 49
-1.5
 49
0.25
 49
-1.5
 49
0.25
 49
-1.5
  0
LTYPE
  2
double-dashed_triplicate-dotted
 70
   64
  3
-----  ---------  -  -  -  -----
 72
   65
 73
   10
 40
20.25
 49
6
 49
-1.5
 49
6
 49
-1.5
 49
0.25
 49
-1.5
 49
0.25
 49
-1.5
 49
0.25
 49
-1.5
  0
LTYPE
  2
undefined
 70
   64
  3
--------------------------------
 72
   65
 73
    0
 40
0
  0
LTYPE
  2
PLine1
 70
   64
  3
------     -----------     -----
 72
   65
 73
    2
 40
6
 49
4.2000000000000002
 49
-1.8
  0
LTYPE
  2
PLine2
 70
   64
  3
------------   ---   -----------
 72
   65
 73
    4
 40
20
 49
14
 49
-2
 49
2
 49
-2
  0
LTYPE
  2
PLine3
 70
   64
  3
---------   ---   ---   --------
 72
   65
 73
    6
 40
20
 49
10
 49
-2
 49
2
 49
-2
 49
2
 49
-2
  0
LTYPE
  2
PLine4
 70
   64
  3
------     -----------     -----
 72
   65
 73
    2
 40
10
 49
7
 49
-3
  0
LTYPE
  2
PLine5
 70
   64
  3
------------   ---   -----------
 72
   65
 73
    4
 40
30
 49
21
 49
-3
 49
3
 49
-3
  0
LTYPE
  2
PLine6
 70
   64
  3
---------   ---   ---   --------
 72
   65
 73
    6
 40
30
 49
15
 49
-3
 49
3
 49
-3
 49
3
 49
-3
  0
LTYPE
  2
PLine7
 70
   64
  3
------     -----------     -----
 72
   65
 73
    2
 40
14
 49
9.8000000000000007
 49
-4.2000000000000002
  0
LTYPE
  2
PLine8
 70
   64
  3
------------   ---   -----------
 72
   65
 73
    4
 40
40
 49
28
 49
-4
 49
4
 49
-4
  0
LTYPE
  2
PLine9
 70
   64
  3
---------   ---   ---   --------
 72
   65
 73
    6
 40
40
 49
20
 49
-4
 49
4
 49
-4
 49
4
 49
-4
  0
LTYPE
  2
PLine10
 70
   64
  3
------     -----------     -----
 72
   65
 73
    2
 40
18
 49
12.6
 49
-5.4000000000000004
  0
LTYPE
  2
PLine11
 70
   64
  3
------------   ---   -----------
 72
   65
 73
    4
 40
50
 49
35
 49
-5
 49
5
 49
-5
  0
LTYPE
  2
PLine12
 70
   64
  3
---------   ---   ---   --------
 72
   65
 73
    6
 40
50
 49
25
 49
-5
 49
5
 49
-5
 49
5
 49
-5
  0
LTYPE
  2
PLine13
 70
   64
  3
------     -----------     -----
 72
   65
 73
    2
 40
22
 49
15.4
 49
-6.5999999999999988
  0
LTYPE
  2
PLine14
 70
   64
  3
------------   ---   -----------
 72
   65
 73
    4
 40
60
 49
42
 49
-6
 49
6
 49
-6
  0
LTYPE
  2
PLine15
 70
   64
  3
---------   ---   ---   --------
 72
   65
 73
    6
 40
60
 49
30
 49
-6
 49
6
 49
-6
 49
6
 49
-6
  0
LTYPE
  2
_
 70
   64
  3
                                
 72
   65
 73
    0
 40
0
  0
ENDTAB
  0
TABLE
  2
STYLE
  5
3
100
AcDbSymbolTable
 70
     1
  0
STYLE
  5
10
100
AcDbSymbolTableRecord
100
AcDbTextStyleTableRecord
  2
STANDARD
 70
     0
 40
0.0
 41
1.0
 50
0.0
 71
     0
 42
0.2
  3
txt
  4
bigfont.shx
  0
STYLE
  5
26
100
AcDbSymbolTableRecord
100
AcDbTextStyleTableRecord
  2
TATEGAKI
 70
    68
 40
0.0
 41
1.0
 50
0.0
 71
     0
 42
1.0
  3
txt
  4
bigfont.shx
  0
ENDTAB
  0
TABLE
  2
LAYER
 70
    2
  0
LAYER
  2
_0-1_Layer1
 70
   64
 62
    7
  6
CONTINUOUS
  0
LAYER
  2
ADD_LINE
 70
   64
 62
    7
  6
CONTINUOUS
  0
ENDTAB
  0
ENDSEC
  0
SECTION
  2
BLOCKS
  0
BLOCK
  2
-000-DIM_0
 70
   64
 10
0
 20
0
 30
0
  0
CIRCLE
  8
_0-1_Layer1
  6
CONTINUOUS
 62
    3
 10
-62.468087999999995
 20
0
 40
1
  0
CIRCLE
  8
_0-1_Layer1
  6
CONTINUOUS
 62
    3
 10
-62.468087999999995
 20
-24.999999999999986
 40
1
  0
LINE
  8
_0-1_Layer1
  6
CONTINUOUS
 62
    3
 10
-62.468087999999995
 20
0
 11
-62.468087999999995
 21
-24.999999999999986
  0
LINE
  8
_0-1_Layer1
  6
CONTINUOUS
 62
    3
 10
0
 20
0
 11
-64.468087999999995
 21
0
  0
LINE
  8
_0-1_Layer1
  6
CONTINUOUS
 62
    3
 10
-41.250647999999984
 20
-24.999999999999986
 11
-64.468087999999995
 21
-24.999999999999986
  0
TEXT
  8
_0-1_Layer1
 62
    7
 10
-64.468087874171388
 20
-14.903159399999993
 40
6
 41
0.8582679999999999
 50
90.000003000000063
  1
Ｈ
  0
ENDBLK
  0
BLOCK
  2
-001-DIM_1
 70
   64
 10
0
 20
0
 30
0
  0
CIRCLE
  8
_0-1_Layer1
  6
CONTINUOUS
 62
    3
 10
-21.217440000000011
 20
0
 40
1
  0
CIRCLE
  8
_0-1_Layer1
  6
CONTINUOUS
 62
    3
 10
-21.217440000000011
 20
-3
 40
1
  0
LINE
  8
_0-1_Layer1
  6
CONTINUOUS
 62
    3
 10
-21.217440000000011
 20
0
 11
-21.217440000000011
 21
-3
  0
LINE
  8
_0-1_Layer1
  6
CONTINUOUS
 62
    3
 10
-1.7000000000000028
 20
-3
 11
-23.217440000000011
 21
-3
  0
TEXT
  8
_0-1_Layer1
 62
    7
 10
-23.217440000000011
 20
-6.3157474000000065
 40
6
 41
0.7767319999999999
 50
90
  1
３０
  0
ENDBLK
  0
BLOCK
  2
-002-DIM_2
 70
   64
 10
0
 20
0
 30
0
  0
CIRCLE
  8
_0-1_Layer1
  6
CONTINUOUS
 62
    3
 10
0
 20
-1.6005069999999932
 40
1
  0
CIRCLE
  8
_0-1_Layer1
  6
CONTINUOUS
 62
    3
 10
-6.0000000000000568
 20
-1.6005069999999932
 40
1
  0
LINE
  8
_0-1_Layer1
  6
CONTINUOUS
 62
    3
 10
0
 20
-1.6005069999999932
 11
-6.0000000000000568
 21
-1.6005069999999932
  0
LINE
  8
_0-1_Layer1
  6
CONTINUOUS
 62
    3
 10
0
 20
0
 11
0
 21
-2.0025349999999094
  0
LINE
  8
_0-1_Layer1
  6
CONTINUOUS
 62
    3
 10
-6.0000000000000568
 20
-18.034665999999902
 11
-6.0000000000000568
 21
0.3994930000000636
  0
TEXT
  8
_0-1_Layer1
 62
    7
 10
-0.0180659999999761
 20
0.3297850000000153
 40
6
 41
0.8582679999999999
 50
0
  1
１５
  0
ENDBLK
  0
BLOCK
  2
-003-DIM_3
 70
   64
 10
0
 20
0
 30
0
  0
CIRCLE
  8
_0-1_Layer1
  6
CONTINUOUS
 62
    3
 10
0
 20
16.434158999999909
 40
1
  0
CIRCLE
  8
_0-1_Layer1
  6
CONTINUOUS
 62
    3
 10
-51.999999999999943
 20
16.434158999999909
 40
1
  0
LINE
  8
_0-1_Layer1
  6
CONTINUOUS
 62
    3
 10
0
 20
16.434158999999909
 11
-51.999999999999943
 21
16.434158999999909
  0
LINE
  8
_0-1_Layer1
  6
CONTINUOUS
 62
    3
 10
-51.999999999999943
 20
0
 11
-51.999999999999943
 21
18.434158999999966
  0
TEXT
  8
_0-1_Layer1
 62
    7
 10
-34.926045200000033
 20
18.434152999999867
 40
6
 41
0.8582679999999999
 50
0
  1
１３０
  0
ENDBLK
  0
BLOCK
  2
-004-DIM_4
 70
   64
 10
0
 20
0
 30
0
  0
CIRCLE
  8
_0-1_Layer1
  6
CONTINUOUS
 62
    3
 10
0
 20
16.434158999999909
 40
1
  0
CIRCLE
  8
_0-1_Layer1
  6
CONTINUOUS
 62
    3
 10
-6.0000000000000568
 20
16.434158999999909
 40
1
  0
LINE
  8
_0-1_Layer1
  6
CONTINUOUS
 62
    3
 10
0
 20
16.434158999999909
 11
-6.0000000000000568
 21
16.434158999999909
  0
LINE
  8
_0-1_Layer1
  6
CONTINUOUS
 62
    3
 10
-6.0000000000000568
 20
17.477154999999982
 11
-6.0000000000000568
 21
18.2621749999999
  0
TEXT
  8
_0-1_Layer1
 62
    7
 10
-17.370604000000071
 20
18.503854999999874
 40
6
 41
0.8582679999999999
 50
0
  1
１５
  0
ENDBLK
  0
BLOCK
  2
-005-DIM_5
 70
   64
 10
0
 20
0
 30
0
  0
CIRCLE
  8
_0-1_Layer1
  6
CONTINUOUS
 62
    3
 10
31.662156999999979
 20
0
 40
1
  0
CIRCLE
  8
_0-1_Layer1
  6
CONTINUOUS
 62
    3
 10
31.662156999999979
 20
-11.999999999999886
 40
1
  0
LINE
  8
_0-1_Layer1
  6
CONTINUOUS
 62
    3
 10
31.662156999999979
 20
0
 11
31.662156999999979
 21
-11.999999999999886
  0
LINE
  8
_0-1_Layer1
  6
CONTINUOUS
 62
    3
 10
0
 20
0
 11
33.662156999999979
 21
0
  0
LINE
  8
_0-1_Layer1
  6
CONTINUOUS
 62
    3
 10
23.491597000000013
 20
-11.999999999999886
 11
33.662156999999979
 21
-11.999999999999886
  0
TEXT
  8
_0-1_Layer1
 62
    7
 10
39.662112278620498
 20
-11.321268599999883
 40
6
 41
0.8582679999999999
 50
90.000002999999893
  1
３０
  0
ENDBLK
  0
BLOCK
  2
-006-DIM_6
 70
   64
 10
0
 20
0
 30
0
  0
CIRCLE
  8
_0-1_Layer1
  6
CONTINUOUS
 62
    3
 10
0
 20
43.226842999999974
 40
1
  0
CIRCLE
  8
_0-1_Layer1
  6
CONTINUOUS
 62
    3
 10
-64.000000000000057
 20
43.226842999999974
 40
1
  0
LINE
  8
_0-1_Layer1
  6
CONTINUOUS
 62
    3
 10
0
 20
43.226842999999974
 11
-64.000000000000057
 21
43.226842999999974
  0
LINE
  8
_0-1_Layer1
  6
CONTINUOUS
 62
    3
 10
0
 20
0
 11
0
 21
45.226842999999974
  0
LINE
  8
_0-1_Layer1
  6
CONTINUOUS
 62
    3
 10
-64.000000000000057
 20
2
 11
-64.000000000000057
 21
45.226842999999974
  0
TEXT
  8
_0-1_Layer1
 62
    7
 10
-40.92604520000009
 20
45.226814999999988
 40
6
 41
0.8582679999999999
 50
0
  1
１６０
  0
ENDBLK
  0
BLOCK
  2
-007-DIM_7
 70
   64
 10
0
 20
0
 30
0
  0
CIRCLE
  8
_0-1_Layer1
  6
CONTINUOUS
 62
    3
 10
0
 20
17.33104400000002
 40
1
  0
CIRCLE
  8
_0-1_Layer1
  6
CONTINUOUS
 62
    3
 10
-98
 20
17.33104400000002
 40
1
  0
LINE
  8
_0-1_Layer1
  6
CONTINUOUS
 62
    3
 10
0
 20
17.33104400000002
 11
-98
 21
17.33104400000002
  0
LINE
  8
_0-1_Layer1
  6
CONTINUOUS
 62
    3
 10
0
 20
0
 11
0
 21
19.33104400000002
  0
LINE
  8
_0-1_Layer1
  6
CONTINUOUS
 62
    3
 10
-98
 20
0
 11
-98
 21
19.33104400000002
  0
TEXT
  8
_0-1_Layer1
 62
    7
 10
-64.105538800000005
 20
19.331038000000035
 40
6
 41
0.8582679999999999
 50
0
  1
Ｆ　有効長
  0
ENDBLK
  0
BLOCK
  2
-008-DIM_8
 70
   64
 10
0
 20
0
 30
0
  0
CIRCLE
  8
_0-1_Layer1
  6
CONTINUOUS
 62
    3
 10
-11.279965999999995
 20
-5
 40
1
  0
CIRCLE
  8
_0-1_Layer1
  6
CONTINUOUS
 62
    3
 10
-11.279965999999995
 20
0
 40
1
  0
LINE
  8
_0-1_Layer1
  6
CONTINUOUS
 62
    3
 10
-11.279965999999995
 20
-5
 11
-11.279965999999995
 21
0
  0
LINE
  8
_0-1_Layer1
  6
CONTINUOUS
 62
    3
 10
0
 20
0
 11
-11.279965999999995
 21
0
  0
TEXT
  8
_0-1_Layer1
 62
    7
 10
-13.858362
 20
-4.5698163999999792
 40
6
 41
0.8582679999999999
 50
90
  1
Ｄ
  0
ENDBLK
  0
BLOCK
  2
-009-DIM_9
 70
   64
 10
0
 20
0
 30
0
  0
CIRCLE
  8
_0-1_Layer1
  6
CONTINUOUS
 62
    3
 10
0
 20
0
 40
1
  0
CIRCLE
  8
_0-1_Layer1
  6
CONTINUOUS
 62
    3
 10
1
 20
0
 40
1
  0
LINE
  8
_0-1_Layer1
  6
CONTINUOUS
 62
    3
 10
0
 20
0
 11
1
 21
0
  0
LINE
  8
_0-1_Layer1
  6
CONTINUOUS
 62
    3
 10
1
 20
-6.7225090000000023
 11
1
 21
2
  0
TEXT
  8
_0-1_Layer1
 62
    7
 10
-11.942132399999878
 20
-2.653694999999999
 40
6
 41
0.8582679999999999
 50
0
  1
１０
  0
ENDBLK
  0
BLOCK
  2
-010-DIM_10
 70
   64
 10
0
 20
0
 30
0
  0
CIRCLE
  8
_0-1_Layer1
  6
CONTINUOUS
 62
    3
 10
0
 20
6.7225090000000023
 40
1
  0
CIRCLE
  8
_0-1_Layer1
  6
CONTINUOUS
 62
    3
 10
8
 20
6.7225090000000023
 40
1
  0
LINE
  8
_0-1_Layer1
  6
CONTINUOUS
 62
    3
 10
0
 20
6.7225090000000023
 11
8
 21
6.7225090000000023
  0
LINE
  8
_0-1_Layer1
  6
CONTINUOUS
 62
    3
 10
8
 20
0
 11
8
 21
8.7225090000000023
  0
TEXT
  8
_0-1_Layer1
 62
    7
 10
-1.3212755999999217
 20
8.7224999999999966
 40
6
 41
0.8582679999999999
 50
0
  1
８０
  0
ENDBLK
  0
BLOCK
  2
-011-DIM_11
 70
   64
 10
0
 20
0
 30
0
  0
CIRCLE
  8
_0-1_Layer1
  6
CONTINUOUS
 62
    3
 10
0
 20
6.7225090000000023
 40
1
  0
CIRCLE
  8
_0-1_Layer1
  6
CONTINUOUS
 62
    3
 10
1.0000000000001137
 20
6.7225090000000023
 40
1
  0
LINE
  8
_0-1_Layer1
  6
CONTINUOUS
 62
    3
 10
0
 20
6.7225090000000023
 11
1.0000000000001137
 21
6.7225090000000023
  0
TEXT
  8
_0-1_Layer1
 62
    7
 10
1.5657396000001427
 20
4.4200400000000002
 40
6
 41
0.8582679999999999
 50
0
  1
１０
  0
ENDBLK
  0
BLOCK
  2
-012-DIM_12
 70
   64
 10
0
 20
0
 30
0
  0
CIRCLE
  8
_0-1_Layer1
  6
CONTINUOUS
 62
    3
 10
0
 20
23.126112000000006
 40
1
  0
CIRCLE
  8
_0-1_Layer1
  6
CONTINUOUS
 62
    3
 10
10.000000000000114
 20
23.126112000000006
 40
1
  0
LINE
  8
_0-1_Layer1
  6
CONTINUOUS
 62
    3
 10
0
 20
23.126112000000006
 11
10.000000000000114
 21
23.126112000000006
  0
LINE
  8
_0-1_Layer1
  6
CONTINUOUS
 62
    3
 10
0
 20
0
 11
0
 21
25.126112000000006
  0
LINE
  8
_0-1_Layer1
  6
CONTINUOUS
 62
    3
 10
10.000000000000114
 20
0
 11
10.000000000000114
 21
25.126112000000006
  0
TEXT
  8
_0-1_Layer1
 62
    7
 10
-3.9260011999998596
 20
25.126093999999995
 40
6
 41
0.8582679999999999
 50
0
  1
１００
  0
ENDBLK
  0
BLOCK
  2
-013-DIM_13
 70
   64
 10
0
 20
0
 30
0
  0
CIRCLE
  8
_0-1_Layer1
  6
CONTINUOUS
 62
    3
 10
62.468087999999852
 20
0
 40
1
  0
CIRCLE
  8
_0-1_Layer1
  6
CONTINUOUS
 62
    3
 10
62.468087999999852
 20
-24.999999999999986
 40
1
  0
LINE
  8
_0-1_Layer1
  6
CONTINUOUS
 62
    3
 10
62.468087999999852
 20
0
 11
62.468087999999852
 21
-24.999999999999986
  0
LINE
  8
_0-1_Layer1
  6
CONTINUOUS
 62
    3
 10
0
 20
0
 11
64.468087999999966
 21
0
  0
LINE
  8
_0-1_Layer1
  6
CONTINUOUS
 62
    3
 10
41.250647999999842
 20
-24.999999999999986
 11
64.468087999999966
 21
-24.999999999999986
  0
TEXT
  8
_0-1_Layer1
 62
    7
 10
60.468088125828672
 20
-14.903155242920405
 40
6
 41
0.8582679999999999
 50
90.000003000000532
  1
Ｈ
  0
ENDBLK
  0
BLOCK
  2
-014-DIM_14
 70
   64
 10
0
 20
0
 30
0
  0
CIRCLE
  8
_0-1_Layer1
  6
CONTINUOUS
 62
    3
 10
21.217440000000011
 20
0
 40
1
  0
CIRCLE
  8
_0-1_Layer1
  6
CONTINUOUS
 62
    3
 10
21.217440000000011
 20
-3
 40
1
  0
LINE
  8
_0-1_Layer1
  6
CONTINUOUS
 62
    3
 10
21.217440000000011
 20
0
 11
21.217440000000011
 21
-3
  0
LINE
  8
_0-1_Layer1
  6
CONTINUOUS
 62
    3
 10
1.7000000000001592
 20
-3
 11
23.217440000000124
 21
-3
  0
TEXT
  8
_0-1_Layer1
 62
    7
 10
23.543972000000053
 20
-13.809516400000007
 40
6
 41
0.7767319999999999
 50
90
  1
３０
  0
ENDBLK
  0
BLOCK
  2
-015-DIM_15
 70
   64
 10
0
 20
0
 30
0
  0
CIRCLE
  8
_0-1_Layer1
  6
CONTINUOUS
 62
    3
 10
0
 20
17.33104400000002
 40
1
  0
CIRCLE
  8
_0-1_Layer1
  6
CONTINUOUS
 62
    3
 10
-200
 20
17.33104400000002
 40
1
  0
LINE
  8
_0-1_Layer1
  6
CONTINUOUS
 62
    3
 10
0
 20
17.33104400000002
 11
-200
 21
17.33104400000002
  0
LINE
  8
_0-1_Layer1
  6
CONTINUOUS
 62
    3
 10
0
 20
0
 11
0
 21
19.33104400000002
  0
LINE
  8
_0-1_Layer1
  6
CONTINUOUS
 62
    3
 10
-200
 20
2.0316960000000108
 11
-200
 21
19.33104400000002
  0
TEXT
  8
_0-1_Layer1
 62
    7
 10
-115.10550380000001
 20
19.331038000000035
 40
6
 41
0.8582679999999999
 50
0
  1
Ｃ　有効長
  0
ENDBLK
  0
BLOCK
  2
-016-DIM_16
 70
   64
 10
0
 20
0
 30
0
  0
CIRCLE
  8
_0-1_Layer1
  6
CONTINUOUS
 62
    3
 10
-19.517440999999998
 20
0
 40
1
  0
CIRCLE
  8
_0-1_Layer1
  6
CONTINUOUS
 62
    3
 10
-19.517440999999998
 20
-90
 40
1
  0
LINE
  8
_0-1_Layer1
  6
CONTINUOUS
 62
    3
 10
-19.517440999999998
 20
0
 11
-19.517440999999998
 21
-90
  0
LINE
  8
_0-1_Layer1
  6
CONTINUOUS
 62
    3
 10
0
 20
0
 11
-21.517440999999998
 21
0
  0
LINE
  8
_0-1_Layer1
  6
CONTINUOUS
 62
    3
 10
0
 20
-90
 11
-21.517440999999998
 21
-90
  0
TEXT
  8
_0-1_Layer1
 62
    7
 10
-21.517439894505344
 20
-66.113390799999991
 40
6
 41
0.8582679999999999
 50
90.000003000000007
  1
Ａ　ドーム寸法
  0
ENDBLK
  0
BLOCK
  2
-017-DIM_17
 70
   64
 10
0
 20
0
 30
0
  0
CIRCLE
  8
_0-1_Layer1
  6
CONTINUOUS
 62
    3
 10
-11.279965999999995
 20
5
 40
1
  0
CIRCLE
  8
_0-1_Layer1
  6
CONTINUOUS
 62
    3
 10
-11.279965999999995
 20
0
 40
1
  0
LINE
  8
_0-1_Layer1
  6
CONTINUOUS
 62
    3
 10
-11.279965999999995
 20
5
 11
-11.279965999999995
 21
0
  0
LINE
  8
_0-1_Layer1
  6
CONTINUOUS
 62
    3
 10
0
 20
0
 11
-11.279965999999995
 21
0
  0
TEXT
  8
_0-1_Layer1
 62
    7
 10
-13.979672999999998
 20
0.2242036000000098
 40
6
 41
0.8582679999999999
 50
90
  1
Ｄ
  0
ENDBLK
  0
BLOCK
  2
-018-DIM_18
 70
   64
 10
0
 20
0
 30
0
  0
CIRCLE
  8
_0-1_Layer1
  6
CONTINUOUS
 62
    3
 10
5
 20
0
 40
1
  0
CIRCLE
  8
_0-1_Layer1
  6
CONTINUOUS
 62
    3
 10
0
 20
0
 40
1
  0
LINE
  8
_0-1_Layer1
  6
CONTINUOUS
 62
    3
 10
5
 20
0
 11
0
 21
0
  0
TEXT
  8
_0-1_Layer1
 62
    7
 10
-0.647035399999936
 20
2.6240930000000162
 40
6
 41
0.8582679999999999
 50
0
  1
Ｄ
  0
ENDBLK
  0
BLOCK
  2
-019-DIM_19
 70
   64
 10
0
 20
0
 30
0
  0
CIRCLE
  8
_0-1_Layer1
  6
CONTINUOUS
 62
    3
 10
0
 20
17.33104400000002
 40
1
  0
CIRCLE
  8
_0-1_Layer1
  6
CONTINUOUS
 62
    3
 10
-101.99999999999994
 20
17.33104400000002
 40
1
  0
LINE
  8
_0-1_Layer1
  6
CONTINUOUS
 62
    3
 10
0
 20
17.33104400000002
 11
-101.99999999999994
 21
17.33104400000002
  0
LINE
  8
_0-1_Layer1
  6
CONTINUOUS
 62
    3
 10
0
 20
0
 11
0
 21
19.33104400000002
  0
LINE
  8
_0-1_Layer1
  6
CONTINUOUS
 62
    3
 10
-101.99999999999994
 20
2.0316960000000108
 11
-101.99999999999994
 21
19.33104400000002
  0
TEXT
  8
_0-1_Layer1
 62
    7
 10
-66.105510799999934
 20
19.331038000000035
 40
6
 41
0.8582679999999999
 50
0
  1
Ｅ　有効長
  0
ENDBLK
  0
BLOCK
  2
-020-DIM_20
 70
   64
 10
0
 20
0
 30
0
  0
CIRCLE
  8
_0-1_Layer1
  6
CONTINUOUS
 62
    3
 10
0
 20
45.286087999999978
 40
1
  0
CIRCLE
  8
_0-1_Layer1
  6
CONTINUOUS
 62
    3
 10
90
 20
45.286087999999978
 40
1
  0
LINE
  8
_0-1_Layer1
  6
CONTINUOUS
 62
    3
 10
0
 20
45.286087999999978
 11
90
 21
45.286087999999978
  0
LINE
  8
_0-1_Layer1
  6
CONTINUOUS
 62
    3
 10
0
 20
0
 11
0
 21
47.286087999999893
  0
LINE
  8
_0-1_Layer1
  6
CONTINUOUS
 62
    3
 10
90
 20
-1.2145110000000159
 11
90
 21
47.286087999999893
  0
TEXT
  8
_0-1_Layer1
 62
    7
 10
23.886607199999986
 20
46.286087999999893
 40
6
 41
0.8582679999999999
 50
0
  1
Ａ　ドーム寸法
  0
ENDBLK
  0
BLOCK
  2
-021-DIM_21
 70
   64
 10
0
 20
0
 30
0
  0
CIRCLE
  8
_0-1_Layer1
  6
CONTINUOUS
 62
    3
 10
0
 20
34.305810000000008
 40
1
  0
CIRCLE
  8
_0-1_Layer1
  6
CONTINUOUS
 62
    3
 10
5
 20
34.305810000000008
 40
1
  0
LINE
  8
_0-1_Layer1
  6
CONTINUOUS
 62
    3
 10
0
 20
34.305810000000008
 11
5
 21
34.305810000000008
  0
LINE
  8
_0-1_Layer1
  6
CONTINUOUS
 62
    3
 10
0
 20
0
 11
0
 21
36.305810000000008
  0
LINE
  8
_0-1_Layer1
  6
CONTINUOUS
 62
    3
 10
5
 20
35.860118
 11
5
 21
32.305810000000008
  0
TEXT
  8
_0-1_Layer1
 62
    7
 10
-3.2765764000000104
 20
37.211157000000014
 40
6
 41
0.8582679999999999
 50
0
  1
Ｄ
  0
ENDBLK
  0
BLOCK
  2
-022-DIM_22
 70
   64
 10
0
 20
0
 30
0
  0
CIRCLE
  8
_0-1_Layer1
  6
CONTINUOUS
 62
    3
 10
0
 20
34.305810000000008
 40
1
  0
CIRCLE
  8
_0-1_Layer1
  6
CONTINUOUS
 62
    3
 10
-5
 20
34.305810000000008
 40
1
  0
LINE
  8
_0-1_Layer1
  6
CONTINUOUS
 62
    3
 10
0
 20
34.305810000000008
 11
-5
 21
34.305810000000008
  0
LINE
  8
_0-1_Layer1
  6
CONTINUOUS
 62
    3
 10
0
 20
0
 11
0
 21
36.305810000000008
  0
LINE
  8
_0-1_Layer1
  6
CONTINUOUS
 62
    3
 10
-5
 20
35.860118
 11
-5
 21
32.305810000000008
  0
TEXT
  8
_0-1_Layer1
 62
    7
 10
0.2691206000000079
 20
37.115643000000006
 40
6
 41
0.8582679999999999
 50
0
  1
Ｄ
  0
ENDBLK
  0
BLOCK
  2
-023-DIM_23
 70
   64
 10
0
 20
0
 30
0
  0
CIRCLE
  8
_0-1_Layer1
  6
CONTINUOUS
 62
    3
 10
0
 20
-48.757481999999996
 40
0.6
  0
CIRCLE
  8
_0-1_Layer1
  6
CONTINUOUS
 62
    3
 10
90
 20
-48.757481999999996
 40
0.6
  0
LINE
  8
_0-1_Layer1
  6
CONTINUOUS
 62
    3
 10
0
 20
-48.757481999999996
 11
90
 21
-48.757481999999996
  0
LINE
  8
_0-1_Layer1
  6
CONTINUOUS
 62
    3
 10
0
 20
0
 11
0
 21
-50.757482000000003
  0
LINE
  8
_0-1_Layer1
  6
CONTINUOUS
 62
    3
 10
90
 20
-24.036441000000011
 11
90
 21
-50.757482000000003
  0
TEXT
  8
_0-1_Layer1
 62
    7
 10
20.453535200000005
 20
-47.757481999999996
 40
6
 41
0.8582679999999999
 50
0
  1
Ｊ　フレーム内径
  0
ENDBLK
  0
BLOCK
  2
-024-DIM_24
 70
   64
 10
0
 20
0
 30
0
  0
CIRCLE
  8
_0-1_Layer1
  6
CONTINUOUS
 62
    3
 10
0
 20
-77.077338999999995
 40
0.6
  0
CIRCLE
  8
_0-1_Layer1
  6
CONTINUOUS
 62
    3
 10
110
 20
-77.077338999999995
 40
0.6
  0
LINE
  8
_0-1_Layer1
  6
CONTINUOUS
 62
    3
 10
0
 20
-77.077338999999995
 11
110
 21
-77.077338999999995
  0
LINE
  8
_0-1_Layer1
  6
CONTINUOUS
 62
    3
 10
0
 20
0
 11
0
 21
-79.077338999999995
  0
LINE
  8
_0-1_Layer1
  6
CONTINUOUS
 62
    3
 10
110
 20
-2.6020800000000008
 11
110
 21
-79.077338999999995
  0
TEXT
  8
_0-1_Layer1
 62
    7
 10
30.968495999999988
 20
-76.077338999999995
 40
6
 41
0.8582679999999999
 50
0
  1
Ｗ　フレーム寸法
  0
ENDBLK
  0
BLOCK
  2
-025-DIM_25
 70
   64
 10
0
 20
0
 30
0
  0
CIRCLE
  8
_0-1_Layer1
  6
CONTINUOUS
 62
    3
 10
0
 20
42.667941000000013
 40
1
  0
CIRCLE
  8
_0-1_Layer1
  6
CONTINUOUS
 62
    3
 10
5
 20
42.667941000000013
 40
1
  0
LINE
  8
_0-1_Layer1
  6
CONTINUOUS
 62
    3
 10
0
 20
42.667941000000013
 11
5
 21
42.667941000000013
  0
LINE
  8
_0-1_Layer1
  6
CONTINUOUS
 62
    3
 10
0
 20
0
 11
0
 21
44.6679409999999
  0
LINE
  8
_0-1_Layer1
  6
CONTINUOUS
 62
    3
 10
5
 20
0.2842130000000082
 11
5
 21
44.6679409999999
  0
TEXT
  8
_0-1_Layer1
 62
    7
 10
-2.3900054000000068
 20
45.628498000000008
 40
6
 41
0.8582679999999999
 50
0
  1
Ｄ
  0
ENDBLK
  0
BLOCK
  2
-026-DIM_26
 70
   64
 10
0
 20
0
 30
0
  0
CIRCLE
  8
_0-1_Layer1
  6
CONTINUOUS
 62
    3
 10
0
 20
12.434278999999975
 40
1
  0
CIRCLE
  8
_0-1_Layer1
  6
CONTINUOUS
 62
    3
 10
2
 20
12.434278999999975
 40
1
  0
LINE
  8
_0-1_Layer1
  6
CONTINUOUS
 62
    3
 10
0
 20
12.434278999999975
 11
2
 21
12.434278999999975
  0
LINE
  8
_0-1_Layer1
  6
CONTINUOUS
 62
    3
 10
0
 20
0
 11
0
 21
14.434278999999975
  0
TEXT
  8
_0-1_Layer1
 62
    7
 10
2.4429824000000053
 20
13.036382999999972
 40
6
 41
0.8582679999999999
 50
0
  1
２０
  0
ENDBLK
  0
BLOCK
  2
-027-DIM_27
 70
   64
 10
0
 20
0
 30
0
  0
CIRCLE
  8
_0-1_Layer1
  6
CONTINUOUS
 62
    3
 10
0
 20
42.667941000000013
 40
1
  0
CIRCLE
  8
_0-1_Layer1
  6
CONTINUOUS
 62
    3
 10
-5.0000000000001137
 20
42.667941000000013
 40
1
  0
LINE
  8
_0-1_Layer1
  6
CONTINUOUS
 62
    3
 10
0
 20
42.667941000000013
 11
-5.0000000000001137
 21
42.667941000000013
  0
LINE
  8
_0-1_Layer1
  6
CONTINUOUS
 62
    3
 10
0
 20
0
 11
0
 21
44.6679409999999
  0
LINE
  8
_0-1_Layer1
  6
CONTINUOUS
 62
    3
 10
-5.0000000000001137
 20
0.2842130000000082
 11
-5.0000000000001137
 21
44.6679409999999
  0
TEXT
  8
_0-1_Layer1
 62
    7
 10
-1.8193343999998888
 20
45.735951
 40
6
 41
0.8582679999999999
 50
0
  1
Ｄ
  0
ENDBLK
  0
BLOCK
  2
-028-DIM_28
 70
   64
 10
0
 20
0
 30
0
  0
CIRCLE
  8
_0-1_Layer1
  6
CONTINUOUS
 62
    3
 10
0
 20
27.598804999999999
 40
1
  0
CIRCLE
  8
_0-1_Layer1
  6
CONTINUOUS
 62
    3
 10
101.99999999999994
 20
27.598804999999999
 40
1
  0
LINE
  8
_0-1_Layer1
  6
CONTINUOUS
 62
    3
 10
0
 20
27.598804999999999
 11
101.99999999999994
 21
27.598804999999999
  0
LINE
  8
_0-1_Layer1
  6
CONTINUOUS
 62
    3
 10
0
 20
0
 11
0
 21
29.598804999999999
  0
LINE
  8
_0-1_Layer1
  6
CONTINUOUS
 62
    3
 10
101.99999999999994
 20
-8.6871490000000051
 11
101.99999999999994
 21
29.598804999999999
  0
TEXT
  8
_0-1_Layer1
 62
    7
 10
333.89448319999997
 20
28.598804999999999
 40
6
 41
0.8582679999999999
 50
0
  1
Ｅ　有効長
  0
ENDBLK
  0
BLOCK
  2
-029-DIM_29
 70
   64
 10
0
 20
0
 30
0
  0
CIRCLE
  8
_0-1_Layer1
  6
CONTINUOUS
 62
    3
 10
0
 20
36.285954000000004
 40
1
  0
CIRCLE
  8
_0-1_Layer1
  6
CONTINUOUS
 62
    3
 10
198.00000000000006
 20
36.285954000000004
 40
1
  0
LINE
  8
_0-1_Layer1
  6
CONTINUOUS
 62
    3
 10
0
 20
36.285954000000004
 11
198.00000000000006
 21
36.285954000000004
  0
LINE
  8
_0-1_Layer1
  6
CONTINUOUS
 62
    3
 10
198.00000000000006
 20
3.99290400000001
 11
198.00000000000006
 21
38.285954000000004
  0
TEXT
  8
_0-1_Layer1
 62
    7
 10
83.894483200000025
 20
37.285954000000004
 40
6
 41
0.8582679999999999
 50
0
  1
Ｃ　中間部
  0
ENDBLK
  0
BLOCK
  2
-030-DIM_30
 70
   64
 10
0
 20
0
 30
0
  0
CIRCLE
  8
_0-1_Layer1
  6
CONTINUOUS
 62
    3
 10
0
 20
32.293049999999994
 40
1
  0
CIRCLE
  8
_0-1_Layer1
  6
CONTINUOUS
 62
    3
 10
97.999999999999886
 20
32.293049999999994
 40
1
  0
LINE
  8
_0-1_Layer1
  6
CONTINUOUS
 62
    3
 10
0
 20
32.293049999999994
 11
97.999999999999886
 21
32.293049999999994
  0
LINE
  8
_0-1_Layer1
  6
CONTINUOUS
 62
    3
 10
97.999999999999886
 20
2.6469710000000077
 11
97.999999999999886
 21
34.293049999999994
  0
TEXT
  8
_0-1_Layer1
 62
    7
 10
-264.10551679999998
 20
33.293049999999994
 40
6
 41
0.8582679999999999
 50
0
  1
Ｆ　有効長
  0
ENDBLK
  0
BLOCK
  2
-031-DIM_31
 70
   64
 10
0
 20
0
 30
0
  0
CIRCLE
  8
_0-1_Layer1
  6
CONTINUOUS
 62
    3
 10
0
 20
19.062459999999987
 40
1
  0
CIRCLE
  8
_0-1_Layer1
  6
CONTINUOUS
 62
    3
 10
397.99999999999989
 20
19.062459999999987
 40
1
  0
LINE
  8
_0-1_Layer1
  6
CONTINUOUS
 62
    3
 10
0
 20
19.062459999999987
 11
397.99999999999989
 21
19.062459999999987
  0
LINE
  8
_0-1_Layer1
  6
CONTINUOUS
 62
    3
 10
0
 20
0
 11
0
 21
21.062459999999987
  0
LINE
  8
_0-1_Layer1
  6
CONTINUOUS
 62
    3
 10
397.99999999999989
 20
-0.8470310000000154
 11
397.99999999999989
 21
21.062459999999987
  0
TEXT
  8
_0-1_Layer1
 62
    7
 10
193.50708480000003
 20
20.062459999999987
 40
6
 41
0.8582679999999999
 50
0
  1
全長
  0
ENDBLK
  0
BLOCK
  2
-032-DIM_32
 70
   64
 10
0
 20
0
 30
0
  0
CIRCLE
  8
_0-1_Layer1
  6
CONTINUOUS
 62
    3
 10
0
 20
-49.968719000000007
 40
1
  0
CIRCLE
  8
_0-1_Layer1
  6
CONTINUOUS
 62
    3
 10
397.99999999999989
 20
-49.968719000000007
 40
1
  0
LINE
  8
_0-1_Layer1
  6
CONTINUOUS
 62
    3
 10
0
 20
-49.968719000000007
 11
397.99999999999989
 21
-49.968719000000007
  0
LINE
  8
_0-1_Layer1
  6
CONTINUOUS
 62
    3
 10
0
 20
0
 11
0
 21
-51.968719000000007
  0
LINE
  8
_0-1_Layer1
  6
CONTINUOUS
 62
    3
 10
397.99999999999989
 20
-26.690527000000031
 11
397.99999999999989
 21
-51.968719000000007
  0
TEXT
  8
_0-1_Layer1
 62
    7
 10
180.97637199999997
 20
-48.968719000000021
 40
6
 41
0.8582679999999999
 50
0
  1
フレーム内径
  0
ENDBLK
  0
BLOCK
  2
-033-DIM_33
 70
   64
 10
0
 20
0
 30
0
  0
CIRCLE
  8
_0-1_Layer1
  6
CONTINUOUS
 62
    3
 10
-36.18090299999983
 20
0
 40
0.6
  0
CIRCLE
  8
_0-1_Layer1
  6
CONTINUOUS
 62
    3
 10
-36.18090299999983
 20
-29.999999999999943
 40
0.6
  0
LINE
  8
_0-1_Layer1
  6
CONTINUOUS
 62
    3
 10
-36.18090299999983
 20
0
 11
-36.18090299999983
 21
-29.999999999999943
  0
LINE
  8
_0-1_Layer1
  6
CONTINUOUS
 62
    3
 10
0
 20
0
 11
-38.18090299999983
 21
0
  0
LINE
  8
_0-1_Layer1
  6
CONTINUOUS
 62
    3
 10
-17.320508000000018
 20
-29.999999999999943
 11
-38.18090299999983
 21
-29.999999999999943
  0
TEXT
  8
_0-1_Layer1
 62
    7
 10
-37.18090299999983
 20
-23.236113599999896
 40
6
 41
0.8582679999999999
 50
90
  1
３０
  0
ENDBLK
  0
BLOCK
  2
-034-DIM_34
 70
   64
 10
0
 20
0
 30
0
  0
CIRCLE
  8
_0-1_Layer1
  6
CONTINUOUS
 62
    3
 10
0
 20
62.732581999999923
 40
0.6
  0
CIRCLE
  8
_0-1_Layer1
  6
CONTINUOUS
 62
    3
 10
50
 20
62.732581999999923
 40
0.6
  0
LINE
  8
_0-1_Layer1
  6
CONTINUOUS
 62
    3
 10
0
 20
62.732581999999923
 11
50
 21
62.732581999999923
  0
LINE
  8
_0-1_Layer1
  6
CONTINUOUS
 62
    3
 10
0
 20
0
 11
0
 21
64.732581999999923
  0
LINE
  8
_0-1_Layer1
  6
CONTINUOUS
 62
    3
 10
50
 20
0
 11
50
 21
64.732581999999923
  0
TEXT
  8
_0-1_Layer1
 62
    7
 10
22.596849600000041
 20
63.732581999999923
 40
6
 41
0.8582679999999999
 50
0
  1
Ｄ
  0
ENDBLK
  0
BLOCK
  2
-035-DIM_35
 70
   64
 10
0
 20
0
 30
0
  0
CIRCLE
  8
_0-1_Layer1
  6
CONTINUOUS
 62
    3
 10
0
 20
-51.370406000000003
 40
0.6
  0
CIRCLE
  8
_0-1_Layer1
  6
CONTINUOUS
 62
    3
 10
15
 20
-51.370406000000003
 40
0.6
  0
LINE
  8
_0-1_Layer1
  6
CONTINUOUS
 62
    3
 10
0
 20
-51.370406000000003
 11
15
 21
-51.370406000000003
  0
LINE
  8
_0-1_Layer1
  6
CONTINUOUS
 62
    3
 10
0
 20
0
 11
0
 21
-53.370406000000003
  0
LINE
  8
_0-1_Layer1
  6
CONTINUOUS
 62
    3
 10
15
 20
-9.9792910000000461
 11
15
 21
-53.370406000000003
  0
TEXT
  8
_0-1_Layer1
 62
    7
 10
1.4921239999999898
 20
-50.370406000000003
 40
6
 41
0.8582679999999999
 50
0
  1
１５
  0
ENDBLK
  0
BLOCK
  2
-036-DIM_36
 70
   64
 10
0
 20
0
 30
0
  0
CIRCLE
  8
_0-1_Layer1
  6
CONTINUOUS
 62
    3
 10
0
 20
110.22997500000002
 40
0.6
  0
CIRCLE
  8
_0-1_Layer1
  6
CONTINUOUS
 62
    3
 10
115
 20
110.22997500000002
 40
0.6
  0
LINE
  8
_0-1_Layer1
  6
CONTINUOUS
 62
    3
 10
0
 20
110.22997500000002
 11
115
 21
110.22997500000002
  0
LINE
  8
_0-1_Layer1
  6
CONTINUOUS
 62
    3
 10
0
 20
0
 11
0
 21
112.22997500000002
  0
LINE
  8
_0-1_Layer1
  6
CONTINUOUS
 62
    3
 10
115
 20
66.395280999999898
 11
115
 21
112.22997500000002
  0
TEXT
  8
_0-1_Layer1
 62
    7
 10
29.045804200000021
 20
111.22997500000002
 40
6
 41
0.8582679999999999
 50
0
  1
１１５
  0
ENDBLK
  0
BLOCK
  2
-037-DIM_37
 70
   64
 10
0
 20
0
 30
0
  0
CIRCLE
  8
_0-1_Layer1
  6
CONTINUOUS
 62
    3
 10
0
 20
5.0442620000000034
 40
0.6
  0
CIRCLE
  8
_0-1_Layer1
  6
CONTINUOUS
 62
    3
 10
20.008999999999901
 20
5.0442620000000034
 40
0.6
  0
LINE
  8
_0-1_Layer1
  6
CONTINUOUS
 62
    3
 10
0
 20
5.0442620000000034
 11
20.008999999999901
 21
5.0442620000000034
  0
LINE
  8
_0-1_Layer1
  6
CONTINUOUS
 62
    3
 10
0
 20
0
 11
0
 21
7.0442620000000034
  0
LINE
  8
_0-1_Layer1
  6
CONTINUOUS
 62
    3
 10
20.008999999999901
 20
0
 11
20.008999999999901
 21
7.0442620000000034
  0
TEXT
  8
_0-1_Layer1
 62
    7
 10
4.6832383999999365
 20
6.0442619999998897
 40
6
 41
0.8582679999999999
 50
0
  1
２０
  0
ENDBLK
  0
BLOCK
  2
-038-DIM_38
 70
   64
 10
0
 20
0
 30
0
  0
CIRCLE
  8
_0-1_Layer1
  6
CONTINUOUS
 62
    3
 10
0
 20
4.0419309999999768
 40
0.6
  0
CIRCLE
  8
_0-1_Layer1
  6
CONTINUOUS
 62
    3
 10
12
 20
4.0419309999999768
 40
0.6
  0
LINE
  8
_0-1_Layer1
  6
CONTINUOUS
 62
    3
 10
0
 20
4.0419309999999768
 11
12
 21
4.0419309999999768
  0
LINE
  8
_0-1_Layer1
  6
CONTINUOUS
 62
    3
 10
0
 20
0
 11
0
 21
6.0419309999998632
  0
LINE
  8
_0-1_Layer1
  6
CONTINUOUS
 62
    3
 10
12
 20
0.2487349999998969
 11
12
 21
6.0419309999998632
  0
TEXT
  8
_0-1_Layer1
 62
    7
 10
-0.0078760000000102
 20
5.0419309999999768
 40
6
 41
0.8582679999999999
 50
0
  1
１２
  0
ENDBLK
  0
BLOCK
  2
-039-DIM_39
 70
   64
 10
0
 20
0
 30
0
  0
CIRCLE
  8
_0-1_Layer1
  6
CONTINUOUS
 62
    3
 10
-88.178690000000074
 20
0
 40
0.6
  0
CIRCLE
  8
_0-1_Layer1
  6
CONTINUOUS
 62
    3
 10
-88.178690000000074
 20
-49.999999999999886
 40
0.6
  0
LINE
  8
_0-1_Layer1
  6
CONTINUOUS
 62
    3
 10
-88.178690000000074
 20
0
 11
-88.178690000000074
 21
-49.999999999999886
  0
LINE
  8
_0-1_Layer1
  6
CONTINUOUS
 62
    3
 10
0
 20
0
 11
-90.178690000000074
 21
0
  0
LINE
  8
_0-1_Layer1
  6
CONTINUOUS
 62
    3
 10
30.059564000000023
 20
-49.999999999999886
 11
-90.178690000000074
 21
-49.999999999999886
  0
TEXT
  8
_0-1_Layer1
 62
    7
 10
-89.178690000000074
 20
-30.492915200000084
 40
6
 41
0.8582679999999999
 50
90
  1
５０
  0
ENDBLK
  0
BLOCK
  2
-040-DIM_40
 70
   64
 10
0
 20
0
 30
0
  0
CIRCLE
  8
_0-1_Layer1
  6
CONTINUOUS
 62
    3
 10
-118.2382540000001
 20
0
 40
0.6
  0
CIRCLE
  8
_0-1_Layer1
  6
CONTINUOUS
 62
    3
 10
-118.2382540000001
 20
-20
 40
0.6
  0
LINE
  8
_0-1_Layer1
  6
CONTINUOUS
 62
    3
 10
-118.2382540000001
 20
0
 11
-118.2382540000001
 21
-20
  0
LINE
  8
_0-1_Layer1
  6
CONTINUOUS
 62
    3
 10
-105.66392000000019
 20
-20
 11
-120.2382540000001
 21
-20
  0
TEXT
  8
_0-1_Layer1
 62
    7
 10
-119.2382540000001
 20
-15.321261600000014
 40
6
 41
0.8582679999999999
 50
90
  1
２０
  0
ENDBLK
  0
BLOCK
  2
-041-DIM_41
 70
   64
 10
0
 20
0
 30
0
  0
CIRCLE
  8
_0-1_Layer1
  6
CONTINUOUS
 62
    3
 10
-12.574333999999908
 20
0
 40
0.6
  0
CIRCLE
  8
_0-1_Layer1
  6
CONTINUOUS
 62
    3
 10
-12.574333999999908
 20
-15
 40
0.6
  0
LINE
  8
_0-1_Layer1
  6
CONTINUOUS
 62
    3
 10
-12.574333999999908
 20
0
 11
-12.574333999999908
 21
-15
  0
LINE
  8
_0-1_Layer1
  6
CONTINUOUS
 62
    3
 10
-0.3036319999999932
 20
-15
 11
-14.574333999999908
 21
-15
  0
TEXT
  8
_0-1_Layer1
 62
    7
 10
-13.574333999999908
 20
-13.50787600000001
 40
6
 41
0.8582679999999999
 50
90
  1
１５
  0
ENDBLK
  0
BLOCK
  2
-042-DIM_42
 70
   64
 10
0
 20
0
 30
0
  0
CIRCLE
  8
_0-1_Layer1
  6
CONTINUOUS
 62
    3
 10
-12.270701999999915
 20
0
 40
0.6
  0
CIRCLE
  8
_0-1_Layer1
  6
CONTINUOUS
 62
    3
 10
-12.270701999999915
 20
-15
 40
0.6
  0
LINE
  8
_0-1_Layer1
  6
CONTINUOUS
 62
    3
 10
-12.270701999999915
 20
0
 11
-12.270701999999915
 21
-15
  0
LINE
  8
_0-1_Layer1
  6
CONTINUOUS
 62
    3
 10
10.808466000000067
 20
-15
 11
-14.270701999999915
 21
-15
  0
TEXT
  8
_0-1_Layer1
 62
    7
 10
-13.270701999999915
 20
-13.50787600000001
 40
6
 41
0.8582679999999999
 50
90
  1
１５
  0
ENDBLK
  0
BLOCK
  2
-043-DIM_43
 70
   64
 10
0
 20
0
 30
0
  0
CIRCLE
  8
_0-1_Layer1
  6
CONTINUOUS
 62
    3
 10
0
 20
-23.806286999999998
 40
0.6
  0
CIRCLE
  8
_0-1_Layer1
  6
CONTINUOUS
 62
    3
 10
40
 20
-23.806286999999998
 40
0.6
  0
LINE
  8
_0-1_Layer1
  6
CONTINUOUS
 62
    3
 10
0
 20
-23.806286999999998
 11
40
 21
-23.806286999999998
  0
LINE
  8
_0-1_Layer1
  6
CONTINUOUS
 62
    3
 10
0
 20
0
 11
0
 21
-25.806286999999998
  0
LINE
  8
_0-1_Layer1
  6
CONTINUOUS
 62
    3
 10
40
 20
-23.094011000000023
 11
40
 21
-25.806286999999998
  0
TEXT
  8
_0-1_Layer1
 62
    7
 10
14.678738400000043
 20
-22.806287000000111
 40
6
 41
0.8582679999999999
 50
0
  1
４０
  0
ENDBLK
  0
BLOCK
  2
-044-DIM_44
 70
   64
 10
0
 20
0
 30
0
  0
CIRCLE
  8
_0-1_Layer1
  6
CONTINUOUS
 62
    3
 10
-28.607848000000004
 20
0
 40
0.8
  0
CIRCLE
  8
_0-1_Layer1
  6
CONTINUOUS
 62
    3
 10
-28.607848000000004
 20
-15
 40
0.8
  0
LINE
  8
_0-1_Layer1
  6
CONTINUOUS
 62
    3
 10
-28.607848000000004
 20
0
 11
-28.607848000000004
 21
-15
  0
LINE
  8
_0-1_Layer1
  6
CONTINUOUS
 62
    3
 10
0
 20
0
 11
-29.607848000000004
 21
0
  0
LINE
  8
_0-1_Layer1
  6
CONTINUOUS
 62
    3
 10
-22.185844000000003
 20
-15
 11
-29.607848000000004
 21
-15
  0
TEXT
  8
_0-1_Layer1
 62
    7
 10
-29.907195999999985
 20
-14.833857600000002
 40
6
 41
0.7495540000000001
 50
90
  1
１５０
  0
ENDBLK
  0
BLOCK
  2
-045-DIM_45
 70
   64
 10
0
 20
0
 30
0
  0
CIRCLE
  8
_0-1_Layer1
  6
CONTINUOUS
 62
    3
 10
0
 20
-7.1087379999999882
 40
1
  0
CIRCLE
  8
_0-1_Layer1
  6
CONTINUOUS
 62
    3
 10
107
 20
-7.1087379999999882
 40
1
  0
LINE
  8
_0-1_Layer1
  6
CONTINUOUS
 62
    3
 10
0
 20
-7.1087379999999882
 11
107
 21
-7.1087379999999882
  0
LINE
  8
_0-1_Layer1
  6
CONTINUOUS
 62
    3
 10
0
 20
0
 11
0
 21
-9.1087379999999882
  0
LINE
  8
_0-1_Layer1
  6
CONTINUOUS
 62
    3
 10
107
 20
-1.6857009999999946
 11
107
 21
-9.1087379999999882
  0
TEXT
  8
_0-1_Layer1
 62
    7
 10
35.304718399999985
 20
-6.1087379999999882
 40
6
 41
0.8582679999999999
 50
0
  1
Ｂ　架台外径
  0
ENDBLK
  0
BLOCK
  2
-046-DIM_46
 70
   64
 10
0
 20
0
 30
0
  0
CIRCLE
  8
_0-1_Layer1
  6
CONTINUOUS
 62
    3
 10
0
 20
-3.4978090000000179
 40
1
  0
CIRCLE
  8
_0-1_Layer1
  6
CONTINUOUS
 62
    3
 10
15
 20
-3.4978090000000179
 40
1
  0
LINE
  8
_0-1_Layer1
  6
CONTINUOUS
 62
    3
 10
0
 20
-3.4978090000000179
 11
15
 21
-3.4978090000000179
  0
LINE
  8
_0-1_Layer1
  6
CONTINUOUS
 62
    3
 10
0
 20
0
 11
0
 21
-5.4978090000000179
  0
LINE
  8
_0-1_Layer1
  6
CONTINUOUS
 62
    3
 10
15
 20
1.3602599999999825
 11
15
 21
-5.4978090000000179
  0
TEXT
  8
_0-1_Layer1
 62
    7
 10
1.4921239999999898
 20
-2.4978090000000179
 40
6
 41
0.8582679999999999
 50
0
  1
１５
  0
ENDBLK
  0
BLOCK
  2
-047-DIM_47
 70
   64
 10
0
 20
0
 30
0
  0
CIRCLE
  8
_0-1_Layer1
  6
CONTINUOUS
 62
    3
 10
28.619467000000043
 20
0
 40
1
  0
CIRCLE
  8
_0-1_Layer1
  6
CONTINUOUS
 62
    3
 10
28.619467000000043
 20
-11.999999999999886
 40
1
  0
LINE
  8
_0-1_Layer1
  6
CONTINUOUS
 62
    3
 10
28.619467000000043
 20
0
 11
28.619467000000043
 21
-11.999999999999886
  0
LINE
  8
_0-1_Layer1
  6
CONTINUOUS
 62
    3
 10
0
 20
0
 11
30.619467000000043
 21
0
  0
LINE
  8
_0-1_Layer1
  6
CONTINUOUS
 62
    3
 10
21.546807000000001
 20
-11.999999999999886
 11
30.619467000000043
 21
-11.999999999999886
  0
TEXT
  8
_0-1_Layer1
 62
    7
 10
36.137782000000129
 20
-11.321261599999957
 40
6
 41
0.8582679999999999
 50
90
  1
３０
  0
ENDBLK
  0
BLOCK
  2
-048-DIM_48
 70
   64
 10
0
 20
0
 30
0
  0
CIRCLE
  8
_0-1_Layer1
  6
CONTINUOUS
 62
    3
 10
0
 20
26.319912000000159
 40
1
  0
CIRCLE
  8
_0-1_Layer1
  6
CONTINUOUS
 62
    3
 10
-4.0000000000000568
 20
26.319912000000159
 40
1
  0
LINE
  8
_0-1_Layer1
  6
CONTINUOUS
 62
    3
 10
0
 20
26.319912000000159
 11
-4.0000000000000568
 21
26.319912000000159
  0
LINE
  8
_0-1_Layer1
  6
CONTINUOUS
 62
    3
 10
0
 20
0
 11
0
 21
27.119911999999999
  0
LINE
  8
_0-1_Layer1
  6
CONTINUOUS
 62
    3
 10
-4.0000000000000568
 20
11.754548
 11
-4.0000000000000568
 21
27.119911999999999
  0
TEXT
  8
_0-1_Layer1
 62
    7
 10
-0.0300293999999894
 20
27.119899000000146
 40
6
 41
0.8582679999999999
 50
0
  1
１０
  0
ENDBLK
  0
BLOCK
  2
-049-DIM_49
 70
   64
 10
0
 20
0
 30
0
  0
CIRCLE
  8
_0-1_Layer1
  6
CONTINUOUS
 62
    3
 10
0
 20
14.565364000000159
 40
1
  0
CIRCLE
  8
_0-1_Layer1
  6
CONTINUOUS
 62
    3
 10
-32
 20
14.565364000000159
 40
1
  0
LINE
  8
_0-1_Layer1
  6
CONTINUOUS
 62
    3
 10
0
 20
14.565364000000159
 11
-32
 21
14.565364000000159
  0
LINE
  8
_0-1_Layer1
  6
CONTINUOUS
 62
    3
 10
-32
 20
0
 11
-32
 21
15.365364
  0
TEXT
  8
_0-1_Layer1
 62
    7
 10
-21.321245599999941
 20
15.365351000000146
 40
6
 41
0.8582679999999999
 50
0
  1
８０
  0
ENDBLK
  0
BLOCK
  2
-050-DIM_50
 70
   64
 10
0
 20
0
 30
0
  0
CIRCLE
  8
_0-1_Layer1
  6
CONTINUOUS
 62
    3
 10
0
 20
14.565364000000159
 40
1
  0
CIRCLE
  8
_0-1_Layer1
  6
CONTINUOUS
 62
    3
 10
-4
 20
14.565364000000159
 40
1
  0
LINE
  8
_0-1_Layer1
  6
CONTINUOUS
 62
    3
 10
0
 20
14.565364000000159
 11
-4
 21
14.565364000000159
  0
LINE
  8
_0-1_Layer1
  6
CONTINUOUS
 62
    3
 10
-4
 20
-8
 11
-4
 21
15.365364
  0
TEXT
  8
_0-1_Layer1
 62
    7
 10
-15.468946399999936
 20
15.365351000000146
 40
6
 41
0.8582679999999999
 50
0
  1
１０
  0
ENDBLK
  0
BLOCK
  2
-051-DIM_51
 70
   64
 10
0
 20
0
 30
0
  0
CIRCLE
  8
_0-1_Layer1
  6
CONTINUOUS
 62
    3
 10
0
 20
15.61242500000003
 40
1
  0
CIRCLE
  8
_0-1_Layer1
  6
CONTINUOUS
 62
    3
 10
40.000000000000057
 20
15.61242500000003
 40
1
  0
LINE
  8
_0-1_Layer1
  6
CONTINUOUS
 62
    3
 10
0
 20
15.61242500000003
 11
40.000000000000057
 21
15.61242500000003
  0
LINE
  8
_0-1_Layer1
  6
CONTINUOUS
 62
    3
 10
0
 20
0
 11
0
 21
17.61242500000003
  0
LINE
  8
_0-1_Layer1
  6
CONTINUOUS
 62
    3
 10
40.000000000000057
 20
0
 11
40.000000000000057
 21
17.61242500000003
  0
TEXT
  8
_0-1_Layer1
 62
    7
 10
11.074012799999991
 20
16.61242500000003
 40
6
 41
0.8582679999999999
 50
0
  1
１００
  0
ENDBLK
  0
ENDSEC
  0
SECTION
  2
ENTITIES
  0
TEXT
  8
_0-1_Layer1
 62
    7
 10
37.919545077177872
 20
517.63706645317484
 40
6
 41
0.8582679999999999
 50
0
  1
Ｔ－２０００ＡＣ
  0
TEXT
  8
_0-1_Layer1
 62
    7
 10
38.123123077177866
 20
541.63508145317473
 40
6
 41
0.8582679999999999
 50
0
  1
Ｔ－９００ＡＣ
  0
TEXT
  8
_0-1_Layer1
 62
    7
 10
47.595799077177844
 20
497.15570745317467
 40
6
 41
0.8582679999999999
 50
0
  1
中間部の山の数と位置は、Ｃ寸法により変動します。
  0
TEXT
  8
_0-1_Layer1
 62
    7
 10
47.866795077177869
 20
504.20070545317481
 40
6
 41
0.8582679999999999
 50
0
  1
Ｃの最小寸法は３５０ｍｍ（Ｔ－２０００ＡＣ
  0
TEXT
  8
_0-1_Layer1
 62
    7
 10
36.922078077177844
 20
576.32744445317473
 40
7
 41
0.8582679999999999
 50
0
  1
Ｔ－ＡＣ型寸法表
  0
TEXT
  8
_0-1_Layer1
 62
    7
 10
37.919545077177872
 20
529.18750145317472
 40
6
 41
0.8582679999999999
 50
0
  1
Ｔ－１３００ＡＣ
  0
TEXT
  8
_0-1_Layer1
 62
    7
 10
38.204828077177865
 20
553.07297645317487
 40
6
 41
0.8582679999999999
 50
0
  1
Ｔ－６００ＡＣ
  0
TEXT
  8
_0-1_Layer1
 62
    7
 10
47.055610077177846
 20
565.02529845317463
 40
6
 41
0.8582679999999999
 50
0
  1
型　　式
  0
LINE
  8
_0-1_Layer1
  6
CONTINUOUS
 62
    3
 10
33.880655077177892
 20
562.75507645317475
 11
313.26265507717784
 21
562.75507645317475
  0
LINE
  8
_0-1_Layer1
  6
CONTINUOUS
 62
    2
 10
33.880655077177892
 20
574.7530764531748
 11
313.26265507717784
 21
574.7530764531748
  0
LINE
  8
_0-1_Layer1
  6
CONTINUOUS
 62
    3
 10
33.880655077177892
 20
550.75707645317482
 11
313.26265507717784
 21
550.75707645317482
  0
LINE
  8
_0-1_Layer1
  6
CONTINUOUS
 62
    3
 10
33.880655077177892
 20
538.75907645317466
 11
313.26265507717784
 21
538.75907645317466
  0
LINE
  8
_0-1_Layer1
  6
CONTINUOUS
 62
    3
 10
33.880655077177892
 20
526.76107645317484
 11
313.26265507717784
 21
526.76107645317484
  0
LINE
  8
_0-1_Layer1
  6
CONTINUOUS
 62
    2
 10
33.880655077177892
 20
514.76307645317479
 11
313.26265507717784
 21
514.76307645317479
  0
TEXT
  8
_0-1_Layer1
 62
    7
 10
84.640059077177852
 20
517.77790945317474
 40
6
 41
0.8582679999999999
 50
0
  1
２０００
  0
TEXT
  8
_0-1_Layer1
 62
    7
 10
92.89956507717784
 20
565.04563345317479
 40
6
 41
0.8582679999999999
 50
0
  1
Ａ
  0
TEXT
  8
_0-1_Layer1
 62
    7
 10
84.640059077177852
 20
529.32834445317485
 40
6
 41
0.8582679999999999
 50
0
  1
１３００
  0
TEXT
  8
_0-1_Layer1
 62
    7
 10
89.75726607717786
 20
541.25263745317466
 40
6
 41
0.8582679999999999
 50
0
  1
９００
  0
TEXT
  8
_0-1_Layer1
 62
    7
 10
89.942015077177871
 20
553.27213745317465
 40
6
 41
0.8582679999999999
 50
0
  1
６００
  0
TEXT
  8
_0-1_Layer1
 62
    7
 10
206.93812507717786
 20
575.81798445317463
 40
5.1420000000000003
 41
0.8582679999999999
 50
0
  1
（単位：ｍｍ）
  0
LINE
  8
_0-1_Layer1
  6
CONTINUOUS
 62
    3
 10
81.872655077177853
 20
574.7530764531748
 11
81.872655077177853
 21
514.76307645317479
  0
TEXT
  8
_0-1_Layer1
 62
    7
 10
433.24666807717784
 20
448.71504745317469
 40
6
 41
0.8582679999999999
 50
0
  1
Ｔ－２０００ＡＣ
  0
TEXT
  8
_0-1_Layer1
 62
    7
 10
156.10007107717786
 20
503.94185145317476
 40
6
 41
0.8582679999999999
 50
0
  1
のみ５２０ｍｍ）です。
  0
LINE
  8
_0-1_Layer1
  6
CONTINUOUS
 62
    2
 10
236.13265507717787
 20
574.7530764531748
 11
236.13265507717787
 21
514.76307645317479
  0
LINE
  8
_0-1_Layer1
  6
CONTINUOUS
 62
    3
 10
184.71265507717786
 20
574.7530764531748
 11
184.71265507717786
 21
514.76307645317479
  0
LINE
  8
_0-1_Layer1
  6
CONTINUOUS
 62
    3
 10
210.42265507717786
 20
574.7530764531748
 11
210.42265507717786
 21
514.76307645317479
  0
LINE
  8
_0-1_Layer1
  6
CONTINUOUS
 62
    3
 10
159.00265507717791
 20
574.7530764531748
 11
159.00265507717791
 21
514.76307645317479
  0
LINE
  8
_0-1_Layer1
  6
PLine2
 62
    3
 10
651.41280107717785
 20
176.82251845317478
 11
651.41280107717785
 21
137.15566145317479
  0
TEXT
  8
_0-1_Layer1
 62
    7
 10
37.361423077177847
 20
504.3973874531747
 40
6
 41
0.8582679999999999
 50
0
  1
注、
  0
LINE
  8
_0-1_Layer1
  6
CONTINUOUS
 62
    2
 10
33.880655077177892
 20
574.7530764531748
 11
33.880655077177892
 21
514.76307645317479
  0
LINE
  8
_0-1_Layer1
  6
CONTINUOUS
 62
    3
 10
126.93660707717788
 20
143.6508594531748
 11
128.40677307717783
 21
146.24526945317479
  0
ARC
  8
_0-1_Layer1
  6
CONTINUOUS
 62
    3
 10
129.10279107717787
 20
145.85085945317479
 40
0.7999999999773029
 50
90
 51
150.46121799999997
  0
LINE
  8
_0-1_Layer1
  6
CONTINUOUS
 62
    3
 10
230.33660707717786
 20
143.6508594531748
 11
228.86644207717788
 21
146.24526945317479
  0
ARC
  8
_0-1_Layer1
  6
CONTINUOUS
 62
    3
 10
228.17042407717787
 20
145.85085945317479
 40
0.8000000000154947
 50
29.538782000000001
 51
90
  0
LINE
  8
_0-1_Layer1
  6
CONTINUOUS
 62
    3
 10
129.10279107717787
 20
146.6508594531748
 11
133.4151230771779
 21
146.6508594531748
  0
LINE
  8
_0-1_Layer1
  6
CONTINUOUS
 62
    3
 10
223.63660707717787
 20
146.71442545317478
 11
223.63660707717787
 21
151.44456545317479
  0
LINE
  8
_0-1_Layer1
  6
CONTINUOUS
 62
    3
 10
228.17042407717787
 20
146.6508594531748
 11
178.63660707717787
 21
146.6508594531748
  0
LINE
  8
_0-1_Layer1
  6
CONTINUOUS
 62
    3
 10
230.33660707717786
 20
143.6508594531748
 11
178.63660707717787
 21
143.6508594531748
  0
INSERT
  2
-000-DIM_0
  8
_0-1_Layer1
 10
167.88725507717785
 20
171.65085945317477
 41
1
 42
1
 50
0
  0
INSERT
  2
-001-DIM_1
  8
_0-1_Layer1
 10
126.63660707717787
 20
146.6508594531748
 41
1
 42
1
 50
0
  0
LINE
  8
_0-1_Layer1
  6
CONTINUOUS
 62
    3
 10
127.39636607717784
 20
143.6508594531748
 11
128.75478207717788
 21
146.04806445317479
  0
ARC
  8
_0-1_Layer1
  6
CONTINUOUS
 62
    3
 10
129.10279107717787
 20
145.85085945317479
 40
0.3999999999520216
 50
90
 51
150.46121799999997
  0
LINE
  8
_0-1_Layer1
  6
CONTINUOUS
 62
    3
 10
126.93660707717788
 20
143.6508594531748
 11
127.39636607717784
 21
143.6508594531748
  0
LINE
  8
_0-1_Layer1
  6
CONTINUOUS
 62
    3
 10
129.10279107717787
 20
146.25085945317477
 11
133.4151230771779
 21
146.25085945317477
  0
LINE
  8
_0-1_Layer1
  6
CONTINUOUS
 62
    3
 10
133.63660707717787
 20
146.71442545317478
 11
133.63660707717787
 21
151.44456545317479
  0
LINE
  8
_0-1_Layer1
  6
CONTINUOUS
 62
    3
 10
477.39278207717786
 20
433.57335545317477
 11
477.39278207717786
 21
442.24490845317479
  0
LINE
  8
_0-1_Layer1
  6
CONTINUOUS
 62
    3
 10
477.39278207717786
 20
442.24490845317479
 11
432.81305407717775
 21
442.24490845317479
  0
LINE
  8
_0-1_Layer1
  6
CONTINUOUS
 62
    3
 10
432.81305407717775
 20
433.57335545317477
 11
477.39278207717786
 21
433.57335545317477
  0
LINE
  8
_0-1_Layer1
  6
CONTINUOUS
 62
    3
 10
432.81305407717775
 20
442.24490845317479
 11
432.81305407717775
 21
433.57335545317477
  0
TEXT
  8
_0-1_Layer1
 62
    7
 10
434.90079807717785
 20
434.44287545317479
 40
6
 41
0.8582679999999999
 50
0
  1
ジョイント詳細図
  0
LINE
  8
_0-1_Layer1
  6
CONTINUOUS
 62
    6
 10
438.79343107717784
 20
474.1061874531747
 11
438.79343107717784
 21
464.6133674531747
  0
LINE
  8
_0-1_Layer1
  6
CONTINUOUS
 62
    3
 10
458.79343107717779
 20
462.1061874531747
 11
456.02266307717787
 21
462.1061874531747
  0
LINE
  8
_0-1_Layer1
  6
CONTINUOUS
 62
    3
 10
456.02266307717787
 20
462.1061874531747
 11
451.52272707717776
 21
469.90607645317476
  0
ARC
  8
_0-1_Layer1
  6
CONTINUOUS
 62
    3
 10
451.17625207717776
 20
469.70618745317478
 40
0.3999999993375703
 50
29.981639000000005
 51
90
  0
LINE
  8
_0-1_Layer1
  6
CONTINUOUS
 62
    6
 10
438.79343107717784
 20
469.30618745317469
 11
428.79343107717779
 21
469.30618745317469
  0
LINE
  8
_0-1_Layer1
  6
CONTINUOUS
 62
    6
 10
428.79343107717779
 20
474.1061874531747
 11
428.79343107717779
 21
464.50618745317479
  0
LINE
  8
_0-1_Layer1
  6
CONTINUOUS
 62
    3
 10
423.59228807717784
 20
466.50618745317479
 11
420.79343107717779
 21
466.50618745317479
  0
LINE
  8
_0-1_Layer1
  6
CONTINUOUS
 62
    6
 10
438.79343107717784
 20
464.97919745317478
 11
438.32042107717785
 21
464.50618745317479
  0
LINE
  8
_0-1_Layer1
  6
CONTINUOUS
 62
    6
 10
438.79343107717784
 20
467.8076244531747
 11
435.49199407717788
 21
464.50618745317479
  0
LINE
  8
_0-1_Layer1
  6
CONTINUOUS
 62
    6
 10
438.79343107717784
 20
470.63605245317478
 11
432.66356707717785
 21
464.50618745317479
  0
LINE
  8
_0-1_Layer1
  6
CONTINUOUS
 62
    6
 10
438.79343107717784
 20
473.4644794531747
 11
429.83514007717775
 21
464.50618745317479
  0
LINE
  8
_0-1_Layer1
  6
CONTINUOUS
 62
    6
 10
436.60671307717786
 20
474.1061874531747
 11
428.79343107717779
 21
466.29290645317479
  0
LINE
  8
_0-1_Layer1
  6
CONTINUOUS
 62
    6
 10
433.77828607717777
 20
474.1061874531747
 11
428.79343107717779
 21
469.12133345317466
  0
LINE
  8
_0-1_Layer1
  6
CONTINUOUS
 62
    6
 10
430.94985907717785
 20
474.1061874531747
 11
428.79343107717779
 21
471.94976045317469
  0
LINE
  8
_0-1_Layer1
  6
CONTINUOUS
 62
    6
 10
429.62455007717784
 20
464.50618745317479
 11
428.79343107717779
 21
465.33730645317479
  0
LINE
  8
_0-1_Layer1
  6
CONTINUOUS
 62
    6
 10
432.45297707717776
 20
464.50618745317479
 11
428.79343107717779
 21
468.16573345317471
  0
LINE
  8
_0-1_Layer1
  6
CONTINUOUS
 62
    6
 10
435.28140407717785
 20
464.50618745317479
 11
428.79343107717779
 21
470.9941604531748
  0
LINE
  8
_0-1_Layer1
  6
CONTINUOUS
 62
    6
 10
438.10983107717777
 20
464.50618745317479
 11
428.79343107717779
 21
473.82258745317478
  0
LINE
  8
_0-1_Layer1
  6
CONTINUOUS
 62
    6
 10
438.79343107717784
 20
466.65101545317481
 11
431.33825807717784
 21
474.1061874531747
  0
LINE
  8
_0-1_Layer1
  6
CONTINUOUS
 62
    6
 10
438.79343107717784
 20
469.47944245317467
 11
434.16668607717776
 21
474.1061874531747
  0
LINE
  8
_0-1_Layer1
  6
CONTINUOUS
 62
    6
 10
438.79343107717784
 20
472.30786945317476
 11
436.99511307717785
 21
474.1061874531747
  0
LINE
  8
_0-1_Layer1
  6
CONTINUOUS
 62
    3
 10
502.28502807717786
 20
462.1061874531747
 11
485.53507207717786
 21
462.1061874531747
  0
ARC
  8
_0-1_Layer1
  6
CONTINUOUS
 62
    3
 10
485.53507207717786
 20
465.70618745317478
 40
3.600000000190823
 50
206.56505100000001
 51
270
  0
ARC
  8
_0-1_Layer1
  6
CONTINUOUS
 62
    3
 10
476.56850907717779
 20
472.90618745317477
 40
3.6000000000264158
 50
26.565051
 51
90
  0
LINE
  8
_0-1_Layer1
  6
CONTINUOUS
 62
    3
 10
420.79343107717779
 20
466.50618745317479
 11
425.74474207717776
 21
474.7583724531749
  0
LINE
  8
_0-1_Layer1
  6
CONTINUOUS
 62
    3
 10
476.56850907717779
 20
476.50618745317468
 11
428.83171707717776
 21
476.50618745317468
  0
ARC
  8
_0-1_Layer1
  6
CONTINUOUS
 62
    3
 10
428.83171707717776
 20
472.90618745317477
 40
3.6000000000176162
 50
90
 51
149.03624300000001
  0
LINE
  8
_0-1_Layer1
  6
CONTINUOUS
 62
    3
 10
502.28502807717786
 20
464.50618745317479
 11
485.53507207717786
 21
464.50618745317479
  0
LINE
  8
_0-1_Layer1
  6
CONTINUOUS
 62
    3
 10
479.78844707717786
 20
474.5161564531748
 11
484.46175907717787
 21
465.16953145317478
  0
ARC
  8
_0-1_Layer1
  6
CONTINUOUS
 62
    3
 10
485.53507207717786
 20
465.70618745317478
 40
1.1999999999389941
 50
206.56505100000001
 51
270
  0
LINE
  8
_0-1_Layer1
  6
CONTINUOUS
 62
    3
 10
482.31513407717779
 20
464.0962194531748
 11
477.64182207717778
 21
473.44284445317476
  0
ARC
  8
_0-1_Layer1
  6
CONTINUOUS
 62
    3
 10
476.56850907717779
 20
472.90618745317477
 40
1.200000000231064
 50
26.565051
 51
90
  0
LINE
  8
_0-1_Layer1
  6
CONTINUOUS
 62
    3
 10
423.59228807717784
 20
466.50618745317479
 11
427.80272507717774
 21
473.52358245317475
  0
LINE
  8
_0-1_Layer1
  6
CONTINUOUS
 62
    3
 10
476.56850907717779
 20
474.1061874531747
 11
428.83171707717776
 21
474.1061874531747
  0
ARC
  8
_0-1_Layer1
  6
CONTINUOUS
 62
    3
 10
428.83171707717776
 20
472.90618745317477
 40
1.200000000700272
 50
90
 51
149.03624300000001
  0
LINE
  8
_0-1_Layer1
  6
CONTINUOUS
 62
    3
 10
405.63342707717788
 20
462.1061874531747
 11
439.39343107717787
 21
462.1061874531747
  0
ARC
  8
_0-1_Layer1
  6
CONTINUOUS
 62
    3
 10
439.39343107717787
 20
463.3061874531748
 40
1.1999999999192941
 50
270
 51
323.13010200000002
  0
LINE
  8
_0-1_Layer1
  6
CONTINUOUS
 62
    3
 10
458.79343107717779
 20
462.1061874531747
 11
453.13977707717777
 21
471.90585445317475
  0
ARC
  8
_0-1_Layer1
  6
CONTINUOUS
 62
    3
 10
452.10035507717788
 20
471.30618745317469
 40
1.2000000000188771
 50
29.981639000000005
 51
90
  0
LINE
  8
_0-1_Layer1
  6
CONTINUOUS
 62
    3
 10
452.10035507717788
 20
472.50618745317468
 11
445.39343107717775
 21
472.50618745317468
  0
ARC
  8
_0-1_Layer1
  6
CONTINUOUS
 62
    3
 10
445.39343107717775
 20
471.30618745317469
 40
1.2000000002062721
 50
90
 51
143.13010199999999
  0
LINE
  8
_0-1_Layer1
  6
CONTINUOUS
 62
    3
 10
440.35343107717785
 20
462.58618745317477
 11
445.87343107717777
 21
469.94618745317467
  0
LINE
  8
_0-1_Layer1
  6
CONTINUOUS
 62
    3
 10
451.17625207717776
 20
470.1061874531747
 11
446.19343107717788
 21
470.1061874531747
  0
ARC
  8
_0-1_Layer1
  6
CONTINUOUS
 62
    3
 10
446.19343107717788
 20
469.70618745317478
 40
0.399999998238723
 50
90
 51
143.13010199999999
  0
LINE
  8
_0-1_Layer1
  6
CONTINUOUS
 62
    3
 10
444.43343107717789
 20
472.02618745317477
 11
438.91343107717785
 21
464.6661874531747
  0
LINE
  8
_0-1_Layer1
  6
CONTINUOUS
 62
    3
 10
405.63342707717788
 20
464.50618745317479
 11
438.59343107717785
 21
464.50618745317479
  0
ARC
  8
_0-1_Layer1
  6
CONTINUOUS
 62
    3
 10
438.59343107717785
 20
464.90618745317477
 40
0.3999999982569754
 50
270
 51
323.13010200000002
  0
LINE
  8
_0-1_Layer1
  6
PLine2
 62
    3
 10
452.79343107717779
 20
483.11187645317477
 11
452.79343107717779
 21
458.84693645317469
  0
INSERT
  2
-002-DIM_2
  8
_0-1_Layer1
 10
484.79343107717784
 20
496.54085345317469
 41
1
 42
1
 50
0
  0
INSERT
  2
-003-DIM_3
  8
_0-1_Layer1
 10
478.79343107717779
 20
478.50618745317479
 41
1
 42
1
 50
0
  0
INSERT
  2
-004-DIM_4
  8
_0-1_Layer1
 10
426.79343107717784
 20
478.50618745317479
 41
1
 42
1
 50
0
  0
INSERT
  2
-005-DIM_5
  8
_0-1_Layer1
 10
480.79343107717784
 20
476.50618745317468
 41
1
 42
1
 50
0
  0
INSERT
  2
-006-DIM_6
  8
_0-1_Layer1
 10
484.79343107717784
 20
466.50618745317479
 41
1
 42
1
 50
0
  0
LINE
  8
_0-1_Layer1
  6
PLine1
 62
    3
 10
650.96558707717793
 20
173.65085945317477
 11
649.96558707717782
 21
171.65085945317477
  0
ARC
  8
_0-1_Layer1
  6
CONTINUOUS
 62
    3
 10
647.84525607717774
 20
174.05085945317478
 40
0.599999999998234
 50
90
 51
161.56505100000001
  0
LINE
  8
_0-1_Layer1
  6
CONTINUOUS
 62
    3
 10
647.84525607717774
 20
174.65085945317477
 11
654.98034507717773
 21
174.65085945317477
  0
ARC
  8
_0-1_Layer1
  6
CONTINUOUS
 62
    3
 10
654.98034507717773
 20
174.05085945317478
 40
0.5999999998632945
 50
18.434949
 51
90
  0
LINE
  8
_0-1_Layer1
  6
CONTINUOUS
 62
    3
 10
160.50204007717787
 20
292.19790145317478
 11
160.50204007717787
 21
294.18324145317479
  0
LINE
  8
_0-1_Layer1
  6
CONTINUOUS
 62
    3
 10
159.50204007717787
 20
293.19790145317478
 11
161.51344207717784
 21
293.19790145317478
  0
CIRCLE
  8
_0-1_Layer1
  6
CONTINUOUS
 62
    3
 10
160.50204007717787
 20
293.19790145317478
 40
0.5
  0
LINE
  8
_0-1_Layer1
  6
CONTINUOUS
 62
    3
 10
125.50204007717787
 20
292.19790145317478
 11
125.50204007717787
 21
294.18324145317479
  0
LINE
  8
_0-1_Layer1
  6
CONTINUOUS
 62
    3
 10
124.50204007717787
 20
293.19790145317478
 11
126.51344207717784
 21
293.19790145317478
  0
CIRCLE
  8
_0-1_Layer1
  6
CONTINUOUS
 62
    3
 10
125.50204007717787
 20
293.19790145317478
 40
0.5
  0
LINE
  8
_0-1_Layer1
  6
CONTINUOUS
 62
    3
 10
90.502040077177867
 20
292.19790145317478
 11
90.502040077177867
 21
294.18324145317479
  0
LINE
  8
_0-1_Layer1
  6
CONTINUOUS
 62
    3
 10
89.502040077177867
 20
293.19790145317478
 11
91.513442077177842
 21
293.19790145317478
  0
LINE
  8
_0-1_Layer1
  6
CONTINUOUS
 62
    3
 10
71.502040077177867
 20
305.19790145317478
 11
73.502255077177892
 21
305.19790145317478
  0
LINE
  8
_0-1_Layer1
  6
CONTINUOUS
 62
    3
 10
72.502040077177867
 20
304.19790145317478
 11
72.502040077177867
 21
306.19790145317478
  0
CIRCLE
  8
_0-1_Layer1
  6
CONTINUOUS
 62
    3
 10
90.502040077177867
 20
293.19790145317478
 40
0.5
  0
CIRCLE
  8
_0-1_Layer1
  6
CONTINUOUS
 62
    3
 10
72.502040077177867
 20
305.19790145317478
 40
0.5
  0
LINE
  8
_0-1_Layer1
  6
CONTINUOUS
 62
    3
 10
72.502040077177867
 20
341.19790145317478
 11
72.502040077177867
 21
339.21256145317477
  0
LINE
  8
_0-1_Layer1
  6
CONTINUOUS
 62
    3
 10
71.502040077177867
 20
340.19790145317478
 11
73.513442077177842
 21
340.19790145317478
  0
CIRCLE
  8
_0-1_Layer1
  6
CONTINUOUS
 62
    3
 10
72.502040077177867
 20
340.19790145317478
 40
0.5
  0
LINE
  8
_0-1_Layer1
  6
CONTINUOUS
 62
    3
 10
172.50204007717787
 20
292.69790145317478
 11
171.50204007717787
 21
293.69790145317478
  0
LINE
  8
_0-1_Layer1
  6
CONTINUOUS
 62
    3
 10
171.50204007717787
 20
293.69790145317478
 11
171.50204007717787
 21
340.19790145317478
  0
LINE
  8
_0-1_Layer1
  6
CONTINUOUS
 62
    3
 10
67.802040077177878
 20
291.19790145317478
 11
67.802040077177878
 21
340.19790145317478
  0
ARC
  8
_0-1_Layer1
  6
CONTINUOUS
 62
    3
 10
70.502040077177867
 20
291.19790145317478
 40
2.6999999999475861
 50
180
 51
270
  0
LINE
  8
_0-1_Layer1
  6
CONTINUOUS
 62
    3
 10
70.502040077177867
 20
288.49790145317479
 11
172.50204007717787
 21
288.49790145317479
  0
LINE
  8
_0-1_Layer1
  6
CONTINUOUS
 62
    3
 10
70.502040077177867
 20
290.19790145317478
 11
172.50204007717787
 21
290.19790145317478
  0
ARC
  8
_0-1_Layer1
  6
CONTINUOUS
 62
    3
 10
70.502040077177867
 20
291.19790145317478
 40
0.9999999999830658
 50
180
 51
270
  0
LINE
  8
_0-1_Layer1
  6
CONTINUOUS
 62
    3
 10
69.502040077177867
 20
291.19790145317478
 11
69.502040077177867
 21
340.19790145317478
  0
LINE
  8
_0-1_Layer1
  6
CONTINUOUS
 62
    3
 10
74.502040077177867
 20
298.19790145317478
 11
74.502040077177867
 21
340.19790145317478
  0
LINE
  8
_0-1_Layer1
  6
CONTINUOUS
 62
    3
 10
171.50204007717787
 20
295.19790145317478
 11
77.502040077177867
 21
295.19790145317478
  0
ARC
  8
_0-1_Layer1
  6
CONTINUOUS
 62
    3
 10
77.502040077177867
 20
298.19790145317478
 40
2.9999999999985172
 50
180
 51
270
  0
LINE
  8
_0-1_Layer1
  6
CONTINUOUS
 62
    3
 10
205.34180207717787
 20
293.19790145317478
 11
203.34180207717787
 21
293.19790145317478
  0
LINE
  8
_0-1_Layer1
  6
CONTINUOUS
 62
    3
 10
204.34180207717787
 20
292.19790145317478
 11
204.34180207717787
 21
294.19790145317478
  0
CIRCLE
  8
_0-1_Layer1
  6
CONTINUOUS
 62
    3
 10
204.34180207717787
 20
293.19790145317478
 40
0.5
  0
LINE
  8
_0-1_Layer1
  6
CONTINUOUS
 62
    3
 10
199.34180207717787
 20
292.69790145317478
 11
199.34180207717787
 21
340.19790145317478
  0
LINE
  8
_0-1_Layer1
  6
CONTINUOUS
 62
    3
 10
189.34180207717787
 20
340.19790145317478
 11
189.34180207717787
 21
288.49790145317479
  0
LINE
  8
_0-1_Layer1
  6
CONTINUOUS
 62
    3
 10
190.34180207717776
 20
291.69790145317478
 11
198.34180207717787
 21
291.69790145317478
  0
LINE
  8
_0-1_Layer1
  6
CONTINUOUS
 62
    3
 10
190.34180207717776
 20
291.69790145317478
 11
189.34180207717787
 21
292.69790145317478
  0
LINE
  8
_0-1_Layer1
  6
CONTINUOUS
 62
    3
 10
199.34180207717787
 20
292.69790145317478
 11
198.34180207717787
 21
291.69790145317478
  0
LINE
  8
_0-1_Layer1
  6
CONTINUOUS
 62
    3
 10
491.86431007717778
 20
288.9862364531748
 11
492.99828407717774
 21
292.95033845317477
  0
LINE
  8
_0-1_Layer1
  6
CONTINUOUS
 62
    3
 10
492.99828407717774
 20
292.95033845317477
 11
481.56643107717787
 21
273.14978845317478
  0
LINE
  8
_0-1_Layer1
  6
CONTINUOUS
 62
    3
 10
481.56643107717787
 20
273.14978845317478
 11
424.33494807717778
 21
273.14978845317478
  0
TEXT
  8
_0-1_Layer1
 62
    7
 10
422.60194807717778
 20
525.4539454531747
 40
6
 41
0.8582679999999999
 50
0
  1
Ｔ－６００～１３００ＡＣ
  0
ARC
  8
_0-1_Layer1
  6
CONTINUOUS
 62
    3
 10
703.31507807717787
 20
116.6508594531748
 40
54.999999999981569
 50
33.280372
 51
90
  0
ARC
  8
_0-1_Layer1
  6
CONTINUOUS
 62
    3
 10
749.62922307717781
 20
147.05085945317478
 40
0.3999999987585479
 50
213.280372
 51
270
  0
ARC
  8
_0-1_Layer1
  6
CONTINUOUS
 62
    3
 10
753.94661707717773
 20
145.85085945317479
 40
0.799999998842675
 50
29.538782000000001
 51
90
  0
LINE
  8
_0-1_Layer1
  6
CONTINUOUS
 62
    3
 10
651.41280107717785
 20
143.6508594531748
 11
756.11280107717789
 21
143.6508594531748
  0
LINE
  8
_0-1_Layer1
  6
CONTINUOUS
 62
    3
 10
756.11280107717789
 20
143.6508594531748
 11
754.64263507717772
 21
146.24526945317479
  0
LINE
  8
_0-1_Layer1
  6
PLine1
 62
    3
 10
646.41280107717785
 20
171.65085945317477
 11
649.96558707717782
 21
171.65085945317477
  0
LINE
  8
_0-1_Layer1
  6
CONTINUOUS
 62
    3
 10
753.94661707717773
 20
146.6508594531748
 11
551.41280107717785
 21
146.6508594531748
  0
LINE
  8
_0-1_Layer1
  6
CONTINUOUS
 62
    3
 10
656.41280107717773
 20
171.65085945317477
 11
656.41280107717773
 21
146.6508594531748
  0
LINE
  8
_0-1_Layer1
  6
CONTINUOUS
 62
    3
 10
647.27604607717774
 20
174.24059545317468
 11
646.45838507717781
 21
171.78761345317477
  0
LINE
  8
_0-1_Layer1
  6
CONTINUOUS
 62
    3
 10
703.31507807717787
 20
171.65085945317477
 11
656.55695207717781
 21
171.65085945317477
  0
LINE
  8
_0-1_Layer1
  6
CONTINUOUS
 62
    3
 10
655.54955507717773
 20
174.24059545317468
 11
656.36721607717789
 21
171.78761345317477
  0
ARC
  8
_0-1_Layer1
  6
CONTINUOUS
 62
    3
 10
656.55695207717781
 20
171.85085945317479
 40
0.2000000002159788
 50
198.43494899999988
 51
269.99999999999994
  0
LINE
  8
_0-1_Layer1
  6
CONTINUOUS
 62
    3
 10
393.34180207717787
 20
295.19790145317478
 11
199.34180207717787
 21
295.19790145317478
  0
LINE
  8
_0-1_Layer1
  6
CONTINUOUS
 62
    3
 10
394.34180207717787
 20
290.19790145317478
 11
189.34180207717787
 21
290.19790145317478
  0
LINE
  8
_0-1_Layer1
  6
CONTINUOUS
 62
    3
 10
394.34180207717787
 20
288.49790145317479
 11
189.34180207717787
 21
288.49790145317479
  0
LINE
  8
_0-1_Layer1
  6
CONTINUOUS
 62
    3
 10
551.41280107717785
 20
143.6508594531748
 11
656.5244970771779
 21
143.6508594531748
  0
LINE
  8
_0-1_Layer1
  6
CONTINUOUS
 62
    3
 10
589.55695207717781
 20
171.65085945317477
 11
646.26864907717788
 21
171.65085945317477
  0
LINE
  8
_0-1_Layer1
  6
CONTINUOUS
 62
    3
 10
172.50204007717787
 20
387.69790145317478
 11
171.50204007717787
 21
386.69790145317478
  0
LINE
  8
_0-1_Layer1
  6
CONTINUOUS
 62
    3
 10
171.50204007717787
 20
386.69790145317478
 11
171.50204007717787
 21
340.19790145317478
  0
LINE
  8
_0-1_Layer1
  6
CONTINUOUS
 62
    3
 10
67.802040077177878
 20
389.19790145317478
 11
67.802040077177878
 21
340.19790145317478
  0
LINE
  8
_0-1_Layer1
  6
CONTINUOUS
 62
    3
 10
69.502040077177867
 20
389.19790145317478
 11
69.502040077177867
 21
340.19790145317478
  0
LINE
  8
_0-1_Layer1
  6
CONTINUOUS
 62
    3
 10
74.502040077177867
 20
382.19790145317478
 11
74.502040077177867
 21
340.19790145317478
  0
LINE
  8
_0-1_Layer1
  6
CONTINUOUS
 62
    3
 10
199.34180207717787
 20
387.69790145317478
 11
199.34180207717787
 21
340.19790145317478
  0
LINE
  8
_0-1_Layer1
  6
CONTINUOUS
 62
    3
 10
189.34180207717787
 20
340.19790145317478
 11
189.34180207717787
 21
391.89790145317477
  0
LINE
  8
_0-1_Layer1
  6
PLine2
 62
    3
 10
194.34180207717787
 20
393.92959745317478
 11
194.34180207717787
 21
285.2716054531748
  0
LINE
  8
_0-1_Layer1
  6
CONTINUOUS
 62
    3
 10
172.50204007717787
 20
391.89790145317477
 11
172.50204007717787
 21
288.49790145317479
  0
LINE
  8
_0-1_Layer1
  6
CONTINUOUS
 62
    3
 10
472.80419207717785
 20
548.62101745317477
 11
471.67021807717788
 21
544.65691645317463
  0
LINE
  8
_0-1_Layer1
  6
CONTINUOUS
 62
    3
 10
471.67021807717788
 20
544.65691645317463
 11
486.57296807717785
 21
570.46923645317463
  0
LINE
  8
_0-1_Layer1
  6
CONTINUOUS
 62
    3
 10
486.57296807717785
 20
570.46923645317463
 11
523.31129507717787
 21
570.46923645317463
  0
TEXT
  8
_0-1_Layer1
 62
    7
 10
486.57298007717787
 20
571.86922845317463
 40
6
 41
0.8582679999999999
 50
0
  1
アクリルドーム
  0
LINE
  8
_0-1_Layer1
  6
CONTINUOUS
 62
    3
 10
436.53886807717777
 20
544.97848145317482
 11
437.97188007717779
 21
543.49643045317487
  0
LINE
  8
_0-1_Layer1
  6
CONTINUOUS
 62
    3
 10
437.97188007717779
 20
543.49643045317487
 11
429.27047807717787
 21
558.56770145317466
  0
LINE
  8
_0-1_Layer1
  6
CONTINUOUS
 62
    3
 10
429.27047807717787
 20
558.56770145317466
 11
388.07362707717789
 21
558.56770145317466
  0
TEXT
  8
_0-1_Layer1
 62
    7
 10
388.07362707717789
 20
559.56770145317466
 40
6
 41
0.8582679999999999
 50
0
  1
コンプリフォーム
  0
TEXT
  8
_0-1_Layer1
 62
    7
 10
68.861584677177859
 20
413.99297745317477
 40
6
 41
0.8582679999999999
 50
0
  1
Ｄ
  0
LINE
  8
_0-1_Layer1
  6
CONTINUOUS
 62
    3
 10
160.50204007717787
 20
388.19790145317478
 11
160.50204007717787
 21
386.21256145317477
  0
LINE
  8
_0-1_Layer1
  6
CONTINUOUS
 62
    3
 10
159.50204007717787
 20
387.19790145317478
 11
161.51344207717784
 21
387.19790145317478
  0
CIRCLE
  8
_0-1_Layer1
  6
CONTINUOUS
 62
    3
 10
160.50204007717787
 20
387.19790145317478
 40
0.5
  0
LINE
  8
_0-1_Layer1
  6
CONTINUOUS
 62
    3
 10
125.50204007717787
 20
388.19790145317478
 11
125.50204007717787
 21
386.21256145317477
  0
LINE
  8
_0-1_Layer1
  6
CONTINUOUS
 62
    3
 10
124.50204007717787
 20
387.19790145317478
 11
126.51344207717784
 21
387.19790145317478
  0
CIRCLE
  8
_0-1_Layer1
  6
CONTINUOUS
 62
    3
 10
125.50204007717787
 20
387.19790145317478
 40
0.5
  0
ARC
  8
_0-1_Layer1
  6
CONTINUOUS
 62
    3
 10
70.502040077177867
 20
389.19790145317478
 40
2.7000000000391342
 50
90
 51
180
  0
LINE
  8
_0-1_Layer1
  6
CONTINUOUS
 62
    3
 10
70.502040077177867
 20
391.89790145317477
 11
172.50204007717787
 21
391.89790145317477
  0
LINE
  8
_0-1_Layer1
  6
CONTINUOUS
 62
    3
 10
70.502040077177867
 20
390.19790145317478
 11
172.50204007717787
 21
390.19790145317478
  0
ARC
  8
_0-1_Layer1
  6
CONTINUOUS
 62
    3
 10
70.502040077177867
 20
389.19790145317478
 40
0.9999999999350539
 50
90
 51
180
  0
LINE
  8
_0-1_Layer1
  6
CONTINUOUS
 62
    3
 10
90.502040077177867
 20
388.19790145317478
 11
90.502040077177867
 21
386.21256145317477
  0
LINE
  8
_0-1_Layer1
  6
CONTINUOUS
 62
    3
 10
89.502040077177867
 20
387.19790145317478
 11
91.513442077177842
 21
387.19790145317478
  0
LINE
  8
_0-1_Layer1
  6
CONTINUOUS
 62
    3
 10
71.502040077177867
 20
375.19790145317478
 11
73.502255077177892
 21
375.19790145317478
  0
LINE
  8
_0-1_Layer1
  6
CONTINUOUS
 62
    3
 10
72.502040077177867
 20
376.19790145317478
 11
72.502040077177867
 21
374.19790145317478
  0
CIRCLE
  8
_0-1_Layer1
  6
CONTINUOUS
 62
    3
 10
90.502040077177867
 20
387.19790145317478
 40
0.5
  0
CIRCLE
  8
_0-1_Layer1
  6
CONTINUOUS
 62
    3
 10
72.502040077177867
 20
375.19790145317478
 40
0.5
  0
LINE
  8
_0-1_Layer1
  6
CONTINUOUS
 62
    3
 10
171.50204007717787
 20
385.19790145317478
 11
77.502040077177867
 21
385.19790145317478
  0
ARC
  8
_0-1_Layer1
  6
CONTINUOUS
 62
    3
 10
77.502040077177867
 20
382.19790145317478
 40
2.9999999999776401
 50
90
 51
180
  0
LINE
  8
_0-1_Layer1
  6
CONTINUOUS
 62
    3
 10
205.34180207717787
 20
387.19790145317478
 11
203.34180207717787
 21
387.19790145317478
  0
LINE
  8
_0-1_Layer1
  6
CONTINUOUS
 62
    3
 10
204.34180207717787
 20
388.19790145317478
 11
204.34180207717787
 21
386.19790145317478
  0
CIRCLE
  8
_0-1_Layer1
  6
CONTINUOUS
 62
    3
 10
204.34180207717787
 20
387.19790145317478
 40
0.5
  0
LINE
  8
_0-1_Layer1
  6
CONTINUOUS
 62
    3
 10
190.34180207717776
 20
388.69790145317478
 11
198.34180207717787
 21
388.69790145317478
  0
CIRCLE
  8
_0-1_Layer1
  6
CONTINUOUS
 62
    3
 10
69.502040077177867
 20
411.22894545317479
 40
1
  0
CIRCLE
  8
_0-1_Layer1
  6
CONTINUOUS
 62
    3
 10
74.502040077177867
 20
411.22894545317479
 40
1
  0
LINE
  8
_0-1_Layer1
  6
CONTINUOUS
 62
    3
 10
69.502040077177867
 20
411.22894545317479
 11
74.502040077177867
 21
411.22894545317479
  0
LINE
  8
_0-1_Layer1
  6
CONTINUOUS
 62
    3
 10
69.502040077177867
 20
413.17424345317477
 11
69.502040077177867
 21
393.76522145317477
  0
INSERT
  2
-007-DIM_7
  8
_0-1_Layer1
 10
172.50204007717787
 20
393.89790145317477
 41
1
 42
1
 50
0
  0
LINE
  8
_0-1_Layer1
  6
CONTINUOUS
 62
    3
 10
190.34180207717776
 20
388.69790145317478
 11
189.34180207717787
 21
387.69790145317478
  0
LINE
  8
_0-1_Layer1
  6
CONTINUOUS
 62
    3
 10
199.34180207717787
 20
387.69790145317478
 11
198.34180207717787
 21
388.69790145317478
  0
INSERT
  2
-008-DIM_8
  8
_0-1_Layer1
 10
51.13244207717787
 20
295.19790145317478
 41
1
 42
1
 50
0
  0
INSERT
  2
-009-DIM_9
  8
_0-1_Layer1
 10
515.41280107717773
 20
183.37336845317478
 41
1
 42
1
 50
0
  0
INSERT
  2
-010-DIM_10
  8
_0-1_Layer1
 10
516.41280107717773
 20
176.65085945317477
 41
1
 42
1
 50
0
  0
INSERT
  2
-011-DIM_11
  8
_0-1_Layer1
 10
524.41280107717773
 20
176.65085945317477
 41
1
 42
1
 50
0
  0
INSERT
  2
-012-DIM_12
  8
_0-1_Layer1
 10
515.41280107717773
 20
173.65085945317477
 41
1
 42
1
 50
0
  0
ARC
  8
_0-1_Layer1
  6
CONTINUOUS
 62
    3
 10
516.84525607717785
 20
174.05085945317478
 40
0.2000000001692444
 50
90
 51
161.56505100000001
  0
ARC
  8
_0-1_Layer1
  6
CONTINUOUS
 62
    3
 10
580.84525607717774
 20
174.05085945317478
 40
0.6000000003905322
 50
90
 51
161.56505100000001
  0
LINE
  8
_0-1_Layer1
  6
CONTINUOUS
 62
    3
 10
580.84525607717774
 20
174.65085945317477
 11
587.98034507717773
 21
174.65085945317477
  0
ARC
  8
_0-1_Layer1
  6
CONTINUOUS
 62
    3
 10
587.98034507717773
 20
174.05085945317478
 40
0.6000000002771712
 50
18.434949
 51
90
  0
LINE
  8
_0-1_Layer1
  6
CONTINUOUS
 62
    3
 10
517.61368707717781
 20
341.19790145317478
 11
517.61368707717781
 21
339.19790145317478
  0
LINE
  8
_0-1_Layer1
  6
CONTINUOUS
 62
    3
 10
518.61368707717793
 20
340.19790145317478
 11
516.61368707717781
 21
340.19790145317478
  0
CIRCLE
  8
_0-1_Layer1
  6
CONTINUOUS
 62
    3
 10
517.61368707717781
 20
340.19790145317478
 40
0.5
  0
LINE
  8
_0-1_Layer1
  6
CONTINUOUS
 62
    3
 10
517.61368707717781
 20
304.19790145317478
 11
517.61368707717781
 21
306.19790145317478
  0
LINE
  8
_0-1_Layer1
  6
CONTINUOUS
 62
    3
 10
518.61368707717793
 20
305.19790145317478
 11
516.61368707717781
 21
305.19790145317478
  0
CIRCLE
  8
_0-1_Layer1
  6
CONTINUOUS
 62
    3
 10
517.61368707717781
 20
305.19790145317478
 40
0.5
  0
LINE
  8
_0-1_Layer1
  6
CONTINUOUS
 62
    3
 10
423.61368707717776
 20
292.19790145317478
 11
423.61368707717776
 21
294.19790145317478
  0
LINE
  8
_0-1_Layer1
  6
CONTINUOUS
 62
    3
 10
424.61368707717776
 20
293.19790145317478
 11
422.61368707717787
 21
293.19790145317478
  0
CIRCLE
  8
_0-1_Layer1
  6
CONTINUOUS
 62
    3
 10
423.61368707717776
 20
293.19790145317478
 40
0.5
  0
LINE
  8
_0-1_Layer1
  6
CONTINUOUS
 62
    3
 10
458.61368707717787
 20
292.19790145317478
 11
458.61368707717787
 21
294.19790145317478
  0
LINE
  8
_0-1_Layer1
  6
CONTINUOUS
 62
    3
 10
459.61368707717787
 20
293.19790145317478
 11
457.61368707717776
 21
293.19790145317478
  0
CIRCLE
  8
_0-1_Layer1
  6
CONTINUOUS
 62
    3
 10
458.61368707717787
 20
293.19790145317478
 40
0.5
  0
LINE
  8
_0-1_Layer1
  6
CONTINUOUS
 62
    3
 10
493.61368707717787
 20
292.19790145317478
 11
493.61368707717787
 21
294.19790145317478
  0
LINE
  8
_0-1_Layer1
  6
CONTINUOUS
 62
    3
 10
494.61368707717776
 20
293.19790145317478
 11
492.61368707717787
 21
293.19790145317478
  0
CIRCLE
  8
_0-1_Layer1
  6
CONTINUOUS
 62
    3
 10
493.61368707717787
 20
293.19790145317478
 40
0.5
  0
LINE
  8
_0-1_Layer1
  6
CONTINUOUS
 62
    3
 10
381.34180207717787
 20
293.19790145317478
 11
379.34180207717787
 21
293.19790145317478
  0
LINE
  8
_0-1_Layer1
  6
CONTINUOUS
 62
    3
 10
380.34180207717787
 20
292.19790145317478
 11
380.34180207717787
 21
294.19790145317478
  0
CIRCLE
  8
_0-1_Layer1
  6
CONTINUOUS
 62
    3
 10
380.34180207717787
 20
293.19790145317478
 40
0.5
  0
LINE
  8
_0-1_Layer1
  6
CONTINUOUS
 62
    3
 10
338.34180207717787
 20
293.19790145317478
 11
336.34180207717787
 21
293.19790145317478
  0
LINE
  8
_0-1_Layer1
  6
CONTINUOUS
 62
    3
 10
337.34180207717787
 20
292.19790145317478
 11
337.34180207717787
 21
294.19790145317478
  0
CIRCLE
  8
_0-1_Layer1
  6
CONTINUOUS
 62
    3
 10
337.34180207717787
 20
293.19790145317478
 40
0.5
  0
LINE
  8
_0-1_Layer1
  6
CONTINUOUS
 62
    3
 10
318.34180207717787
 20
293.19790145317478
 11
316.34180207717787
 21
293.19790145317478
  0
LINE
  8
_0-1_Layer1
  6
CONTINUOUS
 62
    3
 10
317.34180207717787
 20
292.19790145317478
 11
317.34180207717787
 21
294.19790145317478
  0
CIRCLE
  8
_0-1_Layer1
  6
CONTINUOUS
 62
    3
 10
317.34180207717787
 20
293.19790145317478
 40
0.5
  0
LINE
  8
_0-1_Layer1
  6
CONTINUOUS
 62
    3
 10
272.34180207717787
 20
293.19790145317478
 11
270.34180207717787
 21
293.19790145317478
  0
LINE
  8
_0-1_Layer1
  6
CONTINUOUS
 62
    3
 10
271.34180207717787
 20
292.19790145317478
 11
271.34180207717787
 21
294.19790145317478
  0
CIRCLE
  8
_0-1_Layer1
  6
CONTINUOUS
 62
    3
 10
271.34180207717787
 20
293.19790145317478
 40
0.5
  0
LINE
  8
_0-1_Layer1
  6
CONTINUOUS
 62
    3
 10
252.34180207717787
 20
293.19790145317478
 11
250.34180207717787
 21
293.19790145317478
  0
LINE
  8
_0-1_Layer1
  6
CONTINUOUS
 62
    3
 10
251.34180207717787
 20
292.19790145317478
 11
251.34180207717787
 21
294.19790145317478
  0
CIRCLE
  8
_0-1_Layer1
  6
CONTINUOUS
 62
    3
 10
251.34180207717787
 20
293.19790145317478
 40
0.5
  0
LINE
  8
_0-1_Layer1
  6
CONTINUOUS
 62
    3
 10
256.34180207717787
 20
295.19790145317478
 11
256.34180207717787
 21
340.19790145317478
  0
LINE
  8
_0-1_Layer1
  6
CONTINUOUS
 62
    3
 10
266.34180207717787
 20
295.19790145317478
 11
266.34180207717787
 21
340.19790145317478
  0
LINE
  8
_0-1_Layer1
  6
CONTINUOUS
 62
    3
 10
322.34180207717787
 20
295.19790145317478
 11
322.34180207717787
 21
340.19790145317478
  0
LINE
  8
_0-1_Layer1
  6
CONTINUOUS
 62
    3
 10
332.34180207717787
 20
295.19790145317478
 11
332.34180207717787
 21
340.19790145317478
  0
LINE
  8
_0-1_Layer1
  6
CONTINUOUS
 62
    3
 10
394.34180207717787
 20
292.69790145317478
 11
393.34180207717787
 21
293.69790145317478
  0
LINE
  8
_0-1_Layer1
  6
CONTINUOUS
 62
    3
 10
393.34180207717787
 20
293.69790145317478
 11
393.34180207717787
 21
340.19790145317478
  0
LINE
  8
_0-1_Layer1
  6
CONTINUOUS
 62
    3
 10
394.34180207717787
 20
288.49790145317479
 11
394.34180207717787
 21
340.19790145317478
  0
LINE
  8
_0-1_Layer1
  6
CONTINUOUS
 62
    3
 10
522.31368707717786
 20
291.19790145317478
 11
522.31368707717786
 21
340.19790145317478
  0
ARC
  8
_0-1_Layer1
  6
CONTINUOUS
 62
    3
 10
519.61368707717781
 20
291.19790145317478
 40
2.7000000000005508
 50
270
 51
0
  0
LINE
  8
_0-1_Layer1
  6
CONTINUOUS
 62
    3
 10
519.61368707717781
 20
288.49790145317479
 11
408.61368707717787
 21
288.49790145317479
  0
LINE
  8
_0-1_Layer1
  6
CONTINUOUS
 62
    3
 10
519.61368707717781
 20
290.19790145317478
 11
408.61368707717787
 21
290.19790145317478
  0
ARC
  8
_0-1_Layer1
  6
CONTINUOUS
 62
    3
 10
519.61368707717781
 20
291.19790145317478
 40
0.9999999999968528
 50
270
 51
0
  0
LINE
  8
_0-1_Layer1
  6
CONTINUOUS
 62
    3
 10
520.61368707717781
 20
291.19790145317478
 11
520.61368707717781
 21
340.19790145317478
  0
LINE
  8
_0-1_Layer1
  6
CONTINUOUS
 62
    3
 10
515.61368707717781
 20
298.19790145317478
 11
515.61368707717781
 21
340.19790145317478
  0
LINE
  8
_0-1_Layer1
  6
CONTINUOUS
 62
    3
 10
408.61368707717787
 20
340.19790145317478
 11
408.61368707717787
 21
288.49790145317479
  0
LINE
  8
_0-1_Layer1
  6
CONTINUOUS
 62
    3
 10
409.61368707717787
 20
291.69790145317478
 11
417.61368707717787
 21
291.69790145317478
  0
LINE
  8
_0-1_Layer1
  6
CONTINUOUS
 62
    3
 10
418.61368707717787
 20
292.69790145317478
 11
418.61368707717787
 21
340.19790145317478
  0
LINE
  8
_0-1_Layer1
  6
CONTINUOUS
 62
    3
 10
418.61368707717787
 20
295.19790145317478
 11
512.61368707717781
 21
295.19790145317478
  0
ARC
  8
_0-1_Layer1
  6
CONTINUOUS
 62
    3
 10
512.61368707717781
 20
298.19790145317478
 40
3.0000000000014699
 50
270
 51
0
  0
LINE
  8
_0-1_Layer1
  6
CONTINUOUS
 62
    3
 10
516.84525607717785
 20
174.25085945317477
 11
523.98034507717773
 21
174.25085945317477
  0
ARC
  8
_0-1_Layer1
  6
CONTINUOUS
 62
    3
 10
523.98034507717773
 20
174.05085945317478
 40
0.1999999992416274
 50
18.434949
 51
90
  0
ARC
  8
_0-1_Layer1
  6
CONTINUOUS
 62
    3
 10
525.55695207717781
 20
171.85085945317479
 40
0.1999999994292983
 50
198.43494899999988
 51
269.99999999999994
  0
LINE
  8
_0-1_Layer1
  6
CONTINUOUS
 62
    3
 10
515.45838507717781
 20
171.78761345317477
 11
516.27604607717785
 21
174.24059545317468
  0
ARC
  8
_0-1_Layer1
  6
CONTINUOUS
 62
    3
 10
516.84525607717785
 20
174.05085945317478
 40
0.6000000000074005
 50
90
 51
161.56505100000001
  0
LINE
  8
_0-1_Layer1
  6
CONTINUOUS
 62
    3
 10
516.65551907717781
 20
174.11410445317478
 11
515.83785907717788
 21
171.66112245317478
  0
LINE
  8
_0-1_Layer1
  6
CONTINUOUS
 62
    3
 10
525.36721607717789
 20
171.78761345317477
 11
524.54955507717784
 21
174.24059545317468
  0
LINE
  8
_0-1_Layer1
  6
CONTINUOUS
 62
    3
 10
516.84525607717785
 20
174.65085945317477
 11
523.98034507717773
 21
174.65085945317477
  0
ARC
  8
_0-1_Layer1
  6
CONTINUOUS
 62
    3
 10
523.98034507717773
 20
174.05085945317478
 40
0.6000000004708764
 50
18.434949
 51
90
  0
LINE
  8
_0-1_Layer1
  6
CONTINUOUS
 62
    3
 10
524.17008207717777
 20
174.11410445317478
 11
524.98774207717781
 21
171.66112245317478
  0
LINE
  8
_0-1_Layer1
  6
CONTINUOUS
 62
    3
 10
551.41280107717785
 20
171.25085945317477
 11
525.55695207717781
 21
171.25085945317477
  0
ARC
  8
_0-1_Layer1
  6
CONTINUOUS
 62
    3
 10
525.55695207717781
 20
171.85085945317479
 40
0.6000000000837483
 50
198.43494899999988
 51
269.99999999999994
  0
LINE
  8
_0-1_Layer1
  6
CONTINUOUS
 62
    3
 10
525.55695207717781
 20
171.65085945317477
 11
579.26864907717788
 21
171.65085945317477
  0
LINE
  8
_0-1_Layer1
  6
CONTINUOUS
 62
    3
 10
580.27604607717774
 20
174.24059545317468
 11
579.45838507717781
 21
171.78761345317477
  0
ARC
  8
_0-1_Layer1
  6
CONTINUOUS
 62
    3
 10
579.26864907717788
 20
171.85085945317479
 40
0.199999999329896
 50
270
 51
341.56505099999998
  0
LINE
  8
_0-1_Layer1
  6
CONTINUOUS
 62
    3
 10
588.54955507717773
 20
174.24059545317468
 11
589.36721607717789
 21
171.78761345317477
  0
INSERT
  2
-013-DIM_13
  8
_0-1_Layer1
 10
717.16215307717789
 20
171.65085945317477
 41
1
 42
1
 50
0
  0
INSERT
  2
-014-DIM_14
  8
_0-1_Layer1
 10
758.41280107717773
 20
146.6508594531748
 41
1
 42
1
 50
0
  0
LINE
  8
_0-1_Layer1
  6
CONTINUOUS
 62
    3
 10
37.852476077177869
 20
290.19790145317478
 11
59.380602077177855
 21
290.19790145317478
  0
TEXT
  8
_0-1_Layer1
 62
    7
 10
420.14397107717775
 20
266.15169945317479
 40
6
 41
0.8582679999999999
 50
0
  1
（穴ピッチ３５０ｍｍ以内）
  0
LINE
  8
_0-1_Layer1
  6
CONTINUOUS
 62
    3
 10
452.96558707717776
 20
173.65085945317477
 11
453.41280107717779
 21
173.65085945317477
  0
ARC
  8
_0-1_Layer1
  6
CONTINUOUS
 62
    3
 10
456.98034507717784
 20
174.05085945317478
 40
0.1999999992347144
 50
18.434949
 51
90
  0
LINE
  8
_0-1_Layer1
  6
CONTINUOUS
 62
    3
 10
344.71280107717786
 20
143.6508594531748
 11
346.18296607717787
 21
146.24526945317479
  0
ARC
  8
_0-1_Layer1
  6
CONTINUOUS
 62
    3
 10
346.87898407717785
 20
145.85085945317479
 40
0.799999999866646
 50
90
 51
150.46121799999997
  0
LINE
  8
_0-1_Layer1
  6
CONTINUOUS
 62
    3
 10
409.61368707717787
 20
291.69790145317478
 11
408.61368707717787
 21
292.69790145317478
  0
LINE
  8
_0-1_Layer1
  6
CONTINUOUS
 62
    3
 10
418.61368707717787
 20
292.69790145317478
 11
417.61368707717787
 21
291.69790145317478
  0
ARC
  8
_0-1_Layer1
  6
CONTINUOUS
 62
    3
 10
397.51052307717788
 20
116.6508594531748
 40
54.600000000003263
 50
90
 51
146.719628
  0
ARC
  8
_0-1_Layer1
  6
CONTINUOUS
 62
    3
 10
351.19637807717788
 20
147.05085945317478
 40
0.8000000000887282
 50
270
 51
326.719628
  0
LINE
  8
_0-1_Layer1
  6
CONTINUOUS
 62
    3
 10
345.17255907717788
 20
143.6508594531748
 11
346.53097507717786
 21
146.04806445317479
  0
LINE
  8
_0-1_Layer1
  6
CONTINUOUS
 62
    3
 10
351.19637807717788
 20
146.25085945317477
 11
346.87898407717785
 21
146.25085945317477
  0
ARC
  8
_0-1_Layer1
  6
CONTINUOUS
 62
    3
 10
346.87898407717785
 20
145.85085945317479
 40
0.3999999996850688
 50
90
 51
150.46121799999997
  0
LINE
  8
_0-1_Layer1
  6
CONTINUOUS
 62
    3
 10
346.87898407717785
 20
146.6508594531748
 11
351.19637807717788
 21
146.6508594531748
  0
ARC
  8
_0-1_Layer1
  6
CONTINUOUS
 62
    3
 10
397.51052307717788
 20
116.6508594531748
 40
55.000000000001471
 50
90
 51
146.719628
  0
ARC
  8
_0-1_Layer1
  6
CONTINUOUS
 62
    3
 10
351.19637807717788
 20
147.05085945317478
 40
0.3999999999424691
 50
270
 51
326.719628
  0
ARC
  8
_0-1_Layer1
  6
CONTINUOUS
 62
    3
 10
458.55695207717775
 20
171.85085945317479
 40
0.1999999994786138
 50
198.43494899999988
 51
269.99999999999994
  0
LINE
  8
_0-1_Layer1
  6
CONTINUOUS
 62
    3
 10
449.16777107717786
 20
172.65085945317477
 11
449.65551907717776
 21
174.11410445317478
  0
LINE
  8
_0-1_Layer1
  6
CONTINUOUS
 62
    3
 10
456.98034507717784
 20
174.25085945317477
 11
449.84525607717785
 21
174.25085945317477
  0
ARC
  8
_0-1_Layer1
  6
CONTINUOUS
 62
    3
 10
449.84525607717785
 20
174.05085945317478
 40
0.1999999994618366
 50
90
 51
161.56505100000001
  0
LINE
  8
_0-1_Layer1
  6
CONTINUOUS
 62
    3
 10
452.96558707717776
 20
173.65085945317477
 11
452.02086607717786
 21
171.76141645317477
  0
ARC
  8
_0-1_Layer1
  6
CONTINUOUS
 62
    3
 10
451.84198007717788
 20
171.85085945317479
 40
0.2000000000166637
 50
270
 51
333.43494900000002
  0
LINE
  8
_0-1_Layer1
  6
CONTINUOUS
 62
    3
 10
551.41280107717785
 20
146.25085945317477
 11
351.19637807717788
 21
146.25085945317477
  0
LINE
  8
_0-1_Layer1
  6
CONTINUOUS
 62
    3
 10
344.71280107717786
 20
143.6508594531748
 11
345.17255907717788
 21
143.6508594531748
  0
LINE
  8
_0-1_Layer1
  6
CONTINUOUS
 62
    3
 10
457.17008207717788
 20
174.11410445317478
 11
457.98774207717787
 21
171.66112245317478
  0
ARC
  8
_0-1_Layer1
  6
CONTINUOUS
 62
    3
 10
458.55695207717775
 20
171.85085945317479
 40
0.599999999835702
 50
198.43494899999988
 51
269.99999999999994
  0
LINE
  8
_0-1_Layer1
  6
CONTINUOUS
 62
    3
 10
458.36721607717789
 20
171.78761345317477
 11
457.54955507717784
 21
174.24059545317468
  0
ARC
  8
_0-1_Layer1
  6
CONTINUOUS
 62
    3
 10
456.98034507717784
 20
174.05085945317478
 40
0.6000000000027903
 50
18.434949
 51
90
  0
LINE
  8
_0-1_Layer1
  6
CONTINUOUS
 62
    3
 10
448.74613407717789
 20
172.65085945317477
 11
449.27604607717785
 21
174.24059545317468
  0
LINE
  8
_0-1_Layer1
  6
CONTINUOUS
 62
    3
 10
456.98034507717784
 20
174.65085945317477
 11
449.84525607717785
 21
174.65085945317477
  0
ARC
  8
_0-1_Layer1
  6
CONTINUOUS
 62
    3
 10
449.84525607717785
 20
174.05085945317478
 40
0.5999999998675138
 50
90
 51
161.56505100000001
  0
LINE
  8
_0-1_Layer1
  6
CONTINUOUS
 62
    3
 10
453.41280107717779
 20
173.65085945317477
 11
452.37863607717776
 21
171.58253145317479
  0
ARC
  8
_0-1_Layer1
  6
CONTINUOUS
 62
    3
 10
451.84198007717788
 20
171.85085945317479
 40
0.6000000000290621
 50
270
 51
333.43494900000002
  0
LINE
  8
_0-1_Layer1
  6
CONTINUOUS
 62
    3
 10
516.70110407717789
 20
174.18949645317477
 11
516.70110407717789
 21
163.54195045317468
  0
LINE
  8
_0-1_Layer1
  6
CONTINUOUS
 62
    3
 10
524.12449707717781
 20
174.18949645317477
 11
524.12449707717781
 21
163.54195045317468
  0
LINE
  8
_0-1_Layer1
  6
CONTINUOUS
 62
    3
 10
525.12449707717781
 20
146.25085945317477
 11
525.12449707717781
 21
171.43494845317477
  0
LINE
  8
_0-1_Layer1
  6
CONTINUOUS
 62
    3
 10
515.70110407717789
 20
146.25085945317477
 11
515.70110407717789
 21
171.43494845317477
  0
LINE
  8
_0-1_Layer1
  6
CONTINUOUS
 62
    3
 10
397.51052307717788
 20
171.65085945317477
 11
451.84198007717788
 21
171.65085945317477
  0
LINE
  8
_0-1_Layer1
  6
CONTINUOUS
 62
    3
 10
397.51052307717788
 20
171.25085945317477
 11
451.84198007717788
 21
171.25085945317477
  0
LINE
  8
_0-1_Layer1
  6
CONTINUOUS
 62
    3
 10
458.55695207717775
 20
171.65085945317477
 11
515.26864907717788
 21
171.65085945317477
  0
LINE
  8
_0-1_Layer1
  6
CONTINUOUS
 62
    3
 10
515.26864907717788
 20
171.25085945317477
 11
458.55695207717775
 21
171.25085945317477
  0
INSERT
  2
-015-DIM_15
  8
_0-1_Layer1
 10
394.34180207717787
 20
393.89790145317477
 41
1
 42
1
 50
0
  0
LINE
  8
_0-1_Layer1
  6
CONTINUOUS
 62
    3
 10
393.34180207717787
 20
385.19790145317478
 11
199.34180207717787
 21
385.19790145317478
  0
LINE
  8
_0-1_Layer1
  6
CONTINUOUS
 62
    3
 10
394.34180207717787
 20
390.19790145317478
 11
189.34180207717787
 21
390.19790145317478
  0
LINE
  8
_0-1_Layer1
  6
CONTINUOUS
 62
    3
 10
394.34180207717787
 20
391.89790145317477
 11
189.34180207717787
 21
391.89790145317477
  0
LINE
  8
_0-1_Layer1
  6
CONTINUOUS
 62
    3
 10
256.34180207717787
 20
385.19790145317478
 11
256.34180207717787
 21
340.19790145317478
  0
LINE
  8
_0-1_Layer1
  6
CONTINUOUS
 62
    3
 10
266.34180207717787
 20
385.19790145317478
 11
266.34180207717787
 21
340.19790145317478
  0
LINE
  8
_0-1_Layer1
  6
PLine2
 62
    3
 10
327.34180207717787
 20
393.92959745317478
 11
327.34180207717787
 21
285.2716054531748
  0
LINE
  8
_0-1_Layer1
  6
PLine2
 62
    3
 10
261.34180207717787
 20
393.92959745317478
 11
261.34180207717787
 21
285.2716054531748
  0
LINE
  8
_0-1_Layer1
  6
CONTINUOUS
 62
    3
 10
522.31368707717786
 20
389.19790145317478
 11
522.31368707717786
 21
340.19790145317478
  0
LINE
  8
_0-1_Layer1
  6
CONTINUOUS
 62
    3
 10
520.61368707717781
 20
389.19790145317478
 11
520.61368707717781
 21
340.19790145317478
  0
INSERT
  2
-016-DIM_16
  8
_0-1_Layer1
 10
59.369917077177888
 20
385.19790145317478
 41
1
 42
1
 50
0
  0
LINE
  8
_0-1_Layer1
  6
PLine2
 62
    3
 10
413.61368707717787
 20
393.92959745317478
 11
413.61368707717787
 21
285.2716054531748
  0
LINE
  8
_0-1_Layer1
  6
CONTINUOUS
 62
    3
 10
322.34180207717787
 20
385.19790145317478
 11
322.34180207717787
 21
340.19790145317478
  0
LINE
  8
_0-1_Layer1
  6
CONTINUOUS
 62
    3
 10
332.34180207717787
 20
385.19790145317478
 11
332.34180207717787
 21
340.19790145317478
  0
LINE
  8
_0-1_Layer1
  6
CONTINUOUS
 62
    3
 10
394.34180207717787
 20
387.69790145317478
 11
393.34180207717787
 21
386.69790145317478
  0
LINE
  8
_0-1_Layer1
  6
CONTINUOUS
 62
    3
 10
393.34180207717787
 20
386.69790145317478
 11
393.34180207717787
 21
340.19790145317478
  0
LINE
  8
_0-1_Layer1
  6
CONTINUOUS
 62
    3
 10
394.34180207717787
 20
391.89790145317477
 11
394.34180207717787
 21
340.19790145317478
  0
LINE
  8
_0-1_Layer1
  6
CONTINUOUS
 62
    3
 10
515.61368707717781
 20
382.19790145317478
 11
515.61368707717781
 21
340.19790145317478
  0
LINE
  8
_0-1_Layer1
  6
CONTINUOUS
 62
    3
 10
408.61368707717787
 20
340.19790145317478
 11
408.61368707717787
 21
391.89790145317477
  0
LINE
  8
_0-1_Layer1
  6
CONTINUOUS
 62
    3
 10
409.61368707717787
 20
388.69790145317478
 11
417.61368707717787
 21
388.69790145317478
  0
LINE
  8
_0-1_Layer1
  6
CONTINUOUS
 62
    3
 10
418.61368707717787
 20
387.69790145317478
 11
418.61368707717787
 21
340.19790145317478
  0
LINE
  8
_0-1_Layer1
  6
CONTINUOUS
 62
    3
 10
517.61368707717781
 20
376.19790145317478
 11
517.61368707717781
 21
374.19790145317478
  0
LINE
  8
_0-1_Layer1
  6
CONTINUOUS
 62
    3
 10
518.61368707717793
 20
375.19790145317478
 11
516.61368707717781
 21
375.19790145317478
  0
CIRCLE
  8
_0-1_Layer1
  6
CONTINUOUS
 62
    3
 10
517.61368707717781
 20
375.19790145317478
 40
0.5
  0
LINE
  8
_0-1_Layer1
  6
CONTINUOUS
 62
    3
 10
381.34180207717787
 20
387.19790145317478
 11
379.34180207717787
 21
387.19790145317478
  0
LINE
  8
_0-1_Layer1
  6
CONTINUOUS
 62
    3
 10
380.34180207717787
 20
388.19790145317478
 11
380.34180207717787
 21
386.19790145317478
  0
CIRCLE
  8
_0-1_Layer1
  6
CONTINUOUS
 62
    3
 10
380.34180207717787
 20
387.19790145317478
 40
0.5
  0
LINE
  8
_0-1_Layer1
  6
CONTINUOUS
 62
    3
 10
338.34180207717787
 20
387.19790145317478
 11
336.34180207717787
 21
387.19790145317478
  0
LINE
  8
_0-1_Layer1
  6
CONTINUOUS
 62
    3
 10
337.34180207717787
 20
388.19790145317478
 11
337.34180207717787
 21
386.19790145317478
  0
CIRCLE
  8
_0-1_Layer1
  6
CONTINUOUS
 62
    3
 10
337.34180207717787
 20
387.19790145317478
 40
0.5
  0
LINE
  8
_0-1_Layer1
  6
CONTINUOUS
 62
    3
 10
318.34180207717787
 20
387.19790145317478
 11
316.34180207717787
 21
387.19790145317478
  0
LINE
  8
_0-1_Layer1
  6
CONTINUOUS
 62
    3
 10
317.34180207717787
 20
388.19790145317478
 11
317.34180207717787
 21
386.19790145317478
  0
CIRCLE
  8
_0-1_Layer1
  6
CONTINUOUS
 62
    3
 10
317.34180207717787
 20
387.19790145317478
 40
0.5
  0
LINE
  8
_0-1_Layer1
  6
CONTINUOUS
 62
    3
 10
272.34180207717787
 20
387.19790145317478
 11
270.34180207717787
 21
387.19790145317478
  0
LINE
  8
_0-1_Layer1
  6
CONTINUOUS
 62
    3
 10
271.34180207717787
 20
388.19790145317478
 11
271.34180207717787
 21
386.19790145317478
  0
CIRCLE
  8
_0-1_Layer1
  6
CONTINUOUS
 62
    3
 10
271.34180207717787
 20
387.19790145317478
 40
0.5
  0
LINE
  8
_0-1_Layer1
  6
CONTINUOUS
 62
    3
 10
252.34180207717787
 20
387.19790145317478
 11
250.34180207717787
 21
387.19790145317478
  0
LINE
  8
_0-1_Layer1
  6
CONTINUOUS
 62
    3
 10
251.34180207717787
 20
388.19790145317478
 11
251.34180207717787
 21
386.19790145317478
  0
CIRCLE
  8
_0-1_Layer1
  6
CONTINUOUS
 62
    3
 10
251.34180207717787
 20
387.19790145317478
 40
0.5
  0
LINE
  8
_0-1_Layer1
  6
CONTINUOUS
 62
    3
 10
423.61368707717776
 20
388.19790145317478
 11
423.61368707717776
 21
386.19790145317478
  0
LINE
  8
_0-1_Layer1
  6
CONTINUOUS
 62
    3
 10
424.61368707717776
 20
387.19790145317478
 11
422.61368707717787
 21
387.19790145317478
  0
CIRCLE
  8
_0-1_Layer1
  6
CONTINUOUS
 62
    3
 10
423.61368707717776
 20
387.19790145317478
 40
0.5
  0
LINE
  8
_0-1_Layer1
  6
CONTINUOUS
 62
    3
 10
458.61368707717787
 20
388.19790145317478
 11
458.61368707717787
 21
386.19790145317478
  0
LINE
  8
_0-1_Layer1
  6
CONTINUOUS
 62
    3
 10
459.61368707717787
 20
387.19790145317478
 11
457.61368707717776
 21
387.19790145317478
  0
CIRCLE
  8
_0-1_Layer1
  6
CONTINUOUS
 62
    3
 10
458.61368707717787
 20
387.19790145317478
 40
0.5
  0
INSERT
  2
-017-DIM_17
  8
_0-1_Layer1
 10
51.13244207717787
 20
385.19790145317478
 41
1
 42
1
 50
0
  0
INSERT
  2
-018-DIM_18
  8
_0-1_Layer1
 10
515.61368707717781
 20
411.22894545317479
 41
1
 42
1
 50
0
  0
ARC
  8
_0-1_Layer1
  6
CONTINUOUS
 62
    3
 10
519.61368707717781
 20
389.19790145317478
 40
2.6999999999822242
 50
0
 51
90
  0
LINE
  8
_0-1_Layer1
  6
CONTINUOUS
 62
    3
 10
519.61368707717781
 20
391.89790145317477
 11
408.61368707717787
 21
391.89790145317477
  0
LINE
  8
_0-1_Layer1
  6
CONTINUOUS
 62
    3
 10
519.61368707717781
 20
390.19790145317478
 11
408.61368707717787
 21
390.19790145317478
  0
ARC
  8
_0-1_Layer1
  6
CONTINUOUS
 62
    3
 10
519.61368707717781
 20
389.19790145317478
 40
1.0000000000232401
 50
0
 51
90
  0
LINE
  8
_0-1_Layer1
  6
CONTINUOUS
 62
    3
 10
37.852476077177869
 20
390.19790145317478
 11
59.449577077177878
 21
390.19790145317478
  0
LINE
  8
_0-1_Layer1
  6
CONTINUOUS
 62
    3
 10
520.61368707717781
 20
413.19764245317481
 11
520.61368707717781
 21
393.73228845317476
  0
LINE
  8
_0-1_Layer1
  6
CONTINUOUS
 62
    3
 10
493.61368707717787
 20
388.19790145317478
 11
493.61368707717787
 21
386.19790145317478
  0
LINE
  8
_0-1_Layer1
  6
CONTINUOUS
 62
    3
 10
494.61368707717776
 20
387.19790145317478
 11
492.61368707717787
 21
387.19790145317478
  0
INSERT
  2
-019-DIM_19
  8
_0-1_Layer1
 10
515.61368707717781
 20
393.89790145317477
 41
1
 42
1
 50
0
  0
LINE
  8
_0-1_Layer1
  6
CONTINUOUS
 62
    3
 10
409.61368707717787
 20
388.69790145317478
 11
408.61368707717787
 21
387.69790145317478
  0
LINE
  8
_0-1_Layer1
  6
CONTINUOUS
 62
    3
 10
418.61368707717787
 20
387.69790145317478
 11
417.61368707717787
 21
388.69790145317478
  0
CIRCLE
  8
_0-1_Layer1
  6
CONTINUOUS
 62
    3
 10
493.61368707717787
 20
387.19790145317478
 40
0.5
  0
LINE
  8
_0-1_Layer1
  6
CONTINUOUS
 62
    3
 10
418.61368707717787
 20
385.19790145317478
 11
512.61368707717781
 21
385.19790145317478
  0
ARC
  8
_0-1_Layer1
  6
CONTINUOUS
 62
    3
 10
512.61368707717781
 20
382.19790145317478
 40
3.0000000000090279
 50
0
 51
90
  0
TEXT
  8
_0-1_Layer1
 62
    7
 10
737.36040307717792
 20
41.073128453174775
 40
8
 41
0.8582679999999999
 50
0
  1
Ｈ－１２－Ｔ－５４
  0
LINE
  8
_0-1_Layer1
  6
CONTINUOUS
 62
    1
 10
528.75041507717788
 20
75.922926453174767
 11
528.75041507717788
 21
35.922926453174796
  0
LINE
  8
_0-1_Layer1
  6
CONTINUOUS
 62
    1
 10
528.75041507717788
 20
35.922926453174796
 11
822.75041507717788
 21
35.922926453174796
  0
LINE
  8
_0-1_Layer1
  6
CONTINUOUS
 62
    1
 10
822.75041507717788
 20
35.922926453174796
 11
822.75041507717788
 21
75.922926453174767
  0
LINE
  8
_0-1_Layer1
  6
CONTINUOUS
 62
    1
 10
822.75041507717788
 20
75.922926453174767
 11
528.75041507717788
 21
75.922926453174767
  0
LINE
  8
_0-1_Layer1
  6
CONTINUOUS
 62
    3
 10
652.75041507717788
 20
75.922926453174767
 11
652.75041507717788
 21
35.922926453174796
  0
LINE
  8
_0-1_Layer1
  6
CONTINUOUS
 62
    3
 10
672.75041507717788
 20
75.922926453174767
 11
672.75041507717788
 21
35.922926453174796
  0
LINE
  8
_0-1_Layer1
  6
CONTINUOUS
 62
    3
 10
692.75041507717788
 20
75.922926453174767
 11
692.75041507717788
 21
35.922926453174796
  0
LINE
  8
_0-1_Layer1
  6
CONTINUOUS
 62
    3
 10
712.75041507717776
 20
75.922926453174767
 11
712.75041507717776
 21
35.922926453174796
  0
LINE
  8
_0-1_Layer1
  6
CONTINUOUS
 62
    3
 10
652.75041507717788
 20
55.922926453174796
 11
822.75041507717788
 21
55.922926453174796
  0
TEXT
  8
_0-1_Layer1
 62
    7
 10
663.15595407717785
 20
71.270882453174778
 40
6
 41
0.8582679999999999
 50
0
  1
単位
  7
TATEGAKI
  0
TEXT
  8
_0-1_Layer1
 62
    7
 10
663.15595407717785
 20
51.388152453174769
 40
6
 41
0.8582679999999999
 50
0
  1
製図
  7
TATEGAKI
  0
TEXT
  8
_0-1_Layer1
 62
    7
 10
703.00182007717774
 20
71.843160453174789
 40
6
 41
0.8582679999999999
 50
0
  1
形名
  7
TATEGAKI
  0
TEXT
  8
_0-1_Layer1
 62
    7
 10
703.00182007717774
 20
51.095968453174777
 40
6
 41
0.8582679999999999
 50
0
  1
図番
  7
TATEGAKI
  0
TEXT
  8
_0-1_Layer1
 62
    7
 10
678.08513107717772
 20
58.477180453174782
 40
6
 41
0.8582679999999999
 50
0
  1
ｍｍ
  0
TEXT
  8
_0-1_Layer1
 62
    7
 10
714.12583207717796
 20
66.403830453174777
 40
7
 41
0.8582679999999999
 50
0
  1
サントップドーム　連続タイプ
  0
TEXT
  8
_0-1_Layer1
 62
    7
 10
555.28963107717789
 20
48.70343365103804
 40
14
 41
0.8582679999999999
 50
0
  1
三洋工業株式会社
  0
CIRCLE
  8
_0-1_Layer1
  6
CONTINUOUS
 62
    2
 10
542.73285407717788
 20
55.698113651038057
 40
7
  0
ARC
  8
_0-1_Layer1
  6
CONTINUOUS
 62
    2
 10
542.73285407717788
 20
55.698113651038057
 40
4.9999999998661258
 50
61.260205000000028
 51
118.73979500000002
  0
ARC
  8
_0-1_Layer1
  6
CONTINUOUS
 62
    2
 10
542.73285407717788
 20
55.698113651038057
 40
4.9999999999956284
 50
286.26020499999998
 51
28.739795000000012
  0
ARC
  8
_0-1_Layer1
  6
CONTINUOUS
 62
    2
 10
542.73285407717788
 20
55.698113651038057
 40
4.999999999996918
 50
151.26020500000004
 51
253.73979500000002
  0
LINE
  8
_0-1_Layer1
  6
CONTINUOUS
 62
    1
 10
532.76900807717789
 20
35.922926453174796
 11
652.76900807717777
 21
35.922926453174796
  0
CIRCLE
  8
_0-1_Layer1
  6
CONTINUOUS
 62
    2
 10
542.73285407717788
 20
55.698113651038057
 40
7.4000000000000901
  0
CIRCLE
  8
_0-1_Layer1
  6
CONTINUOUS
 62
    2
 10
542.73285407717788
 20
55.698113651038057
 40
6.6000000000001373
  0
ARC
  8
_0-1_Layer1
  6
CONTINUOUS
 62
    2
 10
542.73285407717788
 20
55.698113651038057
 40
5.3999999999988297
 50
150.02611400000001
 51
254.97388600000002
  0
ARC
  8
_0-1_Layer1
  6
CONTINUOUS
 62
    2
 10
542.73285407717788
 20
55.698113651038057
 40
4.6000000000014101
 50
152.718932
 51
252.28106800000003
  0
ARC
  8
_0-1_Layer1
  6
CONTINUOUS
 62
    2
 10
542.73285407717788
 20
55.698113651038057
 40
4.6000000000142958
 50
287.71893199999988
 51
27.281067999999944
  0
ARC
  8
_0-1_Layer1
  6
CONTINUOUS
 62
    2
 10
542.73285407717788
 20
55.698113651038057
 40
5.4000000000169921
 50
285.02611400000001
 51
29.973885999999965
  0
ARC
  8
_0-1_Layer1
  6
CONTINUOUS
 62
    2
 10
542.73285407717788
 20
55.698113651038057
 40
5.3999999999893191
 50
60.026114000000007
 51
119.97388599999999
  0
ARC
  8
_0-1_Layer1
  6
CONTINUOUS
 62
    2
 10
542.73285407717788
 20
55.698113651038057
 40
4.5999999999817014
 50
62.718932000000017
 51
117.28106799999991
  0
LINE
  8
_0-1_Layer1
  6
CONTINUOUS
 62
    2
 10
538.91447807717782
 20
59.516489651038057
 11
542.73285407717788
 21
55.698113651038057
  0
LINE
  8
_0-1_Layer1
  6
CONTINUOUS
 62
    2
 10
542.73285407717788
 20
55.698113651038057
 11
542.73285407717788
 21
50.298113651038051
  0
LINE
  8
_0-1_Layer1
  6
CONTINUOUS
 62
    2
 10
542.73285407717788
 20
55.698113651038057
 11
546.55123107717782
 21
59.516489651038057
  0
LINE
  8
_0-1_Layer1
  6
CONTINUOUS
 62
    2
 10
546.25789807717774
 20
59.788842651038038
 11
542.73285407717788
 21
56.26379865103803
  0
LINE
  8
_0-1_Layer1
  6
CONTINUOUS
 62
    2
 10
542.73285407717788
 20
56.26379865103803
 11
539.20781107717767
 21
59.788842651038038
  0
LINE
  8
_0-1_Layer1
  6
CONTINUOUS
 62
    2
 10
542.73285407717788
 20
63.698113651038028
 11
542.73285407717788
 21
62.298113651038051
  0
LINE
  8
_0-1_Layer1
  6
CONTINUOUS
 62
    2
 10
542.73285407717788
 20
63.698113651038028
 11
542.3328540771779
 21
62.285980651038017
  0
LINE
  8
_0-1_Layer1
  6
CONTINUOUS
 62
    2
 10
542.73285407717788
 20
63.698113651038028
 11
543.13285407717774
 21
62.285980651038017
  0
LINE
  8
_0-1_Layer1
  6
CONTINUOUS
 62
    2
 10
534.73285407717788
 20
55.698113651038057
 11
536.14498707717792
 21
56.098113651038034
  0
LINE
  8
_0-1_Layer1
  6
CONTINUOUS
 62
    2
 10
534.73285407717788
 20
55.698113651038057
 11
536.13285407717785
 21
55.698113651038057
  0
LINE
  8
_0-1_Layer1
  6
CONTINUOUS
 62
    2
 10
534.73285407717788
 20
55.698113651038057
 11
536.14498707717792
 21
55.298113651038051
  0
LINE
  8
_0-1_Layer1
  6
CONTINUOUS
 62
    2
 10
542.73285407717788
 20
47.698113651038057
 11
542.3328540771779
 21
49.110245651038042
  0
LINE
  8
_0-1_Layer1
  6
CONTINUOUS
 62
    2
 10
542.73285407717788
 20
47.698113651038057
 11
543.13285407717774
 21
49.110245651038042
  0
LINE
  8
_0-1_Layer1
  6
CONTINUOUS
 62
    2
 10
542.73285407717788
 20
47.698113651038057
 11
542.73285407717788
 21
49.098113651038034
  0
LINE
  8
_0-1_Layer1
  6
CONTINUOUS
 62
    2
 10
549.32072207717783
 20
56.098113651038034
 11
550.73285407717788
 21
55.698113651038057
  0
LINE
  8
_0-1_Layer1
  6
CONTINUOUS
 62
    2
 10
550.73285407717788
 20
55.698113651038057
 11
549.3328540771779
 21
55.698113651038057
  0
LINE
  8
_0-1_Layer1
  6
CONTINUOUS
 62
    2
 10
550.73285407717788
 20
55.698113651038057
 11
549.32072207717783
 21
55.298113651038051
  0
LINE
  8
_0-1_Layer1
  6
CONTINUOUS
 62
    2
 10
538.64212507717787
 20
59.223156651038039
 11
542.3328540771779
 21
55.532427651038034
  0
LINE
  8
_0-1_Layer1
  6
CONTINUOUS
 62
    2
 10
542.3328540771779
 20
55.532427651038034
 11
542.3328540771779
 21
50.312948651038027
  0
LINE
  8
_0-1_Layer1
  6
CONTINUOUS
 62
    2
 10
543.13285407717774
 20
50.312948651038027
 11
543.13285407717774
 21
55.532427651038034
  0
LINE
  8
_0-1_Layer1
  6
CONTINUOUS
 62
    2
 10
543.13285407717774
 20
55.532427651038034
 11
546.82358407717788
 21
59.223156651038039
  0
LINE
  8
_0-1_Layer1
  6
CONTINUOUS
 62
    1
 10
16.750415077177877
 20
35.922926453174796
 11
16.750415077177877
 21
599.9229264531748
  0
LINE
  8
_0-1_Layer1
  6
CONTINUOUS
 62
    1
 10
16.750415077177877
 20
35.922926453174796
 11
822.75041507717788
 21
35.922926453174796
  0
TEXT
  8
_0-1_Layer1
 62
    7
 10
714.28129207717791
 20
57.231705453174783
 40
7
 41
0.8582679999999999
 50
0
  1
Ｔ－ＡＣ型　アクリル樹脂製ドーム
  0
LINE
  8
_0-1_Layer1
  6
CONTINUOUS
 62
    7
 10
822.75041507717788
 20
35.922926453174796
 11
822.75041507717788
 21
599.9229264531748
  0
LINE
  8
_0-1_Layer1
  6
CONTINUOUS
 62
    7
 10
16.750415077177877
 20
599.9229264531748
 11
822.75041507717788
 21
599.9229264531748
  0
LINE
  8
_0-1_Layer1
  6
PLine2
 62
    3
 10
178.63660707717787
 20
178.41682445317477
 11
178.63660707717787
 21
97.171868453174795
  0
TEXT
  8
_0-1_Layer1
 62
    7
 10
818.84232307717787
 20
36.825337453174768
 40
3.0600000000000001
 41
0.8582679999999998
 50
0
  1
Ｋ
  0
INSERT
  2
-020-DIM_20
  8
_0-1_Layer1
 10
133.63660707717787
 20
156.48281645317479
 41
1
 42
1
 50
0
  0
ARC
  8
_0-1_Layer1
  6
CONTINUOUS
 62
    3
 10
178.63660707717787
 20
118.60487445317477
 40
53.024308323485627
 50
32.171410000000009
 51
147.82858999999999
  0
ARC
  8
_0-1_Layer1
  6
CONTINUOUS
 62
    3
 10
178.63660707717787
 20
118.60487445317477
 40
56.02430832348535
 50
37.113878999999997
 51
142.886121
  0
ARC
  8
_0-1_Layer1
  6
CONTINUOUS
 62
    3
 10
178.63660707717787
 20
118.60487445317477
 40
52.624308323485423
 50
90
 51
147.82858999999999
  0
ARC
  8
_0-1_Layer1
  6
CONTINUOUS
 62
    3
 10
133.4151230771779
 20
147.05085945317478
 40
0.399999999949886
 50
270
 51
327.82859000000002
  0
ARC
  8
_0-1_Layer1
  6
CONTINUOUS
 62
    3
 10
133.4151230771779
 20
147.05085945317478
 40
0.8000000000025059
 50
270
 51
327.82859000000002
  0
ARC
  8
_0-1_Layer1
  6
CONTINUOUS
 62
    3
 10
223.85809207717787
 20
147.05085945317478
 40
0.3999999999921052
 50
212.17140999999998
 51
270
  0
ARC
  8
_0-1_Layer1
  6
CONTINUOUS
 62
    3
 10
135.23660707717784
 20
151.44456545317479
 40
1.5999999999520691
 50
142.886121
 51
180
  0
ARC
  8
_0-1_Layer1
  6
CONTINUOUS
 62
    3
 10
222.03660707717788
 20
151.44456545317479
 40
1.6000000001076231
 50
0
 51
37.113878999999997
  0
INSERT
  2
-021-DIM_21
  8
_0-1_Layer1
 10
128.63660707717787
 20
148.27989945317478
 41
1
 42
1
 50
0
  0
INSERT
  2
-022-DIM_22
  8
_0-1_Layer1
 10
228.63660707717787
 20
148.27989945317478
 41
1
 42
1
 50
0
  0
LINE
  8
_0-1_Layer1
  6
CONTINUOUS
 62
    3
 10
133.63660707717787
 20
145.34015945317478
 11
133.63660707717787
 21
140.60145945317478
  0
LINE
  8
_0-1_Layer1
  6
CONTINUOUS
 62
    3
 10
133.63660707717787
 20
140.60145945317478
 11
134.33330707717789
 21
140.60145945317478
  0
LINE
  8
_0-1_Layer1
  6
CONTINUOUS
 62
    3
 10
136.63660707717787
 20
140.35145945317478
 11
136.63660707717787
 21
141.35145945317478
  0
LINE
  8
_0-1_Layer1
  6
CONTINUOUS
 62
    3
 10
133.63660707717787
 20
140.35145945317478
 11
136.63660707717787
 21
140.35145945317478
  0
LINE
  8
_0-1_Layer1
  6
CONTINUOUS
 62
    6
 10
178.63660707717787
 20
141.64825945317477
 11
134.83330707717789
 21
141.64825945317477
  0
LINE
  8
_0-1_Layer1
  6
CONTINUOUS
 62
    6
 10
134.33570707717786
 20
140.4982594531748
 11
134.33570707717786
 21
142.6508594531748
  0
LINE
  8
_0-1_Layer1
  6
CONTINUOUS
 62
    3
 10
133.43660707717788
 20
143.45145945317478
 11
133.43660707717788
 21
140.35145945317478
  0
LINE
  8
_0-1_Layer1
  6
CONTINUOUS
 62
    3
 10
134.33330707717789
 20
140.4982594531748
 11
134.33330707717789
 21
140.60145945317478
  0
LINE
  8
_0-1_Layer1
  6
CONTINUOUS
 62
    6
 10
135.0357070771779
 20
142.6508594531748
 11
135.0357070771779
 21
142.35085945317479
  0
LINE
  8
_0-1_Layer1
  6
CONTINUOUS
 62
    6
 10
136.63330707717785
 20
141.64825945317477
 11
136.63330707717785
 21
141.34825945317476
  0
LINE
  8
_0-1_Layer1
  6
CONTINUOUS
 62
    6
 10
134.63570707717787
 20
142.35085945317479
 11
135.0357070771779
 21
142.35085945317479
  0
LINE
  8
_0-1_Layer1
  6
CONTINUOUS
 62
    6
 10
134.63570707717787
 20
142.35085945317479
 11
134.63570707717787
 21
141.64825945317477
  0
LINE
  8
_0-1_Layer1
  6
CONTINUOUS
 62
    6
 10
135.0357070771779
 20
142.45085945317479
 11
134.93570707717788
 21
142.35085945317479
  0
LINE
  8
_0-1_Layer1
  6
CONTINUOUS
 62
    6
 10
134.83570707717786
 20
141.1508594531748
 11
135.93570707717788
 21
141.1508594531748
  0
LINE
  8
_0-1_Layer1
  6
CONTINUOUS
 62
    6
 10
134.93570707717788
 20
141.1508594531748
 11
135.43570707717788
 21
141.6508594531748
  0
LINE
  8
_0-1_Layer1
  6
CONTINUOUS
 62
    6
 10
136.0357070771779
 20
141.6508594531748
 11
135.5357070771779
 21
141.1508594531748
  0
LINE
  8
_0-1_Layer1
  6
CONTINUOUS
 62
    6
 10
136.63570707717787
 20
141.6508594531748
 11
135.93570707717788
 21
140.95085945317479
  0
LINE
  8
_0-1_Layer1
  6
CONTINUOUS
 62
    6
 10
136.07870707717785
 20
140.49385945317476
 11
136.48620707717782
 21
140.90135945317479
  0
LINE
  8
_0-1_Layer1
  6
CONTINUOUS
 62
    6
 10
135.93570707717788
 20
141.1508594531748
 11
135.93570707717788
 21
140.49385945317476
  0
LINE
  8
_0-1_Layer1
  6
CONTINUOUS
 62
    6
 10
134.83570707717786
 20
141.1508594531748
 11
134.83570707717786
 21
140.49885945317479
  0
LINE
  8
_0-1_Layer1
  6
CONTINUOUS
 62
    6
 10
135.93570707717788
 20
141.6508594531748
 11
136.33570707717786
 21
141.25085945317477
  0
LINE
  8
_0-1_Layer1
  6
CONTINUOUS
 62
    6
 10
135.33570707717786
 20
141.6508594531748
 11
135.83570707717786
 21
141.1508594531748
  0
LINE
  8
_0-1_Layer1
  6
CONTINUOUS
 62
    6
 10
134.73570707717784
 20
141.6508594531748
 11
135.23570707717784
 21
141.1508594531748
  0
LINE
  8
_0-1_Layer1
  6
CONTINUOUS
 62
    6
 10
135.93570707717788
 20
141.05085945317478
 11
136.48570707717784
 21
140.50085945317477
  0
LINE
  8
_0-1_Layer1
  6
CONTINUOUS
 62
    6
 10
136.63330707717785
 20
141.64825945317477
 11
134.63570707717787
 21
141.64825945317477
  0
LINE
  8
_0-1_Layer1
  6
CONTINUOUS
 62
    3
 10
135.63330707717785
 20
140.4982594531748
 11
136.48330707717787
 21
140.4982594531748
  0
LINE
  8
_0-1_Layer1
  6
CONTINUOUS
 62
    3
 10
136.33660707717786
 20
141.35145945317478
 11
136.63660707717787
 21
141.35145945317478
  0
LINE
  8
_0-1_Layer1
  6
CONTINUOUS
 62
    3
 10
136.33660707717786
 20
141.35145945317478
 11
136.33660707717786
 21
141.20145945317478
  0
LINE
  8
_0-1_Layer1
  6
CONTINUOUS
 62
    3
 10
136.33660707717786
 20
141.20145945317478
 11
136.48660707717784
 21
141.20145945317478
  0
LINE
  8
_0-1_Layer1
  6
CONTINUOUS
 62
    3
 10
136.48660707717784
 20
141.20145945317478
 11
136.48660707717784
 21
140.50145945317479
  0
LINE
  8
_0-1_Layer1
  6
CONTINUOUS
 62
    6
 10
134.83330707717789
 20
142.34825945317476
 11
134.83330707717789
 21
141.64825945317477
  0
LINE
  8
_0-1_Layer1
  6
CONTINUOUS
 62
    6
 10
135.0357070771779
 20
142.6508594531748
 11
134.33570707717786
 21
142.6508594531748
  0
LINE
  8
_0-1_Layer1
  6
CONTINUOUS
 62
    6
 10
134.33570707717786
 20
142.35085945317479
 11
134.63570707717787
 21
142.6508594531748
  0
LINE
  8
_0-1_Layer1
  6
CONTINUOUS
 62
    6
 10
134.63570707717787
 20
142.05085945317478
 11
134.33570707717786
 21
141.75085945317477
  0
LINE
  8
_0-1_Layer1
  6
CONTINUOUS
 62
    6
 10
134.33570707717786
 20
141.1508594531748
 11
134.83570707717786
 21
141.6508594531748
  0
LINE
  8
_0-1_Layer1
  6
CONTINUOUS
 62
    6
 10
134.33570707717786
 20
140.55085945317478
 11
134.83570707717786
 21
141.05085945317478
  0
LINE
  8
_0-1_Layer1
  6
CONTINUOUS
 62
    6
 10
134.63570707717787
 20
141.75085945317477
 11
134.33570707717786
 21
142.05085945317478
  0
LINE
  8
_0-1_Layer1
  6
CONTINUOUS
 62
    6
 10
134.63570707717787
 20
142.35085945317479
 11
134.33570707717786
 21
142.6508594531748
  0
LINE
  8
_0-1_Layer1
  6
CONTINUOUS
 62
    6
 10
134.33570707717786
 20
141.45085945317479
 11
134.83570707717786
 21
140.95085945317479
  0
LINE
  8
_0-1_Layer1
  6
CONTINUOUS
 62
    6
 10
134.33570707717786
 20
140.85085945317479
 11
134.69320707717787
 21
140.49335945317478
  0
LINE
  8
_0-1_Layer1
  6
CONTINUOUS
 62
    3
 10
134.33330707717789
 20
140.4982594531748
 11
135.63330707717785
 21
140.4982594531748
  0
LINE
  8
_0-1_Layer1
  6
CONTINUOUS
 62
    3
 10
129.63660707717787
 20
145.35145945317478
 11
129.63660707717787
 21
144.35145945317478
  0
LINE
  8
_0-1_Layer1
  6
CONTINUOUS
 62
    3
 10
129.63660707717787
 20
144.35145945317478
 11
129.83660707717786
 21
144.35145945317478
  0
LINE
  8
_0-1_Layer1
  6
CONTINUOUS
 62
    3
 10
129.83660707717786
 20
144.35145945317478
 11
129.83660707717786
 21
144.45145945317478
  0
LINE
  8
_0-1_Layer1
  6
CONTINUOUS
 62
    3
 10
129.83660707717786
 20
145.15145945317477
 11
132.93660707717788
 21
145.15145945317477
  0
LINE
  8
_0-1_Layer1
  6
CONTINUOUS
 62
    3
 10
129.83660707717786
 20
145.15145945317477
 11
129.83660707717786
 21
144.5514594531748
  0
LINE
  8
_0-1_Layer1
  6
CONTINUOUS
 62
    3
 10
129.83660707717786
 20
144.5514594531748
 11
130.13660707717787
 21
144.5514594531748
  0
LINE
  8
_0-1_Layer1
  6
CONTINUOUS
 62
    3
 10
130.13660707717787
 20
144.5514594531748
 11
130.13660707717787
 21
144.45145945317478
  0
LINE
  8
_0-1_Layer1
  6
CONTINUOUS
 62
    3
 10
130.13660707717787
 20
144.45145945317478
 11
129.83660707717786
 21
144.45145945317478
  0
LINE
  8
_0-1_Layer1
  6
CONTINUOUS
 62
    3
 10
132.93660707717788
 20
145.15145945317477
 11
133.43660707717788
 21
145.15145945317477
  0
LINE
  8
_0-1_Layer1
  6
CONTINUOUS
 62
    3
 10
133.43660707717788
 20
144.45145945317478
 11
133.43660707717788
 21
143.45145945317478
  0
LINE
  8
_0-1_Layer1
  6
CONTINUOUS
 62
    3
 10
133.13660707717787
 20
144.45145945317478
 11
133.43660707717788
 21
144.45145945317478
  0
LINE
  8
_0-1_Layer1
  6
CONTINUOUS
 62
    3
 10
133.13660707717787
 20
144.5514594531748
 11
133.13660707717787
 21
144.45145945317478
  0
LINE
  8
_0-1_Layer1
  6
CONTINUOUS
 62
    3
 10
133.13660707717787
 20
144.5514594531748
 11
133.43660707717788
 21
144.5514594531748
  0
LINE
  8
_0-1_Layer1
  6
CONTINUOUS
 62
    3
 10
133.43660707717788
 20
144.5514594531748
 11
133.43660707717788
 21
145.15145945317477
  0
LINE
  8
_0-1_Layer1
  6
CONTINUOUS
 62
    3
 10
129.63660707717787
 20
145.35145945317478
 11
133.63660707717787
 21
145.35145945317478
  0
LINE
  8
_0-1_Layer1
  6
CONTINUOUS
 62
    6
 10
178.63660707717787
 20
142.34825945317476
 11
134.83330707717789
 21
142.34825945317476
  0
LINE
  8
_0-1_Layer1
  6
CONTINUOUS
 62
    3
 10
178.63660707717787
 20
135.28272145317479
 11
233.83660707717786
 21
135.28272145317479
  0
LINE
  8
_0-1_Layer1
  6
CONTINUOUS
 62
    3
 10
133.43660707717788
 20
143.45145945317478
 11
133.43660707717788
 21
140.35066645317477
  0
LINE
  8
_0-1_Layer1
  6
CONTINUOUS
 62
    3
 10
178.63660707717787
 20
140.35066645317477
 11
223.83660707717786
 21
140.35066645317477
  0
LINE
  8
_0-1_Layer1
  6
CONTINUOUS
 62
    3
 10
133.63660707717787
 20
140.25145945317479
 11
133.63660707717787
 21
138.1336594531748
  0
LINE
  8
_0-1_Layer1
  6
CONTINUOUS
 62
    3
 10
133.63660707717787
 20
138.1336594531748
 11
132.43660707717788
 21
138.1336594531748
  0
LINE
  8
_0-1_Layer1
  6
CONTINUOUS
 62
    3
 10
133.36900707717786
 20
140.13545945317478
 11
126.68330707717786
 21
138.94105945317477
  0
LINE
  8
_0-1_Layer1
  6
CONTINUOUS
 62
    3
 10
126.87740707717785
 20
138.47675945317479
 11
133.03180707717786
 21
138.47675945317479
  0
LINE
  8
_0-1_Layer1
  6
CONTINUOUS
 62
    3
 10
126.84150707717788
 20
138.13055945317478
 11
127.95030707717785
 21
138.13055945317478
  0
LINE
  8
_0-1_Layer1
  6
CONTINUOUS
 62
    3
 10
126.98320707717789
 20
137.93305945317479
 11
128.0357070771779
 21
137.93305945317479
  0
LINE
  8
_0-1_Layer1
  6
CONTINUOUS
 62
    3
 10
127.36025807717783
 20
138.27675945317478
 11
133.03180707717786
 21
138.27675945317478
  0
ARC
  8
_0-1_Layer1
  6
CONTINUOUS
 62
    3
 10
132.53660707717791
 20
138.18365945317478
 40
0.0999999993899389
 50
111.40876299999999
 51
180
  0
LINE
  8
_0-1_Layer1
  6
CONTINUOUS
 62
    3
 10
133.63660707717787
 20
140.35145945317478
 11
133.63660707717787
 21
140.15145945317477
  0
LINE
  8
_0-1_Layer1
  6
CONTINUOUS
 62
    3
 10
133.63660707717787
 20
140.35145945317478
 11
133.63660707717787
 21
140.15145945317477
  0
ARC
  8
_0-1_Layer1
  6
CONTINUOUS
 62
    3
 10
133.38660707717787
 20
140.03705945317478
 40
0.1000000012073886
 50
0
 51
100.140792
  0
LINE
  8
_0-1_Layer1
  6
CONTINUOUS
 62
    3
 10
132.43660707717788
 20
138.18365945317478
 11
132.43660707717788
 21
138.1336594531748
  0
LINE
  8
_0-1_Layer1
  6
CONTINUOUS
 62
    3
 10
133.03180707717786
 20
138.47195945317478
 11
133.03180707717786
 21
138.27675945317478
  0
LINE
  8
_0-1_Layer1
  6
CONTINUOUS
 62
    3
 10
130.42360707717785
 20
136.36775945317478
 11
130.62520707717783
 21
136.36775945317478
  0
LINE
  8
_0-1_Layer1
  6
CONTINUOUS
 62
    3
 10
130.62550707717787
 20
136.36775945317478
 11
130.62550707717787
 21
138.26815945317477
  0
LINE
  8
_0-1_Layer1
  6
CONTINUOUS
 62
    3
 10
132.4409690771779
 20
138.13305945317478
 11
132.93570707717788
 21
138.13305945317478
  0
LINE
  8
_0-1_Layer1
  6
CONTINUOUS
 62
    3
 10
131.60920707717787
 20
138.25965945317478
 11
131.59380707717787
 21
138.27505945317478
  0
LINE
  8
_0-1_Layer1
  6
CONTINUOUS
 62
    3
 10
130.42550707717783
 20
136.36775945317478
 11
130.42550707717783
 21
138.27675945317478
  0
LINE
  8
_0-1_Layer1
  6
CONTINUOUS
 62
    3
 10
133.63660707717787
 20
138.1336594531748
 11
132.43660707717788
 21
138.1336594531748
  0
LINE
  8
_0-1_Layer1
  6
CONTINUOUS
 62
    3
 10
133.63660707717787
 20
140.0514594531748
 11
133.63660707717787
 21
138.1336594531748
  0
LINE
  8
_0-1_Layer1
  6
CONTINUOUS
 62
    3
 10
133.48660707717784
 20
138.27675945317478
 11
132.48596907717786
 21
138.27675945317478
  0
LINE
  8
_0-1_Layer1
  6
CONTINUOUS
 62
    3
 10
133.48660707717784
 20
140.03705945317478
 11
133.48660707717784
 21
138.27675945317478
  0
LINE
  8
_0-1_Layer1
  6
CONTINUOUS
 62
    3
 10
131.93570707717788
 20
137.93305945317479
 11
132.93100707717787
 21
137.93305945317479
  0
LINE
  8
_0-1_Layer1
  6
CONTINUOUS
 62
    3
 10
131.59200707717787
 20
138.27675945317478
 11
131.93570707717788
 21
137.93305945317479
  0
LINE
  8
_0-1_Layer1
  6
CONTINUOUS
 62
    3
 10
132.93100707717787
 20
138.1336594531748
 11
132.93100707717787
 21
137.93305945317479
  0
LINE
  8
_0-1_Layer1
  6
CONTINUOUS
 62
    3
 10
132.0357070771779
 20
138.13305945317478
 11
132.43882607717785
 21
138.13305945317478
  0
LINE
  8
_0-1_Layer1
  6
CONTINUOUS
 62
    3
 10
131.89210507717786
 20
138.27675945317478
 11
132.0357070771779
 21
138.13305945317478
  0
LINE
  8
_0-1_Layer1
  6
CONTINUOUS
 62
    3
 10
127.95030707717785
 20
138.13055945317478
 11
128.09420707717788
 21
138.27445945317479
  0
LINE
  8
_0-1_Layer1
  6
CONTINUOUS
 62
    3
 10
128.37710707717787
 20
138.27445945317479
 11
128.0357070771779
 21
137.93305945317479
  0
LINE
  8
_0-1_Layer1
  6
CONTINUOUS
 62
    3
 10
126.53330707717788
 20
138.91425945317479
 11
122.33020707717787
 21
138.16345945317477
  0
LINE
  8
_0-1_Layer1
  6
CONTINUOUS
 62
    3
 10
122.33020707717787
 20
138.16345945317477
 11
122.33020707717787
 21
137.04595945317479
  0
LINE
  8
_0-1_Layer1
  6
CONTINUOUS
 62
    3
 10
122.33020707717787
 20
137.04595945317479
 11
123.63660707717787
 21
137.04595945317479
  0
LINE
  8
_0-1_Layer1
  6
CONTINUOUS
 62
    3
 10
123.63660707717787
 20
137.04595945317479
 11
123.63660707717787
 21
135.34115945317478
  0
LINE
  8
_0-1_Layer1
  6
CONTINUOUS
 62
    3
 10
123.43660707717788
 20
136.84595945317477
 11
123.43660707717788
 21
135.34115945317478
  0
ARC
  8
_0-1_Layer1
  6
CONTINUOUS
 62
    3
 10
127.33330707717789
 20
138.18045945317476
 40
0.0999999998491352
 50
0
 51
90
  0
LINE
  8
_0-1_Layer1
  6
CONTINUOUS
 62
    3
 10
126.68330707717786
 20
138.28045945317479
 11
127.33330707717789
 21
138.28045945317479
  0
LINE
  8
_0-1_Layer1
  6
CONTINUOUS
 62
    3
 10
127.43330707717786
 20
138.18045945317476
 11
127.43330707717786
 21
138.13045945317478
  0
LINE
  8
_0-1_Layer1
  6
CONTINUOUS
 62
    3
 10
126.68330707717786
 20
138.64775945317479
 11
126.68330707717786
 21
138.94105945317477
  0
LINE
  8
_0-1_Layer1
  6
CONTINUOUS
 62
    3
 10
126.53330707717788
 20
138.66755945317479
 11
126.53330707717788
 21
138.91425945317479
  0
LINE
  8
_0-1_Layer1
  6
CONTINUOUS
 62
    3
 10
126.68330707717786
 20
138.28045945317479
 11
126.68330707717786
 21
138.74675945317477
  0
LINE
  8
_0-1_Layer1
  6
CONTINUOUS
 62
    3
 10
126.53330707717788
 20
138.7269594531748
 11
126.53330707717788
 21
138.13045945317478
  0
LINE
  8
_0-1_Layer1
  6
CONTINUOUS
 62
    3
 10
126.53330707717788
 20
138.13045945317478
 11
127.43330707717786
 21
138.13045945317478
  0
LINE
  8
_0-1_Layer1
  6
CONTINUOUS
 62
    3
 10
123.43660707717788
 20
135.34595945317477
 11
123.63660707717787
 21
135.34595945317477
  0
LINE
  8
_0-1_Layer1
  6
CONTINUOUS
 62
    3
 10
126.98320707717789
 20
138.12965945317478
 11
126.98320707717789
 21
137.93305945317479
  0
LINE
  8
_0-1_Layer1
  6
CONTINUOUS
 62
    3
 10
126.87740707717785
 20
138.47005945317477
 11
126.87740707717785
 21
138.28045945317479
  0
LINE
  8
_0-1_Layer1
  6
CONTINUOUS
 62
    3
 10
122.13660707717787
 20
136.84595945317477
 11
122.13660707717787
 21
138.3321024531748
  0
LINE
  8
_0-1_Layer1
  6
CONTINUOUS
 62
    3
 10
122.13660707717787
 20
136.84595945317477
 11
123.43660707717788
 21
136.84595945317477
  0
LINE
  8
_0-1_Layer1
  6
CONTINUOUS
 62
    3
 10
122.13660707717787
 20
138.3321024531748
 11
133.43660707717788
 21
140.35066645317477
  0
LINE
  8
_0-1_Layer1
  6
CONTINUOUS
 62
    3
 10
178.63660707717787
 20
138.33095945317478
 11
235.13660707717787
 21
138.33095945317478
  0
LINE
  8
_0-1_Layer1
  6
CONTINUOUS
 62
    3
 10
178.63660707717787
 20
136.84595945317477
 11
235.13660707717787
 21
136.84595945317477
  0
LINE
  8
_0-1_Layer1
  6
CONTINUOUS
 62
    3
 10
131.10620707717783
 20
144.55216945317477
 11
132.20620707717785
 21
144.55216945317477
  0
ARC
  8
_0-1_Layer1
  6
CONTINUOUS
 62
    3
 10
131.10620707717783
 20
144.71511945317479
 40
0.1629496310893188
 50
202.99633399999999
 51
337.00366600000001
  0
ARC
  8
_0-1_Layer1
  6
CONTINUOUS
 62
    3
 10
132.20620707717785
 20
144.71511945317479
 40
0.1629496311620214
 50
202.99633399999999
 51
337.00366600000001
  0
ARC
  8
_0-1_Layer1
  6
CONTINUOUS
 62
    3
 10
131.6562070771779
 20
145.40753745317477
 40
0.8553676257643586
 50
242.11909899999998
 51
297.88090099999999
  0
LINE
  8
_0-1_Layer1
  6
CONTINUOUS
 62
    3
 10
131.35440707717783
 20
142.95085945317479
 11
131.95480707717786
 21
142.95085945317479
  0
LINE
  8
_0-1_Layer1
  6
CONTINUOUS
 62
    3
 10
131.35620707717783
 20
144.55085945317478
 11
131.35620707717783
 21
142.95085945317479
  0
LINE
  8
_0-1_Layer1
  6
CONTINUOUS
 62
    3
 10
131.95620707717785
 20
144.55085945317478
 11
131.95620707717785
 21
142.95085945317479
  0
LINE
  8
_0-1_Layer1
  6
CONTINUOUS
 62
    3
 10
131.25170707717785
 20
143.05355945317478
 11
131.35440707717783
 21
142.95085945317479
  0
LINE
  8
_0-1_Layer1
  6
CONTINUOUS
 62
    3
 10
131.25170707717785
 20
144.54664745317478
 11
131.25170707717785
 21
143.05355945317478
  0
LINE
  8
_0-1_Layer1
  6
CONTINUOUS
 62
    3
 10
132.05620707717787
 20
143.05225945317477
 11
131.95480707717786
 21
142.95085945317479
  0
LINE
  8
_0-1_Layer1
  6
CONTINUOUS
 62
    3
 10
132.05620707717787
 20
144.55085945317478
 11
132.05620707717787
 21
143.05225945317477
  0
LINE
  8
_0-1_Layer1
  6
CONTINUOUS
 62
    3
 10
131.25170707717785
 20
143.05355945317478
 11
132.05620707717787
 21
143.05355945317478
  0
LINE
  8
_0-1_Layer1
  6
CONTINUOUS
 62
    3
 10
130.95620707717785
 20
144.65145945317477
 11
130.95620707717785
 21
145.15145945317477
  0
LINE
  8
_0-1_Layer1
  6
CONTINUOUS
 62
    3
 10
132.35620707717783
 20
144.65145945317477
 11
132.35620707717783
 21
145.1508594531748
  0
LINE
  8
_0-1_Layer1
  6
CONTINUOUS
 62
    3
 10
132.05620707717787
 20
144.65145945317477
 11
132.05620707717787
 21
145.1508594531748
  0
LINE
  8
_0-1_Layer1
  6
CONTINUOUS
 62
    3
 10
131.25620707717786
 20
144.65145945317477
 11
131.25620707717786
 21
145.15145945317477
  0
LINE
  8
_0-1_Layer1
  6
PLine2
 62
    3
 10
131.63570707717787
 20
147.98959345317479
 11
131.63570707717787
 21
142.55025945317479
  0
LINE
  8
_0-1_Layer1
  6
CONTINUOUS
 62
    6
 10
132.63570707717787
 20
145.93005945317478
 11
132.05710707717787
 21
145.35145945317478
  0
LINE
  8
_0-1_Layer1
  6
CONTINUOUS
 62
    3
 10
130.95620707717785
 20
147.45025945317479
 11
130.95620707717785
 21
146.95025945317479
  0
LINE
  8
_0-1_Layer1
  6
CONTINUOUS
 62
    3
 10
132.35620707717783
 20
147.45025945317479
 11
132.35620707717783
 21
146.95085945317479
  0
LINE
  8
_0-1_Layer1
  6
CONTINUOUS
 62
    3
 10
132.05620707717787
 20
147.45025945317479
 11
132.05620707717787
 21
146.95085945317479
  0
LINE
  8
_0-1_Layer1
  6
CONTINUOUS
 62
    6
 10
130.1571070771779
 20
146.68615945317478
 11
133.1571070771779
 21
146.68615945317478
  0
LINE
  8
_0-1_Layer1
  6
CONTINUOUS
 62
    6
 10
130.1571070771779
 20
146.71435945317478
 11
133.1571070771779
 21
146.71435945317478
  0
LINE
  8
_0-1_Layer1
  6
CONTINUOUS
 62
    6
 10
133.15470707717787
 20
146.74255945317478
 11
130.1571070771779
 21
146.74255945317478
  0
LINE
  8
_0-1_Layer1
  6
CONTINUOUS
 62
    6
 10
130.1571070771779
 20
146.77075945317478
 11
133.1571070771779
 21
146.77075945317478
  0
LINE
  8
_0-1_Layer1
  6
CONTINUOUS
 62
    6
 10
130.95710707717785
 20
145.35145945317478
 11
131.85650707717787
 21
146.25085945317477
  0
LINE
  8
_0-1_Layer1
  6
CONTINUOUS
 62
    6
 10
132.05710707717787
 20
145.35145945317478
 11
131.15770707717786
 21
146.25085945317477
  0
LINE
  8
_0-1_Layer1
  6
CONTINUOUS
 62
    6
 10
130.63570707717787
 20
145.93005945317478
 11
130.95650707717789
 21
146.25085945317477
  0
LINE
  8
_0-1_Layer1
  6
CONTINUOUS
 62
    6
 10
130.63570707717787
 20
145.57285945317477
 11
130.85710707717783
 21
145.35145945317478
  0
LINE
  8
_0-1_Layer1
  6
CONTINUOUS
 62
    6
 10
130.63570707717787
 20
145.47285945317478
 11
130.75710707717786
 21
145.35145945317478
  0
LINE
  8
_0-1_Layer1
  6
CONTINUOUS
 62
    6
 10
132.63570707717787
 20
145.97285945317478
 11
132.35770707717791
 21
146.25085945317477
  0
LINE
  8
_0-1_Layer1
  6
CONTINUOUS
 62
    6
 10
132.63570707717787
 20
145.87285945317478
 11
132.25770707717788
 21
146.25085945317477
  0
LINE
  8
_0-1_Layer1
  6
CONTINUOUS
 62
    6
 10
131.05710707717787
 20
145.35145945317478
 11
131.95650707717789
 21
146.25085945317477
  0
LINE
  8
_0-1_Layer1
  6
CONTINUOUS
 62
    6
 10
130.63570707717787
 20
146.03005945317477
 11
130.85650707717787
 21
146.25085945317477
  0
LINE
  8
_0-1_Layer1
  6
CONTINUOUS
 62
    6
 10
132.63570707717787
 20
145.35145945317478
 11
132.63570707717787
 21
146.25085945317477
  0
LINE
  8
_0-1_Layer1
  6
CONTINUOUS
 62
    6
 10
132.63570707717787
 20
146.03005945317477
 11
131.95710707717785
 21
145.35145945317478
  0
LINE
  8
_0-1_Layer1
  6
CONTINUOUS
 62
    6
 10
131.05770707717784
 20
146.25085945317477
 11
131.95710707717785
 21
145.35145945317478
  0
LINE
  8
_0-1_Layer1
  6
CONTINUOUS
 62
    6
 10
130.63570707717787
 20
145.35145945317478
 11
130.63570707717787
 21
146.25085945317477
  0
LINE
  8
_0-1_Layer1
  6
CONTINUOUS
 62
    6
 10
130.1571070771779
 20
146.6508594531748
 11
130.1571070771779
 21
146.80085945317478
  0
LINE
  8
_0-1_Layer1
  6
CONTINUOUS
 62
    6
 10
130.1571070771779
 20
146.80085945317478
 11
133.1571070771779
 21
146.80085945317478
  0
LINE
  8
_0-1_Layer1
  6
CONTINUOUS
 62
    6
 10
133.1571070771779
 20
146.80085945317478
 11
133.1571070771779
 21
146.6508594531748
  0
LINE
  8
_0-1_Layer1
  6
CONTINUOUS
 62
    3
 10
131.25620707717786
 20
147.45025945317479
 11
131.25620707717786
 21
146.95025945317479
  0
LINE
  8
_0-1_Layer1
  6
CONTINUOUS
 62
    3
 10
130.1571070771779
 20
146.80085945317478
 11
130.1571070771779
 21
146.95085945317479
  0
LINE
  8
_0-1_Layer1
  6
CONTINUOUS
 62
    3
 10
130.1571070771779
 20
146.95085945317479
 11
133.1571070771779
 21
146.95085945317479
  0
LINE
  8
_0-1_Layer1
  6
CONTINUOUS
 62
    3
 10
133.1571070771779
 20
146.95085945317479
 11
133.1571070771779
 21
146.80085945317478
  0
LINE
  8
_0-1_Layer1
  6
CONTINUOUS
 62
    3
 10
131.10620707717783
 20
147.54954945317479
 11
132.20620707717785
 21
147.54954945317479
  0
ARC
  8
_0-1_Layer1
  6
CONTINUOUS
 62
    3
 10
131.10620707717783
 20
147.38659945317477
 40
0.1629496307988063
 50
22.996333999999997
 51
157.0036659999999
  0
ARC
  8
_0-1_Layer1
  6
CONTINUOUS
 62
    3
 10
132.20620707717785
 20
147.38659945317477
 40
0.1629496306862421
 50
22.996333999999997
 51
157.0036659999999
  0
ARC
  8
_0-1_Layer1
  6
CONTINUOUS
 62
    3
 10
131.6562070771779
 20
146.69418145317479
 40
0.8553676257771201
 50
62.119099000000013
 51
117.88090099999999
  0
LINE
  8
_0-1_Layer1
  6
PLine2
 62
    3
 10
225.63750707717787
 20
148.25085945317477
 11
225.63750707717787
 21
145.90302945317478
  0
LINE
  8
_0-1_Layer1
  6
CONTINUOUS
 62
    3
 10
226.31700707717786
 20
147.45025945317479
 11
226.31700707717786
 21
146.95025945317479
  0
LINE
  8
_0-1_Layer1
  6
CONTINUOUS
 62
    3
 10
224.91700707717786
 20
147.45025945317479
 11
224.91700707717786
 21
146.95085945317479
  0
LINE
  8
_0-1_Layer1
  6
CONTINUOUS
 62
    3
 10
225.21700707717787
 20
147.45025945317479
 11
225.21700707717787
 21
146.95085945317479
  0
LINE
  8
_0-1_Layer1
  6
CONTINUOUS
 62
    6
 10
227.11610707717787
 20
146.68615945317478
 11
224.11610707717787
 21
146.68615945317478
  0
LINE
  8
_0-1_Layer1
  6
CONTINUOUS
 62
    6
 10
227.11610707717787
 20
146.71435945317478
 11
224.11610707717787
 21
146.71435945317478
  0
LINE
  8
_0-1_Layer1
  6
CONTINUOUS
 62
    6
 10
224.11850707717787
 20
146.74255945317478
 11
227.11610707717787
 21
146.74255945317478
  0
LINE
  8
_0-1_Layer1
  6
CONTINUOUS
 62
    6
 10
227.11610707717787
 20
146.77075945317478
 11
224.11610707717787
 21
146.77075945317478
  0
LINE
  8
_0-1_Layer1
  6
CONTINUOUS
 62
    6
 10
227.11610707717787
 20
146.6508594531748
 11
227.11610707717787
 21
146.80085945317478
  0
LINE
  8
_0-1_Layer1
  6
CONTINUOUS
 62
    6
 10
227.11610707717787
 20
146.80085945317478
 11
224.11610707717787
 21
146.80085945317478
  0
LINE
  8
_0-1_Layer1
  6
CONTINUOUS
 62
    6
 10
224.11610707717787
 20
146.80085945317478
 11
224.11610707717787
 21
146.6508594531748
  0
LINE
  8
_0-1_Layer1
  6
CONTINUOUS
 62
    3
 10
226.01700707717788
 20
147.45025945317479
 11
226.01700707717788
 21
146.95025945317479
  0
LINE
  8
_0-1_Layer1
  6
CONTINUOUS
 62
    3
 10
227.11610707717787
 20
146.80085945317478
 11
227.11610707717787
 21
146.95085945317479
  0
LINE
  8
_0-1_Layer1
  6
CONTINUOUS
 62
    3
 10
227.11610707717787
 20
146.95085945317479
 11
224.11610707717787
 21
146.95085945317479
  0
LINE
  8
_0-1_Layer1
  6
CONTINUOUS
 62
    3
 10
224.11610707717787
 20
146.95085945317479
 11
224.11610707717787
 21
146.80085945317478
  0
LINE
  8
_0-1_Layer1
  6
CONTINUOUS
 62
    3
 10
226.16700707717786
 20
147.54954945317479
 11
225.06700707717786
 21
147.54954945317479
  0
ARC
  8
_0-1_Layer1
  6
CONTINUOUS
 62
    3
 10
226.16700707717786
 20
147.38659945317477
 40
0.1629496305540384
 50
22.996333999999997
 51
157.00366700000004
  0
ARC
  8
_0-1_Layer1
  6
CONTINUOUS
 62
    3
 10
225.06700707717786
 20
147.38659945317477
 40
0.1629496310221582
 50
22.996333999999997
 51
157.0036659999999
  0
ARC
  8
_0-1_Layer1
  6
CONTINUOUS
 62
    3
 10
225.61700707717787
 20
146.69418145317479
 40
0.8553676254738603
 50
62.119099000000013
 51
117.88090099999999
  0
LINE
  8
_0-1_Layer1
  6
CONTINUOUS
 62
    3
 10
233.83660707717786
 20
136.84595945317477
 11
233.83660707717786
 21
135.28272145317479
  0
LINE
  8
_0-1_Layer1
  6
CONTINUOUS
 62
    3
 10
179.31610707717786
 20
147.45025945317479
 11
179.31610707717786
 21
146.95025945317479
  0
LINE
  8
_0-1_Layer1
  6
CONTINUOUS
 62
    6
 10
180.11520707717787
 20
146.6508594531748
 11
180.11520707717787
 21
146.80085945317478
  0
LINE
  8
_0-1_Layer1
  6
CONTINUOUS
 62
    3
 10
179.01610707717788
 20
147.45025945317479
 11
179.01610707717788
 21
146.95025945317479
  0
LINE
  8
_0-1_Layer1
  6
CONTINUOUS
 62
    3
 10
180.11520707717787
 20
146.80085945317478
 11
180.11520707717787
 21
146.95085945317479
  0
ARC
  8
_0-1_Layer1
  6
CONTINUOUS
 62
    3
 10
179.16610707717786
 20
147.38659945317477
 40
0.1629496304931308
 50
22.996333999999997
 51
157.00366700000004
  0
LINE
  8
_0-1_Layer1
  6
CONTINUOUS
 62
    6
 10
180.11520707717787
 20
146.68615945317478
 11
178.63660707717787
 21
146.68615945317478
  0
LINE
  8
_0-1_Layer1
  6
CONTINUOUS
 62
    6
 10
180.11520707717787
 20
146.71435945317478
 11
178.63660707717787
 21
146.71435945317478
  0
LINE
  8
_0-1_Layer1
  6
CONTINUOUS
 62
    6
 10
178.63660707717787
 20
146.74255945317478
 11
180.11520707717787
 21
146.74255945317478
  0
LINE
  8
_0-1_Layer1
  6
CONTINUOUS
 62
    6
 10
180.11520707717787
 20
146.77075945317478
 11
178.63660707717787
 21
146.77075945317478
  0
LINE
  8
_0-1_Layer1
  6
CONTINUOUS
 62
    6
 10
180.11520707717787
 20
146.80085945317478
 11
178.63660707717787
 21
146.80085945317478
  0
LINE
  8
_0-1_Layer1
  6
CONTINUOUS
 62
    3
 10
180.11520707717787
 20
146.95085945317479
 11
178.63660707717787
 21
146.95085945317479
  0
ARC
  8
_0-1_Layer1
  6
CONTINUOUS
 62
    3
 10
178.61610707717787
 20
146.69418145317479
 40
0.8553676256662754
 50
62.119099000000013
 51
88.626699999999985
  0
LINE
  8
_0-1_Layer1
  6
CONTINUOUS
 62
    3
 10
179.16610707717786
 20
147.54954945317479
 11
178.63660707717787
 21
147.54954945317479
  0
INSERT
  2
-023-DIM_23
  8
_0-1_Layer1
 10
133.63660707717787
 20
134.21792045317477
 41
1
 42
1
 50
0
  0
INSERT
  2
-024-DIM_24
  8
_0-1_Layer1
 10
123.63660707717787
 20
133.9895454531748
 41
1
 42
1
 50
0
  0
LINE
  8
_0-1_Layer1
  6
CONTINUOUS
 62
    3
 10
126.85023107717785
 20
140.99414545317478
 11
128.28324407717787
 21
139.51209445317477
  0
LINE
  8
_0-1_Layer1
  6
CONTINUOUS
 62
    3
 10
128.28324407717787
 20
139.51209445317477
 11
103.94498507717788
 21
181.66719545317477
  0
LINE
  8
_0-1_Layer1
  6
CONTINUOUS
 62
    3
 10
103.94498507717788
 20
181.66719545317477
 11
31.850497077177863
 21
181.66719545317477
  0
TEXT
  8
_0-1_Layer1
 62
    7
 10
19.491413877177877
 20
182.66719545317477
 40
6
 41
0.8582679999999999
 50
-0.0000000000000112
  1
トップライトフレーム　アルミ
  0
LINE
  8
_0-1_Layer1
  6
CONTINUOUS
 62
    3
 10
449.16777107717786
 20
172.65085945317477
 11
448.74613407717789
 21
172.65085945317477
  0
LINE
  8
_0-1_Layer1
  6
CONTINUOUS
 62
    6
 10
449.70110407717789
 20
171.65085945317477
 11
451.96558707717787
 21
174.25085945317477
  0
LINE
  8
_0-1_Layer1
  6
CONTINUOUS
 62
    6
 10
449.70110407717789
 20
174.18949645317477
 11
449.70110407717789
 21
171.65085945317477
  0
LINE
  8
_0-1_Layer1
  6
CONTINUOUS
 62
    6
 10
451.94215907717785
 20
171.67775745317479
 11
449.73182807717785
 21
174.21558345317479
  0
LINE
  8
_0-1_Layer1
  6
CONTINUOUS
 62
    6
 10
451.96558707717787
 20
174.25085945317477
 11
451.96558707717787
 21
171.69362945317479
  0
LINE
  8
_0-1_Layer1
  6
PLine2
 62
    3
 10
551.41280107717785
 20
175.79499845317477
 11
551.41280107717785
 21
96.744832453174752
  0
LINE
  8
_0-1_Layer1
  6
CONTINUOUS
 62
    3
 10
589.41280107717785
 20
171.65085945317477
 11
589.41280107717785
 21
146.6508594531748
  0
LINE
  8
_0-1_Layer1
  6
CONTINUOUS
 62
    3
 10
579.41280107717773
 20
171.65085945317477
 11
579.41280107717773
 21
146.6508594531748
  0
LINE
  8
_0-1_Layer1
  6
CONTINUOUS
 62
    3
 10
588.41280107717785
 20
174.46677045317477
 11
588.41280107717785
 21
146.6508594531748
  0
LINE
  8
_0-1_Layer1
  6
CONTINUOUS
 62
    3
 10
580.41280107717785
 20
174.46677045317477
 11
580.41280107717785
 21
146.6508594531748
  0
LINE
  8
_0-1_Layer1
  6
CONTINUOUS
 62
    3
 10
646.41280107717785
 20
171.65085945317477
 11
646.41280107717785
 21
146.6508594531748
  0
LINE
  8
_0-1_Layer1
  6
CONTINUOUS
 62
    3
 10
647.41280107717785
 20
174.46677045317477
 11
647.41280107717785
 21
146.6508594531748
  0
LINE
  8
_0-1_Layer1
  6
CONTINUOUS
 62
    3
 10
655.41280107717785
 20
174.46677045317477
 11
655.41280107717785
 21
146.6508594531748
  0
INSERT
  2
-025-DIM_25
  8
_0-1_Layer1
 10
346.41280107717785
 20
147.17405945317478
 41
1
 42
1
 50
0
  0
LINE
  8
_0-1_Layer1
  6
CONTINUOUS
 62
    4
 10
354.41280107717785
 20
141.35145945317478
 11
448.41280107717779
 21
141.35145945317478
  0
LINE
  8
_0-1_Layer1
  6
CONTINUOUS
 62
    4
 10
454.41280107717779
 20
141.34825945317476
 11
548.41280107717773
 21
141.34825945317476
  0
LINE
  8
_0-1_Layer1
  6
CONTINUOUS
 62
    6
 10
452.41280107717779
 20
141.34825945317476
 11
452.06280107717788
 21
141.34825945317476
  0
LINE
  8
_0-1_Layer1
  6
CONTINUOUS
 62
    6
 10
452.41280107717779
 20
141.34825945317476
 11
452.41280107717779
 21
140.64825945317477
  0
LINE
  8
_0-1_Layer1
  6
CONTINUOUS
 62
    6
 10
452.06280107717788
 20
141.34825945317476
 11
452.06280107717788
 21
141.84825945317476
  0
LINE
  8
_0-1_Layer1
  6
CONTINUOUS
 62
    6
 10
452.06280107717788
 20
141.84825945317476
 11
452.36280107717789
 21
141.84825945317476
  0
LINE
  8
_0-1_Layer1
  6
CONTINUOUS
 62
    6
 10
452.36280107717789
 20
141.84825945317476
 11
452.36280107717789
 21
141.64825945317477
  0
LINE
  8
_0-1_Layer1
  6
CONTINUOUS
 62
    6
 10
452.36280107717789
 20
141.64825945317477
 11
454.26280107717787
 21
141.64825945317477
  0
LINE
  8
_0-1_Layer1
  6
CONTINUOUS
 62
    6
 10
450.41280107717785
 20
141.34825945317476
 11
450.76280107717787
 21
141.34825945317476
  0
LINE
  8
_0-1_Layer1
  6
CONTINUOUS
 62
    6
 10
450.41280107717785
 20
141.34825945317476
 11
450.41280107717785
 21
140.64825945317477
  0
LINE
  8
_0-1_Layer1
  6
CONTINUOUS
 62
    6
 10
450.76280107717787
 20
141.34825945317476
 11
450.76280107717787
 21
141.84825945317476
  0
LINE
  8
_0-1_Layer1
  6
CONTINUOUS
 62
    6
 10
450.76280107717787
 20
141.84825945317476
 11
450.46280107717786
 21
141.84825945317476
  0
LINE
  8
_0-1_Layer1
  6
CONTINUOUS
 62
    6
 10
450.46280107717786
 20
141.84825945317476
 11
450.46280107717786
 21
141.64825945317477
  0
LINE
  8
_0-1_Layer1
  6
CONTINUOUS
 62
    6
 10
450.46280107717786
 20
141.64825945317477
 11
448.56280107717777
 21
141.64825945317477
  0
LINE
  8
_0-1_Layer1
  6
CONTINUOUS
 62
    3
 10
367.04005407717784
 20
140.91426845317477
 11
365.60704107717788
 21
142.39631845317479
  0
LINE
  8
_0-1_Layer1
  6
CONTINUOUS
 62
    3
 10
365.60704107717788
 20
142.39631845317479
 11
378.92413707717776
 21
119.33043145317481
  0
LINE
  8
_0-1_Layer1
  6
CONTINUOUS
 62
    3
 10
378.92413707717776
 20
119.33043145317481
 11
451.01862507717789
 21
119.33043145317481
  0
TEXT
  8
_0-1_Layer1
 62
    7
 10
362.44536747717785
 20
120.33043145317478
 40
6
 41
0.8582679999999999
 50
0
  1
ｔ＝６．８網入型板硝子（別途）
  0
LINE
  8
_0-1_Layer1
  6
CONTINUOUS
 62
    3
 10
351.41280107717785
 20
145.34015945317478
 11
351.41280107717785
 21
140.60145945317478
  0
LINE
  8
_0-1_Layer1
  6
CONTINUOUS
 62
    3
 10
351.41280107717785
 20
140.60145945317478
 11
352.10950107717787
 21
140.60145945317478
  0
LINE
  8
_0-1_Layer1
  6
CONTINUOUS
 62
    3
 10
354.41280107717785
 20
140.35145945317478
 11
354.41280107717785
 21
141.35145945317478
  0
LINE
  8
_0-1_Layer1
  6
CONTINUOUS
 62
    3
 10
351.41280107717785
 20
140.35145945317478
 11
354.41280107717785
 21
140.35145945317478
  0
LINE
  8
_0-1_Layer1
  6
CONTINUOUS
 62
    6
 10
352.11190107717789
 20
140.4982594531748
 11
352.11190107717789
 21
142.6508594531748
  0
LINE
  8
_0-1_Layer1
  6
CONTINUOUS
 62
    3
 10
351.21280107717786
 20
143.45145945317478
 11
351.21280107717786
 21
140.35145945317478
  0
LINE
  8
_0-1_Layer1
  6
CONTINUOUS
 62
    6
 10
352.81190107717788
 20
142.6508594531748
 11
352.81190107717788
 21
142.35085945317479
  0
LINE
  8
_0-1_Layer1
  6
CONTINUOUS
 62
    6
 10
354.40950107717788
 20
141.64825945317477
 11
354.40950107717788
 21
141.34825945317476
  0
LINE
  8
_0-1_Layer1
  6
CONTINUOUS
 62
    6
 10
352.41190107717784
 20
142.35085945317479
 11
352.81190107717788
 21
142.35085945317479
  0
LINE
  8
_0-1_Layer1
  6
CONTINUOUS
 62
    6
 10
352.41190107717784
 20
142.35085945317479
 11
352.41190107717784
 21
141.64825945317477
  0
LINE
  8
_0-1_Layer1
  6
CONTINUOUS
 62
    6
 10
352.81190107717788
 20
142.45085945317479
 11
352.71190107717786
 21
142.35085945317479
  0
LINE
  8
_0-1_Layer1
  6
CONTINUOUS
 62
    6
 10
352.61190107717789
 20
141.1508594531748
 11
353.71190107717786
 21
141.1508594531748
  0
LINE
  8
_0-1_Layer1
  6
CONTINUOUS
 62
    6
 10
352.71190107717786
 20
141.1508594531748
 11
353.21190107717786
 21
141.6508594531748
  0
LINE
  8
_0-1_Layer1
  6
CONTINUOUS
 62
    6
 10
353.81190107717788
 20
141.6508594531748
 11
353.31190107717788
 21
141.1508594531748
  0
LINE
  8
_0-1_Layer1
  6
CONTINUOUS
 62
    6
 10
352.61190107717789
 20
141.1508594531748
 11
352.61190107717789
 21
140.49885945317479
  0
LINE
  8
_0-1_Layer1
  6
CONTINUOUS
 62
    6
 10
353.71190107717786
 20
141.6508594531748
 11
354.11190107717789
 21
141.25085945317477
  0
LINE
  8
_0-1_Layer1
  6
CONTINUOUS
 62
    6
 10
353.11190107717789
 20
141.6508594531748
 11
353.61190107717778
 21
141.1508594531748
  0
LINE
  8
_0-1_Layer1
  6
CONTINUOUS
 62
    6
 10
352.51190107717787
 20
141.6508594531748
 11
353.01190107717787
 21
141.1508594531748
  0
LINE
  8
_0-1_Layer1
  6
CONTINUOUS
 62
    6
 10
353.71190107717786
 20
141.05085945317478
 11
354.26190107717787
 21
140.50085945317477
  0
LINE
  8
_0-1_Layer1
  6
CONTINUOUS
 62
    3
 10
352.63090107717784
 20
142.34825945317476
 11
356.43090107717785
 21
142.34825945317476
  0
LINE
  8
_0-1_Layer1
  6
CONTINUOUS
 62
    6
 10
354.40950107717788
 20
141.64825945317477
 11
352.41190107717784
 21
141.64825945317477
  0
LINE
  8
_0-1_Layer1
  6
CONTINUOUS
 62
    3
 10
354.11280107717789
 20
141.35145945317478
 11
354.11280107717789
 21
141.20145945317478
  0
LINE
  8
_0-1_Layer1
  6
CONTINUOUS
 62
    3
 10
354.11280107717789
 20
141.20145945317478
 11
354.26280107717787
 21
141.20145945317478
  0
LINE
  8
_0-1_Layer1
  6
CONTINUOUS
 62
    6
 10
352.60950107717787
 20
142.34825945317476
 11
352.60950107717787
 21
141.64825945317477
  0
LINE
  8
_0-1_Layer1
  6
CONTINUOUS
 62
    6
 10
352.81190107717788
 20
142.6508594531748
 11
352.11190107717789
 21
142.6508594531748
  0
LINE
  8
_0-1_Layer1
  6
CONTINUOUS
 62
    6
 10
352.11190107717789
 20
142.35085945317479
 11
352.41190107717784
 21
142.6508594531748
  0
LINE
  8
_0-1_Layer1
  6
CONTINUOUS
 62
    6
 10
352.41190107717784
 20
142.05085945317478
 11
352.11190107717789
 21
141.75085945317477
  0
LINE
  8
_0-1_Layer1
  6
CONTINUOUS
 62
    6
 10
352.11190107717789
 20
141.1508594531748
 11
352.61190107717789
 21
141.6508594531748
  0
LINE
  8
_0-1_Layer1
  6
CONTINUOUS
 62
    6
 10
352.11190107717789
 20
140.55085945317478
 11
352.61190107717789
 21
141.05085945317478
  0
LINE
  8
_0-1_Layer1
  6
CONTINUOUS
 62
    6
 10
352.41190107717784
 20
141.75085945317477
 11
352.11190107717789
 21
142.05085945317478
  0
LINE
  8
_0-1_Layer1
  6
CONTINUOUS
 62
    6
 10
352.41190107717784
 20
142.35085945317479
 11
352.11190107717789
 21
142.6508594531748
  0
LINE
  8
_0-1_Layer1
  6
CONTINUOUS
 62
    6
 10
352.11190107717789
 20
141.45085945317479
 11
352.61190107717789
 21
140.95085945317479
  0
LINE
  8
_0-1_Layer1
  6
CONTINUOUS
 62
    6
 10
352.11190107717789
 20
140.85085945317479
 11
352.46940107717785
 21
140.49335945317478
  0
LINE
  8
_0-1_Layer1
  6
CONTINUOUS
 62
    3
 10
347.41280107717785
 20
145.35145945317478
 11
347.41280107717785
 21
144.35145945317478
  0
LINE
  8
_0-1_Layer1
  6
CONTINUOUS
 62
    3
 10
347.41280107717785
 20
144.35145945317478
 11
347.61280107717789
 21
144.35145945317478
  0
LINE
  8
_0-1_Layer1
  6
CONTINUOUS
 62
    3
 10
347.61280107717789
 20
144.35145945317478
 11
347.61280107717789
 21
144.45145945317478
  0
LINE
  8
_0-1_Layer1
  6
CONTINUOUS
 62
    3
 10
347.61280107717789
 20
145.15145945317477
 11
350.71280107717786
 21
145.15145945317477
  0
LINE
  8
_0-1_Layer1
  6
CONTINUOUS
 62
    3
 10
347.61280107717789
 20
145.15145945317477
 11
347.61280107717789
 21
144.5514594531748
  0
LINE
  8
_0-1_Layer1
  6
CONTINUOUS
 62
    3
 10
347.61280107717789
 20
144.5514594531748
 11
347.91280107717785
 21
144.5514594531748
  0
LINE
  8
_0-1_Layer1
  6
CONTINUOUS
 62
    3
 10
347.91280107717785
 20
144.5514594531748
 11
347.91280107717785
 21
144.45145945317478
  0
LINE
  8
_0-1_Layer1
  6
CONTINUOUS
 62
    3
 10
347.91280107717785
 20
144.45145945317478
 11
347.61280107717789
 21
144.45145945317478
  0
LINE
  8
_0-1_Layer1
  6
CONTINUOUS
 62
    3
 10
350.71280107717786
 20
145.15145945317477
 11
351.21280107717786
 21
145.15145945317477
  0
LINE
  8
_0-1_Layer1
  6
CONTINUOUS
 62
    3
 10
351.21280107717786
 20
144.45145945317478
 11
351.21280107717786
 21
143.45145945317478
  0
LINE
  8
_0-1_Layer1
  6
CONTINUOUS
 62
    3
 10
350.91280107717785
 20
144.45145945317478
 11
351.21280107717786
 21
144.45145945317478
  0
LINE
  8
_0-1_Layer1
  6
CONTINUOUS
 62
    3
 10
350.91280107717785
 20
144.5514594531748
 11
350.91280107717785
 21
144.45145945317478
  0
LINE
  8
_0-1_Layer1
  6
CONTINUOUS
 62
    3
 10
350.91280107717785
 20
144.5514594531748
 11
351.21280107717786
 21
144.5514594531748
  0
LINE
  8
_0-1_Layer1
  6
CONTINUOUS
 62
    3
 10
351.21280107717786
 20
144.5514594531748
 11
351.21280107717786
 21
145.15145945317477
  0
LINE
  8
_0-1_Layer1
  6
CONTINUOUS
 62
    3
 10
351.21280107717786
 20
143.45145945317478
 11
351.21280107717786
 21
140.35145945317478
  0
LINE
  8
_0-1_Layer1
  6
CONTINUOUS
 62
    3
 10
347.41280107717785
 20
145.35145945317478
 11
351.41280107717785
 21
145.35145945317478
  0
LINE
  8
_0-1_Layer1
  6
PLine2
 62
    3
 10
349.41190107717784
 20
148.25085945317477
 11
349.41190107717784
 21
142.38682045317478
  0
LINE
  8
_0-1_Layer1
  6
CONTINUOUS
 62
    6
 10
352.60950107717787
 20
142.34825945317476
 11
450.21280107717774
 21
142.34825945317476
  0
LINE
  8
_0-1_Layer1
  6
CONTINUOUS
 62
    6
 10
352.60950107717787
 20
141.64825945317477
 11
450.21280107717774
 21
141.64825945317477
  0
LINE
  8
_0-1_Layer1
  6
CONTINUOUS
 62
    6
 10
354.40930107717787
 20
141.64825945317477
 11
353.71190107717786
 21
140.95085945317479
  0
LINE
  8
_0-1_Layer1
  6
CONTINUOUS
 62
    3
 10
354.11280107717789
 20
141.35145945317478
 11
354.41280107717785
 21
141.35145945317478
  0
LINE
  8
_0-1_Layer1
  6
CONTINUOUS
 62
    3
 10
354.26280107717787
 20
141.20145945317478
 11
354.26280107717787
 21
140.4982594531748
  0
LINE
  8
_0-1_Layer1
  6
CONTINUOUS
 62
    6
 10
353.85930107717786
 20
140.4982594531748
 11
354.26240107717786
 21
140.90135945317479
  0
LINE
  8
_0-1_Layer1
  6
CONTINUOUS
 62
    6
 10
353.71190107717786
 20
141.1508594531748
 11
353.71190107717786
 21
140.4982594531748
  0
LINE
  8
_0-1_Layer1
  6
CONTINUOUS
 62
    3
 10
352.10950107717787
 20
140.4982594531748
 11
352.10950107717787
 21
140.60145945317478
  0
LINE
  8
_0-1_Layer1
  6
CONTINUOUS
 62
    3
 10
354.26280107717787
 20
140.4982594531748
 11
352.10950107717787
 21
140.4982594531748
  0
LINE
  8
_0-1_Layer1
  6
CONTINUOUS
 62
    6
 10
452.61280107717778
 20
142.34825945317476
 11
550.21280107717791
 21
142.34825945317476
  0
LINE
  8
_0-1_Layer1
  6
CONTINUOUS
 62
    6
 10
452.61280107717778
 20
141.64825945317477
 11
550.46280107717791
 21
141.64825945317477
  0
LINE
  8
_0-1_Layer1
  6
CONTINUOUS
 62
    3
 10
351.41280107717785
 20
140.25145945317479
 11
351.41280107717785
 21
138.1336594531748
  0
LINE
  8
_0-1_Layer1
  6
CONTINUOUS
 62
    3
 10
351.41280107717785
 20
138.1336594531748
 11
350.21280107717786
 21
138.1336594531748
  0
LINE
  8
_0-1_Layer1
  6
CONTINUOUS
 62
    3
 10
351.14520107717777
 20
140.13545945317478
 11
344.45950107717789
 21
138.94105945317477
  0
LINE
  8
_0-1_Layer1
  6
CONTINUOUS
 62
    3
 10
344.65360107717788
 20
138.47675945317479
 11
350.80800107717789
 21
138.47675945317479
  0
LINE
  8
_0-1_Layer1
  6
CONTINUOUS
 62
    3
 10
344.61770107717786
 20
138.13055945317478
 11
345.72650107717789
 21
138.13055945317478
  0
LINE
  8
_0-1_Layer1
  6
CONTINUOUS
 62
    3
 10
344.75940107717787
 20
137.93305945317479
 11
345.81190107717788
 21
137.93305945317479
  0
LINE
  8
_0-1_Layer1
  6
CONTINUOUS
 62
    3
 10
345.13645107717787
 20
138.27675945317478
 11
350.80800107717789
 21
138.27675945317478
  0
ARC
  8
_0-1_Layer1
  6
CONTINUOUS
 62
    3
 10
350.31280107717788
 20
138.18365945317478
 40
0.0999999996310387
 50
111.40876299999999
 51
180
  0
LINE
  8
_0-1_Layer1
  6
CONTINUOUS
 62
    3
 10
351.41280107717785
 20
140.35145945317478
 11
351.41280107717785
 21
140.15145945317477
  0
LINE
  8
_0-1_Layer1
  6
CONTINUOUS
 62
    3
 10
351.41280107717785
 20
140.35145945317478
 11
351.41280107717785
 21
140.15145945317477
  0
ARC
  8
_0-1_Layer1
  6
CONTINUOUS
 62
    3
 10
351.16280107717785
 20
140.03705945317478
 40
0.1000000002457766
 50
0
 51
100.14079300000002
  0
LINE
  8
_0-1_Layer1
  6
CONTINUOUS
 62
    3
 10
350.21280107717786
 20
138.18365945317478
 11
350.21280107717786
 21
138.1336594531748
  0
LINE
  8
_0-1_Layer1
  6
CONTINUOUS
 62
    3
 10
350.80800107717789
 20
138.47195945317478
 11
350.80800107717789
 21
138.27675945317478
  0
LINE
  8
_0-1_Layer1
  6
CONTINUOUS
 62
    3
 10
348.19980107717788
 20
136.36775945317478
 11
348.40140107717787
 21
136.36775945317478
  0
LINE
  8
_0-1_Layer1
  6
CONTINUOUS
 62
    3
 10
348.40170107717785
 20
136.36775945317478
 11
348.40170107717785
 21
138.26815945317477
  0
LINE
  8
_0-1_Layer1
  6
CONTINUOUS
 62
    3
 10
350.21716207717787
 20
138.13305945317478
 11
350.71190107717786
 21
138.13305945317478
  0
LINE
  8
_0-1_Layer1
  6
CONTINUOUS
 62
    3
 10
349.38540107717785
 20
138.25965945317478
 11
349.37000107717785
 21
138.27505945317478
  0
LINE
  8
_0-1_Layer1
  6
CONTINUOUS
 62
    3
 10
348.20170107717786
 20
136.36775945317478
 11
348.20170107717786
 21
138.27675945317478
  0
LINE
  8
_0-1_Layer1
  6
CONTINUOUS
 62
    3
 10
351.41280107717785
 20
138.1336594531748
 11
350.21280107717786
 21
138.1336594531748
  0
LINE
  8
_0-1_Layer1
  6
CONTINUOUS
 62
    3
 10
351.41280107717785
 20
140.0514594531748
 11
351.41280107717785
 21
138.1336594531748
  0
LINE
  8
_0-1_Layer1
  6
CONTINUOUS
 62
    3
 10
351.26280107717787
 20
138.27675945317478
 11
350.26216207717789
 21
138.27675945317478
  0
LINE
  8
_0-1_Layer1
  6
CONTINUOUS
 62
    3
 10
351.26280107717787
 20
140.03705945317478
 11
351.26280107717787
 21
138.27675945317478
  0
LINE
  8
_0-1_Layer1
  6
CONTINUOUS
 62
    3
 10
349.71190107717786
 20
137.93305945317479
 11
350.70720107717784
 21
137.93305945317479
  0
LINE
  8
_0-1_Layer1
  6
CONTINUOUS
 62
    3
 10
349.36820107717784
 20
138.27675945317478
 11
349.71190107717786
 21
137.93305945317479
  0
LINE
  8
_0-1_Layer1
  6
CONTINUOUS
 62
    3
 10
350.70720107717784
 20
138.1336594531748
 11
350.70720107717784
 21
137.93305945317479
  0
LINE
  8
_0-1_Layer1
  6
CONTINUOUS
 62
    3
 10
349.81190107717788
 20
138.13305945317478
 11
350.21501907717789
 21
138.13305945317478
  0
LINE
  8
_0-1_Layer1
  6
CONTINUOUS
 62
    3
 10
349.66829807717789
 20
138.27675945317478
 11
349.81190107717788
 21
138.13305945317478
  0
LINE
  8
_0-1_Layer1
  6
CONTINUOUS
 62
    3
 10
345.72650107717789
 20
138.13055945317478
 11
345.87040107717786
 21
138.27445945317479
  0
LINE
  8
_0-1_Layer1
  6
CONTINUOUS
 62
    3
 10
346.15330107717784
 20
138.27445945317479
 11
345.81190107717788
 21
137.93305945317479
  0
LINE
  8
_0-1_Layer1
  6
CONTINUOUS
 62
    3
 10
344.30950107717786
 20
138.91425945317479
 11
340.10640107717785
 21
138.16345945317477
  0
LINE
  8
_0-1_Layer1
  6
CONTINUOUS
 62
    3
 10
340.10640107717785
 20
138.16345945317477
 11
340.10640107717785
 21
137.04595945317479
  0
LINE
  8
_0-1_Layer1
  6
CONTINUOUS
 62
    3
 10
340.10640107717785
 20
137.04595945317479
 11
341.41280107717785
 21
137.04595945317479
  0
LINE
  8
_0-1_Layer1
  6
CONTINUOUS
 62
    3
 10
341.41280107717785
 20
137.04595945317479
 11
341.41280107717785
 21
135.34115945317478
  0
LINE
  8
_0-1_Layer1
  6
CONTINUOUS
 62
    3
 10
341.21280107717786
 20
136.84595945317477
 11
341.21280107717786
 21
135.34115945317478
  0
ARC
  8
_0-1_Layer1
  6
CONTINUOUS
 62
    3
 10
345.10950107717787
 20
138.18045945317476
 40
0.1000000013927798
 50
0
 51
90
  0
LINE
  8
_0-1_Layer1
  6
CONTINUOUS
 62
    3
 10
344.45950107717789
 20
138.28045945317479
 11
345.10950107717787
 21
138.28045945317479
  0
LINE
  8
_0-1_Layer1
  6
CONTINUOUS
 62
    3
 10
345.20950107717789
 20
138.18045945317476
 11
345.20950107717789
 21
138.13045945317478
  0
LINE
  8
_0-1_Layer1
  6
CONTINUOUS
 62
    3
 10
344.45950107717789
 20
138.64775945317479
 11
344.45950107717789
 21
138.94105945317477
  0
LINE
  8
_0-1_Layer1
  6
CONTINUOUS
 62
    3
 10
344.30950107717786
 20
138.66755945317479
 11
344.30950107717786
 21
138.91425945317479
  0
LINE
  8
_0-1_Layer1
  6
CONTINUOUS
 62
    3
 10
344.45950107717789
 20
138.28045945317479
 11
344.45950107717789
 21
138.74675945317477
  0
LINE
  8
_0-1_Layer1
  6
CONTINUOUS
 62
    3
 10
344.30950107717786
 20
138.7269594531748
 11
344.30950107717786
 21
138.13045945317478
  0
LINE
  8
_0-1_Layer1
  6
CONTINUOUS
 62
    3
 10
344.30950107717786
 20
138.13045945317478
 11
345.20950107717789
 21
138.13045945317478
  0
LINE
  8
_0-1_Layer1
  6
CONTINUOUS
 62
    3
 10
341.21280107717786
 20
135.34595945317477
 11
341.41280107717785
 21
135.34595945317477
  0
LINE
  8
_0-1_Layer1
  6
CONTINUOUS
 62
    3
 10
344.75940107717787
 20
138.12965945317478
 11
344.75940107717787
 21
137.93305945317479
  0
LINE
  8
_0-1_Layer1
  6
CONTINUOUS
 62
    3
 10
344.65360107717788
 20
138.47005945317477
 11
344.65360107717788
 21
138.28045945317479
  0
LINE
  8
_0-1_Layer1
  6
CONTINUOUS
 62
    3
 10
351.21220107717784
 20
140.35055945317478
 11
339.91280107717785
 21
138.3321024531748
  0
LINE
  8
_0-1_Layer1
  6
CONTINUOUS
 62
    3
 10
339.91280107717785
 20
136.84595945317477
 11
339.91280107717785
 21
138.3321024531748
  0
LINE
  8
_0-1_Layer1
  6
CONTINUOUS
 62
    3
 10
339.91280107717785
 20
136.84595945317477
 11
341.21280107717786
 21
136.84595945317477
  0
LINE
  8
_0-1_Layer1
  6
CONTINUOUS
 62
    3
 10
348.88240107717786
 20
144.55216945317477
 11
349.98240107717788
 21
144.55216945317477
  0
ARC
  8
_0-1_Layer1
  6
CONTINUOUS
 62
    3
 10
348.88240107717786
 20
144.71511945317479
 40
0.1629496312777405
 50
202.99633399999999
 51
337.00366600000001
  0
ARC
  8
_0-1_Layer1
  6
CONTINUOUS
 62
    3
 10
349.98240107717788
 20
144.71511945317479
 40
0.1629496308378577
 50
202.99633399999999
 51
337.00366600000001
  0
ARC
  8
_0-1_Layer1
  6
CONTINUOUS
 62
    3
 10
349.43240107717787
 20
145.40753745317477
 40
0.8553676255423994
 50
242.11909899999998
 51
297.88090099999999
  0
LINE
  8
_0-1_Layer1
  6
CONTINUOUS
 62
    3
 10
349.13060107717786
 20
142.85145945317478
 11
349.73100107717789
 21
142.85145945317478
  0
LINE
  8
_0-1_Layer1
  6
CONTINUOUS
 62
    3
 10
349.13240107717786
 20
144.55085945317478
 11
349.13240107717786
 21
142.85145945317478
  0
LINE
  8
_0-1_Layer1
  6
CONTINUOUS
 62
    3
 10
349.73240107717788
 20
144.55085945317478
 11
349.73240107717788
 21
142.85145945317478
  0
LINE
  8
_0-1_Layer1
  6
CONTINUOUS
 62
    3
 10
349.02790107717789
 20
142.95415945317478
 11
349.13060107717786
 21
142.85145945317478
  0
LINE
  8
_0-1_Layer1
  6
CONTINUOUS
 62
    3
 10
349.02790107717789
 20
144.54664745317478
 11
349.02790107717789
 21
142.95415945317478
  0
LINE
  8
_0-1_Layer1
  6
CONTINUOUS
 62
    3
 10
349.83240107717785
 20
142.95285945317477
 11
349.73100107717789
 21
142.85145945317478
  0
LINE
  8
_0-1_Layer1
  6
CONTINUOUS
 62
    3
 10
349.83240107717785
 20
144.55085945317478
 11
349.83240107717785
 21
142.95285945317477
  0
LINE
  8
_0-1_Layer1
  6
CONTINUOUS
 62
    3
 10
349.02790107717789
 20
142.95415945317478
 11
349.83240107717785
 21
142.95415945317478
  0
LINE
  8
_0-1_Layer1
  6
CONTINUOUS
 62
    3
 10
348.73240107717788
 20
144.65145945317477
 11
348.73240107717788
 21
145.15145945317477
  0
LINE
  8
_0-1_Layer1
  6
CONTINUOUS
 62
    3
 10
350.13240107717786
 20
144.65145945317477
 11
350.13240107717786
 21
145.1508594531748
  0
LINE
  8
_0-1_Layer1
  6
CONTINUOUS
 62
    3
 10
349.83240107717785
 20
144.65145945317477
 11
349.83240107717785
 21
145.1508594531748
  0
LINE
  8
_0-1_Layer1
  6
CONTINUOUS
 62
    3
 10
349.03240107717789
 20
144.65145945317477
 11
349.03240107717789
 21
145.15145945317477
  0
LINE
  8
_0-1_Layer1
  6
CONTINUOUS
 62
    6
 10
350.41190107717784
 20
145.93005945317478
 11
349.83330107717785
 21
145.35145945317478
  0
LINE
  8
_0-1_Layer1
  6
CONTINUOUS
 62
    3
 10
348.73240107717788
 20
147.47075945317476
 11
348.73240107717788
 21
146.97075945317476
  0
LINE
  8
_0-1_Layer1
  6
CONTINUOUS
 62
    3
 10
350.13240107717786
 20
147.47075945317476
 11
350.13240107717786
 21
146.97135945317478
  0
LINE
  8
_0-1_Layer1
  6
CONTINUOUS
 62
    3
 10
349.83240107717785
 20
147.47075945317476
 11
349.83240107717785
 21
146.97135945317478
  0
LINE
  8
_0-1_Layer1
  6
CONTINUOUS
 62
    6
 10
347.93330107717787
 20
146.70665945317478
 11
350.93330107717787
 21
146.70665945317478
  0
LINE
  8
_0-1_Layer1
  6
CONTINUOUS
 62
    6
 10
347.93330107717787
 20
146.73485945317478
 11
350.93330107717787
 21
146.73485945317478
  0
LINE
  8
_0-1_Layer1
  6
CONTINUOUS
 62
    6
 10
348.73330107717788
 20
145.35145945317478
 11
349.63270107717784
 21
146.25085945317477
  0
LINE
  8
_0-1_Layer1
  6
CONTINUOUS
 62
    6
 10
349.83330107717785
 20
145.35145945317478
 11
348.93390107717789
 21
146.25085945317477
  0
LINE
  8
_0-1_Layer1
  6
CONTINUOUS
 62
    6
 10
348.41190107717784
 20
145.93005945317478
 11
348.73270107717786
 21
146.25085945317477
  0
LINE
  8
_0-1_Layer1
  6
CONTINUOUS
 62
    6
 10
348.41190107717784
 20
145.57285945317477
 11
348.63330107717786
 21
145.35145945317478
  0
LINE
  8
_0-1_Layer1
  6
CONTINUOUS
 62
    6
 10
348.41190107717784
 20
145.47285945317478
 11
348.53330107717784
 21
145.35145945317478
  0
LINE
  8
_0-1_Layer1
  6
CONTINUOUS
 62
    6
 10
350.41190107717784
 20
145.97285945317478
 11
350.13390107717788
 21
146.25085945317477
  0
LINE
  8
_0-1_Layer1
  6
CONTINUOUS
 62
    6
 10
350.41190107717784
 20
145.87285945317478
 11
350.03390107717786
 21
146.25085945317477
  0
LINE
  8
_0-1_Layer1
  6
CONTINUOUS
 62
    6
 10
348.83330107717785
 20
145.35145945317478
 11
349.73270107717786
 21
146.25085945317477
  0
LINE
  8
_0-1_Layer1
  6
CONTINUOUS
 62
    6
 10
348.41190107717784
 20
146.03005945317477
 11
348.63270107717784
 21
146.25085945317477
  0
LINE
  8
_0-1_Layer1
  6
CONTINUOUS
 62
    6
 10
350.41190107717784
 20
145.35145945317478
 11
350.41190107717784
 21
146.25085945317477
  0
LINE
  8
_0-1_Layer1
  6
CONTINUOUS
 62
    6
 10
350.41190107717784
 20
146.03005945317477
 11
349.73330107717788
 21
145.35145945317478
  0
LINE
  8
_0-1_Layer1
  6
CONTINUOUS
 62
    6
 10
348.83390107717787
 20
146.25085945317477
 11
349.73330107717788
 21
145.35145945317478
  0
LINE
  8
_0-1_Layer1
  6
CONTINUOUS
 62
    6
 10
348.41190107717784
 20
145.35145945317478
 11
348.41190107717784
 21
146.25085945317477
  0
LINE
  8
_0-1_Layer1
  6
CONTINUOUS
 62
    3
 10
347.93330107717787
 20
146.82135945317478
 11
350.93330107717787
 21
146.82135945317478
  0
LINE
  8
_0-1_Layer1
  6
CONTINUOUS
 62
    3
 10
349.03240107717789
 20
147.47075945317476
 11
349.03240107717789
 21
146.97075945317476
  0
LINE
  8
_0-1_Layer1
  6
CONTINUOUS
 62
    3
 10
347.93330107717787
 20
146.82135945317478
 11
347.93330107717787
 21
146.97135945317478
  0
LINE
  8
_0-1_Layer1
  6
CONTINUOUS
 62
    3
 10
347.93330107717787
 20
146.97135945317478
 11
350.93330107717787
 21
146.97135945317478
  0
LINE
  8
_0-1_Layer1
  6
CONTINUOUS
 62
    3
 10
350.93330107717787
 20
146.97135945317478
 11
350.93330107717787
 21
146.82135945317478
  0
LINE
  8
_0-1_Layer1
  6
CONTINUOUS
 62
    3
 10
348.88240107717786
 20
147.57004945317479
 11
349.98240107717788
 21
147.57004945317479
  0
ARC
  8
_0-1_Layer1
  6
CONTINUOUS
 62
    3
 10
348.88240107717786
 20
147.40709945317479
 40
0.1629496307039773
 50
22.996333999999997
 51
157.0036659999999
  0
ARC
  8
_0-1_Layer1
  6
CONTINUOUS
 62
    3
 10
349.98240107717788
 20
147.40709945317479
 40
0.1629496308003552
 50
22.996333999999997
 51
157.0036659999999
  0
ARC
  8
_0-1_Layer1
  6
CONTINUOUS
 62
    3
 10
349.43240107717787
 20
146.71468145317476
 40
0.8553676255907305
 50
62.119099000000013
 51
117.88090099999999
  0
LINE
  8
_0-1_Layer1
  6
CONTINUOUS
 62
    6
 10
350.93330107717787
 20
146.82135945317478
 11
350.93330107717787
 21
146.65145945317477
  0
LINE
  8
_0-1_Layer1
  6
CONTINUOUS
 62
    6
 10
347.93330107717787
 20
146.82135945317478
 11
347.93330107717787
 21
146.65145945317477
  0
LINE
  8
_0-1_Layer1
  6
CONTINUOUS
 62
    6
 10
350.93090107717785
 20
146.76305945317478
 11
347.93330107717787
 21
146.76305945317478
  0
LINE
  8
_0-1_Layer1
  6
CONTINUOUS
 62
    6
 10
347.93330107717787
 20
146.7912594531748
 11
350.93330107717787
 21
146.7912594531748
  0
LINE
  8
_0-1_Layer1
  6
CONTINUOUS
 62
    4
 10
448.41280107717779
 20
140.4982594531748
 11
454.41280107717779
 21
140.4982594531748
  0
LINE
  8
_0-1_Layer1
  6
CONTINUOUS
 62
    4
 10
450.51280107717776
 20
140.64825945317477
 11
451.31280107717788
 21
140.64825945317477
  0
LINE
  8
_0-1_Layer1
  6
CONTINUOUS
 62
    4
 10
451.51280107717787
 20
140.64825945317477
 11
452.31280107717788
 21
140.64825945317477
  0
LINE
  8
_0-1_Layer1
  6
CONTINUOUS
 62
    4
 10
452.41280107717779
 20
140.64825945317477
 11
452.88280107717787
 21
140.64825945317477
  0
LINE
  8
_0-1_Layer1
  6
CONTINUOUS
 62
    4
 10
452.94280107717776
 20
140.64825945317477
 11
454.26280107717787
 21
140.64825945317477
  0
LINE
  8
_0-1_Layer1
  6
CONTINUOUS
 62
    4
 10
449.94280107717788
 20
140.64825945317477
 11
450.41280107717785
 21
140.64825945317477
  0
LINE
  8
_0-1_Layer1
  6
CONTINUOUS
 62
    4
 10
449.88280107717787
 20
140.64825945317477
 11
448.56280107717777
 21
140.64825945317477
  0
LINE
  8
_0-1_Layer1
  6
CONTINUOUS
 62
    4
 10
448.41280107717779
 20
141.2482594531748
 11
448.56280107717777
 21
141.2482594531748
  0
LINE
  8
_0-1_Layer1
  6
CONTINUOUS
 62
    4
 10
454.41280107717779
 20
141.2482594531748
 11
454.26280107717787
 21
141.2482594531748
  0
LINE
  8
_0-1_Layer1
  6
CONTINUOUS
 62
    4
 10
451.31280107717788
 20
140.64825945317477
 11
451.31280107717788
 21
142.44825945317478
  0
LINE
  8
_0-1_Layer1
  6
CONTINUOUS
 62
    4
 10
451.31280107717788
 20
142.44825945317478
 11
451.51280107717787
 21
142.44825945317478
  0
LINE
  8
_0-1_Layer1
  6
CONTINUOUS
 62
    4
 10
451.51280107717787
 20
142.44825945317478
 11
451.51280107717787
 21
140.64825945317477
  0
LINE
  8
_0-1_Layer1
  6
CONTINUOUS
 62
    4
 10
450.41280107717785
 20
140.64825945317477
 11
450.41280107717785
 21
140.84825945317476
  0
LINE
  8
_0-1_Layer1
  6
CONTINUOUS
 62
    4
 10
450.41280107717785
 20
140.84825945317476
 11
450.51280107717776
 21
140.84825945317476
  0
LINE
  8
_0-1_Layer1
  6
CONTINUOUS
 62
    4
 10
450.51280107717776
 20
140.84825945317476
 11
450.51280107717776
 21
140.64825945317477
  0
LINE
  8
_0-1_Layer1
  6
CONTINUOUS
 62
    4
 10
449.88280107717787
 20
140.64825945317477
 11
449.91280107717779
 21
140.6182594531748
  0
LINE
  8
_0-1_Layer1
  6
PLine2
 62
    4
 10
449.91280107717779
 20
140.75852745317479
 11
449.91280107717779
 21
140.21909345317476
  0
LINE
  8
_0-1_Layer1
  6
PLine2
 62
    4
 10
452.91280107717779
 20
140.79266845317477
 11
452.91280107717779
 21
140.19178045317477
  0
LINE
  8
_0-1_Layer1
  6
CONTINUOUS
 62
    4
 10
448.56280107717777
 20
140.64825945317477
 11
448.56280107717777
 21
141.64825945317477
  0
LINE
  8
_0-1_Layer1
  6
CONTINUOUS
 62
    4
 10
454.26280107717787
 20
140.64825945317477
 11
454.26280107717787
 21
141.64825945317477
  0
LINE
  8
_0-1_Layer1
  6
CONTINUOUS
 62
    4
 10
448.41280107717779
 20
140.4982594531748
 11
448.41280107717779
 21
141.35145945317478
  0
LINE
  8
_0-1_Layer1
  6
CONTINUOUS
 62
    4
 10
454.41280107717779
 20
140.4982594531748
 11
454.41280107717779
 21
141.34825945317476
  0
LINE
  8
_0-1_Layer1
  6
CONTINUOUS
 62
    4
 10
449.94280107717788
 20
140.64825945317477
 11
449.91280107717779
 21
140.6182594531748
  0
LINE
  8
_0-1_Layer1
  6
CONTINUOUS
 62
    4
 10
452.41280107717779
 20
140.64825945317477
 11
452.41280107717779
 21
140.84825945317476
  0
LINE
  8
_0-1_Layer1
  6
CONTINUOUS
 62
    4
 10
452.41280107717779
 20
140.84825945317476
 11
452.31280107717788
 21
140.84825945317476
  0
LINE
  8
_0-1_Layer1
  6
CONTINUOUS
 62
    4
 10
452.31280107717788
 20
140.84825945317476
 11
452.31280107717788
 21
140.64825945317477
  0
LINE
  8
_0-1_Layer1
  6
CONTINUOUS
 62
    4
 10
452.94280107717776
 20
140.64825945317477
 11
452.91280107717779
 21
140.6182594531748
  0
LINE
  8
_0-1_Layer1
  6
CONTINUOUS
 62
    4
 10
452.88280107717787
 20
140.64825945317477
 11
452.91280107717779
 21
140.6182594531748
  0
LINE
  8
_0-1_Layer1
  6
PLine2
 62
    4
 10
451.41280107717785
 20
142.98753345317476
 11
451.41280107717785
 21
139.49138445317479
  0
LINE
  8
_0-1_Layer1
  6
CONTINUOUS
 62
    6
 10
450.21280107717774
 20
141.64825945317477
 11
450.21280107717774
 21
142.34825945317476
  0
LINE
  8
_0-1_Layer1
  6
CONTINUOUS
 62
    6
 10
452.61280107717778
 20
141.64825945317477
 11
452.61280107717778
 21
142.34825945317476
  0
LINE
  8
_0-1_Layer1
  6
CONTINUOUS
 62
    4
 10
397.41280107717785
 20
141.35145945317478
 11
397.41280107717785
 21
140.14600845317477
  0
LINE
  8
_0-1_Layer1
  6
CONTINUOUS
 62
    4
 10
397.41280107717785
 20
140.14600845317477
 11
405.41280107717785
 21
140.14499445317477
  0
LINE
  8
_0-1_Layer1
  6
CONTINUOUS
 62
    4
 10
405.41280107717785
 20
140.14499445317477
 11
405.41280107717785
 21
141.35145945317478
  0
LINE
  8
_0-1_Layer1
  6
CONTINUOUS
 62
    3
 10
454.89201707717785
 20
138.93968045317479
 11
453.45900507717789
 21
140.4217314531748
  0
LINE
  8
_0-1_Layer1
  6
CONTINUOUS
 62
    3
 10
453.45900507717789
 20
140.4217314531748
 11
464.10712507717784
 21
121.97864645317478
  0
LINE
  8
_0-1_Layer1
  6
CONTINUOUS
 62
    3
 10
464.10712507717784
 20
121.97864645317478
 11
478.64318807717785
 21
121.97864645317478
  0
TEXT
  8
_0-1_Layer1
 62
    7
 10
467.65735767717774
 20
122.97864645317478
 40
6
 41
0.8582679999999999
 50
0
  1
横枠
  0
INSERT
  2
-026-DIM_26
  8
_0-1_Layer1
 10
349.41280107717785
 20
149.0378174531748
 41
1
 42
1
 50
0
  0
LINE
  8
_0-1_Layer1
  6
CONTINUOUS
 62
    3
 10
453.41280107717779
 20
173.65085945317477
 11
453.41280107717779
 21
146.25085945317477
  0
INSERT
  2
-027-DIM_27
  8
_0-1_Layer1
 10
754.41280107717785
 20
147.17405945317478
 41
1
 42
1
 50
0
  0
LINE
  8
_0-1_Layer1
  6
CONTINUOUS
 62
    3
 10
714.65733107717779
 20
146.7688574531748
 11
712.17435007717791
 21
146.7688574531748
  0
LINE
  8
_0-1_Layer1
  6
CONTINUOUS
 62
    3
 10
714.65385807717792
 20
146.73413045317477
 11
712.17435007717791
 21
146.73413045317477
  0
LINE
  8
_0-1_Layer1
  6
CONTINUOUS
 62
    3
 10
714.65385807717792
 20
146.6994034531748
 11
712.17435007717791
 21
146.6994034531748
  0
LINE
  8
_0-1_Layer1
  6
CONTINUOUS
 62
    3
 10
714.65733107717779
 20
146.91471045317479
 11
712.17435007717791
 21
146.91471045317479
  0
ARC
  8
_0-1_Layer1
  6
CONTINUOUS
 62
    3
 10
712.97019407717778
 20
147.2065164531748
 40
0.1600418597787906
 50
21.728836000000005
 51
159.61024699999999
  0
LINE
  8
_0-1_Layer1
  6
CONTINUOUS
 62
    3
 10
714.65733107717779
 20
146.91471045317479
 11
714.65733107717779
 21
146.65145945317477
  0
LINE
  8
_0-1_Layer1
  6
CONTINUOUS
 62
    3
 10
713.86595207717767
 20
147.36467345317479
 11
712.96850707717783
 21
147.36467345317479
  0
ARC
  8
_0-1_Layer1
  6
CONTINUOUS
 62
    3
 10
713.86198307717791
 20
147.20740945317476
 40
0.1590496594263584
 50
20.175445
 51
159.824555
  0
ARC
  8
_0-1_Layer1
  6
CONTINUOUS
 62
    3
 10
713.41747807717786
 20
146.86986345317479
 40
0.4931234001364401
 50
52.726616000000007
 51
127.27338399999999
  0
LINE
  8
_0-1_Layer1
  6
CONTINUOUS
 62
    3
 10
713.11753607717787
 20
147.26545345317479
 11
713.11753607717787
 21
146.91153545317479
  0
LINE
  8
_0-1_Layer1
  6
CONTINUOUS
 62
    3
 10
713.71285607717789
 20
147.26545345317479
 11
713.71285607717789
 21
146.91153545317479
  0
LINE
  8
_0-1_Layer1
  6
CONTINUOUS
 62
    3
 10
714.01051607717773
 20
147.26545345317479
 11
714.01051607717773
 21
146.91153545317479
  0
LINE
  8
_0-1_Layer1
  6
PLine2
 62
    3
 10
713.41301307717788
 20
147.97970745317477
 11
713.41301307717788
 21
145.54262345317477
  0
LINE
  8
_0-1_Layer1
  6
CONTINUOUS
 62
    3
 10
712.81987607717781
 20
147.26545345317479
 11
712.81987607717781
 21
146.91153545317479
  0
LINE
  8
_0-1_Layer1
  6
CONTINUOUS
 62
    3
 10
712.17435007717791
 20
146.65145945317477
 11
712.17435007717791
 21
146.91471045317479
  0
LINE
  8
_0-1_Layer1
  6
CONTINUOUS
 62
    4
 10
703.41280107717773
 20
143.65145945317477
 11
703.41280107717773
 21
136.84595945317477
  0
LINE
  8
_0-1_Layer1
  6
CONTINUOUS
 62
    4
 10
695.41280107717773
 20
143.65145945317477
 11
695.41280107717773
 21
136.84595945317477
  0
LINE
  8
_0-1_Layer1
  6
CONTINUOUS
 62
    4
 10
695.41280107717773
 20
140.60618545317479
 11
703.41280107717773
 21
140.60618545317479
  0
LINE
  8
_0-1_Layer1
  6
CONTINUOUS
 62
    4
 10
695.41280107717773
 20
138.60618545317479
 11
703.41280107717773
 21
138.60618545317479
  0
LINE
  8
_0-1_Layer1
  6
CONTINUOUS
 62
    3
 10
744.65733107717779
 20
146.75564045317478
 11
742.17435007717791
 21
146.75564045317478
  0
LINE
  8
_0-1_Layer1
  6
CONTINUOUS
 62
    3
 10
744.65385807717792
 20
146.72091345317477
 11
742.17435007717791
 21
146.72091345317477
  0
LINE
  8
_0-1_Layer1
  6
CONTINUOUS
 62
    3
 10
744.65385807717792
 20
146.6861864531748
 11
742.17435007717791
 21
146.6861864531748
  0
LINE
  8
_0-1_Layer1
  6
CONTINUOUS
 62
    3
 10
744.65733107717779
 20
146.90149345317479
 11
742.17435007717791
 21
146.90149345317479
  0
ARC
  8
_0-1_Layer1
  6
CONTINUOUS
 62
    3
 10
742.97019407717778
 20
147.1932994531748
 40
0.1600418601527985
 50
21.728836000000005
 51
159.61024699999999
  0
LINE
  8
_0-1_Layer1
  6
CONTINUOUS
 62
    3
 10
744.65733107717779
 20
146.90149345317479
 11
744.65733107717779
 21
146.65145945317477
  0
LINE
  8
_0-1_Layer1
  6
CONTINUOUS
 62
    3
 10
743.86595207717778
 20
147.35145645317476
 11
742.96850707717795
 21
147.35145645317476
  0
ARC
  8
_0-1_Layer1
  6
CONTINUOUS
 62
    3
 10
743.86198307717791
 20
147.19419245317476
 40
0.1590496587556203
 50
20.175445
 51
159.824555
  0
ARC
  8
_0-1_Layer1
  6
CONTINUOUS
 62
    3
 10
743.41747807717786
 20
146.85664645317479
 40
0.4931234017156784
 50
52.726616000000007
 51
127.27338399999999
  0
LINE
  8
_0-1_Layer1
  6
CONTINUOUS
 62
    3
 10
743.11753607717776
 20
147.25223645317479
 11
743.11753607717776
 21
146.8983184531748
  0
LINE
  8
_0-1_Layer1
  6
CONTINUOUS
 62
    3
 10
743.71285607717789
 20
147.25223645317479
 11
743.71285607717789
 21
146.8983184531748
  0
LINE
  8
_0-1_Layer1
  6
CONTINUOUS
 62
    3
 10
744.01051607717773
 20
147.25223645317479
 11
744.01051607717773
 21
146.8983184531748
  0
LINE
  8
_0-1_Layer1
  6
PLine2
 62
    3
 10
743.41301307717788
 20
147.68821045317478
 11
743.41301307717788
 21
145.83118645317478
  0
LINE
  8
_0-1_Layer1
  6
CONTINUOUS
 62
    3
 10
742.81987607717781
 20
147.25223645317479
 11
742.81987607717781
 21
146.8983184531748
  0
LINE
  8
_0-1_Layer1
  6
CONTINUOUS
 62
    3
 10
742.17435007717791
 20
146.65145945317477
 11
742.17435007717791
 21
146.90149345317479
  0
LINE
  8
_0-1_Layer1
  6
CONTINUOUS
 62
    3
 10
749.61301307717781
 20
140.35145945317478
 11
703.41280107717773
 21
140.35145945317478
  0
LINE
  8
_0-1_Layer1
  6
CONTINUOUS
 62
    3
 10
759.61301307717781
 20
135.34115945317478
 11
551.41280107717785
 21
135.34115945317478
  0
LINE
  8
_0-1_Layer1
  6
CONTINUOUS
 62
    3
 10
695.41280107717773
 20
140.35145945317478
 11
551.41280107717785
 21
140.35145945317478
  0
LINE
  8
_0-1_Layer1
  6
CONTINUOUS
 62
    3
 10
760.91301307717788
 20
138.3321024531748
 11
703.41280107717773
 21
138.3321024531748
  0
LINE
  8
_0-1_Layer1
  6
CONTINUOUS
 62
    3
 10
760.91301307717788
 20
136.84595945317477
 11
703.41280107717773
 21
136.84595945317477
  0
LINE
  8
_0-1_Layer1
  6
CONTINUOUS
 62
    3
 10
695.41280107717773
 20
136.84675245317479
 11
551.41280107717785
 21
136.84675245317479
  0
LINE
  8
_0-1_Layer1
  6
CONTINUOUS
 62
    3
 10
695.41280107717773
 20
138.33175245317477
 11
551.41280107717785
 21
138.33175245317477
  0
LINE
  8
_0-1_Layer1
  6
PLine2
 62
    3
 10
751.41301307717788
 20
148.35085945317479
 11
751.41301307717788
 21
145.66426245317479
  0
LINE
  8
_0-1_Layer1
  6
CONTINUOUS
 62
    3
 10
752.09251307717784
 20
147.45085945317479
 11
752.09251307717784
 21
146.95085945317479
  0
LINE
  8
_0-1_Layer1
  6
CONTINUOUS
 62
    3
 10
750.69251307717775
 20
147.45085945317479
 11
750.69251307717775
 21
146.95145945317478
  0
LINE
  8
_0-1_Layer1
  6
CONTINUOUS
 62
    3
 10
750.99251307717782
 20
147.45085945317479
 11
750.99251307717782
 21
146.95145945317478
  0
LINE
  8
_0-1_Layer1
  6
CONTINUOUS
 62
    6
 10
752.89161307717791
 20
146.68675945317477
 11
749.89161307717791
 21
146.68675945317477
  0
LINE
  8
_0-1_Layer1
  6
CONTINUOUS
 62
    6
 10
752.89161307717791
 20
146.7149594531748
 11
749.89161307717791
 21
146.7149594531748
  0
LINE
  8
_0-1_Layer1
  6
CONTINUOUS
 62
    6
 10
749.89401307717787
 20
146.74315945317477
 11
752.89161307717791
 21
146.74315945317477
  0
LINE
  8
_0-1_Layer1
  6
CONTINUOUS
 62
    6
 10
752.89161307717791
 20
146.7713594531748
 11
749.89161307717791
 21
146.7713594531748
  0
LINE
  8
_0-1_Layer1
  6
CONTINUOUS
 62
    6
 10
752.89161307717791
 20
146.65145945317477
 11
752.89161307717791
 21
146.8014594531748
  0
LINE
  8
_0-1_Layer1
  6
CONTINUOUS
 62
    6
 10
749.89161307717791
 20
146.8014594531748
 11
749.89161307717791
 21
146.65145945317477
  0
LINE
  8
_0-1_Layer1
  6
CONTINUOUS
 62
    3
 10
751.79251307717789
 20
147.45085945317479
 11
751.79251307717789
 21
146.95085945317479
  0
LINE
  8
_0-1_Layer1
  6
CONTINUOUS
 62
    3
 10
752.89161307717791
 20
146.8014594531748
 11
752.89161307717791
 21
146.95145945317478
  0
LINE
  8
_0-1_Layer1
  6
CONTINUOUS
 62
    3
 10
752.89161307717791
 20
146.95145945317478
 11
749.89161307717791
 21
146.95145945317478
  0
LINE
  8
_0-1_Layer1
  6
CONTINUOUS
 62
    3
 10
749.89161307717791
 20
146.95145945317478
 11
749.89161307717791
 21
146.8014594531748
  0
LINE
  8
_0-1_Layer1
  6
CONTINUOUS
 62
    3
 10
751.94251307717775
 20
147.55014945317478
 11
750.84251307717773
 21
147.55014945317478
  0
ARC
  8
_0-1_Layer1
  6
CONTINUOUS
 62
    3
 10
751.94251307717775
 20
147.38719945317479
 40
0.1629496298134683
 50
22.996333
 51
157.00366700000001
  0
ARC
  8
_0-1_Layer1
  6
CONTINUOUS
 62
    3
 10
750.84251307717773
 20
147.38719945317479
 40
0.1629496301498818
 50
22.996333
 51
157.00366700000001
  0
ARC
  8
_0-1_Layer1
  6
CONTINUOUS
 62
    3
 10
751.39251307717791
 20
146.69478145317478
 40
0.855367625941909
 50
62.119099000000013
 51
117.88090099999999
  0
LINE
  8
_0-1_Layer1
  6
CONTINUOUS
 62
    3
 10
752.89161307717791
 20
146.8014594531748
 11
749.89161307717791
 21
146.8014594531748
  0
LINE
  8
_0-1_Layer1
  6
CONTINUOUS
 62
    4
 10
695.41280107717773
 20
136.84595945317477
 11
703.41280107717773
 21
136.84595945317477
  0
LINE
  8
_0-1_Layer1
  6
CONTINUOUS
 62
    3
 10
759.61301307717781
 20
136.84595945317477
 11
759.61301307717781
 21
135.34115945317478
  0
LINE
  8
_0-1_Layer1
  6
CONTINUOUS
 62
    3
 10
749.61361307717789
 20
140.35055945317478
 11
760.91301307717788
 21
138.3321024531748
  0
LINE
  8
_0-1_Layer1
  6
CONTINUOUS
 62
    3
 10
760.91301307717788
 20
136.84595945317477
 11
760.91301307717788
 21
138.3321024531748
  0
LINE
  8
_0-1_Layer1
  6
CONTINUOUS
 62
    3
 10
749.61301307717781
 20
140.35145945317478
 11
749.61301307717781
 21
143.65145945317477
  0
LINE
  8
_0-1_Layer1
  6
CONTINUOUS
 62
    4
 10
354.41280107717785
 20
140.35145945317478
 11
397.41280107717785
 21
140.35145945317478
  0
LINE
  8
_0-1_Layer1
  6
CONTINUOUS
 62
    4
 10
405.41280107717785
 20
140.35145945317478
 11
551.41280107717785
 21
140.35145945317478
  0
LINE
  8
_0-1_Layer1
  6
CONTINUOUS
 62
    6
 10
550.41280107717785
 20
141.34825945317476
 11
550.76280107717787
 21
141.34825945317476
  0
LINE
  8
_0-1_Layer1
  6
CONTINUOUS
 62
    6
 10
550.41280107717785
 20
141.34825945317476
 11
550.41280107717785
 21
140.64825945317477
  0
LINE
  8
_0-1_Layer1
  6
CONTINUOUS
 62
    6
 10
550.76280107717787
 20
141.34825945317476
 11
550.76280107717787
 21
141.84825945317476
  0
LINE
  8
_0-1_Layer1
  6
CONTINUOUS
 62
    6
 10
550.76280107717787
 20
141.84825945317476
 11
550.46280107717791
 21
141.84825945317476
  0
LINE
  8
_0-1_Layer1
  6
CONTINUOUS
 62
    6
 10
550.46280107717791
 20
141.84825945317476
 11
550.46280107717791
 21
141.64825945317477
  0
LINE
  8
_0-1_Layer1
  6
CONTINUOUS
 62
    6
 10
550.21280107717791
 20
141.64825945317477
 11
548.56280107717771
 21
141.64825945317477
  0
LINE
  8
_0-1_Layer1
  6
CONTINUOUS
 62
    4
 10
550.51280107717776
 20
140.64825945317477
 11
551.31280107717771
 21
140.64825945317477
  0
LINE
  8
_0-1_Layer1
  6
CONTINUOUS
 62
    4
 10
549.94280107717782
 20
140.64825945317477
 11
550.41280107717785
 21
140.64825945317477
  0
LINE
  8
_0-1_Layer1
  6
CONTINUOUS
 62
    4
 10
549.88280107717787
 20
140.64825945317477
 11
548.56280107717771
 21
140.64825945317477
  0
LINE
  8
_0-1_Layer1
  6
CONTINUOUS
 62
    4
 10
548.41280107717773
 20
141.2482594531748
 11
548.56280107717771
 21
141.2482594531748
  0
LINE
  8
_0-1_Layer1
  6
CONTINUOUS
 62
    4
 10
551.31280107717771
 20
140.64825945317477
 11
551.31280107717771
 21
142.44825945317478
  0
LINE
  8
_0-1_Layer1
  6
CONTINUOUS
 62
    4
 10
550.41280107717785
 20
140.64825945317477
 11
550.41280107717785
 21
140.84825945317476
  0
LINE
  8
_0-1_Layer1
  6
CONTINUOUS
 62
    4
 10
550.41280107717785
 20
140.84825945317476
 11
550.51280107717776
 21
140.84825945317476
  0
LINE
  8
_0-1_Layer1
  6
CONTINUOUS
 62
    4
 10
550.51280107717776
 20
140.84825945317476
 11
550.51280107717776
 21
140.64825945317477
  0
LINE
  8
_0-1_Layer1
  6
CONTINUOUS
 62
    4
 10
549.88280107717787
 20
140.64825945317477
 11
549.91280107717773
 21
140.6182594531748
  0
LINE
  8
_0-1_Layer1
  6
PLine2
 62
    4
 10
549.91280107717773
 20
140.75852745317479
 11
549.91280107717773
 21
140.21909345317476
  0
LINE
  8
_0-1_Layer1
  6
CONTINUOUS
 62
    4
 10
548.56280107717771
 20
140.64825945317477
 11
548.56280107717771
 21
141.64825945317477
  0
LINE
  8
_0-1_Layer1
  6
CONTINUOUS
 62
    4
 10
548.41280107717773
 20
140.4982594531748
 11
548.41280107717773
 21
141.35145945317478
  0
LINE
  8
_0-1_Layer1
  6
CONTINUOUS
 62
    4
 10
551.31280107717771
 20
142.44825945317478
 11
551.41280107717785
 21
142.44825945317478
  0
LINE
  8
_0-1_Layer1
  6
CONTINUOUS
 62
    4
 10
548.41280107717773
 20
140.4982594531748
 11
551.41280107717785
 21
140.4982594531748
  0
LINE
  8
_0-1_Layer1
  6
CONTINUOUS
 62
    4
 10
549.94280107717782
 20
140.64825945317477
 11
549.91280107717773
 21
140.6182594531748
  0
LINE
  8
_0-1_Layer1
  6
CONTINUOUS
 62
    6
 10
550.21280107717791
 20
141.64825945317477
 11
550.21280107717791
 21
142.34825945317476
  0
INSERT
  2
-028-DIM_28
  8
_0-1_Layer1
 10
351.41280107717785
 20
185.75937645317478
 41
1
 42
1
 50
0
  0
INSERT
  2
-029-DIM_29
  8
_0-1_Layer1
 10
453.41280107717779
 20
177.07222745317478
 41
1
 42
1
 50
0
  0
INSERT
  2
-030-DIM_30
  8
_0-1_Layer1
 10
651.41280107717785
 20
181.06513145317479
 41
1
 42
1
 50
0
  0
INSERT
  2
-031-DIM_31
  8
_0-1_Layer1
 10
351.41280107717785
 20
208.33398545317479
 41
1
 42
1
 50
0
  0
TEXT
  8
_0-1_Layer1
 62
    7
 10
169.31364007717787
 20
41.826300453174781
 40
6
 41
0.8582679999999999
 50
0
  1
正面図　
  0
TEXT
  8
_0-1_Layer1
 62
    7
 10
486.47275707717785
 20
74.250837453174768
 40
6
 41
0.8582679999999999
 50
0
  1
側面図　
  0
LINE
  8
_0-1_Layer1
  6
CONTINUOUS
 62
    3
 10
167.82608907717787
 20
48.770678453174781
 11
185.54849007717786
 21
48.770678453174781
  0
LINE
  8
_0-1_Layer1
  6
CONTINUOUS
 62
    3
 10
185.54849007717786
 20
48.770678453174781
 11
185.54849007717786
 21
40.997695453174799
  0
LINE
  8
_0-1_Layer1
  6
CONTINUOUS
 62
    3
 10
185.54849007717786
 20
40.997695453174799
 11
167.82608907717787
 21
40.997695453174799
  0
LINE
  8
_0-1_Layer1
  6
CONTINUOUS
 62
    3
 10
167.82608907717787
 20
40.997695453174799
 11
167.82608907717787
 21
48.770678453174781
  0
LINE
  8
_0-1_Layer1
  6
CONTINUOUS
 62
    3
 10
484.95171707717788
 20
81.048488453174798
 11
502.86067007717776
 21
81.048488453174798
  0
LINE
  8
_0-1_Layer1
  6
CONTINUOUS
 62
    3
 10
502.86067007717776
 20
81.048488453174798
 11
502.86067007717776
 21
73.213321453174785
  0
LINE
  8
_0-1_Layer1
  6
CONTINUOUS
 62
    3
 10
502.86067007717776
 20
73.213321453174785
 11
484.95171707717788
 21
73.213321453174785
  0
LINE
  8
_0-1_Layer1
  6
CONTINUOUS
 62
    3
 10
484.95171707717788
 20
73.213321453174785
 11
484.95171707717788
 21
81.048488453174798
  0
INSERT
  2
-032-DIM_32
  8
_0-1_Layer1
 10
351.41280107717785
 20
136.6458164531748
 41
1
 42
1
 50
0
  0
ARC
  8
_0-1_Layer1
  6
CONTINUOUS
 62
    3
 10
515.26864907717788
 20
171.85085945317479
 40
0.1999999989751171
 50
270
 51
341.56505099999998
  0
ARC
  8
_0-1_Layer1
  6
CONTINUOUS
 62
    3
 10
515.26864907717788
 20
171.85085945317479
 40
0.5999999997092118
 50
270
 51
341.56505099999998
  0
ARC
  8
_0-1_Layer1
  6
CONTINUOUS
 62
    3
 10
589.55695207717781
 20
171.85085945317479
 40
0.1999999987863488
 50
198.43494899999988
 51
269.99999999999994
  0
ARC
  8
_0-1_Layer1
  6
CONTINUOUS
 62
    3
 10
646.26864907717788
 20
171.85085945317479
 40
0.2000000000340499
 50
270
 51
341.56505099999998
  0
TEXT
  8
_0-1_Layer1
 62
    7
 10
690.34386807717772
 20
205.45292645317477
 40
6
 41
0.8582679999999999
 50
0
  1
水上端部
  0
TEXT
  8
_0-1_Layer1
 62
    7
 10
109.39315607717788
 20
403.49819545317479
 40
6
 41
0.8582679999999999
 50
0
  1
水下端部
  0
LINE
  8
_0-1_Layer1
  6
CONTINUOUS
 62
    3
 10
107.58265507717783
 20
574.7530764531748
 11
107.58265507717783
 21
514.76307645317479
  0
TEXT
  8
_0-1_Layer1
 62
    7
 10
144.30387107717786
 20
564.97611745317477
 40
6
 41
0.8582679999999999
 50
0
  1
Ｗ
  0
TEXT
  8
_0-1_Layer1
 62
    7
 10
170.01387107717787
 20
564.97611745317477
 40
6
 41
0.8582679999999999
 50
0
  1
Ｊ
  0
TEXT
  8
_0-1_Layer1
 62
    7
 10
221.31534107717786
 20
565.20197345317479
 40
6
 41
0.8582679999999999
 50
0
  1
Ｇ
  0
TEXT
  8
_0-1_Layer1
 62
    7
 10
136.60859107717783
 20
517.82485545317479
 40
6
 41
0.8582679999999999
 50
0
  1
２２００
  0
TEXT
  8
_0-1_Layer1
 62
    7
 10
136.60859107717783
 20
529.37529045317467
 40
6
 41
0.8582679999999999
 50
0
  1
１５００
  0
TEXT
  8
_0-1_Layer1
 62
    7
 10
136.76467607717785
 20
541.3934744531748
 40
6
 41
0.8582679999999999
 50
0
  1
１１００
  0
TEXT
  8
_0-1_Layer1
 62
    7
 10
141.68689207717784
 20
553.41875545317475
 40
6
 41
0.8582679999999999
 50
0
  1
８００
  0
TEXT
  8
_0-1_Layer1
 62
    7
 10
161.77005907717785
 20
517.77790945317474
 40
6
 41
0.8582679999999999
 50
0
  1
２０００
  0
TEXT
  8
_0-1_Layer1
 62
    7
 10
161.77005907717785
 20
529.32834445317485
 40
6
 41
0.8582679999999999
 50
0
  1
１３００
  0
TEXT
  8
_0-1_Layer1
 62
    7
 10
166.88726607717786
 20
541.25263745317466
 40
6
 41
0.8582679999999999
 50
0
  1
９００
  0
TEXT
  8
_0-1_Layer1
 62
    7
 10
167.07201507717787
 20
553.27213745317465
 40
6
 41
0.8582679999999999
 50
0
  1
６００
  0
TEXT
  8
_0-1_Layer1
 62
    7
 10
210.66637797936568
 20
529.32834445317485
 40
6
 41
0.8582679999999999
 50
0
  1
１２７６
  0
TEXT
  8
_0-1_Layer1
 62
    7
 10
218.25067007717786
 20
541.25263745317466
 40
6
 41
0.8582679999999999
 50
0
  1
８７６
  0
TEXT
  8
_0-1_Layer1
 62
    7
 10
217.94530007717788
 20
553.10873745317463
 40
6
 41
0.8582679999999999
 50
0
  1
５７６
  0
LINE
  8
_0-1_Layer1
  6
CONTINUOUS
 62
    3
 10
730.05441907717773
 20
444.16570545317478
 11
728.62140607717788
 21
445.64775645317479
  0
LINE
  8
_0-1_Layer1
  6
CONTINUOUS
 62
    3
 10
728.62140607717788
 20
445.64775645317479
 11
754.13712107717788
 21
401.45324045317477
  0
LINE
  8
_0-1_Layer1
  6
CONTINUOUS
 62
    3
 10
754.13712107717788
 20
401.45324045317477
 11
785.03475907717791
 21
401.45324045317477
  0
TEXT
  8
_0-1_Layer1
 62
    7
 10
754.13712107717788
 20
402.45324045317477
 40
6
 41
0.8582679999999999
 50
0
  1
硝子パッキン
  0
LINE
  8
_0-1_Layer1
  6
CONTINUOUS
 62
    3
 10
754.91431007717779
 20
450.06171645317465
 11
753.48129807717771
 21
451.54376745317467
  0
LINE
  8
_0-1_Layer1
  6
CONTINUOUS
 62
    3
 10
753.48129807717771
 20
451.54376745317467
 11
764.43768307717789
 21
432.56675045317479
  0
LINE
  8
_0-1_Layer1
  6
CONTINUOUS
 62
    3
 10
764.43768307717789
 20
432.56675045317479
 11
810.78414007717788
 21
432.56675045317479
  0
TEXT
  8
_0-1_Layer1
 62
    7
 10
764.43768307717789
 20
433.56675045317468
 40
6
 41
0.8582679999999999
 50
0
  1
網入り硝子（別途）
  0
LINE
  8
_0-1_Layer1
  6
CONTINUOUS
 62
    3
 10
690.69650007717792
 20
415.10475645317479
 11
689.26348707717784
 21
416.5868074531748
  0
LINE
  8
_0-1_Layer1
  6
CONTINUOUS
 62
    3
 10
689.26348707717784
 20
416.5868074531748
 11
717.24687507717772
 21
368.11815745317477
  0
LINE
  8
_0-1_Layer1
  6
CONTINUOUS
 62
    3
 10
717.24687507717772
 20
368.11815745317477
 11
753.29411907717781
 21
368.11815745317477
  0
TEXT
  8
_0-1_Layer1
 62
    7
 10
722.3964810771779
 20
369.11815745317477
 40
6
 41
0.8582679999999999
 50
0
  1
アンカー金具
  0
LINE
  8
_0-1_Layer1
  6
CONTINUOUS
 62
    3
 10
686.13398707717784
 20
505.90640245317479
 11
687.56700007717791
 21
504.42435145317478
  0
LINE
  8
_0-1_Layer1
  6
CONTINUOUS
 62
    3
 10
687.56700007717791
 20
504.42435145317478
 11
648.97300907717772
 21
571.27110445317464
  0
LINE
  8
_0-1_Layer1
  6
CONTINUOUS
 62
    3
 10
648.97300907717772
 20
571.27110445317464
 11
587.17773307717789
 21
571.27110445317464
  0
TEXT
  8
_0-1_Layer1
 62
    7
 10
587.45576407717772
 20
563.65074045317465
 40
6
 41
0.8582679999999999
 50
0
  1
Ｗ．Ｐ．Ｎ
  0
LINE
  8
_0-1_Layer1
  6
CONTINUOUS
 62
    3
 10
686.12614607717785
 20
491.28777145317468
 11
687.55915907717781
 21
489.80572045317467
  0
LINE
  8
_0-1_Layer1
  6
CONTINUOUS
 62
    3
 10
687.55915907717781
 20
489.80572045317467
 11
653.21275307717792
 21
549.29543945317482
  0
LINE
  8
_0-1_Layer1
  6
CONTINUOUS
 62
    3
 10
653.21275307717792
 20
549.29543945317482
 11
586.26787107717792
 21
549.29543945317482
  0
LINE
  8
_0-1_Layer1
  6
CONTINUOUS
 62
    3
 10
614.1197730771778
 20
385.52006845317476
 11
614.68676007717784
 21
387.50211945317477
  0
LINE
  8
_0-1_Layer1
  6
CONTINUOUS
 62
    3
 10
614.68676007717784
 20
387.50211945317477
 11
594.0740280771779
 21
351.79982045317479
  0
LINE
  8
_0-1_Layer1
  6
CONTINUOUS
 62
    3
 10
594.0740280771779
 20
351.79982045317479
 11
537.4283590771779
 21
351.79982045317479
  0
TEXT
  8
_0-1_Layer1
 62
    7
 10
533.48031727717773
 20
352.79982045317479
 40
6
 41
0.8582679999999999
 50
-0.0000000000000143
  1
シーリング処理（別途）
  0
ARC
  8
_0-1_Layer1
  6
CONTINUOUS
 62
    4
 10
710.4270020771778
 20
498.18789245317475
 40
3.0000000000292868
 50
270
 51
327.92987199999999
  0
ARC
  8
_0-1_Layer1
  6
CONTINUOUS
 62
    4
 10
710.42324207717786
 20
498.18189245317467
 40
6.0000000000507132
 50
270
 51
327.930633
  0
ARC
  8
_0-1_Layer1
  6
CONTINUOUS
 62
    4
 10
1162.0905930771778
 20
215.18789245317478
 40
526.99999999988631
 50
140.40790499999997
 51
147.930633
  0
ARC
  8
_0-1_Layer1
  6
CONTINUOUS
 62
    4
 10
1162.0905930771778
 20
215.18789245317478
 40
529.99999999997169
 50
140.40729899999999
 51
147.92987199999999
  0
LINE
  8
_0-1_Layer1
  6
CONTINUOUS
 62
    3
 10
712.0905930771778
 20
487.06889245317467
 11
712.0905930771778
 21
439.68189245317467
  0
LINE
  8
_0-1_Layer1
  6
CONTINUOUS
 62
    3
 10
712.0905930771778
 20
439.68189245317467
 11
719.0575930771779
 21
439.68189245317467
  0
LINE
  8
_0-1_Layer1
  6
CONTINUOUS
 62
    3
 10
742.0905930771778
 20
437.18189245317478
 11
742.0905930771778
 21
447.18189245317467
  0
LINE
  8
_0-1_Layer1
  6
CONTINUOUS
 62
    3
 10
712.0905930771778
 20
437.18189245317478
 11
742.0905930771778
 21
437.18189245317478
  0
LINE
  8
_0-1_Layer1
  6
CONTINUOUS
 62
    6
 10
719.0815930771779
 20
438.6498924531748
 11
719.0815930771779
 21
460.1758924531747
  0
LINE
  8
_0-1_Layer1
  6
CONTINUOUS
 62
    3
 10
710.0905930771778
 20
468.18189245317467
 11
710.0905930771778
 21
437.18189245317478
  0
LINE
  8
_0-1_Layer1
  6
CONTINUOUS
 62
    3
 10
719.0575930771779
 20
438.6498924531748
 11
719.0575930771779
 21
439.68189245317467
  0
LINE
  8
_0-1_Layer1
  6
CONTINUOUS
 62
    6
 10
726.0815930771779
 20
460.1758924531747
 11
726.0815930771779
 21
457.17589245317475
  0
LINE
  8
_0-1_Layer1
  6
CONTINUOUS
 62
    6
 10
742.0575930771779
 20
450.14989245317469
 11
742.0575930771779
 21
447.14989245317469
  0
LINE
  8
_0-1_Layer1
  6
CONTINUOUS
 62
    6
 10
722.0815930771779
 20
457.17589245317475
 11
726.0815930771779
 21
457.17589245317475
  0
LINE
  8
_0-1_Layer1
  6
CONTINUOUS
 62
    6
 10
722.0815930771779
 20
457.17589245317475
 11
722.0815930771779
 21
450.14989245317469
  0
LINE
  8
_0-1_Layer1
  6
CONTINUOUS
 62
    6
 10
726.0815930771779
 20
458.1758924531747
 11
725.0815930771779
 21
457.17589245317475
  0
LINE
  8
_0-1_Layer1
  6
CONTINUOUS
 62
    6
 10
724.0815930771779
 20
445.17589245317475
 11
735.0815930771779
 21
445.17589245317475
  0
LINE
  8
_0-1_Layer1
  6
CONTINUOUS
 62
    6
 10
725.0815930771779
 20
445.17589245317475
 11
730.0815930771779
 21
450.1758924531747
  0
LINE
  8
_0-1_Layer1
  6
CONTINUOUS
 62
    6
 10
736.0815930771779
 20
450.1758924531747
 11
731.0815930771779
 21
445.17589245317475
  0
LINE
  8
_0-1_Layer1
  6
CONTINUOUS
 62
    6
 10
742.0815930771779
 20
450.1758924531747
 11
735.0815930771779
 21
443.1758924531747
  0
LINE
  8
_0-1_Layer1
  6
CONTINUOUS
 62
    6
 10
736.51159307717774
 20
438.60589245317476
 11
740.58659307717789
 21
442.68089245317469
  0
LINE
  8
_0-1_Layer1
  6
CONTINUOUS
 62
    6
 10
735.0815930771779
 20
445.17589245317475
 11
735.0815930771779
 21
438.60589245317476
  0
LINE
  8
_0-1_Layer1
  6
CONTINUOUS
 62
    6
 10
724.0815930771779
 20
445.17589245317475
 11
724.0815930771779
 21
438.65589245317477
  0
LINE
  8
_0-1_Layer1
  6
CONTINUOUS
 62
    6
 10
735.0815930771779
 20
450.1758924531747
 11
739.0815930771779
 21
446.1758924531747
  0
LINE
  8
_0-1_Layer1
  6
CONTINUOUS
 62
    6
 10
729.0815930771779
 20
450.1758924531747
 11
734.0815930771779
 21
445.17589245317475
  0
LINE
  8
_0-1_Layer1
  6
CONTINUOUS
 62
    6
 10
723.0815930771779
 20
450.1758924531747
 11
728.0815930771779
 21
445.17589245317475
  0
LINE
  8
_0-1_Layer1
  6
CONTINUOUS
 62
    6
 10
735.0815930771779
 20
444.1758924531747
 11
740.5815930771779
 21
438.67589245317475
  0
LINE
  8
_0-1_Layer1
  6
CONTINUOUS
 62
    3
 10
724.27159307717773
 20
457.14989245317469
 11
762.27159307717773
 21
457.14989245317469
  0
LINE
  8
_0-1_Layer1
  6
CONTINUOUS
 62
    6
 10
742.0575930771779
 20
450.14989245317469
 11
722.0815930771779
 21
450.14989245317469
  0
LINE
  8
_0-1_Layer1
  6
CONTINUOUS
 62
    3
 10
732.0575930771779
 20
438.6498924531748
 11
740.5575930771779
 21
438.6498924531748
  0
LINE
  8
_0-1_Layer1
  6
CONTINUOUS
 62
    3
 10
739.0905930771778
 20
447.18189245317467
 11
742.0905930771778
 21
447.18189245317467
  0
LINE
  8
_0-1_Layer1
  6
CONTINUOUS
 62
    3
 10
739.0905930771778
 20
447.18189245317467
 11
739.0905930771778
 21
445.68189245317467
  0
LINE
  8
_0-1_Layer1
  6
CONTINUOUS
 62
    3
 10
739.0905930771778
 20
445.68189245317467
 11
740.5905930771778
 21
445.68189245317467
  0
LINE
  8
_0-1_Layer1
  6
CONTINUOUS
 62
    3
 10
740.5905930771778
 20
445.68189245317467
 11
740.5905930771778
 21
438.68189245317478
  0
LINE
  8
_0-1_Layer1
  6
CONTINUOUS
 62
    6
 10
724.0575930771779
 20
457.14989245317469
 11
724.0575930771779
 21
450.14989245317469
  0
LINE
  8
_0-1_Layer1
  6
CONTINUOUS
 62
    6
 10
726.0815930771779
 20
460.1758924531747
 11
719.0815930771779
 21
460.1758924531747
  0
LINE
  8
_0-1_Layer1
  6
CONTINUOUS
 62
    6
 10
719.0815930771779
 20
457.17589245317475
 11
722.0815930771779
 21
460.1758924531747
  0
LINE
  8
_0-1_Layer1
  6
CONTINUOUS
 62
    6
 10
722.0815930771779
 20
454.1758924531747
 11
719.0815930771779
 21
451.1758924531747
  0
LINE
  8
_0-1_Layer1
  6
CONTINUOUS
 62
    6
 10
719.0815930771779
 20
445.17589245317475
 11
724.0815930771779
 21
450.1758924531747
  0
LINE
  8
_0-1_Layer1
  6
CONTINUOUS
 62
    6
 10
719.0815930771779
 20
439.1758924531747
 11
724.0815930771779
 21
444.1758924531747
  0
LINE
  8
_0-1_Layer1
  6
CONTINUOUS
 62
    6
 10
722.0815930771779
 20
451.1758924531747
 11
719.0815930771779
 21
454.1758924531747
  0
LINE
  8
_0-1_Layer1
  6
CONTINUOUS
 62
    6
 10
722.0815930771779
 20
457.17589245317475
 11
719.0815930771779
 21
460.1758924531747
  0
LINE
  8
_0-1_Layer1
  6
CONTINUOUS
 62
    6
 10
719.0815930771779
 20
448.1758924531747
 11
724.0815930771779
 21
443.1758924531747
  0
LINE
  8
_0-1_Layer1
  6
CONTINUOUS
 62
    6
 10
719.0815930771779
 20
442.1758924531747
 11
722.65659307717772
 21
438.60089245317471
  0
LINE
  8
_0-1_Layer1
  6
CONTINUOUS
 62
    3
 10
719.0575930771779
 20
438.6498924531748
 11
732.0575930771779
 21
438.6498924531748
  0
LINE
  8
_0-1_Layer1
  6
CONTINUOUS
 62
    3
 10
672.0905930771778
 20
487.18189245317467
 11
672.0905930771778
 21
477.18189245317467
  0
LINE
  8
_0-1_Layer1
  6
CONTINUOUS
 62
    3
 10
672.0905930771778
 20
477.18189245317467
 11
674.0905930771778
 21
477.18189245317467
  0
LINE
  8
_0-1_Layer1
  6
CONTINUOUS
 62
    3
 10
674.0905930771778
 20
477.18189245317467
 11
674.0905930771778
 21
478.18189245317467
  0
LINE
  8
_0-1_Layer1
  6
CONTINUOUS
 62
    3
 10
674.0905930771778
 20
485.18189245317467
 11
705.0905930771778
 21
485.18189245317467
  0
LINE
  8
_0-1_Layer1
  6
CONTINUOUS
 62
    3
 10
674.0905930771778
 20
485.18189245317467
 11
674.0905930771778
 21
479.18189245317467
  0
LINE
  8
_0-1_Layer1
  6
CONTINUOUS
 62
    3
 10
674.0905930771778
 20
479.18189245317467
 11
677.0905930771778
 21
479.18189245317467
  0
LINE
  8
_0-1_Layer1
  6
CONTINUOUS
 62
    3
 10
677.0905930771778
 20
479.18189245317467
 11
677.0905930771778
 21
478.18189245317467
  0
LINE
  8
_0-1_Layer1
  6
CONTINUOUS
 62
    3
 10
677.0905930771778
 20
478.18189245317467
 11
674.0905930771778
 21
478.18189245317467
  0
LINE
  8
_0-1_Layer1
  6
CONTINUOUS
 62
    3
 10
705.0905930771778
 20
485.18189245317467
 11
710.0905930771778
 21
485.18189245317467
  0
LINE
  8
_0-1_Layer1
  6
CONTINUOUS
 62
    3
 10
710.0905930771778
 20
478.18189245317467
 11
710.0905930771778
 21
468.18189245317467
  0
LINE
  8
_0-1_Layer1
  6
CONTINUOUS
 62
    3
 10
707.0905930771778
 20
478.18189245317467
 11
710.0905930771778
 21
478.18189245317467
  0
LINE
  8
_0-1_Layer1
  6
CONTINUOUS
 62
    3
 10
707.0905930771778
 20
479.18189245317467
 11
707.0905930771778
 21
478.18189245317467
  0
LINE
  8
_0-1_Layer1
  6
CONTINUOUS
 62
    3
 10
707.0905930771778
 20
479.18189245317467
 11
710.0905930771778
 21
479.18189245317467
  0
LINE
  8
_0-1_Layer1
  6
CONTINUOUS
 62
    3
 10
710.0905930771778
 20
479.18189245317467
 11
710.0905930771778
 21
485.18189245317467
  0
LINE
  8
_0-1_Layer1
  6
CONTINUOUS
 62
    3
 10
710.0905930771778
 20
468.18189245317467
 11
710.0905930771778
 21
437.18189245317478
  0
LINE
  8
_0-1_Layer1
  6
CONTINUOUS
 62
    3
 10
672.0905930771778
 20
487.18189245317467
 11
712.0905930771778
 21
487.18189245317467
  0
LINE
  8
_0-1_Layer1
  6
CONTINUOUS
 62
    4
 10
710.4270020771778
 20
495.1878924531747
 11
665.30169607717789
 21
495.1878924531747
  0
LINE
  8
_0-1_Layer1
  6
CONTINUOUS
 62
    4
 10
710.42324207717786
 20
492.18189245317467
 11
665.29769607717776
 21
492.18189245317467
  0
LINE
  8
_0-1_Layer1
  6
CONTINUOUS
 62
    6
 10
790.87223107717773
 20
450.14989245317469
 11
724.0575930771779
 21
450.14989245317469
  0
LINE
  8
_0-1_Layer1
  6
CONTINUOUS
 62
    6
 10
790.87223107717773
 20
457.14989245317469
 11
724.0575930771779
 21
457.14989245317469
  0
LINE
  8
_0-1_Layer1
  6
CONTINUOUS
 62
    3
 10
712.0905930771778
 20
436.18189245317467
 11
712.0905930771778
 21
415.00389245317479
  0
LINE
  8
_0-1_Layer1
  6
CONTINUOUS
 62
    3
 10
712.0905930771778
 20
415.00389245317479
 11
700.0905930771778
 21
415.00389245317479
  0
LINE
  8
_0-1_Layer1
  6
CONTINUOUS
 62
    3
 10
709.41459307717787
 20
435.02189245317476
 11
642.5575930771779
 21
423.0778924531748
  0
LINE
  8
_0-1_Layer1
  6
CONTINUOUS
 62
    3
 10
644.49859307717782
 20
418.43489245317477
 11
706.0425930771778
 21
418.43489245317477
  0
LINE
  8
_0-1_Layer1
  6
CONTINUOUS
 62
    3
 10
644.13959307717789
 20
414.97289245317478
 11
655.22759307717786
 21
414.97289245317478
  0
LINE
  8
_0-1_Layer1
  6
CONTINUOUS
 62
    3
 10
645.55659307717781
 20
412.99789245317476
 11
656.0815930771779
 21
412.99789245317476
  0
LINE
  8
_0-1_Layer1
  6
CONTINUOUS
 62
    3
 10
649.32709507717789
 20
416.43489245317477
 11
706.0425930771778
 21
416.43489245317477
  0
ARC
  8
_0-1_Layer1
  6
CONTINUOUS
 62
    3
 10
701.0905930771778
 20
415.50389245317479
 40
1.000000000084402
 50
111.40876299999999
 51
180
  0
LINE
  8
_0-1_Layer1
  6
CONTINUOUS
 62
    3
 10
712.0905930771778
 20
437.18189245317478
 11
712.0905930771778
 21
435.18189245317467
  0
LINE
  8
_0-1_Layer1
  6
CONTINUOUS
 62
    3
 10
712.0905930771778
 20
437.18189245317478
 11
712.0905930771778
 21
435.18189245317467
  0
ARC
  8
_0-1_Layer1
  6
CONTINUOUS
 62
    3
 10
709.5905930771778
 20
434.03789245317478
 40
0.9999999997011482
 50
0
 51
100.14079300000002
  0
LINE
  8
_0-1_Layer1
  6
CONTINUOUS
 62
    3
 10
700.0905930771778
 20
415.50389245317479
 11
700.0905930771778
 21
415.00389245317479
  0
LINE
  8
_0-1_Layer1
  6
CONTINUOUS
 62
    3
 10
706.0425930771778
 20
418.38689245317477
 11
706.0425930771778
 21
416.43489245317477
  0
LINE
  8
_0-1_Layer1
  6
CONTINUOUS
 62
    3
 10
679.9605930771778
 20
397.34489245317479
 11
681.97659307717788
 21
397.34489245317479
  0
LINE
  8
_0-1_Layer1
  6
CONTINUOUS
 62
    3
 10
681.97959307717781
 20
397.34489245317479
 11
681.97959307717781
 21
416.34889245317476
  0
LINE
  8
_0-1_Layer1
  6
CONTINUOUS
 62
    3
 10
700.13420807717773
 20
414.99789245317476
 11
705.0815930771779
 21
414.99789245317476
  0
LINE
  8
_0-1_Layer1
  6
CONTINUOUS
 62
    3
 10
691.8165930771778
 20
416.26389245317478
 11
691.6625930771778
 21
416.41789245317477
  0
LINE
  8
_0-1_Layer1
  6
CONTINUOUS
 62
    3
 10
679.97959307717781
 20
397.34489245317479
 11
679.97959307717781
 21
416.43489245317477
  0
LINE
  8
_0-1_Layer1
  6
CONTINUOUS
 62
    3
 10
712.0905930771778
 20
415.00389245317479
 11
700.0905930771778
 21
415.00389245317479
  0
LINE
  8
_0-1_Layer1
  6
CONTINUOUS
 62
    3
 10
712.0905930771778
 20
434.18189245317478
 11
712.0905930771778
 21
415.00389245317479
  0
LINE
  8
_0-1_Layer1
  6
CONTINUOUS
 62
    3
 10
710.5905930771778
 20
416.43489245317477
 11
700.5842040771779
 21
416.43489245317477
  0
LINE
  8
_0-1_Layer1
  6
CONTINUOUS
 62
    3
 10
710.5905930771778
 20
434.03789245317478
 11
710.5905930771778
 21
416.43489245317477
  0
LINE
  8
_0-1_Layer1
  6
CONTINUOUS
 62
    3
 10
695.0815930771779
 20
412.99789245317476
 11
705.03459307717787
 21
412.99789245317476
  0
LINE
  8
_0-1_Layer1
  6
CONTINUOUS
 62
    3
 10
691.64459307717789
 20
416.43489245317477
 11
695.0815930771779
 21
412.99789245317476
  0
LINE
  8
_0-1_Layer1
  6
CONTINUOUS
 62
    3
 10
705.03459307717787
 20
415.00389245317479
 11
705.03459307717787
 21
412.99789245317476
  0
LINE
  8
_0-1_Layer1
  6
CONTINUOUS
 62
    3
 10
696.0815930771779
 20
414.99789245317476
 11
700.11278007717772
 21
414.99789245317476
  0
LINE
  8
_0-1_Layer1
  6
CONTINUOUS
 62
    3
 10
694.64557007717792
 20
416.43489245317477
 11
696.0815930771779
 21
414.99789245317476
  0
LINE
  8
_0-1_Layer1
  6
CONTINUOUS
 62
    3
 10
655.22759307717786
 20
414.97289245317478
 11
656.66659307717782
 21
416.4118924531748
  0
LINE
  8
_0-1_Layer1
  6
CONTINUOUS
 62
    3
 10
659.49559307717789
 20
416.4118924531748
 11
656.0815930771779
 21
412.99789245317476
  0
LINE
  8
_0-1_Layer1
  6
CONTINUOUS
 62
    3
 10
641.0575930771779
 20
422.80989245317477
 11
599.02659307717772
 21
415.30189245317479
  0
LINE
  8
_0-1_Layer1
  6
CONTINUOUS
 62
    3
 10
599.02659307717772
 20
415.30189245317479
 11
599.02659307717772
 21
404.12689245317478
  0
LINE
  8
_0-1_Layer1
  6
CONTINUOUS
 62
    3
 10
599.02659307717772
 20
404.12689245317478
 11
612.0905930771778
 21
404.12689245317478
  0
LINE
  8
_0-1_Layer1
  6
CONTINUOUS
 62
    3
 10
612.0905930771778
 20
404.12689245317478
 11
612.0905930771778
 21
387.07889245317477
  0
LINE
  8
_0-1_Layer1
  6
CONTINUOUS
 62
    3
 10
610.0905930771778
 20
402.12689245317478
 11
610.0905930771778
 21
387.07889245317477
  0
ARC
  8
_0-1_Layer1
  6
CONTINUOUS
 62
    3
 10
649.0575930771779
 20
415.4718924531748
 40
0.9999999996702936
 50
0
 51
90
  0
LINE
  8
_0-1_Layer1
  6
CONTINUOUS
 62
    3
 10
642.5575930771779
 20
416.4718924531748
 11
649.0575930771779
 21
416.4718924531748
  0
LINE
  8
_0-1_Layer1
  6
CONTINUOUS
 62
    3
 10
650.0575930771779
 20
415.4718924531748
 11
650.0575930771779
 21
414.9718924531748
  0
LINE
  8
_0-1_Layer1
  6
CONTINUOUS
 62
    3
 10
642.5575930771779
 20
420.1448924531748
 11
642.5575930771779
 21
423.0778924531748
  0
LINE
  8
_0-1_Layer1
  6
CONTINUOUS
 62
    3
 10
641.0575930771779
 20
420.34289245317467
 11
641.0575930771779
 21
422.80989245317477
  0
LINE
  8
_0-1_Layer1
  6
CONTINUOUS
 62
    3
 10
642.5575930771779
 20
416.4718924531748
 11
642.5575930771779
 21
421.13489245317476
  0
LINE
  8
_0-1_Layer1
  6
CONTINUOUS
 62
    3
 10
641.0575930771779
 20
420.93689245317466
 11
641.0575930771779
 21
414.9718924531748
  0
LINE
  8
_0-1_Layer1
  6
CONTINUOUS
 62
    3
 10
641.0575930771779
 20
414.9718924531748
 11
650.0575930771779
 21
414.9718924531748
  0
LINE
  8
_0-1_Layer1
  6
CONTINUOUS
 62
    3
 10
610.0905930771778
 20
387.12689245317478
 11
612.0905930771778
 21
387.12689245317478
  0
LINE
  8
_0-1_Layer1
  6
CONTINUOUS
 62
    3
 10
645.55659307717781
 20
414.96389245317476
 11
645.55659307717781
 21
412.99789245317476
  0
LINE
  8
_0-1_Layer1
  6
CONTINUOUS
 62
    3
 10
644.49859307717782
 20
418.36789245317487
 11
644.49859307717782
 21
416.4718924531748
  0
LINE
  8
_0-1_Layer1
  6
CONTINUOUS
 62
    3
 10
710.08459307717783
 20
437.17289245317477
 11
597.0905930771778
 21
416.98832545317481
  0
LINE
  8
_0-1_Layer1
  6
CONTINUOUS
 62
    3
 10
597.0905930771778
 20
402.12689245317478
 11
597.0905930771778
 21
416.98832545317481
  0
LINE
  8
_0-1_Layer1
  6
CONTINUOUS
 62
    3
 10
597.0905930771778
 20
402.12689245317478
 11
610.0905930771778
 21
402.12689245317478
  0
LINE
  8
_0-1_Layer1
  6
CONTINUOUS
 62
    3
 10
686.78659307717771
 20
479.18899545317475
 11
697.78659307717771
 21
479.18899545317475
  0
ARC
  8
_0-1_Layer1
  6
CONTINUOUS
 62
    3
 10
686.78659307717771
 20
480.81849145317477
 40
1.629496308385455
 50
202.99633399999999
 51
337.00366600000001
  0
ARC
  8
_0-1_Layer1
  6
CONTINUOUS
 62
    3
 10
697.78659307717771
 20
480.81849145317477
 40
1.6294963083778951
 50
202.99633399999999
 51
337.00366600000001
  0
ARC
  8
_0-1_Layer1
  6
CONTINUOUS
 62
    3
 10
692.28659307717771
 20
487.74267145317469
 40
8.5536762542658362
 50
242.11909899999998
 51
297.88090099999999
  0
LINE
  8
_0-1_Layer1
  6
CONTINUOUS
 62
    3
 10
689.2685930771778
 20
462.18189245317467
 11
695.27259307717782
 21
462.18189245317467
  0
LINE
  8
_0-1_Layer1
  6
CONTINUOUS
 62
    3
 10
689.28659307717771
 20
479.1758924531747
 11
689.28659307717771
 21
462.18189245317467
  0
LINE
  8
_0-1_Layer1
  6
CONTINUOUS
 62
    3
 10
695.28659307717771
 20
479.1758924531747
 11
695.28659307717771
 21
462.18189245317467
  0
LINE
  8
_0-1_Layer1
  6
CONTINUOUS
 62
    3
 10
688.24159307717787
 20
463.20889245317466
 11
689.2685930771778
 21
462.18189245317467
  0
LINE
  8
_0-1_Layer1
  6
CONTINUOUS
 62
    3
 10
688.24159307717787
 20
479.1337714531748
 11
688.24159307717787
 21
463.20889245317466
  0
LINE
  8
_0-1_Layer1
  6
CONTINUOUS
 62
    3
 10
696.28659307717771
 20
463.19589245317468
 11
695.27259307717782
 21
462.18189245317467
  0
LINE
  8
_0-1_Layer1
  6
CONTINUOUS
 62
    3
 10
696.28659307717771
 20
479.1758924531747
 11
696.28659307717771
 21
463.19589245317468
  0
LINE
  8
_0-1_Layer1
  6
CONTINUOUS
 62
    3
 10
688.24159307717787
 20
463.20889245317466
 11
696.28659307717771
 21
463.20889245317466
  0
LINE
  8
_0-1_Layer1
  6
CONTINUOUS
 62
    3
 10
685.28659307717771
 20
480.18189245317467
 11
685.28659307717771
 21
485.18189245317467
  0
LINE
  8
_0-1_Layer1
  6
CONTINUOUS
 62
    3
 10
699.28659307717771
 20
480.18189245317467
 11
699.28659307717771
 21
485.1758924531747
  0
LINE
  8
_0-1_Layer1
  6
CONTINUOUS
 62
    3
 10
696.28659307717771
 20
480.18189245317467
 11
696.28659307717771
 21
485.1758924531747
  0
LINE
  8
_0-1_Layer1
  6
CONTINUOUS
 62
    3
 10
688.28659307717783
 20
480.18189245317467
 11
688.28659307717783
 21
485.18189245317467
  0
LINE
  8
_0-1_Layer1
  6
PLine2
 62
    3
 10
692.0815930771779
 20
513.56323145317481
 11
692.0815930771779
 21
458.1758924531747
  0
LINE
  8
_0-1_Layer1
  6
CONTINUOUS
 62
    3
 10
685.28659307717771
 20
503.18189245317467
 11
685.28659307717771
 21
498.18189245317467
  0
LINE
  8
_0-1_Layer1
  6
CONTINUOUS
 62
    3
 10
699.28659307717771
 20
503.18189245317467
 11
699.28659307717771
 21
498.18789245317475
  0
LINE
  8
_0-1_Layer1
  6
CONTINUOUS
 62
    3
 10
696.28659307717771
 20
503.18189245317467
 11
696.28659307717771
 21
498.18789245317475
  0
LINE
  8
_0-1_Layer1
  6
CONTINUOUS
 62
    6
 10
677.29559307717773
 20
495.54089245317471
 11
707.29559307717773
 21
495.54089245317471
  0
LINE
  8
_0-1_Layer1
  6
CONTINUOUS
 62
    6
 10
677.29559307717773
 20
495.82289245317469
 11
707.29559307717773
 21
495.82289245317469
  0
LINE
  8
_0-1_Layer1
  6
CONTINUOUS
 62
    6
 10
707.27159307717784
 20
496.10489245317467
 11
677.29559307717773
 21
496.10489245317467
  0
LINE
  8
_0-1_Layer1
  6
CONTINUOUS
 62
    6
 10
677.29559307717773
 20
496.38689245317471
 11
707.29559307717773
 21
496.38689245317471
  0
LINE
  8
_0-1_Layer1
  6
CONTINUOUS
 62
    6
 10
677.29559307717773
 20
495.1878924531747
 11
677.29559307717773
 21
496.6878924531747
  0
LINE
  8
_0-1_Layer1
  6
CONTINUOUS
 62
    6
 10
677.29559307717773
 20
496.6878924531747
 11
707.29559307717773
 21
496.6878924531747
  0
LINE
  8
_0-1_Layer1
  6
CONTINUOUS
 62
    6
 10
707.29559307717773
 20
496.6878924531747
 11
707.29559307717773
 21
495.1878924531747
  0
LINE
  8
_0-1_Layer1
  6
CONTINUOUS
 62
    3
 10
688.28659307717783
 20
503.18189245317467
 11
688.28659307717783
 21
498.18189245317467
  0
LINE
  8
_0-1_Layer1
  6
CONTINUOUS
 62
    3
 10
677.29559307717773
 20
496.6878924531747
 11
677.29559307717773
 21
498.18789245317475
  0
LINE
  8
_0-1_Layer1
  6
CONTINUOUS
 62
    3
 10
677.29559307717773
 20
498.18789245317475
 11
707.29559307717773
 21
498.18789245317475
  0
LINE
  8
_0-1_Layer1
  6
CONTINUOUS
 62
    3
 10
707.29559307717773
 20
498.18789245317475
 11
707.29559307717773
 21
496.6878924531747
  0
LINE
  8
_0-1_Layer1
  6
CONTINUOUS
 62
    3
 10
686.78659307717771
 20
504.17478945317481
 11
697.78659307717771
 21
504.17478945317481
  0
ARC
  8
_0-1_Layer1
  6
CONTINUOUS
 62
    3
 10
686.78659307717771
 20
502.54529345317479
 40
1.6294963084595211
 50
22.996333999999997
 51
157.0036659999999
  0
ARC
  8
_0-1_Layer1
  6
CONTINUOUS
 62
    3
 10
697.78659307717771
 20
502.54529345317479
 40
1.629496308394663
 50
22.996333999999997
 51
157.0036659999999
  0
ARC
  8
_0-1_Layer1
  6
CONTINUOUS
 62
    3
 10
692.28659307717771
 20
495.62111345317476
 40
8.5536762541991038
 50
62.119099000000013
 51
117.88090099999999
  0
LINE
  8
_0-1_Layer1
  6
CONTINUOUS
 62
    6
 10
702.0815930771779
 20
487.18189245317467
 11
702.0815930771779
 21
492.18189245317467
  0
LINE
  8
_0-1_Layer1
  6
CONTINUOUS
 62
    6
 10
682.0815930771779
 20
487.18189245317467
 11
682.0815930771779
 21
492.18189245317467
  0
LINE
  8
_0-1_Layer1
  6
CONTINUOUS
 62
    4
 10
642.0905930771778
 20
465.18789245317475
 11
660.30939407717779
 21
492.51609345317479
  0
LINE
  8
_0-1_Layer1
  6
CONTINUOUS
 62
    4
 10
645.69614407717779
 20
465.18789245317475
 11
662.80154507717793
 21
490.8459934531748
  0
LINE
  8
_0-1_Layer1
  6
CONTINUOUS
 62
    4
 10
645.69614407717779
 20
465.18789245317475
 11
642.0905930771778
 21
465.18789245317475
  0
ARC
  8
_0-1_Layer1
  6
CONTINUOUS
 62
    4
 10
665.30169607717789
 20
489.1878924531747
 40
6.000000000050477
 50
90
 51
146.309932
  0
ARC
  8
_0-1_Layer1
  6
CONTINUOUS
 62
    4
 10
710.42324207717786
 20
498.18189245317467
 40
6.0000000001306839
 50
270
 51
327.930633
  0
ARC
  8
_0-1_Layer1
  6
CONTINUOUS
 62
    4
 10
665.29769607717776
 20
489.18189245317467
 40
3.0000000002346492
 50
90
 51
146.309932
  0
LINE
  8
_0-1_Layer1
  6
CONTINUOUS
 62
    6
 10
682.0815930771779
 20
490.47575845317471
 11
685.37545907717788
 21
487.18189245317467
  0
LINE
  8
_0-1_Layer1
  6
CONTINUOUS
 62
    6
 10
682.0815930771779
 20
487.8615744531748
 11
686.40191107717772
 21
492.18189245317467
  0
LINE
  8
_0-1_Layer1
  6
CONTINUOUS
 62
    6
 10
690.57144507717794
 20
487.18189245317467
 11
685.57144507717783
 21
492.18189245317467
  0
LINE
  8
_0-1_Layer1
  6
CONTINUOUS
 62
    6
 10
691.13942807717785
 20
492.18189245317467
 11
686.13942807717774
 21
487.18189245317467
  0
LINE
  8
_0-1_Layer1
  6
CONTINUOUS
 62
    6
 10
694.95237407717775
 20
487.18189245317467
 11
689.95237407717786
 21
492.18189245317467
  0
LINE
  8
_0-1_Layer1
  6
CONTINUOUS
 62
    6
 10
695.82600407717791
 20
492.18189245317467
 11
690.82600407717791
 21
487.18189245317467
  0
LINE
  8
_0-1_Layer1
  6
CONTINUOUS
 62
    6
 10
699.68989107717789
 20
487.18189245317467
 11
694.68989107717789
 21
492.18189245317467
  0
LINE
  8
_0-1_Layer1
  6
CONTINUOUS
 62
    6
 10
696.07293107717771
 20
487.18189245317467
 11
701.07293107717783
 21
492.18189245317467
  0
LINE
  8
_0-1_Layer1
  6
CONTINUOUS
 62
    6
 10
702.0815930771779
 20
488.91150745317481
 11
700.35197807717793
 21
487.18189245317467
  0
LINE
  8
_0-1_Layer1
  6
CONTINUOUS
 62
    6
 10
698.30670407717787
 20
492.18189245317467
 11
702.0815930771779
 21
488.4070034531747
  0
INSERT
  2
-033-DIM_33
  8
_0-1_Layer1
 10
658.11480207717773
 20
495.1878924531747
 41
1
 42
1
 50
0
  0
INSERT
  2
-034-DIM_34
  8
_0-1_Layer1
 10
662.0905930771778
 20
497.50319745317478
 41
1
 42
1
 50
0
  0
CIRCLE
  8
_0-1_Layer1
  6
CONTINUOUS
 62
    3
 10
712.0905930771778
 20
560.2357794531747
 40
0.6
  0
LINE
  8
_0-1_Layer1
  6
CONTINUOUS
 62
    3
 10
712.0905930771778
 20
560.2357794531747
 11
805.86790407717785
 21
560.2357794531747
  0
TEXT
  8
_0-1_Layer1
 62
    7
 10
747.40658127717791
 20
561.66944845317482
 40
6
 41
0.8582679999999999
 50
0
  1
Ａ　ドーム寸法
  0
CIRCLE
  8
_0-1_Layer1
  6
CONTINUOUS
 62
    3
 10
798.60097907717773
 20
559.62997445317478
 40
5.3803758570277314
  0
CIRCLE
  8
_0-1_Layer1
  6
CONTINUOUS
 62
    3
 10
803.76272607717772
 20
559.93360645317478
 40
5.7047306495360317
  0
CIRCLE
  8
_0-1_Layer1
  6
CONTINUOUS
 62
    3
 10
724.0905930771778
 20
481.16278345317477
 40
0.6
  0
LINE
  8
_0-1_Layer1
  6
CONTINUOUS
 62
    3
 10
724.0905930771778
 20
481.16278345317477
 11
805.70597207717788
 21
481.16278345317477
  0
LINE
  8
_0-1_Layer1
  6
CONTINUOUS
 62
    3
 10
724.0905930771778
 20
463.3176234531748
 11
724.0905930771778
 21
483.16278345317465
  0
TEXT
  8
_0-1_Layer1
 62
    7
 10
762.49513167717782
 20
482.16278345317477
 40
6
 41
0.8582679999999999
 50
0
  1
Ｇ
  0
CIRCLE
  8
_0-1_Layer1
  6
CONTINUOUS
 62
    3
 10
712.0927160771779
 20
336.8925284531748
 40
0.6
  0
LINE
  8
_0-1_Layer1
  6
CONTINUOUS
 62
    3
 10
712.0927160771779
 20
336.8925284531748
 11
815.56072807717783
 21
336.8925284531748
  0
TEXT
  8
_0-1_Layer1
 62
    7
 10
761.59522527717786
 20
337.8925284531748
 40
6
 41
0.8582679999999999
 50
0
  1
Ｊ
  0
TEXT
  8
_0-1_Layer1
 62
    7
 10
720.26882127717772
 20
329.49770645317477
 40
6
 41
0.8582679999999999
 50
0
  1
　　　フレーム内径
  0
CIRCLE
  8
_0-1_Layer1
  6
CONTINUOUS
 62
    3
 10
808.62656807717781
 20
336.77535045317478
 40
4.1365344087248559
  0
CIRCLE
  8
_0-1_Layer1
  6
CONTINUOUS
 62
    3
 10
812.5130590771779
 20
336.53244445317478
 40
5.3273371221901007
  0
CIRCLE
  8
_0-1_Layer1
  6
CONTINUOUS
 62
    3
 10
798.33704707717789
 20
481.66964845317466
 40
3.0435988878273279
  0
CIRCLE
  8
_0-1_Layer1
  6
CONTINUOUS
 62
    3
 10
800.76610407717772
 20
481.18383645317471
 40
4.0718404322419701
  0
INSERT
  2
-035-DIM_35
  8
_0-1_Layer1
 10
597.0905930771778
 20
392.9957814531748
 41
1
 42
1
 50
0
  0
CIRCLE
  8
_0-1_Layer1
  6
CONTINUOUS
 62
    3
 10
612.0905930771778
 20
341.6253754531748
 40
0.6
  0
LINE
  8
_0-1_Layer1
  6
CONTINUOUS
 62
    3
 10
612.0905930771778
 20
341.6253754531748
 11
695.06384207717781
 21
341.6253754531748
  0
TEXT
  8
_0-1_Layer1
 62
    7
 10
651.17406767717785
 20
342.6253754531748
 40
6
 41
0.8582679999999999
 50
0
  1
Ｗ
  0
TEXT
  8
_0-1_Layer1
 62
    7
 10
634.61286207717762
 20
334.9689894531748
 40
6
 41
0.8582679999999999
 50
0
  1
フレーム寸法
  0
CIRCLE
  8
_0-1_Layer1
  6
CONTINUOUS
 62
    3
 10
686.40269907717777
 20
341.81969945317479
 40
3.6302809711799
  0
CIRCLE
  8
_0-1_Layer1
  6
CONTINUOUS
 62
    3
 10
689.90054007717777
 20
341.6253754531748
 40
4.279552860018156
  0
INSERT
  2
-036-DIM_36
  8
_0-1_Layer1
 10
597.0905930771778
 20
423.44529345317477
 41
1
 42
1
 50
0
  0
INSERT
  2
-037-DIM_37
  8
_0-1_Layer1
 10
692.0815930771779
 20
513.69231245317474
 41
1
 42
1
 50
0
  0
INSERT
  2
-038-DIM_38
  8
_0-1_Layer1
 10
712.0905930771778
 20
477.12085245317479
 41
1
 42
1
 50
0
  0
INSERT
  2
-039-DIM_39
  8
_0-1_Layer1
 10
667.50045307717789
 20
487.18189245317467
 41
1
 42
1
 50
0
  0
INSERT
  2
-040-DIM_40
  8
_0-1_Layer1
 10
697.56001707717792
 20
437.18189245317478
 41
1
 42
1
 50
0
  0
INSERT
  2
-041-DIM_41
  8
_0-1_Layer1
 10
591.89609707717773
 20
417.18189245317478
 41
1
 42
1
 50
0
  0
INSERT
  2
-042-DIM_42
  8
_0-1_Layer1
 10
591.59246507717774
 20
402.18189245317478
 41
1
 42
1
 50
0
  0
INSERT
  2
-043-DIM_43
  8
_0-1_Layer1
 10
672.0905930771778
 20
473.24921245317478
 41
1
 42
1
 50
0
  0
TEXT
  8
_0-1_Layer1
 62
    7
 10
776.98723107717785
 20
215.22312745317478
 40
6
 41
0.8582679999999999
 50
0
  1
断面詳細図　
  0
LINE
  8
_0-1_Layer1
  6
CONTINUOUS
 62
    3
 10
775.43354707717788
 20
223.08261845317477
 11
804.03812307717783
 21
223.08261845317477
  0
LINE
  8
_0-1_Layer1
  6
CONTINUOUS
 62
    3
 10
804.03812307717783
 20
223.08261845317477
 11
804.03812307717783
 21
213.75503945317479
  0
LINE
  8
_0-1_Layer1
  6
CONTINUOUS
 62
    3
 10
804.03812307717783
 20
213.75503945317479
 11
775.43354707717788
 21
213.75503945317479
  0
LINE
  8
_0-1_Layer1
  6
CONTINUOUS
 62
    3
 10
775.43354707717788
 20
213.75503945317479
 11
775.43354707717788
 21
223.08261845317477
  0
TEXT
  8
_0-1_Layer1
 62
    7
 10
756.87840307717795
 20
473.71663545317477
 40
6
 41
0.8582679999999999
 50
0
  1
硝子寸法
  0
LINE
  8
_0-1_Layer1
  6
CONTINUOUS
 62
    3
 10
679.62289307717788
 20
406.05165745317476
 11
678.18988007717792
 21
407.53370845317477
  0
LINE
  8
_0-1_Layer1
  6
CONTINUOUS
 62
    3
 10
678.18988007717792
 20
407.53370845317477
 11
693.11611707717782
 21
381.68070845317476
  0
LINE
  8
_0-1_Layer1
  6
CONTINUOUS
 62
    3
 10
693.11611707717782
 20
381.68070845317476
 11
703.41532907717772
 21
381.68070845317476
  0
TEXT
  8
_0-1_Layer1
 62
    7
 10
693.11611707717782
 20
382.68070845317476
 40
6
 41
0.8582679999999999
 50
0
  1
溶接
  0
TEXT
  8
_0-1_Layer1
 62
    7
 10
403.60077407717779
 20
39.297562453174805
 40
6
 41
0.8582679999999999
 50
0
  1
注、機種により多少図と異なる場合があります。
  0
LINE
  8
_0-1_Layer1
  6
CONTINUOUS
 62
    3
 10
620.46430807717786
 20
424.69759345317476
 11
623.3303330771779
 21
421.73349145317479
  0
LINE
  8
_0-1_Layer1
  6
CONTINUOUS
 62
    3
 10
623.3303330771779
 20
421.73349145317479
 11
579.84476407717773
 21
497.05270745317466
  0
LINE
  8
_0-1_Layer1
  6
CONTINUOUS
 62
    3
 10
579.84476407717773
 20
497.05270745317466
 11
507.75027607717789
 21
497.05270745317466
  0
TEXT
  8
_0-1_Layer1
 62
    7
 10
392.63875107717786
 20
205.47068345317479
 40
6
 41
0.8582679999999999
 50
0
  1
水下端部
  0
TEXT
  8
_0-1_Layer1
 62
    7
 10
403.61331407717785
 20
46.924153453174796
 40
6
 41
0.8582679999999999
 50
0
  1
注、フレーム取付穴は、ドームに合わせ現場穴開け。
  0
TEXT
  8
_0-1_Layer1
 62
    7
 10
37.581513077177874
 20
487.57247545317477
 40
6
 41
0.8582679999999999
 50
0
  1
注、Ｔ－２０００ＡＣは、受注生産です。
  0
TEXT
  8
_0-1_Layer1
 62
    7
 10
12.696839077177856
 20
7.9155354531747548
 40
6
 41
0.8582679999999999
 50
0
  1
Ｓ１：２０
  0
LINE
  8
_0-1_Layer1
  6
CONTINUOUS
 62
    3
 10
697.70968007717772
 20
137.14588245317478
 11
698.27666707717776
 21
139.12793345317476
  0
LINE
  8
_0-1_Layer1
  6
CONTINUOUS
 62
    3
 10
698.27666707717776
 20
139.12793345317476
 11
670.60121507717781
 21
91.192644453174779
  0
LINE
  8
_0-1_Layer1
  6
CONTINUOUS
 62
    3
 10
670.60121507717781
 20
91.192644453174779
 11
634.55397107717772
 21
91.192644453174779
  0
TEXT
  8
_0-1_Layer1
 62
    7
 10
634.55397107717772
 20
92.192644453174751
 40
6
 41
0.8582679999999999
 50
0
  1
ジョイント目板
  0
TEXT
  8
_0-1_Layer1
 62
    7
 10
211.07020297936566
 20
517.46040745317487
 40
6
 41
0.8582679999999999
 50
0
  1
１９７６
  0
TEXT
  8
_0-1_Layer1
 62
    7
 10
454.59677507717788
 20
402.90190245317478
 40
6
 41
0.8582679999999999
 50
0
  1
水上端部
  0
TEXT
  8
_0-1_Layer1
 62
    7
 10
195.79619907717787
 20
565.47257245317473
 40
6
 41
0.8582679999999999
 50
0
  1
Ｄ
  0
TEXT
  8
_0-1_Layer1
 62
    7
 10
193.07001207717786
 20
553.59692145317467
 40
6
 41
0.8582679999999999
 50
0
  1
５０
  0
TEXT
  8
_0-1_Layer1
 62
    7
 10
193.27818207717786
 20
541.52309345317485
 40
6
 41
0.8582679999999999
 50
0
  1
５０
  0
TEXT
  8
_0-1_Layer1
 62
    7
 10
193.53964307717786
 20
529.05957145317461
 40
6
 41
0.8582679999999999
 50
0
  1
５０
  0
TEXT
  8
_0-1_Layer1
 62
    7
 10
193.42306807717787
 20
517.38542845317477
 40
6
 41
0.8582679999999999
 50
0
  1
６０
  0
LINE
  8
_0-1_Layer1
  6
PLine3
 62
    3
 10
120.13660707717787
 20
101.7330594531748
 11
79.445990077177839
 21
101.7330594531748
  0
LINE
  8
_0-1_Layer1
  6
PLine3
 62
    3
 10
278.43829907717787
 20
101.7330594531748
 11
237.13660707717787
 21
101.7330594531748
  0
LINE
  8
_0-1_Layer1
  6
PLine3
 62
    3
 10
227.13660707717787
 20
101.7330594531748
 11
130.13660707717787
 21
101.7330594531748
  0
LINE
  8
_0-1_Layer1
  6
CONTINUOUS
 62
    3
 10
99.536607077177848
 20
119.2330594531748
 11
88.581834077177859
 21
103.2330594531748
  0
LINE
  8
_0-1_Layer1
  6
CONTINUOUS
 62
    3
 10
98.536607077177848
 20
117.94951745317479
 11
95.177266077177876
 21
113.04303045317477
  0
LINE
  8
_0-1_Layer1
  6
CONTINUOUS
 62
    3
 10
99.578788077177876
 20
119.15305945317482
 11
88.6103210771779
 21
103.13305945317478
  0
LINE
  8
_0-1_Layer1
  6
CONTINUOUS
 62
    3
 10
95.246943077177889
 20
112.96778845317476
 11
94.286635077177834
 21
112.41335445317478
  0
LINE
  8
_0-1_Layer1
  6
CONTINUOUS
 62
    3
 10
94.23663507717788
 20
112.49995645317478
 11
94.286635077177834
 21
112.41335445317478
  0
LINE
  8
_0-1_Layer1
  6
CONTINUOUS
 62
    3
 10
95.177266077177876
 20
113.04303045317477
 11
94.23663507717788
 21
112.49995645317478
  0
ARC
  8
_0-1_Layer1
  6
CONTINUOUS
 62
    4
 10
125.43660707717788
 20
128.13305945317478
 40
0.2999999999025934
 50
180
 51
270
  0
LINE
  8
_0-1_Layer1
  6
PLine1
 62
    4
 10
103.55660707717789
 20
122.73305945317477
 11
103.55660707717789
 21
122.50305945317479
  0
LINE
  8
_0-1_Layer1
  6
PLine1
 62
    4
 10
103.55660707717789
 20
122.50305945317479
 11
99.786607077177848
 21
122.50305945317479
  0
LINE
  8
_0-1_Layer1
  6
PLine1
 62
    4
 10
99.786607077177848
 20
122.50305945317479
 11
99.786607077177848
 21
119.46305945317479
  0
LINE
  8
_0-1_Layer1
  6
PLine1
 62
    4
 10
99.786607077177848
 20
119.46305945317479
 11
103.55660707717789
 21
119.46305945317479
  0
LINE
  8
_0-1_Layer1
  6
CONTINUOUS
 62
    3
 10
101.55660707717789
 20
123.05758045317478
 11
101.55660707717789
 21
122.20207145317477
  0
LINE
  8
_0-1_Layer1
  6
CONTINUOUS
 62
    3
 10
103.55660707717789
 20
119.2330594531748
 11
99.536607077177848
 21
119.2330594531748
  0
LINE
  8
_0-1_Layer1
  6
CONTINUOUS
 62
    3
 10
98.636607077177871
 20
122.73305945317477
 11
98.636607077177871
 21
117.91856345317478
  0
LINE
  8
_0-1_Layer1
  6
CONTINUOUS
 62
    3
 10
103.62778407717786
 20
120.54145045317478
 11
104.33015907717788
 21
121.19624545317478
  0
LINE
  8
_0-1_Layer1
  6
CONTINUOUS
 62
    3
 10
104.33015907717788
 20
121.19624545317478
 11
103.62778407717786
 21
121.73095745317477
  0
LINE
  8
_0-1_Layer1
  6
CONTINUOUS
 62
    3
 10
103.62778407717786
 20
121.73095745317477
 11
102.94126807717788
 21
121.83744645317478
  0
LINE
  8
_0-1_Layer1
  6
CONTINUOUS
 62
    3
 10
103.5507490771779
 20
120.60715645317478
 11
104.21687307717787
 21
121.16452545317478
  0
LINE
  8
_0-1_Layer1
  6
CONTINUOUS
 62
    3
 10
104.21687307717787
 20
121.16452545317478
 11
103.54621807717785
 21
121.64939145317479
  0
LINE
  8
_0-1_Layer1
  6
CONTINUOUS
 62
    3
 10
103.54621807717785
 20
121.64939145317479
 11
102.92994007717789
 21
121.72416045317476
  0
LINE
  8
_0-1_Layer1
  6
CONTINUOUS
 62
    3
 10
98.536607077177848
 20
122.73305945317477
 11
98.536607077177848
 21
117.94951745317479
  0
LINE
  8
_0-1_Layer1
  6
CONTINUOUS
 62
    3
 10
103.55660707717789
 20
119.2330594531748
 11
103.55660707717789
 21
120.53305945317479
  0
LINE
  8
_0-1_Layer1
  6
CONTINUOUS
 62
    3
 10
103.55551207717787
 20
120.53975545317479
 11
103.55551207717787
 21
120.60262445317477
  0
LINE
  8
_0-1_Layer1
  6
CONTINUOUS
 62
    3
 10
103.63660707717787
 20
120.53305945317479
 11
103.63660707717787
 21
119.15305945317482
  0
LINE
  8
_0-1_Layer1
  6
CONTINUOUS
 62
    3
 10
99.578788077177876
 20
119.15305945317482
 11
103.63660707717787
 21
119.15305945317482
  0
LINE
  8
_0-1_Layer1
  6
CONTINUOUS
 62
    4
 10
130.13660707717787
 20
129.83305945317477
 11
129.81660707717788
 21
129.83305945317477
  0
LINE
  8
_0-1_Layer1
  6
CONTINUOUS
 62
    4
 10
129.81660707717788
 20
135.83407545317476
 11
130.13660707717787
 21
135.83407545317476
  0
LINE
  8
_0-1_Layer1
  6
CONTINUOUS
 62
    4
 10
125.43660707717788
 20
127.83305945317477
 11
129.83660707717786
 21
127.83305945317477
  0
ARC
  8
_0-1_Layer1
  6
CONTINUOUS
 62
    4
 10
125.43660707717788
 20
137.53407545317478
 40
0.2999999992236401
 50
90
 51
180
  0
ARC
  8
_0-1_Layer1
  6
CONTINUOUS
 62
    4
 10
129.83660707717786
 20
137.53407545317478
 40
0.2999999996495598
 50
0
 51
90
  0
LINE
  8
_0-1_Layer1
  6
CONTINUOUS
 62
    4
 10
130.13660707717787
 20
137.53407545317478
 11
130.13660707717787
 21
135.83407545317476
  0
ARC
  8
_0-1_Layer1
  6
CONTINUOUS
 62
    4
 10
129.83660707717786
 20
128.13305945317478
 40
0.3000000005166327
 50
270
 51
0
  0
ARC
  8
_0-1_Layer1
  6
CONTINUOUS
 62
    3
 10
125.03660707717785
 20
122.83305945317477
 40
0.1000000002209834
 50
270
 51
0
  0
LINE
  8
_0-1_Layer1
  6
CONTINUOUS
 62
    3
 10
102.9439400771779
 20
121.83731945317479
 11
102.93413507717787
 21
121.72358945317478
  0
ARC
  8
_0-1_Layer1
  6
CONTINUOUS
 62
    3
 10
98.636607077177871
 20
122.73305945317477
 40
0.1000000024468972
 50
90
 51
180
  0
LINE
  8
_0-1_Layer1
  6
CONTINUOUS
 62
    4
 10
125.45660707717786
 20
137.4140754531748
 11
125.45660707717786
 21
128.25305945317479
  0
ARC
  8
_0-1_Layer1
  6
PLine1
 62
    4
 10
99.756607077177875
 20
122.53305945317479
 40
0.1999999993343004
 50
90
 51
180
  0
LINE
  8
_0-1_Layer1
  6
PLine1
 62
    4
 10
99.556607077177887
 20
119.43305945317479
 11
99.556607077177887
 21
122.53305945317479
  0
ARC
  8
_0-1_Layer1
  6
PLine1
 62
    4
 10
99.756607077177875
 20
119.43305945317479
 40
0.2000000004019232
 50
180
 51
270
  0
LINE
  8
_0-1_Layer1
  6
CONTINUOUS
 62
    3
 10
125.03660707717785
 20
122.83305945317477
 11
125.03660707717785
 21
137.93305945317479
  0
LINE
  8
_0-1_Layer1
  6
CONTINUOUS
 62
    4
 10
130.13660707717787
 20
129.83305945317477
 11
130.13660707717787
 21
101.7330594531748
  0
LINE
  8
_0-1_Layer1
  6
CONTINUOUS
 62
    3
 10
125.03660707717785
 20
122.83305945317477
 11
98.636607077177871
 21
122.83305945317477
  0
LINE
  8
_0-1_Layer1
  6
CONTINUOUS
 62
    3
 10
125.03660707717785
 20
122.73305945317477
 11
98.636607077177871
 21
122.73305945317477
  0
LINE
  8
_0-1_Layer1
  6
CONTINUOUS
 62
    4
 10
129.86127807717787
 20
137.83305945317477
 11
125.13660707717787
 21
137.83305945317477
  0
LINE
  8
_0-1_Layer1
  6
CONTINUOUS
 62
    4
 10
125.13660707717787
 20
101.7330594531748
 11
125.13660707717787
 21
137.83305945317477
  0
ARC
  8
_0-1_Layer1
  6
CONTINUOUS
 62
    4
 10
125.55660707717789
 20
137.4140754531748
 40
0.0999999980410418
 50
90
 51
180
  0
LINE
  8
_0-1_Layer1
  6
CONTINUOUS
 62
    4
 10
125.55660707717789
 20
137.51407545317477
 11
129.71660707717785
 21
137.51407545317477
  0
ARC
  8
_0-1_Layer1
  6
CONTINUOUS
 62
    4
 10
129.71660707717785
 20
137.4140754531748
 40
0.0999999982040904
 50
0
 51
90
  0
LINE
  8
_0-1_Layer1
  6
CONTINUOUS
 62
    4
 10
129.81660707717788
 20
137.4140754531748
 11
129.81660707717788
 21
135.83407545317476
  0
LINE
  8
_0-1_Layer1
  6
CONTINUOUS
 62
    4
 10
129.81660707717788
 20
129.83305945317477
 11
129.81660707717788
 21
128.25305945317479
  0
ARC
  8
_0-1_Layer1
  6
CONTINUOUS
 62
    4
 10
129.71660707717785
 20
128.25305945317479
 40
0.0999999987305763
 50
270
 51
0
  0
LINE
  8
_0-1_Layer1
  6
CONTINUOUS
 62
    4
 10
129.71660707717785
 20
128.15305945317476
 11
125.55660707717789
 21
128.15305945317476
  0
ARC
  8
_0-1_Layer1
  6
CONTINUOUS
 62
    4
 10
125.55660707717789
 20
128.25305945317479
 40
0.1000000012068005
 50
180
 51
270
  0
LINE
  8
_0-1_Layer1
  6
CONTINUOUS
 62
    3
 10
128.13660707717787
 20
137.93305945317479
 11
125.03660707717785
 21
137.93305945317479
  0
LINE
  8
_0-1_Layer1
  6
CONTINUOUS
 62
    3
 10
128.13660707717787
 20
137.83305945317477
 11
128.13660707717787
 21
137.93305945317479
  0
LINE
  8
_0-1_Layer1
  6
CONTINUOUS
 62
    3
 10
79.445990077177839
 20
103.13305945317478
 11
88.6103210771779
 21
103.13305945317478
  0
LINE
  8
_0-1_Layer1
  6
CONTINUOUS
 62
    3
 10
79.445990077177839
 20
103.2330594531748
 11
88.581834077177859
 21
103.2330594531748
  0
LINE
  8
_0-1_Layer1
  6
PLine1
 62
    4
 10
125.45660707717786
 20
127.82157245317478
 11
125.45660707717786
 21
101.7330594531748
  0
LINE
  8
_0-1_Layer1
  6
PLine1
 62
    4
 10
129.81660707717788
 20
127.82157245317478
 11
129.81660707717788
 21
101.7330594531748
  0
LINE
  8
_0-1_Layer1
  6
CONTINUOUS
 62
    4
 10
120.13660707717787
 20
100.7330594531748
 11
120.13660707717787
 21
101.7330594531748
  0
LINE
  8
_0-1_Layer1
  6
CONTINUOUS
 62
    4
 10
120.13660707717787
 20
101.7330594531748
 11
130.13660707717787
 21
101.7330594531748
  0
LINE
  8
_0-1_Layer1
  6
CONTINUOUS
 62
    4
 10
130.13660707717787
 20
101.7330594531748
 11
130.13660707717787
 21
100.7330594531748
  0
LINE
  8
_0-1_Layer1
  6
CONTINUOUS
 62
    4
 10
130.13660707717787
 20
100.7330594531748
 11
126.03660707717785
 21
100.7330594531748
  0
ARC
  8
_0-1_Layer1
  6
CONTINUOUS
 62
    4
 10
126.03660707717785
 20
100.13305945317478
 40
0.6000000004399161
 50
90
 51
180
  0
LINE
  8
_0-1_Layer1
  6
CONTINUOUS
 62
    4
 10
125.43660707717788
 20
100.13305945317478
 11
125.43660707717788
 21
83.333059453174769
  0
ARC
  8
_0-1_Layer1
  6
CONTINUOUS
 62
    4
 10
126.03660707717785
 20
83.333059453174769
 40
0.599999999937366
 50
180
 51
270
  0
LINE
  8
_0-1_Layer1
  6
CONTINUOUS
 62
    4
 10
126.03660707717785
 20
82.733059453174775
 11
130.13660707717787
 21
82.733059453174775
  0
LINE
  8
_0-1_Layer1
  6
CONTINUOUS
 62
    4
 10
130.13660707717787
 20
82.733059453174775
 11
130.13660707717787
 21
81.733059453174775
  0
LINE
  8
_0-1_Layer1
  6
CONTINUOUS
 62
    4
 10
130.13660707717787
 20
81.733059453174775
 11
120.13660707717787
 21
81.733059453174775
  0
LINE
  8
_0-1_Layer1
  6
CONTINUOUS
 62
    4
 10
120.13660707717787
 20
81.733059453174775
 11
120.13660707717787
 21
82.733059453174775
  0
LINE
  8
_0-1_Layer1
  6
CONTINUOUS
 62
    4
 10
120.13660707717787
 20
82.733059453174775
 11
124.23660707717784
 21
82.733059453174775
  0
ARC
  8
_0-1_Layer1
  6
CONTINUOUS
 62
    4
 10
124.23660707717784
 20
83.333059453174769
 40
0.6000000001291132
 50
270
 51
0
  0
LINE
  8
_0-1_Layer1
  6
CONTINUOUS
 62
    4
 10
124.83660707717786
 20
83.333059453174769
 11
124.83660707717786
 21
100.13305945317478
  0
ARC
  8
_0-1_Layer1
  6
CONTINUOUS
 62
    4
 10
124.23660707717784
 20
100.13305945317478
 40
0.600000000361527
 50
0
 51
90
  0
LINE
  8
_0-1_Layer1
  6
CONTINUOUS
 62
    4
 10
124.23660707717784
 20
100.7330594531748
 11
120.13660707717787
 21
100.7330594531748
  0
LINE
  8
_0-1_Layer1
  6
PLine2
 62
    3
 10
125.13660707717787
 20
101.7330594531748
 11
125.13660707717787
 21
79.030267453174787
  0
ARC
  8
_0-1_Layer1
  6
CONTINUOUS
 62
    6
 10
124.10561907717783
 20
125.98099145317479
 40
9.376705135722446
 50
84.301861999999986
 51
92.867059999999995
  0
LINE
  8
_0-1_Layer1
  6
CONTINUOUS
 62
    6
 10
123.63660707717787
 20
136.34595945317477
 11
125.03660707717785
 21
136.34595945317477
  0
INSERT
  2
-044-DIM_44
  8
_0-1_Layer1
 10
119.11621707717785
 20
137.83305945317477
 41
1
 42
1
 50
0
  0
LINE
  8
_0-1_Layer1
  6
CONTINUOUS
 62
    3
 10
87.64910307717787
 20
105.43568845317481
 11
89.082115077177889
 21
103.95363745317479
  0
LINE
  8
_0-1_Layer1
  6
CONTINUOUS
 62
    3
 10
89.082115077177889
 20
103.95363745317479
 11
79.167640077177907
 21
121.12601345317478
  0
LINE
  8
_0-1_Layer1
  6
CONTINUOUS
 62
    3
 10
79.167640077177907
 20
121.12601345317478
 11
66.276772077177839
 21
121.12601345317478
  0
TEXT
  8
_0-1_Layer1
 62
    7
 10
66.276772077177839
 20
122.12601345317478
 40
6
 41
0.8582679999999999
 50
0
  1
折版
  0
LINE
  8
_0-1_Layer1
  6
CONTINUOUS
 62
    3
 10
124.37252907717789
 20
117.7329024531748
 11
124.93951607717787
 21
119.71495245317479
  0
LINE
  8
_0-1_Layer1
  6
CONTINUOUS
 62
    3
 10
124.93951607717787
 20
119.71495245317479
 11
106.46823507717784
 21
87.721754453174782
  0
LINE
  8
_0-1_Layer1
  6
CONTINUOUS
 62
    3
 10
106.46823507717784
 20
87.721754453174782
 11
38.750912077177873
 21
87.721754453174782
  0
TEXT
  8
_0-1_Layer1
 62
    7
 10
87.609702077177872
 20
79.993200453174779
 40
6
 41
0.8582679999999999
 50
0
  1
（別途）
  0
LINE
  8
_0-1_Layer1
  6
CONTINUOUS
 62
    6
 10
124.17126307717785
 20
136.34595945317477
 11
123.63660707717787
 21
135.81130345317479
  0
LINE
  8
_0-1_Layer1
  6
CONTINUOUS
 62
    6
 10
123.69013507717784
 20
135.34848645317479
 11
124.68760807717786
 21
136.34595945317477
  0
LINE
  8
_0-1_Layer1
  6
CONTINUOUS
 62
    6
 10
124.22873107717788
 20
135.35512845317479
 11
125.03660707717785
 21
136.16300445317478
  0
LINE
  8
_0-1_Layer1
  6
CONTINUOUS
 62
    6
 10
124.05581207717785
 20
135.3575644531748
 11
123.63660707717787
 21
135.77676845317478
  0
LINE
  8
_0-1_Layer1
  6
CONTINUOUS
 62
    6
 10
123.64939807717786
 20
136.34595945317477
 11
124.65369207717788
 21
135.34166545317478
  0
LINE
  8
_0-1_Layer1
  6
CONTINUOUS
 62
    6
 10
124.73872007717785
 20
135.33762945317477
 11
125.03660707717785
 21
135.63551745317477
  0
LINE
  8
_0-1_Layer1
  6
CONTINUOUS
 62
    6
 10
124.17438607717787
 20
136.34595945317477
 11
125.03660707717785
 21
135.4837374531748
  0
LINE
  8
_0-1_Layer1
  6
CONTINUOUS
 62
    6
 10
124.73187307717785
 20
136.34595945317477
 11
125.03660707717785
 21
136.04122445317478
  0
INSERT
  2
-045-DIM_45
  8
_0-1_Layer1
 10
125.13660707717787
 20
78.007554453174777
 41
1
 42
1
 50
0
  0
LINE
  8
_0-1_Layer1
  6
CONTINUOUS
 62
    3
 10
223.83660707717786
 20
140.35145945317478
 11
223.83660707717786
 21
143.6508594531748
  0
LINE
  8
_0-1_Layer1
  6
CONTINUOUS
 62
    3
 10
235.13660707717787
 20
138.3321024531748
 11
223.83660707717786
 21
140.35066645317477
  0
LINE
  8
_0-1_Layer1
  6
CONTINUOUS
 62
    3
 10
235.13660707717787
 20
136.84595945317477
 11
235.13660707717787
 21
138.3321024531748
  0
LINE
  8
_0-1_Layer1
  6
CONTINUOUS
 62
    3
 10
262.02627107717785
 20
112.96778845317476
 11
262.98657907717785
 21
112.41335445317478
  0
LINE
  8
_0-1_Layer1
  6
CONTINUOUS
 62
    3
 10
263.03657907717786
 20
112.49995645317478
 11
262.98657907717785
 21
112.41335445317478
  0
LINE
  8
_0-1_Layer1
  6
CONTINUOUS
 62
    3
 10
262.09594807717787
 20
113.04303045317477
 11
263.03657907717786
 21
112.49995645317478
  0
LINE
  8
_0-1_Layer1
  6
CONTINUOUS
 62
    3
 10
258.73660707717789
 20
117.94951745317479
 11
262.09594807717787
 21
113.04303045317477
  0
LINE
  8
_0-1_Layer1
  6
CONTINUOUS
 62
    3
 10
257.73660707717789
 20
119.2330594531748
 11
268.69138107717788
 21
103.2330594531748
  0
LINE
  8
_0-1_Layer1
  6
CONTINUOUS
 62
    3
 10
257.69442707717786
 20
119.15305945317482
 11
268.66289407717795
 21
103.13305945317478
  0
LINE
  8
_0-1_Layer1
  6
PLine1
 62
    4
 10
232.13660707717787
 20
122.83305945317477
 11
232.13660707717787
 21
101.7330594531748
  0
LINE
  8
_0-1_Layer1
  6
PLine1
 62
    4
 10
227.13660707717787
 20
101.7330594531748
 11
227.13660707717787
 21
129.83305945317477
  0
LINE
  8
_0-1_Layer1
  6
PLine1
 62
    4
 10
227.45660707717786
 20
101.7330594531748
 11
227.45660707717786
 21
127.83305945317477
  0
LINE
  8
_0-1_Layer1
  6
PLine1
 62
    4
 10
231.81660707717788
 20
101.7330594531748
 11
231.81660707717788
 21
122.83305945317477
  0
LINE
  8
_0-1_Layer1
  6
PLine1
 62
    4
 10
253.71660707717785
 20
122.73305945317477
 11
253.71660707717785
 21
122.50305945317479
  0
LINE
  8
_0-1_Layer1
  6
PLine1
 62
    4
 10
253.71660707717785
 20
122.50305945317479
 11
257.48660707717789
 21
122.50305945317479
  0
LINE
  8
_0-1_Layer1
  6
PLine1
 62
    4
 10
257.48660707717789
 20
122.50305945317479
 11
257.48660707717789
 21
119.46305945317479
  0
LINE
  8
_0-1_Layer1
  6
PLine1
 62
    4
 10
257.48660707717789
 20
119.46305945317479
 11
253.71660707717785
 21
119.46305945317479
  0
LINE
  8
_0-1_Layer1
  6
CONTINUOUS
 62
    3
 10
253.71660707717785
 20
119.2330594531748
 11
257.73660707717789
 21
119.2330594531748
  0
LINE
  8
_0-1_Layer1
  6
CONTINUOUS
 62
    3
 10
252.24075607717788
 20
121.19799545317477
 11
252.33780107717786
 21
121.16924145317478
  0
LINE
  8
_0-1_Layer1
  6
CONTINUOUS
 62
    3
 10
253.71660707717785
 20
119.2330594531748
 11
253.71660707717785
 21
120.52946145317478
  0
LINE
  8
_0-1_Layer1
  6
CONTINUOUS
 62
    3
 10
253.63660707717787
 20
120.59340945317479
 11
253.63660707717787
 21
119.15305945317482
  0
LINE
  8
_0-1_Layer1
  6
CONTINUOUS
 62
    3
 10
257.69442707717786
 20
119.15305945317482
 11
253.63660707717787
 21
119.15305945317482
  0
LINE
  8
_0-1_Layer1
  6
CONTINUOUS
 62
    3
 10
253.03628807717786
 20
121.82220145317478
 11
252.68524707717788
 21
121.75031545317478
  0
LINE
  8
_0-1_Layer1
  6
CONTINUOUS
 62
    3
 10
252.68524707717788
 20
121.75031545317478
 11
252.37254507717788
 21
121.48913145317476
  0
LINE
  8
_0-1_Layer1
  6
CONTINUOUS
 62
    3
 10
252.37254507717788
 20
121.48913145317476
 11
252.24195407717787
 21
121.1896094531748
  0
LINE
  8
_0-1_Layer1
  6
CONTINUOUS
 62
    3
 10
253.01831607717787
 20
121.70838245317478
 11
252.73436907717786
 21
121.6532704531748
  0
LINE
  8
_0-1_Layer1
  6
CONTINUOUS
 62
    3
 10
252.73436907717786
 20
121.6532704531748
 11
252.46719507717788
 21
121.4412084531748
  0
LINE
  8
_0-1_Layer1
  6
CONTINUOUS
 62
    3
 10
252.46719507717788
 20
121.4412084531748
 11
252.33660307717787
 21
121.16325145317478
  0
LINE
  8
_0-1_Layer1
  6
CONTINUOUS
 62
    3
 10
258.63660707717787
 20
122.73305945317477
 11
258.63660707717787
 21
117.91856345317478
  0
LINE
  8
_0-1_Layer1
  6
CONTINUOUS
 62
    3
 10
253.71224807717786
 20
120.5279334531748
 11
254.41462407717788
 21
121.18272845317478
  0
LINE
  8
_0-1_Layer1
  6
CONTINUOUS
 62
    3
 10
254.41462407717788
 20
121.18272845317478
 11
253.71224807717786
 21
121.71744045317479
  0
LINE
  8
_0-1_Layer1
  6
CONTINUOUS
 62
    3
 10
253.71224807717786
 20
121.71744045317479
 11
253.02573307717788
 21
121.8239294531748
  0
LINE
  8
_0-1_Layer1
  6
CONTINUOUS
 62
    3
 10
253.63521407717786
 20
120.59363945317477
 11
254.30133707717778
 21
121.15100845317477
  0
LINE
  8
_0-1_Layer1
  6
CONTINUOUS
 62
    3
 10
254.30133707717778
 20
121.15100845317477
 11
253.63068207717788
 21
121.63587445317478
  0
LINE
  8
_0-1_Layer1
  6
CONTINUOUS
 62
    3
 10
253.63068207717788
 20
121.63587445317478
 11
253.01440407717786
 21
121.71064345317478
  0
LINE
  8
_0-1_Layer1
  6
CONTINUOUS
 62
    3
 10
258.73660707717789
 20
122.73305945317477
 11
258.73660707717789
 21
117.94951745317479
  0
ARC
  8
_0-1_Layer1
  6
PLine1
 62
    3
 10
233.73660707717787
 20
122.83305945317477
 40
0.1000000021286884
 50
180
 51
270
  0
ARC
  8
_0-1_Layer1
  6
CONTINUOUS
 62
    3
 10
258.63660707717787
 20
122.73305945317477
 40
0.1000000016764013
 50
0
 51
90
  0
LINE
  8
_0-1_Layer1
  6
CONTINUOUS
 62
    3
 10
257.51660707717787
 20
122.73305945317477
 11
258.63660707717787
 21
122.73305945317477
  0
ARC
  8
_0-1_Layer1
  6
PLine1
 62
    4
 10
257.51660707717787
 20
122.53305945317479
 40
0.2000000011196136
 50
0
 51
90
  0
LINE
  8
_0-1_Layer1
  6
PLine1
 62
    4
 10
257.71660707717785
 20
119.43305945317479
 11
257.71660707717785
 21
122.53305945317479
  0
ARC
  8
_0-1_Layer1
  6
PLine1
 62
    4
 10
257.51660707717787
 20
119.43305945317479
 40
0.1999999993732891
 50
270
 51
0
  0
LINE
  8
_0-1_Layer1
  6
CONTINUOUS
 62
    3
 10
255.13660707717787
 20
123.1875374531748
 11
255.13660707717787
 21
122.22822545317479
  0
LINE
  8
_0-1_Layer1
  6
PLine1
 62
    3
 10
232.23660707717787
 20
122.83305945317477
 11
232.23660707717787
 21
137.93305945317479
  0
LINE
  8
_0-1_Layer1
  6
CONTINUOUS
 62
    3
 10
257.51660707717787
 20
122.73305945317477
 11
178.63660707717787
 21
122.73305945317477
  0
LINE
  8
_0-1_Layer1
  6
PLine1
 62
    4
 10
231.81660707717788
 20
137.4140754531748
 11
231.81660707717788
 21
122.83305945317477
  0
LINE
  8
_0-1_Layer1
  6
PLine1
 62
    4
 10
232.13660707717787
 20
122.83305945317477
 11
232.13660707717787
 21
137.83305945317477
  0
LINE
  8
_0-1_Layer1
  6
CONTINUOUS
 62
    3
 10
178.63660707717787
 20
122.83305945317477
 11
258.63660707717787
 21
122.83305945317477
  0
LINE
  8
_0-1_Layer1
  6
PLine1
 62
    4
 10
227.45660707717786
 20
135.83407545317476
 11
227.13660707717787
 21
135.83407545317476
  0
ARC
  8
_0-1_Layer1
  6
PLine1
 62
    4
 10
231.83660707717786
 20
137.53407545317478
 40
0.2999999986892159
 50
0
 51
90
  0
ARC
  8
_0-1_Layer1
  6
PLine1
 62
    4
 10
227.43660707717785
 20
137.53407545317478
 40
0.2999999988096482
 50
90
 51
180
  0
LINE
  8
_0-1_Layer1
  6
PLine1
 62
    4
 10
227.13660707717787
 20
137.53407545317478
 11
227.13660707717787
 21
135.83407545317476
  0
LINE
  8
_0-1_Layer1
  6
PLine1
 62
    4
 10
227.41193707717787
 20
137.83305945317477
 11
232.13660707717787
 21
137.83305945317477
  0
ARC
  8
_0-1_Layer1
  6
PLine1
 62
    4
 10
231.71660707717785
 20
137.4140754531748
 40
0.0999999989595735
 50
0
 51
90
  0
LINE
  8
_0-1_Layer1
  6
PLine1
 62
    4
 10
231.71660707717785
 20
137.51407545317477
 11
227.55660707717786
 21
137.51407545317477
  0
ARC
  8
_0-1_Layer1
  6
PLine1
 62
    4
 10
227.55660707717786
 20
137.4140754531748
 40
0.1000000004014159
 50
90
 51
180
  0
LINE
  8
_0-1_Layer1
  6
PLine1
 62
    4
 10
227.45660707717786
 20
137.4140754531748
 11
227.45660707717786
 21
135.83407545317476
  0
LINE
  8
_0-1_Layer1
  6
PLine1
 62
    3
 10
229.13660707717787
 20
137.93305945317479
 11
232.23660707717787
 21
137.93305945317479
  0
LINE
  8
_0-1_Layer1
  6
PLine1
 62
    4
 10
229.13660707717787
 20
137.83305945317477
 11
229.13660707717787
 21
137.93305945317479
  0
LINE
  8
_0-1_Layer1
  6
CONTINUOUS
 62
    3
 10
249.53660707717788
 20
119.2330594531748
 11
238.58183407717786
 21
103.2330594531748
  0
LINE
  8
_0-1_Layer1
  6
CONTINUOUS
 62
    3
 10
249.57878807717788
 20
119.15305945317482
 11
238.61032107717787
 21
103.13305945317478
  0
LINE
  8
_0-1_Layer1
  6
CONTINUOUS
 62
    3
 10
253.55660707717786
 20
119.2330594531748
 11
249.53660707717788
 21
119.2330594531748
  0
LINE
  8
_0-1_Layer1
  6
CONTINUOUS
 62
    3
 10
253.62778407717786
 20
120.54145045317478
 11
254.33015907717785
 21
121.19624545317478
  0
LINE
  8
_0-1_Layer1
  6
CONTINUOUS
 62
    3
 10
254.33015907717785
 20
121.19624545317478
 11
253.62778407717786
 21
121.73095745317477
  0
LINE
  8
_0-1_Layer1
  6
CONTINUOUS
 62
    3
 10
253.62778407717786
 20
121.73095745317477
 11
252.94126807717785
 21
121.83744645317478
  0
LINE
  8
_0-1_Layer1
  6
CONTINUOUS
 62
    3
 10
253.55074907717787
 20
120.60715645317478
 11
254.21687307717787
 21
121.16452545317478
  0
LINE
  8
_0-1_Layer1
  6
CONTINUOUS
 62
    3
 10
254.21687307717787
 20
121.16452545317478
 11
253.54621807717785
 21
121.64939145317479
  0
LINE
  8
_0-1_Layer1
  6
CONTINUOUS
 62
    3
 10
253.54621807717785
 20
121.64939145317479
 11
252.92994007717786
 21
121.72416045317476
  0
LINE
  8
_0-1_Layer1
  6
CONTINUOUS
 62
    3
 10
253.55660707717786
 20
119.2330594531748
 11
253.55660707717786
 21
120.53305945317479
  0
LINE
  8
_0-1_Layer1
  6
CONTINUOUS
 62
    3
 10
253.55551207717787
 20
120.53975545317479
 11
253.55551207717787
 21
120.60262445317477
  0
LINE
  8
_0-1_Layer1
  6
CONTINUOUS
 62
    3
 10
253.63660707717787
 20
120.53305945317479
 11
253.63660707717787
 21
119.15305945317482
  0
LINE
  8
_0-1_Layer1
  6
CONTINUOUS
 62
    3
 10
249.57878807717788
 20
119.15305945317482
 11
253.63660707717787
 21
119.15305945317482
  0
LINE
  8
_0-1_Layer1
  6
CONTINUOUS
 62
    3
 10
252.94394007717787
 20
121.83731945317479
 11
252.93413507717787
 21
121.72358945317478
  0
LINE
  8
_0-1_Layer1
  6
CONTINUOUS
 62
    3
 10
207.73660707717787
 20
119.2330594531748
 11
218.69138107717788
 21
103.2330594531748
  0
LINE
  8
_0-1_Layer1
  6
CONTINUOUS
 62
    3
 10
207.69442707717786
 20
119.15305945317482
 11
218.66289407717787
 21
103.13305945317478
  0
LINE
  8
_0-1_Layer1
  6
CONTINUOUS
 62
    3
 10
203.71660707717785
 20
119.2330594531748
 11
207.73660707717787
 21
119.2330594531748
  0
LINE
  8
_0-1_Layer1
  6
CONTINUOUS
 62
    3
 10
202.24075607717788
 20
121.19799545317477
 11
202.33780107717786
 21
121.16924145317478
  0
LINE
  8
_0-1_Layer1
  6
CONTINUOUS
 62
    3
 10
203.71660707717785
 20
119.2330594531748
 11
203.71660707717785
 21
120.52946145317478
  0
LINE
  8
_0-1_Layer1
  6
CONTINUOUS
 62
    3
 10
203.63660707717787
 20
120.59340945317479
 11
203.63660707717787
 21
119.15305945317482
  0
LINE
  8
_0-1_Layer1
  6
CONTINUOUS
 62
    3
 10
207.69442707717786
 20
119.15305945317482
 11
203.63660707717787
 21
119.15305945317482
  0
LINE
  8
_0-1_Layer1
  6
CONTINUOUS
 62
    3
 10
203.03628807717786
 20
121.82220145317478
 11
202.68524707717788
 21
121.75031545317478
  0
LINE
  8
_0-1_Layer1
  6
CONTINUOUS
 62
    3
 10
202.68524707717788
 20
121.75031545317478
 11
202.37254507717788
 21
121.48913145317476
  0
LINE
  8
_0-1_Layer1
  6
CONTINUOUS
 62
    3
 10
202.37254507717788
 20
121.48913145317476
 11
202.24195407717787
 21
121.1896094531748
  0
LINE
  8
_0-1_Layer1
  6
CONTINUOUS
 62
    3
 10
203.01831607717787
 20
121.70838245317478
 11
202.73436907717786
 21
121.6532704531748
  0
LINE
  8
_0-1_Layer1
  6
CONTINUOUS
 62
    3
 10
202.73436907717786
 20
121.6532704531748
 11
202.46719507717788
 21
121.4412084531748
  0
LINE
  8
_0-1_Layer1
  6
CONTINUOUS
 62
    3
 10
202.46719507717788
 20
121.4412084531748
 11
202.33660307717787
 21
121.16325145317478
  0
LINE
  8
_0-1_Layer1
  6
CONTINUOUS
 62
    3
 10
203.71224807717786
 20
120.5279334531748
 11
204.41462407717788
 21
121.18272845317478
  0
LINE
  8
_0-1_Layer1
  6
CONTINUOUS
 62
    3
 10
204.41462407717788
 20
121.18272845317478
 11
203.71224807717786
 21
121.71744045317479
  0
LINE
  8
_0-1_Layer1
  6
CONTINUOUS
 62
    3
 10
203.71224807717786
 20
121.71744045317479
 11
203.02573307717788
 21
121.8239294531748
  0
LINE
  8
_0-1_Layer1
  6
CONTINUOUS
 62
    3
 10
203.63521407717786
 20
120.59363945317477
 11
204.30133707717786
 21
121.15100845317477
  0
LINE
  8
_0-1_Layer1
  6
CONTINUOUS
 62
    3
 10
204.30133707717786
 20
121.15100845317477
 11
203.63068207717788
 21
121.63587445317478
  0
LINE
  8
_0-1_Layer1
  6
CONTINUOUS
 62
    3
 10
203.63068207717788
 20
121.63587445317478
 11
203.01440407717786
 21
121.71064345317478
  0
LINE
  8
_0-1_Layer1
  6
CONTINUOUS
 62
    3
 10
199.53660707717788
 20
119.2330594531748
 11
188.58183407717786
 21
103.2330594531748
  0
LINE
  8
_0-1_Layer1
  6
CONTINUOUS
 62
    3
 10
199.57878807717788
 20
119.15305945317482
 11
188.61032107717787
 21
103.13305945317478
  0
LINE
  8
_0-1_Layer1
  6
CONTINUOUS
 62
    3
 10
203.55660707717786
 20
119.2330594531748
 11
199.53660707717788
 21
119.2330594531748
  0
LINE
  8
_0-1_Layer1
  6
CONTINUOUS
 62
    3
 10
203.62778407717786
 20
120.54145045317478
 11
204.33015907717785
 21
121.19624545317478
  0
LINE
  8
_0-1_Layer1
  6
CONTINUOUS
 62
    3
 10
204.33015907717785
 20
121.19624545317478
 11
203.62778407717786
 21
121.73095745317477
  0
LINE
  8
_0-1_Layer1
  6
CONTINUOUS
 62
    3
 10
203.62778407717786
 20
121.73095745317477
 11
202.94126807717785
 21
121.83744645317478
  0
LINE
  8
_0-1_Layer1
  6
CONTINUOUS
 62
    3
 10
203.55074907717787
 20
120.60715645317478
 11
204.21687307717787
 21
121.16452545317478
  0
LINE
  8
_0-1_Layer1
  6
CONTINUOUS
 62
    3
 10
204.21687307717787
 20
121.16452545317478
 11
203.54621807717785
 21
121.64939145317479
  0
LINE
  8
_0-1_Layer1
  6
CONTINUOUS
 62
    3
 10
203.54621807717785
 20
121.64939145317479
 11
202.92994007717786
 21
121.72416045317476
  0
LINE
  8
_0-1_Layer1
  6
CONTINUOUS
 62
    3
 10
203.55660707717786
 20
119.2330594531748
 11
203.55660707717786
 21
120.53305945317479
  0
LINE
  8
_0-1_Layer1
  6
CONTINUOUS
 62
    3
 10
203.55551207717787
 20
120.53975545317479
 11
203.55551207717787
 21
120.60262445317477
  0
LINE
  8
_0-1_Layer1
  6
CONTINUOUS
 62
    3
 10
203.63660707717787
 20
120.53305945317479
 11
203.63660707717787
 21
119.15305945317482
  0
LINE
  8
_0-1_Layer1
  6
CONTINUOUS
 62
    3
 10
199.57878807717788
 20
119.15305945317482
 11
203.63660707717787
 21
119.15305945317482
  0
LINE
  8
_0-1_Layer1
  6
CONTINUOUS
 62
    3
 10
202.94394007717787
 20
121.83731945317479
 11
202.93413507717787
 21
121.72358945317478
  0
LINE
  8
_0-1_Layer1
  6
CONTINUOUS
 62
    3
 10
218.66289407717787
 20
103.13305945317478
 11
238.61032107717787
 21
103.13305945317478
  0
LINE
  8
_0-1_Layer1
  6
CONTINUOUS
 62
    3
 10
218.69138107717788
 20
103.2330594531748
 11
238.58183407717786
 21
103.2330594531748
  0
LINE
  8
_0-1_Layer1
  6
CONTINUOUS
 62
    3
 10
188.61032107717787
 20
103.13305945317478
 11
178.63660707717787
 21
103.13305945317478
  0
LINE
  8
_0-1_Layer1
  6
CONTINUOUS
 62
    3
 10
188.58183407717786
 20
103.2330594531748
 11
178.63660707717787
 21
103.2330594531748
  0
LINE
  8
_0-1_Layer1
  6
PLine1
 62
    3
 10
199.53660707717788
 20
119.2330594531748
 11
199.53660707717788
 21
122.73305945317477
  0
LINE
  8
_0-1_Layer1
  6
PLine1
 62
    3
 10
207.73660707717787
 20
119.2330594531748
 11
207.73660707717787
 21
122.73305945317477
  0
LINE
  8
_0-1_Layer1
  6
PLine1
 62
    3
 10
249.53660707717788
 20
119.2330594531748
 11
249.53660707717788
 21
122.73305945317477
  0
LINE
  8
_0-1_Layer1
  6
PLine1
 62
    6
 10
188.97343807717786
 20
122.73305945317477
 11
178.63660707717787
 21
112.39622845317479
  0
LINE
  8
_0-1_Layer1
  6
PLine1
 62
    6
 10
185.92905207717786
 20
122.73305945317477
 11
178.63660707717787
 21
115.44061445317476
  0
LINE
  8
_0-1_Layer1
  6
PLine1
 62
    6
 10
178.63660707717787
 20
118.15408945317478
 11
183.15130707717788
 21
122.66878845317478
  0
LINE
  8
_0-1_Layer1
  6
PLine1
 62
    6
 10
192.10521907717788
 20
122.73305945317477
 11
178.63660707717787
 21
109.26444845317477
  0
LINE
  8
_0-1_Layer1
  6
PLine1
 62
    6
 10
195.75896207717787
 20
122.73305945317477
 11
178.63660707717787
 21
105.61070445317478
  0
LINE
  8
_0-1_Layer1
  6
PLine1
 62
    6
 10
199.20392107717785
 20
122.73305945317477
 11
179.70392107717785
 21
103.2330594531748
  0
LINE
  8
_0-1_Layer1
  6
PLine1
 62
    6
 10
203.06645007717788
 20
122.73305945317477
 11
183.56645007717788
 21
103.2330594531748
  0
LINE
  8
_0-1_Layer1
  6
PLine1
 62
    6
 10
187.11580107717788
 20
103.2330594531748
 11
191.76505207717787
 21
107.8823104531748
  0
LINE
  8
_0-1_Layer1
  6
PLine1
 62
    6
 10
203.71660707717785
 20
119.83386545317478
 11
206.61580107717788
 21
122.73305945317477
  0
LINE
  8
_0-1_Layer1
  6
PLine1
 62
    6
 10
206.78012407717787
 20
119.2330594531748
 11
210.28012407717787
 21
122.73305945317477
  0
LINE
  8
_0-1_Layer1
  6
PLine1
 62
    6
 10
208.98939807717787
 20
117.40329545317479
 11
214.31916207717788
 21
122.73305945317477
  0
LINE
  8
_0-1_Layer1
  6
PLine1
 62
    6
 10
210.58430707717787
 20
115.07385045317477
 11
218.24351507717788
 21
122.73305945317477
  0
LINE
  8
_0-1_Layer1
  6
PLine1
 62
    6
 10
212.16802307717788
 20
112.76075245317477
 11
222.14032907717785
 21
122.73305945317477
  0
LINE
  8
_0-1_Layer1
  6
PLine1
 62
    6
 10
213.73405407717786
 20
110.47348545317479
 11
225.99362807717787
 21
122.73305945317477
  0
LINE
  8
_0-1_Layer1
  6
PLine1
 62
    6
 10
215.61088507717787
 20
107.73227945317478
 11
230.61166507717786
 21
122.73305945317477
  0
LINE
  8
_0-1_Layer1
  6
PLine1
 62
    6
 10
217.43560207717786
 20
105.06718845317482
 11
235.10147207717787
 21
122.73305945317477
  0
LINE
  8
_0-1_Layer1
  6
PLine1
 62
    6
 10
220.01113607717787
 20
103.2330594531748
 11
239.51113607717787
 21
122.73305945317477
  0
LINE
  8
_0-1_Layer1
  6
PLine1
 62
    6
 10
224.73727407717786
 20
103.2330594531748
 11
244.23727407717786
 21
122.73305945317477
  0
LINE
  8
_0-1_Layer1
  6
PLine1
 62
    6
 10
229.51711807717786
 20
103.2330594531748
 11
249.01711807717786
 21
122.73305945317477
  0
LINE
  8
_0-1_Layer1
  6
PLine1
 62
    6
 10
234.29696207717785
 20
103.2330594531748
 11
253.79696207717785
 21
122.73305945317477
  0
LINE
  8
_0-1_Layer1
  6
CONTINUOUS
 62
    4
 10
237.13660707717787
 20
100.7330594531748
 11
237.13660707717787
 21
101.7330594531748
  0
LINE
  8
_0-1_Layer1
  6
CONTINUOUS
 62
    4
 10
237.13660707717787
 20
101.7330594531748
 11
227.13660707717787
 21
101.7330594531748
  0
LINE
  8
_0-1_Layer1
  6
CONTINUOUS
 62
    4
 10
227.13660707717787
 20
101.7330594531748
 11
227.13660707717787
 21
100.7330594531748
  0
LINE
  8
_0-1_Layer1
  6
CONTINUOUS
 62
    4
 10
227.13660707717787
 20
100.7330594531748
 11
231.23660707717787
 21
100.7330594531748
  0
ARC
  8
_0-1_Layer1
  6
CONTINUOUS
 62
    4
 10
231.23660707717787
 20
100.13305945317478
 40
0.6000000004712274
 50
0
 51
90
  0
LINE
  8
_0-1_Layer1
  6
CONTINUOUS
 62
    4
 10
231.83660707717786
 20
100.13305945317478
 11
231.83660707717786
 21
83.333059453174769
  0
ARC
  8
_0-1_Layer1
  6
CONTINUOUS
 62
    4
 10
231.23660707717787
 20
83.333059453174769
 40
0.6000000000183325
 50
270
 51
0
  0
LINE
  8
_0-1_Layer1
  6
CONTINUOUS
 62
    4
 10
231.23660707717787
 20
82.733059453174775
 11
227.13660707717787
 21
82.733059453174775
  0
LINE
  8
_0-1_Layer1
  6
CONTINUOUS
 62
    4
 10
227.13660707717787
 20
82.733059453174775
 11
227.13660707717787
 21
81.733059453174775
  0
LINE
  8
_0-1_Layer1
  6
CONTINUOUS
 62
    4
 10
227.13660707717787
 20
81.733059453174775
 11
237.13660707717787
 21
81.733059453174775
  0
LINE
  8
_0-1_Layer1
  6
CONTINUOUS
 62
    4
 10
237.13660707717787
 20
81.733059453174775
 11
237.13660707717787
 21
82.733059453174775
  0
LINE
  8
_0-1_Layer1
  6
CONTINUOUS
 62
    4
 10
237.13660707717787
 20
82.733059453174775
 11
233.03660707717788
 21
82.733059453174775
  0
ARC
  8
_0-1_Layer1
  6
CONTINUOUS
 62
    4
 10
233.03660707717788
 20
83.333059453174769
 40
0.5999999997853509
 50
180
 51
270
  0
LINE
  8
_0-1_Layer1
  6
CONTINUOUS
 62
    4
 10
232.43660707717785
 20
83.333059453174769
 11
232.43660707717785
 21
100.13305945317478
  0
ARC
  8
_0-1_Layer1
  6
CONTINUOUS
 62
    4
 10
233.03660707717788
 20
100.13305945317478
 40
0.6000000003109625
 50
90
 51
180
  0
LINE
  8
_0-1_Layer1
  6
CONTINUOUS
 62
    4
 10
233.03660707717788
 20
100.7330594531748
 11
237.13660707717787
 21
100.7330594531748
  0
LINE
  8
_0-1_Layer1
  6
PLine2
 62
    3
 10
232.13660707717787
 20
101.7330594531748
 11
232.13660707717787
 21
79.030267453174787
  0
LINE
  8
_0-1_Layer1
  6
CONTINUOUS
 62
    3
 10
278.43829907717787
 20
103.13305945317478
 11
268.66289407717795
 21
103.13305945317478
  0
LINE
  8
_0-1_Layer1
  6
CONTINUOUS
 62
    3
 10
278.43829907717787
 20
103.2330594531748
 11
268.69138107717788
 21
103.2330594531748
  0
ARC
  8
_0-1_Layer1
  6
PLine1
 62
    4
 10
231.83660707717786
 20
128.13305945317478
 40
0.2999999993413293
 50
270
 51
0
  0
LINE
  8
_0-1_Layer1
  6
PLine1
 62
    4
 10
227.13660707717787
 20
129.83305945317477
 11
227.45660707717786
 21
129.83305945317477
  0
LINE
  8
_0-1_Layer1
  6
PLine1
 62
    4
 10
231.83660707717786
 20
127.83305945317477
 11
227.43660707717785
 21
127.83305945317477
  0
ARC
  8
_0-1_Layer1
  6
PLine1
 62
    4
 10
227.43660707717785
 20
128.13305945317478
 40
0.3000000009239522
 50
180
 51
270
  0
LINE
  8
_0-1_Layer1
  6
PLine1
 62
    4
 10
227.45660707717786
 20
129.83305945317477
 11
227.45660707717786
 21
128.25305945317479
  0
ARC
  8
_0-1_Layer1
  6
PLine1
 62
    4
 10
227.55660707717786
 20
128.25305945317479
 40
0.0999999967970664
 50
180
 51
270
  0
LINE
  8
_0-1_Layer1
  6
PLine1
 62
    4
 10
227.55660707717786
 20
128.15305945317476
 11
231.71660707717785
 21
128.15305945317476
  0
ARC
  8
_0-1_Layer1
  6
PLine1
 62
    4
 10
231.71660707717785
 20
128.25305945317479
 40
0.099999999741334
 50
270
 51
0
  0
LINE
  8
_0-1_Layer1
  6
CONTINUOUS
 62
    3
 10
104.26473507717787
 20
124.32335945317479
 11
105.69774807717783
 21
122.84130845317478
  0
LINE
  8
_0-1_Layer1
  6
CONTINUOUS
 62
    3
 10
105.69774807717783
 20
122.84130845317478
 11
87.824244077177866
 21
153.79912545317478
  0
LINE
  8
_0-1_Layer1
  6
CONTINUOUS
 62
    3
 10
87.824244077177866
 20
153.79912545317478
 11
51.777000077177888
 21
153.79912545317478
  0
TEXT
  8
_0-1_Layer1
 62
    7
 10
51.777000077177888
 20
154.79912545317478
 40
6
 41
0.8582679999999999
 50
0
  1
水切板（別途）
  0
LINE
  8
_0-1_Layer1
  6
CONTINUOUS
 62
    3
 10
133.29265507717787
 20
574.7530764531748
 11
133.29265507717787
 21
514.76307645317479
  0
TEXT
  8
_0-1_Layer1
 62
    7
 10
117.46424007717786
 20
565.39187145317464
 40
6
 41
0.8582679999999999
 50
0
  1
Ｂ
  0
LINE
  8
_0-1_Layer1
  6
CONTINUOUS
 62
    3
 10
239.22993607717785
 20
106.37609045317478
 11
237.79692307717787
 21
107.85814145317477
  0
LINE
  8
_0-1_Layer1
  6
CONTINUOUS
 62
    3
 10
237.79692307717787
 20
107.85814145317477
 11
251.63571307717785
 21
83.888655453174778
  0
LINE
  8
_0-1_Layer1
  6
CONTINUOUS
 62
    3
 10
251.63571307717785
 20
83.888655453174778
 11
297.98217007717784
 21
83.888655453174778
  0
TEXT
  8
_0-1_Layer1
 62
    7
 10
251.63571307717785
 20
84.888655453174778
 40
6
 41
0.8582679999999999
 50
0
  1
メンド処理（別途）
  0
LINE
  8
_0-1_Layer1
  6
PLine2
 62
    3
 10
64.66206707717788
 20
340.19790145317478
 11
527.12391607717791
 21
340.19790145317478
  0
ARC
  8
_0-1_Layer1
  6
CONTINUOUS
 62
    4
 10
343.21280107717786
 20
128.13305945317478
 40
0.2999999988036692
 50
180
 51
270
  0
LINE
  8
_0-1_Layer1
  6
CONTINUOUS
 62
    4
 10
347.91280107717785
 20
129.83305945317477
 11
347.59280107717785
 21
129.83305945317477
  0
LINE
  8
_0-1_Layer1
  6
CONTINUOUS
 62
    4
 10
347.59280107717785
 20
135.83407545317476
 11
347.91280107717785
 21
135.83407545317476
  0
LINE
  8
_0-1_Layer1
  6
CONTINUOUS
 62
    4
 10
343.21280107717786
 20
127.83305945317477
 11
347.61280107717789
 21
127.83305945317477
  0
ARC
  8
_0-1_Layer1
  6
CONTINUOUS
 62
    4
 10
343.21280107717786
 20
137.53407545317478
 40
0.2999999996766408
 50
90
 51
180
  0
ARC
  8
_0-1_Layer1
  6
CONTINUOUS
 62
    4
 10
347.61280107717789
 20
137.53407545317478
 40
0.2999999995757328
 50
0
 51
90
  0
LINE
  8
_0-1_Layer1
  6
CONTINUOUS
 62
    4
 10
347.91280107717785
 20
137.53407545317478
 11
347.91280107717785
 21
135.83407545317476
  0
ARC
  8
_0-1_Layer1
  6
CONTINUOUS
 62
    4
 10
347.61280107717789
 20
128.13305945317478
 40
0.3000000001658563
 50
270
 51
0
  0
ARC
  8
_0-1_Layer1
  6
CONTINUOUS
 62
    3
 10
342.81280107717788
 20
122.83305945317477
 40
0.1000000040145378
 50
270
 51
0
  0
LINE
  8
_0-1_Layer1
  6
CONTINUOUS
 62
    4
 10
343.23280107717784
 20
137.4140754531748
 11
343.23280107717784
 21
128.25305945317479
  0
LINE
  8
_0-1_Layer1
  6
CONTINUOUS
 62
    3
 10
342.81280107717788
 20
122.83305945317477
 11
342.81280107717788
 21
137.93305945317479
  0
LINE
  8
_0-1_Layer1
  6
CONTINUOUS
 62
    4
 10
347.91280107717785
 20
129.83305945317477
 11
347.91280107717785
 21
101.7330594531748
  0
LINE
  8
_0-1_Layer1
  6
CONTINUOUS
 62
    4
 10
347.63747107717785
 20
137.83305945317477
 11
342.91280107717785
 21
137.83305945317477
  0
LINE
  8
_0-1_Layer1
  6
CONTINUOUS
 62
    4
 10
342.91280107717785
 20
101.7330594531748
 11
342.91280107717785
 21
137.83305945317477
  0
LINE
  8
_0-1_Layer1
  6
CONTINUOUS
 62
    3
 10
342.81280107717788
 20
122.73305945317477
 11
317.91280107717785
 21
122.73305945317477
  0
LINE
  8
_0-1_Layer1
  6
CONTINUOUS
 62
    3
 10
342.81280107717788
 20
122.83305945317477
 11
317.91280107717785
 21
122.83305945317477
  0
ARC
  8
_0-1_Layer1
  6
CONTINUOUS
 62
    4
 10
343.33280107717786
 20
137.4140754531748
 40
0.0999999990004915
 50
90
 51
180
  0
ARC
  8
_0-1_Layer1
  6
CONTINUOUS
 62
    4
 10
347.49280107717777
 20
137.4140754531748
 40
0.0999999974814459
 50
0
 51
90
  0
LINE
  8
_0-1_Layer1
  6
CONTINUOUS
 62
    4
 10
347.59280107717785
 20
137.4140754531748
 11
347.59280107717785
 21
135.83407545317476
  0
LINE
  8
_0-1_Layer1
  6
CONTINUOUS
 62
    4
 10
347.59280107717785
 20
129.83305945317477
 11
347.59280107717785
 21
128.25305945317479
  0
ARC
  8
_0-1_Layer1
  6
CONTINUOUS
 62
    4
 10
347.49280107717777
 20
128.25305945317479
 40
0.0999999980688463
 50
270
 51
0
  0
LINE
  8
_0-1_Layer1
  6
CONTINUOUS
 62
    4
 10
347.49280107717777
 20
128.15305945317476
 11
343.33280107717786
 21
128.15305945317476
  0
ARC
  8
_0-1_Layer1
  6
CONTINUOUS
 62
    4
 10
343.33280107717786
 20
128.25305945317479
 40
0.0999999999719994
 50
180
 51
270
  0
LINE
  8
_0-1_Layer1
  6
CONTINUOUS
 62
    4
 10
343.33280107717786
 20
137.51407545317477
 11
347.49280107717777
 21
137.51407545317477
  0
LINE
  8
_0-1_Layer1
  6
CONTINUOUS
 62
    3
 10
345.91280107717785
 20
137.93305945317479
 11
342.81280107717788
 21
137.93305945317479
  0
LINE
  8
_0-1_Layer1
  6
CONTINUOUS
 62
    3
 10
345.91280107717785
 20
137.83305945317477
 11
345.91280107717785
 21
137.93305945317479
  0
LINE
  8
_0-1_Layer1
  6
PLine1
 62
    4
 10
343.23280107717784
 20
127.82157245317478
 11
343.23280107717784
 21
101.7330594531748
  0
LINE
  8
_0-1_Layer1
  6
PLine1
 62
    4
 10
347.59280107717785
 20
127.82157245317478
 11
347.59280107717785
 21
101.7330594531748
  0
LINE
  8
_0-1_Layer1
  6
CONTINUOUS
 62
    4
 10
337.91280107717785
 20
100.7330594531748
 11
337.91280107717785
 21
101.7330594531748
  0
LINE
  8
_0-1_Layer1
  6
CONTINUOUS
 62
    4
 10
337.91280107717785
 20
101.7330594531748
 11
347.91280107717785
 21
101.7330594531748
  0
LINE
  8
_0-1_Layer1
  6
CONTINUOUS
 62
    4
 10
347.91280107717785
 20
101.7330594531748
 11
347.91280107717785
 21
100.7330594531748
  0
LINE
  8
_0-1_Layer1
  6
CONTINUOUS
 62
    4
 10
347.91280107717785
 20
100.7330594531748
 11
343.81280107717788
 21
100.7330594531748
  0
ARC
  8
_0-1_Layer1
  6
CONTINUOUS
 62
    4
 10
343.81280107717788
 20
100.13305945317478
 40
0.6000000001986595
 50
90
 51
180
  0
LINE
  8
_0-1_Layer1
  6
CONTINUOUS
 62
    4
 10
343.21280107717786
 20
100.13305945317478
 11
343.21280107717786
 21
83.333059453174769
  0
ARC
  8
_0-1_Layer1
  6
CONTINUOUS
 62
    4
 10
343.81280107717788
 20
83.333059453174769
 40
0.6000000000753834
 50
180
 51
270
  0
LINE
  8
_0-1_Layer1
  6
CONTINUOUS
 62
    4
 10
343.81280107717788
 20
82.733059453174775
 11
347.91280107717785
 21
82.733059453174775
  0
LINE
  8
_0-1_Layer1
  6
CONTINUOUS
 62
    4
 10
347.91280107717785
 20
82.733059453174775
 11
347.91280107717785
 21
81.733059453174775
  0
LINE
  8
_0-1_Layer1
  6
CONTINUOUS
 62
    4
 10
347.91280107717785
 20
81.733059453174775
 11
337.91280107717785
 21
81.733059453174775
  0
LINE
  8
_0-1_Layer1
  6
CONTINUOUS
 62
    4
 10
337.91280107717785
 20
81.733059453174775
 11
337.91280107717785
 21
82.733059453174775
  0
LINE
  8
_0-1_Layer1
  6
CONTINUOUS
 62
    4
 10
337.91280107717785
 20
82.733059453174775
 11
342.01280107717787
 21
82.733059453174775
  0
ARC
  8
_0-1_Layer1
  6
CONTINUOUS
 62
    4
 10
342.01280107717787
 20
83.333059453174769
 40
0.6000000001600025
 50
270
 51
0
  0
LINE
  8
_0-1_Layer1
  6
CONTINUOUS
 62
    4
 10
342.61280107717789
 20
83.333059453174769
 11
342.61280107717789
 21
100.13305945317478
  0
ARC
  8
_0-1_Layer1
  6
CONTINUOUS
 62
    4
 10
342.01280107717787
 20
100.13305945317478
 40
0.5999999999076924
 50
0
 51
90
  0
LINE
  8
_0-1_Layer1
  6
CONTINUOUS
 62
    4
 10
342.01280107717787
 20
100.7330594531748
 11
337.91280107717785
 21
100.7330594531748
  0
LINE
  8
_0-1_Layer1
  6
PLine2
 62
    3
 10
342.91280107717785
 20
101.7330594531748
 11
342.91280107717785
 21
79.030267453174787
  0
ARC
  8
_0-1_Layer1
  6
CONTINUOUS
 62
    6
 10
341.88181207717787
 20
125.98099145317479
 40
9.3767051335053022
 50
84.301861999999986
 51
92.867059999999995
  0
LINE
  8
_0-1_Layer1
  6
CONTINUOUS
 62
    6
 10
341.41280107717785
 20
136.34595945317477
 11
342.81280107717788
 21
136.34595945317477
  0
LINE
  8
_0-1_Layer1
  6
CONTINUOUS
 62
    6
 10
341.94745607717789
 20
136.34595945317477
 11
341.41280107717785
 21
135.81130345317479
  0
LINE
  8
_0-1_Layer1
  6
CONTINUOUS
 62
    6
 10
341.46632907717787
 20
135.34848645317479
 11
342.46380107717789
 21
136.34595945317477
  0
LINE
  8
_0-1_Layer1
  6
CONTINUOUS
 62
    6
 10
342.00492507717786
 20
135.35512845317479
 11
342.81280107717788
 21
136.16300445317478
  0
LINE
  8
_0-1_Layer1
  6
CONTINUOUS
 62
    6
 10
341.83200507717788
 20
135.3575644531748
 11
341.41280107717785
 21
135.77676845317478
  0
LINE
  8
_0-1_Layer1
  6
CONTINUOUS
 62
    6
 10
341.42559107717784
 20
136.34595945317477
 11
342.42988507717786
 21
135.34166545317478
  0
LINE
  8
_0-1_Layer1
  6
CONTINUOUS
 62
    6
 10
342.51491307717788
 20
135.33762945317477
 11
342.81280107717788
 21
135.63551745317477
  0
LINE
  8
_0-1_Layer1
  6
CONTINUOUS
 62
    6
 10
341.95057907717785
 20
136.34595945317477
 11
342.81280107717788
 21
135.4837374531748
  0
LINE
  8
_0-1_Layer1
  6
CONTINUOUS
 62
    6
 10
342.50806607717789
 20
136.34595945317477
 11
342.81280107717788
 21
136.04122445317478
  0
LINE
  8
_0-1_Layer1
  6
PLine3
 62
    3
 10
804.08746707717773
 20
101.7330594531748
 11
347.91280107717785
 21
101.7330594531748
  0
LINE
  8
_0-1_Layer1
  6
PLine3
 62
    3
 10
337.91280107717785
 20
101.7330594531748
 11
302.20735707717785
 21
101.7330594531748
  0
LINE
  8
_0-1_Layer1
  6
CONTINUOUS
 62
    3
 10
341.91280107717785
 20
103.2330594531748
 11
341.91280107717785
 21
103.13305945317478
  0
LINE
  8
_0-1_Layer1
  6
CONTINUOUS
 62
    3
 10
341.91280107717785
 20
103.33305945317477
 11
341.91280107717785
 21
122.73305945317477
  0
LINE
  8
_0-1_Layer1
  6
CONTINUOUS
 62
    3
 10
341.91280107717785
 20
103.13305945317478
 11
302.20735707717785
 21
103.13305945317478
  0
LINE
  8
_0-1_Layer1
  6
CONTINUOUS
 62
    3
 10
302.20735707717785
 20
121.83305945317477
 11
335.91280107717785
 21
121.83305945317477
  0
LINE
  8
_0-1_Layer1
  6
CONTINUOUS
 62
    3
 10
302.20735707717785
 20
119.2330594531748
 11
341.91280107717785
 21
119.2330594531748
  0
LINE
  8
_0-1_Layer1
  6
CONTINUOUS
 62
    3
 10
341.91280107717785
 20
103.2330594531748
 11
302.20735707717785
 21
103.2330594531748
  0
LINE
  8
_0-1_Layer1
  6
CONTINUOUS
 62
    4
 10
338.91280107717785
 20
119.13305945317478
 11
338.91280107717785
 21
103.2330594531748
  0
LINE
  8
_0-1_Layer1
  6
CONTINUOUS
 62
    4
 10
335.91280107717785
 20
119.2330594531748
 11
335.91280107717785
 21
119.13305945317478
  0
LINE
  8
_0-1_Layer1
  6
CONTINUOUS
 62
    4
 10
335.91280107717785
 20
119.13305945317478
 11
338.91280107717785
 21
119.13305945317478
  0
LINE
  8
_0-1_Layer1
  6
CONTINUOUS
 62
    4
 10
339.01280107717787
 20
119.2330594531748
 11
339.01280107717787
 21
103.33305945317477
  0
LINE
  8
_0-1_Layer1
  6
CONTINUOUS
 62
    4
 10
339.01280107717787
 20
103.33305945317477
 11
341.91280107717785
 21
103.33305945317477
  0
LINE
  8
_0-1_Layer1
  6
CONTINUOUS
 62
    4
 10
339.01280107717787
 20
103.13305945317478
 11
339.01280107717787
 21
103.03305945317479
  0
LINE
  8
_0-1_Layer1
  6
CONTINUOUS
 62
    4
 10
339.01280107717787
 20
103.03305945317479
 11
341.91280107717785
 21
103.03305945317479
  0
ARC
  8
_0-1_Layer1
  6
CONTINUOUS
 62
    4
 10
341.91280107717785
 20
103.18305945317479
 40
0.0499999987063119
 50
270
 51
90
  0
ARC
  8
_0-1_Layer1
  6
CONTINUOUS
 62
    4
 10
341.91280107717785
 20
103.18305945317479
 40
0.1500000002350248
 50
270
 51
90
  0
LINE
  8
_0-1_Layer1
  6
CONTINUOUS
 62
    6
 10
335.91280107717785
 20
122.73305945317477
 11
335.91280107717785
 21
119.2330594531748
  0
LINE
  8
_0-1_Layer1
  6
PLine1
 62
    6
 10
339.01280107717787
 20
117.42322145317479
 11
341.91280107717785
 21
120.32322145317477
  0
LINE
  8
_0-1_Layer1
  6
PLine1
 62
    6
 10
339.01280107717787
 20
113.01355745317477
 11
341.91280107717785
 21
115.91355745317477
  0
LINE
  8
_0-1_Layer1
  6
PLine1
 62
    6
 10
339.01280107717787
 20
108.28741945317478
 11
341.91280107717785
 21
111.18741945317478
  0
LINE
  8
_0-1_Layer1
  6
PLine1
 62
    6
 10
339.01280107717787
 20
103.50757545317478
 11
341.91280107717785
 21
106.40757545317479
  0
LINE
  8
_0-1_Layer1
  6
PLine1
 62
    6
 10
338.42157807717786
 20
119.2330594531748
 11
341.92157807717786
 21
122.73305945317477
  0
LINE
  8
_0-1_Layer1
  6
PLine1
 62
    6
 10
335.94775807717787
 20
119.2330594531748
 11
339.44775807717787
 21
122.73305945317477
  0
LINE
  8
_0-1_Layer1
  6
PLine1
 62
    6
 10
335.91280107717785
 20
121.45364345317478
 11
337.19221607717787
 21
122.73305945317477
  0
LINE
  8
_0-1_Layer1
  6
PLine1
 62
    6
 10
339.01280107717787
 20
115.18950645317477
 11
341.91280107717785
 21
118.08950645317478
  0
LINE
  8
_0-1_Layer1
  6
PLine1
 62
    6
 10
339.01280107717787
 20
110.74390645317479
 11
341.91280107717785
 21
113.64390645317479
  0
LINE
  8
_0-1_Layer1
  6
PLine1
 62
    6
 10
339.01280107717787
 20
105.8690254531748
 11
341.91280107717785
 21
108.76902545317478
  0
LINE
  8
_0-1_Layer1
  6
PLine1
 62
    6
 10
341.14798907717784
 20
103.33305945317477
 11
341.91280107717785
 21
104.09787145317478
  0
LINE
  8
_0-1_Layer1
  6
CONTINUOUS
 62
    4
 10
321.01280107717787
 20
122.73305945317477
 11
321.01280107717787
 21
105.2330594531748
  0
LINE
  8
_0-1_Layer1
  6
CONTINUOUS
 62
    4
 10
321.01280107717787
 20
105.2330594531748
 11
320.91280107717785
 21
105.2330594531748
  0
LINE
  8
_0-1_Layer1
  6
CONTINUOUS
 62
    4
 10
320.91280107717785
 20
105.2330594531748
 11
320.91280107717785
 21
122.63305945317478
  0
LINE
  8
_0-1_Layer1
  6
CONTINUOUS
 62
    4
 10
317.91280107717785
 20
122.73305945317477
 11
317.91280107717785
 21
122.63305945317478
  0
LINE
  8
_0-1_Layer1
  6
CONTINUOUS
 62
    4
 10
317.91280107717785
 20
122.63305945317478
 11
320.91280107717785
 21
122.63305945317478
  0
LINE
  8
_0-1_Layer1
  6
CONTINUOUS
 62
    3
 10
320.41280107717785
 20
122.63305945317478
 11
320.41280107717785
 21
122.53305945317479
  0
LINE
  8
_0-1_Layer1
  6
CONTINUOUS
 62
    3
 10
320.41280107717785
 20
122.53305945317479
 11
317.91280107717785
 21
122.53305945317479
  0
ARC
  8
_0-1_Layer1
  6
CONTINUOUS
 62
    3
 10
317.91280107717785
 20
122.68305945317479
 40
0.0499999990767037
 50
90
 51
270
  0
ARC
  8
_0-1_Layer1
  6
CONTINUOUS
 62
    3
 10
317.91280107717785
 20
122.68305945317479
 40
0.1500000002812952
 50
90
 51
270
  0
LINE
  8
_0-1_Layer1
  6
CONTINUOUS
 62
    3
 10
322.07513107717784
 20
124.51702045317467
 11
323.50814407717786
 21
123.03496945317477
  0
LINE
  8
_0-1_Layer1
  6
CONTINUOUS
 62
    3
 10
323.50814407717786
 20
123.03496945317477
 11
309.03449307717784
 21
148.10406745317479
  0
LINE
  8
_0-1_Layer1
  6
CONTINUOUS
 62
    3
 10
309.03449307717784
 20
148.10406745317479
 11
272.98724907717786
 21
148.10406745317479
  0
TEXT
  8
_0-1_Layer1
 62
    7
 10
269.89747227717788
 20
149.10406745317479
 40
6
 41
0.8582679999999999
 50
0
  1
水切板（別途）
  0
LINE
  8
_0-1_Layer1
  6
CONTINUOUS
 62
    3
 10
319.19442207717788
 20
112.52269445317478
 11
320.62743507717789
 21
111.04064445317476
  0
LINE
  8
_0-1_Layer1
  6
CONTINUOUS
 62
    3
 10
320.62743507717789
 20
111.04064445317476
 11
309.77406107717786
 21
129.8392404531748
  0
LINE
  8
_0-1_Layer1
  6
CONTINUOUS
 62
    3
 10
309.77406107717786
 20
129.8392404531748
 11
268.57721007717788
 21
129.8392404531748
  0
TEXT
  8
_0-1_Layer1
 62
    7
 10
264.45751067717788
 20
130.8392404531748
 40
6
 41
0.8582679999999999
 50
0
  1
エプロン（別途）
  0
LINE
  8
_0-1_Layer1
  6
CONTINUOUS
 62
    3
 10
339.21800507717785
 20
104.8844714531748
 11
339.78499207717789
 21
106.86652245317475
  0
LINE
  8
_0-1_Layer1
  6
CONTINUOUS
 62
    3
 10
339.78499207717789
 20
106.86652245317475
 11
315.23334307717789
 21
64.34181745317477
  0
LINE
  8
_0-1_Layer1
  6
CONTINUOUS
 62
    3
 10
315.23334307717789
 20
64.34181745317477
 11
268.88688607717785
 21
64.34181745317477
  0
TEXT
  8
_0-1_Layer1
 62
    7
 10
268.88688607717785
 20
65.34181745317477
 40
6
 41
0.8582679999999999
 50
0
  1
メンド処理（別途）
  0
LINE
  8
_0-1_Layer1
  6
CONTINUOUS
 62
    3
 10
349.21557807717784
 20
126.4200664531748
 11
347.78256507717788
 21
127.90211745317478
  0
LINE
  8
_0-1_Layer1
  6
CONTINUOUS
 62
    3
 10
347.78256507717788
 20
127.90211745317478
 11
379.28362507717787
 21
73.340680453174798
  0
LINE
  8
_0-1_Layer1
  6
CONTINUOUS
 62
    3
 10
379.28362507717787
 20
73.340680453174798
 11
447.00094807717778
 21
73.340680453174798
  0
TEXT
  8
_0-1_Layer1
 62
    7
 10
375.78175807717787
 20
65.588911453174774
 40
6
 41
0.8582679999999999
 50
0
  1
（別途）
  0
ARC
  8
_0-1_Layer1
  6
PLine1
 62
    4
 10
757.61280107717789
 20
128.13305945317478
 40
0.2999999999731243
 50
270
 51
0
  0
LINE
  8
_0-1_Layer1
  6
PLine1
 62
    4
 10
752.91280107717773
 20
129.83305945317477
 11
753.2328010771779
 21
129.83305945317477
  0
LINE
  8
_0-1_Layer1
  6
CONTINUOUS
 62
    4
 10
753.2328010771779
 20
135.83407545317476
 11
752.91280107717773
 21
135.83407545317476
  0
LINE
  8
_0-1_Layer1
  6
PLine1
 62
    4
 10
757.61280107717789
 20
127.83305945317477
 11
753.21280107717791
 21
127.83305945317477
  0
ARC
  8
_0-1_Layer1
  6
CONTINUOUS
 62
    4
 10
757.61280107717789
 20
137.53407545317478
 40
0.2999999997824625
 50
0
 51
90
  0
ARC
  8
_0-1_Layer1
  6
CONTINUOUS
 62
    4
 10
753.21280107717791
 20
137.53407545317478
 40
0.2999999987555366
 50
90
 51
180
  0
LINE
  8
_0-1_Layer1
  6
PLine1
 62
    4
 10
752.91280107717773
 20
137.53407545317478
 11
752.91280107717773
 21
135.83407545317476
  0
ARC
  8
_0-1_Layer1
  6
PLine1
 62
    4
 10
753.21280107717791
 20
128.13305945317478
 40
0.2999999963421964
 50
180
 51
270
  0
ARC
  8
_0-1_Layer1
  6
CONTINUOUS
 62
    3
 10
758.01280107717776
 20
122.83305945317477
 40
0.0999999980151567
 50
180
 51
270
  0
LINE
  8
_0-1_Layer1
  6
PLine1
 62
    4
 10
757.59280107717791
 20
137.4140754531748
 11
757.59280107717791
 21
128.25305945317479
  0
LINE
  8
_0-1_Layer1
  6
PLine1
 62
    4
 10
752.91280107717773
 20
129.83305945317477
 11
752.91280107717773
 21
101.7330594531748
  0
LINE
  8
_0-1_Layer1
  6
PLine1
 62
    4
 10
753.1881300771779
 20
137.83305945317477
 11
757.91280107717773
 21
137.83305945317477
  0
LINE
  8
_0-1_Layer1
  6
PLine1
 62
    4
 10
757.91280107717773
 20
101.7330594531748
 11
757.91280107717773
 21
137.83305945317477
  0
LINE
  8
_0-1_Layer1
  6
PLine1
 62
    3
 10
758.01280107717776
 20
135.34036645317479
 11
758.01280107717776
 21
137.93305945317479
  0
LINE
  8
_0-1_Layer1
  6
CONTINUOUS
 62
    3
 10
758.01280107717776
 20
122.83305945317477
 11
758.01280107717776
 21
135.34036645317479
  0
LINE
  8
_0-1_Layer1
  6
PLine1
 62
    3
 10
804.08746707717773
 20
122.73305945317477
 11
758.01280107717776
 21
122.73305945317477
  0
LINE
  8
_0-1_Layer1
  6
CONTINUOUS
 62
    3
 10
804.08746707717773
 20
122.83305945317477
 11
788.01280107717776
 21
122.83305945317477
  0
LINE
  8
_0-1_Layer1
  6
CONTINUOUS
 62
    3
 10
551.41280107717785
 20
122.83305945317477
 11
787.81280107717782
 21
122.83305945317477
  0
ARC
  8
_0-1_Layer1
  6
CONTINUOUS
 62
    4
 10
757.49280107717789
 20
137.4140754531748
 40
0.1000000053261102
 50
0
 51
90
  0
ARC
  8
_0-1_Layer1
  6
CONTINUOUS
 62
    4
 10
753.33280107717781
 20
137.4140754531748
 40
0.0999999950683369
 50
90
 51
180
  0
LINE
  8
_0-1_Layer1
  6
PLine1
 62
    4
 10
753.2328010771779
 20
137.4140754531748
 11
753.2328010771779
 21
135.83407545317476
  0
LINE
  8
_0-1_Layer1
  6
PLine1
 62
    4
 10
753.2328010771779
 20
129.83305945317477
 11
753.2328010771779
 21
128.25305945317479
  0
ARC
  8
_0-1_Layer1
  6
PLine1
 62
    4
 10
753.33280107717781
 20
128.25305945317479
 40
0.1000000045095817
 50
180
 51
270
  0
LINE
  8
_0-1_Layer1
  6
PLine1
 62
    4
 10
753.33280107717781
 20
128.15305945317476
 11
757.49280107717789
 21
128.15305945317476
  0
ARC
  8
_0-1_Layer1
  6
PLine1
 62
    4
 10
757.49280107717789
 20
128.25305945317479
 40
0.1000000021948685
 50
270
 51
0
  0
LINE
  8
_0-1_Layer1
  6
PLine1
 62
    4
 10
757.49280107717789
 20
137.51407545317477
 11
753.33280107717781
 21
137.51407545317477
  0
LINE
  8
_0-1_Layer1
  6
PLine1
 62
    3
 10
754.91280107717785
 20
137.93305945317479
 11
758.01280107717776
 21
137.93305945317479
  0
LINE
  8
_0-1_Layer1
  6
CONTINUOUS
 62
    3
 10
754.91280107717785
 20
137.83305945317477
 11
754.91280107717785
 21
137.93305945317479
  0
LINE
  8
_0-1_Layer1
  6
PLine1
 62
    4
 10
757.59280107717791
 20
127.82157245317478
 11
757.59280107717791
 21
101.7330594531748
  0
LINE
  8
_0-1_Layer1
  6
PLine1
 62
    4
 10
753.2328010771779
 20
127.82157245317478
 11
753.2328010771779
 21
101.7330594531748
  0
LINE
  8
_0-1_Layer1
  6
CONTINUOUS
 62
    4
 10
762.91280107717785
 20
100.7330594531748
 11
762.91280107717785
 21
101.7330594531748
  0
LINE
  8
_0-1_Layer1
  6
CONTINUOUS
 62
    4
 10
762.91280107717785
 20
101.7330594531748
 11
752.91280107717773
 21
101.7330594531748
  0
LINE
  8
_0-1_Layer1
  6
CONTINUOUS
 62
    4
 10
752.91280107717773
 20
101.7330594531748
 11
752.91280107717773
 21
100.7330594531748
  0
LINE
  8
_0-1_Layer1
  6
CONTINUOUS
 62
    4
 10
752.91280107717773
 20
100.7330594531748
 11
757.01280107717787
 21
100.7330594531748
  0
ARC
  8
_0-1_Layer1
  6
CONTINUOUS
 62
    4
 10
757.01280107717787
 20
100.13305945317478
 40
0.5999999994867368
 50
0
 51
90
  0
LINE
  8
_0-1_Layer1
  6
CONTINUOUS
 62
    4
 10
757.61280107717789
 20
100.13305945317478
 11
757.61280107717789
 21
83.333059453174769
  0
ARC
  8
_0-1_Layer1
  6
CONTINUOUS
 62
    4
 10
757.01280107717787
 20
83.333059453174769
 40
0.5999999993104444
 50
270
 51
0
  0
LINE
  8
_0-1_Layer1
  6
CONTINUOUS
 62
    4
 10
757.01280107717787
 20
82.733059453174775
 11
752.91280107717773
 21
82.733059453174775
  0
LINE
  8
_0-1_Layer1
  6
CONTINUOUS
 62
    4
 10
752.91280107717773
 20
82.733059453174775
 11
752.91280107717773
 21
81.733059453174775
  0
LINE
  8
_0-1_Layer1
  6
CONTINUOUS
 62
    4
 10
752.91280107717773
 20
81.733059453174775
 11
762.91280107717785
 21
81.733059453174775
  0
LINE
  8
_0-1_Layer1
  6
CONTINUOUS
 62
    4
 10
762.91280107717785
 20
81.733059453174775
 11
762.91280107717785
 21
82.733059453174775
  0
LINE
  8
_0-1_Layer1
  6
CONTINUOUS
 62
    4
 10
762.91280107717785
 20
82.733059453174775
 11
758.81280107717771
 21
82.733059453174775
  0
ARC
  8
_0-1_Layer1
  6
CONTINUOUS
 62
    4
 10
758.81280107717771
 20
83.333059453174769
 40
0.5999999997298274
 50
180
 51
270
  0
LINE
  8
_0-1_Layer1
  6
CONTINUOUS
 62
    4
 10
758.21280107717791
 20
83.333059453174769
 11
758.21280107717791
 21
100.13305945317478
  0
ARC
  8
_0-1_Layer1
  6
CONTINUOUS
 62
    4
 10
758.81280107717771
 20
100.13305945317478
 40
0.5999999987972225
 50
90
 51
180
  0
LINE
  8
_0-1_Layer1
  6
CONTINUOUS
 62
    4
 10
758.81280107717771
 20
100.7330594531748
 11
762.91280107717785
 21
100.7330594531748
  0
LINE
  8
_0-1_Layer1
  6
PLine2
 62
    3
 10
757.91280107717773
 20
101.7330594531748
 11
757.91280107717773
 21
79.030267453174787
  0
LINE
  8
_0-1_Layer1
  6
CONTINUOUS
 62
    3
 10
758.91280107717785
 20
103.2330594531748
 11
758.91280107717785
 21
103.13305945317478
  0
LINE
  8
_0-1_Layer1
  6
PLine1
 62
    3
 10
758.91280107717785
 20
103.33305945317477
 11
758.91280107717785
 21
122.73305945317477
  0
LINE
  8
_0-1_Layer1
  6
PLine1
 62
    3
 10
804.08746707717773
 20
121.83305945317477
 11
551.41280107717785
 21
121.83305945317477
  0
LINE
  8
_0-1_Layer1
  6
PLine1
 62
    3
 10
804.08746707717773
 20
119.2330594531748
 11
551.41280107717785
 21
119.2330594531748
  0
LINE
  8
_0-1_Layer1
  6
CONTINUOUS
 62
    3
 10
804.08746707717773
 20
103.2330594531748
 11
551.41280107717785
 21
103.2330594531748
  0
LINE
  8
_0-1_Layer1
  6
PLine1
 62
    4
 10
761.91280107717773
 20
119.13305945317478
 11
761.91280107717773
 21
103.2330594531748
  0
LINE
  8
_0-1_Layer1
  6
CONTINUOUS
 62
    4
 10
764.91280107717773
 20
119.2330594531748
 11
764.91280107717773
 21
119.13305945317478
  0
LINE
  8
_0-1_Layer1
  6
PLine1
 62
    4
 10
764.91280107717773
 20
119.13305945317478
 11
761.91280107717773
 21
119.13305945317478
  0
LINE
  8
_0-1_Layer1
  6
PLine1
 62
    4
 10
761.81280107717771
 20
103.33305945317477
 11
758.91280107717785
 21
103.33305945317477
  0
LINE
  8
_0-1_Layer1
  6
PLine1
 62
    4
 10
761.81280107717771
 20
119.2330594531748
 11
761.81280107717771
 21
103.33305945317477
  0
LINE
  8
_0-1_Layer1
  6
CONTINUOUS
 62
    4
 10
761.81280107717771
 20
103.13305945317478
 11
761.81280107717771
 21
103.03305945317479
  0
LINE
  8
_0-1_Layer1
  6
CONTINUOUS
 62
    4
 10
761.81280107717771
 20
103.03305945317479
 11
758.91280107717785
 21
103.03305945317479
  0
ARC
  8
_0-1_Layer1
  6
CONTINUOUS
 62
    4
 10
758.91280107717785
 20
103.18305945317479
 40
0.0500000013385034
 50
90
 51
270
  0
ARC
  8
_0-1_Layer1
  6
CONTINUOUS
 62
    4
 10
758.91280107717785
 20
103.18305945317479
 40
0.1499999993221763
 50
90
 51
270
  0
LINE
  8
_0-1_Layer1
  6
PLine1
 62
    6
 10
764.91280107717773
 20
122.73305945317477
 11
764.91280107717773
 21
119.2330594531748
  0
LINE
  8
_0-1_Layer1
  6
PLine1
 62
    6
 10
761.81280107717771
 20
117.42322145317479
 11
758.91280107717785
 21
120.32322145317477
  0
LINE
  8
_0-1_Layer1
  6
PLine1
 62
    6
 10
761.81280107717771
 20
113.01355745317477
 11
758.91280107717785
 21
115.91355745317477
  0
LINE
  8
_0-1_Layer1
  6
PLine1
 62
    6
 10
761.81280107717771
 20
108.28741945317478
 11
758.91280107717785
 21
111.18741945317478
  0
LINE
  8
_0-1_Layer1
  6
PLine1
 62
    6
 10
761.81280107717771
 20
103.50757545317478
 11
758.91280107717785
 21
106.40757545317479
  0
LINE
  8
_0-1_Layer1
  6
PLine1
 62
    6
 10
762.40402307717784
 20
119.2330594531748
 11
758.90402307717773
 21
122.73305945317477
  0
LINE
  8
_0-1_Layer1
  6
PLine1
 62
    6
 10
764.87784307717777
 20
119.2330594531748
 11
761.37784307717789
 21
122.73305945317477
  0
LINE
  8
_0-1_Layer1
  6
PLine1
 62
    6
 10
764.91280107717773
 20
121.45364345317478
 11
763.63338507717788
 21
122.73305945317477
  0
LINE
  8
_0-1_Layer1
  6
PLine1
 62
    6
 10
761.81280107717771
 20
115.18950645317477
 11
758.91280107717785
 21
118.08950645317478
  0
LINE
  8
_0-1_Layer1
  6
PLine1
 62
    6
 10
761.81280107717771
 20
110.74390645317479
 11
758.91280107717785
 21
113.64390645317479
  0
LINE
  8
_0-1_Layer1
  6
PLine1
 62
    6
 10
761.81280107717771
 20
105.8690254531748
 11
758.91280107717785
 21
108.76902545317478
  0
LINE
  8
_0-1_Layer1
  6
PLine1
 62
    6
 10
759.67761207717786
 20
103.33305945317477
 11
758.91280107717785
 21
104.09787145317478
  0
LINE
  8
_0-1_Layer1
  6
CONTINUOUS
 62
    3
 10
787.91280107717785
 20
126.83305945317477
 11
787.81280107717782
 21
126.83305945317477
  0
LINE
  8
_0-1_Layer1
  6
CONTINUOUS
 62
    3
 10
787.81280107717782
 20
126.83305945317477
 11
787.81280107717782
 21
122.83305945317477
  0
LINE
  8
_0-1_Layer1
  6
CONTINUOUS
 62
    3
 10
787.91280107717785
 20
126.83305945317477
 11
787.91280107717785
 21
122.73305945317477
  0
LINE
  8
_0-1_Layer1
  6
CONTINUOUS
 62
    3
 10
787.81280107717782
 20
123.83305945317477
 11
787.71280107717791
 21
123.83305945317477
  0
LINE
  8
_0-1_Layer1
  6
CONTINUOUS
 62
    3
 10
787.71280107717791
 20
123.83305945317477
 11
787.71280107717791
 21
126.83305945317477
  0
LINE
  8
_0-1_Layer1
  6
CONTINUOUS
 62
    3
 10
788.01280107717776
 20
126.83305945317477
 11
788.01280107717776
 21
122.83305945317477
  0
ARC
  8
_0-1_Layer1
  6
CONTINUOUS
 62
    3
 10
787.86280107717789
 20
126.83305945317477
 40
0.0500000039274511
 50
0
 51
180
  0
ARC
  8
_0-1_Layer1
  6
CONTINUOUS
 62
    3
 10
787.86280107717789
 20
126.83305945317477
 40
0.1500000006913069
 50
0
 51
180
  0
LINE
  8
_0-1_Layer1
  6
CONTINUOUS
 62
    3
 10
804.08746707717773
 20
117.94951745317479
 11
551.41280107717785
 21
117.94951745317479
  0
LINE
  8
_0-1_Layer1
  6
CONTINUOUS
 62
    3
 10
804.08746707717773
 20
112.49995645317478
 11
551.41280107717785
 21
112.49995645317478
  0
LINE
  8
_0-1_Layer1
  6
CONTINUOUS
 62
    3
 10
804.08746707717773
 20
103.13305945317478
 11
551.41280107717785
 21
103.13305945317478
  0
ARC
  8
_0-1_Layer1
  6
CONTINUOUS
 62
    4
 10
630.0905930771778
 20
314.99789245317476
 40
3.000000000099424
 50
180
 51
270
  0
LINE
  8
_0-1_Layer1
  6
CONTINUOUS
 62
    4
 10
677.0905930771778
 20
331.99789245317476
 11
673.89059307717787
 21
331.99789245317476
  0
LINE
  8
_0-1_Layer1
  6
CONTINUOUS
 62
    4
 10
673.89059307717787
 20
392.0080534531748
 11
677.0905930771778
 21
392.0080534531748
  0
LINE
  8
_0-1_Layer1
  6
CONTINUOUS
 62
    4
 10
630.0905930771778
 20
311.99789245317476
 11
674.0905930771778
 21
311.99789245317476
  0
ARC
  8
_0-1_Layer1
  6
CONTINUOUS
 62
    4
 10
630.0905930771778
 20
409.0080534531748
 40
2.999999992133946
 50
90
 51
180
  0
ARC
  8
_0-1_Layer1
  6
CONTINUOUS
 62
    4
 10
674.0905930771778
 20
409.0080534531748
 40
2.9999999951015761
 50
0
 51
90
  0
LINE
  8
_0-1_Layer1
  6
CONTINUOUS
 62
    4
 10
677.0905930771778
 20
409.0080534531748
 11
677.0905930771778
 21
392.0080534531748
  0
ARC
  8
_0-1_Layer1
  6
CONTINUOUS
 62
    4
 10
674.0905930771778
 20
314.99789245317476
 40
3.000000003304403
 50
270
 51
0
  0
ARC
  8
_0-1_Layer1
  6
CONTINUOUS
 62
    3
 10
626.0905930771778
 20
261.99789245317481
 40
1.0000000038082431
 50
270
 51
0
  0
LINE
  8
_0-1_Layer1
  6
CONTINUOUS
 62
    4
 10
630.29059307717785
 20
407.80805345317481
 11
630.29059307717785
 21
316.1978924531748
  0
LINE
  8
_0-1_Layer1
  6
CONTINUOUS
 62
    3
 10
626.0905930771778
 20
261.99789245317481
 11
626.0905930771778
 21
412.99789245317476
  0
LINE
  8
_0-1_Layer1
  6
CONTINUOUS
 62
    4
 10
674.33729907717782
 20
411.99789245317476
 11
627.0905930771778
 21
411.99789245317476
  0
LINE
  8
_0-1_Layer1
  6
CONTINUOUS
 62
    3
 10
626.0905930771778
 20
260.99789245317481
 11
598.29526807717787
 21
260.99789245317481
  0
LINE
  8
_0-1_Layer1
  6
CONTINUOUS
 62
    3
 10
626.0905930771778
 20
261.99789245317481
 11
598.29526807717787
 21
261.99789245317481
  0
LINE
  8
_0-1_Layer1
  6
CONTINUOUS
 62
    4
 10
627.0905930771778
 20
247.04670645317478
 11
627.0905930771778
 21
411.99789245317476
  0
LINE
  8
_0-1_Layer1
  6
CONTINUOUS
 62
    4
 10
677.0905930771778
 20
331.99789245317476
 11
677.0905930771778
 21
247.04670645317478
  0
ARC
  8
_0-1_Layer1
  6
CONTINUOUS
 62
    4
 10
631.29059307717785
 20
407.80805345317481
 40
0.9999999863155544
 50
90
 51
180
  0
LINE
  8
_0-1_Layer1
  6
CONTINUOUS
 62
    4
 10
631.29059307717785
 20
408.80805345317481
 11
672.89059307717787
 21
408.80805345317481
  0
ARC
  8
_0-1_Layer1
  6
CONTINUOUS
 62
    4
 10
672.89059307717787
 20
407.80805345317481
 40
0.9999999701586247
 50
0
 51
90
  0
LINE
  8
_0-1_Layer1
  6
CONTINUOUS
 62
    4
 10
673.89059307717787
 20
407.80805345317481
 11
673.89059307717787
 21
392.0080534531748
  0
LINE
  8
_0-1_Layer1
  6
CONTINUOUS
 62
    4
 10
673.89059307717787
 20
331.99789245317476
 11
673.89059307717787
 21
316.1978924531748
  0
ARC
  8
_0-1_Layer1
  6
CONTINUOUS
 62
    4
 10
672.89059307717787
 20
316.1978924531748
 40
0.9999999821504536
 50
270
 51
0
  0
LINE
  8
_0-1_Layer1
  6
CONTINUOUS
 62
    4
 10
672.89059307717787
 20
315.1978924531748
 11
631.29059307717785
 21
315.1978924531748
  0
ARC
  8
_0-1_Layer1
  6
CONTINUOUS
 62
    4
 10
631.29059307717785
 20
316.1978924531748
 40
1.000000005518854
 50
180
 51
270
  0
LINE
  8
_0-1_Layer1
  6
CONTINUOUS
 62
    3
 10
657.0905930771778
 20
412.99789245317476
 11
626.0905930771778
 21
412.99789245317476
  0
LINE
  8
_0-1_Layer1
  6
CONTINUOUS
 62
    3
 10
657.0905930771778
 20
411.99789245317476
 11
657.0905930771778
 21
412.99789245317476
  0
LINE
  8
_0-1_Layer1
  6
PLine1
 62
    4
 10
630.29059307717785
 20
311.88302145317476
 11
630.29059307717785
 21
247.04670645317478
  0
LINE
  8
_0-1_Layer1
  6
PLine1
 62
    4
 10
673.89059307717787
 20
311.88302145317476
 11
673.89059307717787
 21
247.04670645317478
  0
ARC
  8
_0-1_Layer1
  6
CONTINUOUS
 62
    6
 10
616.78070507717791
 20
293.47721145317479
 40
93.767051330432679
 50
84.301861999999986
 51
92.867059999999995
  0
LINE
  8
_0-1_Layer1
  6
CONTINUOUS
 62
    6
 10
612.0905930771778
 20
397.12689245317478
 11
626.0905930771778
 21
397.12689245317478
  0
LINE
  8
_0-1_Layer1
  6
CONTINUOUS
 62
    6
 10
617.43715207717787
 20
397.12689245317478
 11
612.0905930771778
 21
391.78033345317476
  0
LINE
  8
_0-1_Layer1
  6
CONTINUOUS
 62
    6
 10
612.62587407717774
 20
387.15216645317469
 11
622.60059907717789
 21
397.12689245317478
  0
LINE
  8
_0-1_Layer1
  6
CONTINUOUS
 62
    6
 10
618.01183307717781
 20
387.21858645317479
 11
626.0905930771778
 21
395.29734645317478
  0
LINE
  8
_0-1_Layer1
  6
CONTINUOUS
 62
    6
 10
616.28263507717782
 20
387.24293945317476
 11
612.0905930771778
 21
391.43498145317477
  0
LINE
  8
_0-1_Layer1
  6
CONTINUOUS
 62
    6
 10
612.21850007717774
 20
397.12689245317478
 11
622.26144307717777
 21
387.0839494531748
  0
LINE
  8
_0-1_Layer1
  6
CONTINUOUS
 62
    6
 10
623.11171407717779
 20
387.04359145317477
 11
626.0905930771778
 21
390.02246945317478
  0
LINE
  8
_0-1_Layer1
  6
CONTINUOUS
 62
    6
 10
617.46837707717782
 20
397.12689245317478
 11
626.0905930771778
 21
388.5046764531748
  0
LINE
  8
_0-1_Layer1
  6
CONTINUOUS
 62
    6
 10
623.04324707717785
 20
397.12689245317478
 11
626.0905930771778
 21
394.07954645317477
  0
CIRCLE
  8
_0-1_Layer1
  6
CONTINUOUS
 62
    3
 10
627.0905930771778
 20
276.45348045317479
 40
1
  0
LINE
  8
_0-1_Layer1
  6
CONTINUOUS
 62
    3
 10
627.0905930771778
 20
276.45348045317479
 11
799.62602307717782
 21
276.45348045317479
  0
TEXT
  8
_0-1_Layer1
 62
    7
 10
701.76996547717783
 20
277.90396345317475
 40
6
 41
0.8582679999999999
 50
0
  1
Ｂ　架台外径
  0
CIRCLE
  8
_0-1_Layer1
  6
CONTINUOUS
 62
    3
 10
790.56053607717774
 20
276.33630345317476
 40
4.1365344087248559
  0
CIRCLE
  8
_0-1_Layer1
  6
CONTINUOUS
 62
    3
 10
794.44702707717772
 20
276.09339745317476
 40
5.3273371221901007
  0
INSERT
  2
-046-DIM_46
  8
_0-1_Layer1
 10
612.0905930771778
 20
364.36787445317481
 41
1
 42
1
 50
0
  0
LINE
  8
_0-1_Layer1
  6
CONTINUOUS
 62
    3
 10
679.64141307717784
 20
316.00725945317475
 11
676.77538807717792
 21
318.97136045317478
  0
LINE
  8
_0-1_Layer1
  6
CONTINUOUS
 62
    3
 10
676.77538807717792
 20
318.97136045317478
 11
690.2804850771779
 21
295.57984645317481
  0
LINE
  8
_0-1_Layer1
  6
CONTINUOUS
 62
    3
 10
690.2804850771779
 20
295.57984645317481
 11
757.99780707717775
 21
295.57984645317481
  0
TEXT
  8
_0-1_Layer1
 62
    7
 10
686.77861707717784
 20
287.82807745317479
 40
6
 41
0.8582679999999999
 50
0
  1
（別途）
  0
LINE
  8
_0-1_Layer1
  6
CONTINUOUS
 62
    3
 10
609.83938607717778
 20
265.38195245317479
 11
612.70541207717793
 21
262.41785145317476
  0
LINE
  8
_0-1_Layer1
  6
CONTINUOUS
 62
    3
 10
612.70541207717793
 20
262.41785145317476
 11
598.23176107717779
 21
287.48694945317476
  0
LINE
  8
_0-1_Layer1
  6
CONTINUOUS
 62
    3
 10
598.23176107717779
 20
287.48694945317476
 11
562.18451707717782
 21
287.48694945317476
  0
TEXT
  8
_0-1_Layer1
 62
    7
 10
559.09474027717783
 20
288.48694945317476
 40
6
 41
0.8582679999999999
 50
0
  1
水切板（別途）
  0
LINE
  8
_0-1_Layer1
  6
CONTINUOUS
 62
    3
 10
712.0905930771778
 20
412.13107045317469
 11
712.0905930771778
 21
335.6161214531748
  0
LINE
  8
_0-1_Layer1
  6
PLine2
 62
    3
 10
213.63660707717787
 20
148.25085945317477
 11
213.63660707717787
 21
145.90302945317478
  0
LINE
  8
_0-1_Layer1
  6
CONTINUOUS
 62
    3
 10
214.31610707717786
 20
147.45025945317479
 11
214.31610707717786
 21
146.95025945317479
  0
LINE
  8
_0-1_Layer1
  6
CONTINUOUS
 62
    3
 10
212.91610707717786
 20
147.45025945317479
 11
212.91610707717786
 21
146.95085945317479
  0
LINE
  8
_0-1_Layer1
  6
CONTINUOUS
 62
    3
 10
213.21610707717787
 20
147.45025945317479
 11
213.21610707717787
 21
146.95085945317479
  0
LINE
  8
_0-1_Layer1
  6
CONTINUOUS
 62
    6
 10
215.11520707717787
 20
146.68615945317478
 11
212.11520707717787
 21
146.68615945317478
  0
LINE
  8
_0-1_Layer1
  6
CONTINUOUS
 62
    6
 10
215.11520707717787
 20
146.71435945317478
 11
212.11520707717787
 21
146.71435945317478
  0
LINE
  8
_0-1_Layer1
  6
CONTINUOUS
 62
    6
 10
212.11760707717787
 20
146.74255945317478
 11
215.11520707717787
 21
146.74255945317478
  0
LINE
  8
_0-1_Layer1
  6
CONTINUOUS
 62
    6
 10
215.11520707717787
 20
146.77075945317478
 11
212.11520707717787
 21
146.77075945317478
  0
LINE
  8
_0-1_Layer1
  6
CONTINUOUS
 62
    6
 10
215.11520707717787
 20
146.6508594531748
 11
215.11520707717787
 21
146.80085945317478
  0
LINE
  8
_0-1_Layer1
  6
CONTINUOUS
 62
    6
 10
215.11520707717787
 20
146.80085945317478
 11
212.11520707717787
 21
146.80085945317478
  0
LINE
  8
_0-1_Layer1
  6
CONTINUOUS
 62
    6
 10
212.11520707717787
 20
146.80085945317478
 11
212.11520707717787
 21
146.6508594531748
  0
LINE
  8
_0-1_Layer1
  6
CONTINUOUS
 62
    3
 10
214.01610707717788
 20
147.45025945317479
 11
214.01610707717788
 21
146.95025945317479
  0
LINE
  8
_0-1_Layer1
  6
CONTINUOUS
 62
    3
 10
215.11520707717787
 20
146.80085945317478
 11
215.11520707717787
 21
146.95085945317479
  0
LINE
  8
_0-1_Layer1
  6
CONTINUOUS
 62
    3
 10
215.11520707717787
 20
146.95085945317479
 11
212.11520707717787
 21
146.95085945317479
  0
LINE
  8
_0-1_Layer1
  6
CONTINUOUS
 62
    3
 10
212.11520707717787
 20
146.95085945317479
 11
212.11520707717787
 21
146.80085945317478
  0
LINE
  8
_0-1_Layer1
  6
CONTINUOUS
 62
    3
 10
214.16610707717786
 20
147.54954945317479
 11
213.06610707717786
 21
147.54954945317479
  0
ARC
  8
_0-1_Layer1
  6
CONTINUOUS
 62
    3
 10
214.16610707717786
 20
147.38659945317477
 40
0.1629496305808401
 50
22.996333999999997
 51
157.0036659999999
  0
ARC
  8
_0-1_Layer1
  6
CONTINUOUS
 62
    3
 10
213.06610707717786
 20
147.38659945317477
 40
0.1629496310212772
 50
22.996333999999997
 51
157.0036659999999
  0
ARC
  8
_0-1_Layer1
  6
CONTINUOUS
 62
    3
 10
213.61610707717787
 20
146.69418145317479
 40
0.8553676254561111
 50
62.119099000000013
 51
117.88090099999999
  0
TEXT
  8
_0-1_Layer1
 62
    7
 10
12.696839077177856
 20
0.6297194531748004
 40
6
 41
0.8582679999999999
 50
0
  1
Ｓ１：２
  0
TEXT
  8
_0-1_Layer1
 62
    7
 10
12.696839077177856
 20
-6.3091515468252055
 40
6
 41
0.8582679999999999
 50
0
  1
Ｓ１：５
  0
INSERT
  2
-047-DIM_47
  8
_0-1_Layer1
 10
469.59343107717774
 20
552.84016345317468
 41
1
 42
1
 50
0
  0
LINE
  8
_0-1_Layer1
  6
CONTINUOUS
 62
    6
 10
447.29842107717775
 20
541.50367945317464
 11
437.75524607717784
 21
551.04685345317478
  0
LINE
  8
_0-1_Layer1
  6
CONTINUOUS
 62
    6
 10
447.40457707717775
 20
550.68280445317464
 11
437.56193607717779
 21
540.8401634531748
  0
LINE
  8
_0-1_Layer1
  6
CONTINUOUS
 62
    6
 10
447.40457707717775
 20
551.24016345317466
 11
447.40457707717775
 21
541.64016345317464
  0
LINE
  8
_0-1_Layer1
  6
CONTINUOUS
 62
    6
 10
437.38228607717775
 20
550.44016345317459
 11
437.38228607717775
 21
540.8401634531748
  0
LINE
  8
_0-1_Layer1
  6
CONTINUOUS
 62
    6
 10
447.40457707717775
 20
542.19752345317465
 11
446.04721807717777
 21
540.8401634531748
  0
LINE
  8
_0-1_Layer1
  6
CONTINUOUS
 62
    6
 10
447.40457707717775
 20
545.0259504531748
 11
443.21879007717774
 21
540.8401634531748
  0
LINE
  8
_0-1_Layer1
  6
CONTINUOUS
 62
    6
 10
447.40457707717775
 20
547.85437745317483
 11
440.39036307717788
 21
540.8401634531748
  0
LINE
  8
_0-1_Layer1
  6
CONTINUOUS
 62
    6
 10
445.13350907717779
 20
551.24016345317466
 11
437.38228607717775
 21
543.48894045317468
  0
LINE
  8
_0-1_Layer1
  6
CONTINUOUS
 62
    6
 10
442.30508207717787
 20
551.24016345317466
 11
437.38228607717775
 21
546.31736745317471
  0
LINE
  8
_0-1_Layer1
  6
CONTINUOUS
 62
    6
 10
439.47665507717778
 20
551.24016345317466
 11
437.38228607717775
 21
549.14579445317463
  0
LINE
  8
_0-1_Layer1
  6
CONTINUOUS
 62
    6
 10
439.47665507717778
 20
540.8401634531748
 11
437.38228607717775
 21
542.93453345317459
  0
LINE
  8
_0-1_Layer1
  6
CONTINUOUS
 62
    6
 10
442.30508207717787
 20
540.8401634531748
 11
437.38228607717775
 21
545.76296045317486
  0
LINE
  8
_0-1_Layer1
  6
CONTINUOUS
 62
    6
 10
445.13350907717779
 20
540.8401634531748
 11
437.38228607717775
 21
548.59138745317466
  0
LINE
  8
_0-1_Layer1
  6
CONTINUOUS
 62
    6
 10
447.40457707717775
 20
544.22595045317473
 11
440.39036307717788
 21
551.24016345317466
  0
LINE
  8
_0-1_Layer1
  6
CONTINUOUS
 62
    6
 10
447.40457707717775
 20
547.05437745317477
 11
443.21879007717774
 21
551.24016345317466
  0
LINE
  8
_0-1_Layer1
  6
CONTINUOUS
 62
    6
 10
447.40457707717775
 20
549.8828044531748
 11
446.04721807717777
 21
551.24016345317466
  0
LINE
  8
_0-1_Layer1
  6
CONTINUOUS
 62
    6
 10
447.40457707717775
 20
546.04016345317473
 11
437.38228607717775
 21
546.04016345317473
  0
LINE
  8
_0-1_Layer1
  6
CONTINUOUS
 62
    3
 10
432.79343107717779
 20
544.8401634531748
 11
434.58228607717774
 21
544.8401634531748
  0
LINE
  8
_0-1_Layer1
  6
CONTINUOUS
 62
    3
 10
434.58228607717774
 20
544.8401634531748
 11
437.56117107717785
 21
550.79793445317466
  0
ARC
  8
_0-1_Layer1
  6
CONTINUOUS
 62
    3
 10
438.27671307717787
 20
550.44016345317459
 40
0.7999999997319503
 50
90
 51
153.43494899999996
  0
LINE
  8
_0-1_Layer1
  6
CONTINUOUS
 62
    3
 10
438.27671307717787
 20
551.24016345317466
 11
467.06360907717789
 21
551.24016345317466
  0
ARC
  8
_0-1_Layer1
  6
CONTINUOUS
 62
    3
 10
467.06360907717789
 20
550.44016345317459
 40
0.8000000002007747
 50
18.434949
 51
90
  0
LINE
  8
_0-1_Layer1
  6
CONTINUOUS
 62
    3
 10
467.82255607717786
 20
550.69314645317479
 11
471.09319907717787
 21
540.88121745317471
  0
ARC
  8
_0-1_Layer1
  6
CONTINUOUS
 62
    3
 10
473.37003907717775
 20
541.64016345317464
 40
2.3999999998539709
 50
198.43494899999988
 51
269.99999999999994
  0
LINE
  8
_0-1_Layer1
  6
CONTINUOUS
 62
    3
 10
432.79343107717779
 20
544.8401634531748
 11
436.13008807717779
 21
551.5134764531748
  0
ARC
  8
_0-1_Layer1
  6
CONTINUOUS
 62
    3
 10
438.27671307717787
 20
550.44016345317459
 40
2.3999999998671551
 50
90
 51
153.43494899999996
  0
LINE
  8
_0-1_Layer1
  6
CONTINUOUS
 62
    3
 10
438.27671307717787
 20
552.84016345317468
 11
467.06360907717789
 21
552.84016345317468
  0
ARC
  8
_0-1_Layer1
  6
CONTINUOUS
 62
    3
 10
467.06360907717789
 20
550.44016345317459
 40
2.3999999999447308
 50
18.434949
 51
90
  0
LINE
  8
_0-1_Layer1
  6
CONTINUOUS
 62
    3
 10
469.34044907717788
 20
551.19911045317474
 11
472.61109207717789
 21
541.38718145317478
  0
ARC
  8
_0-1_Layer1
  6
CONTINUOUS
 62
    3
 10
473.37003907717775
 20
541.64016345317464
 40
0.80000000032935
 50
198.43494899999988
 51
269.99999999999994
  0
ARC
  8
_0-1_Layer1
  6
CONTINUOUS
 62
    3
 10
446.51015007717785
 20
541.64016345317464
 40
0.7999999996900103
 50
270
 51
333.43494900000002
  0
LINE
  8
_0-1_Layer1
  6
CONTINUOUS
 62
    3
 10
447.22569107717788
 20
541.28239345317479
 11
451.00457707717777
 21
548.8401634531748
  0
LINE
  8
_0-1_Layer1
  6
CONTINUOUS
 62
    3
 10
451.00457707717777
 20
548.8401634531748
 11
452.79343107717779
 21
548.8401634531748
  0
LINE
  8
_0-1_Layer1
  6
CONTINUOUS
 62
    3
 10
452.79343107717779
 20
548.8401634531748
 11
448.65677507717788
 21
540.56685145317488
  0
ARC
  8
_0-1_Layer1
  6
CONTINUOUS
 62
    3
 10
446.51015007717785
 20
541.64016345317464
 40
2.3999999999163051
 50
270
 51
333.43494900000002
  0
LINE
  8
_0-1_Layer1
  6
PLine2
 62
    3
 10
452.79343107717779
 20
555.52196345317464
 11
452.79343107717779
 21
538.33353545317482
  0
LINE
  8
_0-1_Layer1
  6
CONTINUOUS
 62
    3
 10
446.51015007717785
 20
540.8401634531748
 11
418.63862607717778
 21
540.8401634531748
  0
LINE
  8
_0-1_Layer1
  6
CONTINUOUS
 62
    3
 10
446.51015007717785
 20
539.24016345317466
 11
418.63862607717778
 21
539.24016345317466
  0
LINE
  8
_0-1_Layer1
  6
CONTINUOUS
 62
    3
 10
473.37003907717775
 20
539.24016345317466
 11
490.02530107717774
 21
539.24016345317466
  0
LINE
  8
_0-1_Layer1
  6
CONTINUOUS
 62
    3
 10
473.37003907717775
 20
540.8401634531748
 11
490.02530107717774
 21
540.8401634531748
  0
INSERT
  2
-048-DIM_48
  8
_0-1_Layer1
 10
472.79343107717784
 20
541.88561545317464
 41
1
 42
1
 50
0
  0
INSERT
  2
-049-DIM_49
  8
_0-1_Layer1
 10
468.79343107717779
 20
553.64016345317464
 41
1
 42
1
 50
0
  0
INSERT
  2
-050-DIM_50
  8
_0-1_Layer1
 10
436.79343107717779
 20
553.64016345317464
 41
1
 42
1
 50
0
  0
INSERT
  2
-051-DIM_51
  8
_0-1_Layer1
 10
432.79343107717779
 20
566.29983545317475
 41
1
 42
1
 50
0
  0
TEXT
  8
_0-1_Layer1
 62
    7
 10
282.54030007717785
 20
268.44275045317477
 40
6
 41
0.8582679999999999
 50
0
  1
平面図　
  0
LINE
  8
_0-1_Layer1
  6
CONTINUOUS
 62
    3
 10
281.05274807717785
 20
275.3871284531748
 11
298.77515007717795
 21
275.3871284531748
  0
LINE
  8
_0-1_Layer1
  6
CONTINUOUS
 62
    3
 10
298.77515007717795
 20
275.3871284531748
 11
298.77515007717795
 21
267.61414545317479
  0
LINE
  8
_0-1_Layer1
  6
CONTINUOUS
 62
    3
 10
298.77515007717795
 20
267.61414545317479
 11
281.05274807717785
 21
267.61414545317479
  0
LINE
  8
_0-1_Layer1
  6
CONTINUOUS
 62
    3
 10
281.05274807717785
 20
267.61414545317479
 11
281.05274807717785
 21
275.3871284531748
  0
TEXT
  8
_0-1_Layer1
 62
    7
 10
110.89859107717785
 20
517.82485545317479
 40
6
 41
0.8582679999999999
 50
0
  1
２１７０
  0
TEXT
  8
_0-1_Layer1
 62
    7
 10
110.89859107717785
 20
529.37529045317467
 40
6
 41
0.8582679999999999
 50
0
  1
１４７０
  0
TEXT
  8
_0-1_Layer1
 62
    7
 10
111.05467607717787
 20
541.3934744531748
 40
6
 41
0.8582679999999999
 50
0
  1
１０７０
  0
TEXT
  8
_0-1_Layer1
 62
    7
 10
115.97689207717787
 20
553.41875545317475
 40
6
 41
0.8582679999999999
 50
0
  1
７７０
  0
TEXT
  8
_0-1_Layer1
 62
    7
 10
496.94239207717789
 20
447.69298945317479
 40
6
 41
0.8582679999999999
 50
0
  1
水上側
  0
TEXT
  8
_0-1_Layer1
 62
    7
 10
397.88417607717787
 20
447.39483745317466
 40
6
 41
0.8582679999999999
 50
0
  1
水下側
  0
LINE
  8
_0-1_Layer1
  6
CONTINUOUS
 62
    3
 10
287.55265507717786
 20
574.7530764531748
 11
287.55265507717786
 21
514.76307645317479
  0
LINE
  8
_0-1_Layer1
  6
CONTINUOUS
 62
    3
 10
313.26265507717784
 20
574.7530764531748
 11
313.26265507717784
 21
514.76307645317479
  0
LINE
  8
_0-1_Layer1
  6
CONTINUOUS
 62
    3
 10
261.84265507717777
 20
574.7530764531748
 11
261.84265507717777
 21
514.76307645317479
  0
TEXT
  8
_0-1_Layer1
 62
    7
 10
247.02534107717787
 20
565.20197345317479
 40
6
 41
0.8582679999999999
 50
0
  1
Ｃ
  0
TEXT
  8
_0-1_Layer1
 62
    7
 10
272.73534107717785
 20
565.20197345317479
 40
6
 41
0.8582679999999999
 50
0
  1
Ｅ
  0
TEXT
  8
_0-1_Layer1
 62
    7
 10
298.44534107717789
 20
565.20197345317479
 40
6
 41
0.8582679999999999
 50
0
  1
Ｆ
  0
TEXT
  8
_0-1_Layer1
 62
    7
 10
236.37637797936577
 20
529.32834445317485
 40
6
 41
0.8582679999999999
 50
0
  1
１５００
  0
TEXT
  8
_0-1_Layer1
 62
    7
 10
238.22413709068178
 20
541.25263745317466
 40
6
 41
0.8582679999999999
 50
0
  1
２０００
  0
TEXT
  8
_0-1_Layer1
 62
    7
 10
237.91876709068185
 20
553.10873745317463
 40
6
 41
0.8582679999999999
 50
0
  1
１７００
  0
TEXT
  8
_0-1_Layer1
 62
    7
 10
236.78020297936575
 20
517.46040745317487
 40
6
 41
0.8582679999999999
 50
0
  1
１２２０
  0
TEXT
  8
_0-1_Layer1
 62
    7
 10
269.84756867167005
 20
529.32834445317485
 40
6
 41
0.8582679999999999
 50
0
  1
９００
  0
TEXT
  8
_0-1_Layer1
 62
    7
 10
263.00616742449836
 20
541.25263745317466
 40
6
 41
0.8582679999999999
 50
0
  1
１０２０
  0
TEXT
  8
_0-1_Layer1
 62
    7
 10
262.70079742449849
 20
553.10873745317463
 40
6
 41
0.8582679999999999
 50
0
  1
１０２０
  0
TEXT
  8
_0-1_Layer1
 62
    7
 10
262.49020297936568
 20
517.46040745317487
 40
6
 41
0.8582679999999999
 50
0
  1
１２１０
  0
TEXT
  8
_0-1_Layer1
 62
    7
 10
295.55756867167008
 20
529.32834445317485
 40
6
 41
0.8582679999999999
 50
0
  1
８６０
  0
TEXT
  8
_0-1_Layer1
 62
    7
 10
295.38067007717785
 20
541.25263745317466
 40
6
 41
0.8582679999999999
 50
0
  1
９８０
  0
TEXT
  8
_0-1_Layer1
 62
    7
 10
295.07530007717787
 20
553.10873745317463
 40
6
 41
0.8582679999999999
 50
0
  1
９８０
  0
TEXT
  8
_0-1_Layer1
 62
    7
 10
288.20020297936566
 20
517.46040745317487
 40
6
 41
0.8582679999999999
 50
0
  1
１０７０
  0
TEXT
  8
_0-1_Layer1
 62
    7
 10
575.28201867717792
 20
550.29543945317482
 40
6
 41
0.8582679999999999
 50
-0.0000000000000243
  1
コンプリフォーム１０×２０
  0
TEXT
  8
_0-1_Layer1
 62
    7
 10
691.25668338756077
 20
297.29517206815427
 40
6
 41
0.7053890000000001
 50
0
  1
架台　Ｃ１００×５０×２０×３．２
  0
TEXT
  8
_0-1_Layer1
 62
    7
 10
380.16658300329823
 20
75.166894351504993
 40
6
 41
0.7053890000000001
 50
0
  1
架台　Ｃ１００×５０×２０×３．２
  0
TEXT
  8
_0-1_Layer1
 62
    7
 10
34.265334618665293
 20
88.980841970699601
 40
6
 41
0.7053890000000001
 50
0
  1
架台　Ｃ１００×５０×２０×３．２
  0
TEXT
  8
_0-1_Layer1
 62
    7
 10
425.75999907717784
 20
274.14978845317478
 40
6
 41
0.8582679999999999
 50
0
  1
φ１０　
  0
TEXT
  8
_0-1_Layer1
 62
    7
 10
506.70234319512082
 20
498.97880730839552
 40
6
 41
0.8582679999999999
 50
-0.0000000000000225
  1
トップライトフレーム　アルミ
  0
TEXT
  8
_0-1_Layer1
 62
    7
 10
586.82323938644959
 20
572.46900864251086
 40
6
 41
0.8582679999999999
 50
0
  1
ボルトＭ８×４０ＳＵＳ
  0
ENDSEC
  0
EOF
