  0
SECTION
  2
HEADER
  9
$ACADVER
  1
AC1018
  9
$ACADMAINTVER
 70
   104
  9
$DWGCODEPAGE
  3
ANSI_932
  9
$LASTSAVEDBY
  1
HON1000CG
  9
$INSBASE
 10
0.0
 20
0.0
 30
0.0
  9
$EXTMIN
 10
138.8378986097386
 20
134.976934400127
 30
-0.0015258207003583
  9
$EXTMAX
 10
3242.951667843097
 20
2271.114629433391
 30
0.0000000349246037
  9
$LIMMIN
 10
0.0
 20
0.0
  9
$LIMMAX
 10
12.0
 20
9.0
  9
$ORTHOMODE
 70
     0
  9
$REGENMODE
 70
     1
  9
$FILLMODE
 70
     1
  9
$QTEXTMODE
 70
     0
  9
$MIRRTEXT
 70
     1
  9
$LTSCALE
 40
8.0
  9
$ATTMODE
 70
     1
  9
$TEXTSIZE
 40
0.2
  9
$TRACEWID
 40
0.05
  9
$TEXTSTYLE
  7
Standard
  9
$CLAYER
  8
0
  9
$CELTYPE
  6
ByLayer
  9
$CECOLOR
 62
   256
  9
$CELTSCALE
 40
1.0
  9
$DISPSILH
 70
     0
  9
$DIMSCALE
 40
1.0
  9
$DIMASZ
 40
0.18
  9
$DIMEXO
 40
0.0625
  9
$DIMDLI
 40
0.38
  9
$DIMRND
 40
0.0
  9
$DIMDLE
 40
0.0
  9
$DIMEXE
 40
0.18
  9
$DIMTP
 40
0.0
  9
$DIMTM
 40
0.0
  9
$DIMTXT
 40
0.18
  9
$DIMCEN
 40
0.09
  9
$DIMTSZ
 40
0.0
  9
$DIMTOL
 70
     0
  9
$DIMLIM
 70
     0
  9
$DIMTIH
 70
     1
  9
$DIMTOH
 70
     1
  9
$DIMSE1
 70
     0
  9
$DIMSE2
 70
     0
  9
$DIMTAD
 70
     0
  9
$DIMZIN
 70
     0
  9
$DIMBLK
  1

  9
$DIMASO
 70
     1
  9
$DIMSHO
 70
     1
  9
$DIMPOST
  1

  9
$DIMAPOST
  1

  9
$DIMALT
 70
     0
  9
$DIMALTD
 70
     2
  9
$DIMALTF
 40
25.4
  9
$DIMLFAC
 40
1.0
  9
$DIMTOFL
 70
     0
  9
$DIMTVP
 40
0.0
  9
$DIMTIX
 70
     0
  9
$DIMSOXD
 70
     0
  9
$DIMSAH
 70
     0
  9
$DIMBLK1
  1

  9
$DIMBLK2
  1

  9
$DIMSTYLE
  2
Standard
  9
$DIMCLRD
 70
     0
  9
$DIMCLRE
 70
     0
  9
$DIMCLRT
 70
     0
  9
$DIMTFAC
 40
1.0
  9
$DIMGAP
 40
0.09
  9
$DIMJUST
 70
     0
  9
$DIMSD1
 70
     0
  9
$DIMSD2
 70
     0
  9
$DIMTOLJ
 70
     1
  9
$DIMTZIN
 70
     0
  9
$DIMALTZ
 70
     0
  9
$DIMALTTZ
 70
     0
  9
$DIMUPT
 70
     0
  9
$DIMDEC
 70
     4
  9
$DIMTDEC
 70
     4
  9
$DIMALTU
 70
     2
  9
$DIMALTTD
 70
     2
  9
$DIMTXSTY
  7
Standard
  9
$DIMAUNIT
 70
     0
  9
$DIMADEC
 70
     0
  9
$DIMALTRND
 40
0.0
  9
$DIMAZIN
 70
     0
  9
$DIMDSEP
 70
    46
  9
$DIMATFIT
 70
     3
  9
$DIMFRAC
 70
     0
  9
$DIMLDRBLK
  1

  9
$DIMLUNIT
 70
     2
  9
$DIMLWD
 70
    -2
  9
$DIMLWE
 70
    -2
  9
$DIMTMOVE
 70
     0
  9
$LUNITS
 70
     2
  9
$LUPREC
 70
     4
  9
$SKETCHINC
 40
0.1
  9
$FILLETRAD
 40
0.5
  9
$AUNITS
 70
     0
  9
$AUPREC
 70
     0
  9
$MENU
  1
.
  9
$ELEVATION
 40
0.0
  9
$PELEVATION
 40
0.0
  9
$THICKNESS
 40
0.0
  9
$LIMCHECK
 70
     0
  9
$CHAMFERA
 40
0.5
  9
$CHAMFERB
 40
0.5
  9
$CHAMFERC
 40
1.0
  9
$CHAMFERD
 40
0.0
  9
$SKPOLY
 70
     0
  9
$TDCREATE
 40
2456819.745385081
  9
$TDUCREATE
 40
2456819.370385081
  9
$TDUPDATE
 40
2458870.652170417
  9
$TDUUPDATE
 40
2458870.277170417
  9
$TDINDWG
 40
0.0056559144
  9
$TDUSRTIMER
 40
0.0056559028
  9
$USRTIMER
 70
     1
  9
$ANGBASE
 50
0.0
  9
$ANGDIR
 70
     0
  9
$PDMODE
 70
     0
  9
$PDSIZE
 40
0.0
  9
$PLINEWID
 40
0.0
  9
$SPLFRAME
 70
     0
  9
$SPLINETYPE
 70
     6
  9
$SPLINESEGS
 70
     8
  9
$HANDSEED
  5
545
  9
$SURFTAB1
 70
     6
  9
$SURFTAB2
 70
     6
  9
$SURFTYPE
 70
     6
  9
$SURFU
 70
     6
  9
$SURFV
 70
     6
  9
$UCSBASE
  2

  9
$UCSNAME
  2

  9
$UCSORG
 10
0.0
 20
0.0
 30
0.0
  9
$UCSXDIR
 10
1.0
 20
0.0
 30
0.0
  9
$UCSYDIR
 10
0.0
 20
1.0
 30
0.0
  9
$UCSORTHOREF
  2

  9
$UCSORTHOVIEW
 70
     0
  9
$UCSORGTOP
 10
0.0
 20
0.0
 30
0.0
  9
$UCSORGBOTTOM
 10
0.0
 20
0.0
 30
0.0
  9
$UCSORGLEFT
 10
0.0
 20
0.0
 30
0.0
  9
$UCSORGRIGHT
 10
0.0
 20
0.0
 30
0.0
  9
$UCSORGFRONT
 10
0.0
 20
0.0
 30
0.0
  9
$UCSORGBACK
 10
0.0
 20
0.0
 30
0.0
  9
$PUCSBASE
  2

  9
$PUCSNAME
  2

  9
$PUCSORG
 10
0.0
 20
0.0
 30
0.0
  9
$PUCSXDIR
 10
1.0
 20
0.0
 30
0.0
  9
$PUCSYDIR
 10
0.0
 20
1.0
 30
0.0
  9
$PUCSORTHOREF
  2

  9
$PUCSORTHOVIEW
 70
     0
  9
$PUCSORGTOP
 10
0.0
 20
0.0
 30
0.0
  9
$PUCSORGBOTTOM
 10
0.0
 20
0.0
 30
0.0
  9
$PUCSORGLEFT
 10
0.0
 20
0.0
 30
0.0
  9
$PUCSORGRIGHT
 10
0.0
 20
0.0
 30
0.0
  9
$PUCSORGFRONT
 10
0.0
 20
0.0
 30
0.0
  9
$PUCSORGBACK
 10
0.0
 20
0.0
 30
0.0
  9
$USERI1
 70
     0
  9
$USERI2
 70
     0
  9
$USERI3
 70
     0
  9
$USERI4
 70
     0
  9
$USERI5
 70
     0
  9
$USERR1
 40
0.0
  9
$USERR2
 40
0.0
  9
$USERR3
 40
0.0
  9
$USERR4
 40
0.0
  9
$USERR5
 40
0.0
  9
$WORLDVIEW
 70
     1
  9
$SHADEDGE
 70
     3
  9
$SHADEDIF
 70
    70
  9
$TILEMODE
 70
     1
  9
$MAXACTVP
 70
    64
  9
$PINSBASE
 10
0.0
 20
0.0
 30
0.0
  9
$PLIMCHECK
 70
     0
  9
$PEXTMIN
 10
1.000000000000000E+20
 20
1.000000000000000E+20
 30
1.000000000000000E+20
  9
$PEXTMAX
 10
-1.000000000000000E+20
 20
-1.000000000000000E+20
 30
-1.000000000000000E+20
  9
$PLIMMIN
 10
0.0
 20
0.0
  9
$PLIMMAX
 10
12.0
 20
9.0
  9
$UNITMODE
 70
     0
  9
$VISRETAIN
 70
     1
  9
$PLINEGEN
 70
     0
  9
$PSLTSCALE
 70
     1
  9
$TREEDEPTH
 70
  3020
  9
$CMLSTYLE
  2
Standard
  9
$CMLJUST
 70
     0
  9
$CMLSCALE
 40
1.0
  9
$PROXYGRAPHICS
 70
     1
  9
$MEASUREMENT
 70
     0
  9
$CELWEIGHT
370
    -1
  9
$ENDCAPS
280
     0
  9
$JOINSTYLE
280
     0
  9
$LWDISPLAY
290
     0
  9
$INSUNITS
 70
     1
  9
$HYPERLINKBASE
  1

  9
$STYLESHEET
  1

  9
$XEDIT
290
     1
  9
$CEPSNTYPE
380
     0
  9
$PSTYLEMODE
290
     1
  9
$FINGERPRINTGUID
  2
{95F9A581-0199-4C21-8E39-62C24308CF1E}
  9
$VERSIONGUID
  2
{BAA2D2FD-4FBC-403E-BD64-DD153C1BD25E}
  9
$EXTNAMES
290
     1
  9
$PSVPSCALE
 40
0.0
  9
$OLESTARTUP
290
     0
  9
$SORTENTS
280
   127
  9
$INDEXCTL
280
     0
  9
$HIDETEXT
280
     1
  9
$XCLIPFRAME
290
     0
  9
$HALOGAP
280
     0
  9
$OBSCOLOR
 70
   257
  9
$OBSLTYPE
280
     0
  9
$INTERSECTIONDISPLAY
280
     0
  9
$INTERSECTIONCOLOR
 70
   257
  9
$DIMASSOC
280
     2
  9
$PROJECTNAME
  1

  0
ENDSEC
  0
SECTION
  2
CLASSES
  0
CLASS
  1
ACDBDICTIONARYWDFLT
  2
AcDbDictionaryWithDefault
  3
ObjectDBX Classes
 90
        0
 91
        1
280
     0
281
     0
  0
CLASS
  1
VISUALSTYLE
  2
AcDbVisualStyle
  3
ObjectDBX Classes
 90
     4095
 91
       26
280
     0
281
     0
  0
CLASS
  1
SCALE
  2
AcDbScale
  3
ObjectDBX Classes
 90
     1153
 91
       33
280
     0
281
     0
  0
CLASS
  1
DICTIONARYVAR
  2
AcDbDictionaryVar
  3
ObjectDBX Classes
 90
        0
 91
        8
280
     0
281
     0
  0
CLASS
  1
MATERIAL
  2
AcDbMaterial
  3
ObjectDBX Classes
 90
     1153
 91
        3
280
     0
281
     0
  0
CLASS
  1
TABLESTYLE
  2
AcDbTableStyle
  3
ObjectDBX Classes
 90
     4095
 91
        1
280
     0
281
     0
  0
CLASS
  1
MLEADERSTYLE
  2
AcDbMLeaderStyle
  3
ACDB_MLEADERSTYLE_CLASS
 90
     4095
 91
        1
280
     0
281
     0
  0
CLASS
  1
ACDBSECTIONVIEWSTYLE
  2
AcDbSectionViewStyle
  3
ObjectDBX Classes
 90
     1025
 91
        1
280
     0
281
     0
  0
CLASS
  1
ACDBDETAILVIEWSTYLE
  2
AcDbDetailViewStyle
  3
ObjectDBX Classes
 90
     1025
 91
        1
280
     0
281
     0
  0
CLASS
  1
CELLSTYLEMAP
  2
AcDbCellStyleMap
  3
ObjectDBX Classes
 90
     1152
 91
        1
280
     0
281
     0
  0
ENDSEC
  0
SECTION
  2
TABLES
  0
TABLE
  2
VPORT
  5
8
330
0
100
AcDbSymbolTable
 70
     1
  0
VPORT
  5
29
330
8
100
AcDbSymbolTableRecord
100
AcDbViewportTableRecord
  2
*Active
 70
     0
 10
0.0
 20
0.0
 11
1.0
 21
1.0
 12
1690.894783226418
 22
1203.045781916759
 13
0.0
 23
0.0
 14
0.5
 24
0.5
 15
0.5
 25
0.5
 16
0.0
 26
0.0
 36
1.0
 17
0.0
 27
0.0
 37
0.0
 40
2500.504987542295
 41
1.249333333333333
 42
50.0
 43
0.0
 44
0.0
 50
0.0
 51
0.0
 71
     0
 72
   100
 73
     1
 74
     3
 75
     0
 76
     0
 77
     0
 78
     0
281
     0
 65
     1
110
0.0
120
0.0
130
0.0
111
1.0
121
0.0
131
0.0
112
0.0
122
1.0
132
0.0
 79
     0
146
0.0
1001
ACAD_NAV_VCDISPLAY
1070
     3
  0
ENDTAB
  0
TABLE
  2
LTYPE
  5
5
330
0
100
AcDbSymbolTable
 70
    18
  0
LTYPE
  5
14
330
5
100
AcDbSymbolTableRecord
100
AcDbLinetypeTableRecord
  2
ByBlock
 70
     0
  3

 72
    65
 73
     0
 40
0.0
  0
LTYPE
  5
15
330
5
100
AcDbSymbolTableRecord
100
AcDbLinetypeTableRecord
  2
ByLayer
 70
     0
  3

 72
    65
 73
     0
 40
0.0
  0
LTYPE
  5
16
330
5
100
AcDbSymbolTableRecord
100
AcDbLinetypeTableRecord
  2
Continuous
 70
     0
  3
Solid line
 72
    65
 73
     0
 40
0.0
  0
LTYPE
  5
3B
330
5
100
AcDbSymbolTableRecord
100
AcDbLinetypeTableRecord
  2
PLine1
 70
     0
  3
破線
 72
    65
 73
     2
 40
24.0
 49
16.8
 74
     0
 49
-7.2
 74
     0
  0
LTYPE
  5
3C
330
5
100
AcDbSymbolTableRecord
100
AcDbLinetypeTableRecord
  2
PLine2
 70
     0
  3
一点鎖線
 72
    65
 73
     4
 40
80.0
 49
56.0
 74
     0
 49
-8.0
 74
     0
 49
8.0
 74
     0
 49
-8.0
 74
     0
  0
LTYPE
  5
3D
330
5
100
AcDbSymbolTableRecord
100
AcDbLinetypeTableRecord
  2
PLine3
 70
     0
  3
二点鎖線
 72
    65
 73
     6
 40
80.0
 49
40.0
 74
     0
 49
-8.0
 74
     0
 49
8.0
 74
     0
 49
-8.0
 74
     0
 49
8.0
 74
     0
 49
-8.0
 74
     0
  0
LTYPE
  5
3E
330
5
100
AcDbSymbolTableRecord
100
AcDbLinetypeTableRecord
  2
PLine4
 70
     0
  3
破線1
 72
    65
 73
     2
 40
40.0
 49
28.0
 74
     0
 49
-12.0
 74
     0
  0
LTYPE
  5
3F
330
5
100
AcDbSymbolTableRecord
100
AcDbLinetypeTableRecord
  2
PLine5
 70
     0
  3
一点鎖線1
 72
    65
 73
     4
 40
120.0
 49
84.0
 74
     0
 49
-12.0
 74
     0
 49
12.0
 74
     0
 49
-12.0
 74
     0
  0
LTYPE
  5
40
330
5
100
AcDbSymbolTableRecord
100
AcDbLinetypeTableRecord
  2
PLine6
 70
     0
  3
二点鎖線1
 72
    65
 73
     6
 40
120.0
 49
60.0
 74
     0
 49
-12.0
 74
     0
 49
12.0
 74
     0
 49
-12.0
 74
     0
 49
12.0
 74
     0
 49
-12.0
 74
     0
  0
LTYPE
  5
41
330
5
100
AcDbSymbolTableRecord
100
AcDbLinetypeTableRecord
  2
PLine7
 70
     0
  3
破線2
 72
    65
 73
     2
 40
56.0
 49
39.2
 74
     0
 49
-16.8
 74
     0
  0
LTYPE
  5
42
330
5
100
AcDbSymbolTableRecord
100
AcDbLinetypeTableRecord
  2
PLine8
 70
     0
  3
一点鎖線2
 72
    65
 73
     4
 40
160.0
 49
112.0
 74
     0
 49
-16.0
 74
     0
 49
16.0
 74
     0
 49
-16.0
 74
     0
  0
LTYPE
  5
43
330
5
100
AcDbSymbolTableRecord
100
AcDbLinetypeTableRecord
  2
PLine9
 70
     0
  3
二点鎖線2
 72
    65
 73
     6
 40
160.0
 49
80.0
 74
     0
 49
-16.0
 74
     0
 49
16.0
 74
     0
 49
-16.0
 74
     0
 49
16.0
 74
     0
 49
-16.0
 74
     0
  0
LTYPE
  5
44
330
5
100
AcDbSymbolTableRecord
100
AcDbLinetypeTableRecord
  2
PLine10
 70
     0
  3
破線3
 72
    65
 73
     2
 40
72.0
 49
50.4
 74
     0
 49
-21.6
 74
     0
  0
LTYPE
  5
45
330
5
100
AcDbSymbolTableRecord
100
AcDbLinetypeTableRecord
  2
PLine11
 70
     0
  3
一点鎖線3
 72
    65
 73
     4
 40
200.0
 49
140.0
 74
     0
 49
-20.0
 74
     0
 49
20.0
 74
     0
 49
-20.0
 74
     0
  0
LTYPE
  5
46
330
5
100
AcDbSymbolTableRecord
100
AcDbLinetypeTableRecord
  2
PLine12
 70
     0
  3
二点鎖線3
 72
    65
 73
     6
 40
200.0
 49
100.0
 74
     0
 49
-20.0
 74
     0
 49
20.0
 74
     0
 49
-20.0
 74
     0
 49
20.0
 74
     0
 49
-20.0
 74
     0
  0
LTYPE
  5
47
330
5
100
AcDbSymbolTableRecord
100
AcDbLinetypeTableRecord
  2
PLine13
 70
     0
  3
破線4
 72
    65
 73
     2
 40
88.0
 49
61.6
 74
     0
 49
-26.4
 74
     0
  0
LTYPE
  5
48
330
5
100
AcDbSymbolTableRecord
100
AcDbLinetypeTableRecord
  2
PLine14
 70
     0
  3
一点鎖線4
 72
    65
 73
     4
 40
240.0
 49
168.0
 74
     0
 49
-24.0
 74
     0
 49
24.0
 74
     0
 49
-24.0
 74
     0
  0
LTYPE
  5
49
330
5
100
AcDbSymbolTableRecord
100
AcDbLinetypeTableRecord
  2
PLine15
 70
     0
  3
二点鎖線4
 72
    65
 73
     6
 40
240.0
 49
120.0
 74
     0
 49
-24.0
 74
     0
 49
24.0
 74
     0
 49
-24.0
 74
     0
 49
24.0
 74
     0
 49
-24.0
 74
     0
  0
ENDTAB
  0
TABLE
  2
LAYER
  5
2
330
0
100
AcDbSymbolTable
 70
     2
  0
LAYER
  5
10
102
{ACAD_XDICTIONARY
360
4FB
102
}
330
2
100
AcDbSymbolTableRecord
100
AcDbLayerTableRecord
  2
0
 70
     0
 62
     7
  6
Continuous
370
    -3
390
F
  0
LAYER
  5
4E
102
{ACAD_XDICTIONARY
360
4FD
102
}
330
2
100
AcDbSymbolTableRecord
100
AcDbLayerTableRecord
  2
Layer1
 70
     0
 62
     7
  6
Continuous
370
    -3
390
F
  0
ENDTAB
  0
TABLE
  2
STYLE
  5
3
330
0
100
AcDbSymbolTable
 70
     5
  0
STYLE
  5
11
330
3
100
AcDbSymbolTableRecord
100
AcDbTextStyleTableRecord
  2
Standard
 70
     0
 40
0.0
 41
1.0
 50
0.0
 71
     0
 42
0.2
  3
txt
  4
bigfont
  0
STYLE
  5
4A
330
3
100
AcDbSymbolTableRecord
100
AcDbTextStyleTableRecord
  2
BIGFONT
 70
     0
 40
0.2
 41
1.0
 50
0.0
 71
     0
 42
3.5
  3
monotxt
  4
bigfont
  0
STYLE
  5
4B
330
3
100
AcDbSymbolTableRecord
100
AcDbTextStyleTableRecord
  2
BIG VER
 70
     4
 40
0.2
 41
1.0
 50
0.0
 71
     0
 42
3.5
  3
monotxt
  4
bigfont
  0
STYLE
  5
4C
330
3
100
AcDbSymbolTableRecord
100
AcDbTextStyleTableRecord
  2
EXTFONT
 70
     0
 40
0.2
 41
1.0
 50
0.0
 71
     0
 42
3.5
  3
monotxt
  4
extfont
  0
STYLE
  5
4D
330
3
100
AcDbSymbolTableRecord
100
AcDbTextStyleTableRecord
  2
EXT VER
 70
     4
 40
0.2
 41
1.0
 50
0.0
 71
     0
 42
3.5
  3
monotxt
  4
extfont
  0
ENDTAB
  0
TABLE
  2
VIEW
  5
6
330
0
100
AcDbSymbolTable
 70
     0
  0
ENDTAB
  0
TABLE
  2
UCS
  5
7
330
0
100
AcDbSymbolTable
 70
     0
  0
ENDTAB
  0
TABLE
  2
APPID
  5
9
330
0
100
AcDbSymbolTable
 70
     4
  0
APPID
  5
12
330
9
100
AcDbSymbolTableRecord
100
AcDbRegAppTableRecord
  2
ACAD
 70
     0
  0
APPID
  5
4E1
330
9
100
AcDbSymbolTableRecord
100
AcDbRegAppTableRecord
  2
ACAD_EXEMPT_FROM_CAD_STANDARDS
 70
     0
  0
APPID
  5
504
330
9
100
AcDbSymbolTableRecord
100
AcDbRegAppTableRecord
  2
ACAD_NAV_VCDISPLAY
 70
     0
  0
APPID
  5
540
330
9
100
AcDbSymbolTableRecord
100
AcDbRegAppTableRecord
  2
ACAD_MLEADERVER
 70
     0
  0
ENDTAB
  0
TABLE
  2
DIMSTYLE
  5
A
330
0
100
AcDbSymbolTable
 70
     2
100
AcDbDimStyleTable
 71
     1
340
27
  0
DIMSTYLE
105
27
330
A
100
AcDbSymbolTableRecord
100
AcDbDimStyleTableRecord
  2
Standard
 70
     0
340
11
  0
ENDTAB
  0
TABLE
  2
BLOCK_RECORD
  5
1
330
0
100
AcDbSymbolTable
 70
    19
  0
BLOCK_RECORD
  5
1F
330
1
100
AcDbSymbolTableRecord
100
AcDbBlockTableRecord
  2
*Model_Space
340
22
  0
BLOCK_RECORD
  5
1B
330
1
100
AcDbSymbolTableRecord
100
AcDbBlockTableRecord
  2
*Paper_Space
340
1E
  0
BLOCK_RECORD
  5
23
330
1
100
AcDbSymbolTableRecord
100
AcDbBlockTableRecord
  2
*Paper_Space0
340
26
  0
BLOCK_RECORD
  5
64
330
1
100
AcDbSymbolTableRecord
100
AcDbBlockTableRecord
  2
DIM_0
340
0
102
{BLKREFS
331
8F
102
}
  0
BLOCK_RECORD
  5
90
330
1
100
AcDbSymbolTableRecord
100
AcDbBlockTableRecord
  2
DIM_1
340
0
102
{BLKREFS
331
99
102
}
  0
BLOCK_RECORD
  5
9A
330
1
100
AcDbSymbolTableRecord
100
AcDbBlockTableRecord
  2
DIM_2
340
0
102
{BLKREFS
331
A3
102
}
  0
BLOCK_RECORD
  5
A4
330
1
100
AcDbSymbolTableRecord
100
AcDbBlockTableRecord
  2
DIM_3
340
0
102
{BLKREFS
331
AD
102
}
  0
BLOCK_RECORD
  5
AE
330
1
100
AcDbSymbolTableRecord
100
AcDbBlockTableRecord
  2
DIM_4
340
0
102
{BLKREFS
331
B7
102
}
  0
BLOCK_RECORD
  5
BA
330
1
100
AcDbSymbolTableRecord
100
AcDbBlockTableRecord
  2
DIM_5
340
0
102
{BLKREFS
331
C3
102
}
  0
BLOCK_RECORD
  5
C4
330
1
100
AcDbSymbolTableRecord
100
AcDbBlockTableRecord
  2
DIM_6
340
0
102
{BLKREFS
331
CC
102
}
  0
BLOCK_RECORD
  5
1A8
330
1
100
AcDbSymbolTableRecord
100
AcDbBlockTableRecord
  2
DIM_7
340
0
102
{BLKREFS
331
1B1
102
}
  0
BLOCK_RECORD
  5
1E6
330
1
100
AcDbSymbolTableRecord
100
AcDbBlockTableRecord
  2
DIM_8
340
0
102
{BLKREFS
331
1EF
102
}
  0
BLOCK_RECORD
  5
1F0
330
1
100
AcDbSymbolTableRecord
100
AcDbBlockTableRecord
  2
DIM_9
340
0
102
{BLKREFS
331
1F9
102
}
  0
BLOCK_RECORD
  5
203
330
1
100
AcDbSymbolTableRecord
100
AcDbBlockTableRecord
  2
DIM_10
340
0
102
{BLKREFS
331
20B
102
}
  0
BLOCK_RECORD
  5
212
330
1
100
AcDbSymbolTableRecord
100
AcDbBlockTableRecord
  2
DIM_11
340
0
102
{BLKREFS
331
21B
102
}
  0
BLOCK_RECORD
  5
226
330
1
100
AcDbSymbolTableRecord
100
AcDbBlockTableRecord
  2
DIM_12
340
0
102
{BLKREFS
331
22F
102
}
  0
BLOCK_RECORD
  5
247
330
1
100
AcDbSymbolTableRecord
100
AcDbBlockTableRecord
  2
DIM_13
340
0
102
{BLKREFS
331
250
102
}
  0
BLOCK_RECORD
  5
277
330
1
100
AcDbSymbolTableRecord
100
AcDbBlockTableRecord
  2
DIM_14
340
0
102
{BLKREFS
331
280
102
}
  0
BLOCK_RECORD
  5
281
330
1
100
AcDbSymbolTableRecord
100
AcDbBlockTableRecord
  2
DIM_15
340
0
102
{BLKREFS
331
28A
102
}
  0
BLOCK_RECORD
  5
47B
330
1
100
AcDbSymbolTableRecord
100
AcDbBlockTableRecord
  2
DIM_16
340
0
102
{BLKREFS
331
484
102
}
  0
ENDTAB
  0
ENDSEC
  0
SECTION
  2
BLOCKS
  0
BLOCK
  5
20
330
1F
100
AcDbEntity
  8
0
100
AcDbBlockBegin
  2
*Model_Space
 70
     0
 10
0.0
 20
0.0
 30
0.0
  3
*Model_Space
  1

  0
ENDBLK
  5
21
330
1F
100
AcDbEntity
  8
0
100
AcDbBlockEnd
  0
BLOCK
  5
1C
330
1B
100
AcDbEntity
 67
     1
  8
0
100
AcDbBlockBegin
  2
*Paper_Space
 70
     0
 10
0.0
 20
0.0
 30
0.0
  3
*Paper_Space
  1

  0
ENDBLK
  5
1D
330
1B
100
AcDbEntity
 67
     1
  8
0
100
AcDbBlockEnd
  0
BLOCK
  5
24
330
23
100
AcDbEntity
 67
     1
  8
0
100
AcDbBlockBegin
  2
*Paper_Space0
 70
     0
 10
0.0
 20
0.0
 30
0.0
  3
*Paper_Space0
  1

  0
ENDBLK
  5
25
330
23
100
AcDbEntity
 67
     1
  8
0
100
AcDbBlockEnd
  0
BLOCK
  5
65
330
64
100
AcDbEntity
  8
0
100
AcDbBlockBegin
  2
DIM_0
 70
     0
 10
2870.57344
 20
1276.162093
 30
0.0
  3
DIM_0
  1

  0
CIRCLE
  5
67
330
64
100
AcDbEntity
  8
Layer1
  6
Continuous
 62
     3
100
AcDbCircle
 10
2915.443006
 20
1276.162093
 30
0.0
 40
3.2
  0
CIRCLE
  5
68
330
64
100
AcDbEntity
  8
Layer1
  6
Continuous
 62
     3
100
AcDbCircle
 10
2915.443006
 20
688.1620929999999
 30
0.0
 40
3.2
  0
LINE
  5
69
330
64
100
AcDbEntity
  8
Layer1
  6
Continuous
 62
     3
100
AcDbLine
 10
2915.443006
 20
1276.162093
 30
0.0
 11
2915.443006
 21
688.1620929999999
 31
0.0
  0
LINE
  5
6A
330
64
100
AcDbEntity
  8
Layer1
  6
Continuous
 62
     3
100
AcDbLine
 10
2870.57344
 20
1276.162093
 30
0.0
 11
2923.443006
 21
1276.162093
 31
0.0
  0
LINE
  5
6B
330
64
100
AcDbEntity
  8
Layer1
  6
Continuous
 62
     3
100
AcDbLine
 10
2880.312571
 20
688.1620929999999
 30
0.0
 11
2923.443006
 21
688.1620929999999
 31
0.0
  0
TEXT
  5
6C
330
64
100
AcDbEntity
  8
Layer1
  6
Continuous
 62
     4
100
AcDbText
 10
2913.254832936002
 20
972.2946786666668
 30
0.0
 40
28.0
  1
１４７０
 50
90.00000300000001
 41
0.8582679999999999
  7
BIGFONT
 72
     1
 11
2913.25483
 21
1028.368188
 31
0.0
100
AcDbText
  0
ENDBLK
  5
66
330
64
100
AcDbEntity
  8
0
100
AcDbBlockEnd
  0
BLOCK
  5
91
330
90
100
AcDbEntity
  8
0
100
AcDbBlockBegin
  2
DIM_1
 70
     0
 10
2791.269093
 20
1196.162093
 30
0.0
  3
DIM_1
  1

  0
CIRCLE
  5
93
330
90
100
AcDbEntity
  8
Layer1
  6
Continuous
 62
     3
100
AcDbCircle
 10
2820.83431
 20
1196.162093
 30
0.0
 40
3.2
  0
CIRCLE
  5
94
330
90
100
AcDbEntity
  8
Layer1
  6
Continuous
 62
     3
100
AcDbCircle
 10
2820.83431
 20
768.1620929999999
 30
0.0
 40
3.2
  0
LINE
  5
95
330
90
100
AcDbEntity
  8
Layer1
  6
Continuous
 62
     3
100
AcDbLine
 10
2820.83431
 20
1196.162093
 30
0.0
 11
2820.83431
 21
768.1620929999999
 31
0.0
  0
LINE
  5
96
330
90
100
AcDbEntity
  8
Layer1
  6
Continuous
 62
     3
100
AcDbLine
 10
2791.269093
 20
1196.162093
 30
0.0
 11
2828.83431
 21
1196.162093
 31
0.0
  0
LINE
  5
97
330
90
100
AcDbEntity
  8
Layer1
  6
Continuous
 62
     3
100
AcDbLine
 10
2792.660397000001
 20
768.1620929999999
 30
0.0
 11
2828.83431
 21
768.1620929999999
 31
0.0
  0
TEXT
  5
98
330
90
100
AcDbEntity
  8
Layer1
  6
Continuous
 62
     4
100
AcDbText
 10
2818.646184936002
 20
972.2946786666668
 30
0.0
 40
28.0
  1
１０７０
 50
90.00000300000001
 41
0.8582679999999999
  7
BIGFONT
 72
     1
 11
2818.646182
 21
1028.368188
 31
0.0
100
AcDbText
  0
ENDBLK
  5
92
330
90
100
AcDbEntity
  8
0
100
AcDbBlockEnd
  0
BLOCK
  5
9B
330
9A
100
AcDbEntity
  8
0
100
AcDbBlockBegin
  2
DIM_2
 70
     0
 10
2730.051701000001
 20
1136.162093
 30
0.0
  3
DIM_2
  1

  0
CIRCLE
  5
9D
330
9A
100
AcDbEntity
  8
Layer1
  6
Continuous
 62
     3
100
AcDbCircle
 10
2754.051701
 20
1136.162093
 30
0.0
 40
3.2
  0
CIRCLE
  5
9E
330
9A
100
AcDbEntity
  8
Layer1
  6
Continuous
 62
     3
100
AcDbCircle
 10
2754.051701
 20
828.1620929999998
 30
0.0
 40
3.2
  0
LINE
  5
9F
330
9A
100
AcDbEntity
  8
Layer1
  6
Continuous
 62
     3
100
AcDbLine
 10
2754.051701
 20
1136.162093
 30
0.0
 11
2754.051701
 21
828.1620929999998
 31
0.0
  0
LINE
  5
A0
330
9A
100
AcDbEntity
  8
Layer1
  6
Continuous
 62
     3
100
AcDbLine
 10
2730.051701000001
 20
1136.162093
 30
0.0
 11
2762.051701000001
 21
1136.162093
 31
0.0
  0
LINE
  5
A1
330
9A
100
AcDbEntity
  8
Layer1
  6
Continuous
 62
     3
100
AcDbLine
 10
2730.051701000001
 20
828.1620929999998
 30
0.0
 11
2762.051701000001
 21
828.1620929999998
 31
0.0
  0
TEXT
  5
A2
330
9A
100
AcDbEntity
  8
Layer1
  6
Continuous
 62
     4
100
AcDbText
 10
2751.863712055202
 20
989.1167314666668
 30
0.0
 40
28.0
  1
７７０
 50
90.00000300000001
 41
0.8582679999999999
  7
BIGFONT
 72
     1
 11
2751.86371
 21
1028.368188
 31
0.0
100
AcDbText
  0
ENDBLK
  5
9C
330
9A
100
AcDbEntity
  8
0
100
AcDbBlockEnd
  0
BLOCK
  5
A5
330
A4
100
AcDbEntity
  8
0
100
AcDbBlockBegin
  2
DIM_3
 70
     0
 10
2470.65025
 20
805.028414
 30
0.0
  3
DIM_3
  1

  0
CIRCLE
  5
A7
330
A4
100
AcDbEntity
  8
Layer1
  6
Continuous
 62
     3
100
AcDbCircle
 10
2470.65025
 20
787.6964420000001
 30
0.0
 40
3.2
  0
CIRCLE
  5
A8
330
A4
100
AcDbEntity
  8
Layer1
  6
Continuous
 62
     3
100
AcDbCircle
 10
2650.65025
 20
787.6964420000001
 30
0.0
 40
3.2
  0
LINE
  5
A9
330
A4
100
AcDbEntity
  8
Layer1
  6
Continuous
 62
     3
100
AcDbLine
 10
2470.65025
 20
787.6964420000001
 30
0.0
 11
2650.65025
 21
787.6964420000001
 31
0.0
  0
LINE
  5
AA
330
A4
100
AcDbEntity
  8
Layer1
  6
Continuous
 62
     3
100
AcDbLine
 10
2470.65025
 20
805.028414
 30
0.0
 11
2470.65025
 21
779.6964420000001
 31
0.0
  0
LINE
  5
AB
330
A4
100
AcDbEntity
  8
Layer1
  6
Continuous
 62
     3
100
AcDbLine
 10
2650.65025
 20
806.662734
 30
0.0
 11
2650.65025
 21
779.6964420000001
 31
0.0
  0
TEXT
  5
AC
330
A4
100
AcDbEntity
  8
Layer1
  6
Continuous
 62
     4
100
AcDbText
 10
2488.801469466667
 20
790.2943959999999
 30
0.0
 40
28.0
  1
４５０
 41
0.8582679999999999
  7
BIGFONT
 72
     1
 11
2528.052926000001
 21
790.2943959999999
 31
0.0
100
AcDbText
  0
ENDBLK
  5
A6
330
A4
100
AcDbEntity
  8
0
100
AcDbBlockEnd
  0
BLOCK
  5
AF
330
AE
100
AcDbEntity
  8
0
100
AcDbBlockBegin
  2
DIM_4
 70
     0
 10
2440.65025
 20
744.558547
 30
0.0
  3
DIM_4
  1

  0
CIRCLE
  5
B1
330
AE
100
AcDbEntity
  8
Layer1
  6
Continuous
 62
     3
100
AcDbCircle
 10
2440.65025
 20
721.5064530000001
 30
0.0
 40
3.2
  0
CIRCLE
  5
B2
330
AE
100
AcDbEntity
  8
Layer1
  6
Continuous
 62
     3
100
AcDbCircle
 10
2680.65025
 20
721.5064530000001
 30
0.0
 40
3.2
  0
LINE
  5
B3
330
AE
100
AcDbEntity
  8
Layer1
  6
Continuous
 62
     3
100
AcDbLine
 10
2440.65025
 20
721.5064530000001
 30
0.0
 11
2680.65025
 21
721.5064530000001
 31
0.0
  0
LINE
  5
B4
330
AE
100
AcDbEntity
  8
Layer1
  6
Continuous
 62
     3
100
AcDbLine
 10
2440.65025
 20
744.558547
 30
0.0
 11
2440.65025
 21
713.5064530000001
 31
0.0
  0
LINE
  5
B5
330
AE
100
AcDbEntity
  8
Layer1
  6
Continuous
 62
     3
100
AcDbLine
 10
2680.65025
 20
745.375707
 30
0.0
 11
2680.65025
 21
713.5064530000001
 31
0.0
  0
TEXT
  5
B6
330
AE
100
AcDbEntity
  8
Layer1
  6
Continuous
 62
     4
100
AcDbText
 10
2488.801469466667
 20
724.1043959999999
 30
0.0
 40
28.0
  1
６００
 41
0.8582679999999999
  7
BIGFONT
 72
     1
 11
2528.052926000001
 21
724.1043959999999
 31
0.0
100
AcDbText
  0
ENDBLK
  5
B0
330
AE
100
AcDbEntity
  8
0
100
AcDbBlockEnd
  0
BLOCK
  5
BB
330
BA
100
AcDbEntity
  8
0
100
AcDbBlockBegin
  2
DIM_5
 70
     0
 10
2320.65025
 20
663.65967
 30
0.0
  3
DIM_5
  1

  0
CIRCLE
  5
BD
330
BA
100
AcDbEntity
  8
Layer1
  6
Continuous
 62
     3
100
AcDbCircle
 10
2320.65025
 20
634.0702929999999
 30
0.0
 40
3.2
  0
CIRCLE
  5
BE
330
BA
100
AcDbEntity
  8
Layer1
  6
Continuous
 62
     3
100
AcDbCircle
 10
2560.65025
 20
634.0702929999999
 30
0.0
 40
3.2
  0
LINE
  5
BF
330
BA
100
AcDbEntity
  8
Layer1
  6
Continuous
 62
     3
100
AcDbLine
 10
2320.65025
 20
634.0702929999999
 30
0.0
 11
2560.65025
 21
634.0702929999999
 31
0.0
  0
LINE
  5
C0
330
BA
100
AcDbEntity
  8
Layer1
  6
Continuous
 62
     3
100
AcDbLine
 10
2320.65025
 20
663.65967
 30
0.0
 11
2320.65025
 21
626.0702929999999
 31
0.0
  0
LINE
  5
C1
330
BA
100
AcDbEntity
  8
Layer1
  6
Continuous
 62
     3
100
AcDbLine
 10
2560.65025
 20
651.4022650000001
 30
0.0
 11
2560.65025
 21
626.0702929999999
 31
0.0
  0
TEXT
  5
C2
330
BA
100
AcDbEntity
  8
Layer1
  6
Continuous
 62
     4
100
AcDbText
 10
2401.398637466666
 20
638.0703079999999
 30
0.0
 40
28.0
  1
６００
 41
0.8582679999999999
  7
BIGFONT
 72
     1
 11
2440.650094
 21
638.0703079999999
 31
0.0
100
AcDbText
  0
ENDBLK
  5
BC
330
BA
100
AcDbEntity
  8
0
100
AcDbBlockEnd
  0
BLOCK
  5
C5
330
C4
100
AcDbEntity
  8
0
100
AcDbBlockBegin
  2
DIM_6
 70
     0
 10
2560.65025
 20
651.4022650000001
 30
0.0
  3
DIM_6
  1

  0
CIRCLE
  5
C7
330
C4
100
AcDbEntity
  8
Layer1
  6
Continuous
 62
     3
100
AcDbCircle
 10
2560.65025
 20
634.0702929999999
 30
0.0
 40
3.2
  0
CIRCLE
  5
C8
330
C4
100
AcDbEntity
  8
Layer1
  6
Continuous
 62
     3
100
AcDbCircle
 10
2800.65025
 20
634.0702929999999
 30
0.0
 40
3.2
  0
LINE
  5
C9
330
C4
100
AcDbEntity
  8
Layer1
  6
Continuous
 62
     3
100
AcDbLine
 10
2560.65025
 20
634.0702929999999
 30
0.0
 11
2800.65025
 21
634.0702929999999
 31
0.0
  0
LINE
  5
CA
330
C4
100
AcDbEntity
  8
Layer1
  6
Continuous
 62
     3
100
AcDbLine
 10
2800.65025
 20
664.4768299999999
 30
0.0
 11
2800.65025
 21
626.0702929999999
 31
0.0
  0
TEXT
  5
CB
330
C4
100
AcDbEntity
  8
Layer1
  6
Continuous
 62
     4
100
AcDbText
 10
2641.398637466667
 20
638.0703079999999
 30
0.0
 40
28.0
  1
６００
 41
0.8582679999999999
  7
BIGFONT
 72
     1
 11
2680.650094000001
 21
638.0703079999999
 31
0.0
100
AcDbText
  0
ENDBLK
  5
C6
330
C4
100
AcDbEntity
  8
0
100
AcDbBlockEnd
  0
BLOCK
  5
1A9
330
1A8
100
AcDbEntity
  8
0
100
AcDbBlockBegin
  2
DIM_7
 70
     0
 10
741.987058
 20
1111.116496
 30
0.0
  3
DIM_7
  1

  0
CIRCLE
  5
1AB
330
1A8
100
AcDbEntity
  8
Layer1
  6
Continuous
 62
     3
100
AcDbCircle
 10
741.987058
 20
752.642462
 30
0.0
 40
2.399999999999999
  0
CIRCLE
  5
1AC
330
1A8
100
AcDbEntity
  8
Layer1
  6
Continuous
 62
     3
100
AcDbCircle
 10
1541.987058
 20
752.642462
 30
0.0
 40
2.399999999999999
  0
LINE
  5
1AD
330
1A8
100
AcDbEntity
  8
Layer1
  6
Continuous
 62
     3
100
AcDbLine
 10
741.987058
 20
752.642462
 30
0.0
 11
1541.987058
 21
752.642462
 31
0.0
  0
LINE
  5
1AE
330
1A8
100
AcDbEntity
  8
Layer1
  6
Continuous
 62
     3
100
AcDbLine
 10
741.987058
 20
1111.116496
 30
0.0
 11
741.987058
 21
742.642462
 31
0.0
  0
LINE
  5
1AF
330
1A8
100
AcDbEntity
  8
Layer1
  6
Continuous
 62
     3
100
AcDbLine
 10
1541.987058
 20
1018.379743
 30
0.0
 11
1541.987058
 21
742.642462
 31
0.0
  0
TEXT
  5
1B0
330
1A8
100
AcDbEntity
  8
Layer1
  6
Continuous
 62
     4
100
AcDbText
 10
1067.138977333333
 20
762.6424759999999
 30
0.0
 40
28.0
  1
Ｓ   内径寸法
 41
0.6973430000000001
  7
BIGFONT
 72
     1
 11
1141.987126
 21
762.6424759999999
 31
0.0
100
AcDbText
  0
ENDBLK
  5
1AA
330
1A8
100
AcDbEntity
  8
0
100
AcDbBlockEnd
  0
BLOCK
  5
1E7
330
1E6
100
AcDbEntity
  8
0
100
AcDbBlockBegin
  2
DIM_8
 70
     0
 10
541.987058
 20
1035.197797
 30
0.0
  3
DIM_8
  1

  0
CIRCLE
  5
1E9
330
1E6
100
AcDbEntity
  8
Layer1
  6
Continuous
 62
     3
100
AcDbCircle
 10
541.987058
 20
979.0213259999999
 30
0.0
 40
3.2
  0
CIRCLE
  5
1EA
330
1E6
100
AcDbEntity
  8
Layer1
  6
Continuous
 62
     3
100
AcDbCircle
 10
556.987058
 20
979.0213259999999
 30
0.0
 40
3.2
  0
LINE
  5
1EB
330
1E6
100
AcDbEntity
  8
Layer1
  6
Continuous
 62
     3
100
AcDbLine
 10
541.987058
 20
979.0213259999999
 30
0.0
 11
556.987058
 21
979.0213259999999
 31
0.0
  0
LINE
  5
1EC
330
1E6
100
AcDbEntity
  8
Layer1
  6
Continuous
 62
     3
100
AcDbLine
 10
541.987058
 20
1035.197797
 30
0.0
 11
541.987058
 21
969.021326
 31
0.0
  0
LINE
  5
1ED
330
1E6
100
AcDbEntity
  8
Layer1
  6
Continuous
 62
     3
100
AcDbLine
 10
556.987058
 20
988.102209
 30
0.0
 11
556.987058
 21
989.0213259999999
 31
0.0
  0
TEXT
  5
1EE
330
1E6
100
AcDbEntity
  8
Layer1
  6
Continuous
 62
     4
100
AcDbText
 10
487.4429553333333
 20
964.7198119999998
 30
0.0
 40
28.0
  1
１５
 41
0.8582679999999999
  7
BIGFONT
 72
     1
 11
515.4797099999999
 21
964.7198119999998
 31
0.0
100
AcDbText
  0
ENDBLK
  5
1E8
330
1E6
100
AcDbEntity
  8
0
100
AcDbBlockEnd
  0
BLOCK
  5
1F1
330
1F0
100
AcDbEntity
  8
0
100
AcDbBlockBegin
  2
DIM_9
 70
     0
 10
691.987058
 20
849.9870339999999
 30
0.0
  3
DIM_9
  1

  0
CIRCLE
  5
1F3
330
1F0
100
AcDbEntity
  8
Layer1
  6
Continuous
 62
     3
100
AcDbCircle
 10
691.987058
 20
855.7472539999999
 30
0.0
 40
3.2
  0
CIRCLE
  5
1F4
330
1F0
100
AcDbEntity
  8
Layer1
  6
Continuous
 62
     3
100
AcDbCircle
 10
731.987058
 20
855.7472539999999
 30
0.0
 40
3.2
  0
LINE
  5
1F5
330
1F0
100
AcDbEntity
  8
Layer1
  6
Continuous
 62
     3
100
AcDbLine
 10
691.987058
 20
855.7472539999999
 30
0.0
 11
731.987058
 21
855.7472539999999
 31
0.0
  0
LINE
  5
1F6
330
1F0
100
AcDbEntity
  8
Layer1
  6
Continuous
 62
     3
100
AcDbLine
 10
691.987058
 20
849.9870339999999
 30
0.0
 11
691.987058
 21
845.7472539999999
 31
0.0
  0
LINE
  5
1F7
330
1F0
100
AcDbEntity
  8
Layer1
  6
Continuous
 62
     3
100
AcDbLine
 10
731.987058
 20
848.5737740000001
 30
0.0
 11
731.987058
 21
845.7472539999999
 31
0.0
  0
TEXT
  5
1F8
330
1F0
100
AcDbEntity
  8
Layer1
  6
Continuous
 62
     4
100
AcDbText
 10
639.7893958666665
 20
846.00442
 30
0.0
 40
28.0
  1
４０
 41
0.8582679999999999
  7
BIGFONT
 72
     1
 11
664.6219499999999
 21
846.00442
 31
0.0
100
AcDbText
  0
ENDBLK
  5
1F2
330
1F0
100
AcDbEntity
  8
0
100
AcDbBlockEnd
  0
BLOCK
  5
204
330
203
100
AcDbEntity
  8
0
100
AcDbBlockBegin
  2
DIM_10
 70
     0
 10
582.6803289999999
 20
1451.424497
 30
0.0
  3
DIM_10
  1

  0
CIRCLE
  5
206
330
203
100
AcDbEntity
  8
Layer1
  6
Continuous
 62
     3
100
AcDbCircle
 10
550.35719
 20
1451.424497
 30
0.0
 40
3.2
  0
CIRCLE
  5
207
330
203
100
AcDbEntity
  8
Layer1
  6
Continuous
 62
     3
100
AcDbCircle
 10
550.35719
 20
1701.424497
 30
0.0
 40
3.2
  0
LINE
  5
208
330
203
100
AcDbEntity
  8
Layer1
  6
Continuous
 62
     3
100
AcDbLine
 10
550.35719
 20
1451.424497
 30
0.0
 11
550.35719
 21
1701.424497
 31
0.0
  0
LINE
  5
209
330
203
100
AcDbEntity
  8
Layer1
  6
Continuous
 62
     3
100
AcDbLine
 10
1099.926485
 20
1701.424497
 30
0.0
 11
540.3571900000001
 21
1701.424497
 31
0.0
  0
TEXT
  5
20A
330
203
100
AcDbEntity
  8
Layer1
  6
Continuous
 62
     4
100
AcDbText
 10
550.8445865872005
 20
1574.070804866371
 30
0.0
 40
28.0
  1
Ｈ
 50
90.00000300000001
 41
0.8582679999999999
  7
BIGFONT
 72
     1
 11
536.844586
 21
1585.285506
 31
0.0
100
AcDbText
 73
     2
  0
ENDBLK
  5
205
330
203
100
AcDbEntity
  8
0
100
AcDbBlockEnd
  0
BLOCK
  5
213
330
212
100
AcDbEntity
  8
0
100
AcDbBlockBegin
  2
DIM_11
 70
     0
 10
691.987058
 20
750.612348
 30
0.0
  3
DIM_11
  1

  0
CIRCLE
  5
215
330
212
100
AcDbEntity
  8
Layer1
  6
Continuous
 62
     3
100
AcDbCircle
 10
691.987058
 20
661.142198
 30
0.0
 40
3.2
  0
CIRCLE
  5
216
330
212
100
AcDbEntity
  8
Layer1
  6
Continuous
 62
     3
100
AcDbCircle
 10
1591.987058
 20
661.142198
 30
0.0
 40
3.2
  0
LINE
  5
217
330
212
100
AcDbEntity
  8
Layer1
  6
Continuous
 62
     3
100
AcDbLine
 10
691.987058
 20
661.142198
 30
0.0
 11
1591.987058
 21
661.142198
 31
0.0
  0
LINE
  5
218
330
212
100
AcDbEntity
  8
Layer1
  6
Continuous
 62
     3
100
AcDbLine
 10
691.987058
 20
750.612348
 30
0.0
 11
691.987058
 21
651.142198
 31
0.0
  0
LINE
  5
219
330
212
100
AcDbEntity
  8
Layer1
  6
Continuous
 62
     3
100
AcDbLine
 10
1591.987058
 20
750.612348
 30
0.0
 11
1591.987058
 21
651.142198
 31
0.0
  0
TEXT
  5
21A
330
212
100
AcDbEntity
  8
Layer1
  6
Continuous
 62
     4
100
AcDbText
 10
1041.855859333333
 20
671.142236
 30
0.0
 40
28.0
  1
Ｊ　　躯体寸法
 41
0.8582679999999999
  7
BIGFONT
 72
     1
 11
1141.987126
 21
671.142236
 31
0.0
100
AcDbText
  0
ENDBLK
  5
214
330
212
100
AcDbEntity
  8
0
100
AcDbBlockEnd
  0
BLOCK
  5
227
330
226
100
AcDbEntity
  8
0
100
AcDbBlockBegin
  2
DIM_12
 70
     0
 10
1591.987058
 20
1517.82725
 30
0.0
  3
DIM_12
  1

  0
CIRCLE
  5
229
330
226
100
AcDbEntity
  8
Layer1
  6
Continuous
 62
     3
100
AcDbCircle
 10
1591.987058
 20
1985.832864
 30
0.0
 40
4.0
  0
CIRCLE
  5
22A
330
226
100
AcDbEntity
  8
Layer1
  6
Continuous
 62
     3
100
AcDbCircle
 10
691.987058
 20
1985.832864
 30
0.0
 40
4.0
  0
LINE
  5
22B
330
226
100
AcDbEntity
  8
Layer1
  6
Continuous
 62
     3
100
AcDbLine
 10
1591.987058
 20
1985.832864
 30
0.0
 11
691.987058
 21
1985.832864
 31
0.0
  0
LINE
  5
22C
330
226
100
AcDbEntity
  8
Layer1
  6
Continuous
 62
     3
100
AcDbLine
 10
1591.987058
 20
1517.82725
 30
0.0
 11
1591.987058
 21
1995.832864
 31
0.0
  0
LINE
  5
22D
330
226
100
AcDbEntity
  8
Layer1
  6
Continuous
 62
     3
100
AcDbLine
 10
691.987058
 20
1471.053332
 30
0.0
 11
691.987058
 21
1995.832864
 31
0.0
  0
TEXT
  5
22E
330
226
100
AcDbEntity
  8
Layer1
  6
Continuous
 62
     4
100
AcDbText
 10
1055.1075108
 20
1986.060015
 30
0.0
 40
28.0
  1
Ａ ドーム寸法
 41
0.796963
  7
BIGFONT
 72
     1
 11
1139.904374
 21
2000.060015
 31
0.0
100
AcDbText
 73
     2
  0
ENDBLK
  5
228
330
226
100
AcDbEntity
  8
0
100
AcDbBlockEnd
  0
BLOCK
  5
248
330
247
100
AcDbEntity
  8
0
100
AcDbBlockBegin
  2
DIM_13
 70
     0
 10
1726.987058
 20
1077.623589
 30
0.0
  3
DIM_13
  1

  0
CIRCLE
  5
24A
330
247
100
AcDbEntity
  8
Layer1
  6
Continuous
 62
     3
100
AcDbCircle
 10
1726.987058
 20
566.9987579999999
 30
0.0
 40
4.0
  0
CIRCLE
  5
24B
330
247
100
AcDbEntity
  8
Layer1
  6
Continuous
 62
     3
100
AcDbCircle
 10
556.987058
 20
566.9987579999999
 30
0.0
 40
4.0
  0
LINE
  5
24C
330
247
100
AcDbEntity
  8
Layer1
  6
Continuous
 62
     3
100
AcDbLine
 10
1726.987058
 20
566.9987579999999
 30
0.0
 11
556.987058
 21
566.9987579999999
 31
0.0
  0
LINE
  5
24D
330
247
100
AcDbEntity
  8
Layer1
  6
Continuous
 62
     3
100
AcDbLine
 10
1726.987058
 20
1077.623589
 30
0.0
 11
1726.987058
 21
561.7387579999999
 31
0.0
  0
LINE
  5
24E
330
247
100
AcDbEntity
  8
Layer1
  6
Continuous
 62
     3
100
AcDbLine
 10
556.987058
 20
1034.185509
 30
0.0
 11
556.987058
 21
556.9987579999999
 31
0.0
  0
TEXT
  5
24F
330
247
100
AcDbEntity
  8
Layer1
  6
Continuous
 62
     4
100
AcDbText
 10
1056.4750812
 20
576.9988039999999
 30
0.0
 40
28.0
  1
Ｗ  ベース外径
 41
0.750984
  7
BIGFONT
 72
     1
 11
1141.987126
 21
576.9988039999999
 31
0.0
100
AcDbText
  0
ENDBLK
  5
249
330
247
100
AcDbEntity
  8
0
100
AcDbBlockEnd
  0
BLOCK
  5
278
330
277
100
AcDbEntity
  8
0
100
AcDbBlockBegin
  2
DIM_14
 70
     0
 10
638.8310579999999
 20
1439.850097
 30
0.0
  3
DIM_14
  1

  0
CIRCLE
  5
27A
330
277
100
AcDbEntity
  8
Layer1
  6
Continuous
 62
     3
100
AcDbCircle
 10
436.2609769999999
 20
1439.850097
 30
0.0
 40
4.0
  0
CIRCLE
  5
27B
330
277
100
AcDbEntity
  8
Layer1
  6
Continuous
 62
     3
100
AcDbCircle
 10
436.2609769999999
 20
1127.850097
 30
0.0
 40
4.0
  0
LINE
  5
27C
330
277
100
AcDbEntity
  8
Layer1
  6
Continuous
 62
     3
100
AcDbLine
 10
436.2609769999999
 20
1439.850097
 30
0.0
 11
436.2609769999999
 21
1127.850097
 31
0.0
  0
LINE
  5
27D
330
277
100
AcDbEntity
  8
Layer1
  6
Continuous
 62
     3
100
AcDbLine
 10
638.8310579999999
 20
1439.850097
 30
0.0
 11
428.2609769999999
 21
1439.850097
 31
0.0
  0
LINE
  5
27E
330
277
100
AcDbEntity
  8
Layer1
  6
Continuous
 62
     3
100
AcDbLine
 10
533.2971429999999
 20
1127.850097
 30
0.0
 11
428.2609769999999
 21
1127.850097
 31
0.0
  0
TEXT
  5
27F
330
277
100
AcDbEntity
  8
Layer1
  6
Continuous
 62
     4
100
AcDbText
 10
435.4317360971443
 20
1332.408869066372
 30
0.0
 40
28.0
  1
３１２
 50
90.00000300000001
 41
0.8582679999999999
  7
BIGFONT
 72
     1
 11
421.431734
 21
1372.461375
 31
0.0
100
AcDbText
 73
     2
  0
ENDBLK
  5
279
330
277
100
AcDbEntity
  8
0
100
AcDbBlockEnd
  0
BLOCK
  5
282
330
281
100
AcDbEntity
  8
0
100
AcDbBlockBegin
  2
DIM_15
 70
     0
 10
443.5048309999999
 20
1127.850097
 30
0.0
  3
DIM_15
  1

  0
CIRCLE
  5
284
330
281
100
AcDbEntity
  8
Layer1
  6
Continuous
 62
     3
100
AcDbCircle
 10
436.2609769999999
 20
1127.850097
 30
0.0
 40
4.0
  0
CIRCLE
  5
285
330
281
100
AcDbEntity
  8
Layer1
  6
Continuous
 62
     3
100
AcDbCircle
 10
436.2609769999999
 20
1072.850097
 30
0.0
 40
4.0
  0
LINE
  5
286
330
281
100
AcDbEntity
  8
Layer1
  6
Continuous
 62
     3
100
AcDbLine
 10
436.2609769999999
 20
1127.850097
 30
0.0
 11
436.2609769999999
 21
1072.850097
 31
0.0
  0
LINE
  5
287
330
281
100
AcDbEntity
  8
Layer1
  6
Continuous
 62
     3
100
AcDbLine
 10
443.5048309999999
 20
1127.850097
 30
0.0
 11
426.260977
 21
1127.850097
 31
0.0
  0
LINE
  5
288
330
281
100
AcDbEntity
  8
Layer1
  6
Continuous
 62
     3
100
AcDbLine
 10
526.380611
 20
1072.850097
 30
0.0
 11
426.260977
 21
1072.850097
 31
0.0
  0
TEXT
  5
289
330
281
100
AcDbEntity
  8
Layer1
  6
Continuous
 62
     4
100
AcDbText
 10
429.7349273841152
 20
1073.9153416
 30
0.0
 40
28.0
  1
５５
 50
90.00000300000001
 41
0.8582679999999999
  7
BIGFONT
 72
     1
 11
429.7349259999999
 21
1100.349996
 31
0.0
100
AcDbText
  0
ENDBLK
  5
283
330
281
100
AcDbEntity
  8
0
100
AcDbBlockEnd
  0
BLOCK
  5
47C
330
47B
100
AcDbEntity
  8
0
100
AcDbBlockBegin
  2
DIM_16
 70
     0
 10
1655.503472
 20
1451.424497
 30
0.0
  3
DIM_16
  1

  0
CIRCLE
  5
47E
330
47B
100
AcDbEntity
  8
Layer1
  6
Continuous
 62
     3
100
AcDbCircle
 10
1706.740957
 20
1451.424497
 30
0.0
 40
4.0
  0
CIRCLE
  5
47F
330
47B
100
AcDbEntity
  8
Layer1
  6
Continuous
 62
     3
100
AcDbCircle
 10
1706.740957
 20
1901.424497
 30
0.0
 40
4.0
  0
LINE
  5
480
330
47B
100
AcDbEntity
  8
Layer1
  6
Continuous
 62
     3
100
AcDbLine
 10
1706.740957
 20
1451.424497
 30
0.0
 11
1706.740957
 21
1901.424497
 31
0.0
  0
LINE
  5
481
330
47B
100
AcDbEntity
  8
Layer1
  6
Continuous
 62
     3
100
AcDbLine
 10
1655.503472
 20
1451.424497
 30
0.0
 11
1714.740957
 21
1451.424497
 31
0.0
  0
LINE
  5
482
330
47B
100
AcDbEntity
  8
Layer1
  6
Continuous
 62
     3
100
AcDbLine
 10
1164.003151
 20
1901.424497
 30
0.0
 11
1714.740957
 21
1901.424497
 31
0.0
  0
TEXT
  5
483
330
47B
100
AcDbEntity
  8
Layer1
  6
Continuous
 62
     4
100
AcDbText
 10
1702.740957
 20
1665.209795133333
 30
0.0
 40
28.0
  1
Ｈ
 50
90.0
 41
0.8582679999999999
  7
BIGFONT
 72
     1
 11
1702.740957
 21
1676.424497
 31
0.0
100
AcDbText
  0
ENDBLK
  5
47D
330
47B
100
AcDbEntity
  8
0
100
AcDbBlockEnd
  0
ENDSEC
  0
SECTION
  2
ENTITIES
  0
LINE
  5
4F
330
1F
100
AcDbEntity
  8
Layer1
  6
Continuous
 62
     3
100
AcDbLine
 10
1087.917777
 20
477.246663
 30
0.0
 11
1186.373301
 21
477.246663
 31
0.0
  0
LINE
  5
50
330
1F
100
AcDbEntity
  8
Layer1
  6
Continuous
 62
     3
100
AcDbLine
 10
1186.373301
 20
477.246663
 30
0.0
 11
1186.373301
 21
428.85492
 31
0.0
  0
LINE
  5
51
330
1F
100
AcDbEntity
  8
Layer1
  6
Continuous
 62
     3
100
AcDbLine
 10
1087.917777
 20
428.85492
 30
0.0
 11
1087.917777
 21
477.246663
 31
0.0
  0
LINE
  5
52
330
1F
100
AcDbEntity
  8
Layer1
  6
Continuous
 62
     3
100
AcDbLine
 10
2406.65025
 20
1136.162093
 30
0.0
 11
2714.65025
 21
1136.162093
 31
0.0
  0
LINE
  5
53
330
1F
100
AcDbEntity
  8
Layer1
  6
Continuous
 62
     3
100
AcDbLine
 10
2714.65025
 20
1136.162093
 30
0.0
 11
2714.65025
 21
828.1620929999998
 31
0.0
  0
LINE
  5
54
330
1F
100
AcDbEntity
  8
Layer1
  6
Continuous
 62
     3
100
AcDbLine
 10
2714.65025
 20
828.1620929999998
 30
0.0
 11
2406.65025
 21
828.1620929999998
 31
0.0
  0
LINE
  5
55
330
1F
100
AcDbEntity
  8
Layer1
  6
Continuous
 62
     3
100
AcDbLine
 10
2406.65025
 20
828.1620929999998
 30
0.0
 11
2406.65025
 21
1136.162093
 31
0.0
  0
LINE
  5
56
330
1F
100
AcDbEntity
  8
Layer1
  6
PLine2
 62
     3
100
AcDbLine
 10
2560.65025
 20
628.915045
 30
0.0
 11
2560.65025
 21
1320.669802
 31
0.0
  0
LINE
  5
57
330
1F
100
AcDbEntity
  8
Layer1
  6
PLine2
 62
     3
100
AcDbLine
 10
2923.869876
 20
982.1620929999999
 30
0.0
 11
2206.74514
 21
982.1620929999999
 31
0.0
  0
LINE
  5
58
330
1F
100
AcDbEntity
  8
Layer1
  6
Continuous
 62
     3
100
AcDbLine
 10
2346.65025
 20
1196.162093
 30
0.0
 11
2774.65025
 21
1196.162093
 31
0.0
  0
LINE
  5
59
330
1F
100
AcDbEntity
  8
Layer1
  6
Continuous
 62
     3
100
AcDbLine
 10
2774.65025
 20
1196.162093
 30
0.0
 11
2774.65025
 21
768.1620929999999
 31
0.0
  0
LINE
  5
5A
330
1F
100
AcDbEntity
  8
Layer1
  6
Continuous
 62
     3
100
AcDbLine
 10
2774.65025
 20
768.1620929999999
 30
0.0
 11
2346.65025
 21
768.1620929999999
 31
0.0
  0
LINE
  5
5B
330
1F
100
AcDbEntity
  8
Layer1
  6
Continuous
 62
     3
100
AcDbLine
 10
2346.65025
 20
768.1620929999999
 30
0.0
 11
2346.65025
 21
1196.162093
 31
0.0
  0
LINE
  5
5C
330
1F
100
AcDbEntity
  8
Layer1
  6
Continuous
 62
     3
100
AcDbLine
 10
2266.65025
 20
1276.162093
 30
0.0
 11
2854.65025
 21
1276.162093
 31
0.0
  0
LINE
  5
5D
330
1F
100
AcDbEntity
  8
Layer1
  6
Continuous
 62
     3
100
AcDbLine
 10
2854.65025
 20
1276.162093
 30
0.0
 11
2854.65025
 21
688.1620929999999
 31
0.0
  0
LINE
  5
5E
330
1F
100
AcDbEntity
  8
Layer1
  6
Continuous
 62
     3
100
AcDbLine
 10
2854.65025
 20
688.1620929999999
 30
0.0
 11
2266.65025
 21
688.1620929999999
 31
0.0
  0
LINE
  5
5F
330
1F
100
AcDbEntity
  8
Layer1
  6
Continuous
 62
     3
100
AcDbLine
 10
2266.65025
 20
688.1620929999999
 30
0.0
 11
2266.65025
 21
1276.162093
 31
0.0
  0
LINE
  5
60
330
1F
100
AcDbEntity
  8
Layer1
  6
Continuous
 62
     3
100
AcDbLine
 10
2469.65025
 20
1144.162093
 30
0.0
 11
2471.65025
 21
1144.162093
 31
0.0
  0
LINE
  5
61
330
1F
100
AcDbEntity
  8
Layer1
  6
Continuous
 62
     3
100
AcDbLine
 10
2471.65025
 20
1144.162093
 30
0.0
 11
2471.65025
 21
1124.162093
 31
0.0
  0
LINE
  5
62
330
1F
100
AcDbEntity
  8
Layer1
  6
Continuous
 62
     3
100
AcDbLine
 10
2471.65025
 20
1124.162093
 30
0.0
 11
2469.65025
 21
1124.162093
 31
0.0
  0
LINE
  5
63
330
1F
100
AcDbEntity
  8
Layer1
  6
Continuous
 62
     3
100
AcDbLine
 10
2469.65025
 20
1124.162093
 30
0.0
 11
2469.65025
 21
1144.162093
 31
0.0
  0
INSERT
  5
8F
330
1F
100
AcDbEntity
  8
Layer1
  6
Continuous
 62
     3
100
AcDbBlockReference
  2
DIM_0
 10
2870.57344
 20
1276.162093
 30
0.0
  0
INSERT
  5
99
330
1F
100
AcDbEntity
  8
Layer1
  6
Continuous
 62
     3
100
AcDbBlockReference
  2
DIM_1
 10
2791.269093
 20
1196.162093
 30
0.0
  0
INSERT
  5
A3
330
1F
100
AcDbEntity
  8
Layer1
  6
Continuous
 62
     3
100
AcDbBlockReference
  2
DIM_2
 10
2730.051701000001
 20
1136.162093
 30
0.0
  0
INSERT
  5
AD
330
1F
100
AcDbEntity
  8
Layer1
  6
Continuous
 62
     3
100
AcDbBlockReference
  2
DIM_3
 10
2470.65025
 20
805.028414
 30
0.0
  0
INSERT
  5
B7
330
1F
100
AcDbEntity
  8
Layer1
  6
Continuous
 62
     3
100
AcDbBlockReference
  2
DIM_4
 10
2440.65025
 20
744.558547
 30
0.0
  0
TEXT
  5
B8
330
1F
100
AcDbEntity
  8
Layer1
  6
Continuous
 62
     3
100
AcDbText
 10
150.558942
 20
141.189284
 30
0.0
 40
16.0
  1
Ｓ １：８
 41
0.7724409999999999
  7
BIGFONT
100
AcDbText
  0
LINE
  5
B9
330
1F
100
AcDbEntity
  8
Layer1
  6
Continuous
 62
     3
100
AcDbLine
 10
1186.373301
 20
428.85492
 30
0.0
 11
1087.917777
 21
428.85492
 31
0.0
  0
INSERT
  5
C3
330
1F
100
AcDbEntity
  8
Layer1
  6
Continuous
 62
     3
100
AcDbBlockReference
  2
DIM_5
 10
2320.65025
 20
663.65967
 30
0.0
  0
INSERT
  5
CC
330
1F
100
AcDbEntity
  8
Layer1
  6
Continuous
 62
     3
100
AcDbBlockReference
  2
DIM_6
 10
2560.65025
 20
651.4022650000001
 30
0.0
  0
TEXT
  5
CD
330
1F
100
AcDbEntity
  8
Layer1
  6
Continuous
 62
     2
100
AcDbText
 10
1097.320254
 20
438.6231
 30
0.0
 40
32.0
  1
正面図
 41
0.8582679999999999
  7
BIGFONT
100
AcDbText
  0
LINE
  5
CE
330
1F
100
AcDbEntity
  8
Layer1
  6
Continuous
 62
     2
100
AcDbLine
 10
2833.657841
 20
2146.081146
 30
0.0
 11
2833.657841
 21
1921.654479
 31
0.0
  0
TEXT
  5
CF
330
1F
100
AcDbEntity
  8
Layer1
  6
Continuous
 62
     3
100
AcDbText
 10
2577.986203
 20
1935.797572
 30
0.0
 40
28.0
  1
１２００
 41
0.8582679999999999
  7
BIGFONT
100
AcDbText
  0
TEXT
  5
D0
330
1F
100
AcDbEntity
  8
Layer1
  6
Continuous
 62
     3
100
AcDbText
 10
2600.748171000001
 20
2046.460292
 30
0.0
 40
28.0
  1
５００
 41
0.8582679999999999
  7
BIGFONT
100
AcDbText
  0
TEXT
  5
D1
330
1F
100
AcDbEntity
  8
Layer1
  6
Continuous
 62
     3
100
AcDbText
 10
2576.984251000001
 20
1991.999348
 30
0.0
 40
28.0
  1
　８００
 41
0.8582679999999999
  7
BIGFONT
100
AcDbText
  0
LINE
  5
D2
330
1F
100
AcDbEntity
  8
Layer1
  6
Continuous
 62
     2
100
AcDbLine
 10
3140.930101
 20
1921.654479
 30
0.0
 11
2051.160548
 21
1921.654479
 31
0.0
  0
LINE
  5
D3
330
1F
100
AcDbEntity
  8
Layer1
  6
Continuous
 62
     2
100
AcDbLine
 10
3140.930101
 20
2146.081146
 30
0.0
 11
2051.160548
 21
2146.081146
 31
0.0
  0
TEXT
  5
D4
330
1F
100
AcDbEntity
  8
Layer1
  6
Continuous
 62
     2
100
AcDbText
 10
2059.17342
 20
2158.3472
 30
0.0
 40
32.0
  1
ＬＭＧ－ＡＬ型（角型）寸法表
 41
0.8582679999999999
  7
BIGFONT
100
AcDbText
  0
TEXT
  5
D5
330
1F
100
AcDbEntity
  8
Layer1
  6
Continuous
 62
     2
100
AcDbText
 10
2064.674718
 20
1933.72518
 30
0.0
 40
28.0
  1
ＬＭＧ－１３００ＡＬ
 41
0.8582679999999999
  7
BIGFONT
100
AcDbText
  0
TEXT
  5
D6
330
1F
100
AcDbEntity
  8
Layer1
  6
Continuous
 62
     2
100
AcDbText
 10
2068.906774
 20
2044.999228
 30
0.0
 40
28.0
  1
ＬＭＧ－６００ＡＬ
 41
0.8582679999999999
  7
BIGFONT
100
AcDbText
  0
TEXT
  5
D7
330
1F
100
AcDbEntity
  8
Layer1
  6
Continuous
 62
     2
100
AcDbText
 10
2066.252478
 20
1989.9211
 30
0.0
 40
28.0
  1
ＬＭＧ－９００ＡＬ
 41
0.8582679999999999
  7
BIGFONT
100
AcDbText
  0
TEXT
  5
D8
330
1F
100
AcDbEntity
  8
Layer1
  6
Continuous
 62
     2
100
AcDbText
 10
2172.239777
 20
2102.032692
 30
0.0
 40
29.456
  1
型
 41
0.8582679999999999
  7
BIGFONT
100
AcDbText
  0
LINE
  5
D9
330
1F
100
AcDbEntity
  8
Layer1
  6
Continuous
 62
     2
100
AcDbLine
 10
2412.857841
 20
2146.081146
 30
0.0
 11
2412.857841
 21
1921.654479
 31
0.0
  0
LINE
  5
DA
330
1F
100
AcDbEntity
  8
Layer1
  6
Continuous
 62
     2
100
AcDbLine
 10
2973.924507999999
 20
2146.081146
 30
0.0
 11
2973.924507999999
 21
1921.654479
 31
0.0
  0
LINE
  5
DB
330
1F
100
AcDbEntity
  8
Layer1
  6
Continuous
 62
     2
100
AcDbLine
 10
2693.391174
 20
2146.081146
 30
0.0
 11
2693.391174
 21
1921.654479
 31
0.0
  0
LINE
  5
DC
330
1F
100
AcDbEntity
  8
Layer1
  6
Continuous
 62
     2
100
AcDbLine
 10
2553.124508
 20
2146.081146
 30
0.0
 11
2553.124508
 21
1921.654479
 31
0.0
  0
TEXT
  5
DD
330
1F
100
AcDbEntity
  8
Layer1
  6
Continuous
 62
     3
100
AcDbText
 10
2440.857972
 20
1933.902283
 30
0.0
 40
28.0
  1
１３００
 41
0.8582679999999999
  7
BIGFONT
100
AcDbText
  0
TEXT
  5
DE
330
1F
100
AcDbEntity
  8
Layer1
  6
Continuous
 62
     3
100
AcDbText
 10
2964.923627000001
 20
1935.722044
 30
0.0
 40
28.0
  1
　３１０（３５０）
 41
0.713316
  7
BIGFONT
100
AcDbText
  0
TEXT
  5
DF
330
1F
100
AcDbEntity
  8
Layer1
  6
Continuous
 62
     2
100
AcDbText
 10
2268.191875
 20
2104.311215
 30
0.0
 40
29.456
  1
式
 41
0.8582679999999999
  7
BIGFONT
100
AcDbText
  0
TEXT
  5
E0
330
1F
100
AcDbEntity
  8
Layer1
  6
Continuous
 62
     2
100
AcDbText
 10
2473.790405
 20
2103.134135
 30
0.0
 40
29.456
  1
Ａ
 41
0.8582679999999999
  7
BIGFONT
100
AcDbText
  0
TEXT
  5
E1
330
1F
100
AcDbEntity
  8
Layer1
  6
Continuous
 62
     2
100
AcDbText
 10
3046.447058
 20
2102.637757
 30
0.0
 40
29.456
  1
Ｈ
 41
0.8582679999999999
  7
BIGFONT
100
AcDbText
  0
TEXT
  5
E2
330
1F
100
AcDbEntity
  8
Layer1
  6
Continuous
 62
     2
100
AcDbText
 10
2613.377075
 20
2102.844076
 30
0.0
 40
29.456
  1
Ｓ
 41
0.8582679999999999
  7
BIGFONT
100
AcDbText
  0
TEXT
  5
E3
330
1F
100
AcDbEntity
  8
Layer1
  6
Continuous
 62
     3
100
AcDbText
 10
2463.660095
 20
2045.551622
 30
0.0
 40
28.0
  1
６００
 41
0.8582679999999999
  7
BIGFONT
100
AcDbText
  0
TEXT
  5
E4
330
1F
100
AcDbEntity
  8
Layer1
  6
Continuous
 62
     3
100
AcDbText
 10
2463.815628000001
 20
1991.660789
 30
0.0
 40
28.0
  1
９００
 41
0.8582679999999999
  7
BIGFONT
100
AcDbText
  0
TEXT
  5
E5
330
1F
100
AcDbEntity
  8
Layer1
  6
Continuous
 62
     3
100
AcDbText
 10
2984.618885000001
 20
2047.632325
 30
0.0
 40
28.0
  1
１７０（１８０）
 41
0.7155810000000001
  7
BIGFONT
100
AcDbText
  0
TEXT
  5
E6
330
1F
100
AcDbEntity
  8
Layer1
  6
Continuous
 62
     3
100
AcDbText
 10
2985.57936
 20
1990.953871
 30
0.0
 40
28.0
  1
２５０（２５０）
 41
0.7155810000000001
  7
BIGFONT
100
AcDbText
  0
LINE
  5
E7
330
1F
100
AcDbEntity
  8
Layer1
  6
Continuous
 62
     2
100
AcDbLine
 10
2051.160548
 20
1921.654479
 30
0.0
 11
2051.160548
 21
2146.081146
 31
0.0
  0
TEXT
  5
E8
330
1F
100
AcDbEntity
  8
Layer1
  6
Continuous
 62
     3
100
AcDbText
 10
3051.413853
 20
2148.6198
 30
0.0
 40
24.0
  1
単位ｍｍ
 41
0.8582679999999999
  7
BIGFONT
100
AcDbText
  0
LINE
  5
E9
330
1F
100
AcDbEntity
  8
Layer1
  6
Continuous
 62
     2
100
AcDbLine
 10
3140.930101
 20
2089.974479
 30
0.0
 11
2051.160548
 21
2089.974479
 31
0.0
  0
LINE
  5
EA
330
1F
100
AcDbEntity
  8
Layer1
  6
Continuous
 62
     2
100
AcDbLine
 10
3140.930101
 20
2033.867813
 30
0.0
 11
2051.160548
 21
2033.867813
 31
0.0
  0
LINE
  5
EB
330
1F
100
AcDbEntity
  8
Layer1
  6
Continuous
 62
     2
100
AcDbLine
 10
3140.930101
 20
1977.761146
 30
0.0
 11
2051.160548
 21
1977.761146
 31
0.0
  0
TEXT
  5
EC
330
1F
100
AcDbEntity
  8
Layer1
  6
Continuous
 62
     2
100
AcDbText
 10
2756.510131
 20
2101.49874
 30
0.0
 40
29.456
  1
Ｗ
 41
0.8582679999999999
  7
BIGFONT
100
AcDbText
  0
TEXT
  5
ED
330
1F
100
AcDbEntity
  8
Layer1
  6
Continuous
 62
     3
100
AcDbText
 10
2719.057499
 20
1937.432092
 30
0.0
 40
28.0
  1
１５７０
 41
0.8582679999999999
  7
BIGFONT
100
AcDbText
  0
TEXT
  5
EE
330
1F
100
AcDbEntity
  8
Layer1
  6
Continuous
 62
     3
100
AcDbText
 10
2743.500611
 20
2044.945148
 30
0.0
 40
28.0
  1
８７０
 41
0.8582679999999999
  7
BIGFONT
100
AcDbText
  0
TEXT
  5
EF
330
1F
100
AcDbEntity
  8
Layer1
  6
Continuous
 62
     3
100
AcDbText
 10
2719.803894
 20
1990.309771999999
 30
0.0
 40
28.0
  1
１１７０
 41
0.8582679999999999
  7
BIGFONT
100
AcDbText
  0
TEXT
  5
F0
330
1F
100
AcDbEntity
  8
Layer1
  6
Continuous
 62
     3
100
AcDbText
 10
2337.789494
 20
1546.555988
 30
0.0
 40
32.0
  1
ボルト：ステンレス製
 41
0.8582679999999999
  7
BIGFONT
100
AcDbText
  0
LINE
  5
F1
330
1F
100
AcDbEntity
  8
Layer1
  6
Continuous
 62
     2
100
AcDbLine
 10
3114.191174
 20
1887.058011
 30
0.0
 11
2150.781844
 21
1887.058011
 31
0.0
  0
LINE
  5
F2
330
1F
100
AcDbEntity
  8
Layer1
  6
Continuous
 62
     2
100
AcDbLine
 10
2150.781844
 20
1517.880869
 30
0.0
 11
3114.191174
 21
1517.880869
 31
0.0
  0
TEXT
  5
F3
330
1F
100
AcDbEntity
  8
Layer1
  6
Continuous
 62
     3
100
AcDbText
 10
2185.95551
 20
1841.689412
 30
0.0
 40
32.0
  1
＊ ベンチレーター型ＬＭＧ－ＡＬ仕様
 41
0.8344269999999999
  7
BIGFONT
100
AcDbText
  0
TEXT
  5
F4
330
1F
100
AcDbEntity
  8
Layer1
  6
Continuous
 62
     3
100
AcDbText
 10
2335.765814
 20
1796.751916
 30
0.0
 40
32.0
  1
ドーム：ＡＣ （アクリル乳半色）
 41
0.831447
  7
BIGFONT
100
AcDbText
  0
TEXT
  5
F5
330
1F
100
AcDbEntity
  8
Layer1
  6
Continuous
 62
     3
100
AcDbText
 10
2309.959414
 20
1637.818196
 30
0.0
 40
32.0
  1
ベース枠：アルミｔ＝２．０（アルマイト処理）
 41
0.8582679999999999
  7
BIGFONT
100
AcDbText
  0
TEXT
  5
F6
330
1F
100
AcDbEntity
  8
Layer1
  6
Continuous
 62
     3
100
AcDbText
 10
2309.402774
 20
1593.780724
 30
0.0
 40
32.0
  1
ルーバー：アルミｔ＝１．５（アルマイト処理）
 41
0.8582679999999999
  7
BIGFONT
100
AcDbText
  0
LINE
  5
F7
330
1F
100
AcDbEntity
  8
Layer1
  6
Continuous
 62
     2
100
AcDbLine
 10
3114.191174
 20
1517.880869
 30
0.0
 11
3114.191174
 21
1887.058011
 31
0.0
  0
LINE
  5
F8
330
1F
100
AcDbEntity
  8
Layer1
  6
Continuous
 62
     2
100
AcDbLine
 10
2150.781844
 20
1887.058011
 30
0.0
 11
2150.781844
 21
1517.880869
 31
0.0
  0
TEXT
  5
F9
330
1F
100
AcDbEntity
  8
Layer1
  6
Continuous
 62
     3
100
AcDbText
 10
1352.176549
 20
227.104006
 30
0.0
 40
27.942064
  1
●当社換気製品は雨滴進入に十分配慮して設計しておりますが、
 41
0.8582679999999999
  7
BIGFONT
100
AcDbText
  0
TEXT
  5
FA
330
1F
100
AcDbEntity
  8
Layer1
  6
Continuous
 62
     3
100
AcDbText
 10
1374.473053
 20
158.550782
 30
0.0
 40
27.942064
  1
あります。
 41
0.8582679999999999
  7
BIGFONT
100
AcDbText
  0
TEXT
  5
FB
330
1F
100
AcDbEntity
  8
Layer1
  6
Continuous
 62
     3
100
AcDbText
 10
1375.471101
 20
192.49463
 30
0.0
 40
27.942064
  1
ガラリ仕様につき、気象条件によっては多少進入する可能性が
 41
0.8582679999999999
  7
BIGFONT
100
AcDbText
  0
LINE
  5
FC
330
1F
100
AcDbEntity
  8
Layer1
  6
Continuous
 62
     1
100
AcDbLine
 10
138.844182
 20
135.091636
 30
0.0
 11
3242.844182
 21
135.091636
 31
0.0
  0
LINE
  5
FD
330
1F
100
AcDbEntity
  8
Layer1
  6
Continuous
 62
     1
100
AcDbLine
 10
3242.844182
 20
135.091636
 30
0.0
 11
3242.844182
 21
2271.091636
 31
0.0
  0
LINE
  5
FE
330
1F
100
AcDbEntity
  8
Layer1
  6
Continuous
 62
     1
100
AcDbLine
 10
3242.844182
 20
2271.091636
 30
0.0
 11
138.844182
 21
2271.091636
 31
0.0
  0
LINE
  5
FF
330
1F
100
AcDbEntity
  8
Layer1
  6
Continuous
 62
     1
100
AcDbLine
 10
138.844182
 20
2271.091636
 30
0.0
 11
138.844182
 21
135.091636
 31
0.0
  0
LINE
  5
100
330
1F
100
AcDbEntity
  8
Layer1
  6
Continuous
 62
     1
100
AcDbLine
 10
2082.918553
 20
135.091636
 30
0.0
 11
2562.918553
 21
135.091636
 31
0.0
  0
LINE
  5
101
330
1F
100
AcDbEntity
  8
Layer1
  6
Continuous
 62
     3
100
AcDbLine
 10
2802.844182
 20
295.091636
 30
0.0
 11
2802.844182
 21
135.091636
 31
0.0
  0
LINE
  5
102
330
1F
100
AcDbEntity
  8
Layer1
  6
Continuous
 62
     3
100
AcDbLine
 10
2722.844182
 20
295.091636
 30
0.0
 11
2722.844182
 21
135.091636
 31
0.0
  0
LINE
  5
103
330
1F
100
AcDbEntity
  8
Layer1
  6
Continuous
 62
     3
100
AcDbLine
 10
2642.844182
 20
295.091636
 30
0.0
 11
2642.844182
 21
135.091636
 31
0.0
  0
LINE
  5
104
330
1F
100
AcDbEntity
  8
Layer1
  6
Continuous
 62
     3
100
AcDbLine
 10
2562.844182
 20
295.091636
 30
0.0
 11
2562.844182
 21
135.091636
 31
0.0
  0
LINE
  5
105
330
1F
100
AcDbEntity
  8
Layer1
  6
Continuous
 62
     1
100
AcDbLine
 10
2066.844182
 20
295.091636
 30
0.0
 11
2066.844182
 21
135.091636
 31
0.0
  0
LINE
  5
106
330
1F
100
AcDbEntity
  8
Layer1
  6
Continuous
 62
     1
100
AcDbLine
 10
2066.844182
 20
135.091636
 30
0.0
 11
3242.844182
 21
135.091636
 31
0.0
  0
LINE
  5
107
330
1F
100
AcDbEntity
  8
Layer1
  6
Continuous
 62
     1
100
AcDbLine
 10
3242.844182
 20
135.091636
 30
0.0
 11
3242.844182
 21
295.091636
 31
0.0
  0
LINE
  5
108
330
1F
100
AcDbEntity
  8
Layer1
  6
Continuous
 62
     1
100
AcDbLine
 10
3242.844182
 20
295.091636
 30
0.0
 11
2066.844182
 21
295.091636
 31
0.0
  0
LINE
  5
109
330
1F
100
AcDbEntity
  8
Layer1
  6
Continuous
 62
     2
100
AcDbLine
 10
2124.373939
 20
218.4721778669631
 30
0.0
 11
2139.136856
 21
233.235094866963
 31
0.0
  0
LINE
  5
10A
330
1F
100
AcDbEntity
  8
Layer1
  6
Continuous
 62
     2
100
AcDbLine
 10
2124.373939
 20
197.594260866963
 30
0.0
 11
2124.373939
 21
218.4721778669631
 31
0.0
  0
LINE
  5
10B
330
1F
100
AcDbEntity
  8
Layer1
  6
Continuous
 62
     2
100
AcDbLine
 10
2121.173939
 20
218.4721778669631
 30
0.0
 11
2121.173939
 21
197.594260866963
 31
0.0
  0
LINE
  5
10C
330
1F
100
AcDbEntity
  8
Layer1
  6
Continuous
 62
     2
100
AcDbLine
 10
2106.411022
 20
233.235094866963
 30
0.0
 11
2121.173939
 21
218.4721778669631
 31
0.0
  0
LINE
  5
10D
330
1F
100
AcDbEntity
  8
Layer1
  6
Continuous
 62
     2
100
AcDbLine
 10
2154.773939
 20
219.1349198669631
 30
0.0
 11
2149.12541
 21
217.5349198669631
 31
0.0
  0
LINE
  5
10E
330
1F
100
AcDbEntity
  8
Layer1
  6
Continuous
 62
     2
100
AcDbLine
 10
2154.773939
 20
219.1349198669631
 30
0.0
 11
2149.173939
 21
219.1349198669631
 31
0.0
  0
LINE
  5
10F
330
1F
100
AcDbEntity
  8
Layer1
  6
Continuous
 62
     2
100
AcDbLine
 10
2149.12541
 20
220.7349198669631
 30
0.0
 11
2154.773939
 21
219.1349198669631
 31
0.0
  0
LINE
  5
110
330
1F
100
AcDbEntity
  8
Layer1
  6
Continuous
 62
     2
100
AcDbLine
 10
2122.773939
 20
187.134919866963
 30
0.0
 11
2122.773939
 21
192.734919866963
 31
0.0
  0
LINE
  5
111
330
1F
100
AcDbEntity
  8
Layer1
  6
Continuous
 62
     2
100
AcDbLine
 10
2122.773939
 20
187.134919866963
 30
0.0
 11
2124.373939
 21
192.7834498669631
 31
0.0
  0
LINE
  5
112
330
1F
100
AcDbEntity
  8
Layer1
  6
Continuous
 62
     2
100
AcDbLine
 10
2122.773939
 20
187.134919866963
 30
0.0
 11
2121.173939
 21
192.7834498669631
 31
0.0
  0
LINE
  5
113
330
1F
100
AcDbEntity
  8
Layer1
  6
Continuous
 62
     2
100
AcDbLine
 10
2090.773939
 20
219.1349198669631
 30
0.0
 11
2096.422469
 21
217.5349198669631
 31
0.0
  0
LINE
  5
114
330
1F
100
AcDbEntity
  8
Layer1
  6
Continuous
 62
     2
100
AcDbLine
 10
2090.773939
 20
219.1349198669631
 30
0.0
 11
2096.373939
 21
219.1349198669631
 31
0.0
  0
LINE
  5
115
330
1F
100
AcDbEntity
  8
Layer1
  6
Continuous
 62
     2
100
AcDbLine
 10
2090.773939
 20
219.1349198669631
 30
0.0
 11
2096.422469
 21
220.7349198669631
 31
0.0
  0
LINE
  5
116
330
1F
100
AcDbEntity
  8
Layer1
  6
Continuous
 62
     2
100
AcDbLine
 10
2122.773939
 20
251.1349198669631
 30
0.0
 11
2124.373939
 21
245.4863908669631
 31
0.0
  0
LINE
  5
117
330
1F
100
AcDbEntity
  8
Layer1
  6
Continuous
 62
     2
100
AcDbLine
 10
2122.773939
 20
251.1349198669631
 30
0.0
 11
2121.173939
 21
245.4863908669631
 31
0.0
  0
LINE
  5
118
330
1F
100
AcDbEntity
  8
Layer1
  6
Continuous
 62
     2
100
AcDbLine
 10
2122.773939
 20
251.1349198669631
 30
0.0
 11
2122.773939
 21
245.534919866963
 31
0.0
  0
LINE
  5
119
330
1F
100
AcDbEntity
  8
Layer1
  6
Continuous
 62
     2
100
AcDbLine
 10
2122.773939
 20
221.397661866963
 30
0.0
 11
2108.673764
 21
235.497836866963
 31
0.0
  0
LINE
  5
11A
330
1F
100
AcDbEntity
  8
Layer1
  6
Continuous
 62
     2
100
AcDbLine
 10
2136.874115
 20
235.497836866963
 30
0.0
 11
2122.773939
 21
221.397661866963
 31
0.0
  0
LINE
  5
11B
330
1F
100
AcDbEntity
  8
Layer1
  6
Continuous
 62
     2
100
AcDbLine
 10
2122.773939
 20
219.1349198669631
 30
0.0
 11
2138.047446
 21
234.4084268669631
 31
0.0
  0
LINE
  5
11C
330
1F
100
AcDbEntity
  8
Layer1
  6
Continuous
 62
     2
100
AcDbLine
 10
2122.773939
 20
219.1349198669631
 30
0.0
 11
2122.773939
 21
197.5349198669631
 31
0.0
  0
LINE
  5
11D
330
1F
100
AcDbEntity
  8
Layer1
  6
Continuous
 62
     2
100
AcDbLine
 10
2107.500433
 20
234.4084268669631
 30
0.0
 11
2122.773939
 21
219.1349198669631
 31
0.0
  0
ARC
  5
11E
330
1F
100
AcDbEntity
  8
Layer1
  6
Continuous
 62
     2
100
AcDbCircle
 10
2122.773939
 20
219.1349198669631
 30
0.0
 40
18.40000000002301
100
AcDbArc
 50
62.71893200000001
 51
117.2810679999999
  0
ARC
  5
11F
330
1F
100
AcDbEntity
  8
Layer1
  6
Continuous
 62
     2
100
AcDbCircle
 10
2122.773939
 20
219.1349198669631
 30
0.0
 40
21.60000000009784
100
AcDbArc
 50
60.02611400000001
 51
119.973886
  0
ARC
  5
120
330
1F
100
AcDbEntity
  8
Layer1
  6
Continuous
 62
     2
100
AcDbCircle
 10
2122.773939
 20
219.1349198669631
 30
0.0
 40
21.60000000004496
100
AcDbArc
 50
285.026114
 51
29.973886
  0
ARC
  5
121
330
1F
100
AcDbEntity
  8
Layer1
  6
Continuous
 62
     2
100
AcDbCircle
 10
2122.773939
 20
219.1349198669631
 30
0.0
 40
18.39999999999491
100
AcDbArc
 50
287.7189319999999
 51
27.28106800000006
  0
ARC
  5
122
330
1F
100
AcDbEntity
  8
Layer1
  6
Continuous
 62
     2
100
AcDbCircle
 10
2122.773939
 20
219.1349198669631
 30
0.0
 40
18.3999999999788
100
AcDbArc
 50
152.7189319999999
 51
252.281068
  0
ARC
  5
123
330
1F
100
AcDbEntity
  8
Layer1
  6
Continuous
 62
     2
100
AcDbCircle
 10
2122.773939
 20
219.1349198669631
 30
0.0
 40
21.60000000002328
100
AcDbArc
 50
150.026114
 51
254.973886
  0
CIRCLE
  5
124
330
1F
100
AcDbEntity
  8
Layer1
  6
Continuous
 62
     2
100
AcDbCircle
 10
2122.773939
 20
219.1349198669631
 30
0.0
 40
26.40000000000009
  0
CIRCLE
  5
125
330
1F
100
AcDbEntity
  8
Layer1
  6
Continuous
 62
     2
100
AcDbCircle
 10
2122.773939
 20
219.1349198669631
 30
0.0
 40
29.59999999999991
  0
ARC
  5
128
330
1F
100
AcDbEntity
  8
Layer1
  6
Continuous
 62
     2
100
AcDbCircle
 10
2122.773939
 20
219.1349198669631
 30
0.0
 40
20.00000000001634
100
AcDbArc
 50
151.2602049999999
 51
253.7397950000001
  0
ARC
  5
129
330
1F
100
AcDbEntity
  8
Layer1
  6
Continuous
 62
     2
100
AcDbCircle
 10
2122.773939
 20
219.1349198669631
 30
0.0
 40
19.99999999997485
100
AcDbArc
 50
286.2602049999999
 51
28.73979500000007
  0
ARC
  5
12A
330
1F
100
AcDbEntity
  8
Layer1
  6
Continuous
 62
     2
100
AcDbCircle
 10
2122.773939
 20
219.1349198669631
 30
0.0
 40
19.99999999999416
100
AcDbArc
 50
61.26020499999998
 51
118.739795
  0
CIRCLE
  5
12B
330
1F
100
AcDbEntity
  8
Layer1
  6
Continuous
 62
     2
100
AcDbCircle
 10
2122.773939
 20
219.1349198669631
 30
0.0
 40
28.0
  0
TEXT
  5
12C
330
1F
100
AcDbEntity
  8
Layer1
  6
Continuous
 62
     1
100
AcDbText
 10
2173.000918
 20
191.156191866963
 30
0.0
 40
56.0
  1
三洋工業株式会社
 41
0.8582679999999999
  7
BIGFONT
100
AcDbText
  0
TEXT
  5
12D
330
1F
100
AcDbEntity
  8
Layer1
  6
Continuous
 62
     2
100
AcDbText
 10
2664.183046
 20
225.308644
 30
0.0
 40
24.0
  1
ｍｍ
 41
0.8582679999999999
  7
BIGFONT
100
AcDbText
  0
TEXT
  5
12E
330
1F
100
AcDbEntity
  8
Layer1
  6
Continuous
 62
     2
100
AcDbText
 10
2764.104259
 20
195.783812
 30
0.0
 40
24.0
  1
図番
 41
0.8582679999999999
  7
BIG VER
100
AcDbText
  0
TEXT
  5
12F
330
1F
100
AcDbEntity
  8
Layer1
  6
Continuous
 62
     2
100
AcDbText
 10
2764.104259
 20
278.772572
 30
0.0
 40
24.0
  1
形名
 41
0.8582679999999999
  7
BIG VER
100
AcDbText
  0
TEXT
  5
130
330
1F
100
AcDbEntity
  8
Layer1
  6
Continuous
 62
     2
100
AcDbText
 10
2604.466335
 20
196.952548
 30
0.0
 40
24.0
  1
製図
 41
0.8582679999999999
  7
BIG VER
100
AcDbText
  0
TEXT
  5
131
330
1F
100
AcDbEntity
  8
Layer1
  6
Continuous
 62
     2
100
AcDbText
 10
2604.466335
 20
276.48346
 30
0.0
 40
24.0
  1
単位
 41
0.8582679999999999
  7
BIG VER
100
AcDbText
  0
LINE
  5
132
330
1F
100
AcDbEntity
  8
Layer1
  6
Continuous
 62
     3
100
AcDbLine
 10
2562.844182
 20
215.091636
 30
0.0
 11
3242.844182
 21
215.091636
 31
0.0
  0
TEXT
  5
133
330
1F
100
AcDbEntity
  8
Layer1
  6
Continuous
 62
     2
100
AcDbText
 10
2821.141054
 20
157.578356
 30
0.0
 40
32.0
  1
Ｈ－０６－ＬＧ－７７
 41
0.8582679999999999
  7
BIGFONT
100
AcDbText
  0
TEXT
  5
134
330
1F
100
AcDbEntity
  8
Layer1
  6
Continuous
 62
     2
100
AcDbText
 10
2821.708909
 20
223.490283
 30
0.0
 40
28.0
  1
ＬＭＧ－ＡＬ 標準図
 41
0.8153539999999999
  7
BIGFONT
100
AcDbText
  0
LINE
  5
135
330
1F
100
AcDbEntity
  8
Layer1
  6
Continuous
 62
     3
100
AcDbLine
 10
2649.65025
 20
1144.162093
 30
0.0
 11
2651.65025
 21
1144.162093
 31
0.0
  0
LINE
  5
136
330
1F
100
AcDbEntity
  8
Layer1
  6
Continuous
 62
     3
100
AcDbLine
 10
2651.65025
 20
1144.162093
 30
0.0
 11
2651.65025
 21
1124.162093
 31
0.0
  0
LINE
  5
137
330
1F
100
AcDbEntity
  8
Layer1
  6
Continuous
 62
     3
100
AcDbLine
 10
2651.65025
 20
1124.162093
 30
0.0
 11
2649.65025
 21
1124.162093
 31
0.0
  0
LINE
  5
138
330
1F
100
AcDbEntity
  8
Layer1
  6
Continuous
 62
     3
100
AcDbLine
 10
2649.65025
 20
1124.162093
 30
0.0
 11
2649.65025
 21
1144.162093
 31
0.0
  0
LINE
  5
139
330
1F
100
AcDbEntity
  8
Layer1
  6
Continuous
 62
     3
100
AcDbLine
 10
2469.65025
 20
820.1620929999998
 30
0.0
 11
2471.65025
 21
820.1620929999998
 31
0.0
  0
LINE
  5
13A
330
1F
100
AcDbEntity
  8
Layer1
  6
Continuous
 62
     3
100
AcDbLine
 10
2471.65025
 20
820.1620929999998
 30
0.0
 11
2471.65025
 21
840.1620929999999
 31
0.0
  0
LINE
  5
13B
330
1F
100
AcDbEntity
  8
Layer1
  6
Continuous
 62
     3
100
AcDbLine
 10
2471.65025
 20
840.1620929999999
 30
0.0
 11
2469.65025
 21
840.1620929999999
 31
0.0
  0
LINE
  5
13C
330
1F
100
AcDbEntity
  8
Layer1
  6
Continuous
 62
     3
100
AcDbLine
 10
2469.65025
 20
840.1620929999999
 30
0.0
 11
2469.65025
 21
820.1620929999998
 31
0.0
  0
LINE
  5
13D
330
1F
100
AcDbEntity
  8
Layer1
  6
Continuous
 62
     3
100
AcDbLine
 10
2649.65025
 20
820.1620929999998
 30
0.0
 11
2651.65025
 21
820.1620929999998
 31
0.0
  0
LINE
  5
13E
330
1F
100
AcDbEntity
  8
Layer1
  6
Continuous
 62
     3
100
AcDbLine
 10
2651.65025
 20
820.1620929999998
 30
0.0
 11
2651.65025
 21
840.1620929999999
 31
0.0
  0
LINE
  5
13F
330
1F
100
AcDbEntity
  8
Layer1
  6
Continuous
 62
     3
100
AcDbLine
 10
2651.65025
 20
840.1620929999999
 30
0.0
 11
2649.65025
 21
840.1620929999999
 31
0.0
  0
LINE
  5
140
330
1F
100
AcDbEntity
  8
Layer1
  6
Continuous
 62
     3
100
AcDbLine
 10
2649.65025
 20
840.1620929999999
 30
0.0
 11
2649.65025
 21
820.1620929999998
 31
0.0
  0
LINE
  5
141
330
1F
100
AcDbEntity
  8
Layer1
  6
Continuous
 62
     3
100
AcDbLine
 10
2398.65025
 20
1073.162093
 30
0.0
 11
2398.65025
 21
1071.162093
 31
0.0
  0
LINE
  5
142
330
1F
100
AcDbEntity
  8
Layer1
  6
Continuous
 62
     3
100
AcDbLine
 10
2398.65025
 20
1071.162093
 30
0.0
 11
2418.650250000001
 21
1071.162093
 31
0.0
  0
LINE
  5
143
330
1F
100
AcDbEntity
  8
Layer1
  6
Continuous
 62
     3
100
AcDbLine
 10
2418.650250000001
 20
1071.162093
 30
0.0
 11
2418.650250000001
 21
1073.162093
 31
0.0
  0
LINE
  5
144
330
1F
100
AcDbEntity
  8
Layer1
  6
Continuous
 62
     3
100
AcDbLine
 10
2418.650250000001
 20
1073.162093
 30
0.0
 11
2398.65025
 21
1073.162093
 31
0.0
  0
LINE
  5
145
330
1F
100
AcDbEntity
  8
Layer1
  6
Continuous
 62
     3
100
AcDbLine
 10
2398.65025
 20
893.1620929999999
 30
0.0
 11
2398.65025
 21
891.1620929999999
 31
0.0
  0
LINE
  5
146
330
1F
100
AcDbEntity
  8
Layer1
  6
Continuous
 62
     3
100
AcDbLine
 10
2398.65025
 20
891.1620929999999
 30
0.0
 11
2418.650250000001
 21
891.1620929999999
 31
0.0
  0
LINE
  5
147
330
1F
100
AcDbEntity
  8
Layer1
  6
Continuous
 62
     3
100
AcDbLine
 10
2418.650250000001
 20
891.1620929999999
 30
0.0
 11
2418.650250000001
 21
893.1620929999999
 31
0.0
  0
LINE
  5
148
330
1F
100
AcDbEntity
  8
Layer1
  6
Continuous
 62
     3
100
AcDbLine
 10
2418.650250000001
 20
893.1620929999999
 30
0.0
 11
2398.65025
 21
893.1620929999999
 31
0.0
  0
LINE
  5
149
330
1F
100
AcDbEntity
  8
Layer1
  6
Continuous
 62
     3
100
AcDbLine
 10
2722.65025
 20
1073.162093
 30
0.0
 11
2722.65025
 21
1071.162093
 31
0.0
  0
LINE
  5
14A
330
1F
100
AcDbEntity
  8
Layer1
  6
Continuous
 62
     3
100
AcDbLine
 10
2722.65025
 20
1071.162093
 30
0.0
 11
2702.65025
 21
1071.162093
 31
0.0
  0
LINE
  5
14B
330
1F
100
AcDbEntity
  8
Layer1
  6
Continuous
 62
     3
100
AcDbLine
 10
2702.65025
 20
1071.162093
 30
0.0
 11
2702.65025
 21
1073.162093
 31
0.0
  0
LINE
  5
14C
330
1F
100
AcDbEntity
  8
Layer1
  6
Continuous
 62
     3
100
AcDbLine
 10
2702.65025
 20
1073.162093
 30
0.0
 11
2722.65025
 21
1073.162093
 31
0.0
  0
LINE
  5
14D
330
1F
100
AcDbEntity
  8
Layer1
  6
Continuous
 62
     3
100
AcDbLine
 10
2722.65025
 20
893.1620929999999
 30
0.0
 11
2722.65025
 21
891.1620929999999
 31
0.0
  0
LINE
  5
14E
330
1F
100
AcDbEntity
  8
Layer1
  6
Continuous
 62
     3
100
AcDbLine
 10
2722.65025
 20
891.1620929999999
 30
0.0
 11
2702.65025
 21
891.1620929999999
 31
0.0
  0
LINE
  5
14F
330
1F
100
AcDbEntity
  8
Layer1
  6
Continuous
 62
     3
100
AcDbLine
 10
2702.65025
 20
891.1620929999999
 30
0.0
 11
2702.65025
 21
893.1620929999999
 31
0.0
  0
LINE
  5
150
330
1F
100
AcDbEntity
  8
Layer1
  6
Continuous
 62
     3
100
AcDbLine
 10
2702.65025
 20
893.1620929999999
 30
0.0
 11
2722.65025
 21
893.1620929999999
 31
0.0
  0
LINE
  5
151
330
1F
100
AcDbEntity
  8
Layer1
  6
Continuous
 62
     3
100
AcDbLine
 10
2338.65025
 20
1103.162093
 30
0.0
 11
2338.65025
 21
1101.162093
 31
0.0
  0
LINE
  5
152
330
1F
100
AcDbEntity
  8
Layer1
  6
Continuous
 62
     3
100
AcDbLine
 10
2338.65025
 20
1101.162093
 30
0.0
 11
2358.65025
 21
1101.162093
 31
0.0
  0
LINE
  5
153
330
1F
100
AcDbEntity
  8
Layer1
  6
Continuous
 62
     3
100
AcDbLine
 10
2358.65025
 20
1101.162093
 30
0.0
 11
2358.65025
 21
1103.162093
 31
0.0
  0
LINE
  5
154
330
1F
100
AcDbEntity
  8
Layer1
  6
Continuous
 62
     3
100
AcDbLine
 10
2358.65025
 20
1103.162093
 30
0.0
 11
2338.65025
 21
1103.162093
 31
0.0
  0
LINE
  5
155
330
1F
100
AcDbEntity
  8
Layer1
  6
Continuous
 62
     3
100
AcDbLine
 10
2338.65025
 20
861.1620929999999
 30
0.0
 11
2338.65025
 21
863.1620929999998
 31
0.0
  0
LINE
  5
156
330
1F
100
AcDbEntity
  8
Layer1
  6
Continuous
 62
     3
100
AcDbLine
 10
2338.65025
 20
863.1620929999998
 30
0.0
 11
2358.65025
 21
863.1620929999998
 31
0.0
  0
LINE
  5
157
330
1F
100
AcDbEntity
  8
Layer1
  6
Continuous
 62
     3
100
AcDbLine
 10
2358.65025
 20
863.1620929999998
 30
0.0
 11
2358.65025
 21
861.1620929999999
 31
0.0
  0
LINE
  5
158
330
1F
100
AcDbEntity
  8
Layer1
  6
Continuous
 62
     3
100
AcDbLine
 10
2358.65025
 20
861.1620929999999
 30
0.0
 11
2338.65025
 21
861.1620929999999
 31
0.0
  0
LINE
  5
159
330
1F
100
AcDbEntity
  8
Layer1
  6
Continuous
 62
     3
100
AcDbLine
 10
2782.65025
 20
1103.162093
 30
0.0
 11
2782.65025
 21
1101.162093
 31
0.0
  0
LINE
  5
15A
330
1F
100
AcDbEntity
  8
Layer1
  6
Continuous
 62
     3
100
AcDbLine
 10
2782.65025
 20
1101.162093
 30
0.0
 11
2762.65025
 21
1101.162093
 31
0.0
  0
LINE
  5
15B
330
1F
100
AcDbEntity
  8
Layer1
  6
Continuous
 62
     3
100
AcDbLine
 10
2762.65025
 20
1101.162093
 30
0.0
 11
2762.65025
 21
1103.162093
 31
0.0
  0
LINE
  5
15C
330
1F
100
AcDbEntity
  8
Layer1
  6
Continuous
 62
     3
100
AcDbLine
 10
2762.65025
 20
1103.162093
 30
0.0
 11
2782.65025
 21
1103.162093
 31
0.0
  0
LINE
  5
15D
330
1F
100
AcDbEntity
  8
Layer1
  6
Continuous
 62
     3
100
AcDbLine
 10
2782.65025
 20
861.1620929999999
 30
0.0
 11
2782.65025
 21
863.1620929999998
 31
0.0
  0
LINE
  5
15E
330
1F
100
AcDbEntity
  8
Layer1
  6
Continuous
 62
     3
100
AcDbLine
 10
2782.65025
 20
863.1620929999998
 30
0.0
 11
2762.65025
 21
863.1620929999998
 31
0.0
  0
LINE
  5
15F
330
1F
100
AcDbEntity
  8
Layer1
  6
Continuous
 62
     3
100
AcDbLine
 10
2762.65025
 20
863.1620929999998
 30
0.0
 11
2762.65025
 21
861.1620929999999
 31
0.0
  0
LINE
  5
160
330
1F
100
AcDbEntity
  8
Layer1
  6
Continuous
 62
     3
100
AcDbLine
 10
2762.65025
 20
861.1620929999999
 30
0.0
 11
2782.65025
 21
861.1620929999999
 31
0.0
  0
LINE
  5
161
330
1F
100
AcDbEntity
  8
Layer1
  6
Continuous
 62
     3
100
AcDbLine
 10
2439.65025
 20
1204.162093
 30
0.0
 11
2441.65025
 21
1204.162093
 31
0.0
  0
LINE
  5
162
330
1F
100
AcDbEntity
  8
Layer1
  6
Continuous
 62
     3
100
AcDbLine
 10
2441.65025
 20
1204.162093
 30
0.0
 11
2441.65025
 21
1184.162093
 31
0.0
  0
LINE
  5
163
330
1F
100
AcDbEntity
  8
Layer1
  6
Continuous
 62
     3
100
AcDbLine
 10
2441.65025
 20
1184.162093
 30
0.0
 11
2439.65025
 21
1184.162093
 31
0.0
  0
LINE
  5
164
330
1F
100
AcDbEntity
  8
Layer1
  6
Continuous
 62
     3
100
AcDbLine
 10
2439.65025
 20
1184.162093
 30
0.0
 11
2439.65025
 21
1204.162093
 31
0.0
  0
LINE
  5
165
330
1F
100
AcDbEntity
  8
Layer1
  6
Continuous
 62
     3
100
AcDbLine
 10
2681.650250000001
 20
1204.162093
 30
0.0
 11
2679.65025
 21
1204.162093
 31
0.0
  0
LINE
  5
166
330
1F
100
AcDbEntity
  8
Layer1
  6
Continuous
 62
     3
100
AcDbLine
 10
2679.65025
 20
1204.162093
 30
0.0
 11
2679.65025
 21
1184.162093
 31
0.0
  0
LINE
  5
167
330
1F
100
AcDbEntity
  8
Layer1
  6
Continuous
 62
     3
100
AcDbLine
 10
2679.65025
 20
1184.162093
 30
0.0
 11
2681.650250000001
 21
1184.162093
 31
0.0
  0
LINE
  5
168
330
1F
100
AcDbEntity
  8
Layer1
  6
Continuous
 62
     3
100
AcDbLine
 10
2681.650250000001
 20
1184.162093
 30
0.0
 11
2681.650250000001
 21
1204.162093
 31
0.0
  0
LINE
  5
169
330
1F
100
AcDbEntity
  8
Layer1
  6
Continuous
 62
     3
100
AcDbLine
 10
2439.65025
 20
760.1620929999999
 30
0.0
 11
2441.65025
 21
760.1620929999999
 31
0.0
  0
LINE
  5
16A
330
1F
100
AcDbEntity
  8
Layer1
  6
Continuous
 62
     3
100
AcDbLine
 10
2441.65025
 20
760.1620929999999
 30
0.0
 11
2441.65025
 21
780.1620929999999
 31
0.0
  0
LINE
  5
16B
330
1F
100
AcDbEntity
  8
Layer1
  6
Continuous
 62
     3
100
AcDbLine
 10
2441.65025
 20
780.1620929999999
 30
0.0
 11
2439.65025
 21
780.1620929999999
 31
0.0
  0
LINE
  5
16C
330
1F
100
AcDbEntity
  8
Layer1
  6
Continuous
 62
     3
100
AcDbLine
 10
2439.65025
 20
780.1620929999999
 30
0.0
 11
2439.65025
 21
760.1620929999999
 31
0.0
  0
LINE
  5
16D
330
1F
100
AcDbEntity
  8
Layer1
  6
Continuous
 62
     3
100
AcDbLine
 10
2681.650250000001
 20
760.1620929999999
 30
0.0
 11
2679.65025
 21
760.1620929999999
 31
0.0
  0
LINE
  5
16E
330
1F
100
AcDbEntity
  8
Layer1
  6
Continuous
 62
     3
100
AcDbLine
 10
2679.65025
 20
760.1620929999999
 30
0.0
 11
2679.65025
 21
780.1620929999999
 31
0.0
  0
LINE
  5
16F
330
1F
100
AcDbEntity
  8
Layer1
  6
Continuous
 62
     3
100
AcDbLine
 10
2679.65025
 20
780.1620929999999
 30
0.0
 11
2681.650250000001
 21
780.1620929999999
 31
0.0
  0
LINE
  5
170
330
1F
100
AcDbEntity
  8
Layer1
  6
Continuous
 62
     3
100
AcDbLine
 10
2681.650250000001
 20
780.1620929999999
 30
0.0
 11
2681.650250000001
 21
760.1620929999999
 31
0.0
  0
LINE
  5
171
330
1F
100
AcDbEntity
  8
Layer1
  6
Continuous
 62
     3
100
AcDbLine
 10
2862.65025
 20
1223.162093
 30
0.0
 11
2862.65025
 21
1221.162093
 31
0.0
  0
LINE
  5
172
330
1F
100
AcDbEntity
  8
Layer1
  6
Continuous
 62
     3
100
AcDbLine
 10
2862.65025
 20
1221.162093
 30
0.0
 11
2842.65025
 21
1221.162093
 31
0.0
  0
LINE
  5
173
330
1F
100
AcDbEntity
  8
Layer1
  6
Continuous
 62
     3
100
AcDbLine
 10
2842.65025
 20
1221.162093
 30
0.0
 11
2842.65025
 21
1223.162093
 31
0.0
  0
LINE
  5
174
330
1F
100
AcDbEntity
  8
Layer1
  6
Continuous
 62
     3
100
AcDbLine
 10
2842.65025
 20
1223.162093
 30
0.0
 11
2862.65025
 21
1223.162093
 31
0.0
  0
LINE
  5
175
330
1F
100
AcDbEntity
  8
Layer1
  6
Continuous
 62
     3
100
AcDbLine
 10
2862.65025
 20
741.1620929999998
 30
0.0
 11
2862.65025
 21
743.1620929999999
 31
0.0
  0
LINE
  5
176
330
1F
100
AcDbEntity
  8
Layer1
  6
Continuous
 62
     3
100
AcDbLine
 10
2862.65025
 20
743.1620929999999
 30
0.0
 11
2842.65025
 21
743.1620929999999
 31
0.0
  0
LINE
  5
177
330
1F
100
AcDbEntity
  8
Layer1
  6
Continuous
 62
     3
100
AcDbLine
 10
2842.65025
 20
743.1620929999999
 30
0.0
 11
2842.65025
 21
741.1620929999998
 31
0.0
  0
LINE
  5
178
330
1F
100
AcDbEntity
  8
Layer1
  6
Continuous
 62
     3
100
AcDbLine
 10
2842.65025
 20
741.1620929999998
 30
0.0
 11
2862.65025
 21
741.1620929999998
 31
0.0
  0
LINE
  5
179
330
1F
100
AcDbEntity
  8
Layer1
  6
Continuous
 62
     3
100
AcDbLine
 10
2862.65025
 20
983.1620929999999
 30
0.0
 11
2862.65025
 21
981.162093
 31
0.0
  0
LINE
  5
17A
330
1F
100
AcDbEntity
  8
Layer1
  6
Continuous
 62
     3
100
AcDbLine
 10
2862.65025
 20
981.162093
 30
0.0
 11
2842.65025
 21
981.162093
 31
0.0
  0
LINE
  5
17B
330
1F
100
AcDbEntity
  8
Layer1
  6
Continuous
 62
     3
100
AcDbLine
 10
2842.65025
 20
981.162093
 30
0.0
 11
2842.65025
 21
983.1620929999999
 31
0.0
  0
LINE
  5
17C
330
1F
100
AcDbEntity
  8
Layer1
  6
Continuous
 62
     3
100
AcDbLine
 10
2842.65025
 20
983.1620929999999
 30
0.0
 11
2862.65025
 21
983.1620929999999
 31
0.0
  0
LINE
  5
17D
330
1F
100
AcDbEntity
  8
Layer1
  6
Continuous
 62
     3
100
AcDbLine
 10
2258.65025
 20
1223.162093
 30
0.0
 11
2258.65025
 21
1221.162093
 31
0.0
  0
LINE
  5
17E
330
1F
100
AcDbEntity
  8
Layer1
  6
Continuous
 62
     3
100
AcDbLine
 10
2258.65025
 20
1221.162093
 30
0.0
 11
2278.65025
 21
1221.162093
 31
0.0
  0
LINE
  5
17F
330
1F
100
AcDbEntity
  8
Layer1
  6
Continuous
 62
     3
100
AcDbLine
 10
2278.65025
 20
1221.162093
 30
0.0
 11
2278.65025
 21
1223.162093
 31
0.0
  0
LINE
  5
180
330
1F
100
AcDbEntity
  8
Layer1
  6
Continuous
 62
     3
100
AcDbLine
 10
2278.65025
 20
1223.162093
 30
0.0
 11
2258.65025
 21
1223.162093
 31
0.0
  0
LINE
  5
181
330
1F
100
AcDbEntity
  8
Layer1
  6
Continuous
 62
     3
100
AcDbLine
 10
2258.65025
 20
741.1620929999998
 30
0.0
 11
2258.65025
 21
743.1620929999999
 31
0.0
  0
LINE
  5
182
330
1F
100
AcDbEntity
  8
Layer1
  6
Continuous
 62
     3
100
AcDbLine
 10
2258.65025
 20
743.1620929999999
 30
0.0
 11
2278.65025
 21
743.1620929999999
 31
0.0
  0
LINE
  5
183
330
1F
100
AcDbEntity
  8
Layer1
  6
Continuous
 62
     3
100
AcDbLine
 10
2278.65025
 20
743.1620929999999
 30
0.0
 11
2278.65025
 21
741.1620929999998
 31
0.0
  0
LINE
  5
184
330
1F
100
AcDbEntity
  8
Layer1
  6
Continuous
 62
     3
100
AcDbLine
 10
2278.65025
 20
741.1620929999998
 30
0.0
 11
2258.65025
 21
741.1620929999998
 31
0.0
  0
LINE
  5
185
330
1F
100
AcDbEntity
  8
Layer1
  6
Continuous
 62
     3
100
AcDbLine
 10
2258.65025
 20
983.1620929999999
 30
0.0
 11
2258.65025
 21
981.162093
 31
0.0
  0
LINE
  5
186
330
1F
100
AcDbEntity
  8
Layer1
  6
Continuous
 62
     3
100
AcDbLine
 10
2258.65025
 20
981.162093
 30
0.0
 11
2278.65025
 21
981.162093
 31
0.0
  0
LINE
  5
187
330
1F
100
AcDbEntity
  8
Layer1
  6
Continuous
 62
     3
100
AcDbLine
 10
2278.65025
 20
981.162093
 30
0.0
 11
2278.65025
 21
983.1620929999999
 31
0.0
  0
LINE
  5
188
330
1F
100
AcDbEntity
  8
Layer1
  6
Continuous
 62
     3
100
AcDbLine
 10
2278.65025
 20
983.1620929999999
 30
0.0
 11
2258.65025
 21
983.1620929999999
 31
0.0
  0
LINE
  5
189
330
1F
100
AcDbEntity
  8
Layer1
  6
Continuous
 62
     3
100
AcDbLine
 10
2319.65025
 20
1284.162093
 30
0.0
 11
2321.65025
 21
1284.162093
 31
0.0
  0
LINE
  5
18A
330
1F
100
AcDbEntity
  8
Layer1
  6
Continuous
 62
     3
100
AcDbLine
 10
2321.65025
 20
1284.162093
 30
0.0
 11
2321.65025
 21
1264.162093
 31
0.0
  0
LINE
  5
18B
330
1F
100
AcDbEntity
  8
Layer1
  6
Continuous
 62
     3
100
AcDbLine
 10
2321.65025
 20
1264.162093
 30
0.0
 11
2319.65025
 21
1264.162093
 31
0.0
  0
LINE
  5
18C
330
1F
100
AcDbEntity
  8
Layer1
  6
Continuous
 62
     3
100
AcDbLine
 10
2319.65025
 20
1264.162093
 30
0.0
 11
2319.65025
 21
1284.162093
 31
0.0
  0
LINE
  5
18D
330
1F
100
AcDbEntity
  8
Layer1
  6
Continuous
 62
     3
100
AcDbLine
 10
2801.65025
 20
1284.162093
 30
0.0
 11
2799.65025
 21
1284.162093
 31
0.0
  0
LINE
  5
18E
330
1F
100
AcDbEntity
  8
Layer1
  6
Continuous
 62
     3
100
AcDbLine
 10
2799.65025
 20
1284.162093
 30
0.0
 11
2799.65025
 21
1264.162093
 31
0.0
  0
LINE
  5
18F
330
1F
100
AcDbEntity
  8
Layer1
  6
Continuous
 62
     3
100
AcDbLine
 10
2799.65025
 20
1264.162093
 30
0.0
 11
2801.65025
 21
1264.162093
 31
0.0
  0
LINE
  5
190
330
1F
100
AcDbEntity
  8
Layer1
  6
Continuous
 62
     3
100
AcDbLine
 10
2801.65025
 20
1264.162093
 30
0.0
 11
2801.65025
 21
1284.162093
 31
0.0
  0
LINE
  5
191
330
1F
100
AcDbEntity
  8
Layer1
  6
Continuous
 62
     3
100
AcDbLine
 10
2559.650250000001
 20
1284.162093
 30
0.0
 11
2561.65025
 21
1284.162093
 31
0.0
  0
LINE
  5
192
330
1F
100
AcDbEntity
  8
Layer1
  6
Continuous
 62
     3
100
AcDbLine
 10
2561.65025
 20
1284.162093
 30
0.0
 11
2561.65025
 21
1264.162093
 31
0.0
  0
LINE
  5
193
330
1F
100
AcDbEntity
  8
Layer1
  6
Continuous
 62
     3
100
AcDbLine
 10
2561.65025
 20
1264.162093
 30
0.0
 11
2559.650250000001
 21
1264.162093
 31
0.0
  0
LINE
  5
194
330
1F
100
AcDbEntity
  8
Layer1
  6
Continuous
 62
     3
100
AcDbLine
 10
2559.650250000001
 20
1264.162093
 30
0.0
 11
2559.650250000001
 21
1284.162093
 31
0.0
  0
LINE
  5
195
330
1F
100
AcDbEntity
  8
Layer1
  6
Continuous
 62
     3
100
AcDbLine
 10
2319.65025
 20
680.1620929999999
 30
0.0
 11
2321.65025
 21
680.1620929999999
 31
0.0
  0
LINE
  5
196
330
1F
100
AcDbEntity
  8
Layer1
  6
Continuous
 62
     3
100
AcDbLine
 10
2321.65025
 20
680.1620929999999
 30
0.0
 11
2321.65025
 21
700.1620929999999
 31
0.0
  0
LINE
  5
197
330
1F
100
AcDbEntity
  8
Layer1
  6
Continuous
 62
     3
100
AcDbLine
 10
2321.65025
 20
700.1620929999999
 30
0.0
 11
2319.65025
 21
700.1620929999999
 31
0.0
  0
LINE
  5
198
330
1F
100
AcDbEntity
  8
Layer1
  6
Continuous
 62
     3
100
AcDbLine
 10
2319.65025
 20
700.1620929999999
 30
0.0
 11
2319.65025
 21
680.1620929999999
 31
0.0
  0
LINE
  5
199
330
1F
100
AcDbEntity
  8
Layer1
  6
Continuous
 62
     3
100
AcDbLine
 10
2801.65025
 20
680.1620929999999
 30
0.0
 11
2799.65025
 21
680.1620929999999
 31
0.0
  0
LINE
  5
19A
330
1F
100
AcDbEntity
  8
Layer1
  6
Continuous
 62
     3
100
AcDbLine
 10
2799.65025
 20
680.1620929999999
 30
0.0
 11
2799.65025
 21
700.1620929999999
 31
0.0
  0
LINE
  5
19B
330
1F
100
AcDbEntity
  8
Layer1
  6
Continuous
 62
     3
100
AcDbLine
 10
2799.65025
 20
700.1620929999999
 30
0.0
 11
2801.65025
 21
700.1620929999999
 31
0.0
  0
LINE
  5
19C
330
1F
100
AcDbEntity
  8
Layer1
  6
Continuous
 62
     3
100
AcDbLine
 10
2801.65025
 20
700.1620929999999
 30
0.0
 11
2801.65025
 21
680.1620929999999
 31
0.0
  0
LINE
  5
19D
330
1F
100
AcDbEntity
  8
Layer1
  6
Continuous
 62
     3
100
AcDbLine
 10
2559.650250000001
 20
680.1620929999999
 30
0.0
 11
2561.65025
 21
680.1620929999999
 31
0.0
  0
LINE
  5
19E
330
1F
100
AcDbEntity
  8
Layer1
  6
Continuous
 62
     3
100
AcDbLine
 10
2561.65025
 20
680.1620929999999
 30
0.0
 11
2561.65025
 21
700.1620929999999
 31
0.0
  0
LINE
  5
19F
330
1F
100
AcDbEntity
  8
Layer1
  6
Continuous
 62
     3
100
AcDbLine
 10
2561.65025
 20
700.1620929999999
 30
0.0
 11
2559.650250000001
 21
700.1620929999999
 31
0.0
  0
LINE
  5
1A0
330
1F
100
AcDbEntity
  8
Layer1
  6
Continuous
 62
     3
100
AcDbLine
 10
2559.650250000001
 20
700.1620929999999
 30
0.0
 11
2559.650250000001
 21
680.1620929999999
 31
0.0
  0
LINE
  5
1A1
330
1F
100
AcDbEntity
  8
Layer1
  6
Continuous
 62
     3
100
AcDbLine
 10
2474.82363
 20
515.8414709999999
 30
0.0
 11
2685.75081
 21
515.8414709999999
 31
0.0
  0
LINE
  5
1A2
330
1F
100
AcDbEntity
  8
Layer1
  6
Continuous
 62
     3
100
AcDbLine
 10
2685.75081
 20
515.8414709999999
 30
0.0
 11
2685.75081
 21
467.4497289999999
 31
0.0
  0
LINE
  5
1A3
330
1F
100
AcDbEntity
  8
Layer1
  6
Continuous
 62
     3
100
AcDbLine
 10
2685.75081
 20
467.4497289999999
 30
0.0
 11
2474.82363
 21
467.4497289999999
 31
0.0
  0
LINE
  5
1A4
330
1F
100
AcDbEntity
  8
Layer1
  6
Continuous
 62
     3
100
AcDbLine
 10
2474.82363
 20
467.4497289999999
 30
0.0
 11
2474.82363
 21
515.8414709999999
 31
0.0
  0
TEXT
  5
1A5
330
1F
100
AcDbEntity
  8
Layer1
  6
Continuous
 62
     2
100
AcDbText
 10
2484.226014
 20
477.217916
 30
0.0
 40
32.0
  1
アンカー位置図
 41
0.8582679999999999
  7
BIGFONT
100
AcDbText
  0
TEXT
  5
1A6
330
1F
100
AcDbEntity
  8
Layer1
  6
Continuous
 62
     3
100
AcDbText
 10
2335.765814
 20
1746.686732
 30
0.0
 40
32.0
  1
ドーム：ＰＣ （ポリカーボネート 乳半色）
 41
0.8276149999999999
  7
BIGFONT
100
AcDbText
  0
TEXT
  5
1A7
330
1F
100
AcDbEntity
  8
Layer1
  6
Continuous
 62
     3
100
AcDbText
 10
2336.808782
 20
1697.664508
 30
0.0
 40
32.0
  1
ドーム：ＦＲＰ （乳半色）
 41
0.825257
  7
BIGFONT
100
AcDbText
  0
INSERT
  5
1B1
330
1F
100
AcDbEntity
  8
Layer1
  6
Continuous
 62
     3
100
AcDbBlockReference
  2
DIM_7
 10
741.987058
 20
1111.116496
 30
0.0
  0
LINE
  5
1B2
330
1F
100
AcDbEntity
  8
Layer1
  6
Continuous
 62
     6
100
AcDbLine
 10
642.987058
 20
1453.424497
 30
0.0
 11
670.987058
 21
1453.424497
 31
0.0
  0
LINE
  5
1B3
330
1F
100
AcDbEntity
  8
Layer1
  6
Continuous
 62
     6
100
AcDbLine
 10
670.987058
 20
1453.424497
 30
0.0
 11
670.987058
 21
1451.424497
 31
0.0
  0
LINE
  5
1B4
330
1F
100
AcDbEntity
  8
Layer1
  6
Continuous
 62
     6
100
AcDbLine
 10
642.987058
 20
1451.424497
 30
0.0
 11
642.987058
 21
1453.424497
 31
0.0
  0
LINE
  5
1B5
330
1F
100
AcDbEntity
  8
Layer1
  6
Continuous
 62
     3
100
AcDbLine
 10
641.987058
 20
1455.424497
 30
0.0
 11
671.987058
 21
1455.424497
 31
0.0
  0
LINE
  5
1B6
330
1F
100
AcDbEntity
  8
Layer1
  6
Continuous
 62
     3
100
AcDbLine
 10
671.987058
 20
1455.424497
 30
0.0
 11
671.987058
 21
1453.424497
 31
0.0
  0
LINE
  5
1B7
330
1F
100
AcDbEntity
  8
Layer1
  6
Continuous
 62
     3
100
AcDbLine
 10
671.987058
 20
1453.424497
 30
0.0
 11
641.987058
 21
1453.424497
 31
0.0
  0
LINE
  5
1B8
330
1F
100
AcDbEntity
  8
Layer1
  6
Continuous
 62
     3
100
AcDbLine
 10
641.987058
 20
1453.424497
 30
0.0
 11
641.987058
 21
1455.424497
 31
0.0
  0
LINE
  5
1B9
330
1F
100
AcDbEntity
  8
Layer1
  6
Continuous
 62
     3
100
AcDbLine
 10
652.987058
 20
1453.424497
 30
0.0
 11
660.987058
 21
1453.424497
 31
0.0
  0
LINE
  5
1BA
330
1F
100
AcDbEntity
  8
Layer1
  6
Continuous
 62
     3
100
AcDbLine
 10
659.9870580000001
 20
1415.424497
 30
0.0
 11
653.987058
 21
1415.424497
 31
0.0
  0
LINE
  5
1BB
330
1F
100
AcDbEntity
  8
Layer1
  6
Continuous
 62
     3
100
AcDbLine
 10
652.987058
 20
1416.424497
 30
0.0
 11
652.987058
 21
1431.350097
 31
0.0
  0
LINE
  5
1BC
330
1F
100
AcDbEntity
  8
Layer1
  6
Continuous
 62
     3
100
AcDbLine
 10
660.987058
 20
1416.424497
 30
0.0
 11
660.987058
 21
1431.350097
 31
0.0
  0
LINE
  5
1BD
330
1F
100
AcDbEntity
  8
Layer1
  6
Continuous
 62
     3
100
AcDbLine
 10
653.987058
 20
1415.424497
 30
0.0
 11
653.987058
 21
1431.350097
 31
0.0
  0
LINE
  5
1BE
330
1F
100
AcDbEntity
  8
Layer1
  6
Continuous
 62
     3
100
AcDbLine
 10
659.9870580000001
 20
1431.350097
 30
0.0
 11
659.9870580000001
 21
1415.424497
 31
0.0
  0
LINE
  5
1BF
330
1F
100
AcDbEntity
  8
Layer1
  6
Continuous
 62
     3
100
AcDbLine
 10
660.987058
 20
1416.424497
 30
0.0
 11
652.987058
 21
1416.424497
 31
0.0
  0
LINE
  5
1C0
330
1F
100
AcDbEntity
  8
Layer1
  6
Continuous
 62
     3
100
AcDbLine
 10
652.987058
 20
1416.424497
 30
0.0
 11
653.987058
 21
1415.424497
 31
0.0
  0
LINE
  5
1C1
330
1F
100
AcDbEntity
  8
Layer1
  6
Continuous
 62
     3
100
AcDbLine
 10
659.9870580000001
 20
1415.424497
 30
0.0
 11
660.987058
 21
1416.424497
 31
0.0
  0
LINE
  5
1C2
330
1F
100
AcDbEntity
  8
Layer1
  6
Continuous
 62
     4
100
AcDbLine
 10
728.6870579999999
 20
1230.650097
 30
0.0
 11
740.303858
 21
1230.650097
 31
0.0
  0
LINE
  5
1C3
330
1F
100
AcDbEntity
  8
Layer1
  6
Continuous
 62
     4
100
AcDbLine
 10
726.987058
 20
1232.350097
 30
0.0
 11
726.987058
 21
1227.350097
 31
0.0
  0
LINE
  5
1C4
330
1F
100
AcDbEntity
  8
Layer1
  6
Continuous
 62
     4
100
AcDbLine
 10
728.6870579999999
 20
1227.350097
 30
0.0
 11
728.6870579999999
 21
1230.650097
 31
0.0
  0
LINE
  5
1C5
330
1F
100
AcDbEntity
  8
Layer1
  6
Continuous
 62
     4
100
AcDbLine
 10
726.987058
 20
1227.350097
 30
0.0
 11
728.6870579999999
 21
1227.350097
 31
0.0
  0
LINE
  5
1C6
330
1F
100
AcDbEntity
  8
Layer1
  6
Continuous
 62
     4
100
AcDbLine
 10
741.987058
 20
1218.350097
 30
0.0
 11
741.987058
 21
1232.350097
 31
0.0
  0
LINE
  5
1C7
330
1F
100
AcDbEntity
  8
Layer1
  6
Continuous
 62
     3
100
AcDbLine
 10
1049.342781
 20
2023.970471
 30
0.0
 11
1064.102929
 21
2023.970471
 31
0.0
  0
LINE
  5
1C8
330
1F
100
AcDbEntity
  8
Layer1
  6
Continuous
 62
     3
100
AcDbLine
 10
1064.102929
 20
2023.970471
 30
0.0
 11
1064.102929
 21
2009.473897
 31
0.0
  0
LINE
  5
1C9
330
1F
100
AcDbEntity
  8
Layer1
  6
Continuous
 62
     3
100
AcDbLine
 10
1064.102929
 20
2009.473897
 30
0.0
 11
1049.342781
 21
2009.473897
 31
0.0
  0
LINE
  5
1CA
330
1F
100
AcDbEntity
  8
Layer1
  6
Continuous
 62
     3
100
AcDbLine
 10
1049.342781
 20
2009.473897
 30
0.0
 11
1049.342781
 21
2023.970471
 31
0.0
  0
LINE
  5
1CB
330
1F
100
AcDbEntity
  8
Layer1
  6
Continuous
 62
     4
100
AcDbLine
 10
556.987058
 20
1057.850097
 30
0.0
 11
556.987058
 21
1125.099108
 31
0.0
  0
LINE
  5
1CC
330
1F
100
AcDbEntity
  8
Layer1
  6
Continuous
 62
     4
100
AcDbLine
 10
559.287058
 20
1057.850097
 30
0.0
 11
559.287058
 21
1123.977219
 31
0.0
  0
LINE
  5
1CD
330
1F
100
AcDbEntity
  8
Layer1
  6
Continuous
 62
     4
100
AcDbLine
 10
637.019475
 20
1125.901196
 30
0.0
 11
559.287058
 21
1123.977219
 31
0.0
  0
LINE
  5
1CE
330
1F
100
AcDbEntity
  8
Layer1
  6
Continuous
 62
     4
100
AcDbLine
 10
556.987058
 20
1057.850097
 30
0.0
 11
559.287058
 21
1057.850097
 31
0.0
  0
LINE
  5
1CF
330
1F
100
AcDbEntity
  8
Layer1
  6
Continuous
 62
     4
100
AcDbLine
 10
637.019475
 20
1125.901196
 30
0.0
 11
636.9625639999999
 21
1128.200492
 31
0.0
  0
ARC
  5
1D0
330
1F
100
AcDbEntity
  8
Layer1
  6
Continuous
 62
     4
100
AcDbCircle
 10
558.137058
 20
1125.099108
 30
0.0
 40
1.150000000163698
100
AcDbArc
 50
91.41785400000001
 51
180.0
  0
LINE
  5
1D1
330
1F
100
AcDbEntity
  8
Layer1
  6
Continuous
 62
     4
100
AcDbLine
 10
587.0347839999999
 20
1124.664011
 30
0.0
 11
587.529657
 21
1104.670134
 31
0.0
  0
LINE
  5
1D2
330
1F
100
AcDbEntity
  8
Layer1
  6
Continuous
 62
     4
100
AcDbLine
 10
637.514349
 20
1105.907319
 30
0.0
 11
636.9625639999999
 21
1128.200492
 31
0.0
  0
LINE
  5
1D3
330
1F
100
AcDbEntity
  8
Layer1
  6
Continuous
 62
     4
100
AcDbLine
 10
556.987058
 20
1071.15876
 30
0.0
 11
559.287058
 21
1073.45876
 31
0.0
  0
LINE
  5
1D4
330
1F
100
AcDbEntity
  8
Layer1
  6
Continuous
 62
     4
100
AcDbLine
 10
556.987058
 20
1069.913947
 30
0.0
 11
559.287058
 21
1072.213947
 31
0.0
  0
LINE
  5
1D5
330
1F
100
AcDbEntity
  8
Layer1
  6
Continuous
 62
     4
100
AcDbLine
 10
554.101142
 20
1065.350097
 30
0.0
 11
560.629722
 21
1065.350097
 31
0.0
  0
LINE
  5
1D6
330
1F
100
AcDbEntity
  8
Layer1
  6
Continuous
 62
     3
100
AcDbLine
 10
554.987058
 20
1057.850097
 30
0.0
 11
456.263858
 21
1038.105457
 31
0.0
  0
LINE
  5
1D7
330
1F
100
AcDbEntity
  8
Layer1
  6
Continuous
 62
     6
100
AcDbLine
 10
541.987058
 20
1073.850097
 30
0.0
 11
536.7456549999999
 21
1054.288914
 31
0.0
  0
LINE
  5
1D8
330
1F
100
AcDbEntity
  8
Layer1
  6
Continuous
 62
     6
100
AcDbLine
 10
546.137122
 20
1072.850097
 30
0.0
 11
540.1020039999999
 21
1066.81498
 31
0.0
  0
LINE
  5
1D9
330
1F
100
AcDbEntity
  8
Layer1
  6
Continuous
 62
     6
100
AcDbLine
 10
546.5020599999999
 20
1067.566335
 30
0.0
 11
538.034437
 21
1059.098712
 31
0.0
  0
LINE
  5
1DA
330
1F
100
AcDbEntity
  8
Layer1
  6
Continuous
 62
     6
100
AcDbLine
 10
546.5020599999999
 20
1061.651093
 30
0.0
 11
539.6295639999999
 21
1054.778598
 31
0.0
  0
LINE
  5
1DB
330
1F
100
AcDbEntity
  8
Layer1
  6
Continuous
 62
     6
100
AcDbLine
 10
546.5020599999999
 20
1066.99912
 30
0.0
 11
541.4934089999999
 21
1072.007771
 31
0.0
  0
LINE
  5
1DC
330
1F
100
AcDbEntity
  8
Layer1
  6
Continuous
 62
     6
100
AcDbLine
 10
546.5020599999999
 20
1062.056247
 30
0.0
 11
540.4488569999999
 21
1068.10945
 31
0.0
  0
LINE
  5
1DD
330
1F
100
AcDbEntity
  8
Layer1
  6
Continuous
 62
     6
100
AcDbLine
 10
539.164571
 20
1063.316432
 30
0.0
 11
546.356932
 21
1056.124072
 31
0.0
  0
LINE
  5
1DE
330
1F
100
AcDbEntity
  8
Layer1
  6
Continuous
 62
     6
100
AcDbLine
 10
537.863162
 20
1058.459507
 30
0.0
 11
541.2249870000001
 21
1055.097683
 31
0.0
  0
LINE
  5
1DF
330
1F
100
AcDbEntity
  8
Layer1
  6
Continuous
 62
     3
100
AcDbLine
 10
691.987058
 20
1073.325425
 30
0.0
 11
691.987058
 21
1129.562418
 31
0.0
  0
ARC
  5
1E0
330
1F
100
AcDbEntity
  8
Layer1
  6
Continuous
 62
     3
100
AcDbCircle
 10
602.4274809999999
 20
1120.014221
 30
0.0
 40
5.000000000057764
100
AcDbArc
 50
289.969741
 51
349.969741
  0
ARC
  5
1E1
330
1F
100
AcDbEntity
  8
Layer1
  6
Continuous
 62
     3
100
AcDbCircle
 10
605.8427189999999
 20
1110.61549
 30
0.0
 40
4.9999999999498
100
AcDbArc
 50
109.969741
 51
169.969741
  0
ARC
  5
1E2
330
1F
100
AcDbEntity
  8
Layer1
  6
Continuous
 62
     3
100
AcDbCircle
 10
599.2115209999999
 20
1116.185697
 30
0.0
 40
4.99999999986413
100
AcDbArc
 50
289.969741
 51
349.969741
  0
ARC
  5
1E3
330
1F
100
AcDbEntity
  8
Layer1
  6
Continuous
 62
     3
100
AcDbCircle
 10
645.132541
 20
1084.141971
 30
0.0
 40
5.000000000099968
100
AcDbArc
 50
289.969741
 51
349.969741
  0
ARC
  5
1E4
330
1F
100
AcDbEntity
  8
Layer1
  6
Continuous
 62
     3
100
AcDbCircle
 10
648.547779
 20
1074.74324
 30
0.0
 40
4.999999999961068
100
AcDbArc
 50
109.969741
 51
169.969741
  0
ARC
  5
1E5
330
1F
100
AcDbEntity
  8
Layer1
  6
Continuous
 62
     3
100
AcDbCircle
 10
641.9165809999999
 20
1080.313447
 30
0.0
 40
4.999999999897843
100
AcDbArc
 50
289.969741
 51
349.969741
  0
INSERT
  5
1EF
330
1F
100
AcDbEntity
  8
Layer1
  6
Continuous
 62
     3
100
AcDbBlockReference
  2
DIM_8
 10
541.987058
 20
1035.197797
 30
0.0
  0
INSERT
  5
1F9
330
1F
100
AcDbEntity
  8
Layer1
  6
Continuous
 62
     3
100
AcDbBlockReference
  2
DIM_9
 10
691.987058
 20
849.9870339999999
 30
0.0
  0
ARC
  5
1FA
330
1F
100
AcDbEntity
  8
Layer1
  6
Continuous
 62
     4
100
AcDbCircle
 10
1141.987058
 20
1171.424497
 30
0.0
 40
526.0000000000006
100
AcDbArc
 50
90.0
 51
147.693336
  0
ARC
  5
1FB
330
1F
100
AcDbEntity
  8
Layer1
  6
Continuous
 62
     4
100
AcDbCircle
 10
1141.987058
 20
1171.424497
 30
0.0
 40
529.9999999999993
100
AcDbArc
 50
90.0
 51
147.693336
  0
LINE
  5
1FC
330
1F
100
AcDbEntity
  8
Layer1
  6
Continuous
 62
     3
100
AcDbLine
 10
607.3510599999999
 20
1119.14338
 30
0.0
 11
637.1099769999999
 21
1094.145891
 31
0.0
  0
LINE
  5
1FD
330
1F
100
AcDbEntity
  8
Layer1
  6
Continuous
 62
     3
100
AcDbLine
 10
641.987058
 20
1090.049142
 30
0.0
 11
650.0561209999999
 21
1083.27113
 31
0.0
  0
LINE
  5
1FE
330
1F
100
AcDbEntity
  8
Layer1
  6
Continuous
 62
     3
100
AcDbLine
 10
600.91914
 20
1111.486331
 30
0.0
 11
631.4670579999999
 21
1085.82608
 31
0.0
  0
LINE
  5
1FF
330
1F
100
AcDbEntity
  8
Layer1
  6
Continuous
 62
     3
100
AcDbLine
 10
641.987058
 20
1076.98928
 30
0.0
 11
643.6242
 21
1075.614081
 31
0.0
  0
LINE
  5
200
330
1F
100
AcDbEntity
  8
Layer1
  6
Continuous
 62
     4
100
AcDbLine
 10
587.529657
 20
1104.670134
 30
0.0
 11
608.4181629999999
 21
1105.187152
 31
0.0
  0
LINE
  5
201
330
1F
100
AcDbEntity
  8
Layer1
  6
Continuous
 62
     4
100
AcDbLine
 10
623.520612
 20
1105.560956
 30
0.0
 11
637.514349
 21
1105.907319
 31
0.0
  0
LINE
  5
202
330
1F
100
AcDbEntity
  8
Layer1
  6
Continuous
 62
     4
100
AcDbLine
 10
1531.987058
 20
1132.800097
 30
0.0
 11
1531.987058
 21
1421.424497
 31
0.0
  0
INSERT
  5
20B
330
1F
100
AcDbEntity
  8
Layer1
  6
Continuous
 62
     3
100
AcDbBlockReference
  2
DIM_10
 10
582.6803289999999
 20
1451.424497
 30
0.0
  0
LINE
  5
20C
330
1F
100
AcDbEntity
  8
Layer1
  6
PLine1
 62
     6
100
AcDbLine
 10
1631.938771
 20
783.20506
 30
0.0
 11
1591.987058
 21
823.156773
 31
0.0
  0
LINE
  5
20D
330
1F
100
AcDbEntity
  8
Layer1
  6
PLine4
 62
     6
100
AcDbLine
 10
1639.718881
 20
783.20506
 30
0.0
 11
1591.987058
 21
830.4775409999999
 31
0.0
  0
LINE
  5
20E
330
1F
100
AcDbEntity
  8
Layer1
  6
PLine1
 62
     6
100
AcDbLine
 10
1646.816298
 20
783.20506
 30
0.0
 11
1591.987058
 21
838.034299
 31
0.0
  0
LINE
  5
20F
330
1F
100
AcDbEntity
  8
Layer1
  6
Continuous
 62
     6
100
AcDbLine
 10
660.0133809999999
 20
783.20506
 30
0.0
 11
691.987058
 21
815.1787369999999
 31
0.0
  0
LINE
  5
210
330
1F
100
AcDbEntity
  8
Layer1
  6
Continuous
 62
     6
100
AcDbLine
 10
652.23327
 20
783.20506
 30
0.0
 11
691.987058
 21
822.5762819999999
 31
0.0
  0
LINE
  5
211
330
1F
100
AcDbEntity
  8
Layer1
  6
Continuous
 62
     6
100
AcDbLine
 10
645.135854
 20
783.20506
 30
0.0
 11
691.987058
 21
830.0562639999998
 31
0.0
  0
INSERT
  5
21B
330
1F
100
AcDbEntity
  8
Layer1
  6
Continuous
 62
     3
100
AcDbBlockReference
  2
DIM_11
 10
691.987058
 20
750.612348
 30
0.0
  0
LINE
  5
21C
330
1F
100
AcDbEntity
  8
Layer1
  6
Continuous
 62
     2
100
AcDbLine
 10
541.987058
 20
783.20506
 30
0.0
 11
541.987058
 21
931.7091220000001
 31
0.0
  0
LINE
  5
21D
330
1F
100
AcDbEntity
  8
Layer1
  6
Continuous
 62
     3
100
AcDbLine
 10
531.987058
 20
783.20506
 30
0.0
 11
531.987058
 21
931.7091220000001
 31
0.0
  0
LINE
  5
21E
330
1F
100
AcDbEntity
  8
Layer1
  6
PLine1
 62
     2
100
AcDbLine
 10
1741.987058
 20
783.20506
 30
0.0
 11
1741.987058
 21
921.1891220000001
 31
0.0
  0
LINE
  5
21F
330
1F
100
AcDbEntity
  8
Layer1
  6
Continuous
 62
     3
100
AcDbLine
 10
1751.987058
 20
783.20506
 30
0.0
 11
1751.987058
 21
921.1891220000001
 31
0.0
  0
LINE
  5
220
330
1F
100
AcDbEntity
  8
Layer1
  6
Continuous
 62
     3
100
AcDbLine
 10
1835.688293
 20
921.1891220000001
 30
0.0
 11
1814.648293
 21
921.1891220000001
 31
0.0
  0
LINE
  5
221
330
1F
100
AcDbEntity
  8
Layer1
  6
Continuous
 62
     3
100
AcDbLine
 10
1141.987058
 20
921.1891220000001
 30
0.0
 11
1835.688293
 21
921.1891220000001
 31
0.0
  0
LINE
  5
222
330
1F
100
AcDbEntity
  8
Layer1
  6
Continuous
 62
     3
100
AcDbLine
 10
456.263858
 20
921.1891220000001
 30
0.0
 11
477.3038579999999
 21
921.1891220000001
 31
0.0
  0
LINE
  5
223
330
1F
100
AcDbEntity
  8
Layer1
  6
Continuous
 62
     3
100
AcDbLine
 10
456.263858
 20
931.7091220000001
 30
0.0
 11
456.263858
 21
921.1891220000001
 31
0.0
  0
LINE
  5
224
330
1F
100
AcDbEntity
  8
Layer1
  6
Continuous
 62
     3
100
AcDbLine
 10
477.3038579999999
 20
931.7091220000001
 30
0.0
 11
477.3038579999999
 21
921.1891220000001
 31
0.0
  0
LINE
  5
225
330
1F
100
AcDbEntity
  8
Layer1
  6
Continuous
 62
     2
100
AcDbLine
 10
466.783858
 20
931.7091220000001
 30
0.0
 11
541.987058
 21
931.7091220000001
 31
0.0
  0
INSERT
  5
22F
330
1F
100
AcDbEntity
  8
Layer1
  6
Continuous
 62
     3
100
AcDbBlockReference
  2
DIM_12
 10
1591.987058
 20
1517.82725
 30
0.0
  0
LINE
  5
230
330
1F
100
AcDbEntity
  8
Layer1
  6
Continuous
 62
     3
100
AcDbLine
 10
975.1681299999999
 20
1691.059526
 30
0.0
 11
986.6322310000001
 21
1679.203119
 31
0.0
  0
LINE
  5
231
330
1F
100
AcDbEntity
  8
Layer1
  6
Continuous
 62
     3
100
AcDbLine
 10
986.6322310000001
 20
1679.203119
 30
0.0
 11
891.2440769999999
 21
1844.420248
 31
0.0
  0
LINE
  5
232
330
1F
100
AcDbEntity
  8
Layer1
  6
Continuous
 62
     3
100
AcDbLine
 10
891.2440769999999
 20
1844.420248
 30
0.0
 11
638.913369
 21
1844.420248
 31
0.0
  0
TEXT
  5
233
330
1F
100
AcDbEntity
  8
Layer1
  6
Continuous
 62
     4
100
AcDbText
 10
638.913369
 20
1848.420248
 30
0.0
 40
28.0
  1
サントップドーム Ｂ型
 50
360.0
 41
0.819256
  7
BIGFONT
100
AcDbText
  0
LINE
  5
234
330
1F
100
AcDbEntity
  8
Layer1
  6
Continuous
 62
     3
100
AcDbLine
 10
528.9134389999999
 20
1073.734468
 30
0.0
 11
540.377541
 21
1061.878062
 31
0.0
  0
LINE
  5
235
330
1F
100
AcDbEntity
  8
Layer1
  6
Continuous
 62
     3
100
AcDbLine
 10
540.377541
 20
1061.878062
 30
0.0
 11
411.333156
 21
1285.389493
 31
0.0
  0
LINE
  5
236
330
1F
100
AcDbEntity
  8
Layer1
  6
Continuous
 62
     3
100
AcDbLine
 10
411.333156
 20
1285.389493
 30
0.0
 11
146.986699
 21
1285.389493
 31
0.0
  0
TEXT
  5
237
330
1F
100
AcDbEntity
  8
Layer1
  6
Continuous
 62
     4
100
AcDbText
 10
146.986699
 20
1289.389493
 30
0.0
 40
28.0
  1
シーリング処理（別途）
 50
360.0
 41
0.8582679999999999
  7
BIGFONT
100
AcDbText
  0
LINE
  5
238
330
1F
100
AcDbEntity
  8
Layer1
  6
Continuous
 62
     3
100
AcDbLine
 10
675.4823679999999
 20
1252.115007
 30
0.0
 11
686.9464699999999
 21
1240.258601
 31
0.0
  0
LINE
  5
239
330
1F
100
AcDbEntity
  8
Layer1
  6
Continuous
 62
     3
100
AcDbLine
 10
686.9464699999999
 20
1240.258601
 30
0.0
 11
486.9918969999999
 21
1586.590079
 31
0.0
  0
LINE
  5
23A
330
1F
100
AcDbEntity
  8
Layer1
  6
Continuous
 62
     3
100
AcDbLine
 10
486.9918969999999
 20
1586.590079
 30
0.0
 11
330.787173
 21
1586.590079
 31
0.0
  0
TEXT
  5
23B
330
1F
100
AcDbEntity
  8
Layer1
  6
Continuous
 62
     4
100
AcDbText
 10
312.9351778
 20
1590.590079
 30
0.0
 40
28.0
  1
アルミガラリ 
 50
360.0
 41
0.796963
  7
BIGFONT
 72
     2
 11
486.9918969999999
 21
1590.590079
 31
0.0
100
AcDbText
  0
LINE
  5
23C
330
1F
100
AcDbEntity
  8
Layer1
  6
PLine1
 62
     6
100
AcDbLine
 10
1591.987058
 20
1025.456733
 30
0.0
 11
1741.987058
 21
875.456733
 31
0.0
  0
LINE
  5
23D
330
1F
100
AcDbEntity
  8
Layer1
  6
PLine1
 62
     6
100
AcDbLine
 10
1741.987058
 20
882.8954970000001
 30
0.0
 11
1591.987058
 21
1032.895497
 31
0.0
  0
LINE
  5
23E
330
1F
100
AcDbEntity
  8
Layer1
  6
PLine1
 62
     6
100
AcDbLine
 10
1591.987058
 20
1040.33426
 30
0.0
 11
1741.987058
 21
890.33426
 31
0.0
  0
LINE
  5
23F
330
1F
100
AcDbEntity
  8
Layer1
  6
Continuous
 62
     6
100
AcDbLine
 10
691.987058
 20
1032.356225
 30
0.0
 11
541.987058
 21
882.356225
 31
0.0
  0
LINE
  5
240
330
1F
100
AcDbEntity
  8
Layer1
  6
Continuous
 62
     6
100
AcDbLine
 10
541.987058
 20
874.9174609999998
 30
0.0
 11
691.987058
 21
1024.917461
 31
0.0
  0
LINE
  5
241
330
1F
100
AcDbEntity
  8
Layer1
  6
Continuous
 62
     6
100
AcDbLine
 10
691.987058
 20
1017.478698
 30
0.0
 11
541.987058
 21
867.478698
 31
0.0
  0
LINE
  5
242
330
1F
100
AcDbEntity
  8
Layer1
  6
Continuous
 62
     6
100
AcDbLine
 10
731.987058
 20
783.0907879999999
 30
0.0
 11
731.987058
 21
1130.693414
 31
0.0
  0
LINE
  5
243
330
1F
100
AcDbEntity
  8
Layer1
  6
Continuous
 62
     3
100
AcDbLine
 10
743.3501629999999
 20
985.0209669999999
 30
0.0
 11
731.886061
 21
996.877373
 31
0.0
  0
LINE
  5
244
330
1F
100
AcDbEntity
  8
Layer1
  6
Continuous
 62
     3
100
AcDbLine
 10
731.886061
 20
996.877373
 30
0.0
 11
769.802547
 21
931.2040939999999
 31
0.0
  0
LINE
  5
245
330
1F
100
AcDbEntity
  8
Layer1
  6
Continuous
 62
     3
100
AcDbLine
 10
769.802547
 20
931.2040939999999
 30
0.0
 11
965.487586
 21
931.2040939999999
 31
0.0
  0
TEXT
  5
246
330
1F
100
AcDbEntity
  8
Layer1
  6
Continuous
 62
     4
100
AcDbText
 10
769.802547
 20
935.204094
 30
0.0
 40
28.0
  1
内装仕上げ （別途）
 41
0.8153539999999999
  7
BIGFONT
100
AcDbText
  0
INSERT
  5
250
330
1F
100
AcDbEntity
  8
Layer1
  6
Continuous
 62
     3
100
AcDbBlockReference
  2
DIM_13
 10
1726.987058
 20
1077.623589
 30
0.0
  0
LINE
  5
251
330
1F
100
AcDbEntity
  8
Layer1
  6
Continuous
 62
     3
100
AcDbLine
 10
1835.688293
 20
1036.909122
 30
0.0
 11
1835.688293
 21
921.1891220000001
 31
0.0
  0
LINE
  5
252
330
1F
100
AcDbEntity
  8
Layer1
  6
Continuous
 62
     2
100
AcDbLine
 10
466.783858
 20
1028.284785
 30
0.0
 11
466.783858
 21
931.7091220000001
 31
0.0
  0
LINE
  5
253
330
1F
100
AcDbEntity
  8
Layer1
  6
Continuous
 62
     3
100
AcDbLine
 10
456.263858
 20
931.7091220000001
 30
0.0
 11
456.263858
 21
1038.105457
 31
0.0
  0
LINE
  5
254
330
1F
100
AcDbEntity
  8
Layer1
  6
PLine1
 62
     2
100
AcDbLine
 10
1591.987058
 20
783.20506
 30
0.0
 11
1591.987058
 21
1054.793122
 31
0.0
  0
LINE
  5
255
330
1F
100
AcDbEntity
  8
Layer1
  6
Continuous
 62
     6
100
AcDbLine
 10
719.487058
 20
783.0907879999999
 30
0.0
 11
719.487058
 21
1130.540802
 31
0.0
  0
LINE
  5
256
330
1F
100
AcDbEntity
  8
Layer1
  6
Continuous
 62
     2
100
AcDbLine
 10
691.987058
 20
1073.325425
 30
0.0
 11
691.987058
 21
783.20506
 31
0.0
  0
LINE
  5
257
330
1F
100
AcDbEntity
  8
Layer1
  6
PLine2
 62
     3
100
AcDbLine
 10
1141.987058
 20
852.7184470000001
 30
0.0
 11
1141.987058
 21
1934.892154
 31
0.0
  0
LINE
  5
258
330
1F
100
AcDbEntity
  8
Layer1
  6
Continuous
 62
     6
100
AcDbLine
 10
1142.043627
 20
1069.730097
 30
0.0
 11
1141.987058
 21
1069.673528
 31
0.0
  0
LINE
  5
259
330
1F
100
AcDbEntity
  8
Layer1
  6
Continuous
 62
     6
100
AcDbLine
 10
1692.561152
 20
1054.618765
 30
0.0
 11
1710.792483
 21
1072.850097
 31
0.0
  0
LINE
  5
25A
330
1F
100
AcDbEntity
  8
Layer1
  6
Continuous
 62
     6
100
AcDbLine
 10
1664.27688
 20
1054.618765
 30
0.0
 11
1682.508212
 21
1072.850097
 31
0.0
  0
LINE
  5
25B
330
1F
100
AcDbEntity
  8
Layer1
  6
Continuous
 62
     6
100
AcDbLine
 10
1635.992609
 20
1054.618765
 30
0.0
 11
1654.223941
 21
1072.850097
 31
0.0
  0
LINE
  5
25C
330
1F
100
AcDbEntity
  8
Layer1
  6
Continuous
 62
     6
100
AcDbLine
 10
1607.708338
 20
1054.618765
 30
0.0
 11
1625.939669
 21
1072.850097
 31
0.0
  0
LINE
  5
25D
330
1F
100
AcDbEntity
  8
Layer1
  6
Continuous
 62
     6
100
AcDbLine
 10
1579.424067
 20
1054.618765
 30
0.0
 11
1597.655398
 21
1072.850097
 31
0.0
  0
LINE
  5
25E
330
1F
100
AcDbEntity
  8
Layer1
  6
Continuous
 62
     6
100
AcDbLine
 10
1551.139795
 20
1054.618765
 30
0.0
 11
1569.371127
 21
1072.850097
 31
0.0
  0
LINE
  5
25F
330
1F
100
AcDbEntity
  8
Layer1
  6
Continuous
 62
     6
100
AcDbLine
 10
1522.855524
 20
1054.618765
 30
0.0
 11
1541.086856
 21
1072.850097
 31
0.0
  0
LINE
  5
260
330
1F
100
AcDbEntity
  8
Layer1
  6
Continuous
 62
     6
100
AcDbLine
 10
1494.571253
 20
1054.618765
 30
0.0
 11
1512.802584
 21
1072.850097
 31
0.0
  0
LINE
  5
261
330
1F
100
AcDbEntity
  8
Layer1
  6
Continuous
 62
     6
100
AcDbLine
 10
1466.286982
 20
1054.618765
 30
0.0
 11
1484.518313
 21
1072.850097
 31
0.0
  0
LINE
  5
262
330
1F
100
AcDbEntity
  8
Layer1
  6
Continuous
 62
     6
100
AcDbLine
 10
1438.00271
 20
1054.618765
 30
0.0
 11
1456.234042
 21
1072.850097
 31
0.0
  0
LINE
  5
263
330
1F
100
AcDbEntity
  8
Layer1
  6
Continuous
 62
     6
100
AcDbLine
 10
1409.718439
 20
1054.618765
 30
0.0
 11
1427.949771
 21
1072.850097
 31
0.0
  0
LINE
  5
264
330
1F
100
AcDbEntity
  8
Layer1
  6
Continuous
 62
     6
100
AcDbLine
 10
1381.434168
 20
1054.618765
 30
0.0
 11
1399.665499
 21
1072.850097
 31
0.0
  0
LINE
  5
265
330
1F
100
AcDbEntity
  8
Layer1
  6
Continuous
 62
     6
100
AcDbLine
 10
1353.149897
 20
1054.618765
 30
0.0
 11
1371.381228
 21
1072.850097
 31
0.0
  0
LINE
  5
266
330
1F
100
AcDbEntity
  8
Layer1
  6
Continuous
 62
     6
100
AcDbLine
 10
1324.865625
 20
1054.618765
 30
0.0
 11
1343.096957
 21
1072.850097
 31
0.0
  0
LINE
  5
267
330
1F
100
AcDbEntity
  8
Layer1
  6
Continuous
 62
     6
100
AcDbLine
 10
1296.581354
 20
1054.618765
 30
0.0
 11
1314.812686
 21
1072.850097
 31
0.0
  0
LINE
  5
268
330
1F
100
AcDbEntity
  8
Layer1
  6
Continuous
 62
     6
100
AcDbLine
 10
1268.297083
 20
1054.618765
 30
0.0
 11
1286.528414
 21
1072.850097
 31
0.0
  0
LINE
  5
269
330
1F
100
AcDbEntity
  8
Layer1
  6
Continuous
 62
     6
100
AcDbLine
 10
1240.012812
 20
1054.618765
 30
0.0
 11
1258.244143
 21
1072.850097
 31
0.0
  0
LINE
  5
26A
330
1F
100
AcDbEntity
  8
Layer1
  6
Continuous
 62
     6
100
AcDbLine
 10
1211.72854
 20
1054.618765
 30
0.0
 11
1229.959872
 21
1072.850097
 31
0.0
  0
LINE
  5
26B
330
1F
100
AcDbEntity
  8
Layer1
  6
Continuous
 62
     6
100
AcDbLine
 10
1183.444269
 20
1054.618765
 30
0.0
 11
1201.675601
 21
1072.850097
 31
0.0
  0
LINE
  5
26C
330
1F
100
AcDbEntity
  8
Layer1
  6
Continuous
 62
     6
100
AcDbLine
 10
1155.159998
 20
1054.618765
 30
0.0
 11
1173.391329
 21
1072.850097
 31
0.0
  0
LINE
  5
26D
330
1F
100
AcDbEntity
  8
Layer1
  6
Continuous
 62
     3
100
AcDbLine
 10
1141.987058
 20
1130.899472
 30
0.0
 11
746.0066559999999
 21
1130.899472
 31
0.0
  0
LINE
  5
26E
330
1F
100
AcDbEntity
  8
Layer1
  6
Continuous
 62
     3
100
AcDbLine
 10
779.399636
 20
1460.530529
 30
0.0
 11
790.863738
 21
1448.674123
 31
0.0
  0
LINE
  5
26F
330
1F
100
AcDbEntity
  8
Layer1
  6
Continuous
 62
     3
100
AcDbLine
 10
790.863738
 20
1448.674123
 30
0.0
 11
603.666422
 21
1772.909386
 31
0.0
  0
LINE
  5
270
330
1F
100
AcDbEntity
  8
Layer1
  6
Continuous
 62
     3
100
AcDbLine
 10
603.666422
 20
1772.909386
 30
0.0
 11
387.382957
 21
1772.909386
 31
0.0
  0
TEXT
  5
271
330
1F
100
AcDbEntity
  8
Layer1
  6
Continuous
 62
     4
100
AcDbText
 10
321.6967750666666
 20
1776.909386
 30
0.0
 40
28.0
  1
ｔ＝６．８網入り硝子
 50
360.0
 41
0.8582679999999999
  7
BIGFONT
 72
     2
 11
603.666422
 21
1776.909386
 31
0.0
100
AcDbText
  0
LINE
  5
272
330
1F
100
AcDbEntity
  8
Layer1
  6
Continuous
 62
     3
100
AcDbLine
 10
645.076662
 20
1142.416946
 30
0.0
 11
656.540763
 21
1130.560539
 31
0.0
  0
LINE
  5
273
330
1F
100
AcDbEntity
  8
Layer1
  6
Continuous
 62
     3
100
AcDbLine
 10
656.540763
 20
1130.560539
 30
0.0
 11
450.0493940000001
 21
1488.214081
 31
0.0
  0
LINE
  5
274
330
1F
100
AcDbEntity
  8
Layer1
  6
Continuous
 62
     3
100
AcDbLine
 10
450.0493940000001
 20
1488.214081
 30
0.0
 11
209.734434
 21
1488.214081
 31
0.0
  0
TEXT
  5
275
330
1F
100
AcDbEntity
  8
Layer1
  6
Continuous
 62
     4
100
AcDbText
 10
209.734434
 20
1492.214081
 30
0.0
 40
28.0
  1
アルミベースｔ＝２．０
 50
360.0
 41
0.8582679999999999
  7
BIGFONT
100
AcDbText
  0
LINE
  5
276
330
1F
100
AcDbEntity
  8
Layer1
  6
Continuous
 62
     3
100
AcDbLine
 10
1747.140078
 20
1054.618765
 30
0.0
 11
1835.688293
 21
1036.909122
 31
0.0
  0
INSERT
  5
280
330
1F
100
AcDbEntity
  8
Layer1
  6
Continuous
 62
     3
100
AcDbBlockReference
  2
DIM_14
 10
638.8310579999999
 20
1439.850097
 30
0.0
  0
INSERT
  5
28A
330
1F
100
AcDbEntity
  8
Layer1
  6
Continuous
 62
     3
100
AcDbBlockReference
  2
DIM_15
 10
443.5048309999999
 20
1127.850097
 30
0.0
  0
LINE
  5
28B
330
1F
100
AcDbEntity
  8
Layer1
  6
Continuous
 62
     3
100
AcDbLine
 10
1141.987058
 20
1132.850097
 30
0.0
 11
1539.987058
 21
1132.850097
 31
0.0
  0
LINE
  5
28C
330
1F
100
AcDbEntity
  8
Layer1
  6
Continuous
 62
     3
100
AcDbLine
 10
1740.987058
 20
1072.850097
 30
0.0
 11
1141.987058
 21
1072.850097
 31
0.0
  0
LINE
  5
28D
330
1F
100
AcDbEntity
  8
Layer1
  6
Continuous
 62
     3
100
AcDbLine
 10
1531.987058
 20
1142.850097
 30
0.0
 11
1141.987058
 21
1142.850097
 31
0.0
  0
LINE
  5
28E
330
1F
100
AcDbEntity
  8
Layer1
  6
Continuous
 62
     3
100
AcDbLine
 10
1531.987058
 20
1159.150097
 30
0.0
 11
1141.987058
 21
1159.150097
 31
0.0
  0
LINE
  5
28F
330
1F
100
AcDbEntity
  8
Layer1
  6
Continuous
 62
     3
100
AcDbLine
 10
1531.987058
 20
1211.350097
 30
0.0
 11
1141.987058
 21
1211.350097
 31
0.0
  0
LINE
  5
290
330
1F
100
AcDbEntity
  8
Layer1
  6
Continuous
 62
     3
100
AcDbLine
 10
1531.987058
 20
1227.130097
 30
0.0
 11
1141.987058
 21
1227.130097
 31
0.0
  0
LINE
  5
291
330
1F
100
AcDbEntity
  8
Layer1
  6
Continuous
 62
     3
100
AcDbLine
 10
1531.987058
 20
1279.850097
 30
0.0
 11
1141.987058
 21
1279.850097
 31
0.0
  0
LINE
  5
292
330
1F
100
AcDbEntity
  8
Layer1
  6
Continuous
 62
     3
100
AcDbLine
 10
1531.987058
 20
1295.630097
 30
0.0
 11
1141.987058
 21
1295.630097
 31
0.0
  0
LINE
  5
293
330
1F
100
AcDbEntity
  8
Layer1
  6
Continuous
 62
     3
100
AcDbLine
 10
1531.987058
 20
1348.350097
 30
0.0
 11
1141.987058
 21
1348.350097
 31
0.0
  0
LINE
  5
294
330
1F
100
AcDbEntity
  8
Layer1
  6
Continuous
 62
     3
100
AcDbLine
 10
1531.987058
 20
1364.744585
 30
0.0
 11
1141.987058
 21
1364.744585
 31
0.0
  0
LINE
  5
295
330
1F
100
AcDbEntity
  8
Layer1
  6
Continuous
 62
     3
100
AcDbLine
 10
641.987058
 20
1427.850097
 30
0.0
 11
643.987058
 21
1427.850097
 31
0.0
  0
ARC
  5
296
330
1F
100
AcDbEntity
  8
Layer1
  6
Continuous
 62
     3
100
AcDbCircle
 10
642.987058
 20
1438.850097
 30
0.0
 40
1.000000000309102
100
AcDbArc
 50
90.0
 51
180.0
  0
LINE
  5
297
330
1F
100
AcDbEntity
  8
Layer1
  6
Continuous
 62
     3
100
AcDbLine
 10
641.987058
 20
1427.850097
 30
0.0
 11
641.987058
 21
1438.850097
 31
0.0
  0
LINE
  5
298
330
1F
100
AcDbEntity
  8
Layer1
  6
PLine2
 62
     3
100
AcDbLine
 10
656.987058
 20
1472.0391
 30
0.0
 11
656.987058
 21
1405.05527
 31
0.0
  0
ARC
  5
299
330
1F
100
AcDbEntity
  8
Layer1
  6
Continuous
 62
     2
100
AcDbCircle
 10
744.987058
 20
1438.850097
 30
0.0
 40
1.000000000140687
100
AcDbArc
 50
0.0
 51
90.0
  0
LINE
  5
29A
330
1F
100
AcDbEntity
  8
Layer1
  6
Continuous
 62
     3
100
AcDbLine
 10
745.987058
 20
1131.874542
 30
0.0
 11
745.987058
 21
1438.850097
 31
0.0
  0
LINE
  5
29B
330
1F
100
AcDbEntity
  8
Layer1
  6
Continuous
 62
     3
100
AcDbLine
 10
642.987058
 20
1439.850097
 30
0.0
 11
744.987058
 21
1439.850097
 31
0.0
  0
LINE
  5
29C
330
1F
100
AcDbEntity
  8
Layer1
  6
Continuous
 62
     4
100
AcDbLine
 10
679.987058
 20
1142.850097
 30
0.0
 11
679.987058
 21
1159.244585
 31
0.0
  0
LINE
  5
29D
330
1F
100
AcDbEntity
  8
Layer1
  6
Continuous
 62
     4
100
AcDbLine
 10
741.987058
 20
1218.350097
 30
0.0
 11
684.8996509999999
 21
1161.723072
 31
0.0
  0
LINE
  5
29E
330
1F
100
AcDbEntity
  8
Layer1
  6
Continuous
 62
     4
100
AcDbLine
 10
741.987058
 20
1232.350097
 30
0.0
 11
741.987058
 21
1216.570097
 31
0.0
  0
LINE
  5
29F
330
1F
100
AcDbEntity
  8
Layer1
  6
Continuous
 62
     4
100
AcDbLine
 10
679.987058
 20
1142.850097
 30
0.0
 11
681.670258
 21
1142.850097
 31
0.0
  0
LINE
  5
2A0
330
1F
100
AcDbEntity
  8
Layer1
  6
Continuous
 62
     4
100
AcDbLine
 10
740.287058
 20
1230.650097
 30
0.0
 11
740.287058
 21
1221.575
 31
0.0
  0
LINE
  5
2A1
330
1F
100
AcDbEntity
  8
Layer1
  6
Continuous
 62
     4
100
AcDbLine
 10
573.5118499999999
 20
1411.424497
 30
0.0
 11
568.893047
 21
1411.424497
 31
0.0
  0
LINE
  5
2A2
330
1F
100
AcDbEntity
  8
Layer1
  6
Continuous
 62
     3
100
AcDbLine
 10
743.987058
 20
1132.850097
 30
0.0
 11
743.987058
 21
1437.850097
 31
0.0
  0
LINE
  5
2A3
330
1F
100
AcDbEntity
  8
Layer1
  6
Continuous
 62
     3
100
AcDbLine
 10
677.987058
 20
1437.430497
 30
0.0
 11
677.987058
 21
1131.216513
 31
0.0
  0
LINE
  5
2A4
330
1F
100
AcDbEntity
  8
Layer1
  6
Continuous
 62
     3
100
AcDbLine
 10
741.987058
 20
1423.850097
 30
0.0
 11
741.987058
 21
1132.800097
 31
0.0
  0
LINE
  5
2A5
330
1F
100
AcDbEntity
  8
Layer1
  6
Continuous
 62
     3
100
AcDbLine
 10
542.962066
 20
1127.874472
 30
0.0
 11
743.987058
 21
1132.850097
 31
0.0
  0
ARC
  5
2A6
330
1F
100
AcDbEntity
  8
Layer1
  6
Continuous
 62
     3
100
AcDbCircle
 10
542.987058
 20
1126.874784
 30
0.0
 40
0.999999999834519
100
AcDbArc
 50
91.432096
 51
180.0
  0
LINE
  5
2A7
330
1F
100
AcDbEntity
  8
Layer1
  6
Continuous
 62
     3
100
AcDbLine
 10
541.987058
 20
1073.850097
 30
0.0
 11
541.987058
 21
1126.874784
 31
0.0
  0
LINE
  5
2A8
330
1F
100
AcDbEntity
  8
Layer1
  6
Continuous
 62
     4
100
AcDbLine
 10
741.987058
 20
1232.350097
 30
0.0
 11
726.987058
 21
1232.350097
 31
0.0
  0
LINE
  5
2A9
330
1F
100
AcDbEntity
  8
Layer1
  6
Continuous
 62
     3
100
AcDbLine
 10
1141.987058
 20
1355.253297
 30
0.0
 11
776.987058
 21
1355.253297
 31
0.0
  0
LINE
  5
2AA
330
1F
100
AcDbEntity
  8
Layer1
  6
Continuous
 62
     3
100
AcDbLine
 10
776.987058
 20
1369.350097
 30
0.0
 11
1141.987058
 21
1369.350097
 31
0.0
  0
LINE
  5
2AB
330
1F
100
AcDbEntity
  8
Layer1
  6
Continuous
 62
     3
100
AcDbLine
 10
776.987058
 20
1409.850097
 30
0.0
 11
776.987058
 21
1232.350097
 31
0.0
  0
LINE
  5
2AC
330
1F
100
AcDbEntity
  8
Layer1
  6
Continuous
 62
     3
100
AcDbLine
 10
1141.987058
 20
1409.850097
 30
0.0
 11
743.987058
 21
1409.850097
 31
0.0
  0
LINE
  5
2AD
330
1F
100
AcDbEntity
  8
Layer1
  6
Continuous
 62
     3
100
AcDbLine
 10
741.987058
 20
1232.350097
 30
0.0
 11
1142.423787
 21
1232.350097
 31
0.0
  0
LINE
  5
2AE
330
1F
100
AcDbEntity
  8
Layer1
  6
Continuous
 62
     3
100
AcDbLine
 10
745.987058
 20
1439.850097
 30
0.0
 11
1141.987058
 21
1439.850097
 31
0.0
  0
LINE
  5
2AF
330
1F
100
AcDbEntity
  8
Layer1
  6
Continuous
 62
     3
100
AcDbLine
 10
1835.688293
 20
1036.909122
 30
0.0
 11
1141.987058
 21
1036.909122
 31
0.0
  0
LINE
  5
2B0
330
1F
100
AcDbEntity
  8
Layer1
  6
Continuous
 62
     3
100
AcDbLine
 10
1747.140078
 20
1054.618765
 30
0.0
 11
1142.852891
 21
1054.618765
 31
0.0
  0
LINE
  5
2B1
330
1F
100
AcDbEntity
  8
Layer1
  6
Continuous
 62
     2
100
AcDbLine
 10
466.783858
 20
1028.284785
 30
0.0
 11
691.987058
 21
1073.325425
 31
0.0
  0
ARC
  5
2B2
330
1F
100
AcDbEntity
  8
Layer1
  6
Continuous
 62
     3
100
AcDbCircle
 10
639.357058
 20
1091.182038
 30
0.0
 40
3.719381669108883
100
AcDbArc
 50
45.0
 51
135.0
  0
ARC
  5
2B3
330
1F
100
AcDbEntity
  8
Layer1
  6
Continuous
 62
     3
100
AcDbCircle
 10
634.097058
 20
1096.442038
 30
0.0
 40
3.719381669004291
100
AcDbArc
 50
225.0
 51
315.0
  0
ARC
  5
2B4
330
1F
100
AcDbEntity
  8
Layer1
  6
Continuous
 62
     3
100
AcDbCircle
 10
634.097058
 20
1091.182038
 30
0.0
 40
3.719381669005542
100
AcDbArc
 50
45.0
 51
135.0
  0
LINE
  5
2B5
330
1F
100
AcDbEntity
  8
Layer1
  6
Continuous
 62
     3
100
AcDbLine
 10
641.987058
 20
1004.407571
 30
0.0
 11
641.987058
 21
1093.812038
 31
0.0
  0
LINE
  5
2B6
330
1F
100
AcDbEntity
  8
Layer1
  6
Continuous
 62
     3
100
AcDbLine
 10
631.4670579999999
 20
1004.407571
 30
0.0
 11
631.4670579999999
 21
1093.812038
 31
0.0
  0
LINE
  5
2B7
330
1F
100
AcDbEntity
  8
Layer1
  6
Continuous
 62
     4
100
AcDbLine
 10
568.893047
 20
1411.424497
 30
0.0
 11
588.811632
 21
1445.924497
 31
0.0
  0
ARC
  5
2B8
330
1F
100
AcDbEntity
  8
Layer1
  6
Continuous
 62
     4
100
AcDbCircle
 10
598.3379110000001
 20
1440.424497
 30
0.0
 40
10.99999999999521
100
AcDbArc
 50
90.0
 51
150.0
  0
LINE
  5
2B9
330
1F
100
AcDbEntity
  8
Layer1
  6
Continuous
 62
     4
100
AcDbLine
 10
598.3379110000001
 20
1447.424497
 30
0.0
 11
688.1148289999999
 21
1447.424497
 31
0.0
  0
LINE
  5
2BA
330
1F
100
AcDbEntity
  8
Layer1
  6
Continuous
 62
     4
100
AcDbLine
 10
598.3379110000001
 20
1451.424497
 30
0.0
 11
688.1148289999999
 21
1451.424497
 31
0.0
  0
LINE
  5
2BB
330
1F
100
AcDbEntity
  8
Layer1
  6
Continuous
 62
     6
100
AcDbLine
 10
669.0334749999999
 20
1444.590018
 30
0.0
 11
664.2935539999999
 21
1439.850097
 31
0.0
  0
LINE
  5
2BC
330
1F
100
AcDbEntity
  8
Layer1
  6
Continuous
 62
     6
100
AcDbLine
 10
645.8894749999999
 20
1439.850097
 30
0.0
 11
645.8894749999999
 21
1447.424497
 31
0.0
  0
LINE
  5
2BD
330
1F
100
AcDbEntity
  8
Layer1
  6
Continuous
 62
     6
100
AcDbLine
 10
645.8894749999999
 20
1444.804545
 30
0.0
 11
648.5094269999999
 21
1447.424497
 31
0.0
  0
LINE
  5
2BE
330
1F
100
AcDbEntity
  8
Layer1
  6
Continuous
 62
     6
100
AcDbLine
 10
655.2164199999999
 20
1439.850097
 30
0.0
 11
647.6420199999999
 21
1447.424497
 31
0.0
  0
LINE
  5
2BF
330
1F
100
AcDbEntity
  8
Layer1
  6
Continuous
 62
     6
100
AcDbLine
 10
648.8811929999999
 20
1439.850097
 30
0.0
 11
656.455593
 21
1447.424497
 31
0.0
  0
LINE
  5
2C0
330
1F
100
AcDbEntity
  8
Layer1
  6
Continuous
 62
     6
100
AcDbLine
 10
662.9759299999999
 20
1439.850097
 30
0.0
 11
655.4015299999999
 21
1447.424497
 31
0.0
  0
LINE
  5
2C1
330
1F
100
AcDbEntity
  8
Layer1
  6
Continuous
 62
     6
100
AcDbLine
 10
656.667368
 20
1439.850097
 30
0.0
 11
664.241768
 21
1447.424497
 31
0.0
  0
LINE
  5
2C2
330
1F
100
AcDbEntity
  8
Layer1
  6
Continuous
 62
     6
100
AcDbLine
 10
669.0334749999999
 20
1441.818713
 30
0.0
 11
663.4276909999999
 21
1447.424497
 31
0.0
  0
LINE
  5
2C3
330
1F
100
AcDbEntity
  8
Layer1
  6
Continuous
 62
     6
100
AcDbLine
 10
669.0334749999999
 20
1439.850097
 30
0.0
 11
669.0334749999999
 21
1447.424497
 31
0.0
  0
LINE
  5
2C4
330
1F
100
AcDbEntity
  8
Layer1
  6
Continuous
 62
     3
100
AcDbLine
 10
1741.207888
 20
1127.850097
 30
0.0
 11
1141.987058
 21
1127.850097
 31
0.0
  0
LINE
  5
2C5
330
1F
100
AcDbEntity
  8
Layer1
  6
Continuous
 62
     3
100
AcDbLine
 10
543.987058
 20
1074.850097
 30
0.0
 11
543.987058
 21
1125.903421
 31
0.0
  0
ARC
  5
2C6
330
1F
100
AcDbEntity
  8
Layer1
  6
Continuous
 62
     3
100
AcDbCircle
 10
555.9870580000001
 20
1073.850097
 30
0.0
 40
1.000000000054872
100
AcDbArc
 50
0.0
 51
90.0
  0
LINE
  5
2C7
330
1F
100
AcDbEntity
  8
Layer1
  6
Continuous
 62
     3
100
AcDbLine
 10
556.987058
 20
1057.850097
 30
0.0
 11
556.987058
 21
1073.850097
 31
0.0
  0
ARC
  5
2C8
330
1F
100
AcDbEntity
  8
Layer1
  6
Continuous
 62
     3
100
AcDbCircle
 10
542.987058
 20
1073.850097
 30
0.0
 40
1.000000000094425
100
AcDbArc
 50
180.0
 51
270.0
  0
LINE
  5
2C9
330
1F
100
AcDbEntity
  8
Layer1
  6
Continuous
 62
     3
100
AcDbLine
 10
554.987058
 20
1072.850097
 30
0.0
 11
542.987058
 21
1072.850097
 31
0.0
  0
LINE
  5
2CA
330
1F
100
AcDbEntity
  8
Layer1
  6
Continuous
 62
     3
100
AcDbLine
 10
543.987058
 20
1074.850097
 30
0.0
 11
555.9870580000001
 21
1074.850097
 31
0.0
  0
LINE
  5
2CB
330
1F
100
AcDbEntity
  8
Layer1
  6
Continuous
 62
     3
100
AcDbLine
 10
554.987058
 20
1072.850097
 30
0.0
 11
554.987058
 21
1057.850097
 31
0.0
  0
LINE
  5
2CC
330
1F
100
AcDbEntity
  8
Layer1
  6
Continuous
 62
     3
100
AcDbLine
 10
554.987058
 20
1057.850097
 30
0.0
 11
556.987058
 21
1057.850097
 31
0.0
  0
ARC
  5
2CD
330
1F
100
AcDbEntity
  8
Layer1
  6
Continuous
 62
     3
100
AcDbCircle
 10
744.987058
 20
1131.874542
 30
0.0
 40
1.000000000238663
100
AcDbArc
 50
271.417854
 51
0.0
  0
LINE
  5
2CE
330
1F
100
AcDbEntity
  8
Layer1
  6
Continuous
 62
     3
100
AcDbLine
 10
543.987058
 20
1125.899229
 30
0.0
 11
745.0118019999999
 21
1130.874848
 31
0.0
  0
LINE
  5
2CF
330
1F
100
AcDbEntity
  8
Layer1
  6
Continuous
 62
     3
100
AcDbLine
 10
643.987058
 20
1437.850097
 30
0.0
 11
743.987058
 21
1437.850097
 31
0.0
  0
LINE
  5
2D0
330
1F
100
AcDbEntity
  8
Layer1
  6
Continuous
 62
     3
100
AcDbLine
 10
643.987058
 20
1427.850097
 30
0.0
 11
643.987058
 21
1437.850097
 31
0.0
  0
LINE
  5
2D1
330
1F
100
AcDbEntity
  8
Layer1
  6
Continuous
 62
     4
100
AcDbLine
 10
573.5118499999999
 20
1411.424497
 30
0.0
 11
592.275733
 21
1443.924497
 31
0.0
  0
ARC
  5
2D2
330
1F
100
AcDbEntity
  8
Layer1
  6
Continuous
 62
     3
100
AcDbCircle
 10
656.987058
 20
1451.170081
 30
0.0
 40
9.754415587726272
100
AcDbArc
 50
65.790724
 51
114.209276
  0
ARC
  5
2D3
330
1F
100
AcDbEntity
  8
Layer1
  6
Continuous
 62
     3
100
AcDbCircle
 10
662.5591749999999
 20
1459.063149
 30
0.0
 40
1.865081654753408
100
AcDbArc
 50
93.62604000000001
 51
147.449869
  0
LINE
  5
2D4
330
1F
100
AcDbEntity
  8
Layer1
  6
Continuous
 62
     3
100
AcDbLine
 10
649.4815049999999
 20
1455.424497
 30
0.0
 11
664.492612
 21
1455.424497
 31
0.0
  0
LINE
  5
2D5
330
1F
100
AcDbEntity
  8
Layer1
  6
Continuous
 62
     3
100
AcDbLine
 10
652.987058
 20
1455.424497
 30
0.0
 11
652.987058
 21
1460.066632
 31
0.0
  0
LINE
  5
2D6
330
1F
100
AcDbEntity
  8
Layer1
  6
Continuous
 62
     3
100
AcDbLine
 10
650.487058
 20
1460.924497
 30
0.0
 11
656.987058
 21
1460.924497
 31
0.0
  0
LINE
  5
2D7
330
1F
100
AcDbEntity
  8
Layer1
  6
Continuous
 62
     3
100
AcDbLine
 10
664.492612
 20
1455.424497
 30
0.0
 11
664.492612
 21
1460.34394
 31
0.0
  0
LINE
  5
2D8
330
1F
100
AcDbEntity
  8
Layer1
  6
Continuous
 62
     3
100
AcDbLine
 10
660.987058
 20
1455.424497
 30
0.0
 11
660.987058
 21
1460.066632
 31
0.0
  0
LINE
  5
2D9
330
1F
100
AcDbEntity
  8
Layer1
  6
Continuous
 62
     3
100
AcDbLine
 10
663.487058
 20
1460.924497
 30
0.0
 11
656.987058
 21
1460.924497
 31
0.0
  0
LINE
  5
2DA
330
1F
100
AcDbEntity
  8
Layer1
  6
Continuous
 62
     3
100
AcDbLine
 10
649.4815049999999
 20
1455.424497
 30
0.0
 11
649.4815049999999
 21
1460.34394
 31
0.0
  0
LINE
  5
2DB
330
1F
100
AcDbEntity
  8
Layer1
  6
Continuous
 62
     3
100
AcDbLine
 10
649.4815049999999
 20
1460.34394
 30
0.0
 11
650.487058
 21
1460.924497
 31
0.0
  0
LINE
  5
2DC
330
1F
100
AcDbEntity
  8
Layer1
  6
Continuous
 62
     3
100
AcDbLine
 10
664.492612
 20
1460.34394
 30
0.0
 11
663.487058
 21
1460.924497
 31
0.0
  0
ARC
  5
2DD
330
1F
100
AcDbEntity
  8
Layer1
  6
Continuous
 62
     3
100
AcDbCircle
 10
651.4149419999999
 20
1459.063149
 30
0.0
 40
1.865081654417318
100
AcDbArc
 50
32.550131
 51
86.37396
  0
ARC
  5
2DE
330
1F
100
AcDbEntity
  8
Layer1
  6
Continuous
 62
     3
100
AcDbCircle
 10
656.987058
 20
1441.104512
 30
0.0
 40
9.754415587799712
100
AcDbArc
 50
245.790724
 51
294.209276
  0
ARC
  5
2DF
330
1F
100
AcDbEntity
  8
Layer1
  6
Continuous
 62
     3
100
AcDbCircle
 10
662.5591749999999
 20
1433.211445
 30
0.0
 40
1.865081654672399
100
AcDbArc
 50
212.550131
 51
266.37396
  0
LINE
  5
2E0
330
1F
100
AcDbEntity
  8
Layer1
  6
Continuous
 62
     3
100
AcDbLine
 10
649.4815049999999
 20
1437.850097
 30
0.0
 11
664.492612
 21
1437.850097
 31
0.0
  0
LINE
  5
2E1
330
1F
100
AcDbEntity
  8
Layer1
  6
Continuous
 62
     3
100
AcDbLine
 10
652.987058
 20
1437.850097
 30
0.0
 11
652.987058
 21
1432.207961
 31
0.0
  0
LINE
  5
2E2
330
1F
100
AcDbEntity
  8
Layer1
  6
Continuous
 62
     3
100
AcDbLine
 10
650.487058
 20
1431.350097
 30
0.0
 11
656.987058
 21
1431.350097
 31
0.0
  0
LINE
  5
2E3
330
1F
100
AcDbEntity
  8
Layer1
  6
Continuous
 62
     3
100
AcDbLine
 10
664.492612
 20
1437.850097
 30
0.0
 11
664.492612
 21
1431.930653
 31
0.0
  0
LINE
  5
2E4
330
1F
100
AcDbEntity
  8
Layer1
  6
Continuous
 62
     3
100
AcDbLine
 10
660.987058
 20
1437.850097
 30
0.0
 11
660.987058
 21
1432.207961
 31
0.0
  0
LINE
  5
2E5
330
1F
100
AcDbEntity
  8
Layer1
  6
Continuous
 62
     3
100
AcDbLine
 10
663.487058
 20
1431.350097
 30
0.0
 11
656.987058
 21
1431.350097
 31
0.0
  0
LINE
  5
2E6
330
1F
100
AcDbEntity
  8
Layer1
  6
Continuous
 62
     3
100
AcDbLine
 10
649.4815049999999
 20
1437.850097
 30
0.0
 11
649.4815049999999
 21
1431.930653
 31
0.0
  0
LINE
  5
2E7
330
1F
100
AcDbEntity
  8
Layer1
  6
Continuous
 62
     3
100
AcDbLine
 10
649.4815049999999
 20
1431.930653
 30
0.0
 11
650.487058
 21
1431.350097
 31
0.0
  0
LINE
  5
2E8
330
1F
100
AcDbEntity
  8
Layer1
  6
Continuous
 62
     3
100
AcDbLine
 10
664.492612
 20
1431.930653
 30
0.0
 11
663.487058
 21
1431.350097
 31
0.0
  0
ARC
  5
2E9
330
1F
100
AcDbEntity
  8
Layer1
  6
Continuous
 62
     3
100
AcDbCircle
 10
651.4149419999999
 20
1433.211445
 30
0.0
 40
1.865081654767214
100
AcDbArc
 50
273.62604
 51
327.449869
  0
LINE
  5
2EA
330
1F
100
AcDbEntity
  8
Layer1
  6
Continuous
 62
     4
100
AcDbLine
 10
679.987058
 20
1159.244585
 30
0.0
 11
736.75034
 21
1215.550099
 31
0.0
  0
LINE
  5
2EB
330
1F
100
AcDbEntity
  8
Layer1
  6
Continuous
 62
     4
100
AcDbLine
 10
679.987058
 20
1142.850097
 30
0.0
 11
684.9870580000001
 21
1142.850097
 31
0.0
  0
LINE
  5
2EC
330
1F
100
AcDbEntity
  8
Layer1
  6
Continuous
 62
     4
100
AcDbLine
 10
684.9870580000001
 20
1142.850097
 30
0.0
 11
684.9870580000001
 21
1144.550097
 31
0.0
  0
LINE
  5
2ED
330
1F
100
AcDbEntity
  8
Layer1
  6
Continuous
 62
     4
100
AcDbLine
 10
684.9870580000001
 20
1144.550097
 30
0.0
 11
681.6870579999999
 21
1144.550097
 31
0.0
  0
LINE
  5
2EE
330
1F
100
AcDbEntity
  8
Layer1
  6
Continuous
 62
     4
100
AcDbLine
 10
681.6870579999999
 20
1153.793547
 30
0.0
 11
681.6870579999999
 21
1144.550097
 31
0.0
  0
ARC
  5
2F4
330
1F
100
AcDbEntity
  8
Layer1
  6
Continuous
 62
     4
100
AcDbCircle
 10
736.151738
 20
1216.153568
 30
0.0
 40
0.8500000012681885
100
AcDbArc
 50
314.768035
 51
349.336296
  0
LINE
  5
2FC
330
1F
100
AcDbEntity
  8
Layer1
  6
Continuous
 62
     2
100
AcDbLine
 10
741.987058
 20
1423.850097
 30
0.0
 11
743.987058
 21
1423.850097
 31
0.0
  0
LINE
  5
302
330
1F
100
AcDbEntity
  8
Layer1
  6
Continuous
 62
     4
100
AcDbLine
 10
728.6870579999999
 20
1299.150097
 30
0.0
 11
740.303858
 21
1299.150097
 31
0.0
  0
LINE
  5
303
330
1F
100
AcDbEntity
  8
Layer1
  6
Continuous
 62
     4
100
AcDbLine
 10
726.987058
 20
1300.850097
 30
0.0
 11
726.987058
 21
1295.850097
 31
0.0
  0
LINE
  5
304
330
1F
100
AcDbEntity
  8
Layer1
  6
Continuous
 62
     4
100
AcDbLine
 10
728.6870579999999
 20
1295.850097
 30
0.0
 11
728.6870579999999
 21
1299.150097
 31
0.0
  0
LINE
  5
305
330
1F
100
AcDbEntity
  8
Layer1
  6
Continuous
 62
     4
100
AcDbLine
 10
726.987058
 20
1295.850097
 30
0.0
 11
728.6870579999999
 21
1295.850097
 31
0.0
  0
LINE
  5
306
330
1F
100
AcDbEntity
  8
Layer1
  6
Continuous
 62
     4
100
AcDbLine
 10
741.987058
 20
1286.850097
 30
0.0
 11
741.987058
 21
1300.850097
 31
0.0
  0
LINE
  5
307
330
1F
100
AcDbEntity
  8
Layer1
  6
Continuous
 62
     4
100
AcDbLine
 10
679.987058
 20
1211.350097
 30
0.0
 11
679.987058
 21
1227.744585
 31
0.0
  0
LINE
  5
308
330
1F
100
AcDbEntity
  8
Layer1
  6
Continuous
 62
     4
100
AcDbLine
 10
741.987058
 20
1286.850097
 30
0.0
 11
684.8996509999999
 21
1230.223072
 31
0.0
  0
LINE
  5
309
330
1F
100
AcDbEntity
  8
Layer1
  6
Continuous
 62
     4
100
AcDbLine
 10
741.987058
 20
1300.850097
 30
0.0
 11
741.987058
 21
1285.070097
 31
0.0
  0
LINE
  5
30A
330
1F
100
AcDbEntity
  8
Layer1
  6
Continuous
 62
     4
100
AcDbLine
 10
679.987058
 20
1211.350097
 30
0.0
 11
681.670258
 21
1211.350097
 31
0.0
  0
LINE
  5
30B
330
1F
100
AcDbEntity
  8
Layer1
  6
Continuous
 62
     4
100
AcDbLine
 10
740.287058
 20
1299.150097
 30
0.0
 11
740.287058
 21
1290.075
 31
0.0
  0
LINE
  5
30C
330
1F
100
AcDbEntity
  8
Layer1
  6
Continuous
 62
     4
100
AcDbLine
 10
741.987058
 20
1300.850097
 30
0.0
 11
726.987058
 21
1300.850097
 31
0.0
  0
LINE
  5
30D
330
1F
100
AcDbEntity
  8
Layer1
  6
Continuous
 62
     4
100
AcDbLine
 10
679.987058
 20
1227.744585
 30
0.0
 11
736.75034
 21
1284.050099
 31
0.0
  0
LINE
  5
30E
330
1F
100
AcDbEntity
  8
Layer1
  6
Continuous
 62
     4
100
AcDbLine
 10
679.987058
 20
1211.350097
 30
0.0
 11
684.9870580000001
 21
1211.350097
 31
0.0
  0
LINE
  5
30F
330
1F
100
AcDbEntity
  8
Layer1
  6
Continuous
 62
     4
100
AcDbLine
 10
684.9870580000001
 20
1211.350097
 30
0.0
 11
684.9870580000001
 21
1213.050097
 31
0.0
  0
LINE
  5
310
330
1F
100
AcDbEntity
  8
Layer1
  6
Continuous
 62
     4
100
AcDbLine
 10
684.9870580000001
 20
1213.050097
 30
0.0
 11
681.6870579999999
 21
1213.050097
 31
0.0
  0
LINE
  5
311
330
1F
100
AcDbEntity
  8
Layer1
  6
Continuous
 62
     4
100
AcDbLine
 10
681.6870579999999
 20
1222.293547
 30
0.0
 11
681.6870579999999
 21
1213.050097
 31
0.0
  0
ARC
  5
317
330
1F
100
AcDbEntity
  8
Layer1
  6
Continuous
 62
     4
100
AcDbCircle
 10
736.151738
 20
1284.653568
 30
0.0
 40
0.8499999986829372
100
AcDbArc
 50
314.768035
 51
349.336296
  0
LINE
  5
320
330
1F
100
AcDbEntity
  8
Layer1
  6
Continuous
 62
     4
100
AcDbLine
 10
728.6870579999999
 20
1367.650097
 30
0.0
 11
740.303858
 21
1367.650097
 31
0.0
  0
LINE
  5
321
330
1F
100
AcDbEntity
  8
Layer1
  6
Continuous
 62
     4
100
AcDbLine
 10
726.987058
 20
1369.350097
 30
0.0
 11
726.987058
 21
1364.350097
 31
0.0
  0
LINE
  5
322
330
1F
100
AcDbEntity
  8
Layer1
  6
Continuous
 62
     4
100
AcDbLine
 10
728.6870579999999
 20
1364.350097
 30
0.0
 11
728.6870579999999
 21
1367.650097
 31
0.0
  0
LINE
  5
323
330
1F
100
AcDbEntity
  8
Layer1
  6
Continuous
 62
     4
100
AcDbLine
 10
726.987058
 20
1364.350097
 30
0.0
 11
728.6870579999999
 21
1364.350097
 31
0.0
  0
LINE
  5
324
330
1F
100
AcDbEntity
  8
Layer1
  6
Continuous
 62
     4
100
AcDbLine
 10
741.987058
 20
1355.350097
 30
0.0
 11
741.987058
 21
1369.350097
 31
0.0
  0
LINE
  5
325
330
1F
100
AcDbEntity
  8
Layer1
  6
Continuous
 62
     4
100
AcDbLine
 10
679.987058
 20
1279.850097
 30
0.0
 11
679.987058
 21
1296.244585
 31
0.0
  0
LINE
  5
326
330
1F
100
AcDbEntity
  8
Layer1
  6
Continuous
 62
     4
100
AcDbLine
 10
741.987058
 20
1355.350097
 30
0.0
 11
684.8996509999999
 21
1298.723072
 31
0.0
  0
LINE
  5
327
330
1F
100
AcDbEntity
  8
Layer1
  6
Continuous
 62
     4
100
AcDbLine
 10
741.987058
 20
1369.350097
 30
0.0
 11
741.987058
 21
1353.570097
 31
0.0
  0
LINE
  5
328
330
1F
100
AcDbEntity
  8
Layer1
  6
Continuous
 62
     4
100
AcDbLine
 10
679.987058
 20
1279.850097
 30
0.0
 11
681.670258
 21
1279.850097
 31
0.0
  0
LINE
  5
329
330
1F
100
AcDbEntity
  8
Layer1
  6
Continuous
 62
     4
100
AcDbLine
 10
740.287058
 20
1367.650097
 30
0.0
 11
740.287058
 21
1358.575
 31
0.0
  0
LINE
  5
32A
330
1F
100
AcDbEntity
  8
Layer1
  6
Continuous
 62
     4
100
AcDbLine
 10
741.987058
 20
1369.350097
 30
0.0
 11
726.987058
 21
1369.350097
 31
0.0
  0
LINE
  5
32B
330
1F
100
AcDbEntity
  8
Layer1
  6
Continuous
 62
     4
100
AcDbLine
 10
679.987058
 20
1296.244585
 30
0.0
 11
736.75034
 21
1352.550099
 31
0.0
  0
LINE
  5
32C
330
1F
100
AcDbEntity
  8
Layer1
  6
Continuous
 62
     4
100
AcDbLine
 10
679.987058
 20
1279.850097
 30
0.0
 11
684.9870580000001
 21
1279.850097
 31
0.0
  0
LINE
  5
32D
330
1F
100
AcDbEntity
  8
Layer1
  6
Continuous
 62
     4
100
AcDbLine
 10
684.9870580000001
 20
1279.850097
 30
0.0
 11
684.9870580000001
 21
1281.550097
 31
0.0
  0
LINE
  5
32E
330
1F
100
AcDbEntity
  8
Layer1
  6
Continuous
 62
     4
100
AcDbLine
 10
684.9870580000001
 20
1281.550097
 30
0.0
 11
681.6870579999999
 21
1281.550097
 31
0.0
  0
LINE
  5
32F
330
1F
100
AcDbEntity
  8
Layer1
  6
Continuous
 62
     4
100
AcDbLine
 10
681.6870579999999
 20
1290.793547
 30
0.0
 11
681.6870579999999
 21
1281.550097
 31
0.0
  0
ARC
  5
335
330
1F
100
AcDbEntity
  8
Layer1
  6
Continuous
 62
     4
100
AcDbCircle
 10
736.151738
 20
1353.153568
 30
0.0
 40
0.850000002654535
100
AcDbArc
 50
314.768035
 51
349.336295
  0
LINE
  5
33E
330
1F
100
AcDbEntity
  8
Layer1
  6
Continuous
 62
     4
100
AcDbLine
 10
728.6870579999999
 20
1436.150097
 30
0.0
 11
740.303858
 21
1436.150097
 31
0.0
  0
LINE
  5
33F
330
1F
100
AcDbEntity
  8
Layer1
  6
Continuous
 62
     4
100
AcDbLine
 10
726.987058
 20
1437.850097
 30
0.0
 11
726.987058
 21
1432.850097
 31
0.0
  0
LINE
  5
340
330
1F
100
AcDbEntity
  8
Layer1
  6
Continuous
 62
     4
100
AcDbLine
 10
728.6870579999999
 20
1432.850097
 30
0.0
 11
728.6870579999999
 21
1436.150097
 31
0.0
  0
LINE
  5
341
330
1F
100
AcDbEntity
  8
Layer1
  6
Continuous
 62
     4
100
AcDbLine
 10
726.987058
 20
1432.850097
 30
0.0
 11
728.6870579999999
 21
1432.850097
 31
0.0
  0
LINE
  5
342
330
1F
100
AcDbEntity
  8
Layer1
  6
Continuous
 62
     4
100
AcDbLine
 10
741.987058
 20
1423.850097
 30
0.0
 11
741.987058
 21
1437.850097
 31
0.0
  0
LINE
  5
343
330
1F
100
AcDbEntity
  8
Layer1
  6
Continuous
 62
     4
100
AcDbLine
 10
679.987058
 20
1348.350097
 30
0.0
 11
679.987058
 21
1364.744585
 31
0.0
  0
LINE
  5
344
330
1F
100
AcDbEntity
  8
Layer1
  6
Continuous
 62
     4
100
AcDbLine
 10
741.987058
 20
1423.850097
 30
0.0
 11
684.8996509999999
 21
1367.223072
 31
0.0
  0
LINE
  5
345
330
1F
100
AcDbEntity
  8
Layer1
  6
Continuous
 62
     4
100
AcDbLine
 10
741.987058
 20
1423.850097
 30
0.0
 11
741.987058
 21
1437.850097
 31
0.0
  0
LINE
  5
346
330
1F
100
AcDbEntity
  8
Layer1
  6
Continuous
 62
     4
100
AcDbLine
 10
679.987058
 20
1348.350097
 30
0.0
 11
681.670258
 21
1348.350097
 31
0.0
  0
LINE
  5
347
330
1F
100
AcDbEntity
  8
Layer1
  6
Continuous
 62
     4
100
AcDbLine
 10
740.287058
 20
1436.150097
 30
0.0
 11
740.287058
 21
1427.075
 31
0.0
  0
LINE
  5
348
330
1F
100
AcDbEntity
  8
Layer1
  6
Continuous
 62
     4
100
AcDbLine
 10
741.987058
 20
1437.850097
 30
0.0
 11
726.987058
 21
1437.850097
 31
0.0
  0
LINE
  5
349
330
1F
100
AcDbEntity
  8
Layer1
  6
Continuous
 62
     4
100
AcDbLine
 10
679.987058
 20
1364.744585
 30
0.0
 11
736.75034
 21
1421.050099
 31
0.0
  0
LINE
  5
34A
330
1F
100
AcDbEntity
  8
Layer1
  6
Continuous
 62
     4
100
AcDbLine
 10
679.987058
 20
1348.350097
 30
0.0
 11
684.9870580000001
 21
1348.350097
 31
0.0
  0
LINE
  5
34B
330
1F
100
AcDbEntity
  8
Layer1
  6
Continuous
 62
     4
100
AcDbLine
 10
684.9870580000001
 20
1348.350097
 30
0.0
 11
684.9870580000001
 21
1350.050097
 31
0.0
  0
LINE
  5
34C
330
1F
100
AcDbEntity
  8
Layer1
  6
Continuous
 62
     4
100
AcDbLine
 10
684.9870580000001
 20
1350.050097
 30
0.0
 11
681.6870579999999
 21
1350.050097
 31
0.0
  0
LINE
  5
34D
330
1F
100
AcDbEntity
  8
Layer1
  6
Continuous
 62
     4
100
AcDbLine
 10
681.6870579999999
 20
1359.293547
 30
0.0
 11
681.6870579999999
 21
1350.050097
 31
0.0
  0
ARC
  5
353
330
1F
100
AcDbEntity
  8
Layer1
  6
Continuous
 62
     4
100
AcDbCircle
 10
736.151738
 20
1421.653568
 30
0.0
 40
0.8500000013254748
100
AcDbArc
 50
314.768035
 51
349.336296
  0
LINE
  5
368
330
1F
100
AcDbEntity
  8
Layer1
  6
Continuous
 62
     3
100
AcDbLine
 10
1141.987058
 20
1286.753297
 30
0.0
 11
776.987058
 21
1286.753297
 31
0.0
  0
LINE
  5
369
330
1F
100
AcDbEntity
  8
Layer1
  6
Continuous
 62
     3
100
AcDbLine
 10
776.987058
 20
1300.850097
 30
0.0
 11
1141.987058
 21
1300.850097
 31
0.0
  0
LINE
  5
36A
330
1F
100
AcDbEntity
  8
Layer1
  6
Continuous
 62
     3
100
AcDbLine
 10
1741.01205
 20
1127.874472
 30
0.0
 11
1539.987058
 21
1132.850097
 31
0.0
  0
ARC
  5
36B
330
1F
100
AcDbEntity
  8
Layer1
  6
Continuous
 62
     3
100
AcDbCircle
 10
1740.987058
 20
1126.874784
 30
0.0
 40
0.9999999995288435
100
AcDbArc
 50
0.0
 51
88.56790399999999
  0
LINE
  5
36C
330
1F
100
AcDbEntity
  8
Layer1
  6
Continuous
 62
     3
100
AcDbLine
 10
1741.987058
 20
1073.850097
 30
0.0
 11
1741.987058
 21
1126.874784
 31
0.0
  0
ARC
  5
36D
330
1F
100
AcDbEntity
  8
Layer1
  6
Continuous
 62
     3
100
AcDbCircle
 10
1740.987058
 20
1073.850097
 30
0.0
 40
1.000000000546249
100
AcDbArc
 50
270.0
 51
0.0
  0
LINE
  5
36E
330
1F
100
AcDbEntity
  8
Layer1
  6
PLine1
 62
     4
100
AcDbLine
 10
1555.287058
 20
1230.650097
 30
0.0
 11
1543.670258
 21
1230.650097
 31
0.0
  0
LINE
  5
36F
330
1F
100
AcDbEntity
  8
Layer1
  6
PLine1
 62
     4
100
AcDbLine
 10
1556.987058
 20
1232.350097
 30
0.0
 11
1556.987058
 21
1227.350097
 31
0.0
  0
LINE
  5
370
330
1F
100
AcDbEntity
  8
Layer1
  6
PLine1
 62
     4
100
AcDbLine
 10
1555.287058
 20
1227.350097
 30
0.0
 11
1555.287058
 21
1230.650097
 31
0.0
  0
LINE
  5
371
330
1F
100
AcDbEntity
  8
Layer1
  6
PLine1
 62
     4
100
AcDbLine
 10
1556.987058
 20
1227.350097
 30
0.0
 11
1555.287058
 21
1227.350097
 31
0.0
  0
LINE
  5
372
330
1F
100
AcDbEntity
  8
Layer1
  6
PLine1
 62
     4
100
AcDbLine
 10
1541.987058
 20
1218.350097
 30
0.0
 11
1541.987058
 21
1232.350097
 31
0.0
  0
LINE
  5
373
330
1F
100
AcDbEntity
  8
Layer1
  6
PLine1
 62
     4
100
AcDbLine
 10
1603.987058
 20
1142.850097
 30
0.0
 11
1603.987058
 21
1159.244585
 31
0.0
  0
LINE
  5
374
330
1F
100
AcDbEntity
  8
Layer1
  6
PLine1
 62
     4
100
AcDbLine
 10
1541.987058
 20
1218.350097
 30
0.0
 11
1599.074466
 21
1161.723072
 31
0.0
  0
LINE
  5
375
330
1F
100
AcDbEntity
  8
Layer1
  6
PLine1
 62
     4
100
AcDbLine
 10
1541.987058
 20
1232.350097
 30
0.0
 11
1541.987058
 21
1216.570097
 31
0.0
  0
LINE
  5
376
330
1F
100
AcDbEntity
  8
Layer1
  6
PLine1
 62
     4
100
AcDbLine
 10
1603.987058
 20
1142.850097
 30
0.0
 11
1602.303858
 21
1142.850097
 31
0.0
  0
LINE
  5
377
330
1F
100
AcDbEntity
  8
Layer1
  6
PLine1
 62
     4
100
AcDbLine
 10
1543.687058
 20
1230.650097
 30
0.0
 11
1543.687058
 21
1221.575
 31
0.0
  0
LINE
  5
378
330
1F
100
AcDbEntity
  8
Layer1
  6
PLine1
 62
     4
100
AcDbLine
 10
1541.987058
 20
1232.350097
 30
0.0
 11
1556.987058
 21
1232.350097
 31
0.0
  0
LINE
  5
379
330
1F
100
AcDbEntity
  8
Layer1
  6
Continuous
 62
     3
100
AcDbLine
 10
1605.987058
 20
1131.216513
 30
0.0
 11
1605.987058
 21
1421.424497
 31
0.0
  0
LINE
  5
37A
330
1F
100
AcDbEntity
  8
Layer1
  6
PLine1
 62
     4
100
AcDbLine
 10
1603.987058
 20
1159.244585
 30
0.0
 11
1547.223776
 21
1215.550099
 31
0.0
  0
LINE
  5
37B
330
1F
100
AcDbEntity
  8
Layer1
  6
PLine1
 62
     4
100
AcDbLine
 10
1603.987058
 20
1142.850097
 30
0.0
 11
1598.987058
 21
1142.850097
 31
0.0
  0
LINE
  5
37C
330
1F
100
AcDbEntity
  8
Layer1
  6
PLine1
 62
     4
100
AcDbLine
 10
1598.987058
 20
1142.850097
 30
0.0
 11
1598.987058
 21
1144.550097
 31
0.0
  0
LINE
  5
37D
330
1F
100
AcDbEntity
  8
Layer1
  6
PLine1
 62
     4
100
AcDbLine
 10
1598.987058
 20
1144.550097
 30
0.0
 11
1602.287058
 21
1144.550097
 31
0.0
  0
LINE
  5
37E
330
1F
100
AcDbEntity
  8
Layer1
  6
PLine1
 62
     4
100
AcDbLine
 10
1602.287058
 20
1153.793547
 30
0.0
 11
1602.287058
 21
1144.550097
 31
0.0
  0
ARC
  5
384
330
1F
100
AcDbEntity
  8
Layer1
  6
PLine1
 62
     4
100
AcDbCircle
 10
1547.822379
 20
1216.153568
 30
0.0
 40
0.8500000047912102
100
AcDbArc
 50
190.663705
 51
225.231965
  0
LINE
  5
391
330
1F
100
AcDbEntity
  8
Layer1
  6
PLine1
 62
     4
100
AcDbLine
 10
1555.287058
 20
1299.150097
 30
0.0
 11
1543.670258
 21
1299.150097
 31
0.0
  0
LINE
  5
392
330
1F
100
AcDbEntity
  8
Layer1
  6
PLine1
 62
     4
100
AcDbLine
 10
1556.987058
 20
1300.850097
 30
0.0
 11
1556.987058
 21
1295.850097
 31
0.0
  0
LINE
  5
393
330
1F
100
AcDbEntity
  8
Layer1
  6
PLine1
 62
     4
100
AcDbLine
 10
1555.287058
 20
1295.850097
 30
0.0
 11
1555.287058
 21
1299.150097
 31
0.0
  0
LINE
  5
394
330
1F
100
AcDbEntity
  8
Layer1
  6
PLine1
 62
     4
100
AcDbLine
 10
1556.987058
 20
1295.850097
 30
0.0
 11
1555.287058
 21
1295.850097
 31
0.0
  0
LINE
  5
395
330
1F
100
AcDbEntity
  8
Layer1
  6
PLine1
 62
     4
100
AcDbLine
 10
1541.987058
 20
1286.850097
 30
0.0
 11
1541.987058
 21
1300.850097
 31
0.0
  0
LINE
  5
396
330
1F
100
AcDbEntity
  8
Layer1
  6
PLine1
 62
     4
100
AcDbLine
 10
1603.987058
 20
1211.350097
 30
0.0
 11
1603.987058
 21
1227.744585
 31
0.0
  0
LINE
  5
397
330
1F
100
AcDbEntity
  8
Layer1
  6
PLine1
 62
     4
100
AcDbLine
 10
1541.987058
 20
1286.850097
 30
0.0
 11
1599.074466
 21
1230.223072
 31
0.0
  0
LINE
  5
398
330
1F
100
AcDbEntity
  8
Layer1
  6
PLine1
 62
     4
100
AcDbLine
 10
1541.987058
 20
1300.850097
 30
0.0
 11
1541.987058
 21
1285.070097
 31
0.0
  0
LINE
  5
399
330
1F
100
AcDbEntity
  8
Layer1
  6
PLine1
 62
     4
100
AcDbLine
 10
1603.987058
 20
1211.350097
 30
0.0
 11
1602.303858
 21
1211.350097
 31
0.0
  0
LINE
  5
39A
330
1F
100
AcDbEntity
  8
Layer1
  6
PLine1
 62
     4
100
AcDbLine
 10
1543.687058
 20
1299.150097
 30
0.0
 11
1543.687058
 21
1290.075
 31
0.0
  0
LINE
  5
39B
330
1F
100
AcDbEntity
  8
Layer1
  6
PLine1
 62
     4
100
AcDbLine
 10
1541.987058
 20
1300.850097
 30
0.0
 11
1556.987058
 21
1300.850097
 31
0.0
  0
LINE
  5
39C
330
1F
100
AcDbEntity
  8
Layer1
  6
PLine1
 62
     4
100
AcDbLine
 10
1603.987058
 20
1227.744585
 30
0.0
 11
1547.223776
 21
1284.050099
 31
0.0
  0
LINE
  5
39D
330
1F
100
AcDbEntity
  8
Layer1
  6
PLine1
 62
     4
100
AcDbLine
 10
1603.987058
 20
1211.350097
 30
0.0
 11
1598.987058
 21
1211.350097
 31
0.0
  0
LINE
  5
39E
330
1F
100
AcDbEntity
  8
Layer1
  6
PLine1
 62
     4
100
AcDbLine
 10
1598.987058
 20
1211.350097
 30
0.0
 11
1598.987058
 21
1213.050097
 31
0.0
  0
LINE
  5
39F
330
1F
100
AcDbEntity
  8
Layer1
  6
PLine1
 62
     4
100
AcDbLine
 10
1598.987058
 20
1213.050097
 30
0.0
 11
1602.287058
 21
1213.050097
 31
0.0
  0
LINE
  5
3A0
330
1F
100
AcDbEntity
  8
Layer1
  6
PLine1
 62
     4
100
AcDbLine
 10
1602.287058
 20
1222.293547
 30
0.0
 11
1602.287058
 21
1213.050097
 31
0.0
  0
ARC
  5
3A6
330
1F
100
AcDbEntity
  8
Layer1
  6
PLine1
 62
     4
100
AcDbCircle
 10
1547.822379
 20
1284.653568
 30
0.0
 40
0.8499999984570107
100
AcDbArc
 50
190.663704
 51
225.231965
  0
LINE
  5
3AF
330
1F
100
AcDbEntity
  8
Layer1
  6
PLine1
 62
     4
100
AcDbLine
 10
1555.287058
 20
1367.650097
 30
0.0
 11
1543.670258
 21
1367.650097
 31
0.0
  0
LINE
  5
3B0
330
1F
100
AcDbEntity
  8
Layer1
  6
PLine1
 62
     4
100
AcDbLine
 10
1556.987058
 20
1369.350097
 30
0.0
 11
1556.987058
 21
1364.350097
 31
0.0
  0
LINE
  5
3B1
330
1F
100
AcDbEntity
  8
Layer1
  6
PLine1
 62
     4
100
AcDbLine
 10
1555.287058
 20
1364.350097
 30
0.0
 11
1555.287058
 21
1367.650097
 31
0.0
  0
LINE
  5
3B2
330
1F
100
AcDbEntity
  8
Layer1
  6
PLine1
 62
     4
100
AcDbLine
 10
1556.987058
 20
1364.350097
 30
0.0
 11
1555.287058
 21
1364.350097
 31
0.0
  0
LINE
  5
3B3
330
1F
100
AcDbEntity
  8
Layer1
  6
PLine1
 62
     4
100
AcDbLine
 10
1541.987058
 20
1355.350097
 30
0.0
 11
1541.987058
 21
1369.350097
 31
0.0
  0
LINE
  5
3B4
330
1F
100
AcDbEntity
  8
Layer1
  6
PLine1
 62
     4
100
AcDbLine
 10
1603.987058
 20
1279.850097
 30
0.0
 11
1603.987058
 21
1296.244585
 31
0.0
  0
LINE
  5
3B5
330
1F
100
AcDbEntity
  8
Layer1
  6
PLine1
 62
     4
100
AcDbLine
 10
1541.987058
 20
1355.350097
 30
0.0
 11
1599.074466
 21
1298.723072
 31
0.0
  0
LINE
  5
3B6
330
1F
100
AcDbEntity
  8
Layer1
  6
PLine1
 62
     4
100
AcDbLine
 10
1541.987058
 20
1369.350097
 30
0.0
 11
1541.987058
 21
1353.570097
 31
0.0
  0
LINE
  5
3B7
330
1F
100
AcDbEntity
  8
Layer1
  6
PLine1
 62
     4
100
AcDbLine
 10
1603.987058
 20
1279.850097
 30
0.0
 11
1602.303858
 21
1279.850097
 31
0.0
  0
LINE
  5
3B8
330
1F
100
AcDbEntity
  8
Layer1
  6
PLine1
 62
     4
100
AcDbLine
 10
1543.687058
 20
1367.650097
 30
0.0
 11
1543.687058
 21
1358.575
 31
0.0
  0
LINE
  5
3B9
330
1F
100
AcDbEntity
  8
Layer1
  6
PLine1
 62
     4
100
AcDbLine
 10
1541.987058
 20
1369.350097
 30
0.0
 11
1556.987058
 21
1369.350097
 31
0.0
  0
LINE
  5
3BA
330
1F
100
AcDbEntity
  8
Layer1
  6
PLine1
 62
     4
100
AcDbLine
 10
1603.987058
 20
1296.244585
 30
0.0
 11
1547.223776
 21
1352.550099
 31
0.0
  0
LINE
  5
3BB
330
1F
100
AcDbEntity
  8
Layer1
  6
PLine1
 62
     4
100
AcDbLine
 10
1603.987058
 20
1279.850097
 30
0.0
 11
1598.987058
 21
1279.850097
 31
0.0
  0
LINE
  5
3BC
330
1F
100
AcDbEntity
  8
Layer1
  6
PLine1
 62
     4
100
AcDbLine
 10
1598.987058
 20
1279.850097
 30
0.0
 11
1598.987058
 21
1281.550097
 31
0.0
  0
LINE
  5
3BD
330
1F
100
AcDbEntity
  8
Layer1
  6
PLine1
 62
     4
100
AcDbLine
 10
1598.987058
 20
1281.550097
 30
0.0
 11
1602.287058
 21
1281.550097
 31
0.0
  0
LINE
  5
3BE
330
1F
100
AcDbEntity
  8
Layer1
  6
PLine1
 62
     4
100
AcDbLine
 10
1602.287058
 20
1290.793547
 30
0.0
 11
1602.287058
 21
1281.550097
 31
0.0
  0
ARC
  5
3C4
330
1F
100
AcDbEntity
  8
Layer1
  6
PLine1
 62
     4
100
AcDbCircle
 10
1547.822379
 20
1353.153568
 30
0.0
 40
0.8500000059699967
100
AcDbArc
 50
190.663705
 51
225.231965
  0
LINE
  5
3CD
330
1F
100
AcDbEntity
  8
Layer1
  6
PLine1
 62
     4
100
AcDbLine
 10
1555.287058
 20
1436.150097
 30
0.0
 11
1543.670258
 21
1436.150097
 31
0.0
  0
LINE
  5
3CE
330
1F
100
AcDbEntity
  8
Layer1
  6
PLine1
 62
     4
100
AcDbLine
 10
1556.987058
 20
1437.850097
 30
0.0
 11
1556.987058
 21
1432.850097
 31
0.0
  0
LINE
  5
3CF
330
1F
100
AcDbEntity
  8
Layer1
  6
PLine1
 62
     4
100
AcDbLine
 10
1555.287058
 20
1432.850097
 30
0.0
 11
1555.287058
 21
1436.150097
 31
0.0
  0
LINE
  5
3D0
330
1F
100
AcDbEntity
  8
Layer1
  6
PLine1
 62
     4
100
AcDbLine
 10
1556.987058
 20
1432.850097
 30
0.0
 11
1555.287058
 21
1432.850097
 31
0.0
  0
LINE
  5
3D1
330
1F
100
AcDbEntity
  8
Layer1
  6
PLine1
 62
     4
100
AcDbLine
 10
1541.987058
 20
1423.850097
 30
0.0
 11
1541.987058
 21
1437.850097
 31
0.0
  0
LINE
  5
3D2
330
1F
100
AcDbEntity
  8
Layer1
  6
PLine1
 62
     4
100
AcDbLine
 10
1603.987058
 20
1348.350097
 30
0.0
 11
1603.987058
 21
1364.744585
 31
0.0
  0
LINE
  5
3D3
330
1F
100
AcDbEntity
  8
Layer1
  6
PLine1
 62
     4
100
AcDbLine
 10
1541.987058
 20
1423.850097
 30
0.0
 11
1599.074466
 21
1367.223072
 31
0.0
  0
LINE
  5
3D4
330
1F
100
AcDbEntity
  8
Layer1
  6
PLine1
 62
     4
100
AcDbLine
 10
1541.987058
 20
1423.850097
 30
0.0
 11
1541.987058
 21
1437.850097
 31
0.0
  0
LINE
  5
3D5
330
1F
100
AcDbEntity
  8
Layer1
  6
PLine1
 62
     4
100
AcDbLine
 10
1603.987058
 20
1348.350097
 30
0.0
 11
1602.303858
 21
1348.350097
 31
0.0
  0
LINE
  5
3D6
330
1F
100
AcDbEntity
  8
Layer1
  6
PLine1
 62
     4
100
AcDbLine
 10
1543.687058
 20
1436.150097
 30
0.0
 11
1543.687058
 21
1427.075
 31
0.0
  0
LINE
  5
3D7
330
1F
100
AcDbEntity
  8
Layer1
  6
PLine1
 62
     4
100
AcDbLine
 10
1541.987058
 20
1437.850097
 30
0.0
 11
1556.987058
 21
1437.850097
 31
0.0
  0
LINE
  5
3D8
330
1F
100
AcDbEntity
  8
Layer1
  6
PLine1
 62
     4
100
AcDbLine
 10
1603.987058
 20
1364.744585
 30
0.0
 11
1547.223776
 21
1421.050099
 31
0.0
  0
LINE
  5
3D9
330
1F
100
AcDbEntity
  8
Layer1
  6
PLine1
 62
     4
100
AcDbLine
 10
1603.987058
 20
1348.350097
 30
0.0
 11
1598.987058
 21
1348.350097
 31
0.0
  0
LINE
  5
3DA
330
1F
100
AcDbEntity
  8
Layer1
  6
PLine1
 62
     4
100
AcDbLine
 10
1598.987058
 20
1348.350097
 30
0.0
 11
1598.987058
 21
1350.050097
 31
0.0
  0
LINE
  5
3DB
330
1F
100
AcDbEntity
  8
Layer1
  6
PLine1
 62
     4
100
AcDbLine
 10
1598.987058
 20
1350.050097
 30
0.0
 11
1602.287058
 21
1350.050097
 31
0.0
  0
LINE
  5
3DC
330
1F
100
AcDbEntity
  8
Layer1
  6
PLine1
 62
     4
100
AcDbLine
 10
1602.287058
 20
1359.293547
 30
0.0
 11
1602.287058
 21
1350.050097
 31
0.0
  0
ARC
  5
3E2
330
1F
100
AcDbEntity
  8
Layer1
  6
PLine1
 62
     4
100
AcDbCircle
 10
1547.822379
 20
1421.653568
 30
0.0
 40
0.8499999990610461
100
AcDbArc
 50
190.663704
 51
225.231965
  0
LINE
  5
3F7
330
1F
100
AcDbEntity
  8
Layer1
  6
Continuous
 62
     3
100
AcDbLine
 10
1541.987058
 20
1132.800097
 30
0.0
 11
1541.987058
 21
1421.424497
 31
0.0
  0
LINE
  5
3F8
330
1F
100
AcDbEntity
  8
Layer1
  6
Continuous
 62
     3
100
AcDbLine
 10
698.113232
 20
1443.73645
 30
0.0
 11
698.113232
 21
1435.735453
 31
0.0
  0
LINE
  5
3F9
330
1F
100
AcDbEntity
  8
Layer1
  6
Continuous
 62
     6
100
AcDbLine
 10
707.442966
 20
1439.850097
 30
0.0
 11
711.4292299999999
 21
1443.836362
 31
0.0
  0
LINE
  5
3FA
330
1F
100
AcDbEntity
  8
Layer1
  6
Continuous
 62
     6
100
AcDbLine
 10
711.4389639999999
 20
1439.850097
 30
0.0
 11
715.425229
 21
1443.836362
 31
0.0
  0
LINE
  5
3FB
330
1F
100
AcDbEntity
  8
Layer1
  6
Continuous
 62
     6
100
AcDbLine
 10
715.650962
 20
1439.850097
 30
0.0
 11
719.6372269999999
 21
1443.836362
 31
0.0
  0
LINE
  5
3FC
330
1F
100
AcDbEntity
  8
Layer1
  6
Continuous
 62
     6
100
AcDbLine
 10
719.8989609999999
 20
1439.850097
 30
0.0
 11
723.8852249999999
 21
1443.836362
 31
0.0
  0
LINE
  5
3FD
330
1F
100
AcDbEntity
  8
Layer1
  6
Continuous
 62
     6
100
AcDbLine
 10
727.113232
 20
1442.31237
 30
0.0
 11
724.6509589999999
 21
1439.850097
 31
0.0
  0
LINE
  5
3FE
330
1F
100
AcDbEntity
  8
Layer1
  6
Continuous
 62
     3
100
AcDbLine
 10
730.0082230000001
 20
1451.850097
 30
0.0
 11
730.0082230000001
 21
1450.650097
 31
0.0
  0
LINE
  5
3FF
330
1F
100
AcDbEntity
  8
Layer1
  6
Continuous
 62
     3
100
AcDbLine
 10
705.613232
 20
1441.350097
 30
0.0
 11
690.613232
 21
1441.350097
 31
0.0
  0
ARC
  5
400
330
1F
100
AcDbEntity
  8
Layer1
  6
Continuous
 62
     3
100
AcDbCircle
 10
706.4132319999999
 20
1452.550097
 30
0.0
 40
0.8000000000531755
100
AcDbArc
 50
90.0
 51
180.0
  0
LINE
  5
401
330
1F
100
AcDbEntity
  8
Layer1
  6
Continuous
 62
     3
100
AcDbLine
 10
705.613232
 20
1441.350097
 30
0.0
 11
705.613232
 21
1452.550097
 31
0.0
  0
LINE
  5
402
330
1F
100
AcDbEntity
  8
Layer1
  6
Continuous
 62
     3
100
AcDbLine
 10
707.1602320000001
 20
1451.850097
 30
0.0
 11
730.613232
 21
1451.850097
 31
0.0
  0
LINE
  5
403
330
1F
100
AcDbEntity
  8
Layer1
  6
Continuous
 62
     3
100
AcDbLine
 10
730.613232
 20
1453.350097
 30
0.0
 11
706.4132319999999
 21
1453.350097
 31
0.0
  0
LINE
  5
404
330
1F
100
AcDbEntity
  8
Layer1
  6
Continuous
 62
     3
100
AcDbLine
 10
707.113232
 20
1451.849097
 30
0.0
 11
707.113232
 21
1440.650097
 31
0.0
  0
ARC
  5
405
330
1F
100
AcDbEntity
  8
Layer1
  6
Continuous
 62
     3
100
AcDbCircle
 10
706.3132320000001
 20
1440.650097
 30
0.0
 40
0.7999999998481843
100
AcDbArc
 50
270.0
 51
0.0
  0
LINE
  5
406
330
1F
100
AcDbEntity
  8
Layer1
  6
Continuous
 62
     6
100
AcDbLine
 10
707.113232
 20
1443.850097
 30
0.0
 11
727.113232
 21
1443.850097
 31
0.0
  0
LINE
  5
407
330
1F
100
AcDbEntity
  8
Layer1
  6
Continuous
 62
     6
100
AcDbLine
 10
727.113232
 20
1443.850097
 30
0.0
 11
727.113232
 21
1439.850097
 31
0.0
  0
LINE
  5
408
330
1F
100
AcDbEntity
  8
Layer1
  6
Continuous
 62
     6
100
AcDbLine
 10
727.113232
 20
1439.850097
 30
0.0
 11
707.113232
 21
1439.850097
 31
0.0
  0
LINE
  5
409
330
1F
100
AcDbEntity
  8
Layer1
  6
Continuous
 62
     6
100
AcDbLine
 10
707.113232
 20
1439.850097
 30
0.0
 11
707.113232
 21
1443.850097
 31
0.0
  0
LINE
  5
40A
330
1F
100
AcDbEntity
  8
Layer1
  6
Continuous
 62
     6
100
AcDbLine
 10
1141.987058
 20
1443.850097
 30
0.0
 11
711.987058
 21
1443.850097
 31
0.0
  0
LINE
  5
40B
330
1F
100
AcDbEntity
  8
Layer1
  6
Continuous
 62
     6
100
AcDbLine
 10
1141.987058
 20
1450.650097
 30
0.0
 11
711.987058
 21
1450.650097
 31
0.0
  0
LINE
  5
40C
330
1F
100
AcDbEntity
  8
Layer1
  6
Continuous
 62
     6
100
AcDbLine
 10
711.987058
 20
1450.650097
 30
0.0
 11
711.987058
 21
1443.850097
 31
0.0
  0
LINE
  5
40D
330
1F
100
AcDbEntity
  8
Layer1
  6
Continuous
 62
     3
100
AcDbLine
 10
730.613232
 20
1453.350097
 30
0.0
 11
730.613232
 21
1451.850097
 31
0.0
  0
LINE
  5
40E
330
1F
100
AcDbEntity
  8
Layer1
  6
Continuous
 62
     3
100
AcDbLine
 10
690.613232
 20
1439.850097
 30
0.0
 11
690.613232
 21
1441.350097
 31
0.0
  0
LINE
  5
40F
330
1F
100
AcDbEntity
  8
Layer1
  6
Continuous
 62
     4
100
AcDbLine
 10
556.987058
 20
1099.496353
 30
0.0
 11
559.287058
 21
1101.796353
 31
0.0
  0
LINE
  5
410
330
1F
100
AcDbEntity
  8
Layer1
  6
Continuous
 62
     4
100
AcDbLine
 10
556.987058
 20
1098.251539
 30
0.0
 11
559.287058
 21
1100.551539
 31
0.0
  0
LINE
  5
411
330
1F
100
AcDbEntity
  8
Layer1
  6
Continuous
 62
     4
100
AcDbLine
 10
583.93817
 20
1124.587366
 30
0.0
 11
586.297265
 21
1126.946461
 31
0.0
  0
LINE
  5
412
330
1F
100
AcDbEntity
  8
Layer1
  6
Continuous
 62
     4
100
AcDbLine
 10
585.2145759999999
 20
1124.618959
 30
0.0
 11
587.5736709999999
 21
1126.978054
 31
0.0
  0
LINE
  5
413
330
1F
100
AcDbEntity
  8
Layer1
  6
Continuous
 62
     4
100
AcDbLine
 10
616.9766049999999
 20
1125.405109
 30
0.0
 11
619.3356999999999
 21
1127.764203999999
 31
0.0
  0
LINE
  5
414
330
1F
100
AcDbEntity
  8
Layer1
  6
Continuous
 62
     4
100
AcDbLine
 10
618.253011
 20
1125.436702
 30
0.0
 11
620.6121059999999
 21
1127.795797
 31
0.0
  0
LINE
  5
415
330
1F
100
AcDbEntity
  8
Layer1
  6
Continuous
 62
     6
100
AcDbLine
 10
1747.140078
 20
1054.618765
 30
0.0
 11
1741.987058
 21
1073.850097
 31
0.0
  0
LINE
  5
416
330
1F
100
AcDbEntity
  8
Layer1
  6
Continuous
 62
     3
100
AcDbLine
 10
765.987058
 20
1323.640519
 30
0.0
 11
765.987058
 21
1318.522188
 31
0.0
  0
LINE
  5
417
330
1F
100
AcDbEntity
  8
Layer1
  6
Continuous
 62
     3
100
AcDbLine
 10
763.5687179999999
 20
1321.100097
 30
0.0
 11
768.8635429999999
 21
1321.100097
 31
0.0
  0
LINE
  5
418
330
1F
100
AcDbEntity
  8
Layer1
  6
Continuous
 62
     3
100
AcDbLine
 10
765.987058
 20
1402.390519
 30
0.0
 11
765.987058
 21
1397.272188
 31
0.0
  0
LINE
  5
419
330
1F
100
AcDbEntity
  8
Layer1
  6
Continuous
 62
     3
100
AcDbLine
 10
763.5687179999999
 20
1399.850097
 30
0.0
 11
768.8635429999999
 21
1399.850097
 31
0.0
  0
LINE
  5
41A
330
1F
100
AcDbEntity
  8
Layer1
  6
Continuous
 62
     3
100
AcDbLine
 10
765.987058
 20
1244.890519
 30
0.0
 11
765.987058
 21
1239.772188
 31
0.0
  0
LINE
  5
41B
330
1F
100
AcDbEntity
  8
Layer1
  6
Continuous
 62
     3
100
AcDbLine
 10
763.5687179999999
 20
1242.350097
 30
0.0
 11
768.8635429999999
 21
1242.350097
 31
0.0
  0
LINE
  5
41C
330
1F
100
AcDbEntity
  8
Layer1
  6
Continuous
 62
     3
100
AcDbLine
 10
765.987058
 20
1209.890519
 30
0.0
 11
765.987058
 21
1204.772188
 31
0.0
  0
LINE
  5
41D
330
1F
100
AcDbEntity
  8
Layer1
  6
Continuous
 62
     3
100
AcDbLine
 10
763.5687179999999
 20
1207.350097
 30
0.0
 11
768.8635429999999
 21
1207.350097
 31
0.0
  0
LINE
  5
41E
330
1F
100
AcDbEntity
  8
Layer1
  6
Continuous
 62
     3
100
AcDbLine
 10
765.987058
 20
1158.439894
 30
0.0
 11
765.987058
 21
1153.321564
 31
0.0
  0
LINE
  5
41F
330
1F
100
AcDbEntity
  8
Layer1
  6
Continuous
 62
     3
100
AcDbLine
 10
763.5687179999999
 20
1155.899472
 30
0.0
 11
768.8635429999999
 21
1155.899472
 31
0.0
  0
LINE
  5
420
330
1F
100
AcDbEntity
  8
Layer1
  6
PLine1
 62
     3
100
AcDbLine
 10
1551.987058
 20
1054.618765
 30
0.0
 11
1551.987058
 21
783.0907879999999
 31
0.0
  0
LINE
  5
421
330
1F
100
AcDbEntity
  8
Layer1
  6
PLine1
 62
     3
100
AcDbLine
 10
1564.487058
 20
1054.618765
 30
0.0
 11
1564.487058
 21
783.0907879999999
 31
0.0
  0
LINE
  5
422
330
1F
100
AcDbEntity
  8
Layer1
  6
Continuous
 62
     3
100
AcDbLine
 10
1035.972652
 20
798.547349
 30
0.0
 11
1050.7328
 21
798.547349
 31
0.0
  0
LINE
  5
423
330
1F
100
AcDbEntity
  8
Layer1
  6
Continuous
 62
     3
100
AcDbLine
 10
1050.7328
 20
798.547349
 30
0.0
 11
1050.7328
 21
784.0507759999999
 31
0.0
  0
LINE
  5
424
330
1F
100
AcDbEntity
  8
Layer1
  6
Continuous
 62
     3
100
AcDbLine
 10
1050.7328
 20
784.0507759999999
 30
0.0
 11
1035.972652
 21
784.0507759999999
 31
0.0
  0
LINE
  5
425
330
1F
100
AcDbEntity
  8
Layer1
  6
Continuous
 62
     3
100
AcDbLine
 10
1035.972652
 20
784.0507759999999
 30
0.0
 11
1035.972652
 21
798.547349
 31
0.0
  0
LINE
  5
426
330
1F
100
AcDbEntity
  8
Layer1
  6
Continuous
 62
     3
100
AcDbLine
 10
1035.469567
 20
709.2235259999999
 30
0.0
 11
1050.229715
 21
709.2235259999999
 31
0.0
  0
LINE
  5
427
330
1F
100
AcDbEntity
  8
Layer1
  6
Continuous
 62
     3
100
AcDbLine
 10
1050.229715
 20
709.2235259999999
 30
0.0
 11
1050.229715
 21
694.7269529999999
 31
0.0
  0
LINE
  5
428
330
1F
100
AcDbEntity
  8
Layer1
  6
Continuous
 62
     3
100
AcDbLine
 10
1050.229715
 20
694.7269529999999
 30
0.0
 11
1035.469567
 21
694.7269529999999
 31
0.0
  0
LINE
  5
429
330
1F
100
AcDbEntity
  8
Layer1
  6
Continuous
 62
     3
100
AcDbLine
 10
1035.469567
 20
694.7269529999999
 30
0.0
 11
1035.469567
 21
709.2235259999999
 31
0.0
  0
LINE
  5
42A
330
1F
100
AcDbEntity
  8
Layer1
  6
Continuous
 62
     3
100
AcDbLine
 10
1027.89658
 20
613.8613499999999
 30
0.0
 11
1042.656728
 21
613.8613499999999
 31
0.0
  0
LINE
  5
42B
330
1F
100
AcDbEntity
  8
Layer1
  6
Continuous
 62
     3
100
AcDbLine
 10
1042.656728
 20
613.8613499999999
 30
0.0
 11
1042.656728
 21
599.3647769999999
 31
0.0
  0
LINE
  5
42C
330
1F
100
AcDbEntity
  8
Layer1
  6
Continuous
 62
     3
100
AcDbLine
 10
1042.656728
 20
599.3647769999999
 30
0.0
 11
1027.89658
 21
599.3647769999999
 31
0.0
  0
LINE
  5
42D
330
1F
100
AcDbEntity
  8
Layer1
  6
Continuous
 62
     3
100
AcDbLine
 10
1027.89658
 20
599.3647769999999
 30
0.0
 11
1027.89658
 21
613.8613499999999
 31
0.0
  0
TEXT
  5
42E
330
1F
100
AcDbEntity
  8
Layer1
  6
Continuous
 62
     2
100
AcDbText
 10
2892.091122
 20
2101.49874
 30
0.0
 40
29.456
  1
Ｊ
 41
0.8582679999999999
  7
BIGFONT
100
AcDbText
  0
TEXT
  5
42F
330
1F
100
AcDbEntity
  8
Layer1
  6
Continuous
 62
     3
100
AcDbText
 10
2854.720027
 20
1937.432092
 30
0.0
 40
28.0
  1
１３００
 41
0.8582679999999999
  7
BIGFONT
100
AcDbText
  0
TEXT
  5
430
330
1F
100
AcDbEntity
  8
Layer1
  6
Continuous
 62
     3
100
AcDbText
 10
2876.877739
 20
2046.46798
 30
0.0
 40
28.0
  1
６００
 41
0.8582679999999999
  7
BIGFONT
100
AcDbText
  0
TEXT
  5
431
330
1F
100
AcDbEntity
  8
Layer1
  6
Continuous
 62
     3
100
AcDbText
 10
2878.826475
 20
1990.309771999999
 30
0.0
 40
28.0
  1
９００
 41
0.8582679999999999
  7
BIGFONT
100
AcDbText
  0
LINE
  5
432
330
1F
100
AcDbEntity
  8
Layer1
  6
Continuous
 62
     2
100
AcDbLine
 10
3140.930101
 20
2146.081146
 30
0.0
 11
3140.930101
 21
1921.654479
 31
0.0
  0
LINE
  5
433
330
1F
100
AcDbEntity
  8
Layer1
  6
Continuous
 62
     3
100
AcDbLine
 10
651.4368779999999
 20
1035.888837
 30
0.0
 11
639.9727769999999
 21
1047.745244
 31
0.0
  0
LINE
  5
434
330
1F
100
AcDbEntity
  8
Layer1
  6
Continuous
 62
     3
100
AcDbLine
 10
639.9727769999999
 20
1047.745244
 30
0.0
 11
773.6893549999999
 21
816.141336
 31
0.0
  0
LINE
  5
435
330
1F
100
AcDbEntity
  8
Layer1
  6
Continuous
 62
     3
100
AcDbLine
 10
773.6893549999999
 20
816.141336
 30
0.0
 11
907.579119
 21
816.141336
 31
0.0
  0
TEXT
  5
436
330
1F
100
AcDbEntity
  8
Layer1
  6
Continuous
 62
     4
100
AcDbText
 10
773.689334
 20
820.1413159999999
 30
0.0
 40
28.0
  1
差筋 （別途）
 41
0.796963
  7
BIGFONT
100
AcDbText
  0
ARC
  5
437
330
1F
100
AcDbEntity
  8
Layer1
  6
Continuous
 62
     4
100
AcDbCircle
 10
598.3379110000001
 20
1440.424497
 30
0.0
 40
7.000000000001961
100
AcDbArc
 50
90.0
 51
150.0
  0
ARC
  5
438
330
1F
100
AcDbEntity
  8
Layer1
  6
Continuous
 62
     4
100
AcDbCircle
 10
688.1148289999999
 20
1458.424497
 30
0.0
 40
11.00000000006259
100
AcDbArc
 50
270.0
 51
327.693336
  0
ARC
  5
439
330
1F
100
AcDbEntity
  8
Layer1
  6
Continuous
 62
     4
100
AcDbCircle
 10
688.1148289999999
 20
1458.424497
 30
0.0
 40
7.000000000002286
100
AcDbArc
 50
270.0
 51
327.693336
  0
TEXT
  5
43A
330
1F
100
AcDbEntity
  8
Layer1
  6
Continuous
 62
     3
100
AcDbText
 10
2820.023262
 20
256.805111
 30
0.0
 40
32.0
  1
自然換気型
 41
0.8582679999999999
  7
BIGFONT
100
AcDbText
  0
LINE
  5
43B
330
1F
100
AcDbEntity
  8
Layer1
  6
Continuous
 62
     3
100
AcDbLine
 10
549.4339549999999
 20
1451.424497
 30
0.0
 11
584.8882039999999
 21
1451.424497
 31
0.0
  0
LINE
  5
440
330
1F
100
AcDbEntity
  8
Layer1
  6
Continuous
 62
     4
100
AcDbLine
 10
1141.987058
 20
1421.424497
 30
0.0
 11
1659.307566
 21
1421.424497
 31
0.0
  0
ARC
  5
441
330
1F
100
AcDbEntity
  8
Layer1
  6
Continuous
 62
     4
100
AcDbCircle
 10
1639.677657
 20
1447.424497
 30
0.0
 40
4.000000001219627
100
AcDbArc
 50
30.0
 51
90.0
  0
LINE
  5
442
330
1F
100
AcDbEntity
  8
Layer1
  6
Continuous
 62
     4
100
AcDbLine
 10
1659.307566
 20
1421.424497
 30
0.0
 11
1643.141759
 21
1449.424497
 31
0.0
  0
LINE
  5
443
330
1F
100
AcDbEntity
  8
Layer1
  6
Continuous
 62
     4
100
AcDbLine
 10
1141.987058
 20
1451.424497
 30
0.0
 11
1639.677657
 21
1451.424497
 31
0.0
  0
ARC
  5
444
330
1F
100
AcDbEntity
  8
Layer1
  6
Continuous
 62
     4
100
AcDbCircle
 10
1141.987058
 20
1895.767643
 30
0.0
 40
4.000000000024328
100
AcDbArc
 50
45.0
 51
90.0
  0
ARC
  5
446
330
1F
100
AcDbEntity
  8
Layer1
  6
Continuous
 62
     4
100
AcDbCircle
 10
1592.815485
 20
1453.424497
 30
0.0
 40
2.000000004732488
100
AcDbArc
 50
225.0
 51
270.0
  0
LINE
  5
447
330
1F
100
AcDbEntity
  8
Layer1
  6
PLine2
 62
     3
100
AcDbLine
 10
1441.987058
 20
1444.168573
 30
0.0
 11
1441.987058
 21
1466.379183
 31
0.0
  0
LINE
  5
448
330
1F
100
AcDbEntity
  8
Layer1
  6
Continuous
 62
     6
100
AcDbLine
 10
1625.987058
 20
1453.424497
 30
0.0
 11
1597.987058
 21
1453.424497
 31
0.0
  0
LINE
  5
449
330
1F
100
AcDbEntity
  8
Layer1
  6
Continuous
 62
     6
100
AcDbLine
 10
1597.987058
 20
1453.424497
 30
0.0
 11
1597.987058
 21
1451.424497
 31
0.0
  0
LINE
  5
44A
330
1F
100
AcDbEntity
  8
Layer1
  6
Continuous
 62
     6
100
AcDbLine
 10
1625.987058
 20
1451.424497
 30
0.0
 11
1625.987058
 21
1453.424497
 31
0.0
  0
LINE
  5
44B
330
1F
100
AcDbEntity
  8
Layer1
  6
Continuous
 62
     3
100
AcDbLine
 10
1626.987058
 20
1455.424497
 30
0.0
 11
1596.987058
 21
1455.424497
 31
0.0
  0
LINE
  5
44C
330
1F
100
AcDbEntity
  8
Layer1
  6
Continuous
 62
     3
100
AcDbLine
 10
1596.987058
 20
1455.424497
 30
0.0
 11
1596.987058
 21
1453.424497
 31
0.0
  0
LINE
  5
44D
330
1F
100
AcDbEntity
  8
Layer1
  6
Continuous
 62
     3
100
AcDbLine
 10
1596.987058
 20
1453.424497
 30
0.0
 11
1626.987058
 21
1453.424497
 31
0.0
  0
LINE
  5
44E
330
1F
100
AcDbEntity
  8
Layer1
  6
Continuous
 62
     3
100
AcDbLine
 10
1626.987058
 20
1453.424497
 30
0.0
 11
1626.987058
 21
1455.424497
 31
0.0
  0
LINE
  5
44F
330
1F
100
AcDbEntity
  8
Layer1
  6
Continuous
 62
     3
100
AcDbLine
 10
1615.987058
 20
1453.424497
 30
0.0
 11
1607.987058
 21
1453.424497
 31
0.0
  0
ARC
  5
450
330
1F
100
AcDbEntity
  8
Layer1
  6
Continuous
 62
     3
100
AcDbCircle
 10
1611.987058
 20
1451.170081
 30
0.0
 40
9.754415589081188
100
AcDbArc
 50
65.790724
 51
114.209276
  0
ARC
  5
451
330
1F
100
AcDbEntity
  8
Layer1
  6
Continuous
 62
     3
100
AcDbCircle
 10
1606.414942
 20
1459.063149
 30
0.0
 40
1.865081649104215
100
AcDbArc
 50
32.550131
 51
86.37396
  0
LINE
  5
452
330
1F
100
AcDbEntity
  8
Layer1
  6
Continuous
 62
     3
100
AcDbLine
 10
1619.492612
 20
1455.424497
 30
0.0
 11
1604.481505
 21
1455.424497
 31
0.0
  0
LINE
  5
453
330
1F
100
AcDbEntity
  8
Layer1
  6
Continuous
 62
     3
100
AcDbLine
 10
1615.987058
 20
1455.424497
 30
0.0
 11
1615.987058
 21
1460.066632
 31
0.0
  0
LINE
  5
454
330
1F
100
AcDbEntity
  8
Layer1
  6
Continuous
 62
     3
100
AcDbLine
 10
1618.487058
 20
1460.924497
 30
0.0
 11
1611.987058
 21
1460.924497
 31
0.0
  0
LINE
  5
455
330
1F
100
AcDbEntity
  8
Layer1
  6
Continuous
 62
     3
100
AcDbLine
 10
1604.481505
 20
1455.424497
 30
0.0
 11
1604.481505
 21
1460.34394
 31
0.0
  0
LINE
  5
456
330
1F
100
AcDbEntity
  8
Layer1
  6
Continuous
 62
     3
100
AcDbLine
 10
1607.987058
 20
1455.424497
 30
0.0
 11
1607.987058
 21
1460.066632
 31
0.0
  0
LINE
  5
457
330
1F
100
AcDbEntity
  8
Layer1
  6
Continuous
 62
     3
100
AcDbLine
 10
1605.487058
 20
1460.924497
 30
0.0
 11
1611.987058
 21
1460.924497
 31
0.0
  0
LINE
  5
458
330
1F
100
AcDbEntity
  8
Layer1
  6
Continuous
 62
     3
100
AcDbLine
 10
1619.492612
 20
1455.424497
 30
0.0
 11
1619.492612
 21
1460.34394
 31
0.0
  0
LINE
  5
459
330
1F
100
AcDbEntity
  8
Layer1
  6
Continuous
 62
     3
100
AcDbLine
 10
1619.492612
 20
1460.34394
 30
0.0
 11
1618.487058
 21
1460.924497
 31
0.0
  0
LINE
  5
45A
330
1F
100
AcDbEntity
  8
Layer1
  6
Continuous
 62
     3
100
AcDbLine
 10
1604.481505
 20
1460.34394
 30
0.0
 11
1605.487058
 21
1460.924497
 31
0.0
  0
ARC
  5
45B
330
1F
100
AcDbEntity
  8
Layer1
  6
Continuous
 62
     3
100
AcDbCircle
 10
1617.559175
 20
1459.063149
 30
0.0
 40
1.865081649046095
100
AcDbArc
 50
93.62604000000001
 51
147.449869
  0
LINE
  5
45C
330
1F
100
AcDbEntity
  8
Layer1
  6
PLine2
 62
     3
100
AcDbLine
 10
1611.987058
 20
1468.292323
 30
0.0
 11
1611.987058
 21
1442.532864
 31
0.0
  0
LINE
  5
45D
330
1F
100
AcDbEntity
  8
Layer1
  6
Continuous
 62
     6
100
AcDbLine
 10
1455.987058
 20
1453.424497
 30
0.0
 11
1427.987058
 21
1453.424497
 31
0.0
  0
LINE
  5
45E
330
1F
100
AcDbEntity
  8
Layer1
  6
Continuous
 62
     6
100
AcDbLine
 10
1427.987058
 20
1453.424497
 30
0.0
 11
1427.987058
 21
1451.424497
 31
0.0
  0
LINE
  5
45F
330
1F
100
AcDbEntity
  8
Layer1
  6
Continuous
 62
     6
100
AcDbLine
 10
1455.987058
 20
1451.424497
 30
0.0
 11
1455.987058
 21
1453.424497
 31
0.0
  0
LINE
  5
460
330
1F
100
AcDbEntity
  8
Layer1
  6
Continuous
 62
     3
100
AcDbLine
 10
1456.987058
 20
1455.424497
 30
0.0
 11
1426.987058
 21
1455.424497
 31
0.0
  0
LINE
  5
461
330
1F
100
AcDbEntity
  8
Layer1
  6
Continuous
 62
     3
100
AcDbLine
 10
1426.987058
 20
1455.424497
 30
0.0
 11
1426.987058
 21
1453.424497
 31
0.0
  0
LINE
  5
462
330
1F
100
AcDbEntity
  8
Layer1
  6
Continuous
 62
     3
100
AcDbLine
 10
1426.987058
 20
1453.424497
 30
0.0
 11
1456.987058
 21
1453.424497
 31
0.0
  0
LINE
  5
463
330
1F
100
AcDbEntity
  8
Layer1
  6
Continuous
 62
     3
100
AcDbLine
 10
1456.987058
 20
1453.424497
 30
0.0
 11
1456.987058
 21
1455.424497
 31
0.0
  0
LINE
  5
464
330
1F
100
AcDbEntity
  8
Layer1
  6
Continuous
 62
     3
100
AcDbLine
 10
1445.987058
 20
1453.424497
 30
0.0
 11
1437.987058
 21
1453.424497
 31
0.0
  0
ARC
  5
465
330
1F
100
AcDbEntity
  8
Layer1
  6
Continuous
 62
     3
100
AcDbCircle
 10
1441.987058
 20
1451.170081
 30
0.0
 40
9.754415589224434
100
AcDbArc
 50
65.790724
 51
114.209276
  0
ARC
  5
466
330
1F
100
AcDbEntity
  8
Layer1
  6
Continuous
 62
     3
100
AcDbCircle
 10
1436.414942
 20
1459.063149
 30
0.0
 40
1.865081661037836
100
AcDbArc
 50
32.550131
 51
86.37396
  0
LINE
  5
467
330
1F
100
AcDbEntity
  8
Layer1
  6
Continuous
 62
     3
100
AcDbLine
 10
1449.492612
 20
1455.424497
 30
0.0
 11
1434.481505
 21
1455.424497
 31
0.0
  0
LINE
  5
468
330
1F
100
AcDbEntity
  8
Layer1
  6
Continuous
 62
     3
100
AcDbLine
 10
1445.987058
 20
1455.424497
 30
0.0
 11
1445.987058
 21
1460.066632
 31
0.0
  0
LINE
  5
469
330
1F
100
AcDbEntity
  8
Layer1
  6
Continuous
 62
     3
100
AcDbLine
 10
1448.487058
 20
1460.924497
 30
0.0
 11
1441.987058
 21
1460.924497
 31
0.0
  0
LINE
  5
46A
330
1F
100
AcDbEntity
  8
Layer1
  6
Continuous
 62
     3
100
AcDbLine
 10
1434.481505
 20
1455.424497
 30
0.0
 11
1434.481505
 21
1460.34394
 31
0.0
  0
LINE
  5
46B
330
1F
100
AcDbEntity
  8
Layer1
  6
Continuous
 62
     3
100
AcDbLine
 10
1437.987058
 20
1455.424497
 30
0.0
 11
1437.987058
 21
1460.066632
 31
0.0
  0
LINE
  5
46C
330
1F
100
AcDbEntity
  8
Layer1
  6
Continuous
 62
     3
100
AcDbLine
 10
1435.487058
 20
1460.924497
 30
0.0
 11
1441.987058
 21
1460.924497
 31
0.0
  0
LINE
  5
46D
330
1F
100
AcDbEntity
  8
Layer1
  6
Continuous
 62
     3
100
AcDbLine
 10
1449.492612
 20
1455.424497
 30
0.0
 11
1449.492612
 21
1460.34394
 31
0.0
  0
LINE
  5
46E
330
1F
100
AcDbEntity
  8
Layer1
  6
Continuous
 62
     3
100
AcDbLine
 10
1449.492612
 20
1460.34394
 30
0.0
 11
1448.487058
 21
1460.924497
 31
0.0
  0
LINE
  5
46F
330
1F
100
AcDbEntity
  8
Layer1
  6
Continuous
 62
     3
100
AcDbLine
 10
1434.481505
 20
1460.34394
 30
0.0
 11
1435.487058
 21
1460.924497
 31
0.0
  0
ARC
  5
470
330
1F
100
AcDbEntity
  8
Layer1
  6
Continuous
 62
     3
100
AcDbCircle
 10
1447.559175
 20
1459.063149
 30
0.0
 40
1.865081659974769
100
AcDbArc
 50
93.62604000000001
 51
147.449869
  0
LINE
  5
471
330
1F
100
AcDbEntity
  8
Layer1
  6
Continuous
 62
     6
100
AcDbLine
 10
1155.987058
 20
1451.424497
 30
0.0
 11
1155.987058
 21
1453.424497
 31
0.0
  0
LINE
  5
472
330
1F
100
AcDbEntity
  8
Layer1
  6
Continuous
 62
     3
100
AcDbLine
 10
1156.987058
 20
1453.424497
 30
0.0
 11
1156.987058
 21
1455.424497
 31
0.0
  0
LINE
  5
473
330
1F
100
AcDbEntity
  8
Layer1
  6
Continuous
 62
     3
100
AcDbLine
 10
1141.987058
 20
1453.424497
 30
0.0
 11
1156.987058
 21
1453.424497
 31
0.0
  0
ARC
  5
474
330
1F
100
AcDbEntity
  8
Layer1
  6
Continuous
 62
     3
100
AcDbCircle
 10
1141.987058
 20
1451.170081
 30
0.0
 40
9.754415586719648
100
AcDbArc
 50
65.790724
 51
90.0
  0
LINE
  5
475
330
1F
100
AcDbEntity
  8
Layer1
  6
Continuous
 62
     3
100
AcDbLine
 10
1141.987058
 20
1455.424497
 30
0.0
 11
1156.987058
 21
1455.424497
 31
0.0
  0
LINE
  5
476
330
1F
100
AcDbEntity
  8
Layer1
  6
Continuous
 62
     3
100
AcDbLine
 10
1145.987058
 20
1455.424497
 30
0.0
 11
1145.987058
 21
1460.066632
 31
0.0
  0
LINE
  5
477
330
1F
100
AcDbEntity
  8
Layer1
  6
Continuous
 62
     3
100
AcDbLine
 10
1148.487058
 20
1460.924497
 30
0.0
 11
1141.987058
 21
1460.924497
 31
0.0
  0
LINE
  5
478
330
1F
100
AcDbEntity
  8
Layer1
  6
Continuous
 62
     3
100
AcDbLine
 10
1149.492612
 20
1455.424497
 30
0.0
 11
1149.492612
 21
1460.34394
 31
0.0
  0
LINE
  5
479
330
1F
100
AcDbEntity
  8
Layer1
  6
Continuous
 62
     3
100
AcDbLine
 10
1149.492612
 20
1460.34394
 30
0.0
 11
1148.487058
 21
1460.924497
 31
0.0
  0
ARC
  5
47A
330
1F
100
AcDbEntity
  8
Layer1
  6
Continuous
 62
     3
100
AcDbCircle
 10
1147.559175
 20
1459.063149
 30
0.0
 40
1.865081653651228
100
AcDbArc
 50
93.62604000000001
 51
147.449869
  0
INSERT
  5
484
330
1F
100
AcDbEntity
  8
Layer1
  6
Continuous
 62
     3
100
AcDbBlockReference
  2
DIM_16
 10
1655.503472
 20
1451.424497
 30
0.0
  0
TEXT
  5
485
330
1F
100
AcDbEntity
  8
Layer1
  6
Continuous
 62
     4
100
AcDbText
 10
809.741969
 20
1806.456385
 30
0.0
 40
28.0
  1
（角型）
 41
0.8582679999999999
  7
BIGFONT
100
AcDbText
  0
TEXT
  5
487
330
1F
100
AcDbEntity
  8
Layer1
  6
Continuous
 62
     4
100
AcDbText
 10
450.659483
 20
1743.455828
 30
0.0
 40
28.0
  1
（オプション）
 41
0.8582679999999999
  7
BIGFONT
100
AcDbText
  0
LINE
  5
4E3
330
1F
100
AcDbEntity
  8
0
100
AcDbLine
 10
1543.687058
 20
1427.075
 30
0.0
 11
1546.987058317039
 21
1421.496280508378
 31
0.0
  0
LINE
  5
4E4
330
1F
100
AcDbEntity
  8
0
100
AcDbLine
 10
1543.687058
 20
1358.575
 30
0.0
 11
1546.987058312994
 21
1352.99628049252
 31
0.0
  0
LINE
  5
4E5
330
1F
100
AcDbEntity
  8
0
100
AcDbLine
 10
1599.074466
 20
1367.223072
 30
0.0
 11
1602.287058
 21
1359.293547
 31
0.0
  0
LINE
  5
4EC
330
1F
100
AcDbEntity
  8
0
100
AcDbLine
 10
1599.074466
 20
1298.723072
 30
0.0
 11
1602.287058000465
 21
1290.793547
 31
0.0
  0
LINE
  5
4ED
330
1F
100
AcDbEntity
  8
0
100
AcDbLine
 10
1543.687058
 20
1290.075
 30
0.0
 11
1546.987058317632
 21
1284.49628050849
 31
0.0
  0
LINE
  5
4EE
330
1F
100
AcDbEntity
  8
0
100
AcDbLine
 10
1543.687058
 20
1221.575
 30
0.0
 11
1546.907933209251
 21
1215.996280492738
 31
0.0
  0
LINE
  5
4EF
330
1F
100
AcDbEntity
  8
0
100
AcDbLine
 10
1599.074466
 20
1230.223072
 30
0.0
 11
1602.287058000882
 21
1222.293547
 31
0.0
  0
LINE
  5
4F0
330
1F
100
AcDbEntity
  8
0
100
AcDbLine
 10
1599.074466
 20
1161.723072
 30
0.0
 11
1602.287058
 21
1153.793547
 31
0.0
  0
LINE
  5
4F1
330
1F
100
AcDbEntity
  8
0
100
AcDbLine
 10
740.287058
 20
1427.075
 30
0.0
 11
736.9870586851866
 21
1421.496280507959
 31
0.0
  0
LINE
  5
4F2
330
1F
100
AcDbEntity
  8
0
100
AcDbLine
 10
684.8996509999999
 20
1367.223072
 30
0.0
 11
681.6870579999999
 21
1359.293547
 31
0.0
  0
LINE
  5
4F3
330
1F
100
AcDbEntity
  8
0
100
AcDbLine
 10
740.287058
 20
1358.575
 30
0.0
 11
736.9870586837476
 21
1352.996280493134
 31
0.0
  0
LINE
  5
4F4
330
1F
100
AcDbEntity
  8
0
100
AcDbLine
 10
684.8996509999999
 20
1298.723072
 30
0.0
 11
681.6870579997563
 21
1290.793547
 31
0.0
  0
LINE
  5
4F5
330
1F
100
AcDbEntity
  8
0
100
AcDbLine
 10
740.287058
 20
1290.075
 30
0.0
 11
736.9870586825897
 21
1284.496280508448
 31
0.0
  0
LINE
  5
4F6
330
1F
100
AcDbEntity
  8
0
100
AcDbLine
 10
684.8996509999999
 20
1230.223072
 30
0.0
 11
681.6870579999999
 21
1222.293547
 31
0.0
  0
LINE
  5
4F7
330
1F
100
AcDbEntity
  8
0
100
AcDbLine
 10
740.287058
 20
1221.575
 30
0.0
 11
736.9870586851304
 21
1215.996280507969
 31
0.0
  0
LINE
  5
4F8
330
1F
100
AcDbEntity
  8
0
100
AcDbLine
 10
684.8996509999999
 20
1161.723072
 30
0.0
 11
681.6870579996969
 21
1153.793547
 31
0.0
  0
ARC
  5
4F9
330
1F
100
AcDbEntity
  8
Layer1
  6
Continuous
 62
     4
100
AcDbCircle
 10
1141.987058
 20
1171.424497
 30
0.0
 40
529.9999999999993
100
AcDbArc
 50
32.30666399999503
 51
90.0
  0
LINE
  5
4FA
330
1F
100
AcDbEntity
  8
0
100
AcDbLine
 10
1589.942887157474
 20
1454.683345271046
 30
0.0
 11
1591.40127143428
 21
1452.01028343428
 31
0.0
  0
ENDSEC
  0
SECTION
  2
OBJECTS
  0
DICTIONARY
  5
C
330
0
100
AcDbDictionary
281
     1
  3
ACAD_CIP_PREVIOUS_PRODUCT_INFO
350
4E0
  3
ACAD_COLOR
350
4D5
  3
ACAD_DETAILVIEWSTYLE
350
4DB
  3
ACAD_GROUP
350
D
  3
ACAD_LAYOUT
350
1A
  3
ACAD_MATERIAL
350
4B2
  3
ACAD_MLEADERSTYLE
350
48A
  3
ACAD_MLINESTYLE
350
17
  3
ACAD_PLOTSETTINGS
350
19
  3
ACAD_PLOTSTYLENAME
350
E
  3
ACAD_SCALELIST
350
6D
  3
ACAD_SECTIONVIEWSTYLE
350
4D9
  3
ACAD_TABLESTYLE
350
4D6
  3
ACAD_VISUALSTYLE
350
2A
  3
ACDB_RECOMPOSE_DATA
350
507
  3
AcDbVariableDictionary
350
488
  0
DICTIONARY
  5
4FB
330
10
100
AcDbDictionary
280
     1
281
     1
  3
ADSK_XREC_LAYER_RECONCILED
360
4FC
  0
DICTIONARY
  5
4FD
330
4E
100
AcDbDictionary
280
     1
281
     1
  3
ADSK_XREC_LAYER_RECONCILED
360
4FE
  0
XRECORD
  5
4E0
102
{ACAD_REACTORS
330
C
102
}
330
C
100
AcDbXrecord
280
     1
300
ACDLT
300
2016
300
ACDLT_F_S
  0
DICTIONARY
  5
4D5
102
{ACAD_REACTORS
330
C
102
}
330
C
100
AcDbDictionary
281
     1
  0
DICTIONARY
  5
4DB
102
{ACAD_REACTORS
330
C
102
}
330
C
100
AcDbDictionary
281
     1
  3
Imperial24
350
4DC
  0
DICTIONARY
  5
D
102
{ACAD_REACTORS
330
C
102
}
330
C
100
AcDbDictionary
281
     1
  0
DICTIONARY
  5
1A
102
{ACAD_REACTORS
330
C
102
}
330
C
100
AcDbDictionary
281
     1
  3
Layout1
350
1E
  3
Layout2
350
26
  3
Model
350
22
  0
DICTIONARY
  5
4B2
102
{ACAD_REACTORS
330
C
102
}
330
C
100
AcDbDictionary
281
     1
  3
ByBlock
350
4BB
  3
ByLayer
350
4B3
  3
Global
350
4C3
  0
DICTIONARY
  5
48A
102
{ACAD_REACTORS
330
C
102
}
330
C
100
AcDbDictionary
281
     1
  3
Standard
350
4D8
  0
DICTIONARY
  5
17
102
{ACAD_REACTORS
330
C
102
}
330
C
100
AcDbDictionary
281
     1
  3
Standard
350
18
  0
DICTIONARY
  5
19
102
{ACAD_REACTORS
330
C
102
}
330
C
100
AcDbDictionary
281
     1
  0
ACDBDICTIONARYWDFLT
  5
E
102
{ACAD_REACTORS
330
C
102
}
330
C
100
AcDbDictionary
281
     1
  3
Normal
350
F
100
AcDbDictionaryWithDefault
340
F
  0
DICTIONARY
  5
6D
102
{ACAD_REACTORS
330
C
102
}
330
C
100
AcDbDictionary
281
     1
  3
A0
350
6E
  3
A1
350
6F
  3
A2
350
70
  3
A3
350
71
  3
A4
350
72
  3
A5
350
73
  3
A6
350
74
  3
A7
350
75
  3
A8
350
76
  3
A9
350
77
  3
B0
350
78
  3
B1
350
79
  3
B2
350
7A
  3
B3
350
7B
  3
B4
350
7C
  3
B5
350
7D
  3
B6
350
7E
  3
B7
350
7F
  3
B8
350
80
  3
B9
350
81
  3
C0
350
82
  3
C1
350
83
  3
C2
350
84
  3
C3
350
85
  3
C4
350
86
  3
C5
350
87
  3
C6
350
88
  3
C7
350
89
  3
C8
350
8A
  3
C9
350
8B
  3
D0
350
8C
  3
D1
350
8D
  3
D2
350
8E
  0
DICTIONARY
  5
4D9
102
{ACAD_REACTORS
330
C
102
}
330
C
100
AcDbDictionary
281
     1
  3
Imperial24
350
4DA
  0
DICTIONARY
  5
4D6
102
{ACAD_REACTORS
330
C
102
}
330
C
100
AcDbDictionary
281
     1
  3
Standard
350
4D7
  0
DICTIONARY
  5
2A
102
{ACAD_REACTORS
330
C
102
}
330
C
100
AcDbDictionary
281
     1
  3
2dWireframe
350
2F
  3
3D Hidden
350
31
  3
3dWireframe
350
30
  3
Basic
350
32
  3
Brighten
350
36
  3
ColorChange
350
3A
  3
Conceptual
350
34
  3
Dim
350
35
  3
EdgeColorOff
350
4D4
  3
Facepattern
350
39
  3
Flat
350
2B
  3
FlatWithEdges
350
2C
  3
Gouraud
350
2D
  3
GouraudWithEdges
350
2E
  3
Hidden
350
4CC
  3
JitterOff
350
4D2
  3
Linepattern
350
38
  3
OverhangOff
350
4D3
  3
Realistic
350
33
  3
Shaded
350
4D1
  3
Shaded with edges
350
4D0
  3
Shades of Gray
350
4CD
  3
Sketchy
350
4CE
  3
Thicken
350
37
  3
Wireframe
350
4CB
  3
X-Ray
350
4CF
  0
XRECORD
  5
507
102
{ACAD_REACTORS
330
C
102
}
330
C
100
AcDbXrecord
280
     1
 90
        1
330
4D7
  0
DICTIONARY
  5
488
102
{ACAD_REACTORS
330
C
102
}
330
C
100
AcDbDictionary
281
     1
  3
CANNOSCALE
350
48B
  3
CMLEADERSTYLE
350
500
  3
CTABLESTYLE
350
4FF
  3
CVIEWDETAILSTYLE
350
501
  3
CVIEWSECTIONSTYLE
350
502
  3
DIMASSOC
350
48C
  3
HIDETEXT
350
48D
  3
XCLIPFRAME
350
503
  0
XRECORD
  5
4FC
102
{ACAD_REACTORS
330
4FB
102
}
330
4FB
100
AcDbXrecord
280
     1
290
     1
  0
XRECORD
  5
4FE
102
{ACAD_REACTORS
330
4FD
102
}
330
4FD
100
AcDbXrecord
280
     1
290
     1
  0
ACDBDETAILVIEWSTYLE
  5
4DC
102
{ACAD_XDICTIONARY
360
543
102
}
102
{ACAD_REACTORS
330
4DB
102
}
330
4DB
100
AcDbModelDocViewStyle
 70
     0
  3
Imperial24
290
     0
100
AcDbDetailViewStyle
 70
     0
 71
     0
 90
        3
 71
     1
340
11
 62
   256
 40
0.24
340
0
 62
   256
 40
0.24
300

 40
0.36
280
     3
 71
     2
340
16
 90
       25
 62
   256
 71
     3
340
11
 62
   256
 40
0.24
 90
        1
 40
0.75
 90
        1
300
%<\AcVar ViewType \f "%tc1">% %<\AcVar ViewDetailId>%\PSCALE %<\AcVar ViewScale \f "%sn">%
 71
     4
340
16
 90
       25
 62
   256
340
16
 90
       25
 62
   256
280
     0
  0
LAYOUT
  5
1E
102
{ACAD_REACTORS
330
1A
102
}
330
1A
100
AcDbPlotSettings
  1

  2
none_device
  4

  6

 40
0.0
 41
0.0
 42
0.0
 43
0.0
 44
0.0
 45
0.0
 46
0.0
 47
0.0
 48
0.0
 49
0.0
140
0.0
141
0.0
142
1.0
143
1.0
 70
   688
 72
     0
 73
     0
 74
     5
  7

 75
    16
147
1.0
 76
     0
 77
     2
 78
   300
148
0.0
149
0.0
100
AcDbLayout
  1
Layout1
 70
     1
 71
     1
 10
0.0
 20
0.0
 11
12.0
 21
9.0
 12
0.0
 22
0.0
 32
0.0
 14
1.000000000000000E+20
 24
1.000000000000000E+20
 34
1.000000000000000E+20
 15
-1.000000000000000E+20
 25
-1.000000000000000E+20
 35
-1.000000000000000E+20
146
0.0
 13
0.0
 23
0.0
 33
0.0
 16
1.0
 26
0.0
 36
0.0
 17
0.0
 27
1.0
 37
0.0
 76
     0
330
1B
  0
LAYOUT
  5
26
102
{ACAD_REACTORS
330
1A
102
}
330
1A
100
AcDbPlotSettings
  1

  2
none_device
  4

  6

 40
0.0
 41
0.0
 42
0.0
 43
0.0
 44
0.0
 45
0.0
 46
0.0
 47
0.0
 48
0.0
 49
0.0
140
0.0
141
0.0
142
1.0
143
1.0
 70
   688
 72
     0
 73
     0
 74
     5
  7

 75
    16
147
1.0
 76
     0
 77
     2
 78
   300
148
0.0
149
0.0
100
AcDbLayout
  1
Layout2
 70
     1
 71
     2
 10
0.0
 20
0.0
 11
0.0
 21
0.0
 12
0.0
 22
0.0
 32
0.0
 14
0.0
 24
0.0
 34
0.0
 15
0.0
 25
0.0
 35
0.0
146
0.0
 13
0.0
 23
0.0
 33
0.0
 16
1.0
 26
0.0
 36
0.0
 17
0.0
 27
1.0
 37
0.0
 76
     0
330
23
  0
LAYOUT
  5
22
102
{ACAD_REACTORS
330
1A
102
}
330
1A
100
AcDbPlotSettings
  1

  2
none_device
  4

  6

 40
0.0
 41
0.0
 42
0.0
 43
0.0
 44
0.0
 45
0.0
 46
0.0
 47
0.0
 48
0.0
 49
0.0
140
0.0
141
0.0
142
1.0
143
1.0
 70
  1712
 72
     0
 73
     0
 74
     0
  7

 75
     0
147
1.0
 76
     0
 77
     2
 78
   300
148
0.0
149
0.0
100
AcDbLayout
  1
Model
 70
     1
 71
     0
 10
0.0
 20
0.0
 11
12.0
 21
9.0
 12
0.0
 22
0.0
 32
0.0
 14
0.0
 24
0.0
 34
0.0
 15
3360.0
 25
2376.0
 35
0.0
146
0.0
 13
0.0
 23
0.0
 33
0.0
 16
1.0
 26
0.0
 36
0.0
 17
0.0
 27
1.0
 37
0.0
 76
     0
330
1F
331
29
  0
MATERIAL
  5
4BB
102
{ACAD_XDICTIONARY
360
4BC
102
}
102
{ACAD_REACTORS
330
4B2
102
}
330
4B2
100
AcDbMaterial
  1
ByBlock
 72
     0
 43
0.0208333333333333
 43
0.0
 43
0.0
 43
0.0
 43
0.0
 43
0.0208333333333333
 43
0.0
 43
0.0
 43
0.0
 43
0.0
 43
1.0
 43
0.0
 43
0.0
 43
0.0
 43
0.0
 43
1.0
 77
     0
 47
0.0208333333333333
 47
0.0
 47
0.0
 47
0.0
 47
0.0
 47
0.0208333333333333
 47
0.0
 47
0.0
 47
0.0
 47
0.0
 47
1.0
 47
0.0
 47
0.0
 47
0.0
 47
0.0
 47
1.0
171
     0
 49
0.0208333333333333
 49
0.0
 49
0.0
 49
0.0
 49
0.0
 49
0.0208333333333333
 49
0.0
 49
0.0
 49
0.0
 49
0.0
 49
1.0
 49
0.0
 49
0.0
 49
0.0
 49
0.0
 49
1.0
175
     0
142
0.0208333333333333
142
0.0
142
0.0
142
0.0
142
0.0
142
0.0208333333333333
142
0.0
142
0.0
142
0.0
142
0.0
142
1.0
142
0.0
142
0.0
142
0.0
142
0.0
142
1.0
179
     0
144
0.0208333333333333
144
0.0
144
0.0
144
0.0
144
0.0
144
0.0208333333333333
144
0.0
144
0.0
144
0.0
144
0.0
144
1.0
144
0.0
144
0.0
144
0.0
144
0.0
144
1.0
147
0.0208333333333333
147
0.0
147
0.0
147
0.0
147
0.0
147
0.0208333333333333
147
0.0
147
0.0
147
0.0
147
0.0
147
1.0
147
0.0
147
0.0
147
0.0
147
0.0
147
1.0
  0
MATERIAL
  5
4B3
102
{ACAD_XDICTIONARY
360
4B4
102
}
102
{ACAD_REACTORS
330
4B2
102
}
330
4B2
100
AcDbMaterial
  1
ByLayer
 72
     0
 43
0.0208333333333333
 43
0.0
 43
0.0
 43
0.0
 43
0.0
 43
0.0208333333333333
 43
0.0
 43
0.0
 43
0.0
 43
0.0
 43
1.0
 43
0.0
 43
0.0
 43
0.0
 43
0.0
 43
1.0
 77
     0
 47
0.0208333333333333
 47
0.0
 47
0.0
 47
0.0
 47
0.0
 47
0.0208333333333333
 47
0.0
 47
0.0
 47
0.0
 47
0.0
 47
1.0
 47
0.0
 47
0.0
 47
0.0
 47
0.0
 47
1.0
171
     0
 49
0.0208333333333333
 49
0.0
 49
0.0
 49
0.0
 49
0.0
 49
0.0208333333333333
 49
0.0
 49
0.0
 49
0.0
 49
0.0
 49
1.0
 49
0.0
 49
0.0
 49
0.0
 49
0.0
 49
1.0
175
     0
142
0.0208333333333333
142
0.0
142
0.0
142
0.0
142
0.0
142
0.0208333333333333
142
0.0
142
0.0
142
0.0
142
0.0
142
1.0
142
0.0
142
0.0
142
0.0
142
0.0
142
1.0
179
     0
144
0.0208333333333333
144
0.0
144
0.0
144
0.0
144
0.0
144
0.0208333333333333
144
0.0
144
0.0
144
0.0
144
0.0
144
1.0
144
0.0
144
0.0
144
0.0
144
0.0
144
1.0
147
0.0208333333333333
147
0.0
147
0.0
147
0.0
147
0.0
147
0.0208333333333333
147
0.0
147
0.0
147
0.0
147
0.0
147
1.0
147
0.0
147
0.0
147
0.0
147
0.0
147
1.0
  0
MATERIAL
  5
4C3
102
{ACAD_XDICTIONARY
360
4C4
102
}
102
{ACAD_REACTORS
330
4B2
102
}
330
4B2
100
AcDbMaterial
  1
Global
 72
     0
 43
0.0208333333333333
 43
0.0
 43
0.0
 43
0.0
 43
0.0
 43
0.0208333333333333
 43
0.0
 43
0.0
 43
0.0
 43
0.0
 43
1.0
 43
0.0
 43
0.0
 43
0.0
 43
0.0
 43
1.0
 77
     0
 47
0.0208333333333333
 47
0.0
 47
0.0
 47
0.0
 47
0.0
 47
0.0208333333333333
 47
0.0
 47
0.0
 47
0.0
 47
0.0
 47
1.0
 47
0.0
 47
0.0
 47
0.0
 47
0.0
 47
1.0
171
     0
 49
0.0208333333333333
 49
0.0
 49
0.0
 49
0.0
 49
0.0
 49
0.0208333333333333
 49
0.0
 49
0.0
 49
0.0
 49
0.0
 49
1.0
 49
0.0
 49
0.0
 49
0.0
 49
0.0
 49
1.0
175
     0
142
0.0208333333333333
142
0.0
142
0.0
142
0.0
142
0.0
142
0.0208333333333333
142
0.0
142
0.0
142
0.0
142
0.0
142
1.0
142
0.0
142
0.0
142
0.0
142
0.0
142
1.0
179
     0
144
0.0208333333333333
144
0.0
144
0.0
144
0.0
144
0.0
144
0.0208333333333333
144
0.0
144
0.0
144
0.0
144
0.0
144
1.0
144
0.0
144
0.0
144
0.0
144
0.0
144
1.0
147
0.0208333333333333
147
0.0
147
0.0
147
0.0
147
0.0
147
0.0208333333333333
147
0.0
147
0.0
147
0.0
147
0.0
147
1.0
147
0.0
147
0.0
147
0.0
147
0.0
147
1.0
  0
MLEADERSTYLE
  5
4D8
102
{ACAD_REACTORS
330
48A
102
}
330
48A
100
AcDbMLeaderStyle
170
     2
171
     1
172
     0
 90
        2
 40
0.0
 41
0.0
173
     1
 91
-1056964608
340
14
 92
       -2
290
     1
 42
0.09
291
     1
 43
0.36
  3
Standard
 44
0.18
300

342
11
174
     1
178
     6
175
     1
176
     0
 93
-1056964608
 45
0.18
292
     0
297
     0
 46
0.18
 94
-1056964608
 47
1.0
 49
1.0
140
1.0
293
     1
141
0.0
294
     1
177
     0
142
1.0
295
     0
296
     0
143
0.125
1001
ACAD_MLEADERVER
1070
     2
  0
MLINESTYLE
  5
18
102
{ACAD_REACTORS
330
17
102
}
330
17
100
AcDbMlineStyle
  2
STANDARD
 70
     0
  3

 62
   256
 51
90.0
 52
90.0
 71
     2
 49
0.5
 62
   256
  6
BYLAYER
 49
-0.5
 62
   256
  6
BYLAYER
  0
ACDBPLACEHOLDER
  5
F
102
{ACAD_REACTORS
330
E
102
}
330
E
  0
SCALE
  5
6E
102
{ACAD_REACTORS
330
6D
102
}
330
6D
100
AcDbScale
 70
     0
300
1:1
140
1.0
141
1.0
290
     1
  0
SCALE
  5
6F
102
{ACAD_REACTORS
330
6D
102
}
330
6D
100
AcDbScale
 70
     0
300
1:2
140
1.0
141
2.0
290
     0
  0
SCALE
  5
70
102
{ACAD_REACTORS
330
6D
102
}
330
6D
100
AcDbScale
 70
     0
300
1:4
140
1.0
141
4.0
290
     0
  0
SCALE
  5
71
102
{ACAD_REACTORS
330
6D
102
}
330
6D
100
AcDbScale
 70
     0
300
1:5
140
1.0
141
5.0
290
     0
  0
SCALE
  5
72
102
{ACAD_REACTORS
330
6D
102
}
330
6D
100
AcDbScale
 70
     0
300
1:8
140
1.0
141
8.0
290
     0
  0
SCALE
  5
73
102
{ACAD_REACTORS
330
6D
102
}
330
6D
100
AcDbScale
 70
     0
300
1:10
140
1.0
141
10.0
290
     0
  0
SCALE
  5
74
102
{ACAD_REACTORS
330
6D
102
}
330
6D
100
AcDbScale
 70
     0
300
1:16
140
1.0
141
16.0
290
     0
  0
SCALE
  5
75
102
{ACAD_REACTORS
330
6D
102
}
330
6D
100
AcDbScale
 70
     0
300
1:20
140
1.0
141
20.0
290
     0
  0
SCALE
  5
76
102
{ACAD_REACTORS
330
6D
102
}
330
6D
100
AcDbScale
 70
     0
300
1:30
140
1.0
141
30.0
290
     0
  0
SCALE
  5
77
102
{ACAD_REACTORS
330
6D
102
}
330
6D
100
AcDbScale
 70
     0
300
1:40
140
1.0
141
40.0
290
     0
  0
SCALE
  5
78
102
{ACAD_REACTORS
330
6D
102
}
330
6D
100
AcDbScale
 70
     0
300
1:50
140
1.0
141
50.0
290
     0
  0
SCALE
  5
79
102
{ACAD_REACTORS
330
6D
102
}
330
6D
100
AcDbScale
 70
     0
300
1:100
140
1.0
141
100.0
290
     0
  0
SCALE
  5
7A
102
{ACAD_REACTORS
330
6D
102
}
330
6D
100
AcDbScale
 70
     0
300
2:1
140
2.0
141
1.0
290
     0
  0
SCALE
  5
7B
102
{ACAD_REACTORS
330
6D
102
}
330
6D
100
AcDbScale
 70
     0
300
4:1
140
4.0
141
1.0
290
     0
  0
SCALE
  5
7C
102
{ACAD_REACTORS
330
6D
102
}
330
6D
100
AcDbScale
 70
     0
300
8:1
140
8.0
141
1.0
290
     0
  0
SCALE
  5
7D
102
{ACAD_REACTORS
330
6D
102
}
330
6D
100
AcDbScale
 70
     0
300
10:1
140
10.0
141
1.0
290
     0
  0
SCALE
  5
7E
102
{ACAD_REACTORS
330
6D
102
}
330
6D
100
AcDbScale
 70
     0
300
100:1
140
100.0
141
1.0
290
     0
  0
SCALE
  5
7F
102
{ACAD_REACTORS
330
6D
102
}
330
6D
100
AcDbScale
 70
     0
300
1/128" = 1'-0"
140
0.007812
141
12.0
290
     0
  0
SCALE
  5
80
102
{ACAD_REACTORS
330
6D
102
}
330
6D
100
AcDbScale
 70
     0
300
1/64" = 1'-0"
140
0.015625
141
12.0
290
     0
  0
SCALE
  5
81
102
{ACAD_REACTORS
330
6D
102
}
330
6D
100
AcDbScale
 70
     0
300
1/32" = 1'-0"
140
0.03125
141
12.0
290
     0
  0
SCALE
  5
82
102
{ACAD_REACTORS
330
6D
102
}
330
6D
100
AcDbScale
 70
     0
300
1/16" = 1'-0"
140
0.0625
141
12.0
290
     0
  0
SCALE
  5
83
102
{ACAD_REACTORS
330
6D
102
}
330
6D
100
AcDbScale
 70
     0
300
3/32" = 1'-0"
140
0.09375
141
12.0
290
     0
  0
SCALE
  5
84
102
{ACAD_REACTORS
330
6D
102
}
330
6D
100
AcDbScale
 70
     0
300
1/8" = 1'-0"
140
0.125
141
12.0
290
     0
  0
SCALE
  5
85
102
{ACAD_REACTORS
330
6D
102
}
330
6D
100
AcDbScale
 70
     0
300
3/16" = 1'-0"
140
0.1875
141
12.0
290
     0
  0
SCALE
  5
86
102
{ACAD_REACTORS
330
6D
102
}
330
6D
100
AcDbScale
 70
     0
300
1/4" = 1'-0"
140
0.25
141
12.0
290
     0
  0
SCALE
  5
87
102
{ACAD_REACTORS
330
6D
102
}
330
6D
100
AcDbScale
 70
     0
300
3/8" = 1'-0"
140
0.375
141
12.0
290
     0
  0
SCALE
  5
88
102
{ACAD_REACTORS
330
6D
102
}
330
6D
100
AcDbScale
 70
     0
300
1/2" = 1'-0"
140
0.5
141
12.0
290
     0
  0
SCALE
  5
89
102
{ACAD_REACTORS
330
6D
102
}
330
6D
100
AcDbScale
 70
     0
300
3/4" = 1'-0"
140
0.75
141
12.0
290
     0
  0
SCALE
  5
8A
102
{ACAD_REACTORS
330
6D
102
}
330
6D
100
AcDbScale
 70
     0
300
1" = 1'-0"
140
1.0
141
12.0
290
     0
  0
SCALE
  5
8B
102
{ACAD_REACTORS
330
6D
102
}
330
6D
100
AcDbScale
 70
     0
300
1-1/2" = 1'-0"
140
1.5
141
12.0
290
     0
  0
SCALE
  5
8C
102
{ACAD_REACTORS
330
6D
102
}
330
6D
100
AcDbScale
 70
     0
300
3" = 1'-0"
140
3.0
141
12.0
290
     0
  0
SCALE
  5
8D
102
{ACAD_REACTORS
330
6D
102
}
330
6D
100
AcDbScale
 70
     0
300
6" = 1'-0"
140
6.0
141
12.0
290
     0
  0
SCALE
  5
8E
102
{ACAD_REACTORS
330
6D
102
}
330
6D
100
AcDbScale
 70
     0
300
1'-0" = 1'-0"
140
12.0
141
12.0
290
     0
  0
ACDBSECTIONVIEWSTYLE
  5
4DA
102
{ACAD_XDICTIONARY
360
541
102
}
102
{ACAD_REACTORS
330
4D9
102
}
330
4D9
100
AcDbModelDocViewStyle
 70
     0
  3
Imperial24
290
     0
100
AcDbSectionViewStyle
 70
     0
 71
     0
 90
       78
 71
     1
340
11
 62
   256
 40
0.24
340
0
340
0
 62
   256
 40
0.24
300
I, O, Q, S, X, Z
 40
0.48
 90
        3
 40
0.18
 90
        1
 71
     2
340
16
 90
       25
 62
   256
340
16
 90
       50
 62
   256
 40
0.24
 40
0.0
 40
0.24
 71
     3
340
11
 62
   256
 40
0.24
 90
        1
 40
0.75
 90
        1
300
%<\AcVar ViewType \f "%tc1">% %<\AcVar ViewSectionStartId>%-%<\AcVar ViewSectionEndId>%\PSCALE %<\AcVar ViewScale \f "%sn">%
 71
     4
 62
   256
 62
   257
300
ANSI31
 40
1.0
 90
        0
290
     0
290
     0
 90
        6
 40
0.0
 40
1.570796326794896
 40
0.2617993877991494
 40
1.308996938995747
 40
-0.2617993877991494
 40
1.832595714594046
  0
TABLESTYLE
  5
4D7
102
{ACAD_XDICTIONARY
360
505
102
}
102
{ACAD_REACTORS
330
4D6
102
}
330
4D6
100
AcDbTableStyle
  3
Standard
 70
     0
 71
     0
 40
0.06
 41
0.06
280
     0
281
     0
  7
Standard
140
0.18
170
     2
 62
     0
 63
     7
283
     0
274
    -2
284
     1
 64
     0
275
    -2
285
     1
 65
     0
276
    -2
286
     1
 66
     0
277
    -2
287
     1
 67
     0
278
    -2
288
     1
 68
     0
279
    -2
289
     1
 69
     0
  7
Standard
140
0.25
170
     5
 62
     0
 63
     7
283
     0
274
    -2
284
     1
 64
     0
275
    -2
285
     1
 65
     0
276
    -2
286
     1
 66
     0
277
    -2
287
     1
 67
     0
278
    -2
288
     1
 68
     0
279
    -2
289
     1
 69
     0
  7
Standard
140
0.18
170
     5
 62
     0
 63
     7
283
     0
274
    -2
284
     1
 64
     0
275
    -2
285
     1
 65
     0
276
    -2
286
     1
 66
     0
277
    -2
287
     1
 67
     0
278
    -2
288
     1
 68
     0
279
    -2
289
     1
 69
     0
  0
VISUALSTYLE
  5
2F
102
{ACAD_XDICTIONARY
360
510
102
}
102
{ACAD_REACTORS
330
2A
102
}
330
2A
100
AcDbVisualStyle
  2

 70
     4
 71
     0
 72
     2
 73
     0
 90
        0
 40
-0.6
 41
-30.0
 62
     5
 63
     7
 74
     1
 91
        4
 64
     7
 65
   257
 75
     1
175
     1
 42
1.0
 92
        0
 66
   257
 43
1.0
 76
     1
 77
     6
 78
     2
 67
     7
 79
     5
170
     0
171
     0
290
     0
174
     0
 93
        1
 44
0.0
173
     0
291
     0
 45
0.0
1001
ACAD
1000
AcDbSavedByObjectVersion
1070
     0
  0
VISUALSTYLE
  5
31
102
{ACAD_XDICTIONARY
360
514
102
}
102
{ACAD_REACTORS
330
2A
102
}
330
2A
100
AcDbVisualStyle
  2

 70
     6
 71
     1
 72
     2
 73
     2
 90
        0
 40
-0.6
 41
-30.0
 62
     5
 63
     7
 74
     2
 91
        2
 64
     7
 65
   257
 75
     2
175
     1
 42
40.0
 92
        0
 66
   257
 43
1.0
 76
     1
 77
     6
 78
     2
 67
     7
 79
     3
170
     0
171
     0
290
     0
174
     0
 93
        1
 44
0.0
173
     0
291
     0
 45
0.0
1001
ACAD
1000
AcDbSavedByObjectVersion
1070
     0
  0
VISUALSTYLE
  5
30
102
{ACAD_XDICTIONARY
360
512
102
}
102
{ACAD_REACTORS
330
2A
102
}
330
2A
100
AcDbVisualStyle
  2

 70
     5
 71
     0
 72
     2
 73
     0
 90
        0
 40
-0.6
 41
-30.0
 62
     5
 63
     7
 74
     1
 91
        4
 64
     7
 65
   257
 75
     1
175
     1
 42
1.0
 92
        0
 66
   257
 43
1.0
 76
     1
 77
     6
 78
     2
 67
     7
 79
     5
170
     0
171
     0
290
     0
174
     0
 93
        1
 44
0.0
173
     0
291
     0
 45
0.0
1001
ACAD
1000
AcDbSavedByObjectVersion
1070
     0
  0
VISUALSTYLE
  5
32
102
{ACAD_XDICTIONARY
360
516
102
}
102
{ACAD_REACTORS
330
2A
102
}
330
2A
100
AcDbVisualStyle
  2

 70
     7
 71
     1
 72
     0
 73
     1
 90
        0
 40
-0.6
 41
-30.0
 62
     5
 63
     7
 74
     0
 91
        4
 64
     7
 65
   257
 75
     1
175
     1
 42
1.0
 92
        8
 66
     7
 43
1.0
 76
     1
 77
     6
 78
     2
 67
     7
 79
     5
170
     0
171
     0
290
     0
174
     0
 93
        1
 44
0.0
173
     0
291
     1
 45
0.0
1001
ACAD
1000
AcDbSavedByObjectVersion
1070
     0
  0
VISUALSTYLE
  5
36
102
{ACAD_XDICTIONARY
360
51E
102
}
102
{ACAD_REACTORS
330
2A
102
}
330
2A
100
AcDbVisualStyle
  2

 70
    12
 71
     2
 72
     2
 73
     0
 90
        0
 40
-0.6
 41
-30.0
 62
     5
 63
     7
 74
     1
 91
        4
 64
     7
 65
   257
 75
     1
175
     1
 42
1.0
 92
        8
 66
     7
 43
1.0
 76
     1
 77
     6
 78
     2
 67
     7
 79
     5
170
     0
171
     0
290
     0
174
     0
 93
        1
 44
50.0
173
     0
291
     1
 45
0.0
1001
ACAD
1000
AcDbSavedByObjectVersion
1070
     0
  0
VISUALSTYLE
  5
3A
102
{ACAD_XDICTIONARY
360
526
102
}
102
{ACAD_REACTORS
330
2A
102
}
330
2A
100
AcDbVisualStyle
  2

 70
    16
 71
     2
 72
     2
 73
     3
 90
        0
 40
-0.6
 41
-30.0
 62
     5
 63
     8
 74
     1
 91
        4
 64
     7
 65
   257
 75
     1
175
     1
 42
1.0
 92
        8
 66
     8
 43
1.0
 76
     1
 77
     6
 78
     2
 67
     7
 79
     5
170
     0
171
     0
290
     0
174
     0
 93
        1
 44
0.0
173
     0
291
     1
 45
0.0
1001
ACAD
1000
AcDbSavedByObjectVersion
1070
     0
  0
VISUALSTYLE
  5
34
102
{ACAD_XDICTIONARY
360
51A
102
}
102
{ACAD_REACTORS
330
2A
102
}
330
2A
100
AcDbVisualStyle
  2

 70
     9
 71
     3
 72
     2
 73
     0
 90
        0
 40
-0.6
 41
-30.0
 62
     5
 63
     7
 74
     2
 91
        2
 64
     7
 65
   257
 75
     1
175
     1
 42
40.0
 92
        8
 66
     7
 43
1.0
 76
     1
 77
     6
 78
     2
 67
     7
 79
     3
170
     0
171
     0
290
     0
174
     0
 93
        1
 44
0.0
173
     0
291
     0
 45
0.0
1001
ACAD
1000
AcDbSavedByObjectVersion
1070
     0
  0
VISUALSTYLE
  5
35
102
{ACAD_XDICTIONARY
360
51C
102
}
102
{ACAD_REACTORS
330
2A
102
}
330
2A
100
AcDbVisualStyle
  2

 70
    11
 71
     2
 72
     2
 73
     0
 90
        0
 40
-0.6
 41
-30.0
 62
     5
 63
     7
 74
     1
 91
        4
 64
     7
 65
   257
 75
     1
175
     1
 42
1.0
 92
        8
 66
     7
 43
1.0
 76
     1
 77
     6
 78
     2
 67
     7
 79
     5
170
     0
171
     0
290
     0
174
     0
 93
        1
 44
-50.0
173
     0
291
     1
 45
0.0
1001
ACAD
1000
AcDbSavedByObjectVersion
1070
     0
  0
VISUALSTYLE
  5
4D4
102
{ACAD_XDICTIONARY
360
53D
102
}
102
{ACAD_REACTORS
330
2A
102
}
330
2A
100
AcDbVisualStyle
  2
EdgeColorOff
 70
    22
 71
     2
 72
     2
 73
     0
 90
        0
 40
-0.6
 41
-30.0
 62
     5
 63
     7
421
 16777215
 74
     1
 91
        4
 64
     7
 65
   257
 75
     1
175
     1
 42
1.0
 92
        8
 66
     7
 43
1.0
 76
     1
 77
     6
 78
     2
 67
     7
 79
     5
170
     0
171
     0
290
     0
174
     0
 93
        1
 44
0.0
173
     0
291
     1
 45
0.0
1001
ACAD
1000
AcDbSavedByObjectVersion
1070
     0
  0
VISUALSTYLE
  5
39
102
{ACAD_XDICTIONARY
360
524
102
}
102
{ACAD_REACTORS
330
2A
102
}
330
2A
100
AcDbVisualStyle
  2

 70
    15
 71
     2
 72
     2
 73
     0
 90
        0
 40
-0.6
 41
-30.0
 62
     5
 63
     7
 74
     1
 91
        4
 64
     7
 65
   257
 75
     1
175
     1
 42
1.0
 92
        8
 66
     7
 43
1.0
 76
     1
 77
     6
 78
     2
 67
     7
 79
     5
170
     0
171
     0
290
     0
174
     0
 93
        1
 44
0.0
173
     0
291
     1
 45
0.0
1001
ACAD
1000
AcDbSavedByObjectVersion
1070
     0
  0
VISUALSTYLE
  5
2B
102
{ACAD_XDICTIONARY
360
508
102
}
102
{ACAD_REACTORS
330
2A
102
}
330
2A
100
AcDbVisualStyle
  2

 70
     0
 71
     2
 72
     1
 73
     1
 90
        2
 40
-0.6
 41
30.0
 62
     5
 63
     7
 74
     0
 91
        4
 64
     7
 65
   257
 75
     1
175
     1
 42
1.0
 92
        8
 66
     7
 43
1.0
 76
     1
 77
     6
 78
     2
 67
     7
 79
     5
170
     0
171
     0
290
     0
174
     0
 93
       13
 44
0.0
173
     0
291
     1
 45
0.0
1001
ACAD
1000
AcDbSavedByObjectVersion
1070
     0
  0
VISUALSTYLE
  5
2C
102
{ACAD_XDICTIONARY
360
50A
102
}
102
{ACAD_REACTORS
330
2A
102
}
330
2A
100
AcDbVisualStyle
  2

 70
     1
 71
     2
 72
     1
 73
     1
 90
        2
 40
-0.6
 41
30.0
 62
     5
 63
     7
 74
     1
 91
        4
 64
     7
 65
   257
 75
     1
175
     1
 42
1.0
 92
        0
 66
   257
 43
1.0
 76
     1
 77
     6
 78
     2
 67
     7
 79
     5
170
     0
171
     0
290
     0
174
     0
 93
       13
 44
0.0
173
     0
291
     1
 45
0.0
1001
ACAD
1000
AcDbSavedByObjectVersion
1070
     0
  0
VISUALSTYLE
  5
2D
102
{ACAD_XDICTIONARY
360
50C
102
}
102
{ACAD_REACTORS
330
2A
102
}
330
2A
100
AcDbVisualStyle
  2

 70
     2
 71
     2
 72
     2
 73
     1
 90
        2
 40
-0.6
 41
30.0
 62
     5
 63
     7
 74
     0
 91
        4
 64
     7
 65
   257
 75
     1
175
     1
 42
1.0
 92
        0
 66
     7
 43
1.0
 76
     1
 77
     6
 78
     2
 67
     7
 79
     5
170
     0
171
     0
290
     0
174
     0
 93
       13
 44
0.0
173
     0
291
     1
 45
0.0
1001
ACAD
1000
AcDbSavedByObjectVersion
1070
     0
  0
VISUALSTYLE
  5
2E
102
{ACAD_XDICTIONARY
360
50E
102
}
102
{ACAD_REACTORS
330
2A
102
}
330
2A
100
AcDbVisualStyle
  2

 70
     3
 71
     2
 72
     2
 73
     1
 90
        2
 40
-0.6
 41
30.0
 62
     5
 63
     7
 74
     1
 91
        4
 64
     7
 65
   257
 75
     1
175
     1
 42
1.0
 92
        0
 66
   257
 43
1.0
 76
     1
 77
     6
 78
     2
 67
     7
 79
     5
170
     0
171
     0
290
     0
174
     0
 93
       13
 44
0.0
173
     0
291
     1
 45
0.0
1001
ACAD
1000
AcDbSavedByObjectVersion
1070
     0
  0
VISUALSTYLE
  5
4CC
102
{ACAD_XDICTIONARY
360
52D
102
}
102
{ACAD_REACTORS
330
2A
102
}
330
2A
100
AcDbVisualStyle
  2
Hidden
 70
     6
 71
     1
 72
     2
 73
     2
 90
        0
 40
-0.6
 41
-30.0
 62
     5
 63
     7
421
 16777215
 74
     2
 91
        2
 64
     7
 65
   257
 75
     2
175
     1
 42
40.0
 92
        0
 66
   257
 43
1.0
 76
     1
 77
     6
 78
     2
 67
     7
 79
     3
170
     0
171
     0
290
     0
174
     0
 93
        1
 44
0.0
173
     0
291
     0
 45
0.0
1001
ACAD
1000
AcDbSavedByObjectVersion
1070
     0
  0
VISUALSTYLE
  5
4D2
102
{ACAD_XDICTIONARY
360
539
102
}
102
{ACAD_REACTORS
330
2A
102
}
330
2A
100
AcDbVisualStyle
  2
JitterOff
 70
    20
 71
     2
 72
     2
 73
     0
 90
        0
 40
-0.6
 41
-30.0
 62
     5
 63
     7
421
 16777215
 74
     1
 91
        4
 64
     7
 65
   257
 75
     1
175
     1
 42
1.0
 92
       10
 66
     7
 43
1.0
 76
     1
 77
     6
 78
     2
 67
     7
 79
     5
170
     0
171
     0
290
     0
174
     0
 93
        1
 44
0.0
173
     0
291
     1
 45
0.0
1001
ACAD
1000
AcDbSavedByObjectVersion
1070
     0
  0
VISUALSTYLE
  5
38
102
{ACAD_XDICTIONARY
360
522
102
}
102
{ACAD_REACTORS
330
2A
102
}
330
2A
100
AcDbVisualStyle
  2

 70
    14
 71
     2
 72
     2
 73
     0
 90
        0
 40
-0.6
 41
-30.0
 62
     5
 63
     7
 74
     1
 91
        4
 64
     7
 65
   257
 75
     7
175
     7
 42
1.0
 92
        8
 66
     7
 43
1.0
 76
     1
 77
     6
 78
     2
 67
     7
 79
     5
170
     0
171
     0
290
     0
174
     0
 93
        1
 44
0.0
173
     0
291
     1
 45
0.0
1001
ACAD
1000
AcDbSavedByObjectVersion
1070
     0
  0
VISUALSTYLE
  5
4D3
102
{ACAD_XDICTIONARY
360
53B
102
}
102
{ACAD_REACTORS
330
2A
102
}
330
2A
100
AcDbVisualStyle
  2
OverhangOff
 70
    21
 71
     2
 72
     2
 73
     0
 90
        0
 40
-0.6
 41
-30.0
 62
     5
 63
     7
421
 16777215
 74
     1
 91
        4
 64
     7
 65
   257
 75
     1
175
     1
 42
1.0
 92
        9
 66
     7
 43
1.0
 76
     1
 77
     6
 78
     2
 67
     7
 79
     5
170
     0
171
     0
290
     0
174
     0
 93
        1
 44
0.0
173
     0
291
     1
 45
0.0
1001
ACAD
1000
AcDbSavedByObjectVersion
1070
     0
  0
VISUALSTYLE
  5
33
102
{ACAD_XDICTIONARY
360
518
102
}
102
{ACAD_REACTORS
330
2A
102
}
330
2A
100
AcDbVisualStyle
  2

 70
     8
 71
     2
 72
     2
 73
     0
 90
        0
 40
-0.6
 41
-30.0
 62
     5
 63
     7
 74
     1
 91
        0
 64
     7
 65
   257
 75
     1
175
     1
 42
1.0
 92
        8
 66
     8
 43
1.0
 76
     1
 77
     6
 78
     2
 67
     7
 79
     5
170
     0
171
     0
290
     0
174
     0
 93
       13
 44
0.0
173
     0
291
     0
 45
0.0
1001
ACAD
1000
AcDbSavedByObjectVersion
1070
     0
  0
VISUALSTYLE
  5
4D1
102
{ACAD_XDICTIONARY
360
537
102
}
102
{ACAD_REACTORS
330
2A
102
}
330
2A
100
AcDbVisualStyle
  2
Shaded
 70
    27
 71
     2
 72
     2
 73
     1
 90
        2
 40
-0.6
 41
30.0
 62
     5
 63
     7
421
 16777215
 74
     0
 91
        4
 64
     7
 65
   257
 75
     1
175
     1
 42
1.0
 92
        8
 66
   257
 43
1.0
 76
     1
 77
     6
 78
     2
 67
     8
425
  7895160
 79
     3
170
     0
171
     0
290
     0
174
     0
 93
        5
 44
0.0
173
     0
291
     0
 45
0.0
1001
ACAD
1000
AcDbSavedByObjectVersion
1070
     0
  0
VISUALSTYLE
  5
4D0
102
{ACAD_XDICTIONARY
360
535
102
}
102
{ACAD_REACTORS
330
2A
102
}
330
2A
100
AcDbVisualStyle
  2
Shaded with edges
 70
    26
 71
     2
 72
     2
 73
     1
 90
        2
 40
-0.6
 41
30.0
 62
     5
 63
     7
421
 16777215
 74
     1
 91
       10
 64
     7
 65
   257
 75
     2
175
     1
 42
1.0
 92
        8
 66
   257
 43
1.0
 76
     1
 77
     6
 78
     2
 67
     7
 79
     3
170
     0
171
     0
290
     0
174
     0
 93
        5
 44
0.0
173
     0
291
     0
 45
0.0
1001
ACAD
1000
AcDbSavedByObjectVersion
1070
     0
  0
VISUALSTYLE
  5
4CD
102
{ACAD_XDICTIONARY
360
52F
102
}
102
{ACAD_REACTORS
330
2A
102
}
330
2A
100
AcDbVisualStyle
  2
Shades of Gray
 70
    23
 71
     2
 72
     2
 73
     3
 90
        0
 40
-0.6
 41
-30.0
 62
     5
 63
     7
421
 16777215
 74
     2
 91
        2
 64
     7
 65
     7
 75
     1
175
     1
 42
40.0
 92
        8
 66
     7
 43
1.0
 76
     1
 77
     6
 78
     2
 67
     7
 79
     3
170
     0
171
     0
290
     0
174
     0
 93
        1
 44
0.0
173
     0
291
     0
 45
0.0
1001
ACAD
1000
AcDbSavedByObjectVersion
1070
     0
  0
VISUALSTYLE
  5
4CE
102
{ACAD_XDICTIONARY
360
531
102
}
102
{ACAD_REACTORS
330
2A
102
}
330
2A
100
AcDbVisualStyle
  2
Sketchy
 70
    24
 71
     1
 72
     2
 73
     2
 90
        0
 40
-0.6
 41
-30.0
 62
     5
 63
     7
421
 16777215
 74
     2
 91
        2
 64
     7
 65
     7
 75
     1
175
     1
 42
40.0
 92
       11
 66
     7
 43
1.0
 76
     1
 77
     6
 78
     2
 67
     7
 79
     6
170
     0
171
     0
290
     0
174
     0
 93
        1
 44
0.0
173
     0
291
     0
 45
0.0
1001
ACAD
1000
AcDbSavedByObjectVersion
1070
     0
  0
VISUALSTYLE
  5
37
102
{ACAD_XDICTIONARY
360
520
102
}
102
{ACAD_REACTORS
330
2A
102
}
330
2A
100
AcDbVisualStyle
  2

 70
    13
 71
     2
 72
     2
 73
     0
 90
        0
 40
-0.6
 41
-30.0
 62
     5
 63
     7
 74
     1
 91
        4
 64
     7
 65
   257
 75
     1
175
     1
 42
1.0
 92
       12
 66
     7
 43
1.0
 76
     1
 77
     6
 78
     2
 67
     7
 79
     5
170
     0
171
     0
290
     0
174
     0
 93
        1
 44
0.0
173
     0
291
     1
 45
0.0
1001
ACAD
1000
AcDbSavedByObjectVersion
1070
     0
  0
VISUALSTYLE
  5
4CB
102
{ACAD_XDICTIONARY
360
52B
102
}
102
{ACAD_REACTORS
330
2A
102
}
330
2A
100
AcDbVisualStyle
  2
Wireframe
 70
     5
 71
     0
 72
     2
 73
     0
 90
        0
 40
-0.6
 41
-30.0
 62
     5
 63
     7
421
 16777215
 74
     1
 91
        4
 64
     7
 65
   257
 75
     1
175
     1
 42
1.0
 92
        0
 66
   257
 43
1.0
 76
     1
 77
     6
 78
     2
 67
     7
 79
     3
170
     0
171
     0
290
     0
174
     0
 93
        1
 44
0.0
173
     0
291
     0
 45
0.0
1001
ACAD
1000
AcDbSavedByObjectVersion
1070
     0
  0
VISUALSTYLE
  5
4CF
102
{ACAD_XDICTIONARY
360
533
102
}
102
{ACAD_REACTORS
330
2A
102
}
330
2A
100
AcDbVisualStyle
  2
X-Ray
 70
    25
 71
     2
 72
     2
 73
     1
 90
        1
 40
0.5
 41
-30.0
 62
     5
 63
     7
421
 16777215
 74
     1
 91
        0
 64
     7
 65
   257
 75
     1
175
     1
 42
1.0
 92
        8
 66
     7
 43
1.0
 76
     1
 77
     6
 78
     2
 67
     7
 79
     3
170
     0
171
     0
290
     0
174
     0
 93
       13
 44
0.0
173
     0
291
     0
 45
0.0
1001
ACAD
1000
AcDbSavedByObjectVersion
1070
     0
  0
DICTIONARYVAR
  5
48B
102
{ACAD_REACTORS
330
488
102
}
330
488
100
DictionaryVariables
280
     0
  1
1:1
  0
DICTIONARYVAR
  5
500
102
{ACAD_REACTORS
330
488
102
}
330
488
100
DictionaryVariables
280
     0
  1
STANDARD
  0
DICTIONARYVAR
  5
4FF
102
{ACAD_REACTORS
330
488
102
}
330
488
100
DictionaryVariables
280
     0
  1
STANDARD
  0
DICTIONARYVAR
  5
501
102
{ACAD_REACTORS
330
488
102
}
330
488
100
DictionaryVariables
280
     0
  1
Imperial24
  0
DICTIONARYVAR
  5
502
102
{ACAD_REACTORS
330
488
102
}
330
488
100
DictionaryVariables
280
     0
  1
Imperial24
  0
DICTIONARYVAR
  5
48C
102
{ACAD_REACTORS
330
488
102
}
330
488
100
DictionaryVariables
280
     0
  1
2
  0
DICTIONARYVAR
  5
48D
102
{ACAD_REACTORS
330
488
102
}
330
488
100
DictionaryVariables
280
     0
  1
1
  0
DICTIONARYVAR
  5
503
102
{ACAD_REACTORS
330
488
102
}
330
488
100
DictionaryVariables
280
     0
  1
2
  0
DICTIONARY
  5
543
330
4DC
100
AcDbDictionary
280
     1
281
     1
  3
ACAD_XREC_ROUNDTRIP
360
544
  0
DICTIONARY
  5
4BC
330
4BB
100
AcDbDictionary
280
     1
281
     1
  3
ACAD_XREC_ROUNDTRIP
360
529
  3
BUMPTILE
360
4BE
  3
DIFFUSETILE
360
4BD
  3
OPACITYTILE
360
4C1
  3
REFLECTIONTILE
360
4C0
  3
REFRACTIONTILE
360
4C2
  3
SPECULARTILE
360
4BF
  0
DICTIONARY
  5
4B4
330
4B3
100
AcDbDictionary
280
     1
281
     1
  3
ACAD_XREC_ROUNDTRIP
360
528
  3
BUMPTILE
360
4B6
  3
DIFFUSETILE
360
4B5
  3
OPACITYTILE
360
4B9
  3
REFLECTIONTILE
360
4B8
  3
REFRACTIONTILE
360
4BA
  3
SPECULARTILE
360
4B7
  0
DICTIONARY
  5
4C4
330
4C3
100
AcDbDictionary
280
     1
281
     1
  3
ACAD_XREC_ROUNDTRIP
360
52A
  3
BUMPTILE
360
4C6
  3
DIFFUSETILE
360
4C5
  3
OPACITYTILE
360
4C9
  3
REFLECTIONTILE
360
4C8
  3
REFRACTIONTILE
360
4CA
  3
SPECULARTILE
360
4C7
  0
DICTIONARY
  5
541
330
4DA
100
AcDbDictionary
280
     1
281
     1
  3
ACAD_XREC_ROUNDTRIP
360
542
  0
DICTIONARY
  5
505
330
4D7
100
AcDbDictionary
280
     1
281
     1
  3
ACAD_ROUNDTRIP_2008_TABLESTYLE_CELLSTYLEMAP
360
506
  3
ACAD_XREC_ROUNDTRIP
360
53F
  0
DICTIONARY
  5
510
330
2F
100
AcDbDictionary
280
     1
281
     1
  3
ACAD_XREC_ROUNDTRIP
360
511
  0
DICTIONARY
  5
514
330
31
100
AcDbDictionary
280
     1
281
     1
  3
ACAD_XREC_ROUNDTRIP
360
515
  0
DICTIONARY
  5
512
330
30
100
AcDbDictionary
280
     1
281
     1
  3
ACAD_XREC_ROUNDTRIP
360
513
  0
DICTIONARY
  5
516
330
32
100
AcDbDictionary
280
     1
281
     1
  3
ACAD_XREC_ROUNDTRIP
360
517
  0
DICTIONARY
  5
51E
330
36
100
AcDbDictionary
280
     1
281
     1
  3
ACAD_XREC_ROUNDTRIP
360
51F
  0
DICTIONARY
  5
526
330
3A
100
AcDbDictionary
280
     1
281
     1
  3
ACAD_XREC_ROUNDTRIP
360
527
  0
DICTIONARY
  5
51A
330
34
100
AcDbDictionary
280
     1
281
     1
  3
ACAD_XREC_ROUNDTRIP
360
51B
  0
DICTIONARY
  5
51C
330
35
100
AcDbDictionary
280
     1
281
     1
  3
ACAD_XREC_ROUNDTRIP
360
51D
  0
DICTIONARY
  5
53D
330
4D4
100
AcDbDictionary
280
     1
281
     1
  3
ACAD_XREC_ROUNDTRIP
360
53E
  0
DICTIONARY
  5
524
330
39
100
AcDbDictionary
280
     1
281
     1
  3
ACAD_XREC_ROUNDTRIP
360
525
  0
DICTIONARY
  5
508
330
2B
100
AcDbDictionary
280
     1
281
     1
  3
ACAD_XREC_ROUNDTRIP
360
509
  0
DICTIONARY
  5
50A
330
2C
100
AcDbDictionary
280
     1
281
     1
  3
ACAD_XREC_ROUNDTRIP
360
50B
  0
DICTIONARY
  5
50C
330
2D
100
AcDbDictionary
280
     1
281
     1
  3
ACAD_XREC_ROUNDTRIP
360
50D
  0
DICTIONARY
  5
50E
330
2E
100
AcDbDictionary
280
     1
281
     1
  3
ACAD_XREC_ROUNDTRIP
360
50F
  0
DICTIONARY
  5
52D
330
4CC
100
AcDbDictionary
280
     1
281
     1
  3
ACAD_XREC_ROUNDTRIP
360
52E
  0
DICTIONARY
  5
539
330
4D2
100
AcDbDictionary
280
     1
281
     1
  3
ACAD_XREC_ROUNDTRIP
360
53A
  0
DICTIONARY
  5
522
330
38
100
AcDbDictionary
280
     1
281
     1
  3
ACAD_XREC_ROUNDTRIP
360
523
  0
DICTIONARY
  5
53B
330
4D3
100
AcDbDictionary
280
     1
281
     1
  3
ACAD_XREC_ROUNDTRIP
360
53C
  0
DICTIONARY
  5
518
330
33
100
AcDbDictionary
280
     1
281
     1
  3
ACAD_XREC_ROUNDTRIP
360
519
  0
DICTIONARY
  5
537
330
4D1
100
AcDbDictionary
280
     1
281
     1
  3
ACAD_XREC_ROUNDTRIP
360
538
  0
DICTIONARY
  5
535
330
4D0
100
AcDbDictionary
280
     1
281
     1
  3
ACAD_XREC_ROUNDTRIP
360
536
  0
DICTIONARY
  5
52F
330
4CD
100
AcDbDictionary
280
     1
281
     1
  3
ACAD_XREC_ROUNDTRIP
360
530
  0
DICTIONARY
  5
531
330
4CE
100
AcDbDictionary
280
     1
281
     1
  3
ACAD_XREC_ROUNDTRIP
360
532
  0
DICTIONARY
  5
520
330
37
100
AcDbDictionary
280
     1
281
     1
  3
ACAD_XREC_ROUNDTRIP
360
521
  0
DICTIONARY
  5
52B
330
4CB
100
AcDbDictionary
280
     1
281
     1
  3
ACAD_XREC_ROUNDTRIP
360
52C
  0
DICTIONARY
  5
533
330
4CF
100
AcDbDictionary
280
     1
281
     1
  3
ACAD_XREC_ROUNDTRIP
360
534
  0
XRECORD
  5
544
102
{ACAD_REACTORS
330
543
102
}
330
543
100
AcDbXrecord
280
     1
102
DISPLAYNAME
  1
Imperial24
102
FLAGS
 90
        0
  0
XRECORD
  5
529
102
{ACAD_REACTORS
330
4BC
102
}
330
4BC
100
AcDbXrecord
280
     1
102
MATERIAL
148
0.0
149
0.0
149
0.0
 93
        0
 94
      127
282
     0
 72
     0
 77
     0
171
     0
175
     0
179
     0
273
     0
  0
XRECORD
  5
4BE
102
{ACAD_REACTORS
330
4BC
102
}
330
4BC
100
AcDbXrecord
280
     1
270
     1
271
     1
  0
XRECORD
  5
4BD
102
{ACAD_REACTORS
330
4BC
102
}
330
4BC
100
AcDbXrecord
280
     1
270
     1
271
     1
  0
XRECORD
  5
4C1
102
{ACAD_REACTORS
330
4BC
102
}
330
4BC
100
AcDbXrecord
280
     1
270
     1
271
     1
  0
XRECORD
  5
4C0
102
{ACAD_REACTORS
330
4BC
102
}
330
4BC
100
AcDbXrecord
280
     1
270
     1
271
     1
  0
XRECORD
  5
4C2
102
{ACAD_REACTORS
330
4BC
102
}
330
4BC
100
AcDbXrecord
280
     1
270
     1
271
     1
  0
XRECORD
  5
4BF
102
{ACAD_REACTORS
330
4BC
102
}
330
4BC
100
AcDbXrecord
280
     1
270
     1
271
     1
  0
XRECORD
  5
528
102
{ACAD_REACTORS
330
4B4
102
}
330
4B4
100
AcDbXrecord
280
     1
102
MATERIAL
148
0.0
149
0.0
149
0.0
 93
        0
 94
      127
282
     0
 72
     0
 77
     0
171
     0
175
     0
179
     0
273
     0
  0
XRECORD
  5
4B6
102
{ACAD_REACTORS
330
4B4
102
}
330
4B4
100
AcDbXrecord
280
     1
270
     1
271
     1
  0
XRECORD
  5
4B5
102
{ACAD_REACTORS
330
4B4
102
}
330
4B4
100
AcDbXrecord
280
     1
270
     1
271
     1
  0
XRECORD
  5
4B9
102
{ACAD_REACTORS
330
4B4
102
}
330
4B4
100
AcDbXrecord
280
     1
270
     1
271
     1
  0
XRECORD
  5
4B8
102
{ACAD_REACTORS
330
4B4
102
}
330
4B4
100
AcDbXrecord
280
     1
270
     1
271
     1
  0
XRECORD
  5
4BA
102
{ACAD_REACTORS
330
4B4
102
}
330
4B4
100
AcDbXrecord
280
     1
270
     1
271
     1
  0
XRECORD
  5
4B7
102
{ACAD_REACTORS
330
4B4
102
}
330
4B4
100
AcDbXrecord
280
     1
270
     1
271
     1
  0
XRECORD
  5
52A
102
{ACAD_REACTORS
330
4C4
102
}
330
4C4
100
AcDbXrecord
280
     1
102
MATERIAL
148
0.0
149
0.0
149
0.0
 93
        0
 94
      127
282
     0
 72
     0
 77
     0
171
     0
175
     0
179
     0
273
     0
  0
XRECORD
  5
4C6
102
{ACAD_REACTORS
330
4C4
102
}
330
4C4
100
AcDbXrecord
280
     1
270
     1
271
     1
  0
XRECORD
  5
4C5
102
{ACAD_REACTORS
330
4C4
102
}
330
4C4
100
AcDbXrecord
280
     1
270
     1
271
     1
  0
XRECORD
  5
4C9
102
{ACAD_REACTORS
330
4C4
102
}
330
4C4
100
AcDbXrecord
280
     1
270
     1
271
     1
  0
XRECORD
  5
4C8
102
{ACAD_REACTORS
330
4C4
102
}
330
4C4
100
AcDbXrecord
280
     1
270
     1
271
     1
  0
XRECORD
  5
4CA
102
{ACAD_REACTORS
330
4C4
102
}
330
4C4
100
AcDbXrecord
280
     1
270
     1
271
     1
  0
XRECORD
  5
4C7
102
{ACAD_REACTORS
330
4C4
102
}
330
4C4
100
AcDbXrecord
280
     1
270
     1
271
     1
  0
XRECORD
  5
542
102
{ACAD_REACTORS
330
541
102
}
330
541
100
AcDbXrecord
280
     1
102
DISPLAYNAME
  1
Imperial24
102
FLAGS
 90
        0
  0
CELLSTYLEMAP
  5
506
102
{ACAD_REACTORS
330
505
102
}
330
505
100
AcDbCellStyleMap
 90
        3
300
CELLSTYLE
  1
TABLEFORMAT_BEGIN
 90
        5
170
     1
 91
        0
 92
    32768
 62
   257
 93
        1
300
CONTENTFORMAT
  1
CONTENTFORMAT_BEGIN
 90
        0
 91
        0
 92
      512
 93
        0
300

 40
0.0
140
1.0
 94
        5
 62
     0
340
11
144
0.25
309
CONTENTFORMAT_END
171
     0
 94
        0
309
TABLEFORMAT_END
  1
CELLSTYLE_BEGIN
 90
        1
 91
        1
300
_TITLE
309
CELLSTYLE_END
300
CELLSTYLE
  1
TABLEFORMAT_BEGIN
 90
        5
170
     1
 91
        0
 92
        0
 62
   257
 93
        1
300
CONTENTFORMAT
  1
CONTENTFORMAT_BEGIN
 90
        0
 91
        0
 92
      512
 93
        0
300

 40
0.0
140
1.0
 94
        5
 62
     0
340
11
144
0.18
309
CONTENTFORMAT_END
171
     0
 94
        0
309
TABLEFORMAT_END
  1
CELLSTYLE_BEGIN
 90
        2
 91
        1
300
_HEADER
309
CELLSTYLE_END
300
CELLSTYLE
  1
TABLEFORMAT_BEGIN
 90
        5
170
     1
 91
        0
 92
        0
 62
   257
 93
        1
300
CONTENTFORMAT
  1
CONTENTFORMAT_BEGIN
 90
        0
 91
        0
 92
      512
 93
        0
300

 40
0.0
140
1.0
 94
        2
 62
     0
340
11
144
0.18
309
CONTENTFORMAT_END
171
     0
 94
        0
309
TABLEFORMAT_END
  1
CELLSTYLE_BEGIN
 90
        3
 91
        2
300
_DATA
309
CELLSTYLE_END
  0
XRECORD
  5
53F
102
{ACAD_REACTORS
330
505
102
}
330
505
100
AcDbXrecord
280
     1
102
ACAD_ROUNDTRIP_PRE2007_TABLESTYLE
 90
      512
 91
        0
  1

 92
      512
 93
        0
  2

 94
      512
 95
        0
  3

  0
XRECORD
  5
511
102
{ACAD_REACTORS
330
510
102
}
330
510
100
AcDbXrecord
280
     1
102
RTVSPost2010Prop28
280
     1
102
RTVSPost2010PropOp28
 70
     1
102
RTVSPost2010Prop29
280
     1
102
RTVSPost2010PropOp29
 70
     1
102
RTVSPost2010Prop30
280
     0
102
RTVSPost2010PropOp30
 70
     1
102
RTVSPost2010Prop31
280
     0
102
RTVSPost2010PropOp31
 70
     1
102
RTVSPost2010Prop32
280
     0
102
RTVSPost2010PropOp32
 70
     1
102
RTVSPost2010Prop33
280
     0
102
RTVSPost2010PropOp33
 70
     1
102
RTVSPost2010Prop34
280
     0
102
RTVSPost2010PropOp34
 70
     1
102
RTVSPost2010Prop35
280
     0
102
RTVSPost2010PropOp35
 70
     1
102
RTVSPost2010Prop36
280
     0
102
RTVSPost2010PropOp36
 70
     1
102
RTVSPost2010Prop37
 90
       50
102
RTVSPost2010PropOp37
 70
     1
102
RTVSPost2010Prop38
140
0.0
102
RTVSPost2010PropOp38
 70
     1
102
RTVSPost2010Prop39
140
1.0
102
RTVSPost2010PropOp39
 70
     1
102
RTVSPost2010Prop40
 90
        0
102
RTVSPost2010PropOp40
 70
     1
102
RTVSPost2010Prop41ColorIndex
 90
       18
102
RTVSPost2010Prop41ColorRGB
 90
        0
102
RTVSPost2010PropOp41
 70
     1
102
RTVSPost2010Prop42
 90
       50
102
RTVSPost2010PropOp42
 70
     1
102
RTVSPost2010Prop43
 90
        3
102
RTVSPost2010PropOp43
 70
     1
102
RTVSPost2010Prop44ColorIndex
 90
        5
102
RTVSPost2010Prop44ColorRGB
 90
      255
102
RTVSPost2010PropOp44
 70
     1
102
RTVSPost2010Prop45
280
     0
102
RTVSPost2010PropOp45
 70
     1
102
RTVSPost2010Prop46
 90
       50
102
RTVSPost2010PropOp46
 70
     1
102
RTVSPost2010Prop47
 90
       50
102
RTVSPost2010PropOp47
 70
     1
102
RTVSPost2010Prop48
 90
       50
102
RTVSPost2010PropOp48
 70
     1
102
RTVSPost2010Prop49
280
     0
102
RTVSPost2010PropOp49
 70
     1
102
RTVSPost2010Prop50
 90
       50
102
RTVSPost2010PropOp50
 70
     1
102
RTVSPost2010Prop51ColorIndex
 90
      256
102
RTVSPost2010Prop51ColorRGB
 90
-16777216
102
RTVSPost2010PropOp51
 70
     0
102
RTVSPost2010Prop52
140
1.0
102
RTVSPost2010PropOp52
 70
     0
102
RTVSPost2010Prop53
 90
        2
102
RTVSPost2010PropOp53
 70
     1
102
RTVSPost2010Prop54
  1
strokes_ogs.tif
102
RTVSPost2010PropOp54
 70
     1
102
RTVSPost2010Prop55
280
     0
102
RTVSPost2010PropOp55
 70
     1
102
RTVSPost2010Prop56
140
1.0
102
RTVSPost2010PropOp56
 70
     1
102
RTVSPost2010Prop57
140
1.0
102
RTVSPost2010PropOp57
 70
     1
102
RTVSPropertyOp0
 70
     1
102
RTVSPropertyOp1
 70
     1
102
RTVSPropertyOp2
 70
     1
102
RTVSPropertyOp3
 70
     1
102
RTVSPropertyOp4
 70
     1
102
RTVSPropertyOp5
 70
     1
102
RTVSPropertyOp6
 70
     1
102
RTVSPropertyOp7
 70
     1
102
RTVSPropertyOp8
 70
     1
102
RTVSPropertyOp9
 70
     1
102
RTVSPropertyOp10
 70
     1
102
RTVSPropertyOp11
 70
     1
102
RTVSPropertyOp12
 70
     1
102
RTVSPropertyOp13
 70
     1
102
RTVSPropertyOp14
 70
     1
102
RTVSPropertyOp15
 70
     1
102
RTVSPropertyOp16
 70
     1
102
RTVSPropertyOp17
 70
     1
102
RTVSPropertyOp18
 70
     1
102
RTVSPropertyOp19
 70
     1
102
RTVSPropertyOp20
 70
     1
102
RTVSPropertyOp21
 70
     1
102
RTVSPropertyOp22
 70
     1
102
RTVSPropertyOp23
 70
     1
102
RTVSPropertyOp24
 70
     1
102
RTVSPropertyOp25
 70
     1
102
RTVSPropertyOp26
 70
     1
102
RTVSPropertyOp27
 70
     1
102
RTVSPropertyOp28
 70
     1
102
RTVSPropertyOp29
 70
     1
102
RTVSPropertyOp30
 70
     1
102
RTVSPropertyOp31
 70
     1
102
RTVSPropertyOp32
 70
     1
102
RTVSPropertyOp33
 70
     1
102
RTVSPropertyOp34
 70
     1
102
RTVSPropertyOp35
 70
     1
102
RTVSPropertyOp36
 70
     1
102
RTVSPropertyOp37
 70
     1
102
RTVSPropertyOp38
 70
     1
102
RTVSPropertyOp39
 70
     1
102
RTVSPropertyOp40
 70
     1
102
RTVSPropertyOp41
 70
     1
102
RTVSPropertyOp42
 70
     1
102
RTVSPropertyOp43
 70
     1
102
RTVSPropertyOp44
 70
     1
102
RTVSPropertyOp45
 70
     1
102
RTVSPropertyOp46
 70
     1
102
RTVSPropertyOp47
 70
     1
102
RTVSPropertyOp48
 70
     1
102
RTVSPropertyOp49
 70
     1
102
RTVSPropertyOp50
 70
     1
102
RTVSPropertyOp51
 70
     0
102
RTVSPropertyOp52
 70
     0
102
RTVSPropertyOp53
 70
     1
102
RTVSPropertyOp54
 70
     1
102
RTVSPropertyOp55
 70
     1
102
RTVSPropertyOp56
 70
     1
102
RTVSPropertyOp57
 70
     1
102
RTVSPropertyOp58
 70
     1
102
RTVSPropertyOp59
 70
     1
102
RTVSPropertyOp60
 70
     1
102
RTVSPropertyOp61
 70
     1
102
RTVSPropertyOp62
 70
     1
  0
XRECORD
  5
515
102
{ACAD_REACTORS
330
514
102
}
330
514
100
AcDbXrecord
280
     1
102
RTVSPost2010Prop28
280
     0
102
RTVSPost2010PropOp28
 70
     1
102
RTVSPost2010Prop29
280
     1
102
RTVSPost2010PropOp29
 70
     1
102
RTVSPost2010Prop30
280
     1
102
RTVSPost2010PropOp30
 70
     1
102
RTVSPost2010Prop31
280
     0
102
RTVSPost2010PropOp31
 70
     1
102
RTVSPost2010Prop32
280
     0
102
RTVSPost2010PropOp32
 70
     1
102
RTVSPost2010Prop33
280
     0
102
RTVSPost2010PropOp33
 70
     1
102
RTVSPost2010Prop34
280
     0
102
RTVSPost2010PropOp34
 70
     1
102
RTVSPost2010Prop35
280
     0
102
RTVSPost2010PropOp35
 70
     1
102
RTVSPost2010Prop36
280
     0
102
RTVSPost2010PropOp36
 70
     1
102
RTVSPost2010Prop37
 90
       50
102
RTVSPost2010PropOp37
 70
     1
102
RTVSPost2010Prop38
140
0.0
102
RTVSPost2010PropOp38
 70
     1
102
RTVSPost2010Prop39
140
1.0
102
RTVSPost2010PropOp39
 70
     1
102
RTVSPost2010Prop40
 90
        0
102
RTVSPost2010PropOp40
 70
     1
102
RTVSPost2010Prop41ColorIndex
 90
       18
102
RTVSPost2010Prop41ColorRGB
 90
        0
102
RTVSPost2010PropOp41
 70
     1
102
RTVSPost2010Prop42
 90
       50
102
RTVSPost2010PropOp42
 70
     1
102
RTVSPost2010Prop43
 90
        3
102
RTVSPost2010PropOp43
 70
     1
102
RTVSPost2010Prop44ColorIndex
 90
        5
102
RTVSPost2010Prop44ColorRGB
 90
      255
102
RTVSPost2010PropOp44
 70
     1
102
RTVSPost2010Prop45
280
     0
102
RTVSPost2010PropOp45
 70
     1
102
RTVSPost2010Prop46
 90
       50
102
RTVSPost2010PropOp46
 70
     1
102
RTVSPost2010Prop47
 90
       50
102
RTVSPost2010PropOp47
 70
     1
102
RTVSPost2010Prop48
 90
       50
102
RTVSPost2010PropOp48
 70
     1
102
RTVSPost2010Prop49
280
     0
102
RTVSPost2010PropOp49
 70
     1
102
RTVSPost2010Prop50
 90
       50
102
RTVSPost2010PropOp50
 70
     1
102
RTVSPost2010Prop51ColorIndex
 90
      256
102
RTVSPost2010Prop51ColorRGB
 90
-16777216
102
RTVSPost2010PropOp51
 70
     0
102
RTVSPost2010Prop52
140
1.0
102
RTVSPost2010PropOp52
 70
     0
102
RTVSPost2010Prop53
 90
        2
102
RTVSPost2010PropOp53
 70
     1
102
RTVSPost2010Prop54
  1
strokes_ogs.tif
102
RTVSPost2010PropOp54
 70
     1
102
RTVSPost2010Prop55
280
     0
102
RTVSPost2010PropOp55
 70
     1
102
RTVSPost2010Prop56
140
1.0
102
RTVSPost2010PropOp56
 70
     1
102
RTVSPost2010Prop57
140
1.0
102
RTVSPost2010PropOp57
 70
     1
102
RTVSPropertyOp0
 70
     1
102
RTVSPropertyOp1
 70
     1
102
RTVSPropertyOp2
 70
     1
102
RTVSPropertyOp3
 70
     1
102
RTVSPropertyOp4
 70
     1
102
RTVSPropertyOp5
 70
     1
102
RTVSPropertyOp6
 70
     1
102
RTVSPropertyOp7
 70
     1
102
RTVSPropertyOp8
 70
     1
102
RTVSPropertyOp9
 70
     1
102
RTVSPropertyOp10
 70
     1
102
RTVSPropertyOp11
 70
     1
102
RTVSPropertyOp12
 70
     1
102
RTVSPropertyOp13
 70
     1
102
RTVSPropertyOp14
 70
     1
102
RTVSPropertyOp15
 70
     1
102
RTVSPropertyOp16
 70
     1
102
RTVSPropertyOp17
 70
     1
102
RTVSPropertyOp18
 70
     1
102
RTVSPropertyOp19
 70
     1
102
RTVSPropertyOp20
 70
     1
102
RTVSPropertyOp21
 70
     1
102
RTVSPropertyOp22
 70
     1
102
RTVSPropertyOp23
 70
     1
102
RTVSPropertyOp24
 70
     1
102
RTVSPropertyOp25
 70
     1
102
RTVSPropertyOp26
 70
     1
102
RTVSPropertyOp27
 70
     1
102
RTVSPropertyOp28
 70
     1
102
RTVSPropertyOp29
 70
     1
102
RTVSPropertyOp30
 70
     1
102
RTVSPropertyOp31
 70
     1
102
RTVSPropertyOp32
 70
     1
102
RTVSPropertyOp33
 70
     1
102
RTVSPropertyOp34
 70
     1
102
RTVSPropertyOp35
 70
     1
102
RTVSPropertyOp36
 70
     1
102
RTVSPropertyOp37
 70
     1
102
RTVSPropertyOp38
 70
     1
102
RTVSPropertyOp39
 70
     1
102
RTVSPropertyOp40
 70
     1
102
RTVSPropertyOp41
 70
     1
102
RTVSPropertyOp42
 70
     1
102
RTVSPropertyOp43
 70
     1
102
RTVSPropertyOp44
 70
     1
102
RTVSPropertyOp45
 70
     1
102
RTVSPropertyOp46
 70
     1
102
RTVSPropertyOp47
 70
     1
102
RTVSPropertyOp48
 70
     1
102
RTVSPropertyOp49
 70
     1
102
RTVSPropertyOp50
 70
     1
102
RTVSPropertyOp51
 70
     0
102
RTVSPropertyOp52
 70
     0
102
RTVSPropertyOp53
 70
     1
102
RTVSPropertyOp54
 70
     1
102
RTVSPropertyOp55
 70
     1
102
RTVSPropertyOp56
 70
     1
102
RTVSPropertyOp57
 70
     1
102
RTVSPropertyOp58
 70
     1
102
RTVSPropertyOp59
 70
     1
102
RTVSPropertyOp60
 70
     1
102
RTVSPropertyOp61
 70
     1
102
RTVSPropertyOp62
 70
     1
  0
XRECORD
  5
513
102
{ACAD_REACTORS
330
512
102
}
330
512
100
AcDbXrecord
280
     1
102
RTVSPost2010Prop28
280
     0
102
RTVSPost2010PropOp28
 70
     1
102
RTVSPost2010Prop29
280
     1
102
RTVSPost2010PropOp29
 70
     1
102
RTVSPost2010Prop30
280
     1
102
RTVSPost2010PropOp30
 70
     1
102
RTVSPost2010Prop31
280
     0
102
RTVSPost2010PropOp31
 70
     1
102
RTVSPost2010Prop32
280
     0
102
RTVSPost2010PropOp32
 70
     1
102
RTVSPost2010Prop33
280
     0
102
RTVSPost2010PropOp33
 70
     1
102
RTVSPost2010Prop34
280
     0
102
RTVSPost2010PropOp34
 70
     1
102
RTVSPost2010Prop35
280
     0
102
RTVSPost2010PropOp35
 70
     1
102
RTVSPost2010Prop36
280
     0
102
RTVSPost2010PropOp36
 70
     1
102
RTVSPost2010Prop37
 90
       50
102
RTVSPost2010PropOp37
 70
     1
102
RTVSPost2010Prop38
140
0.0
102
RTVSPost2010PropOp38
 70
     1
102
RTVSPost2010Prop39
140
1.0
102
RTVSPost2010PropOp39
 70
     1
102
RTVSPost2010Prop40
 90
        0
102
RTVSPost2010PropOp40
 70
     1
102
RTVSPost2010Prop41ColorIndex
 90
       18
102
RTVSPost2010Prop41ColorRGB
 90
        0
102
RTVSPost2010PropOp41
 70
     1
102
RTVSPost2010Prop42
 90
       50
102
RTVSPost2010PropOp42
 70
     1
102
RTVSPost2010Prop43
 90
        3
102
RTVSPost2010PropOp43
 70
     1
102
RTVSPost2010Prop44ColorIndex
 90
        5
102
RTVSPost2010Prop44ColorRGB
 90
      255
102
RTVSPost2010PropOp44
 70
     1
102
RTVSPost2010Prop45
280
     0
102
RTVSPost2010PropOp45
 70
     1
102
RTVSPost2010Prop46
 90
       50
102
RTVSPost2010PropOp46
 70
     1
102
RTVSPost2010Prop47
 90
       50
102
RTVSPost2010PropOp47
 70
     1
102
RTVSPost2010Prop48
 90
       50
102
RTVSPost2010PropOp48
 70
     1
102
RTVSPost2010Prop49
280
     0
102
RTVSPost2010PropOp49
 70
     1
102
RTVSPost2010Prop50
 90
       50
102
RTVSPost2010PropOp50
 70
     1
102
RTVSPost2010Prop51ColorIndex
 90
      256
102
RTVSPost2010Prop51ColorRGB
 90
-16777216
102
RTVSPost2010PropOp51
 70
     0
102
RTVSPost2010Prop52
140
1.0
102
RTVSPost2010PropOp52
 70
     0
102
RTVSPost2010Prop53
 90
        2
102
RTVSPost2010PropOp53
 70
     1
102
RTVSPost2010Prop54
  1
strokes_ogs.tif
102
RTVSPost2010PropOp54
 70
     1
102
RTVSPost2010Prop55
280
     0
102
RTVSPost2010PropOp55
 70
     1
102
RTVSPost2010Prop56
140
1.0
102
RTVSPost2010PropOp56
 70
     1
102
RTVSPost2010Prop57
140
1.0
102
RTVSPost2010PropOp57
 70
     1
102
RTVSPropertyOp0
 70
     1
102
RTVSPropertyOp1
 70
     1
102
RTVSPropertyOp2
 70
     1
102
RTVSPropertyOp3
 70
     1
102
RTVSPropertyOp4
 70
     1
102
RTVSPropertyOp5
 70
     1
102
RTVSPropertyOp6
 70
     1
102
RTVSPropertyOp7
 70
     1
102
RTVSPropertyOp8
 70
     1
102
RTVSPropertyOp9
 70
     1
102
RTVSPropertyOp10
 70
     1
102
RTVSPropertyOp11
 70
     1
102
RTVSPropertyOp12
 70
     1
102
RTVSPropertyOp13
 70
     1
102
RTVSPropertyOp14
 70
     1
102
RTVSPropertyOp15
 70
     1
102
RTVSPropertyOp16
 70
     1
102
RTVSPropertyOp17
 70
     1
102
RTVSPropertyOp18
 70
     1
102
RTVSPropertyOp19
 70
     1
102
RTVSPropertyOp20
 70
     1
102
RTVSPropertyOp21
 70
     1
102
RTVSPropertyOp22
 70
     1
102
RTVSPropertyOp23
 70
     1
102
RTVSPropertyOp24
 70
     1
102
RTVSPropertyOp25
 70
     1
102
RTVSPropertyOp26
 70
     1
102
RTVSPropertyOp27
 70
     1
102
RTVSPropertyOp28
 70
     1
102
RTVSPropertyOp29
 70
     1
102
RTVSPropertyOp30
 70
     1
102
RTVSPropertyOp31
 70
     1
102
RTVSPropertyOp32
 70
     1
102
RTVSPropertyOp33
 70
     1
102
RTVSPropertyOp34
 70
     1
102
RTVSPropertyOp35
 70
     1
102
RTVSPropertyOp36
 70
     1
102
RTVSPropertyOp37
 70
     1
102
RTVSPropertyOp38
 70
     1
102
RTVSPropertyOp39
 70
     1
102
RTVSPropertyOp40
 70
     1
102
RTVSPropertyOp41
 70
     1
102
RTVSPropertyOp42
 70
     1
102
RTVSPropertyOp43
 70
     1
102
RTVSPropertyOp44
 70
     1
102
RTVSPropertyOp45
 70
     1
102
RTVSPropertyOp46
 70
     1
102
RTVSPropertyOp47
 70
     1
102
RTVSPropertyOp48
 70
     1
102
RTVSPropertyOp49
 70
     1
102
RTVSPropertyOp50
 70
     1
102
RTVSPropertyOp51
 70
     0
102
RTVSPropertyOp52
 70
     0
102
RTVSPropertyOp53
 70
     1
102
RTVSPropertyOp54
 70
     1
102
RTVSPropertyOp55
 70
     1
102
RTVSPropertyOp56
 70
     1
102
RTVSPropertyOp57
 70
     1
102
RTVSPropertyOp58
 70
     1
102
RTVSPropertyOp59
 70
     1
102
RTVSPropertyOp60
 70
     1
102
RTVSPropertyOp61
 70
     1
102
RTVSPropertyOp62
 70
     1
  0
XRECORD
  5
517
102
{ACAD_REACTORS
330
516
102
}
330
516
100
AcDbXrecord
280
     1
102
RTVSPost2010Prop28
280
     0
102
RTVSPost2010PropOp28
 70
     1
102
RTVSPost2010Prop29
280
     1
102
RTVSPost2010PropOp29
 70
     1
102
RTVSPost2010Prop30
280
     1
102
RTVSPost2010PropOp30
 70
     1
102
RTVSPost2010Prop31
280
     0
102
RTVSPost2010PropOp31
 70
     1
102
RTVSPost2010Prop32
280
     0
102
RTVSPost2010PropOp32
 70
     1
102
RTVSPost2010Prop33
280
     0
102
RTVSPost2010PropOp33
 70
     1
102
RTVSPost2010Prop34
280
     0
102
RTVSPost2010PropOp34
 70
     1
102
RTVSPost2010Prop35
280
     0
102
RTVSPost2010PropOp35
 70
     1
102
RTVSPost2010Prop36
280
     0
102
RTVSPost2010PropOp36
 70
     1
102
RTVSPost2010Prop37
 90
       50
102
RTVSPost2010PropOp37
 70
     1
102
RTVSPost2010Prop38
140
0.0
102
RTVSPost2010PropOp38
 70
     1
102
RTVSPost2010Prop39
140
1.0
102
RTVSPost2010PropOp39
 70
     1
102
RTVSPost2010Prop40
 90
        0
102
RTVSPost2010PropOp40
 70
     1
102
RTVSPost2010Prop41ColorIndex
 90
       18
102
RTVSPost2010Prop41ColorRGB
 90
        0
102
RTVSPost2010PropOp41
 70
     1
102
RTVSPost2010Prop42
 90
       50
102
RTVSPost2010PropOp42
 70
     1
102
RTVSPost2010Prop43
 90
        3
102
RTVSPost2010PropOp43
 70
     1
102
RTVSPost2010Prop44ColorIndex
 90
        5
102
RTVSPost2010Prop44ColorRGB
 90
      255
102
RTVSPost2010PropOp44
 70
     1
102
RTVSPost2010Prop45
280
     0
102
RTVSPost2010PropOp45
 70
     1
102
RTVSPost2010Prop46
 90
       50
102
RTVSPost2010PropOp46
 70
     1
102
RTVSPost2010Prop47
 90
       50
102
RTVSPost2010PropOp47
 70
     1
102
RTVSPost2010Prop48
 90
       50
102
RTVSPost2010PropOp48
 70
     1
102
RTVSPost2010Prop49
280
     0
102
RTVSPost2010PropOp49
 70
     1
102
RTVSPost2010Prop50
 90
       50
102
RTVSPost2010PropOp50
 70
     1
102
RTVSPost2010Prop51ColorIndex
 90
      256
102
RTVSPost2010Prop51ColorRGB
 90
-16777216
102
RTVSPost2010PropOp51
 70
     0
102
RTVSPost2010Prop52
140
1.0
102
RTVSPost2010PropOp52
 70
     0
102
RTVSPost2010Prop53
 90
        2
102
RTVSPost2010PropOp53
 70
     1
102
RTVSPost2010Prop54
  1
strokes_ogs.tif
102
RTVSPost2010PropOp54
 70
     1
102
RTVSPost2010Prop55
280
     0
102
RTVSPost2010PropOp55
 70
     1
102
RTVSPost2010Prop56
140
1.0
102
RTVSPost2010PropOp56
 70
     1
102
RTVSPost2010Prop57
140
1.0
102
RTVSPost2010PropOp57
 70
     1
102
RTVSPropertyOp0
 70
     1
102
RTVSPropertyOp1
 70
     1
102
RTVSPropertyOp2
 70
     1
102
RTVSPropertyOp3
 70
     1
102
RTVSPropertyOp4
 70
     1
102
RTVSPropertyOp5
 70
     1
102
RTVSPropertyOp6
 70
     1
102
RTVSPropertyOp7
 70
     1
102
RTVSPropertyOp8
 70
     1
102
RTVSPropertyOp9
 70
     1
102
RTVSPropertyOp10
 70
     1
102
RTVSPropertyOp11
 70
     1
102
RTVSPropertyOp12
 70
     1
102
RTVSPropertyOp13
 70
     1
102
RTVSPropertyOp14
 70
     1
102
RTVSPropertyOp15
 70
     1
102
RTVSPropertyOp16
 70
     1
102
RTVSPropertyOp17
 70
     1
102
RTVSPropertyOp18
 70
     1
102
RTVSPropertyOp19
 70
     1
102
RTVSPropertyOp20
 70
     1
102
RTVSPropertyOp21
 70
     1
102
RTVSPropertyOp22
 70
     1
102
RTVSPropertyOp23
 70
     1
102
RTVSPropertyOp24
 70
     1
102
RTVSPropertyOp25
 70
     1
102
RTVSPropertyOp26
 70
     1
102
RTVSPropertyOp27
 70
     1
102
RTVSPropertyOp28
 70
     1
102
RTVSPropertyOp29
 70
     1
102
RTVSPropertyOp30
 70
     1
102
RTVSPropertyOp31
 70
     1
102
RTVSPropertyOp32
 70
     1
102
RTVSPropertyOp33
 70
     1
102
RTVSPropertyOp34
 70
     1
102
RTVSPropertyOp35
 70
     1
102
RTVSPropertyOp36
 70
     1
102
RTVSPropertyOp37
 70
     1
102
RTVSPropertyOp38
 70
     1
102
RTVSPropertyOp39
 70
     1
102
RTVSPropertyOp40
 70
     1
102
RTVSPropertyOp41
 70
     1
102
RTVSPropertyOp42
 70
     1
102
RTVSPropertyOp43
 70
     1
102
RTVSPropertyOp44
 70
     1
102
RTVSPropertyOp45
 70
     1
102
RTVSPropertyOp46
 70
     1
102
RTVSPropertyOp47
 70
     1
102
RTVSPropertyOp48
 70
     1
102
RTVSPropertyOp49
 70
     1
102
RTVSPropertyOp50
 70
     1
102
RTVSPropertyOp51
 70
     0
102
RTVSPropertyOp52
 70
     0
102
RTVSPropertyOp53
 70
     1
102
RTVSPropertyOp54
 70
     1
102
RTVSPropertyOp55
 70
     1
102
RTVSPropertyOp56
 70
     1
102
RTVSPropertyOp57
 70
     1
102
RTVSPropertyOp58
 70
     1
102
RTVSPropertyOp59
 70
     1
102
RTVSPropertyOp60
 70
     1
102
RTVSPropertyOp61
 70
     1
102
RTVSPropertyOp62
 70
     1
  0
XRECORD
  5
51F
102
{ACAD_REACTORS
330
51E
102
}
330
51E
100
AcDbXrecord
280
     1
102
RTVSPost2010Prop28
280
     0
102
RTVSPost2010PropOp28
 70
     1
102
RTVSPost2010Prop29
280
     1
102
RTVSPost2010PropOp29
 70
     1
102
RTVSPost2010Prop30
280
     1
102
RTVSPost2010PropOp30
 70
     1
102
RTVSPost2010Prop31
280
     0
102
RTVSPost2010PropOp31
 70
     1
102
RTVSPost2010Prop32
280
     0
102
RTVSPost2010PropOp32
 70
     1
102
RTVSPost2010Prop33
280
     0
102
RTVSPost2010PropOp33
 70
     1
102
RTVSPost2010Prop34
280
     0
102
RTVSPost2010PropOp34
 70
     1
102
RTVSPost2010Prop35
280
     0
102
RTVSPost2010PropOp35
 70
     1
102
RTVSPost2010Prop36
280
     0
102
RTVSPost2010PropOp36
 70
     1
102
RTVSPost2010Prop37
 90
       50
102
RTVSPost2010PropOp37
 70
     1
102
RTVSPost2010Prop38
140
0.0
102
RTVSPost2010PropOp38
 70
     1
102
RTVSPost2010Prop39
140
1.0
102
RTVSPost2010PropOp39
 70
     1
102
RTVSPost2010Prop40
 90
        0
102
RTVSPost2010PropOp40
 70
     1
102
RTVSPost2010Prop41ColorIndex
 90
       18
102
RTVSPost2010Prop41ColorRGB
 90
        0
102
RTVSPost2010PropOp41
 70
     1
102
RTVSPost2010Prop42
 90
       50
102
RTVSPost2010PropOp42
 70
     1
102
RTVSPost2010Prop43
 90
        3
102
RTVSPost2010PropOp43
 70
     1
102
RTVSPost2010Prop44ColorIndex
 90
        5
102
RTVSPost2010Prop44ColorRGB
 90
      255
102
RTVSPost2010PropOp44
 70
     1
102
RTVSPost2010Prop45
280
     0
102
RTVSPost2010PropOp45
 70
     1
102
RTVSPost2010Prop46
 90
       50
102
RTVSPost2010PropOp46
 70
     1
102
RTVSPost2010Prop47
 90
       50
102
RTVSPost2010PropOp47
 70
     1
102
RTVSPost2010Prop48
 90
       50
102
RTVSPost2010PropOp48
 70
     1
102
RTVSPost2010Prop49
280
     0
102
RTVSPost2010PropOp49
 70
     1
102
RTVSPost2010Prop50
 90
       50
102
RTVSPost2010PropOp50
 70
     1
102
RTVSPost2010Prop51ColorIndex
 90
      256
102
RTVSPost2010Prop51ColorRGB
 90
-16777216
102
RTVSPost2010PropOp51
 70
     0
102
RTVSPost2010Prop52
140
1.0
102
RTVSPost2010PropOp52
 70
     0
102
RTVSPost2010Prop53
 90
        2
102
RTVSPost2010PropOp53
 70
     1
102
RTVSPost2010Prop54
  1
strokes_ogs.tif
102
RTVSPost2010PropOp54
 70
     1
102
RTVSPost2010Prop55
280
     0
102
RTVSPost2010PropOp55
 70
     1
102
RTVSPost2010Prop56
140
1.0
102
RTVSPost2010PropOp56
 70
     1
102
RTVSPost2010Prop57
140
1.0
102
RTVSPost2010PropOp57
 70
     1
102
RTVSPropertyOp0
 70
     1
102
RTVSPropertyOp1
 70
     1
102
RTVSPropertyOp2
 70
     1
102
RTVSPropertyOp3
 70
     1
102
RTVSPropertyOp4
 70
     1
102
RTVSPropertyOp5
 70
     1
102
RTVSPropertyOp6
 70
     1
102
RTVSPropertyOp7
 70
     1
102
RTVSPropertyOp8
 70
     1
102
RTVSPropertyOp9
 70
     1
102
RTVSPropertyOp10
 70
     1
102
RTVSPropertyOp11
 70
     1
102
RTVSPropertyOp12
 70
     1
102
RTVSPropertyOp13
 70
     1
102
RTVSPropertyOp14
 70
     1
102
RTVSPropertyOp15
 70
     1
102
RTVSPropertyOp16
 70
     1
102
RTVSPropertyOp17
 70
     1
102
RTVSPropertyOp18
 70
     1
102
RTVSPropertyOp19
 70
     1
102
RTVSPropertyOp20
 70
     1
102
RTVSPropertyOp21
 70
     1
102
RTVSPropertyOp22
 70
     1
102
RTVSPropertyOp23
 70
     1
102
RTVSPropertyOp24
 70
     1
102
RTVSPropertyOp25
 70
     1
102
RTVSPropertyOp26
 70
     1
102
RTVSPropertyOp27
 70
     1
102
RTVSPropertyOp28
 70
     1
102
RTVSPropertyOp29
 70
     1
102
RTVSPropertyOp30
 70
     1
102
RTVSPropertyOp31
 70
     1
102
RTVSPropertyOp32
 70
     1
102
RTVSPropertyOp33
 70
     1
102
RTVSPropertyOp34
 70
     1
102
RTVSPropertyOp35
 70
     1
102
RTVSPropertyOp36
 70
     1
102
RTVSPropertyOp37
 70
     1
102
RTVSPropertyOp38
 70
     1
102
RTVSPropertyOp39
 70
     1
102
RTVSPropertyOp40
 70
     1
102
RTVSPropertyOp41
 70
     1
102
RTVSPropertyOp42
 70
     1
102
RTVSPropertyOp43
 70
     1
102
RTVSPropertyOp44
 70
     1
102
RTVSPropertyOp45
 70
     1
102
RTVSPropertyOp46
 70
     1
102
RTVSPropertyOp47
 70
     1
102
RTVSPropertyOp48
 70
     1
102
RTVSPropertyOp49
 70
     1
102
RTVSPropertyOp50
 70
     1
102
RTVSPropertyOp51
 70
     0
102
RTVSPropertyOp52
 70
     0
102
RTVSPropertyOp53
 70
     1
102
RTVSPropertyOp54
 70
     1
102
RTVSPropertyOp55
 70
     1
102
RTVSPropertyOp56
 70
     1
102
RTVSPropertyOp57
 70
     1
102
RTVSPropertyOp58
 70
     1
102
RTVSPropertyOp59
 70
     1
102
RTVSPropertyOp60
 70
     1
102
RTVSPropertyOp61
 70
     1
102
RTVSPropertyOp62
 70
     1
  0
XRECORD
  5
527
102
{ACAD_REACTORS
330
526
102
}
330
526
100
AcDbXrecord
280
     1
102
RTVSPost2010Prop28
280
     0
102
RTVSPost2010PropOp28
 70
     1
102
RTVSPost2010Prop29
280
     1
102
RTVSPost2010PropOp29
 70
     1
102
RTVSPost2010Prop30
280
     1
102
RTVSPost2010PropOp30
 70
     1
102
RTVSPost2010Prop31
280
     0
102
RTVSPost2010PropOp31
 70
     1
102
RTVSPost2010Prop32
280
     0
102
RTVSPost2010PropOp32
 70
     1
102
RTVSPost2010Prop33
280
     0
102
RTVSPost2010PropOp33
 70
     1
102
RTVSPost2010Prop34
280
     0
102
RTVSPost2010PropOp34
 70
     1
102
RTVSPost2010Prop35
280
     0
102
RTVSPost2010PropOp35
 70
     1
102
RTVSPost2010Prop36
280
     0
102
RTVSPost2010PropOp36
 70
     1
102
RTVSPost2010Prop37
 90
       50
102
RTVSPost2010PropOp37
 70
     1
102
RTVSPost2010Prop38
140
0.0
102
RTVSPost2010PropOp38
 70
     1
102
RTVSPost2010Prop39
140
1.0
102
RTVSPost2010PropOp39
 70
     1
102
RTVSPost2010Prop40
 90
        0
102
RTVSPost2010PropOp40
 70
     1
102
RTVSPost2010Prop41ColorIndex
 90
       18
102
RTVSPost2010Prop41ColorRGB
 90
        0
102
RTVSPost2010PropOp41
 70
     1
102
RTVSPost2010Prop42
 90
       50
102
RTVSPost2010PropOp42
 70
     1
102
RTVSPost2010Prop43
 90
        3
102
RTVSPost2010PropOp43
 70
     1
102
RTVSPost2010Prop44ColorIndex
 90
        5
102
RTVSPost2010Prop44ColorRGB
 90
      255
102
RTVSPost2010PropOp44
 70
     1
102
RTVSPost2010Prop45
280
     0
102
RTVSPost2010PropOp45
 70
     1
102
RTVSPost2010Prop46
 90
       50
102
RTVSPost2010PropOp46
 70
     1
102
RTVSPost2010Prop47
 90
       50
102
RTVSPost2010PropOp47
 70
     1
102
RTVSPost2010Prop48
 90
       50
102
RTVSPost2010PropOp48
 70
     1
102
RTVSPost2010Prop49
280
     0
102
RTVSPost2010PropOp49
 70
     1
102
RTVSPost2010Prop50
 90
       50
102
RTVSPost2010PropOp50
 70
     1
102
RTVSPost2010Prop51ColorIndex
 90
      256
102
RTVSPost2010Prop51ColorRGB
 90
-16777216
102
RTVSPost2010PropOp51
 70
     0
102
RTVSPost2010Prop52
140
1.0
102
RTVSPost2010PropOp52
 70
     0
102
RTVSPost2010Prop53
 90
        2
102
RTVSPost2010PropOp53
 70
     1
102
RTVSPost2010Prop54
  1
strokes_ogs.tif
102
RTVSPost2010PropOp54
 70
     1
102
RTVSPost2010Prop55
280
     0
102
RTVSPost2010PropOp55
 70
     1
102
RTVSPost2010Prop56
140
1.0
102
RTVSPost2010PropOp56
 70
     1
102
RTVSPost2010Prop57
140
1.0
102
RTVSPost2010PropOp57
 70
     1
102
RTVSPropertyOp0
 70
     1
102
RTVSPropertyOp1
 70
     1
102
RTVSPropertyOp2
 70
     1
102
RTVSPropertyOp3
 70
     1
102
RTVSPropertyOp4
 70
     1
102
RTVSPropertyOp5
 70
     1
102
RTVSPropertyOp6
 70
     1
102
RTVSPropertyOp7
 70
     1
102
RTVSPropertyOp8
 70
     1
102
RTVSPropertyOp9
 70
     1
102
RTVSPropertyOp10
 70
     1
102
RTVSPropertyOp11
 70
     1
102
RTVSPropertyOp12
 70
     1
102
RTVSPropertyOp13
 70
     1
102
RTVSPropertyOp14
 70
     1
102
RTVSPropertyOp15
 70
     1
102
RTVSPropertyOp16
 70
     1
102
RTVSPropertyOp17
 70
     1
102
RTVSPropertyOp18
 70
     1
102
RTVSPropertyOp19
 70
     1
102
RTVSPropertyOp20
 70
     1
102
RTVSPropertyOp21
 70
     1
102
RTVSPropertyOp22
 70
     1
102
RTVSPropertyOp23
 70
     1
102
RTVSPropertyOp24
 70
     1
102
RTVSPropertyOp25
 70
     1
102
RTVSPropertyOp26
 70
     1
102
RTVSPropertyOp27
 70
     1
102
RTVSPropertyOp28
 70
     1
102
RTVSPropertyOp29
 70
     1
102
RTVSPropertyOp30
 70
     1
102
RTVSPropertyOp31
 70
     1
102
RTVSPropertyOp32
 70
     1
102
RTVSPropertyOp33
 70
     1
102
RTVSPropertyOp34
 70
     1
102
RTVSPropertyOp35
 70
     1
102
RTVSPropertyOp36
 70
     1
102
RTVSPropertyOp37
 70
     1
102
RTVSPropertyOp38
 70
     1
102
RTVSPropertyOp39
 70
     1
102
RTVSPropertyOp40
 70
     1
102
RTVSPropertyOp41
 70
     1
102
RTVSPropertyOp42
 70
     1
102
RTVSPropertyOp43
 70
     1
102
RTVSPropertyOp44
 70
     1
102
RTVSPropertyOp45
 70
     1
102
RTVSPropertyOp46
 70
     1
102
RTVSPropertyOp47
 70
     1
102
RTVSPropertyOp48
 70
     1
102
RTVSPropertyOp49
 70
     1
102
RTVSPropertyOp50
 70
     1
102
RTVSPropertyOp51
 70
     0
102
RTVSPropertyOp52
 70
     0
102
RTVSPropertyOp53
 70
     1
102
RTVSPropertyOp54
 70
     1
102
RTVSPropertyOp55
 70
     1
102
RTVSPropertyOp56
 70
     1
102
RTVSPropertyOp57
 70
     1
102
RTVSPropertyOp58
 70
     1
102
RTVSPropertyOp59
 70
     1
102
RTVSPropertyOp60
 70
     1
102
RTVSPropertyOp61
 70
     1
102
RTVSPropertyOp62
 70
     1
  0
XRECORD
  5
51B
102
{ACAD_REACTORS
330
51A
102
}
330
51A
100
AcDbXrecord
280
     1
102
RTVSPost2010Prop28
280
     0
102
RTVSPost2010PropOp28
 70
     1
102
RTVSPost2010Prop29
280
     1
102
RTVSPost2010PropOp29
 70
     1
102
RTVSPost2010Prop30
280
     1
102
RTVSPost2010PropOp30
 70
     1
102
RTVSPost2010Prop31
280
     0
102
RTVSPost2010PropOp31
 70
     1
102
RTVSPost2010Prop32
280
     0
102
RTVSPost2010PropOp32
 70
     1
102
RTVSPost2010Prop33
280
     0
102
RTVSPost2010PropOp33
 70
     1
102
RTVSPost2010Prop34
280
     0
102
RTVSPost2010PropOp34
 70
     1
102
RTVSPost2010Prop35
280
     0
102
RTVSPost2010PropOp35
 70
     1
102
RTVSPost2010Prop36
280
     0
102
RTVSPost2010PropOp36
 70
     1
102
RTVSPost2010Prop37
 90
       50
102
RTVSPost2010PropOp37
 70
     1
102
RTVSPost2010Prop38
140
0.0
102
RTVSPost2010PropOp38
 70
     1
102
RTVSPost2010Prop39
140
1.0
102
RTVSPost2010PropOp39
 70
     1
102
RTVSPost2010Prop40
 90
        0
102
RTVSPost2010PropOp40
 70
     1
102
RTVSPost2010Prop41ColorIndex
 90
       18
102
RTVSPost2010Prop41ColorRGB
 90
        0
102
RTVSPost2010PropOp41
 70
     1
102
RTVSPost2010Prop42
 90
       50
102
RTVSPost2010PropOp42
 70
     1
102
RTVSPost2010Prop43
 90
        3
102
RTVSPost2010PropOp43
 70
     1
102
RTVSPost2010Prop44ColorIndex
 90
        5
102
RTVSPost2010Prop44ColorRGB
 90
      255
102
RTVSPost2010PropOp44
 70
     1
102
RTVSPost2010Prop45
280
     0
102
RTVSPost2010PropOp45
 70
     1
102
RTVSPost2010Prop46
 90
       50
102
RTVSPost2010PropOp46
 70
     1
102
RTVSPost2010Prop47
 90
       50
102
RTVSPost2010PropOp47
 70
     1
102
RTVSPost2010Prop48
 90
       50
102
RTVSPost2010PropOp48
 70
     1
102
RTVSPost2010Prop49
280
     0
102
RTVSPost2010PropOp49
 70
     1
102
RTVSPost2010Prop50
 90
       50
102
RTVSPost2010PropOp50
 70
     1
102
RTVSPost2010Prop51ColorIndex
 90
      256
102
RTVSPost2010Prop51ColorRGB
 90
-16777216
102
RTVSPost2010PropOp51
 70
     0
102
RTVSPost2010Prop52
140
1.0
102
RTVSPost2010PropOp52
 70
     0
102
RTVSPost2010Prop53
 90
        2
102
RTVSPost2010PropOp53
 70
     1
102
RTVSPost2010Prop54
  1
strokes_ogs.tif
102
RTVSPost2010PropOp54
 70
     1
102
RTVSPost2010Prop55
280
     0
102
RTVSPost2010PropOp55
 70
     1
102
RTVSPost2010Prop56
140
1.0
102
RTVSPost2010PropOp56
 70
     1
102
RTVSPost2010Prop57
140
1.0
102
RTVSPost2010PropOp57
 70
     1
102
RTVSPropertyOp0
 70
     1
102
RTVSPropertyOp1
 70
     1
102
RTVSPropertyOp2
 70
     1
102
RTVSPropertyOp3
 70
     1
102
RTVSPropertyOp4
 70
     1
102
RTVSPropertyOp5
 70
     1
102
RTVSPropertyOp6
 70
     1
102
RTVSPropertyOp7
 70
     1
102
RTVSPropertyOp8
 70
     1
102
RTVSPropertyOp9
 70
     1
102
RTVSPropertyOp10
 70
     1
102
RTVSPropertyOp11
 70
     1
102
RTVSPropertyOp12
 70
     1
102
RTVSPropertyOp13
 70
     1
102
RTVSPropertyOp14
 70
     1
102
RTVSPropertyOp15
 70
     1
102
RTVSPropertyOp16
 70
     1
102
RTVSPropertyOp17
 70
     1
102
RTVSPropertyOp18
 70
     1
102
RTVSPropertyOp19
 70
     1
102
RTVSPropertyOp20
 70
     1
102
RTVSPropertyOp21
 70
     1
102
RTVSPropertyOp22
 70
     1
102
RTVSPropertyOp23
 70
     1
102
RTVSPropertyOp24
 70
     1
102
RTVSPropertyOp25
 70
     1
102
RTVSPropertyOp26
 70
     1
102
RTVSPropertyOp27
 70
     1
102
RTVSPropertyOp28
 70
     1
102
RTVSPropertyOp29
 70
     1
102
RTVSPropertyOp30
 70
     1
102
RTVSPropertyOp31
 70
     1
102
RTVSPropertyOp32
 70
     1
102
RTVSPropertyOp33
 70
     1
102
RTVSPropertyOp34
 70
     1
102
RTVSPropertyOp35
 70
     1
102
RTVSPropertyOp36
 70
     1
102
RTVSPropertyOp37
 70
     1
102
RTVSPropertyOp38
 70
     1
102
RTVSPropertyOp39
 70
     1
102
RTVSPropertyOp40
 70
     1
102
RTVSPropertyOp41
 70
     1
102
RTVSPropertyOp42
 70
     1
102
RTVSPropertyOp43
 70
     1
102
RTVSPropertyOp44
 70
     1
102
RTVSPropertyOp45
 70
     1
102
RTVSPropertyOp46
 70
     1
102
RTVSPropertyOp47
 70
     1
102
RTVSPropertyOp48
 70
     1
102
RTVSPropertyOp49
 70
     1
102
RTVSPropertyOp50
 70
     1
102
RTVSPropertyOp51
 70
     0
102
RTVSPropertyOp52
 70
     0
102
RTVSPropertyOp53
 70
     1
102
RTVSPropertyOp54
 70
     1
102
RTVSPropertyOp55
 70
     1
102
RTVSPropertyOp56
 70
     1
102
RTVSPropertyOp57
 70
     1
102
RTVSPropertyOp58
 70
     1
102
RTVSPropertyOp59
 70
     1
102
RTVSPropertyOp60
 70
     1
102
RTVSPropertyOp61
 70
     1
102
RTVSPropertyOp62
 70
     1
  0
XRECORD
  5
51D
102
{ACAD_REACTORS
330
51C
102
}
330
51C
100
AcDbXrecord
280
     1
102
RTVSPost2010Prop28
280
     0
102
RTVSPost2010PropOp28
 70
     1
102
RTVSPost2010Prop29
280
     1
102
RTVSPost2010PropOp29
 70
     1
102
RTVSPost2010Prop30
280
     1
102
RTVSPost2010PropOp30
 70
     1
102
RTVSPost2010Prop31
280
     0
102
RTVSPost2010PropOp31
 70
     1
102
RTVSPost2010Prop32
280
     0
102
RTVSPost2010PropOp32
 70
     1
102
RTVSPost2010Prop33
280
     0
102
RTVSPost2010PropOp33
 70
     1
102
RTVSPost2010Prop34
280
     0
102
RTVSPost2010PropOp34
 70
     1
102
RTVSPost2010Prop35
280
     0
102
RTVSPost2010PropOp35
 70
     1
102
RTVSPost2010Prop36
280
     0
102
RTVSPost2010PropOp36
 70
     1
102
RTVSPost2010Prop37
 90
       50
102
RTVSPost2010PropOp37
 70
     1
102
RTVSPost2010Prop38
140
0.0
102
RTVSPost2010PropOp38
 70
     1
102
RTVSPost2010Prop39
140
1.0
102
RTVSPost2010PropOp39
 70
     1
102
RTVSPost2010Prop40
 90
        0
102
RTVSPost2010PropOp40
 70
     1
102
RTVSPost2010Prop41ColorIndex
 90
       18
102
RTVSPost2010Prop41ColorRGB
 90
        0
102
RTVSPost2010PropOp41
 70
     1
102
RTVSPost2010Prop42
 90
       50
102
RTVSPost2010PropOp42
 70
     1
102
RTVSPost2010Prop43
 90
        3
102
RTVSPost2010PropOp43
 70
     1
102
RTVSPost2010Prop44ColorIndex
 90
        5
102
RTVSPost2010Prop44ColorRGB
 90
      255
102
RTVSPost2010PropOp44
 70
     1
102
RTVSPost2010Prop45
280
     0
102
RTVSPost2010PropOp45
 70
     1
102
RTVSPost2010Prop46
 90
       50
102
RTVSPost2010PropOp46
 70
     1
102
RTVSPost2010Prop47
 90
       50
102
RTVSPost2010PropOp47
 70
     1
102
RTVSPost2010Prop48
 90
       50
102
RTVSPost2010PropOp48
 70
     1
102
RTVSPost2010Prop49
280
     0
102
RTVSPost2010PropOp49
 70
     1
102
RTVSPost2010Prop50
 90
       50
102
RTVSPost2010PropOp50
 70
     1
102
RTVSPost2010Prop51ColorIndex
 90
      256
102
RTVSPost2010Prop51ColorRGB
 90
-16777216
102
RTVSPost2010PropOp51
 70
     0
102
RTVSPost2010Prop52
140
1.0
102
RTVSPost2010PropOp52
 70
     0
102
RTVSPost2010Prop53
 90
        2
102
RTVSPost2010PropOp53
 70
     1
102
RTVSPost2010Prop54
  1
strokes_ogs.tif
102
RTVSPost2010PropOp54
 70
     1
102
RTVSPost2010Prop55
280
     0
102
RTVSPost2010PropOp55
 70
     1
102
RTVSPost2010Prop56
140
1.0
102
RTVSPost2010PropOp56
 70
     1
102
RTVSPost2010Prop57
140
1.0
102
RTVSPost2010PropOp57
 70
     1
102
RTVSPropertyOp0
 70
     1
102
RTVSPropertyOp1
 70
     1
102
RTVSPropertyOp2
 70
     1
102
RTVSPropertyOp3
 70
     1
102
RTVSPropertyOp4
 70
     1
102
RTVSPropertyOp5
 70
     1
102
RTVSPropertyOp6
 70
     1
102
RTVSPropertyOp7
 70
     1
102
RTVSPropertyOp8
 70
     1
102
RTVSPropertyOp9
 70
     1
102
RTVSPropertyOp10
 70
     1
102
RTVSPropertyOp11
 70
     1
102
RTVSPropertyOp12
 70
     1
102
RTVSPropertyOp13
 70
     1
102
RTVSPropertyOp14
 70
     1
102
RTVSPropertyOp15
 70
     1
102
RTVSPropertyOp16
 70
     1
102
RTVSPropertyOp17
 70
     1
102
RTVSPropertyOp18
 70
     1
102
RTVSPropertyOp19
 70
     1
102
RTVSPropertyOp20
 70
     1
102
RTVSPropertyOp21
 70
     1
102
RTVSPropertyOp22
 70
     1
102
RTVSPropertyOp23
 70
     1
102
RTVSPropertyOp24
 70
     1
102
RTVSPropertyOp25
 70
     1
102
RTVSPropertyOp26
 70
     1
102
RTVSPropertyOp27
 70
     1
102
RTVSPropertyOp28
 70
     1
102
RTVSPropertyOp29
 70
     1
102
RTVSPropertyOp30
 70
     1
102
RTVSPropertyOp31
 70
     1
102
RTVSPropertyOp32
 70
     1
102
RTVSPropertyOp33
 70
     1
102
RTVSPropertyOp34
 70
     1
102
RTVSPropertyOp35
 70
     1
102
RTVSPropertyOp36
 70
     1
102
RTVSPropertyOp37
 70
     1
102
RTVSPropertyOp38
 70
     1
102
RTVSPropertyOp39
 70
     1
102
RTVSPropertyOp40
 70
     1
102
RTVSPropertyOp41
 70
     1
102
RTVSPropertyOp42
 70
     1
102
RTVSPropertyOp43
 70
     1
102
RTVSPropertyOp44
 70
     1
102
RTVSPropertyOp45
 70
     1
102
RTVSPropertyOp46
 70
     1
102
RTVSPropertyOp47
 70
     1
102
RTVSPropertyOp48
 70
     1
102
RTVSPropertyOp49
 70
     1
102
RTVSPropertyOp50
 70
     1
102
RTVSPropertyOp51
 70
     0
102
RTVSPropertyOp52
 70
     0
102
RTVSPropertyOp53
 70
     1
102
RTVSPropertyOp54
 70
     1
102
RTVSPropertyOp55
 70
     1
102
RTVSPropertyOp56
 70
     1
102
RTVSPropertyOp57
 70
     1
102
RTVSPropertyOp58
 70
     1
102
RTVSPropertyOp59
 70
     1
102
RTVSPropertyOp60
 70
     1
102
RTVSPropertyOp61
 70
     1
102
RTVSPropertyOp62
 70
     1
  0
XRECORD
  5
53E
102
{ACAD_REACTORS
330
53D
102
}
330
53D
100
AcDbXrecord
280
     1
102
RTVSPost2010Prop28
280
     0
102
RTVSPost2010PropOp28
 70
     1
102
RTVSPost2010Prop29
280
     1
102
RTVSPost2010PropOp29
 70
     1
102
RTVSPost2010Prop30
280
     1
102
RTVSPost2010PropOp30
 70
     1
102
RTVSPost2010Prop31
280
     0
102
RTVSPost2010PropOp31
 70
     1
102
RTVSPost2010Prop32
280
     0
102
RTVSPost2010PropOp32
 70
     1
102
RTVSPost2010Prop33
280
     0
102
RTVSPost2010PropOp33
 70
     1
102
RTVSPost2010Prop34
280
     0
102
RTVSPost2010PropOp34
 70
     1
102
RTVSPost2010Prop35
280
     0
102
RTVSPost2010PropOp35
 70
     1
102
RTVSPost2010Prop36
280
     0
102
RTVSPost2010PropOp36
 70
     1
102
RTVSPost2010Prop37
 90
       50
102
RTVSPost2010PropOp37
 70
     0
102
RTVSPost2010Prop38
140
0.0
102
RTVSPost2010PropOp38
 70
     0
102
RTVSPost2010Prop39
140
1.0
102
RTVSPost2010PropOp39
 70
     0
102
RTVSPost2010Prop40
 90
        0
102
RTVSPost2010PropOp40
 70
     0
102
RTVSPost2010Prop41ColorIndex
 90
       18
102
RTVSPost2010Prop41ColorRGB
 90
        0
102
RTVSPost2010PropOp41
 70
     0
102
RTVSPost2010Prop42
 90
       50
102
RTVSPost2010PropOp42
 70
     0
102
RTVSPost2010Prop43
 90
        3
102
RTVSPost2010PropOp43
 70
     0
102
RTVSPost2010Prop44ColorIndex
 90
        5
102
RTVSPost2010Prop44ColorRGB
 90
      255
102
RTVSPost2010PropOp44
 70
     0
102
RTVSPost2010Prop45
280
     0
102
RTVSPost2010PropOp45
 70
     1
102
RTVSPost2010Prop46
 90
       50
102
RTVSPost2010PropOp46
 70
     0
102
RTVSPost2010Prop47
 90
       50
102
RTVSPost2010PropOp47
 70
     0
102
RTVSPost2010Prop48
 90
       50
102
RTVSPost2010PropOp48
 70
     0
102
RTVSPost2010Prop49
280
     0
102
RTVSPost2010PropOp49
 70
     1
102
RTVSPost2010Prop50
 90
       50
102
RTVSPost2010PropOp50
 70
     0
102
RTVSPost2010Prop51ColorIndex
 90
      256
102
RTVSPost2010Prop51ColorRGB
 90
-16777216
102
RTVSPost2010PropOp51
 70
     0
102
RTVSPost2010Prop52
140
1.0
102
RTVSPost2010PropOp52
 70
     0
102
RTVSPost2010Prop53
 90
        2
102
RTVSPost2010PropOp53
 70
     0
102
RTVSPost2010Prop54
  1
strokes_ogs.tif
102
RTVSPost2010PropOp54
 70
     0
102
RTVSPost2010Prop55
280
     0
102
RTVSPost2010PropOp55
 70
     1
102
RTVSPost2010Prop56
140
1.0
102
RTVSPost2010PropOp56
 70
     0
102
RTVSPost2010Prop57
140
1.0
102
RTVSPost2010PropOp57
 70
     0
102
RTVSPropertyOp0
 70
     0
102
RTVSPropertyOp1
 70
     0
102
RTVSPropertyOp2
 70
     0
102
RTVSPropertyOp3
 70
     0
102
RTVSPropertyOp4
 70
     0
102
RTVSPropertyOp5
 70
     0
102
RTVSPropertyOp6
 70
     0
102
RTVSPropertyOp7
 70
     0
102
RTVSPropertyOp8
 70
     0
102
RTVSPropertyOp9
 70
     0
102
RTVSPropertyOp10
 70
     0
102
RTVSPropertyOp11
 70
     0
102
RTVSPropertyOp12
 70
     0
102
RTVSPropertyOp13
 70
     0
102
RTVSPropertyOp14
 70
     2
102
RTVSPropertyOp15
 70
     0
102
RTVSPropertyOp16
 70
     0
102
RTVSPropertyOp17
 70
     0
102
RTVSPropertyOp18
 70
     0
102
RTVSPropertyOp19
 70
     0
102
RTVSPropertyOp20
 70
     0
102
RTVSPropertyOp21
 70
     0
102
RTVSPropertyOp22
 70
     0
102
RTVSPropertyOp23
 70
     0
102
RTVSPropertyOp24
 70
     0
102
RTVSPropertyOp25
 70
     0
102
RTVSPropertyOp26
 70
     0
102
RTVSPropertyOp27
 70
     0
102
RTVSPropertyOp28
 70
     1
102
RTVSPropertyOp29
 70
     1
102
RTVSPropertyOp30
 70
     1
102
RTVSPropertyOp31
 70
     1
102
RTVSPropertyOp32
 70
     1
102
RTVSPropertyOp33
 70
     1
102
RTVSPropertyOp34
 70
     1
102
RTVSPropertyOp35
 70
     1
102
RTVSPropertyOp36
 70
     1
102
RTVSPropertyOp37
 70
     0
102
RTVSPropertyOp38
 70
     0
102
RTVSPropertyOp39
 70
     0
102
RTVSPropertyOp40
 70
     0
102
RTVSPropertyOp41
 70
     0
102
RTVSPropertyOp42
 70
     0
102
RTVSPropertyOp43
 70
     0
102
RTVSPropertyOp44
 70
     0
102
RTVSPropertyOp45
 70
     1
102
RTVSPropertyOp46
 70
     0
102
RTVSPropertyOp47
 70
     0
102
RTVSPropertyOp48
 70
     0
102
RTVSPropertyOp49
 70
     1
102
RTVSPropertyOp50
 70
     0
102
RTVSPropertyOp51
 70
     0
102
RTVSPropertyOp52
 70
     0
102
RTVSPropertyOp53
 70
     0
102
RTVSPropertyOp54
 70
     0
102
RTVSPropertyOp55
 70
     1
102
RTVSPropertyOp56
 70
     0
102
RTVSPropertyOp57
 70
     0
102
RTVSPropertyOp58
 70
     0
102
RTVSPropertyOp59
 70
     0
102
RTVSPropertyOp60
 70
     0
102
RTVSPropertyOp61
 70
     0
102
RTVSPropertyOp62
 70
     0
  0
XRECORD
  5
525
102
{ACAD_REACTORS
330
524
102
}
330
524
100
AcDbXrecord
280
     1
102
RTVSPost2010Prop28
280
     0
102
RTVSPost2010PropOp28
 70
     1
102
RTVSPost2010Prop29
280
     1
102
RTVSPost2010PropOp29
 70
     1
102
RTVSPost2010Prop30
280
     1
102
RTVSPost2010PropOp30
 70
     1
102
RTVSPost2010Prop31
280
     0
102
RTVSPost2010PropOp31
 70
     1
102
RTVSPost2010Prop32
280
     0
102
RTVSPost2010PropOp32
 70
     1
102
RTVSPost2010Prop33
280
     0
102
RTVSPost2010PropOp33
 70
     1
102
RTVSPost2010Prop34
280
     0
102
RTVSPost2010PropOp34
 70
     1
102
RTVSPost2010Prop35
280
     0
102
RTVSPost2010PropOp35
 70
     1
102
RTVSPost2010Prop36
280
     0
102
RTVSPost2010PropOp36
 70
     1
102
RTVSPost2010Prop37
 90
       50
102
RTVSPost2010PropOp37
 70
     1
102
RTVSPost2010Prop38
140
0.0
102
RTVSPost2010PropOp38
 70
     1
102
RTVSPost2010Prop39
140
1.0
102
RTVSPost2010PropOp39
 70
     1
102
RTVSPost2010Prop40
 90
        0
102
RTVSPost2010PropOp40
 70
     1
102
RTVSPost2010Prop41ColorIndex
 90
       18
102
RTVSPost2010Prop41ColorRGB
 90
        0
102
RTVSPost2010PropOp41
 70
     1
102
RTVSPost2010Prop42
 90
       50
102
RTVSPost2010PropOp42
 70
     1
102
RTVSPost2010Prop43
 90
        3
102
RTVSPost2010PropOp43
 70
     1
102
RTVSPost2010Prop44ColorIndex
 90
        5
102
RTVSPost2010Prop44ColorRGB
 90
      255
102
RTVSPost2010PropOp44
 70
     1
102
RTVSPost2010Prop45
280
     0
102
RTVSPost2010PropOp45
 70
     1
102
RTVSPost2010Prop46
 90
       50
102
RTVSPost2010PropOp46
 70
     1
102
RTVSPost2010Prop47
 90
       50
102
RTVSPost2010PropOp47
 70
     1
102
RTVSPost2010Prop48
 90
       50
102
RTVSPost2010PropOp48
 70
     1
102
RTVSPost2010Prop49
280
     0
102
RTVSPost2010PropOp49
 70
     1
102
RTVSPost2010Prop50
 90
       50
102
RTVSPost2010PropOp50
 70
     1
102
RTVSPost2010Prop51ColorIndex
 90
      256
102
RTVSPost2010Prop51ColorRGB
 90
-16777216
102
RTVSPost2010PropOp51
 70
     0
102
RTVSPost2010Prop52
140
1.0
102
RTVSPost2010PropOp52
 70
     0
102
RTVSPost2010Prop53
 90
        2
102
RTVSPost2010PropOp53
 70
     1
102
RTVSPost2010Prop54
  1
strokes_ogs.tif
102
RTVSPost2010PropOp54
 70
     1
102
RTVSPost2010Prop55
280
     0
102
RTVSPost2010PropOp55
 70
     1
102
RTVSPost2010Prop56
140
1.0
102
RTVSPost2010PropOp56
 70
     1
102
RTVSPost2010Prop57
140
1.0
102
RTVSPost2010PropOp57
 70
     1
102
RTVSPropertyOp0
 70
     1
102
RTVSPropertyOp1
 70
     1
102
RTVSPropertyOp2
 70
     1
102
RTVSPropertyOp3
 70
     1
102
RTVSPropertyOp4
 70
     1
102
RTVSPropertyOp5
 70
     1
102
RTVSPropertyOp6
 70
     1
102
RTVSPropertyOp7
 70
     1
102
RTVSPropertyOp8
 70
     1
102
RTVSPropertyOp9
 70
     1
102
RTVSPropertyOp10
 70
     1
102
RTVSPropertyOp11
 70
     1
102
RTVSPropertyOp12
 70
     1
102
RTVSPropertyOp13
 70
     1
102
RTVSPropertyOp14
 70
     1
102
RTVSPropertyOp15
 70
     1
102
RTVSPropertyOp16
 70
     1
102
RTVSPropertyOp17
 70
     1
102
RTVSPropertyOp18
 70
     1
102
RTVSPropertyOp19
 70
     1
102
RTVSPropertyOp20
 70
     1
102
RTVSPropertyOp21
 70
     1
102
RTVSPropertyOp22
 70
     1
102
RTVSPropertyOp23
 70
     1
102
RTVSPropertyOp24
 70
     1
102
RTVSPropertyOp25
 70
     1
102
RTVSPropertyOp26
 70
     1
102
RTVSPropertyOp27
 70
     1
102
RTVSPropertyOp28
 70
     1
102
RTVSPropertyOp29
 70
     1
102
RTVSPropertyOp30
 70
     1
102
RTVSPropertyOp31
 70
     1
102
RTVSPropertyOp32
 70
     1
102
RTVSPropertyOp33
 70
     1
102
RTVSPropertyOp34
 70
     1
102
RTVSPropertyOp35
 70
     1
102
RTVSPropertyOp36
 70
     1
102
RTVSPropertyOp37
 70
     1
102
RTVSPropertyOp38
 70
     1
102
RTVSPropertyOp39
 70
     1
102
RTVSPropertyOp40
 70
     1
102
RTVSPropertyOp41
 70
     1
102
RTVSPropertyOp42
 70
     1
102
RTVSPropertyOp43
 70
     1
102
RTVSPropertyOp44
 70
     1
102
RTVSPropertyOp45
 70
     1
102
RTVSPropertyOp46
 70
     1
102
RTVSPropertyOp47
 70
     1
102
RTVSPropertyOp48
 70
     1
102
RTVSPropertyOp49
 70
     1
102
RTVSPropertyOp50
 70
     1
102
RTVSPropertyOp51
 70
     0
102
RTVSPropertyOp52
 70
     0
102
RTVSPropertyOp53
 70
     1
102
RTVSPropertyOp54
 70
     1
102
RTVSPropertyOp55
 70
     1
102
RTVSPropertyOp56
 70
     1
102
RTVSPropertyOp57
 70
     1
102
RTVSPropertyOp58
 70
     1
102
RTVSPropertyOp59
 70
     1
102
RTVSPropertyOp60
 70
     1
102
RTVSPropertyOp61
 70
     1
102
RTVSPropertyOp62
 70
     1
  0
XRECORD
  5
509
102
{ACAD_REACTORS
330
508
102
}
330
508
100
AcDbXrecord
280
     1
102
RTVSPost2010Prop28
280
     0
102
RTVSPost2010PropOp28
 70
     1
102
RTVSPost2010Prop29
280
     1
102
RTVSPost2010PropOp29
 70
     1
102
RTVSPost2010Prop30
280
     1
102
RTVSPost2010PropOp30
 70
     1
102
RTVSPost2010Prop31
280
     0
102
RTVSPost2010PropOp31
 70
     1
102
RTVSPost2010Prop32
280
     0
102
RTVSPost2010PropOp32
 70
     1
102
RTVSPost2010Prop33
280
     0
102
RTVSPost2010PropOp33
 70
     1
102
RTVSPost2010Prop34
280
     0
102
RTVSPost2010PropOp34
 70
     1
102
RTVSPost2010Prop35
280
     0
102
RTVSPost2010PropOp35
 70
     1
102
RTVSPost2010Prop36
280
     0
102
RTVSPost2010PropOp36
 70
     1
102
RTVSPost2010Prop37
 90
       50
102
RTVSPost2010PropOp37
 70
     1
102
RTVSPost2010Prop38
140
0.0
102
RTVSPost2010PropOp38
 70
     1
102
RTVSPost2010Prop39
140
1.0
102
RTVSPost2010PropOp39
 70
     1
102
RTVSPost2010Prop40
 90
        0
102
RTVSPost2010PropOp40
 70
     1
102
RTVSPost2010Prop41ColorIndex
 90
       18
102
RTVSPost2010Prop41ColorRGB
 90
        0
102
RTVSPost2010PropOp41
 70
     1
102
RTVSPost2010Prop42
 90
       50
102
RTVSPost2010PropOp42
 70
     1
102
RTVSPost2010Prop43
 90
        3
102
RTVSPost2010PropOp43
 70
     1
102
RTVSPost2010Prop44ColorIndex
 90
        5
102
RTVSPost2010Prop44ColorRGB
 90
      255
102
RTVSPost2010PropOp44
 70
     1
102
RTVSPost2010Prop45
280
     0
102
RTVSPost2010PropOp45
 70
     1
102
RTVSPost2010Prop46
 90
       50
102
RTVSPost2010PropOp46
 70
     1
102
RTVSPost2010Prop47
 90
       50
102
RTVSPost2010PropOp47
 70
     1
102
RTVSPost2010Prop48
 90
       50
102
RTVSPost2010PropOp48
 70
     1
102
RTVSPost2010Prop49
280
     0
102
RTVSPost2010PropOp49
 70
     1
102
RTVSPost2010Prop50
 90
       50
102
RTVSPost2010PropOp50
 70
     1
102
RTVSPost2010Prop51ColorIndex
 90
      256
102
RTVSPost2010Prop51ColorRGB
 90
-16777216
102
RTVSPost2010PropOp51
 70
     0
102
RTVSPost2010Prop52
140
1.0
102
RTVSPost2010PropOp52
 70
     0
102
RTVSPost2010Prop53
 90
        2
102
RTVSPost2010PropOp53
 70
     1
102
RTVSPost2010Prop54
  1
strokes_ogs.tif
102
RTVSPost2010PropOp54
 70
     1
102
RTVSPost2010Prop55
280
     0
102
RTVSPost2010PropOp55
 70
     1
102
RTVSPost2010Prop56
140
1.0
102
RTVSPost2010PropOp56
 70
     1
102
RTVSPost2010Prop57
140
1.0
102
RTVSPost2010PropOp57
 70
     1
102
RTVSPropertyOp0
 70
     1
102
RTVSPropertyOp1
 70
     1
102
RTVSPropertyOp2
 70
     1
102
RTVSPropertyOp3
 70
     1
102
RTVSPropertyOp4
 70
     1
102
RTVSPropertyOp5
 70
     1
102
RTVSPropertyOp6
 70
     1
102
RTVSPropertyOp7
 70
     1
102
RTVSPropertyOp8
 70
     1
102
RTVSPropertyOp9
 70
     1
102
RTVSPropertyOp10
 70
     1
102
RTVSPropertyOp11
 70
     1
102
RTVSPropertyOp12
 70
     1
102
RTVSPropertyOp13
 70
     1
102
RTVSPropertyOp14
 70
     1
102
RTVSPropertyOp15
 70
     1
102
RTVSPropertyOp16
 70
     1
102
RTVSPropertyOp17
 70
     1
102
RTVSPropertyOp18
 70
     1
102
RTVSPropertyOp19
 70
     1
102
RTVSPropertyOp20
 70
     1
102
RTVSPropertyOp21
 70
     1
102
RTVSPropertyOp22
 70
     1
102
RTVSPropertyOp23
 70
     1
102
RTVSPropertyOp24
 70
     1
102
RTVSPropertyOp25
 70
     1
102
RTVSPropertyOp26
 70
     1
102
RTVSPropertyOp27
 70
     1
102
RTVSPropertyOp28
 70
     1
102
RTVSPropertyOp29
 70
     1
102
RTVSPropertyOp30
 70
     1
102
RTVSPropertyOp31
 70
     1
102
RTVSPropertyOp32
 70
     1
102
RTVSPropertyOp33
 70
     1
102
RTVSPropertyOp34
 70
     1
102
RTVSPropertyOp35
 70
     1
102
RTVSPropertyOp36
 70
     1
102
RTVSPropertyOp37
 70
     1
102
RTVSPropertyOp38
 70
     1
102
RTVSPropertyOp39
 70
     1
102
RTVSPropertyOp40
 70
     1
102
RTVSPropertyOp41
 70
     1
102
RTVSPropertyOp42
 70
     1
102
RTVSPropertyOp43
 70
     1
102
RTVSPropertyOp44
 70
     1
102
RTVSPropertyOp45
 70
     1
102
RTVSPropertyOp46
 70
     1
102
RTVSPropertyOp47
 70
     1
102
RTVSPropertyOp48
 70
     1
102
RTVSPropertyOp49
 70
     1
102
RTVSPropertyOp50
 70
     1
102
RTVSPropertyOp51
 70
     0
102
RTVSPropertyOp52
 70
     0
102
RTVSPropertyOp53
 70
     1
102
RTVSPropertyOp54
 70
     1
102
RTVSPropertyOp55
 70
     1
102
RTVSPropertyOp56
 70
     1
102
RTVSPropertyOp57
 70
     1
102
RTVSPropertyOp58
 70
     1
102
RTVSPropertyOp59
 70
     1
102
RTVSPropertyOp60
 70
     1
102
RTVSPropertyOp61
 70
     1
102
RTVSPropertyOp62
 70
     1
  0
XRECORD
  5
50B
102
{ACAD_REACTORS
330
50A
102
}
330
50A
100
AcDbXrecord
280
     1
102
RTVSPost2010Prop28
280
     0
102
RTVSPost2010PropOp28
 70
     1
102
RTVSPost2010Prop29
280
     1
102
RTVSPost2010PropOp29
 70
     1
102
RTVSPost2010Prop30
280
     1
102
RTVSPost2010PropOp30
 70
     1
102
RTVSPost2010Prop31
280
     0
102
RTVSPost2010PropOp31
 70
     1
102
RTVSPost2010Prop32
280
     0
102
RTVSPost2010PropOp32
 70
     1
102
RTVSPost2010Prop33
280
     0
102
RTVSPost2010PropOp33
 70
     1
102
RTVSPost2010Prop34
280
     0
102
RTVSPost2010PropOp34
 70
     1
102
RTVSPost2010Prop35
280
     0
102
RTVSPost2010PropOp35
 70
     1
102
RTVSPost2010Prop36
280
     0
102
RTVSPost2010PropOp36
 70
     1
102
RTVSPost2010Prop37
 90
       50
102
RTVSPost2010PropOp37
 70
     1
102
RTVSPost2010Prop38
140
0.0
102
RTVSPost2010PropOp38
 70
     1
102
RTVSPost2010Prop39
140
1.0
102
RTVSPost2010PropOp39
 70
     1
102
RTVSPost2010Prop40
 90
        0
102
RTVSPost2010PropOp40
 70
     1
102
RTVSPost2010Prop41ColorIndex
 90
       18
102
RTVSPost2010Prop41ColorRGB
 90
        0
102
RTVSPost2010PropOp41
 70
     1
102
RTVSPost2010Prop42
 90
       50
102
RTVSPost2010PropOp42
 70
     1
102
RTVSPost2010Prop43
 90
        3
102
RTVSPost2010PropOp43
 70
     1
102
RTVSPost2010Prop44ColorIndex
 90
        5
102
RTVSPost2010Prop44ColorRGB
 90
      255
102
RTVSPost2010PropOp44
 70
     1
102
RTVSPost2010Prop45
280
     0
102
RTVSPost2010PropOp45
 70
     1
102
RTVSPost2010Prop46
 90
       50
102
RTVSPost2010PropOp46
 70
     1
102
RTVSPost2010Prop47
 90
       50
102
RTVSPost2010PropOp47
 70
     1
102
RTVSPost2010Prop48
 90
       50
102
RTVSPost2010PropOp48
 70
     1
102
RTVSPost2010Prop49
280
     0
102
RTVSPost2010PropOp49
 70
     1
102
RTVSPost2010Prop50
 90
       50
102
RTVSPost2010PropOp50
 70
     1
102
RTVSPost2010Prop51ColorIndex
 90
      256
102
RTVSPost2010Prop51ColorRGB
 90
-16777216
102
RTVSPost2010PropOp51
 70
     0
102
RTVSPost2010Prop52
140
1.0
102
RTVSPost2010PropOp52
 70
     0
102
RTVSPost2010Prop53
 90
        2
102
RTVSPost2010PropOp53
 70
     1
102
RTVSPost2010Prop54
  1
strokes_ogs.tif
102
RTVSPost2010PropOp54
 70
     1
102
RTVSPost2010Prop55
280
     0
102
RTVSPost2010PropOp55
 70
     1
102
RTVSPost2010Prop56
140
1.0
102
RTVSPost2010PropOp56
 70
     1
102
RTVSPost2010Prop57
140
1.0
102
RTVSPost2010PropOp57
 70
     1
102
RTVSPropertyOp0
 70
     1
102
RTVSPropertyOp1
 70
     1
102
RTVSPropertyOp2
 70
     1
102
RTVSPropertyOp3
 70
     1
102
RTVSPropertyOp4
 70
     1
102
RTVSPropertyOp5
 70
     1
102
RTVSPropertyOp6
 70
     1
102
RTVSPropertyOp7
 70
     1
102
RTVSPropertyOp8
 70
     1
102
RTVSPropertyOp9
 70
     1
102
RTVSPropertyOp10
 70
     1
102
RTVSPropertyOp11
 70
     1
102
RTVSPropertyOp12
 70
     1
102
RTVSPropertyOp13
 70
     1
102
RTVSPropertyOp14
 70
     1
102
RTVSPropertyOp15
 70
     1
102
RTVSPropertyOp16
 70
     1
102
RTVSPropertyOp17
 70
     1
102
RTVSPropertyOp18
 70
     1
102
RTVSPropertyOp19
 70
     1
102
RTVSPropertyOp20
 70
     1
102
RTVSPropertyOp21
 70
     1
102
RTVSPropertyOp22
 70
     1
102
RTVSPropertyOp23
 70
     1
102
RTVSPropertyOp24
 70
     1
102
RTVSPropertyOp25
 70
     1
102
RTVSPropertyOp26
 70
     1
102
RTVSPropertyOp27
 70
     1
102
RTVSPropertyOp28
 70
     1
102
RTVSPropertyOp29
 70
     1
102
RTVSPropertyOp30
 70
     1
102
RTVSPropertyOp31
 70
     1
102
RTVSPropertyOp32
 70
     1
102
RTVSPropertyOp33
 70
     1
102
RTVSPropertyOp34
 70
     1
102
RTVSPropertyOp35
 70
     1
102
RTVSPropertyOp36
 70
     1
102
RTVSPropertyOp37
 70
     1
102
RTVSPropertyOp38
 70
     1
102
RTVSPropertyOp39
 70
     1
102
RTVSPropertyOp40
 70
     1
102
RTVSPropertyOp41
 70
     1
102
RTVSPropertyOp42
 70
     1
102
RTVSPropertyOp43
 70
     1
102
RTVSPropertyOp44
 70
     1
102
RTVSPropertyOp45
 70
     1
102
RTVSPropertyOp46
 70
     1
102
RTVSPropertyOp47
 70
     1
102
RTVSPropertyOp48
 70
     1
102
RTVSPropertyOp49
 70
     1
102
RTVSPropertyOp50
 70
     1
102
RTVSPropertyOp51
 70
     0
102
RTVSPropertyOp52
 70
     0
102
RTVSPropertyOp53
 70
     1
102
RTVSPropertyOp54
 70
     1
102
RTVSPropertyOp55
 70
     1
102
RTVSPropertyOp56
 70
     1
102
RTVSPropertyOp57
 70
     1
102
RTVSPropertyOp58
 70
     1
102
RTVSPropertyOp59
 70
     1
102
RTVSPropertyOp60
 70
     1
102
RTVSPropertyOp61
 70
     1
102
RTVSPropertyOp62
 70
     1
  0
XRECORD
  5
50D
102
{ACAD_REACTORS
330
50C
102
}
330
50C
100
AcDbXrecord
280
     1
102
RTVSPost2010Prop28
280
     0
102
RTVSPost2010PropOp28
 70
     1
102
RTVSPost2010Prop29
280
     1
102
RTVSPost2010PropOp29
 70
     1
102
RTVSPost2010Prop30
280
     1
102
RTVSPost2010PropOp30
 70
     1
102
RTVSPost2010Prop31
280
     0
102
RTVSPost2010PropOp31
 70
     1
102
RTVSPost2010Prop32
280
     0
102
RTVSPost2010PropOp32
 70
     1
102
RTVSPost2010Prop33
280
     0
102
RTVSPost2010PropOp33
 70
     1
102
RTVSPost2010Prop34
280
     0
102
RTVSPost2010PropOp34
 70
     1
102
RTVSPost2010Prop35
280
     0
102
RTVSPost2010PropOp35
 70
     1
102
RTVSPost2010Prop36
280
     0
102
RTVSPost2010PropOp36
 70
     1
102
RTVSPost2010Prop37
 90
       50
102
RTVSPost2010PropOp37
 70
     1
102
RTVSPost2010Prop38
140
0.0
102
RTVSPost2010PropOp38
 70
     1
102
RTVSPost2010Prop39
140
1.0
102
RTVSPost2010PropOp39
 70
     1
102
RTVSPost2010Prop40
 90
        0
102
RTVSPost2010PropOp40
 70
     1
102
RTVSPost2010Prop41ColorIndex
 90
       18
102
RTVSPost2010Prop41ColorRGB
 90
        0
102
RTVSPost2010PropOp41
 70
     1
102
RTVSPost2010Prop42
 90
       50
102
RTVSPost2010PropOp42
 70
     1
102
RTVSPost2010Prop43
 90
        3
102
RTVSPost2010PropOp43
 70
     1
102
RTVSPost2010Prop44ColorIndex
 90
        5
102
RTVSPost2010Prop44ColorRGB
 90
      255
102
RTVSPost2010PropOp44
 70
     1
102
RTVSPost2010Prop45
280
     0
102
RTVSPost2010PropOp45
 70
     1
102
RTVSPost2010Prop46
 90
       50
102
RTVSPost2010PropOp46
 70
     1
102
RTVSPost2010Prop47
 90
       50
102
RTVSPost2010PropOp47
 70
     1
102
RTVSPost2010Prop48
 90
       50
102
RTVSPost2010PropOp48
 70
     1
102
RTVSPost2010Prop49
280
     0
102
RTVSPost2010PropOp49
 70
     1
102
RTVSPost2010Prop50
 90
       50
102
RTVSPost2010PropOp50
 70
     1
102
RTVSPost2010Prop51ColorIndex
 90
      256
102
RTVSPost2010Prop51ColorRGB
 90
-16777216
102
RTVSPost2010PropOp51
 70
     0
102
RTVSPost2010Prop52
140
1.0
102
RTVSPost2010PropOp52
 70
     0
102
RTVSPost2010Prop53
 90
        2
102
RTVSPost2010PropOp53
 70
     1
102
RTVSPost2010Prop54
  1
strokes_ogs.tif
102
RTVSPost2010PropOp54
 70
     1
102
RTVSPost2010Prop55
280
     0
102
RTVSPost2010PropOp55
 70
     1
102
RTVSPost2010Prop56
140
1.0
102
RTVSPost2010PropOp56
 70
     1
102
RTVSPost2010Prop57
140
1.0
102
RTVSPost2010PropOp57
 70
     1
102
RTVSPropertyOp0
 70
     1
102
RTVSPropertyOp1
 70
     1
102
RTVSPropertyOp2
 70
     1
102
RTVSPropertyOp3
 70
     1
102
RTVSPropertyOp4
 70
     1
102
RTVSPropertyOp5
 70
     1
102
RTVSPropertyOp6
 70
     1
102
RTVSPropertyOp7
 70
     1
102
RTVSPropertyOp8
 70
     1
102
RTVSPropertyOp9
 70
     1
102
RTVSPropertyOp10
 70
     1
102
RTVSPropertyOp11
 70
     1
102
RTVSPropertyOp12
 70
     1
102
RTVSPropertyOp13
 70
     1
102
RTVSPropertyOp14
 70
     1
102
RTVSPropertyOp15
 70
     1
102
RTVSPropertyOp16
 70
     1
102
RTVSPropertyOp17
 70
     1
102
RTVSPropertyOp18
 70
     1
102
RTVSPropertyOp19
 70
     1
102
RTVSPropertyOp20
 70
     1
102
RTVSPropertyOp21
 70
     1
102
RTVSPropertyOp22
 70
     1
102
RTVSPropertyOp23
 70
     1
102
RTVSPropertyOp24
 70
     1
102
RTVSPropertyOp25
 70
     1
102
RTVSPropertyOp26
 70
     1
102
RTVSPropertyOp27
 70
     1
102
RTVSPropertyOp28
 70
     1
102
RTVSPropertyOp29
 70
     1
102
RTVSPropertyOp30
 70
     1
102
RTVSPropertyOp31
 70
     1
102
RTVSPropertyOp32
 70
     1
102
RTVSPropertyOp33
 70
     1
102
RTVSPropertyOp34
 70
     1
102
RTVSPropertyOp35
 70
     1
102
RTVSPropertyOp36
 70
     1
102
RTVSPropertyOp37
 70
     1
102
RTVSPropertyOp38
 70
     1
102
RTVSPropertyOp39
 70
     1
102
RTVSPropertyOp40
 70
     1
102
RTVSPropertyOp41
 70
     1
102
RTVSPropertyOp42
 70
     1
102
RTVSPropertyOp43
 70
     1
102
RTVSPropertyOp44
 70
     1
102
RTVSPropertyOp45
 70
     1
102
RTVSPropertyOp46
 70
     1
102
RTVSPropertyOp47
 70
     1
102
RTVSPropertyOp48
 70
     1
102
RTVSPropertyOp49
 70
     1
102
RTVSPropertyOp50
 70
     1
102
RTVSPropertyOp51
 70
     0
102
RTVSPropertyOp52
 70
     0
102
RTVSPropertyOp53
 70
     1
102
RTVSPropertyOp54
 70
     1
102
RTVSPropertyOp55
 70
     1
102
RTVSPropertyOp56
 70
     1
102
RTVSPropertyOp57
 70
     1
102
RTVSPropertyOp58
 70
     1
102
RTVSPropertyOp59
 70
     1
102
RTVSPropertyOp60
 70
     1
102
RTVSPropertyOp61
 70
     1
102
RTVSPropertyOp62
 70
     1
  0
XRECORD
  5
50F
102
{ACAD_REACTORS
330
50E
102
}
330
50E
100
AcDbXrecord
280
     1
102
RTVSPost2010Prop28
280
     0
102
RTVSPost2010PropOp28
 70
     1
102
RTVSPost2010Prop29
280
     1
102
RTVSPost2010PropOp29
 70
     1
102
RTVSPost2010Prop30
280
     1
102
RTVSPost2010PropOp30
 70
     1
102
RTVSPost2010Prop31
280
     0
102
RTVSPost2010PropOp31
 70
     1
102
RTVSPost2010Prop32
280
     0
102
RTVSPost2010PropOp32
 70
     1
102
RTVSPost2010Prop33
280
     0
102
RTVSPost2010PropOp33
 70
     1
102
RTVSPost2010Prop34
280
     0
102
RTVSPost2010PropOp34
 70
     1
102
RTVSPost2010Prop35
280
     0
102
RTVSPost2010PropOp35
 70
     1
102
RTVSPost2010Prop36
280
     0
102
RTVSPost2010PropOp36
 70
     1
102
RTVSPost2010Prop37
 90
       50
102
RTVSPost2010PropOp37
 70
     1
102
RTVSPost2010Prop38
140
0.0
102
RTVSPost2010PropOp38
 70
     1
102
RTVSPost2010Prop39
140
1.0
102
RTVSPost2010PropOp39
 70
     1
102
RTVSPost2010Prop40
 90
        0
102
RTVSPost2010PropOp40
 70
     1
102
RTVSPost2010Prop41ColorIndex
 90
       18
102
RTVSPost2010Prop41ColorRGB
 90
        0
102
RTVSPost2010PropOp41
 70
     1
102
RTVSPost2010Prop42
 90
       50
102
RTVSPost2010PropOp42
 70
     1
102
RTVSPost2010Prop43
 90
        3
102
RTVSPost2010PropOp43
 70
     1
102
RTVSPost2010Prop44ColorIndex
 90
        5
102
RTVSPost2010Prop44ColorRGB
 90
      255
102
RTVSPost2010PropOp44
 70
     1
102
RTVSPost2010Prop45
280
     0
102
RTVSPost2010PropOp45
 70
     1
102
RTVSPost2010Prop46
 90
       50
102
RTVSPost2010PropOp46
 70
     1
102
RTVSPost2010Prop47
 90
       50
102
RTVSPost2010PropOp47
 70
     1
102
RTVSPost2010Prop48
 90
       50
102
RTVSPost2010PropOp48
 70
     1
102
RTVSPost2010Prop49
280
     0
102
RTVSPost2010PropOp49
 70
     1
102
RTVSPost2010Prop50
 90
       50
102
RTVSPost2010PropOp50
 70
     1
102
RTVSPost2010Prop51ColorIndex
 90
      256
102
RTVSPost2010Prop51ColorRGB
 90
-16777216
102
RTVSPost2010PropOp51
 70
     0
102
RTVSPost2010Prop52
140
1.0
102
RTVSPost2010PropOp52
 70
     0
102
RTVSPost2010Prop53
 90
        2
102
RTVSPost2010PropOp53
 70
     1
102
RTVSPost2010Prop54
  1
strokes_ogs.tif
102
RTVSPost2010PropOp54
 70
     1
102
RTVSPost2010Prop55
280
     0
102
RTVSPost2010PropOp55
 70
     1
102
RTVSPost2010Prop56
140
1.0
102
RTVSPost2010PropOp56
 70
     1
102
RTVSPost2010Prop57
140
1.0
102
RTVSPost2010PropOp57
 70
     1
102
RTVSPropertyOp0
 70
     1
102
RTVSPropertyOp1
 70
     1
102
RTVSPropertyOp2
 70
     1
102
RTVSPropertyOp3
 70
     1
102
RTVSPropertyOp4
 70
     1
102
RTVSPropertyOp5
 70
     1
102
RTVSPropertyOp6
 70
     1
102
RTVSPropertyOp7
 70
     1
102
RTVSPropertyOp8
 70
     1
102
RTVSPropertyOp9
 70
     1
102
RTVSPropertyOp10
 70
     1
102
RTVSPropertyOp11
 70
     1
102
RTVSPropertyOp12
 70
     1
102
RTVSPropertyOp13
 70
     1
102
RTVSPropertyOp14
 70
     1
102
RTVSPropertyOp15
 70
     1
102
RTVSPropertyOp16
 70
     1
102
RTVSPropertyOp17
 70
     1
102
RTVSPropertyOp18
 70
     1
102
RTVSPropertyOp19
 70
     1
102
RTVSPropertyOp20
 70
     1
102
RTVSPropertyOp21
 70
     1
102
RTVSPropertyOp22
 70
     1
102
RTVSPropertyOp23
 70
     1
102
RTVSPropertyOp24
 70
     1
102
RTVSPropertyOp25
 70
     1
102
RTVSPropertyOp26
 70
     1
102
RTVSPropertyOp27
 70
     1
102
RTVSPropertyOp28
 70
     1
102
RTVSPropertyOp29
 70
     1
102
RTVSPropertyOp30
 70
     1
102
RTVSPropertyOp31
 70
     1
102
RTVSPropertyOp32
 70
     1
102
RTVSPropertyOp33
 70
     1
102
RTVSPropertyOp34
 70
     1
102
RTVSPropertyOp35
 70
     1
102
RTVSPropertyOp36
 70
     1
102
RTVSPropertyOp37
 70
     1
102
RTVSPropertyOp38
 70
     1
102
RTVSPropertyOp39
 70
     1
102
RTVSPropertyOp40
 70
     1
102
RTVSPropertyOp41
 70
     1
102
RTVSPropertyOp42
 70
     1
102
RTVSPropertyOp43
 70
     1
102
RTVSPropertyOp44
 70
     1
102
RTVSPropertyOp45
 70
     1
102
RTVSPropertyOp46
 70
     1
102
RTVSPropertyOp47
 70
     1
102
RTVSPropertyOp48
 70
     1
102
RTVSPropertyOp49
 70
     1
102
RTVSPropertyOp50
 70
     1
102
RTVSPropertyOp51
 70
     0
102
RTVSPropertyOp52
 70
     0
102
RTVSPropertyOp53
 70
     1
102
RTVSPropertyOp54
 70
     1
102
RTVSPropertyOp55
 70
     1
102
RTVSPropertyOp56
 70
     1
102
RTVSPropertyOp57
 70
     1
102
RTVSPropertyOp58
 70
     1
102
RTVSPropertyOp59
 70
     1
102
RTVSPropertyOp60
 70
     1
102
RTVSPropertyOp61
 70
     1
102
RTVSPropertyOp62
 70
     1
  0
XRECORD
  5
52E
102
{ACAD_REACTORS
330
52D
102
}
330
52D
100
AcDbXrecord
280
     1
102
RTVSPost2010Prop28
280
     0
102
RTVSPost2010PropOp28
 70
     1
102
RTVSPost2010Prop29
280
     1
102
RTVSPost2010PropOp29
 70
     1
102
RTVSPost2010Prop30
280
     1
102
RTVSPost2010PropOp30
 70
     1
102
RTVSPost2010Prop31
280
     0
102
RTVSPost2010PropOp31
 70
     1
102
RTVSPost2010Prop32
280
     0
102
RTVSPost2010PropOp32
 70
     1
102
RTVSPost2010Prop33
280
     0
102
RTVSPost2010PropOp33
 70
     1
102
RTVSPost2010Prop34
280
     0
102
RTVSPost2010PropOp34
 70
     1
102
RTVSPost2010Prop35
280
     0
102
RTVSPost2010PropOp35
 70
     1
102
RTVSPost2010Prop36
280
     0
102
RTVSPost2010PropOp36
 70
     1
102
RTVSPost2010Prop37
 90
       50
102
RTVSPost2010PropOp37
 70
     1
102
RTVSPost2010Prop38
140
0.0
102
RTVSPost2010PropOp38
 70
     1
102
RTVSPost2010Prop39
140
1.0
102
RTVSPost2010PropOp39
 70
     1
102
RTVSPost2010Prop40
 90
        0
102
RTVSPost2010PropOp40
 70
     1
102
RTVSPost2010Prop41ColorIndex
 90
       18
102
RTVSPost2010Prop41ColorRGB
 90
        0
102
RTVSPost2010PropOp41
 70
     1
102
RTVSPost2010Prop42
 90
       50
102
RTVSPost2010PropOp42
 70
     1
102
RTVSPost2010Prop43
 90
        3
102
RTVSPost2010PropOp43
 70
     1
102
RTVSPost2010Prop44ColorIndex
 90
        5
102
RTVSPost2010Prop44ColorRGB
 90
      255
102
RTVSPost2010PropOp44
 70
     1
102
RTVSPost2010Prop45
280
     0
102
RTVSPost2010PropOp45
 70
     1
102
RTVSPost2010Prop46
 90
       50
102
RTVSPost2010PropOp46
 70
     1
102
RTVSPost2010Prop47
 90
       50
102
RTVSPost2010PropOp47
 70
     1
102
RTVSPost2010Prop48
 90
       50
102
RTVSPost2010PropOp48
 70
     1
102
RTVSPost2010Prop49
280
     0
102
RTVSPost2010PropOp49
 70
     1
102
RTVSPost2010Prop50
 90
       50
102
RTVSPost2010PropOp50
 70
     1
102
RTVSPost2010Prop51ColorIndex
 90
      256
102
RTVSPost2010Prop51ColorRGB
 90
-16777216
102
RTVSPost2010PropOp51
 70
     0
102
RTVSPost2010Prop52
140
1.0
102
RTVSPost2010PropOp52
 70
     0
102
RTVSPost2010Prop53
 90
        2
102
RTVSPost2010PropOp53
 70
     1
102
RTVSPost2010Prop54
  1
strokes_ogs.tif
102
RTVSPost2010PropOp54
 70
     1
102
RTVSPost2010Prop55
280
     0
102
RTVSPost2010PropOp55
 70
     1
102
RTVSPost2010Prop56
140
1.0
102
RTVSPost2010PropOp56
 70
     1
102
RTVSPost2010Prop57
140
1.0
102
RTVSPost2010PropOp57
 70
     1
102
RTVSPropertyOp0
 70
     1
102
RTVSPropertyOp1
 70
     1
102
RTVSPropertyOp2
 70
     1
102
RTVSPropertyOp3
 70
     1
102
RTVSPropertyOp4
 70
     1
102
RTVSPropertyOp5
 70
     1
102
RTVSPropertyOp6
 70
     1
102
RTVSPropertyOp7
 70
     1
102
RTVSPropertyOp8
 70
     1
102
RTVSPropertyOp9
 70
     1
102
RTVSPropertyOp10
 70
     1
102
RTVSPropertyOp11
 70
     1
102
RTVSPropertyOp12
 70
     1
102
RTVSPropertyOp13
 70
     1
102
RTVSPropertyOp14
 70
     1
102
RTVSPropertyOp15
 70
     1
102
RTVSPropertyOp16
 70
     1
102
RTVSPropertyOp17
 70
     1
102
RTVSPropertyOp18
 70
     1
102
RTVSPropertyOp19
 70
     1
102
RTVSPropertyOp20
 70
     1
102
RTVSPropertyOp21
 70
     1
102
RTVSPropertyOp22
 70
     1
102
RTVSPropertyOp23
 70
     1
102
RTVSPropertyOp24
 70
     1
102
RTVSPropertyOp25
 70
     1
102
RTVSPropertyOp26
 70
     1
102
RTVSPropertyOp27
 70
     1
102
RTVSPropertyOp28
 70
     1
102
RTVSPropertyOp29
 70
     1
102
RTVSPropertyOp30
 70
     1
102
RTVSPropertyOp31
 70
     1
102
RTVSPropertyOp32
 70
     1
102
RTVSPropertyOp33
 70
     1
102
RTVSPropertyOp34
 70
     1
102
RTVSPropertyOp35
 70
     1
102
RTVSPropertyOp36
 70
     1
102
RTVSPropertyOp37
 70
     1
102
RTVSPropertyOp38
 70
     1
102
RTVSPropertyOp39
 70
     1
102
RTVSPropertyOp40
 70
     1
102
RTVSPropertyOp41
 70
     1
102
RTVSPropertyOp42
 70
     1
102
RTVSPropertyOp43
 70
     1
102
RTVSPropertyOp44
 70
     1
102
RTVSPropertyOp45
 70
     1
102
RTVSPropertyOp46
 70
     1
102
RTVSPropertyOp47
 70
     1
102
RTVSPropertyOp48
 70
     1
102
RTVSPropertyOp49
 70
     1
102
RTVSPropertyOp50
 70
     1
102
RTVSPropertyOp51
 70
     0
102
RTVSPropertyOp52
 70
     0
102
RTVSPropertyOp53
 70
     1
102
RTVSPropertyOp54
 70
     1
102
RTVSPropertyOp55
 70
     1
102
RTVSPropertyOp56
 70
     1
102
RTVSPropertyOp57
 70
     1
102
RTVSPropertyOp58
 70
     1
102
RTVSPropertyOp59
 70
     1
102
RTVSPropertyOp60
 70
     1
102
RTVSPropertyOp61
 70
     1
102
RTVSPropertyOp62
 70
     1
  0
XRECORD
  5
53A
102
{ACAD_REACTORS
330
539
102
}
330
539
100
AcDbXrecord
280
     1
102
RTVSPost2010Prop28
280
     0
102
RTVSPost2010PropOp28
 70
     1
102
RTVSPost2010Prop29
280
     1
102
RTVSPost2010PropOp29
 70
     1
102
RTVSPost2010Prop30
280
     1
102
RTVSPost2010PropOp30
 70
     1
102
RTVSPost2010Prop31
280
     0
102
RTVSPost2010PropOp31
 70
     1
102
RTVSPost2010Prop32
280
     0
102
RTVSPost2010PropOp32
 70
     1
102
RTVSPost2010Prop33
280
     0
102
RTVSPost2010PropOp33
 70
     1
102
RTVSPost2010Prop34
280
     0
102
RTVSPost2010PropOp34
 70
     1
102
RTVSPost2010Prop35
280
     0
102
RTVSPost2010PropOp35
 70
     1
102
RTVSPost2010Prop36
280
     0
102
RTVSPost2010PropOp36
 70
     1
102
RTVSPost2010Prop37
 90
       50
102
RTVSPost2010PropOp37
 70
     0
102
RTVSPost2010Prop38
140
0.0
102
RTVSPost2010PropOp38
 70
     0
102
RTVSPost2010Prop39
140
1.0
102
RTVSPost2010PropOp39
 70
     0
102
RTVSPost2010Prop40
 90
        0
102
RTVSPost2010PropOp40
 70
     0
102
RTVSPost2010Prop41ColorIndex
 90
       18
102
RTVSPost2010Prop41ColorRGB
 90
        0
102
RTVSPost2010PropOp41
 70
     0
102
RTVSPost2010Prop42
 90
       50
102
RTVSPost2010PropOp42
 70
     0
102
RTVSPost2010Prop43
 90
        3
102
RTVSPost2010PropOp43
 70
     0
102
RTVSPost2010Prop44ColorIndex
 90
        5
102
RTVSPost2010Prop44ColorRGB
 90
      255
102
RTVSPost2010PropOp44
 70
     0
102
RTVSPost2010Prop45
280
     0
102
RTVSPost2010PropOp45
 70
     1
102
RTVSPost2010Prop46
 90
       50
102
RTVSPost2010PropOp46
 70
     0
102
RTVSPost2010Prop47
 90
       50
102
RTVSPost2010PropOp47
 70
     0
102
RTVSPost2010Prop48
 90
       50
102
RTVSPost2010PropOp48
 70
     0
102
RTVSPost2010Prop49
280
     0
102
RTVSPost2010PropOp49
 70
     1
102
RTVSPost2010Prop50
 90
       50
102
RTVSPost2010PropOp50
 70
     0
102
RTVSPost2010Prop51ColorIndex
 90
      256
102
RTVSPost2010Prop51ColorRGB
 90
-16777216
102
RTVSPost2010PropOp51
 70
     0
102
RTVSPost2010Prop52
140
1.0
102
RTVSPost2010PropOp52
 70
     0
102
RTVSPost2010Prop53
 90
        2
102
RTVSPost2010PropOp53
 70
     0
102
RTVSPost2010Prop54
  1
strokes_ogs.tif
102
RTVSPost2010PropOp54
 70
     0
102
RTVSPost2010Prop55
280
     0
102
RTVSPost2010PropOp55
 70
     1
102
RTVSPost2010Prop56
140
1.0
102
RTVSPost2010PropOp56
 70
     0
102
RTVSPost2010Prop57
140
1.0
102
RTVSPost2010PropOp57
 70
     0
102
RTVSPropertyOp0
 70
     0
102
RTVSPropertyOp1
 70
     0
102
RTVSPropertyOp2
 70
     0
102
RTVSPropertyOp3
 70
     0
102
RTVSPropertyOp4
 70
     0
102
RTVSPropertyOp5
 70
     0
102
RTVSPropertyOp6
 70
     0
102
RTVSPropertyOp7
 70
     0
102
RTVSPropertyOp8
 70
     0
102
RTVSPropertyOp9
 70
     0
102
RTVSPropertyOp10
 70
     0
102
RTVSPropertyOp11
 70
     0
102
RTVSPropertyOp12
 70
     0
102
RTVSPropertyOp13
 70
     0
102
RTVSPropertyOp14
 70
     2
102
RTVSPropertyOp15
 70
     0
102
RTVSPropertyOp16
 70
     0
102
RTVSPropertyOp17
 70
     0
102
RTVSPropertyOp18
 70
     0
102
RTVSPropertyOp19
 70
     0
102
RTVSPropertyOp20
 70
     0
102
RTVSPropertyOp21
 70
     0
102
RTVSPropertyOp22
 70
     0
102
RTVSPropertyOp23
 70
     0
102
RTVSPropertyOp24
 70
     0
102
RTVSPropertyOp25
 70
     0
102
RTVSPropertyOp26
 70
     0
102
RTVSPropertyOp27
 70
     0
102
RTVSPropertyOp28
 70
     1
102
RTVSPropertyOp29
 70
     1
102
RTVSPropertyOp30
 70
     1
102
RTVSPropertyOp31
 70
     1
102
RTVSPropertyOp32
 70
     1
102
RTVSPropertyOp33
 70
     1
102
RTVSPropertyOp34
 70
     1
102
RTVSPropertyOp35
 70
     1
102
RTVSPropertyOp36
 70
     1
102
RTVSPropertyOp37
 70
     0
102
RTVSPropertyOp38
 70
     0
102
RTVSPropertyOp39
 70
     0
102
RTVSPropertyOp40
 70
     0
102
RTVSPropertyOp41
 70
     0
102
RTVSPropertyOp42
 70
     0
102
RTVSPropertyOp43
 70
     0
102
RTVSPropertyOp44
 70
     0
102
RTVSPropertyOp45
 70
     1
102
RTVSPropertyOp46
 70
     0
102
RTVSPropertyOp47
 70
     0
102
RTVSPropertyOp48
 70
     0
102
RTVSPropertyOp49
 70
     1
102
RTVSPropertyOp50
 70
     0
102
RTVSPropertyOp51
 70
     0
102
RTVSPropertyOp52
 70
     0
102
RTVSPropertyOp53
 70
     0
102
RTVSPropertyOp54
 70
     0
102
RTVSPropertyOp55
 70
     1
102
RTVSPropertyOp56
 70
     0
102
RTVSPropertyOp57
 70
     0
102
RTVSPropertyOp58
 70
     0
102
RTVSPropertyOp59
 70
     0
102
RTVSPropertyOp60
 70
     0
102
RTVSPropertyOp61
 70
     0
102
RTVSPropertyOp62
 70
     0
  0
XRECORD
  5
523
102
{ACAD_REACTORS
330
522
102
}
330
522
100
AcDbXrecord
280
     1
102
RTVSPost2010Prop28
280
     0
102
RTVSPost2010PropOp28
 70
     1
102
RTVSPost2010Prop29
280
     1
102
RTVSPost2010PropOp29
 70
     1
102
RTVSPost2010Prop30
280
     1
102
RTVSPost2010PropOp30
 70
     1
102
RTVSPost2010Prop31
280
     0
102
RTVSPost2010PropOp31
 70
     1
102
RTVSPost2010Prop32
280
     0
102
RTVSPost2010PropOp32
 70
     1
102
RTVSPost2010Prop33
280
     0
102
RTVSPost2010PropOp33
 70
     1
102
RTVSPost2010Prop34
280
     0
102
RTVSPost2010PropOp34
 70
     1
102
RTVSPost2010Prop35
280
     0
102
RTVSPost2010PropOp35
 70
     1
102
RTVSPost2010Prop36
280
     0
102
RTVSPost2010PropOp36
 70
     1
102
RTVSPost2010Prop37
 90
       50
102
RTVSPost2010PropOp37
 70
     1
102
RTVSPost2010Prop38
140
0.0
102
RTVSPost2010PropOp38
 70
     1
102
RTVSPost2010Prop39
140
1.0
102
RTVSPost2010PropOp39
 70
     1
102
RTVSPost2010Prop40
 90
        0
102
RTVSPost2010PropOp40
 70
     1
102
RTVSPost2010Prop41ColorIndex
 90
       18
102
RTVSPost2010Prop41ColorRGB
 90
        0
102
RTVSPost2010PropOp41
 70
     1
102
RTVSPost2010Prop42
 90
       50
102
RTVSPost2010PropOp42
 70
     1
102
RTVSPost2010Prop43
 90
        3
102
RTVSPost2010PropOp43
 70
     1
102
RTVSPost2010Prop44ColorIndex
 90
        5
102
RTVSPost2010Prop44ColorRGB
 90
      255
102
RTVSPost2010PropOp44
 70
     1
102
RTVSPost2010Prop45
280
     0
102
RTVSPost2010PropOp45
 70
     1
102
RTVSPost2010Prop46
 90
       50
102
RTVSPost2010PropOp46
 70
     1
102
RTVSPost2010Prop47
 90
       50
102
RTVSPost2010PropOp47
 70
     1
102
RTVSPost2010Prop48
 90
       50
102
RTVSPost2010PropOp48
 70
     1
102
RTVSPost2010Prop49
280
     0
102
RTVSPost2010PropOp49
 70
     1
102
RTVSPost2010Prop50
 90
       50
102
RTVSPost2010PropOp50
 70
     1
102
RTVSPost2010Prop51ColorIndex
 90
      256
102
RTVSPost2010Prop51ColorRGB
 90
-16777216
102
RTVSPost2010PropOp51
 70
     0
102
RTVSPost2010Prop52
140
1.0
102
RTVSPost2010PropOp52
 70
     0
102
RTVSPost2010Prop53
 90
        2
102
RTVSPost2010PropOp53
 70
     1
102
RTVSPost2010Prop54
  1
strokes_ogs.tif
102
RTVSPost2010PropOp54
 70
     1
102
RTVSPost2010Prop55
280
     0
102
RTVSPost2010PropOp55
 70
     1
102
RTVSPost2010Prop56
140
1.0
102
RTVSPost2010PropOp56
 70
     1
102
RTVSPost2010Prop57
140
1.0
102
RTVSPost2010PropOp57
 70
     1
102
RTVSPropertyOp0
 70
     1
102
RTVSPropertyOp1
 70
     1
102
RTVSPropertyOp2
 70
     1
102
RTVSPropertyOp3
 70
     1
102
RTVSPropertyOp4
 70
     1
102
RTVSPropertyOp5
 70
     1
102
RTVSPropertyOp6
 70
     1
102
RTVSPropertyOp7
 70
     1
102
RTVSPropertyOp8
 70
     1
102
RTVSPropertyOp9
 70
     1
102
RTVSPropertyOp10
 70
     1
102
RTVSPropertyOp11
 70
     1
102
RTVSPropertyOp12
 70
     1
102
RTVSPropertyOp13
 70
     1
102
RTVSPropertyOp14
 70
     1
102
RTVSPropertyOp15
 70
     1
102
RTVSPropertyOp16
 70
     1
102
RTVSPropertyOp17
 70
     1
102
RTVSPropertyOp18
 70
     1
102
RTVSPropertyOp19
 70
     1
102
RTVSPropertyOp20
 70
     1
102
RTVSPropertyOp21
 70
     1
102
RTVSPropertyOp22
 70
     1
102
RTVSPropertyOp23
 70
     1
102
RTVSPropertyOp24
 70
     1
102
RTVSPropertyOp25
 70
     1
102
RTVSPropertyOp26
 70
     1
102
RTVSPropertyOp27
 70
     1
102
RTVSPropertyOp28
 70
     1
102
RTVSPropertyOp29
 70
     1
102
RTVSPropertyOp30
 70
     1
102
RTVSPropertyOp31
 70
     1
102
RTVSPropertyOp32
 70
     1
102
RTVSPropertyOp33
 70
     1
102
RTVSPropertyOp34
 70
     1
102
RTVSPropertyOp35
 70
     1
102
RTVSPropertyOp36
 70
     1
102
RTVSPropertyOp37
 70
     1
102
RTVSPropertyOp38
 70
     1
102
RTVSPropertyOp39
 70
     1
102
RTVSPropertyOp40
 70
     1
102
RTVSPropertyOp41
 70
     1
102
RTVSPropertyOp42
 70
     1
102
RTVSPropertyOp43
 70
     1
102
RTVSPropertyOp44
 70
     1
102
RTVSPropertyOp45
 70
     1
102
RTVSPropertyOp46
 70
     1
102
RTVSPropertyOp47
 70
     1
102
RTVSPropertyOp48
 70
     1
102
RTVSPropertyOp49
 70
     1
102
RTVSPropertyOp50
 70
     1
102
RTVSPropertyOp51
 70
     0
102
RTVSPropertyOp52
 70
     0
102
RTVSPropertyOp53
 70
     1
102
RTVSPropertyOp54
 70
     1
102
RTVSPropertyOp55
 70
     1
102
RTVSPropertyOp56
 70
     1
102
RTVSPropertyOp57
 70
     1
102
RTVSPropertyOp58
 70
     1
102
RTVSPropertyOp59
 70
     1
102
RTVSPropertyOp60
 70
     1
102
RTVSPropertyOp61
 70
     1
102
RTVSPropertyOp62
 70
     1
  0
XRECORD
  5
53C
102
{ACAD_REACTORS
330
53B
102
}
330
53B
100
AcDbXrecord
280
     1
102
RTVSPost2010Prop28
280
     0
102
RTVSPost2010PropOp28
 70
     1
102
RTVSPost2010Prop29
280
     1
102
RTVSPost2010PropOp29
 70
     1
102
RTVSPost2010Prop30
280
     1
102
RTVSPost2010PropOp30
 70
     1
102
RTVSPost2010Prop31
280
     0
102
RTVSPost2010PropOp31
 70
     1
102
RTVSPost2010Prop32
280
     0
102
RTVSPost2010PropOp32
 70
     1
102
RTVSPost2010Prop33
280
     0
102
RTVSPost2010PropOp33
 70
     1
102
RTVSPost2010Prop34
280
     0
102
RTVSPost2010PropOp34
 70
     1
102
RTVSPost2010Prop35
280
     0
102
RTVSPost2010PropOp35
 70
     1
102
RTVSPost2010Prop36
280
     0
102
RTVSPost2010PropOp36
 70
     1
102
RTVSPost2010Prop37
 90
       50
102
RTVSPost2010PropOp37
 70
     0
102
RTVSPost2010Prop38
140
0.0
102
RTVSPost2010PropOp38
 70
     0
102
RTVSPost2010Prop39
140
1.0
102
RTVSPost2010PropOp39
 70
     0
102
RTVSPost2010Prop40
 90
        0
102
RTVSPost2010PropOp40
 70
     0
102
RTVSPost2010Prop41ColorIndex
 90
       18
102
RTVSPost2010Prop41ColorRGB
 90
        0
102
RTVSPost2010PropOp41
 70
     0
102
RTVSPost2010Prop42
 90
       50
102
RTVSPost2010PropOp42
 70
     0
102
RTVSPost2010Prop43
 90
        3
102
RTVSPost2010PropOp43
 70
     0
102
RTVSPost2010Prop44ColorIndex
 90
        5
102
RTVSPost2010Prop44ColorRGB
 90
      255
102
RTVSPost2010PropOp44
 70
     0
102
RTVSPost2010Prop45
280
     0
102
RTVSPost2010PropOp45
 70
     1
102
RTVSPost2010Prop46
 90
       50
102
RTVSPost2010PropOp46
 70
     0
102
RTVSPost2010Prop47
 90
       50
102
RTVSPost2010PropOp47
 70
     0
102
RTVSPost2010Prop48
 90
       50
102
RTVSPost2010PropOp48
 70
     0
102
RTVSPost2010Prop49
280
     0
102
RTVSPost2010PropOp49
 70
     1
102
RTVSPost2010Prop50
 90
       50
102
RTVSPost2010PropOp50
 70
     0
102
RTVSPost2010Prop51ColorIndex
 90
      256
102
RTVSPost2010Prop51ColorRGB
 90
-16777216
102
RTVSPost2010PropOp51
 70
     0
102
RTVSPost2010Prop52
140
1.0
102
RTVSPost2010PropOp52
 70
     0
102
RTVSPost2010Prop53
 90
        2
102
RTVSPost2010PropOp53
 70
     0
102
RTVSPost2010Prop54
  1
strokes_ogs.tif
102
RTVSPost2010PropOp54
 70
     0
102
RTVSPost2010Prop55
280
     0
102
RTVSPost2010PropOp55
 70
     1
102
RTVSPost2010Prop56
140
1.0
102
RTVSPost2010PropOp56
 70
     0
102
RTVSPost2010Prop57
140
1.0
102
RTVSPost2010PropOp57
 70
     0
102
RTVSPropertyOp0
 70
     0
102
RTVSPropertyOp1
 70
     0
102
RTVSPropertyOp2
 70
     0
102
RTVSPropertyOp3
 70
     0
102
RTVSPropertyOp4
 70
     0
102
RTVSPropertyOp5
 70
     0
102
RTVSPropertyOp6
 70
     0
102
RTVSPropertyOp7
 70
     0
102
RTVSPropertyOp8
 70
     0
102
RTVSPropertyOp9
 70
     0
102
RTVSPropertyOp10
 70
     0
102
RTVSPropertyOp11
 70
     0
102
RTVSPropertyOp12
 70
     0
102
RTVSPropertyOp13
 70
     0
102
RTVSPropertyOp14
 70
     2
102
RTVSPropertyOp15
 70
     0
102
RTVSPropertyOp16
 70
     0
102
RTVSPropertyOp17
 70
     0
102
RTVSPropertyOp18
 70
     0
102
RTVSPropertyOp19
 70
     0
102
RTVSPropertyOp20
 70
     0
102
RTVSPropertyOp21
 70
     0
102
RTVSPropertyOp22
 70
     0
102
RTVSPropertyOp23
 70
     0
102
RTVSPropertyOp24
 70
     0
102
RTVSPropertyOp25
 70
     0
102
RTVSPropertyOp26
 70
     0
102
RTVSPropertyOp27
 70
     0
102
RTVSPropertyOp28
 70
     1
102
RTVSPropertyOp29
 70
     1
102
RTVSPropertyOp30
 70
     1
102
RTVSPropertyOp31
 70
     1
102
RTVSPropertyOp32
 70
     1
102
RTVSPropertyOp33
 70
     1
102
RTVSPropertyOp34
 70
     1
102
RTVSPropertyOp35
 70
     1
102
RTVSPropertyOp36
 70
     1
102
RTVSPropertyOp37
 70
     0
102
RTVSPropertyOp38
 70
     0
102
RTVSPropertyOp39
 70
     0
102
RTVSPropertyOp40
 70
     0
102
RTVSPropertyOp41
 70
     0
102
RTVSPropertyOp42
 70
     0
102
RTVSPropertyOp43
 70
     0
102
RTVSPropertyOp44
 70
     0
102
RTVSPropertyOp45
 70
     1
102
RTVSPropertyOp46
 70
     0
102
RTVSPropertyOp47
 70
     0
102
RTVSPropertyOp48
 70
     0
102
RTVSPropertyOp49
 70
     1
102
RTVSPropertyOp50
 70
     0
102
RTVSPropertyOp51
 70
     0
102
RTVSPropertyOp52
 70
     0
102
RTVSPropertyOp53
 70
     0
102
RTVSPropertyOp54
 70
     0
102
RTVSPropertyOp55
 70
     1
102
RTVSPropertyOp56
 70
     0
102
RTVSPropertyOp57
 70
     0
102
RTVSPropertyOp58
 70
     0
102
RTVSPropertyOp59
 70
     0
102
RTVSPropertyOp60
 70
     0
102
RTVSPropertyOp61
 70
     0
102
RTVSPropertyOp62
 70
     0
  0
XRECORD
  5
519
102
{ACAD_REACTORS
330
518
102
}
330
518
100
AcDbXrecord
280
     1
102
RTVSPost2010Prop28
280
     0
102
RTVSPost2010PropOp28
 70
     1
102
RTVSPost2010Prop29
280
     1
102
RTVSPost2010PropOp29
 70
     1
102
RTVSPost2010Prop30
280
     1
102
RTVSPost2010PropOp30
 70
     1
102
RTVSPost2010Prop31
280
     0
102
RTVSPost2010PropOp31
 70
     1
102
RTVSPost2010Prop32
280
     0
102
RTVSPost2010PropOp32
 70
     1
102
RTVSPost2010Prop33
280
     0
102
RTVSPost2010PropOp33
 70
     1
102
RTVSPost2010Prop34
280
     0
102
RTVSPost2010PropOp34
 70
     1
102
RTVSPost2010Prop35
280
     0
102
RTVSPost2010PropOp35
 70
     1
102
RTVSPost2010Prop36
280
     0
102
RTVSPost2010PropOp36
 70
     1
102
RTVSPost2010Prop37
 90
       50
102
RTVSPost2010PropOp37
 70
     1
102
RTVSPost2010Prop38
140
0.0
102
RTVSPost2010PropOp38
 70
     1
102
RTVSPost2010Prop39
140
1.0
102
RTVSPost2010PropOp39
 70
     1
102
RTVSPost2010Prop40
 90
        0
102
RTVSPost2010PropOp40
 70
     1
102
RTVSPost2010Prop41ColorIndex
 90
       18
102
RTVSPost2010Prop41ColorRGB
 90
        0
102
RTVSPost2010PropOp41
 70
     1
102
RTVSPost2010Prop42
 90
       50
102
RTVSPost2010PropOp42
 70
     1
102
RTVSPost2010Prop43
 90
        3
102
RTVSPost2010PropOp43
 70
     1
102
RTVSPost2010Prop44ColorIndex
 90
        5
102
RTVSPost2010Prop44ColorRGB
 90
      255
102
RTVSPost2010PropOp44
 70
     1
102
RTVSPost2010Prop45
280
     0
102
RTVSPost2010PropOp45
 70
     1
102
RTVSPost2010Prop46
 90
       50
102
RTVSPost2010PropOp46
 70
     1
102
RTVSPost2010Prop47
 90
       50
102
RTVSPost2010PropOp47
 70
     1
102
RTVSPost2010Prop48
 90
       50
102
RTVSPost2010PropOp48
 70
     1
102
RTVSPost2010Prop49
280
     0
102
RTVSPost2010PropOp49
 70
     1
102
RTVSPost2010Prop50
 90
       50
102
RTVSPost2010PropOp50
 70
     1
102
RTVSPost2010Prop51ColorIndex
 90
      256
102
RTVSPost2010Prop51ColorRGB
 90
-16777216
102
RTVSPost2010PropOp51
 70
     0
102
RTVSPost2010Prop52
140
1.0
102
RTVSPost2010PropOp52
 70
     0
102
RTVSPost2010Prop53
 90
        2
102
RTVSPost2010PropOp53
 70
     1
102
RTVSPost2010Prop54
  1
strokes_ogs.tif
102
RTVSPost2010PropOp54
 70
     1
102
RTVSPost2010Prop55
280
     0
102
RTVSPost2010PropOp55
 70
     1
102
RTVSPost2010Prop56
140
1.0
102
RTVSPost2010PropOp56
 70
     1
102
RTVSPost2010Prop57
140
1.0
102
RTVSPost2010PropOp57
 70
     1
102
RTVSPropertyOp0
 70
     1
102
RTVSPropertyOp1
 70
     1
102
RTVSPropertyOp2
 70
     1
102
RTVSPropertyOp3
 70
     1
102
RTVSPropertyOp4
 70
     1
102
RTVSPropertyOp5
 70
     1
102
RTVSPropertyOp6
 70
     1
102
RTVSPropertyOp7
 70
     1
102
RTVSPropertyOp8
 70
     1
102
RTVSPropertyOp9
 70
     1
102
RTVSPropertyOp10
 70
     1
102
RTVSPropertyOp11
 70
     1
102
RTVSPropertyOp12
 70
     1
102
RTVSPropertyOp13
 70
     1
102
RTVSPropertyOp14
 70
     1
102
RTVSPropertyOp15
 70
     1
102
RTVSPropertyOp16
 70
     1
102
RTVSPropertyOp17
 70
     1
102
RTVSPropertyOp18
 70
     1
102
RTVSPropertyOp19
 70
     1
102
RTVSPropertyOp20
 70
     1
102
RTVSPropertyOp21
 70
     1
102
RTVSPropertyOp22
 70
     1
102
RTVSPropertyOp23
 70
     1
102
RTVSPropertyOp24
 70
     1
102
RTVSPropertyOp25
 70
     1
102
RTVSPropertyOp26
 70
     1
102
RTVSPropertyOp27
 70
     1
102
RTVSPropertyOp28
 70
     1
102
RTVSPropertyOp29
 70
     1
102
RTVSPropertyOp30
 70
     1
102
RTVSPropertyOp31
 70
     1
102
RTVSPropertyOp32
 70
     1
102
RTVSPropertyOp33
 70
     1
102
RTVSPropertyOp34
 70
     1
102
RTVSPropertyOp35
 70
     1
102
RTVSPropertyOp36
 70
     1
102
RTVSPropertyOp37
 70
     1
102
RTVSPropertyOp38
 70
     1
102
RTVSPropertyOp39
 70
     1
102
RTVSPropertyOp40
 70
     1
102
RTVSPropertyOp41
 70
     1
102
RTVSPropertyOp42
 70
     1
102
RTVSPropertyOp43
 70
     1
102
RTVSPropertyOp44
 70
     1
102
RTVSPropertyOp45
 70
     1
102
RTVSPropertyOp46
 70
     1
102
RTVSPropertyOp47
 70
     1
102
RTVSPropertyOp48
 70
     1
102
RTVSPropertyOp49
 70
     1
102
RTVSPropertyOp50
 70
     1
102
RTVSPropertyOp51
 70
     0
102
RTVSPropertyOp52
 70
     0
102
RTVSPropertyOp53
 70
     1
102
RTVSPropertyOp54
 70
     1
102
RTVSPropertyOp55
 70
     1
102
RTVSPropertyOp56
 70
     1
102
RTVSPropertyOp57
 70
     1
102
RTVSPropertyOp58
 70
     1
102
RTVSPropertyOp59
 70
     1
102
RTVSPropertyOp60
 70
     1
102
RTVSPropertyOp61
 70
     1
102
RTVSPropertyOp62
 70
     1
  0
XRECORD
  5
538
102
{ACAD_REACTORS
330
537
102
}
330
537
100
AcDbXrecord
280
     1
102
RTVSPost2010Prop28
280
     0
102
RTVSPost2010PropOp28
 70
     1
102
RTVSPost2010Prop29
280
     1
102
RTVSPost2010PropOp29
 70
     1
102
RTVSPost2010Prop30
280
     1
102
RTVSPost2010PropOp30
 70
     1
102
RTVSPost2010Prop31
280
     0
102
RTVSPost2010PropOp31
 70
     1
102
RTVSPost2010Prop32
280
     0
102
RTVSPost2010PropOp32
 70
     1
102
RTVSPost2010Prop33
280
     0
102
RTVSPost2010PropOp33
 70
     1
102
RTVSPost2010Prop34
280
     0
102
RTVSPost2010PropOp34
 70
     1
102
RTVSPost2010Prop35
280
     0
102
RTVSPost2010PropOp35
 70
     1
102
RTVSPost2010Prop36
280
     0
102
RTVSPost2010PropOp36
 70
     1
102
RTVSPost2010Prop37
 90
       50
102
RTVSPost2010PropOp37
 70
     1
102
RTVSPost2010Prop38
140
0.0
102
RTVSPost2010PropOp38
 70
     1
102
RTVSPost2010Prop39
140
1.0
102
RTVSPost2010PropOp39
 70
     1
102
RTVSPost2010Prop40
 90
        0
102
RTVSPost2010PropOp40
 70
     1
102
RTVSPost2010Prop41ColorIndex
 90
       18
102
RTVSPost2010Prop41ColorRGB
 90
        0
102
RTVSPost2010PropOp41
 70
     1
102
RTVSPost2010Prop42
 90
       50
102
RTVSPost2010PropOp42
 70
     1
102
RTVSPost2010Prop43
 90
        3
102
RTVSPost2010PropOp43
 70
     1
102
RTVSPost2010Prop44ColorIndex
 90
        5
102
RTVSPost2010Prop44ColorRGB
 90
      255
102
RTVSPost2010PropOp44
 70
     1
102
RTVSPost2010Prop45
280
     0
102
RTVSPost2010PropOp45
 70
     1
102
RTVSPost2010Prop46
 90
       50
102
RTVSPost2010PropOp46
 70
     1
102
RTVSPost2010Prop47
 90
       50
102
RTVSPost2010PropOp47
 70
     1
102
RTVSPost2010Prop48
 90
       50
102
RTVSPost2010PropOp48
 70
     1
102
RTVSPost2010Prop49
280
     0
102
RTVSPost2010PropOp49
 70
     1
102
RTVSPost2010Prop50
 90
       50
102
RTVSPost2010PropOp50
 70
     1
102
RTVSPost2010Prop51ColorIndex
 90
      256
102
RTVSPost2010Prop51ColorRGB
 90
-16777216
102
RTVSPost2010PropOp51
 70
     0
102
RTVSPost2010Prop52
140
1.0
102
RTVSPost2010PropOp52
 70
     0
102
RTVSPost2010Prop53
 90
        2
102
RTVSPost2010PropOp53
 70
     1
102
RTVSPost2010Prop54
  1
strokes_ogs.tif
102
RTVSPost2010PropOp54
 70
     1
102
RTVSPost2010Prop55
280
     0
102
RTVSPost2010PropOp55
 70
     1
102
RTVSPost2010Prop56
140
1.0
102
RTVSPost2010PropOp56
 70
     1
102
RTVSPost2010Prop57
140
1.0
102
RTVSPost2010PropOp57
 70
     1
102
RTVSPropertyOp0
 70
     1
102
RTVSPropertyOp1
 70
     1
102
RTVSPropertyOp2
 70
     1
102
RTVSPropertyOp3
 70
     1
102
RTVSPropertyOp4
 70
     1
102
RTVSPropertyOp5
 70
     1
102
RTVSPropertyOp6
 70
     1
102
RTVSPropertyOp7
 70
     1
102
RTVSPropertyOp8
 70
     1
102
RTVSPropertyOp9
 70
     1
102
RTVSPropertyOp10
 70
     1
102
RTVSPropertyOp11
 70
     1
102
RTVSPropertyOp12
 70
     1
102
RTVSPropertyOp13
 70
     1
102
RTVSPropertyOp14
 70
     1
102
RTVSPropertyOp15
 70
     1
102
RTVSPropertyOp16
 70
     1
102
RTVSPropertyOp17
 70
     1
102
RTVSPropertyOp18
 70
     1
102
RTVSPropertyOp19
 70
     1
102
RTVSPropertyOp20
 70
     1
102
RTVSPropertyOp21
 70
     1
102
RTVSPropertyOp22
 70
     1
102
RTVSPropertyOp23
 70
     1
102
RTVSPropertyOp24
 70
     1
102
RTVSPropertyOp25
 70
     1
102
RTVSPropertyOp26
 70
     1
102
RTVSPropertyOp27
 70
     1
102
RTVSPropertyOp28
 70
     1
102
RTVSPropertyOp29
 70
     1
102
RTVSPropertyOp30
 70
     1
102
RTVSPropertyOp31
 70
     1
102
RTVSPropertyOp32
 70
     1
102
RTVSPropertyOp33
 70
     1
102
RTVSPropertyOp34
 70
     1
102
RTVSPropertyOp35
 70
     1
102
RTVSPropertyOp36
 70
     1
102
RTVSPropertyOp37
 70
     1
102
RTVSPropertyOp38
 70
     1
102
RTVSPropertyOp39
 70
     1
102
RTVSPropertyOp40
 70
     1
102
RTVSPropertyOp41
 70
     1
102
RTVSPropertyOp42
 70
     1
102
RTVSPropertyOp43
 70
     1
102
RTVSPropertyOp44
 70
     1
102
RTVSPropertyOp45
 70
     1
102
RTVSPropertyOp46
 70
     1
102
RTVSPropertyOp47
 70
     1
102
RTVSPropertyOp48
 70
     1
102
RTVSPropertyOp49
 70
     1
102
RTVSPropertyOp50
 70
     1
102
RTVSPropertyOp51
 70
     0
102
RTVSPropertyOp52
 70
     0
102
RTVSPropertyOp53
 70
     1
102
RTVSPropertyOp54
 70
     1
102
RTVSPropertyOp55
 70
     1
102
RTVSPropertyOp56
 70
     1
102
RTVSPropertyOp57
 70
     1
102
RTVSPropertyOp58
 70
     1
102
RTVSPropertyOp59
 70
     1
102
RTVSPropertyOp60
 70
     1
102
RTVSPropertyOp61
 70
     1
102
RTVSPropertyOp62
 70
     1
  0
XRECORD
  5
536
102
{ACAD_REACTORS
330
535
102
}
330
535
100
AcDbXrecord
280
     1
102
RTVSPost2010Prop28
280
     0
102
RTVSPost2010PropOp28
 70
     1
102
RTVSPost2010Prop29
280
     1
102
RTVSPost2010PropOp29
 70
     1
102
RTVSPost2010Prop30
280
     1
102
RTVSPost2010PropOp30
 70
     1
102
RTVSPost2010Prop31
280
     0
102
RTVSPost2010PropOp31
 70
     1
102
RTVSPost2010Prop32
280
     0
102
RTVSPost2010PropOp32
 70
     1
102
RTVSPost2010Prop33
280
     0
102
RTVSPost2010PropOp33
 70
     1
102
RTVSPost2010Prop34
280
     0
102
RTVSPost2010PropOp34
 70
     1
102
RTVSPost2010Prop35
280
     0
102
RTVSPost2010PropOp35
 70
     1
102
RTVSPost2010Prop36
280
     0
102
RTVSPost2010PropOp36
 70
     1
102
RTVSPost2010Prop37
 90
       50
102
RTVSPost2010PropOp37
 70
     1
102
RTVSPost2010Prop38
140
0.0
102
RTVSPost2010PropOp38
 70
     1
102
RTVSPost2010Prop39
140
1.0
102
RTVSPost2010PropOp39
 70
     1
102
RTVSPost2010Prop40
 90
        0
102
RTVSPost2010PropOp40
 70
     1
102
RTVSPost2010Prop41ColorIndex
 90
       18
102
RTVSPost2010Prop41ColorRGB
 90
        0
102
RTVSPost2010PropOp41
 70
     1
102
RTVSPost2010Prop42
 90
       50
102
RTVSPost2010PropOp42
 70
     1
102
RTVSPost2010Prop43
 90
        3
102
RTVSPost2010PropOp43
 70
     1
102
RTVSPost2010Prop44ColorIndex
 90
        5
102
RTVSPost2010Prop44ColorRGB
 90
      255
102
RTVSPost2010PropOp44
 70
     1
102
RTVSPost2010Prop45
280
     0
102
RTVSPost2010PropOp45
 70
     1
102
RTVSPost2010Prop46
 90
       50
102
RTVSPost2010PropOp46
 70
     1
102
RTVSPost2010Prop47
 90
       50
102
RTVSPost2010PropOp47
 70
     1
102
RTVSPost2010Prop48
 90
       50
102
RTVSPost2010PropOp48
 70
     1
102
RTVSPost2010Prop49
280
     0
102
RTVSPost2010PropOp49
 70
     1
102
RTVSPost2010Prop50
 90
       50
102
RTVSPost2010PropOp50
 70
     1
102
RTVSPost2010Prop51ColorIndex
 90
      256
102
RTVSPost2010Prop51ColorRGB
 90
-16777216
102
RTVSPost2010PropOp51
 70
     0
102
RTVSPost2010Prop52
140
1.0
102
RTVSPost2010PropOp52
 70
     0
102
RTVSPost2010Prop53
 90
        2
102
RTVSPost2010PropOp53
 70
     1
102
RTVSPost2010Prop54
  1
strokes_ogs.tif
102
RTVSPost2010PropOp54
 70
     1
102
RTVSPost2010Prop55
280
     0
102
RTVSPost2010PropOp55
 70
     1
102
RTVSPost2010Prop56
140
1.0
102
RTVSPost2010PropOp56
 70
     1
102
RTVSPost2010Prop57
140
1.0
102
RTVSPost2010PropOp57
 70
     1
102
RTVSPropertyOp0
 70
     1
102
RTVSPropertyOp1
 70
     1
102
RTVSPropertyOp2
 70
     1
102
RTVSPropertyOp3
 70
     1
102
RTVSPropertyOp4
 70
     1
102
RTVSPropertyOp5
 70
     1
102
RTVSPropertyOp6
 70
     1
102
RTVSPropertyOp7
 70
     1
102
RTVSPropertyOp8
 70
     1
102
RTVSPropertyOp9
 70
     1
102
RTVSPropertyOp10
 70
     1
102
RTVSPropertyOp11
 70
     1
102
RTVSPropertyOp12
 70
     1
102
RTVSPropertyOp13
 70
     1
102
RTVSPropertyOp14
 70
     1
102
RTVSPropertyOp15
 70
     1
102
RTVSPropertyOp16
 70
     1
102
RTVSPropertyOp17
 70
     1
102
RTVSPropertyOp18
 70
     1
102
RTVSPropertyOp19
 70
     1
102
RTVSPropertyOp20
 70
     1
102
RTVSPropertyOp21
 70
     1
102
RTVSPropertyOp22
 70
     1
102
RTVSPropertyOp23
 70
     1
102
RTVSPropertyOp24
 70
     1
102
RTVSPropertyOp25
 70
     1
102
RTVSPropertyOp26
 70
     1
102
RTVSPropertyOp27
 70
     1
102
RTVSPropertyOp28
 70
     1
102
RTVSPropertyOp29
 70
     1
102
RTVSPropertyOp30
 70
     1
102
RTVSPropertyOp31
 70
     1
102
RTVSPropertyOp32
 70
     1
102
RTVSPropertyOp33
 70
     1
102
RTVSPropertyOp34
 70
     1
102
RTVSPropertyOp35
 70
     1
102
RTVSPropertyOp36
 70
     1
102
RTVSPropertyOp37
 70
     1
102
RTVSPropertyOp38
 70
     1
102
RTVSPropertyOp39
 70
     1
102
RTVSPropertyOp40
 70
     1
102
RTVSPropertyOp41
 70
     1
102
RTVSPropertyOp42
 70
     1
102
RTVSPropertyOp43
 70
     1
102
RTVSPropertyOp44
 70
     1
102
RTVSPropertyOp45
 70
     1
102
RTVSPropertyOp46
 70
     1
102
RTVSPropertyOp47
 70
     1
102
RTVSPropertyOp48
 70
     1
102
RTVSPropertyOp49
 70
     1
102
RTVSPropertyOp50
 70
     1
102
RTVSPropertyOp51
 70
     0
102
RTVSPropertyOp52
 70
     0
102
RTVSPropertyOp53
 70
     1
102
RTVSPropertyOp54
 70
     1
102
RTVSPropertyOp55
 70
     1
102
RTVSPropertyOp56
 70
     1
102
RTVSPropertyOp57
 70
     1
102
RTVSPropertyOp58
 70
     1
102
RTVSPropertyOp59
 70
     1
102
RTVSPropertyOp60
 70
     1
102
RTVSPropertyOp61
 70
     1
102
RTVSPropertyOp62
 70
     1
  0
XRECORD
  5
530
102
{ACAD_REACTORS
330
52F
102
}
330
52F
100
AcDbXrecord
280
     1
102
RTVSPost2010Prop28
280
     0
102
RTVSPost2010PropOp28
 70
     1
102
RTVSPost2010Prop29
280
     1
102
RTVSPost2010PropOp29
 70
     1
102
RTVSPost2010Prop30
280
     1
102
RTVSPost2010PropOp30
 70
     1
102
RTVSPost2010Prop31
280
     0
102
RTVSPost2010PropOp31
 70
     1
102
RTVSPost2010Prop32
280
     0
102
RTVSPost2010PropOp32
 70
     1
102
RTVSPost2010Prop33
280
     0
102
RTVSPost2010PropOp33
 70
     1
102
RTVSPost2010Prop34
280
     0
102
RTVSPost2010PropOp34
 70
     1
102
RTVSPost2010Prop35
280
     0
102
RTVSPost2010PropOp35
 70
     1
102
RTVSPost2010Prop36
280
     0
102
RTVSPost2010PropOp36
 70
     1
102
RTVSPost2010Prop37
 90
       50
102
RTVSPost2010PropOp37
 70
     1
102
RTVSPost2010Prop38
140
0.0
102
RTVSPost2010PropOp38
 70
     1
102
RTVSPost2010Prop39
140
1.0
102
RTVSPost2010PropOp39
 70
     1
102
RTVSPost2010Prop40
 90
        0
102
RTVSPost2010PropOp40
 70
     1
102
RTVSPost2010Prop41ColorIndex
 90
       18
102
RTVSPost2010Prop41ColorRGB
 90
        0
102
RTVSPost2010PropOp41
 70
     1
102
RTVSPost2010Prop42
 90
       50
102
RTVSPost2010PropOp42
 70
     1
102
RTVSPost2010Prop43
 90
        3
102
RTVSPost2010PropOp43
 70
     1
102
RTVSPost2010Prop44ColorIndex
 90
        5
102
RTVSPost2010Prop44ColorRGB
 90
      255
102
RTVSPost2010PropOp44
 70
     1
102
RTVSPost2010Prop45
280
     0
102
RTVSPost2010PropOp45
 70
     1
102
RTVSPost2010Prop46
 90
       50
102
RTVSPost2010PropOp46
 70
     1
102
RTVSPost2010Prop47
 90
       50
102
RTVSPost2010PropOp47
 70
     1
102
RTVSPost2010Prop48
 90
       50
102
RTVSPost2010PropOp48
 70
     1
102
RTVSPost2010Prop49
280
     0
102
RTVSPost2010PropOp49
 70
     1
102
RTVSPost2010Prop50
 90
       50
102
RTVSPost2010PropOp50
 70
     1
102
RTVSPost2010Prop51ColorIndex
 90
      256
102
RTVSPost2010Prop51ColorRGB
 90
-16777216
102
RTVSPost2010PropOp51
 70
     0
102
RTVSPost2010Prop52
140
1.0
102
RTVSPost2010PropOp52
 70
     0
102
RTVSPost2010Prop53
 90
        2
102
RTVSPost2010PropOp53
 70
     1
102
RTVSPost2010Prop54
  1
strokes_ogs.tif
102
RTVSPost2010PropOp54
 70
     1
102
RTVSPost2010Prop55
280
     0
102
RTVSPost2010PropOp55
 70
     1
102
RTVSPost2010Prop56
140
1.0
102
RTVSPost2010PropOp56
 70
     1
102
RTVSPost2010Prop57
140
1.0
102
RTVSPost2010PropOp57
 70
     1
102
RTVSPropertyOp0
 70
     1
102
RTVSPropertyOp1
 70
     1
102
RTVSPropertyOp2
 70
     1
102
RTVSPropertyOp3
 70
     1
102
RTVSPropertyOp4
 70
     1
102
RTVSPropertyOp5
 70
     1
102
RTVSPropertyOp6
 70
     1
102
RTVSPropertyOp7
 70
     1
102
RTVSPropertyOp8
 70
     1
102
RTVSPropertyOp9
 70
     1
102
RTVSPropertyOp10
 70
     1
102
RTVSPropertyOp11
 70
     1
102
RTVSPropertyOp12
 70
     1
102
RTVSPropertyOp13
 70
     1
102
RTVSPropertyOp14
 70
     1
102
RTVSPropertyOp15
 70
     1
102
RTVSPropertyOp16
 70
     1
102
RTVSPropertyOp17
 70
     1
102
RTVSPropertyOp18
 70
     1
102
RTVSPropertyOp19
 70
     1
102
RTVSPropertyOp20
 70
     1
102
RTVSPropertyOp21
 70
     1
102
RTVSPropertyOp22
 70
     1
102
RTVSPropertyOp23
 70
     1
102
RTVSPropertyOp24
 70
     1
102
RTVSPropertyOp25
 70
     1
102
RTVSPropertyOp26
 70
     1
102
RTVSPropertyOp27
 70
     1
102
RTVSPropertyOp28
 70
     1
102
RTVSPropertyOp29
 70
     1
102
RTVSPropertyOp30
 70
     1
102
RTVSPropertyOp31
 70
     1
102
RTVSPropertyOp32
 70
     1
102
RTVSPropertyOp33
 70
     1
102
RTVSPropertyOp34
 70
     1
102
RTVSPropertyOp35
 70
     1
102
RTVSPropertyOp36
 70
     1
102
RTVSPropertyOp37
 70
     1
102
RTVSPropertyOp38
 70
     1
102
RTVSPropertyOp39
 70
     1
102
RTVSPropertyOp40
 70
     1
102
RTVSPropertyOp41
 70
     1
102
RTVSPropertyOp42
 70
     1
102
RTVSPropertyOp43
 70
     1
102
RTVSPropertyOp44
 70
     1
102
RTVSPropertyOp45
 70
     1
102
RTVSPropertyOp46
 70
     1
102
RTVSPropertyOp47
 70
     1
102
RTVSPropertyOp48
 70
     1
102
RTVSPropertyOp49
 70
     1
102
RTVSPropertyOp50
 70
     1
102
RTVSPropertyOp51
 70
     0
102
RTVSPropertyOp52
 70
     0
102
RTVSPropertyOp53
 70
     1
102
RTVSPropertyOp54
 70
     1
102
RTVSPropertyOp55
 70
     1
102
RTVSPropertyOp56
 70
     1
102
RTVSPropertyOp57
 70
     1
102
RTVSPropertyOp58
 70
     1
102
RTVSPropertyOp59
 70
     1
102
RTVSPropertyOp60
 70
     1
102
RTVSPropertyOp61
 70
     1
102
RTVSPropertyOp62
 70
     1
  0
XRECORD
  5
532
102
{ACAD_REACTORS
330
531
102
}
330
531
100
AcDbXrecord
280
     1
102
RTVSPost2010Prop28
280
     0
102
RTVSPost2010PropOp28
 70
     1
102
RTVSPost2010Prop29
280
     1
102
RTVSPost2010PropOp29
 70
     1
102
RTVSPost2010Prop30
280
     1
102
RTVSPost2010PropOp30
 70
     1
102
RTVSPost2010Prop31
280
     0
102
RTVSPost2010PropOp31
 70
     1
102
RTVSPost2010Prop32
280
     0
102
RTVSPost2010PropOp32
 70
     1
102
RTVSPost2010Prop33
280
     0
102
RTVSPost2010PropOp33
 70
     1
102
RTVSPost2010Prop34
280
     0
102
RTVSPost2010PropOp34
 70
     1
102
RTVSPost2010Prop35
280
     0
102
RTVSPost2010PropOp35
 70
     1
102
RTVSPost2010Prop36
280
     0
102
RTVSPost2010PropOp36
 70
     1
102
RTVSPost2010Prop37
 90
       50
102
RTVSPost2010PropOp37
 70
     1
102
RTVSPost2010Prop38
140
0.0
102
RTVSPost2010PropOp38
 70
     1
102
RTVSPost2010Prop39
140
1.0
102
RTVSPost2010PropOp39
 70
     1
102
RTVSPost2010Prop40
 90
        0
102
RTVSPost2010PropOp40
 70
     1
102
RTVSPost2010Prop41ColorIndex
 90
       18
102
RTVSPost2010Prop41ColorRGB
 90
        0
102
RTVSPost2010PropOp41
 70
     1
102
RTVSPost2010Prop42
 90
       50
102
RTVSPost2010PropOp42
 70
     1
102
RTVSPost2010Prop43
 90
        3
102
RTVSPost2010PropOp43
 70
     1
102
RTVSPost2010Prop44ColorIndex
 90
        5
102
RTVSPost2010Prop44ColorRGB
 90
      255
102
RTVSPost2010PropOp44
 70
     1
102
RTVSPost2010Prop45
280
     0
102
RTVSPost2010PropOp45
 70
     1
102
RTVSPost2010Prop46
 90
       50
102
RTVSPost2010PropOp46
 70
     1
102
RTVSPost2010Prop47
 90
       50
102
RTVSPost2010PropOp47
 70
     1
102
RTVSPost2010Prop48
 90
       50
102
RTVSPost2010PropOp48
 70
     1
102
RTVSPost2010Prop49
280
     0
102
RTVSPost2010PropOp49
 70
     1
102
RTVSPost2010Prop50
 90
       50
102
RTVSPost2010PropOp50
 70
     1
102
RTVSPost2010Prop51ColorIndex
 90
      256
102
RTVSPost2010Prop51ColorRGB
 90
-16777216
102
RTVSPost2010PropOp51
 70
     0
102
RTVSPost2010Prop52
140
1.0
102
RTVSPost2010PropOp52
 70
     0
102
RTVSPost2010Prop53
 90
        2
102
RTVSPost2010PropOp53
 70
     1
102
RTVSPost2010Prop54
  1
strokes_ogs.tif
102
RTVSPost2010PropOp54
 70
     1
102
RTVSPost2010Prop55
280
     0
102
RTVSPost2010PropOp55
 70
     1
102
RTVSPost2010Prop56
140
1.0
102
RTVSPost2010PropOp56
 70
     1
102
RTVSPost2010Prop57
140
1.0
102
RTVSPost2010PropOp57
 70
     1
102
RTVSPropertyOp0
 70
     1
102
RTVSPropertyOp1
 70
     1
102
RTVSPropertyOp2
 70
     1
102
RTVSPropertyOp3
 70
     1
102
RTVSPropertyOp4
 70
     1
102
RTVSPropertyOp5
 70
     1
102
RTVSPropertyOp6
 70
     1
102
RTVSPropertyOp7
 70
     1
102
RTVSPropertyOp8
 70
     1
102
RTVSPropertyOp9
 70
     1
102
RTVSPropertyOp10
 70
     1
102
RTVSPropertyOp11
 70
     1
102
RTVSPropertyOp12
 70
     1
102
RTVSPropertyOp13
 70
     1
102
RTVSPropertyOp14
 70
     1
102
RTVSPropertyOp15
 70
     1
102
RTVSPropertyOp16
 70
     1
102
RTVSPropertyOp17
 70
     1
102
RTVSPropertyOp18
 70
     1
102
RTVSPropertyOp19
 70
     1
102
RTVSPropertyOp20
 70
     1
102
RTVSPropertyOp21
 70
     1
102
RTVSPropertyOp22
 70
     1
102
RTVSPropertyOp23
 70
     1
102
RTVSPropertyOp24
 70
     1
102
RTVSPropertyOp25
 70
     1
102
RTVSPropertyOp26
 70
     1
102
RTVSPropertyOp27
 70
     1
102
RTVSPropertyOp28
 70
     1
102
RTVSPropertyOp29
 70
     1
102
RTVSPropertyOp30
 70
     1
102
RTVSPropertyOp31
 70
     1
102
RTVSPropertyOp32
 70
     1
102
RTVSPropertyOp33
 70
     1
102
RTVSPropertyOp34
 70
     1
102
RTVSPropertyOp35
 70
     1
102
RTVSPropertyOp36
 70
     1
102
RTVSPropertyOp37
 70
     1
102
RTVSPropertyOp38
 70
     1
102
RTVSPropertyOp39
 70
     1
102
RTVSPropertyOp40
 70
     1
102
RTVSPropertyOp41
 70
     1
102
RTVSPropertyOp42
 70
     1
102
RTVSPropertyOp43
 70
     1
102
RTVSPropertyOp44
 70
     1
102
RTVSPropertyOp45
 70
     1
102
RTVSPropertyOp46
 70
     1
102
RTVSPropertyOp47
 70
     1
102
RTVSPropertyOp48
 70
     1
102
RTVSPropertyOp49
 70
     1
102
RTVSPropertyOp50
 70
     1
102
RTVSPropertyOp51
 70
     0
102
RTVSPropertyOp52
 70
     0
102
RTVSPropertyOp53
 70
     1
102
RTVSPropertyOp54
 70
     1
102
RTVSPropertyOp55
 70
     1
102
RTVSPropertyOp56
 70
     1
102
RTVSPropertyOp57
 70
     1
102
RTVSPropertyOp58
 70
     1
102
RTVSPropertyOp59
 70
     1
102
RTVSPropertyOp60
 70
     1
102
RTVSPropertyOp61
 70
     1
102
RTVSPropertyOp62
 70
     1
  0
XRECORD
  5
521
102
{ACAD_REACTORS
330
520
102
}
330
520
100
AcDbXrecord
280
     1
102
RTVSPost2010Prop28
280
     0
102
RTVSPost2010PropOp28
 70
     1
102
RTVSPost2010Prop29
280
     1
102
RTVSPost2010PropOp29
 70
     1
102
RTVSPost2010Prop30
280
     1
102
RTVSPost2010PropOp30
 70
     1
102
RTVSPost2010Prop31
280
     0
102
RTVSPost2010PropOp31
 70
     1
102
RTVSPost2010Prop32
280
     0
102
RTVSPost2010PropOp32
 70
     1
102
RTVSPost2010Prop33
280
     0
102
RTVSPost2010PropOp33
 70
     1
102
RTVSPost2010Prop34
280
     0
102
RTVSPost2010PropOp34
 70
     1
102
RTVSPost2010Prop35
280
     0
102
RTVSPost2010PropOp35
 70
     1
102
RTVSPost2010Prop36
280
     0
102
RTVSPost2010PropOp36
 70
     1
102
RTVSPost2010Prop37
 90
       50
102
RTVSPost2010PropOp37
 70
     1
102
RTVSPost2010Prop38
140
0.0
102
RTVSPost2010PropOp38
 70
     1
102
RTVSPost2010Prop39
140
1.0
102
RTVSPost2010PropOp39
 70
     1
102
RTVSPost2010Prop40
 90
        0
102
RTVSPost2010PropOp40
 70
     1
102
RTVSPost2010Prop41ColorIndex
 90
       18
102
RTVSPost2010Prop41ColorRGB
 90
        0
102
RTVSPost2010PropOp41
 70
     1
102
RTVSPost2010Prop42
 90
       50
102
RTVSPost2010PropOp42
 70
     1
102
RTVSPost2010Prop43
 90
        3
102
RTVSPost2010PropOp43
 70
     1
102
RTVSPost2010Prop44ColorIndex
 90
        5
102
RTVSPost2010Prop44ColorRGB
 90
      255
102
RTVSPost2010PropOp44
 70
     1
102
RTVSPost2010Prop45
280
     0
102
RTVSPost2010PropOp45
 70
     1
102
RTVSPost2010Prop46
 90
       50
102
RTVSPost2010PropOp46
 70
     1
102
RTVSPost2010Prop47
 90
       50
102
RTVSPost2010PropOp47
 70
     1
102
RTVSPost2010Prop48
 90
       50
102
RTVSPost2010PropOp48
 70
     1
102
RTVSPost2010Prop49
280
     0
102
RTVSPost2010PropOp49
 70
     1
102
RTVSPost2010Prop50
 90
       50
102
RTVSPost2010PropOp50
 70
     1
102
RTVSPost2010Prop51ColorIndex
 90
      256
102
RTVSPost2010Prop51ColorRGB
 90
-16777216
102
RTVSPost2010PropOp51
 70
     0
102
RTVSPost2010Prop52
140
1.0
102
RTVSPost2010PropOp52
 70
     0
102
RTVSPost2010Prop53
 90
        2
102
RTVSPost2010PropOp53
 70
     1
102
RTVSPost2010Prop54
  1
strokes_ogs.tif
102
RTVSPost2010PropOp54
 70
     1
102
RTVSPost2010Prop55
280
     0
102
RTVSPost2010PropOp55
 70
     1
102
RTVSPost2010Prop56
140
1.0
102
RTVSPost2010PropOp56
 70
     1
102
RTVSPost2010Prop57
140
1.0
102
RTVSPost2010PropOp57
 70
     1
102
RTVSPropertyOp0
 70
     1
102
RTVSPropertyOp1
 70
     1
102
RTVSPropertyOp2
 70
     1
102
RTVSPropertyOp3
 70
     1
102
RTVSPropertyOp4
 70
     1
102
RTVSPropertyOp5
 70
     1
102
RTVSPropertyOp6
 70
     1
102
RTVSPropertyOp7
 70
     1
102
RTVSPropertyOp8
 70
     1
102
RTVSPropertyOp9
 70
     1
102
RTVSPropertyOp10
 70
     1
102
RTVSPropertyOp11
 70
     1
102
RTVSPropertyOp12
 70
     1
102
RTVSPropertyOp13
 70
     1
102
RTVSPropertyOp14
 70
     1
102
RTVSPropertyOp15
 70
     1
102
RTVSPropertyOp16
 70
     1
102
RTVSPropertyOp17
 70
     1
102
RTVSPropertyOp18
 70
     1
102
RTVSPropertyOp19
 70
     1
102
RTVSPropertyOp20
 70
     1
102
RTVSPropertyOp21
 70
     1
102
RTVSPropertyOp22
 70
     1
102
RTVSPropertyOp23
 70
     1
102
RTVSPropertyOp24
 70
     1
102
RTVSPropertyOp25
 70
     1
102
RTVSPropertyOp26
 70
     1
102
RTVSPropertyOp27
 70
     1
102
RTVSPropertyOp28
 70
     1
102
RTVSPropertyOp29
 70
     1
102
RTVSPropertyOp30
 70
     1
102
RTVSPropertyOp31
 70
     1
102
RTVSPropertyOp32
 70
     1
102
RTVSPropertyOp33
 70
     1
102
RTVSPropertyOp34
 70
     1
102
RTVSPropertyOp35
 70
     1
102
RTVSPropertyOp36
 70
     1
102
RTVSPropertyOp37
 70
     1
102
RTVSPropertyOp38
 70
     1
102
RTVSPropertyOp39
 70
     1
102
RTVSPropertyOp40
 70
     1
102
RTVSPropertyOp41
 70
     1
102
RTVSPropertyOp42
 70
     1
102
RTVSPropertyOp43
 70
     1
102
RTVSPropertyOp44
 70
     1
102
RTVSPropertyOp45
 70
     1
102
RTVSPropertyOp46
 70
     1
102
RTVSPropertyOp47
 70
     1
102
RTVSPropertyOp48
 70
     1
102
RTVSPropertyOp49
 70
     1
102
RTVSPropertyOp50
 70
     1
102
RTVSPropertyOp51
 70
     0
102
RTVSPropertyOp52
 70
     0
102
RTVSPropertyOp53
 70
     1
102
RTVSPropertyOp54
 70
     1
102
RTVSPropertyOp55
 70
     1
102
RTVSPropertyOp56
 70
     1
102
RTVSPropertyOp57
 70
     1
102
RTVSPropertyOp58
 70
     1
102
RTVSPropertyOp59
 70
     1
102
RTVSPropertyOp60
 70
     1
102
RTVSPropertyOp61
 70
     1
102
RTVSPropertyOp62
 70
     1
  0
XRECORD
  5
52C
102
{ACAD_REACTORS
330
52B
102
}
330
52B
100
AcDbXrecord
280
     1
102
RTVSPost2010Prop28
280
     0
102
RTVSPost2010PropOp28
 70
     1
102
RTVSPost2010Prop29
280
     1
102
RTVSPost2010PropOp29
 70
     1
102
RTVSPost2010Prop30
280
     1
102
RTVSPost2010PropOp30
 70
     1
102
RTVSPost2010Prop31
280
     0
102
RTVSPost2010PropOp31
 70
     1
102
RTVSPost2010Prop32
280
     0
102
RTVSPost2010PropOp32
 70
     1
102
RTVSPost2010Prop33
280
     0
102
RTVSPost2010PropOp33
 70
     1
102
RTVSPost2010Prop34
280
     0
102
RTVSPost2010PropOp34
 70
     1
102
RTVSPost2010Prop35
280
     0
102
RTVSPost2010PropOp35
 70
     1
102
RTVSPost2010Prop36
280
     0
102
RTVSPost2010PropOp36
 70
     1
102
RTVSPost2010Prop37
 90
       50
102
RTVSPost2010PropOp37
 70
     1
102
RTVSPost2010Prop38
140
0.0
102
RTVSPost2010PropOp38
 70
     1
102
RTVSPost2010Prop39
140
1.0
102
RTVSPost2010PropOp39
 70
     1
102
RTVSPost2010Prop40
 90
        0
102
RTVSPost2010PropOp40
 70
     1
102
RTVSPost2010Prop41ColorIndex
 90
       18
102
RTVSPost2010Prop41ColorRGB
 90
        0
102
RTVSPost2010PropOp41
 70
     1
102
RTVSPost2010Prop42
 90
       50
102
RTVSPost2010PropOp42
 70
     1
102
RTVSPost2010Prop43
 90
        3
102
RTVSPost2010PropOp43
 70
     1
102
RTVSPost2010Prop44ColorIndex
 90
        5
102
RTVSPost2010Prop44ColorRGB
 90
      255
102
RTVSPost2010PropOp44
 70
     1
102
RTVSPost2010Prop45
280
     0
102
RTVSPost2010PropOp45
 70
     1
102
RTVSPost2010Prop46
 90
       50
102
RTVSPost2010PropOp46
 70
     1
102
RTVSPost2010Prop47
 90
       50
102
RTVSPost2010PropOp47
 70
     1
102
RTVSPost2010Prop48
 90
       50
102
RTVSPost2010PropOp48
 70
     1
102
RTVSPost2010Prop49
280
     0
102
RTVSPost2010PropOp49
 70
     1
102
RTVSPost2010Prop50
 90
       50
102
RTVSPost2010PropOp50
 70
     1
102
RTVSPost2010Prop51ColorIndex
 90
      256
102
RTVSPost2010Prop51ColorRGB
 90
-16777216
102
RTVSPost2010PropOp51
 70
     0
102
RTVSPost2010Prop52
140
1.0
102
RTVSPost2010PropOp52
 70
     0
102
RTVSPost2010Prop53
 90
        2
102
RTVSPost2010PropOp53
 70
     1
102
RTVSPost2010Prop54
  1
strokes_ogs.tif
102
RTVSPost2010PropOp54
 70
     1
102
RTVSPost2010Prop55
280
     0
102
RTVSPost2010PropOp55
 70
     1
102
RTVSPost2010Prop56
140
1.0
102
RTVSPost2010PropOp56
 70
     1
102
RTVSPost2010Prop57
140
1.0
102
RTVSPost2010PropOp57
 70
     1
102
RTVSPropertyOp0
 70
     1
102
RTVSPropertyOp1
 70
     1
102
RTVSPropertyOp2
 70
     1
102
RTVSPropertyOp3
 70
     1
102
RTVSPropertyOp4
 70
     1
102
RTVSPropertyOp5
 70
     1
102
RTVSPropertyOp6
 70
     1
102
RTVSPropertyOp7
 70
     1
102
RTVSPropertyOp8
 70
     1
102
RTVSPropertyOp9
 70
     1
102
RTVSPropertyOp10
 70
     1
102
RTVSPropertyOp11
 70
     1
102
RTVSPropertyOp12
 70
     1
102
RTVSPropertyOp13
 70
     1
102
RTVSPropertyOp14
 70
     1
102
RTVSPropertyOp15
 70
     1
102
RTVSPropertyOp16
 70
     1
102
RTVSPropertyOp17
 70
     1
102
RTVSPropertyOp18
 70
     1
102
RTVSPropertyOp19
 70
     1
102
RTVSPropertyOp20
 70
     1
102
RTVSPropertyOp21
 70
     1
102
RTVSPropertyOp22
 70
     1
102
RTVSPropertyOp23
 70
     1
102
RTVSPropertyOp24
 70
     1
102
RTVSPropertyOp25
 70
     1
102
RTVSPropertyOp26
 70
     1
102
RTVSPropertyOp27
 70
     1
102
RTVSPropertyOp28
 70
     1
102
RTVSPropertyOp29
 70
     1
102
RTVSPropertyOp30
 70
     1
102
RTVSPropertyOp31
 70
     1
102
RTVSPropertyOp32
 70
     1
102
RTVSPropertyOp33
 70
     1
102
RTVSPropertyOp34
 70
     1
102
RTVSPropertyOp35
 70
     1
102
RTVSPropertyOp36
 70
     1
102
RTVSPropertyOp37
 70
     1
102
RTVSPropertyOp38
 70
     1
102
RTVSPropertyOp39
 70
     1
102
RTVSPropertyOp40
 70
     1
102
RTVSPropertyOp41
 70
     1
102
RTVSPropertyOp42
 70
     1
102
RTVSPropertyOp43
 70
     1
102
RTVSPropertyOp44
 70
     1
102
RTVSPropertyOp45
 70
     1
102
RTVSPropertyOp46
 70
     1
102
RTVSPropertyOp47
 70
     1
102
RTVSPropertyOp48
 70
     1
102
RTVSPropertyOp49
 70
     1
102
RTVSPropertyOp50
 70
     1
102
RTVSPropertyOp51
 70
     0
102
RTVSPropertyOp52
 70
     0
102
RTVSPropertyOp53
 70
     1
102
RTVSPropertyOp54
 70
     1
102
RTVSPropertyOp55
 70
     1
102
RTVSPropertyOp56
 70
     1
102
RTVSPropertyOp57
 70
     1
102
RTVSPropertyOp58
 70
     1
102
RTVSPropertyOp59
 70
     1
102
RTVSPropertyOp60
 70
     1
102
RTVSPropertyOp61
 70
     1
102
RTVSPropertyOp62
 70
     1
  0
XRECORD
  5
534
102
{ACAD_REACTORS
330
533
102
}
330
533
100
AcDbXrecord
280
     1
102
RTVSPost2010Prop28
280
     0
102
RTVSPost2010PropOp28
 70
     1
102
RTVSPost2010Prop29
280
     1
102
RTVSPost2010PropOp29
 70
     1
102
RTVSPost2010Prop30
280
     1
102
RTVSPost2010PropOp30
 70
     1
102
RTVSPost2010Prop31
280
     0
102
RTVSPost2010PropOp31
 70
     1
102
RTVSPost2010Prop32
280
     0
102
RTVSPost2010PropOp32
 70
     1
102
RTVSPost2010Prop33
280
     0
102
RTVSPost2010PropOp33
 70
     1
102
RTVSPost2010Prop34
280
     0
102
RTVSPost2010PropOp34
 70
     1
102
RTVSPost2010Prop35
280
     0
102
RTVSPost2010PropOp35
 70
     1
102
RTVSPost2010Prop36
280
     0
102
RTVSPost2010PropOp36
 70
     1
102
RTVSPost2010Prop37
 90
       50
102
RTVSPost2010PropOp37
 70
     1
102
RTVSPost2010Prop38
140
0.0
102
RTVSPost2010PropOp38
 70
     1
102
RTVSPost2010Prop39
140
1.0
102
RTVSPost2010PropOp39
 70
     1
102
RTVSPost2010Prop40
 90
        0
102
RTVSPost2010PropOp40
 70
     1
102
RTVSPost2010Prop41ColorIndex
 90
       18
102
RTVSPost2010Prop41ColorRGB
 90
        0
102
RTVSPost2010PropOp41
 70
     1
102
RTVSPost2010Prop42
 90
       50
102
RTVSPost2010PropOp42
 70
     1
102
RTVSPost2010Prop43
 90
        3
102
RTVSPost2010PropOp43
 70
     1
102
RTVSPost2010Prop44ColorIndex
 90
        5
102
RTVSPost2010Prop44ColorRGB
 90
      255
102
RTVSPost2010PropOp44
 70
     1
102
RTVSPost2010Prop45
280
     0
102
RTVSPost2010PropOp45
 70
     1
102
RTVSPost2010Prop46
 90
       50
102
RTVSPost2010PropOp46
 70
     1
102
RTVSPost2010Prop47
 90
       50
102
RTVSPost2010PropOp47
 70
     1
102
RTVSPost2010Prop48
 90
       50
102
RTVSPost2010PropOp48
 70
     1
102
RTVSPost2010Prop49
280
     0
102
RTVSPost2010PropOp49
 70
     1
102
RTVSPost2010Prop50
 90
       50
102
RTVSPost2010PropOp50
 70
     1
102
RTVSPost2010Prop51ColorIndex
 90
      256
102
RTVSPost2010Prop51ColorRGB
 90
-16777216
102
RTVSPost2010PropOp51
 70
     0
102
RTVSPost2010Prop52
140
1.0
102
RTVSPost2010PropOp52
 70
     0
102
RTVSPost2010Prop53
 90
        2
102
RTVSPost2010PropOp53
 70
     1
102
RTVSPost2010Prop54
  1
strokes_ogs.tif
102
RTVSPost2010PropOp54
 70
     1
102
RTVSPost2010Prop55
280
     0
102
RTVSPost2010PropOp55
 70
     1
102
RTVSPost2010Prop56
140
1.0
102
RTVSPost2010PropOp56
 70
     1
102
RTVSPost2010Prop57
140
1.0
102
RTVSPost2010PropOp57
 70
     1
102
RTVSPropertyOp0
 70
     1
102
RTVSPropertyOp1
 70
     1
102
RTVSPropertyOp2
 70
     1
102
RTVSPropertyOp3
 70
     1
102
RTVSPropertyOp4
 70
     1
102
RTVSPropertyOp5
 70
     1
102
RTVSPropertyOp6
 70
     1
102
RTVSPropertyOp7
 70
     1
102
RTVSPropertyOp8
 70
     1
102
RTVSPropertyOp9
 70
     1
102
RTVSPropertyOp10
 70
     1
102
RTVSPropertyOp11
 70
     1
102
RTVSPropertyOp12
 70
     1
102
RTVSPropertyOp13
 70
     1
102
RTVSPropertyOp14
 70
     1
102
RTVSPropertyOp15
 70
     1
102
RTVSPropertyOp16
 70
     1
102
RTVSPropertyOp17
 70
     1
102
RTVSPropertyOp18
 70
     1
102
RTVSPropertyOp19
 70
     1
102
RTVSPropertyOp20
 70
     1
102
RTVSPropertyOp21
 70
     1
102
RTVSPropertyOp22
 70
     1
102
RTVSPropertyOp23
 70
     1
102
RTVSPropertyOp24
 70
     1
102
RTVSPropertyOp25
 70
     1
102
RTVSPropertyOp26
 70
     1
102
RTVSPropertyOp27
 70
     1
102
RTVSPropertyOp28
 70
     1
102
RTVSPropertyOp29
 70
     1
102
RTVSPropertyOp30
 70
     1
102
RTVSPropertyOp31
 70
     1
102
RTVSPropertyOp32
 70
     1
102
RTVSPropertyOp33
 70
     1
102
RTVSPropertyOp34
 70
     1
102
RTVSPropertyOp35
 70
     1
102
RTVSPropertyOp36
 70
     1
102
RTVSPropertyOp37
 70
     1
102
RTVSPropertyOp38
 70
     1
102
RTVSPropertyOp39
 70
     1
102
RTVSPropertyOp40
 70
     1
102
RTVSPropertyOp41
 70
     1
102
RTVSPropertyOp42
 70
     1
102
RTVSPropertyOp43
 70
     1
102
RTVSPropertyOp44
 70
     1
102
RTVSPropertyOp45
 70
     1
102
RTVSPropertyOp46
 70
     1
102
RTVSPropertyOp47
 70
     1
102
RTVSPropertyOp48
 70
     1
102
RTVSPropertyOp49
 70
     1
102
RTVSPropertyOp50
 70
     1
102
RTVSPropertyOp51
 70
     0
102
RTVSPropertyOp52
 70
     0
102
RTVSPropertyOp53
 70
     1
102
RTVSPropertyOp54
 70
     1
102
RTVSPropertyOp55
 70
     1
102
RTVSPropertyOp56
 70
     1
102
RTVSPropertyOp57
 70
     1
102
RTVSPropertyOp58
 70
     1
102
RTVSPropertyOp59
 70
     1
102
RTVSPropertyOp60
 70
     1
102
RTVSPropertyOp61
 70
     1
102
RTVSPropertyOp62
 70
     1
  0
ENDSEC
  0
EOF
